  0
SECTION
  2
HEADER
  9
$ACADVER
  1
AC1021
  9
$DWGCODEPAGE
  3
ANSI_1252
  9
$EXTMAX
 10
11.6929133858
 20
8.2677165354
 30
0.0
  9
$EXTMIN
 10
0.0
 20
0.0
 30
0.0
  9
$LIMMIN
 10
0.0
 20
0.0
  9
$LIMMAX
 10
11.6929133858
 20
8.2677165354
  9
$VIEWCTR
 10
5.8464566929
 20
4.1338582677
  9
$VIEWSIZE
 40
8.2677165354
  9
$CLAYER
  8
0
  9
$LTSCALE
 40
0.6431102362
  9
$CELTYPE
  6
BYLAYER
  9
$DIMSCALE
 40
1.0
  9
$DIMASZ
 40
0.1
  9
$DIMEXO
 40
0.0730807087
  9
$DIMDLI
 40
0.4443307087
  9
$DIMEXE
 40
0.2104724409
  9
$DIMCEN
 40
0.1052362205
  9
$DIMLFAC
 40
1.0
  9
$DIMBLK
  1
_FILLED
  9
$DIMTXT
 40
0.08
  9
$DIMTOL
 70
1
  9
$DIMLIM
 70
0
  9
$DIMTFAC
 40
1.0
  9
$DIMTP
 40
0.001
  9
$DIMTM
 40
0.001
  9
$PDMODE
 70
3
  9
$PDSIZE
 40
0.06
  9
$HANDSEED
  5
25C
  9
$TILEMODE
 70
1
  9
$MEASUREMENT
 70
0
  9
$INSUNITS
 70
1
  0
ENDSEC
  0
SECTION
  2
CLASSES
  0
CLASS
  1
ACDBDICTIONARYWDFLT
  2
AcDbDictionaryWithDefault
  3
AutoCAD 2000
 90
0
 91
1
280
0
281
0
  0
CLASS
  1
ACDBPLACEHOLDER
  2
AcDbPlaceHolder
  3
AutoCAD 2000
 90
0
 91
1
280
0
281
0
  0
CLASS
  1
LAYOUT
  2
AcDbLayout
  3
AutoCAD 2000
 90
0
 91
0
280
0
281
0
  0
ENDSEC
  0
SECTION
  2
TABLES
  0
TABLE
  2
VPORT
  5
8
100
AcDbSymbolTable
 70
2
  0
VPORT
  5
1F4
100
AcDbSymbolTableRecord
100
AcDbViewportTableRecord
  2
*ACTIVE
 70
0
 10
0.0
 20
0.0
 11
1.0
 21
1.0
 12
5.8464566929
 22
4.1338582677
 13
0.0
 23
0.0
 14
1.0
 24
1.0
 15
0.0
 25
0.0
 16
0.0
 26
0.0
 36
1.0
 17
0.0
 27
0.0
 37
0.0
 40
8.2677165354
 41
1.4142857143
 42
50.0
 43
0.0
 44
0.0
 50
0.0
 51
0.0
 71
0
 72
100
 73
1
 74
1
 75
0
 76
0
 77
0
 78
0
  0
ENDTAB
  0
TABLE
  2
LTYPE
  5
5
100
AcDbSymbolTable
 70
6
  0
LTYPE
  5
14
100
AcDbSymbolTableRecord
100
AcDbLinetypeTableRecord
  2
BYBLOCK
 70
0
  3

 72
65
 73
0
 40
0.0
  0
LTYPE
  5
15
100
AcDbSymbolTableRecord
100
AcDbLinetypeTableRecord
  2
BYLAYER
 70
0
  3

 72
65
 73
0
 40
0.0
  0
LTYPE
  5
16
100
AcDbSymbolTableRecord
100
AcDbLinetypeTableRecord
  2
CONTINUOUS
 70
64
  3
Solid line
 72
65
 73
0
 40
0.0
  0
LTYPE
  5
1F5
100
AcDbSymbolTableRecord
100
AcDbLinetypeTableRecord
  2
CENTER
 70
64
  3
____ _ ____ _ ____ _ ____ _ ____ _ ____ _ ____
 72
65
 73
4
 40
0.6
 49
0.375
 74
0
 49
-0.075
 74
0
 49
0.075
 74
0
 49
-0.075
 74
0
  0
LTYPE
  5
1F6
100
AcDbSymbolTableRecord
100
AcDbLinetypeTableRecord
  2
HIDDEN
 70
64
  3
- - - - - - - - - - - - - - - - - - - -
 72
65
 73
2
 40
0.2
 49
0.1
 74
0
 49
-0.1
 74
0
  0
LTYPE
  5
1F7
100
AcDbSymbolTableRecord
100
AcDbLinetypeTableRecord
  2
PHANTOM
 70
64
  3
_____ _ _ _____ _ _ _____ _ _ _____
 72
65
 73
6
 40
0.8
 49
0.45
 74
0
 49
-0.05
 74
0
 49
0.1
 74
0
 49
-0.05
 74
0
 49
0.1
 74
0
 49
-0.05
 74
0
  0
LTYPE
  5
1F8
100
AcDbSymbolTableRecord
100
AcDbLinetypeTableRecord
  2
DOT
 70
64
  3
. . . . . . . . . . . . . . . . . . . .
 72
65
 73
2
 40
0.2
 49
0.1
 74
0
 49
-0.1
 74
0
  0
LTYPE
  5
1F9
100
AcDbSymbolTableRecord
100
AcDbLinetypeTableRecord
  2
DASHED
 70
64
  3
- - - - - - - - - - - - - - - - - - - -
 72
65
 73
2
 40
0.2
 49
0.1
 74
0
 49
-0.1
 74
0
  0
ENDTAB
  0
TABLE
  2
LAYER
  5
2
100
AcDbSymbolTable
 70
36
  0
LAYER
  5
10
100
AcDbSymbolTableRecord
100
AcDbLayerTableRecord
  2
0
 70
0
 62
7
  6
CONTINUOUS
370
-3
390
F
  0
LAYER
  5
1FA
100
AcDbSymbolTableRecord
100
AcDbLayerTableRecord
  2
DEFAULT_1
 70
0
 62
7
  6
CENTER
370
-3
390
F
  0
LAYER
  5
1FB
100
AcDbSymbolTableRecord
100
AcDbLayerTableRecord
  2
DEFAULT_2
 70
0
 62
8
  6
HIDDEN
370
-3
390
F
  0
LAYER
  5
1FC
100
AcDbSymbolTableRecord
100
AcDbLayerTableRecord
  2
DEFAULT_3
 70
0
 62
7
  6
PHANTOM
370
-3
390
F
  0
LAYER
  5
1FD
100
AcDbSymbolTableRecord
100
AcDbLayerTableRecord
  2
DEFAULT_COORDINATE_SYSTEM
 70
0
 62
7
  6
CONTINUOUS
370
-3
390
F
  0
LAYER
  5
1FE
100
AcDbSymbolTableRecord
100
AcDbLayerTableRecord
  2
DEFAULT_DATUM_AXES
 70
0
 62
7
  6
CONTINUOUS
370
-3
390
F
  0
LAYER
  5
1FF
100
AcDbSymbolTableRecord
100
AcDbLayerTableRecord
  2
DEFAULT_DATUM_CURVES
 70
0
 62
7
  6
CONTINUOUS
370
-3
390
F
  0
LAYER
  5
200
100
AcDbSymbolTableRecord
100
AcDbLayerTableRecord
  2
DEFAULT_DATUM_PLANES
 70
0
 62
7
  6
CONTINUOUS
370
-3
390
F
  0
ENDTAB
  0
TABLE
  2
STYLE
  5
3
100
AcDbSymbolTable
 70
1
  0
STYLE
  5
11
100
AcDbSymbolTableRecord
100
AcDbTextStyleTableRecord
  2
STANDARD
 70
0
 40
0.0
 41
0.8
 50
0.0
 71
0
 42
0.2
  3
txt
  4

  0
STYLE
  5
201
100
AcDbSymbolTableRecord
100
AcDbTextStyleTableRecord
  2
TEXTSTYLE_1
 70
0
 40
0.0
 41
0.8
 50
0.0
 71
0
 42
0.2
  3
gdt
  4

  0
ENDTAB
  0
TABLE
  2
VIEW
  5
6
100
AcDbSymbolTable
 70
0
  0
ENDTAB
  0
TABLE
  2
UCS
  5
7
100
AcDbSymbolTable
 70
0
  0
ENDTAB
  0
TABLE
  2
APPID
  5
9
100
AcDbSymbolTable
 70
1
  0
APPID
  5
202
100
AcDbSymbolTableRecord
100
AcDbRegAppTableRecord
  2
ACAD
 70
0
  0
ENDTAB
  0
TABLE
  2
BLOCK_RECORD
  5
1
100
AcDbSymbolTable
 70
0
  0
BLOCK_RECORD
  5
203
100
AcDbSymbolTableRecord
100
AcDbBlockTableRecord
  2
*Model_Space
  0
BLOCK_RECORD
  5
204
100
AcDbSymbolTableRecord
100
AcDbBlockTableRecord
  2
*Paper_Space
  0
ENDTAB
  0
TABLE
  2
DIMSTYLE
  5
A
100
AcDbSymbolTable
 70
1
100
AcDbDimStyleTable
 71
0
  0
DIMSTYLE
105
205
100
AcDbSymbolTableRecord
100
AcDbDimStyleTableRecord
  2
STANDARD
 70
0
  3

  4

 40
1.0
 41
0.1
 42
0.0625
 43
0.38
 44
0.18
 45
0.0
 46
0.0
 47
0.001
 48
0.001
140
0.08
141
0.09
142
0.0
143
25.4
144
1.0
145
0.0
146
1.0
147
0.09
 71
1.0
 72
0.0
 73
1
 74
1
 75
0
 76
0
 77
0
 78
4
170
0
171
2
172
0
173
0
174
0
175
0
176
0
177
0
178
0
270
2
271
3
272
3
273
2
274
2
275
0
280
0
281
0
282
0
283
1
284
4
285
0
286
0
287
3
288
0
340
11
  0
ENDTAB
  0
ENDSEC
  0
SECTION
  2
BLOCKS
  0
BLOCK
  5
20
100
AcDbEntity
  8
0
100
AcDbBlockBegin
  2
*Model_Space
 70
0
 10
0.0
 20
0.0
 30
0.0
  3
*Model_Space
  1

  0
ENDBLK
  5
21
100
AcDbEntity
  8
0
100
AcDbBlockEnd
  0
BLOCK
  5
1C
100
AcDbEntity
  8
0
100
AcDbBlockBegin
  2
*Paper_Space
 70
0
 10
0.0
 20
0.0
 30
0.0
  3
*Paper_Space
  1

  0
ENDBLK
  5
1D
100
AcDbEntity
  8
0
100
AcDbBlockEnd
  0
ENDSEC
  0
SECTION
  2
ENTITIES
  0
LINE
  5
206
100
AcDbEntity
  8
0
100
AcDbLine
 62
6
  6
CONTINUOUS
 10
5.3762471447
 20
3.9214633471
 11
6.0012471447
 21
3.9214633471
  0
LINE
  5
207
100
AcDbEntity
  8
0
100
AcDbLine
 62
6
  6
CONTINUOUS
 10
5.2887471447
 20
4.7094633471
 11
5.2887471447
 21
4.2344633471
  0
LINE
  5
208
100
AcDbEntity
  8
0
100
AcDbLine
 62
9
  6
CONTINUOUS
 10
5.4248819504
 20
4.708115495
 11
5.4248551453
 21
4.7080935013
  0
LINE
  5
209
100
AcDbEntity
  8
0
100
AcDbLine
 62
6
  6
CONTINUOUS
 10
5.3762471447
 20
4.2144633471
 11
5.3762471447
 21
3.9214633471
  0
LINE
  5
20A
100
AcDbEntity
  8
0
100
AcDbLine
 62
9
  6
CONTINUOUS
 10
5.3901998691
 20
4.6684547871
 11
5.3901998691
 21
4.3341476828
  0
LINE
  5
20B
100
AcDbEntity
  8
0
100
AcDbLine
 62
6
  6
CONTINUOUS
 10
5.4262471447
 20
4.8344633471
 11
5.4262471447
 21
4.8044633471
  0
LINE
  5
20C
100
AcDbEntity
  8
0
100
AcDbLine
 62
9
  6
CONTINUOUS
 10
5.4301752689
 20
4.6684611486
 11
5.4301752689
 21
4.3341417118
  0
LINE
  5
20D
100
AcDbEntity
  8
0
100
AcDbLine
 62
9
  6
CONTINUOUS
 10
5.4590525698
 20
4.2635634182
 11
5.4590525698
 21
4.2914443834
  0
LINE
  5
20E
100
AcDbEntity
  8
0
100
AcDbLine
 62
9
  6
CONTINUOUS
 10
6.0012471447
 20
4.2144633471
 11
5.3762471447
 21
4.2144633471
  0
LINE
  5
20F
100
AcDbEntity
  8
0
100
AcDbLine
 62
9
  6
CONTINUOUS
 10
5.9526359427
 20
4.2944905331
 11
5.9526403439
 21
4.2944914799
  0
LINE
  5
210
100
AcDbEntity
  8
0
100
AcDbLine
 62
6
  6
CONTINUOUS
 10
5.288750403
 20
4.2344633471
 11
6.0887438865
 21
4.2344633471
  0
LINE
  5
211
100
AcDbEntity
  8
0
100
AcDbLine
 62
9
  6
CONTINUOUS
 10
5.4248583467
 20
4.2944905331
 11
5.4248539456
 21
4.2944914799
  0
LINE
  5
212
100
AcDbEntity
  8
0
100
AcDbLine
 62
9
  6
CONTINUOUS
 10
5.4301752689
 20
4.3341355873
 11
5.3901752689
 21
4.3341355873
  0
LINE
  5
213
100
AcDbEntity
  8
0
100
AcDbLine
 62
9
  6
CONTINUOUS
 10
5.9473190206
 20
4.3341355873
 11
5.9873190206
 21
4.3341355873
  0
LINE
  5
214
100
AcDbEntity
  8
0
100
AcDbLine
 62
9
  6
CONTINUOUS
 10
5.9184417196
 20
4.2914444755
 11
5.9184417196
 21
4.2635634076
  0
LINE
  5
215
100
AcDbEntity
  8
0
100
AcDbLine
 62
9
  6
CONTINUOUS
 10
5.9473190206
 20
4.3341400905
 11
5.9473190206
 21
4.6684627531
  0
LINE
  5
216
100
AcDbEntity
  8
0
100
AcDbLine
 62
6
  6
CONTINUOUS
 10
5.9512471447
 20
4.8344633471
 11
5.9512471447
 21
4.8044633471
  0
LINE
  5
217
100
AcDbEntity
  8
0
100
AcDbLine
 62
9
  6
CONTINUOUS
 10
5.9872944203
 20
4.3341478364
 11
5.9872944203
 21
4.6684549401
  0
LINE
  5
218
100
AcDbEntity
  8
0
100
AcDbLine
 62
6
  6
CONTINUOUS
 10
6.0012471447
 20
4.2144633471
 11
6.0012471447
 21
3.9214633471
  0
LINE
  5
219
100
AcDbEntity
  8
0
100
AcDbLine
 62
9
  6
CONTINUOUS
 10
5.4301752689
 20
4.6684672882
 11
5.3901752689
 21
4.6684672882
  0
LINE
  5
21A
100
AcDbEntity
  8
0
100
AcDbLine
 62
9
  6
CONTINUOUS
 10
5.9473190206
 20
4.6684672882
 11
5.9873190206
 21
4.6684672882
  0
LINE
  5
21B
100
AcDbEntity
  8
0
100
AcDbLine
 62
6
  6
CONTINUOUS
 10
5.4248819504
 20
4.7094633471
 11
5.288750403
 21
4.7094633471
  0
LINE
  5
21C
100
AcDbEntity
  8
0
100
AcDbLine
 62
6
  6
CONTINUOUS
 10
5.9526123386
 20
4.7094633471
 11
6.0887438865
 21
4.7094633471
  0
LWPOLYLINE
  5
21D
100
AcDbEntity
  8
0
100
AcDbPolyline
 62
6
  6
CONTINUOUS
 90
4
 70
0
 10
5.9526397698
 20
4.708111422
 10
5.7789712634
 20
4.7236738766
 10
5.5989908981
 20
4.7236950845
 10
5.4248545197
 20
4.7081114184
  0
LINE
  5
21E
100
AcDbEntity
  8
0
100
AcDbLine
 62
6
  6
CONTINUOUS
 10
6.0887471447
 20
4.7094633471
 11
6.0887471447
 21
4.2344633471
  0
LINE
  5
21F
100
AcDbEntity
  8
0
100
AcDbLine
 62
6
  6
CONTINUOUS
 10
5.3762471447
 20
4.7844633471
 11
6.0012471447
 21
4.7844633471
  0
LINE
  5
220
100
AcDbEntity
  8
0
100
AcDbLine
 62
9
  6
CONTINUOUS
 10
5.9512471447
 20
4.8044633471
 11
5.4262471447
 21
4.8044633471
  0
LINE
  5
221
100
AcDbEntity
  8
0
100
AcDbLine
 62
9
  6
CONTINUOUS
 10
5.9526123386
 20
4.708115495
 11
5.9526391441
 21
4.7080935013
  0
LINE
  5
222
100
AcDbEntity
  8
0
100
AcDbLine
 62
6
  6
CONTINUOUS
 10
5.4262589395
 20
4.8344633471
 11
5.95123535
 21
4.8344633471
  0
ARC
  5
223
100
AcDbEntity
  8
0
100
AcDbCircle
 62
6
  6
CONTINUOUS
 10
5.4301747165
 20
4.334135001
 40
0.0399988603
100
AcDbArc
 50
212.9746900508
 51
262.3621349598
  0
ARC
  5
224
100
AcDbEntity
  8
0
100
AcDbCircle
 62
9
  6
CONTINUOUS
 10
5.6887470944
 20
2.7383747164
 40
1.9873336611
100
AcDbArc
 50
87.429828954
 51
92.5635313371
  0
ARC
  5
225
100
AcDbEntity
  8
0
100
AcDbCircle
 62
9
  6
CONTINUOUS
 10
5.6884954609
 20
2.7432928433
 40
1.9824092015
100
AcDbArc
 50
92.5626235817
 51
97.6423974931
  0
ARC
  5
226
100
AcDbEntity
  8
0
100
AcDbCircle
 62
9
  6
CONTINUOUS
 10
5.4302318421
 20
4.3342901832
 40
0.0401604103
100
AcDbArc
 50
245.871907148
 51
262.3043817148
  0
ARC
  5
227
100
AcDbEntity
  8
0
100
AcDbCircle
 62
9
  6
CONTINUOUS
 10
5.4303074836
 20
4.334219598
 40
0.0401398593
100
AcDbArc
 50
212.9999602737
 51
226.9282081192
  0
ARC
  5
228
100
AcDbEntity
  8
0
100
AcDbCircle
 62
9
  6
CONTINUOUS
 10
5.4303346934
 20
4.3341560071
 40
0.0401360081
100
AcDbArc
 50
185.3635886655
 51
196.4461543567
  0
ARC
  5
229
100
AcDbEntity
  8
0
100
AcDbCircle
 62
6
  6
CONTINUOUS
 10
5.4301747165
 20
4.334135001
 40
0.0399988603
100
AcDbArc
 50
179.999160149
 51
196.4591835158
  0
ARC
  5
22A
100
AcDbEntity
  8
0
100
AcDbCircle
 62
9
  6
CONTINUOUS
 10
5.4301309703
 20
4.3340839767
 40
0.039917962
100
AcDbArc
 50
196.4591835158
 51
212.9746900508
  0
ARC
  5
22B
100
AcDbEntity
  8
0
100
AcDbCircle
 62
9
  6
CONTINUOUS
 10
5.4301332574
 20
4.3340344657
 40
0.0398856389
100
AcDbArc
 50
226.9294183787
 51
243.6053865445
  0
ARC
  5
22C
100
AcDbEntity
  8
0
100
AcDbCircle
 62
9
  6
CONTINUOUS
 10
5.4300497778
 20
4.3338482489
 40
0.0396826648
100
AcDbArc
 50
243.6122651838
 51
245.850978559
  0
ARC
  5
22D
100
AcDbEntity
  8
0
100
AcDbCircle
 62
9
  6
CONTINUOUS
 10
5.429817679
 20
4.3341191437
 40
0.0396178133
100
AcDbArc
 50
179.9762190327
 51
185.3804027594
  0
ARC
  5
22E
100
AcDbEntity
  8
0
100
AcDbCircle
 62
6
  6
CONTINUOUS
 10
5.3562471447
 20
4.2144633471
 40
0.02
100
AcDbArc
 50
0.0
 51
75.6479515481
  0
ARC
  5
22F
100
AcDbEntity
  8
0
100
AcDbCircle
 62
6
  6
CONTINUOUS
 10
5.4301742447
 20
4.668468311
 40
0.0399983061
100
AcDbArc
 50
135.1575565701
 51
180.0014650387
  0
ARC
  5
230
100
AcDbEntity
  8
0
100
AcDbCircle
 62
9
  6
CONTINUOUS
 10
5.6883490127
 20
6.0190227646
 40
1.7703783632
100
AcDbArc
 50
262.5582194649
 51
270.0128849454
  0
ARC
  5
231
100
AcDbEntity
  8
0
100
AcDbCircle
 62
6
  6
CONTINUOUS
 10
5.3012471447
 20
4.7844633471
 40
0.075
100
AcDbArc
 50
271.0053048626
 51
360.0
  0
ARC
  5
232
100
AcDbEntity
  8
0
100
AcDbCircle
 62
9
  6
CONTINUOUS
 10
5.4303018908
 20
4.6681512823
 40
0.0403118827
100
AcDbArc
 50
97.7652776714
 51
113.7031000377
  0
ARC
  5
233
100
AcDbEntity
  8
0
100
AcDbCircle
 62
9
  6
CONTINUOUS
 10
5.4303524863
 20
4.6683182052
 40
0.0401925391
100
AcDbArc
 50
135.1541244741
 51
146.7972434024
  0
ARC
  5
234
100
AcDbEntity
  8
0
100
AcDbCircle
 62
9
  6
CONTINUOUS
 10
5.4302307701
 20
4.6684376397
 40
0.0400224129
100
AcDbArc
 50
120.0874207095
 51
135.1575565701
  0
ARC
  5
235
100
AcDbEntity
  8
0
100
AcDbCircle
 62
6
  6
CONTINUOUS
 10
5.4301742447
 20
4.668468311
 40
0.0399983061
100
AcDbArc
 50
97.6031792091
 51
120.0874207095
  0
ARC
  5
236
100
AcDbEntity
  8
0
100
AcDbCircle
 62
9
  6
CONTINUOUS
 10
5.43015336
 20
4.6684726677
 40
0.0399413435
100
AcDbArc
 50
146.8262236208
 51
175.6999217477
  0
ARC
  5
237
100
AcDbEntity
  8
0
100
AcDbCircle
 62
9
  6
CONTINUOUS
 10
5.4300849139
 20
4.6686990863
 40
0.0397230727
100
AcDbArc
 50
113.7341729706
 51
120.0944377242
  0
ARC
  5
238
100
AcDbEntity
  8
0
100
AcDbCircle
 62
9
  6
CONTINUOUS
 10
5.4298600912
 20
4.6684429694
 40
0.0396602295
100
AcDbArc
 50
175.6995564633
 51
179.9648674801
  0
ARC
  5
239
100
AcDbEntity
  8
0
100
AcDbCircle
 62
6
  6
CONTINUOUS
 10
5.4062471447
 20
4.8044633471
 40
0.02
100
AcDbArc
 50
270.0000023928
 51
360.0
  0
ARC
  5
23A
100
AcDbEntity
  8
0
100
AcDbCircle
 62
6
  6
CONTINUOUS
 10
5.947319571
 20
4.3341350002
 40
0.0399988596
100
AcDbArc
 50
343.5408164911
 51
0.0008410612
  0
ARC
  5
23B
100
AcDbEntity
  8
0
100
AcDbCircle
 62
6
  6
CONTINUOUS
 10
5.947319571
 20
4.3341350002
 40
0.0399988596
100
AcDbArc
 50
313.070581977
 51
327.0253099687
  0
ARC
  5
23C
100
AcDbEntity
  8
0
100
AcDbCircle
 62
9
  6
CONTINUOUS
 10
5.6892393524
 20
2.745983324
 40
1.9797106388
100
AcDbArc
 50
82.3541463361
 51
87.434186694
  0
ARC
  5
23D
100
AcDbEntity
  8
0
100
AcDbCircle
 62
9
  6
CONTINUOUS
 10
5.6887531272
 20
2.7405880933
 40
1.9451371065
100
AcDbArc
 50
82.3610949705
 51
97.6392606213
  0
ARC
  5
23E
100
AcDbEntity
  8
0
100
AcDbCircle
 62
9
  6
CONTINUOUS
 10
5.9472624473
 20
4.3342901832
 40
0.0401604103
100
AcDbArc
 50
277.6956182843
 51
294.1280928598
  0
ARC
  5
23F
100
AcDbEntity
  8
0
100
AcDbCircle
 62
9
  6
CONTINUOUS
 10
5.9471868059
 20
4.334219598
 40
0.0401398593
100
AcDbArc
 50
313.0717922351
 51
327.0000397458
  0
ARC
  5
240
100
AcDbEntity
  8
0
100
AcDbCircle
 62
9
  6
CONTINUOUS
 10
5.9471595961
 20
4.3341560071
 40
0.0401360081
100
AcDbArc
 50
343.5538456501
 51
354.6364114157
  0
ARC
  5
241
100
AcDbEntity
  8
0
100
AcDbCircle
 62
6
  6
CONTINUOUS
 10
5.947319571
 20
4.3341350002
 40
0.0399988596
100
AcDbArc
 50
277.6378679454
 51
296.3946137296
  0
ARC
  5
242
100
AcDbEntity
  8
0
100
AcDbCircle
 62
9
  6
CONTINUOUS
 10
5.9473633192
 20
4.3340839767
 40
0.039917962
100
AcDbArc
 50
327.0253099687
 51
343.5408164911
  0
ARC
  5
243
100
AcDbEntity
  8
0
100
AcDbCircle
 62
9
  6
CONTINUOUS
 10
5.9473610321
 20
4.3340344657
 40
0.0398856389
100
AcDbArc
 50
296.3946137296
 51
313.070581977
  0
ARC
  5
244
100
AcDbEntity
  8
0
100
AcDbCircle
 62
9
  6
CONTINUOUS
 10
5.947542093
 20
4.3341254364
 40
0.0397523286
100
AcDbArc
 50
354.6287475078
 51
0.0146307809
  0
ARC
  5
245
100
AcDbEntity
  8
0
100
AcDbCircle
 62
9
  6
CONTINUOUS
 10
5.9474445116
 20
4.3338482489
 40
0.0396826649
100
AcDbArc
 50
294.1490214491
 51
296.3877350912
  0
ARC
  5
246
100
AcDbEntity
  8
0
100
AcDbCircle
 62
6
  6
CONTINUOUS
 10
6.0212471447
 20
4.2144633471
 40
0.02
100
AcDbArc
 50
104.3520484519
 51
180.0
  0
ARC
  5
247
100
AcDbEntity
  8
0
100
AcDbCircle
 62
6
  6
CONTINUOUS
 10
5.9473200442
 20
4.6684683074
 40
0.0399983087
100
AcDbArc
 50
59.9139371934
 51
82.3968213243
  0
ARC
  5
248
100
AcDbEntity
  8
0
100
AcDbCircle
 62
6
  6
CONTINUOUS
 10
5.6887471492
 20
6.2632267104
 40
1.9863424738
100
AcDbArc
 50
262.3654660897
 51
277.6345336569
  0
ARC
  5
249
100
AcDbEntity
  8
0
100
AcDbCircle
 62
9
  6
CONTINUOUS
 10
5.6887525449
 20
6.2625745541
 40
1.9456925322
100
AcDbArc
 50
262.3629477267
 51
277.6367307043
  0
ARC
  5
24A
100
AcDbEntity
  8
0
100
AcDbCircle
 62
9
  6
CONTINUOUS
 10
5.6890973958
 20
6.0192926115
 40
1.7706503155
100
AcDbArc
 50
269.9886663785
 51
277.4421861084
  0
ARC
  5
24B
100
AcDbEntity
  8
0
100
AcDbCircle
 62
6
  6
CONTINUOUS
 10
6.0762471447
 20
4.7844633471
 40
0.075
100
AcDbArc
 50
180.0
 51
268.9946951374
  0
ARC
  5
24C
100
AcDbEntity
  8
0
100
AcDbCircle
 62
9
  6
CONTINUOUS
 10
5.9471923986
 20
4.6681512823
 40
0.0403118827
100
AcDbArc
 50
66.2968999686
 51
82.2347223312
  0
ARC
  5
24D
100
AcDbEntity
  8
0
100
AcDbCircle
 62
6
  6
CONTINUOUS
 10
5.9473200442
 20
4.6684683074
 40
0.0399983087
100
AcDbArc
 50
359.9985400881
 51
4.3000783136
  0
ARC
  5
24E
100
AcDbEntity
  8
0
100
AcDbCircle
 62
9
  6
CONTINUOUS
 10
5.9473409295
 20
4.6684726677
 40
0.0399413435
100
AcDbArc
 50
4.3000783136
 51
59.9139371934
  0
ARC
  5
24F
100
AcDbEntity
  8
0
100
AcDbCircle
 62
9
  6
CONTINUOUS
 10
5.9474093755
 20
4.6686990863
 40
0.0397230727
100
AcDbArc
 50
59.905562261
 51
66.2658270358
  0
ARC
  5
250
100
AcDbEntity
  8
0
100
AcDbCircle
 62
9
  6
CONTINUOUS
 10
5.9477434831
 20
4.6684471062
 40
0.0395509423
100
AcDbArc
 50
0.0292368314
 51
4.3063392885
  0
ARC
  5
251
100
AcDbEntity
  8
0
100
AcDbCircle
 62
6
  6
CONTINUOUS
 10
5.9712471447
 20
4.8044633471
 40
0.02
100
AcDbArc
 50
180.0
 51
269.9999976072
  0
SPLINE
  5
252
100
AcDbEntity
  8
0
100
AcDbSpline
 62
9
  6
CONTINUOUS
 70
0
 71
3
 72
15
 73
11
 74
9
 42
0.0000001
 43
0.0000001
 44
0.0000000001
 12
-0.0423211166
 22
0.0218623929
 32
0.0
 13
-0.0375731339
 23
0.0292796985
 33
0.0
 40
0.0
 40
0.0
 40
0.0
 40
0.0
 40
0.2734158836
 40
0.4059504395
 40
0.5351728482
 40
0.6604845964
 40
0.7808759168
 40
0.8948308816
 40
0.9487283267
 40
1.0
 40
1.0
 40
1.0
 40
1.0
 10
5.9184422701
 20
4.2635613622
 30
0.0
 10
5.9145851816
 20
4.2655538707
 30
0.0
 10
5.9088908495
 20
4.2685756729
 30
0.0
 10
5.9014530121
 20
4.2726853661
 30
0.0
 10
5.8961146235
 20
4.2757311931
 30
0.0
 10
5.8909941206
 20
4.2787683895
 30
0.0
 10
5.8861459358
 20
4.2817871287
 30
0.0
 10
5.8823305186
 20
4.2843168135
 30
0.0
 10
5.879492003
 20
4.2863292818
 30
0.0
 10
5.8781557428
 20
4.2873313145
 30
0.0
 10
5.8775135969
 20
4.2878317209
 30
0.0
 11
5.9184422701
 21
4.2635613622
 31
0.0
 11
5.9069384678
 21
4.2696677136
 31
0.0
 11
5.9014141046
 21
4.2727235352
 31
0.0
 11
5.8960695086
 21
4.2757771758
 31
0.0
 11
5.8909382584
 21
4.2788269465
 31
0.0
 11
5.8860742161
 21
4.2818648296
 31
0.0
 11
5.8815574336
 21
4.2848754509
 31
0.0
 11
5.8794648417
 21
4.2863628901
 31
0.0
 11
5.8775135969
 21
4.2878317209
 31
0.0
  0
SPLINE
  5
253
100
AcDbEntity
  8
0
100
AcDbSpline
 62
9
  6
CONTINUOUS
 70
0
 71
3
 72
9
 73
5
 74
3
 42
0.0000001
 43
0.0000001
 44
0.0000000001
 12
-0.0109308087
 22
0.026578721
 32
0.0
 13
-0.008546159
 23
0.0274385523
 33
0.0
 40
0.0
 40
0.0
 40
0.0
 40
0.0
 40
0.5059503061
 40
1.0
 40
1.0
 40
1.0
 40
1.0
 10
5.9184417196
 20
4.2635634076
 30
0.0
 10
5.9165982376
 20
4.2680459116
 30
0.0
 10
5.9131284642
 20
4.2769781978
 30
0.0
 10
5.9100518652
 20
4.2860544669
 30
0.0
 10
5.9086444562
 20
4.2905731364
 30
0.0
 11
5.9184417196
 21
4.2635634076
 31
0.0
 11
5.9131878188
 21
4.277121355
 31
0.0
 11
5.9086444562
 21
4.2905731364
 31
0.0
  0
SPLINE
  5
254
100
AcDbEntity
  8
0
100
AcDbSpline
 62
9
  6
CONTINUOUS
 70
0
 71
3
 72
9
 73
5
 74
3
 42
0.0000001
 43
0.0000001
 44
0.0000000001
 12
0.0109436106
 22
0.0265853252
 32
0.0
 13
0.0085497089
 23
0.0274489454
 33
0.0
 40
0.0
 40
0.0
 40
0.0
 40
0.0
 40
0.5059384432
 40
1.0
 40
1.0
 40
1.0
 40
1.0
 10
5.4590525698
 20
4.2635634182
 30
0.0
 10
5.4608981676
 20
4.2680469309
 30
0.0
 10
5.464367688
 20
4.2769833108
 30
0.0
 10
5.4674450601
 20
4.2860631328
 30
0.0
 10
5.4688530876
 20
4.2905836224
 30
0.0
 11
5.4590525698
 21
4.2635634182
 31
0.0
 11
5.4643085154
 21
4.2771261646
 31
0.0
 11
5.4688530876
 21
4.2905836224
 31
0.0
  0
SPLINE
  5
255
100
AcDbEntity
  8
0
100
AcDbSpline
 62
9
  6
CONTINUOUS
 70
0
 71
3
 72
15
 73
11
 74
9
 42
0.0000001
 43
0.0000001
 44
0.0000000001
 12
0.0423096236
 22
0.021885294
 32
0.0
 13
0.0375731037
 23
0.029280236
 33
0.0
 40
0.0
 40
0.0
 40
0.0
 40
0.0
 40
0.2734096427
 40
0.4059387835
 40
0.535168087
 40
0.6604797326
 40
0.7808737566
 40
0.8948276167
 40
0.9487292747
 40
1.0
 40
1.0
 40
1.0
 40
1.0
 10
5.4590519925
 20
4.2635613586
 30
0.0
 10
5.4629079455
 20
4.2655559088
 30
0.0
 10
5.4686029634
 20
4.2685760277
 30
0.0
 10
5.4760411958
 20
4.2726849956
 30
0.0
 10
5.4813794684
 20
4.2757311504
 30
0.0
 10
5.4865000887
 20
4.2787685131
 30
0.0
 10
5.4913484031
 20
4.2817871642
 30
0.0
 10
5.4951638708
 20
4.2843169842
 30
0.0
 10
5.4980026519
 20
4.2863291751
 30
0.0
 10
5.4993389777
 20
4.2873312279
 30
0.0
 10
5.4999811112
 20
4.2878316342
 30
0.0
 11
5.4590519925
 21
4.2635613586
 31
0.0
 11
5.4705554021
 21
4.2696679947
 31
0.0
 11
5.4760798544
 21
4.2727232061
 31
0.0
 11
5.4814246984
 21
4.2757771544
 31
0.0
 11
5.4865559341
 21
4.2788270153
 31
0.0
 11
5.491420151
 21
4.2818649316
 31
0.0
 11
5.4959369717
 21
4.2848754637
 31
0.0
 11
5.4980298584
 21
4.286362863
 31
0.0
 11
5.4999811112
 21
4.2878316342
 31
0.0
  0
LINE
  5
256
100
AcDbEntity
  8
0
100
AcDbLine
 62
9
  6
CONTINUOUS
 10
5.4301752692
 20
4.6684672882
 11
5.4248815505
 21
4.7081151807
  0
LINE
  5
257
100
AcDbEntity
  8
0
100
AcDbLine
 62
9
  6
CONTINUOUS
 10
5.9473190203
 20
4.6684672882
 11
5.9526127384
 21
4.7081151808
  0
LINE
  5
258
100
AcDbEntity
  8
0
100
AcDbLine
 62
9
  6
CONTINUOUS
 10
5.4301752692
 20
4.3341355873
 11
5.4248583331
 21
4.2944905406
  0
LINE
  5
259
100
AcDbEntity
  8
0
100
AcDbLine
 62
9
  6
CONTINUOUS
 10
5.9473190203
 20
4.3341355873
 11
5.9526359564
 21
4.2944905406
  0
ENDSEC
  0
SECTION
  2
OBJECTS
  0
DICTIONARY
  5
C
100
AcDbDictionary
280
0
281
1
  3
ACAD_GROUP
350
D
  3
ACAD_MLINESTYLE
350
17
  3
ACAD_LAYOUT
350
1A
  3
ACAD_PLOTSETTINGS
350
19
  3
ACAD_PLOTSTYLENAME
350
E
  0
DICTIONARY
  5
D
102
{ACAD_REACTORS
330
C
102
}
100
AcDbDictionary
280
0
281
1
  0
ACDBDICTIONARYWDFLT
  5
E
102
{ACAD_REACTORS
330
C
102
}
100
AcDbDictionary
281
1
  3
Normal
350
F
100
AcDbDictionaryWithDefault
340
F
  0
DICTIONARY
  5
17
102
{ACAD_REACTORS
330
C
102
}
100
AcDbDictionary
280
0
281
1
  3
Standard
350
18
  0
DICTIONARY
  5
19
102
{ACAD_REACTORS
330
C
102
}
100
AcDbDictionary
281
1
  0
DICTIONARY
  5
1A
102
{ACAD_REACTORS
330
C
102
}
100
AcDbDictionary
281
1
  3
Model
350
25A
  3
Layout1
350
25B
  0
ACDBPLACEHOLDER
  5
F
102
{ACAD_REACTORS
330
E
102
}
  0
MLINESTYLE
  5
18
102
{ACAD_REACTORS
330
17
102
}
100
AcDbMlineStyle
  2
STANDARD
 70
0
  3

 62
256
 51
90.0
 52
90.0
 71
2
 49
0.5
 62
256
  6
BYLAYER
 49
-0.5
 62
256
  6
BYLAYER
  0
LAYOUT
  5
25A
102
{ACAD_REACTORS
330
1A
102
}
100
AcDbPlotSettings
  1

  2
none_device
  4
ISO_A4_(297.00_x_210.00_MM)
  6

 40
0.0
 41
0.0
 42
0.0
 43
0.0
 44
297.0
 45
210.0
 46
0.0
 47
0.0
 48
0.0
 49
0.0
140
0.0
141
0.0
142
1.0
143
1.0
 70
1024
 72
0
 73
0
 74
0
  7

 75
0
147
1.0
148
0.0
149
0.0
100
AcDbLayout
  1
Model
 70
0
 71
0
 10
0.0
 20
0.0
 11
11.6929133858
 21
8.2677165354
 12
0.0
 22
0.0
 32
0.0
 14
0.0
 24
0.0
 34
0.0
 15
0.0
 25
0.0
 35
0.0
146
0.0
 13
0.0
 23
0.0
 33
0.0
 16
1.0
 26
0.0
 36
0.0
 17
0.0
 27
1.0
 37
0.0
 76
0
330
203
345
0
346
0
  0
LAYOUT
  5
25B
102
{ACAD_REACTORS
330
1A
102
}
100
AcDbPlotSettings
  1

  2
none_device
  4
ISO_A4_(297.00_x_210.00_MM)
  6

 40
0.0
 41
0.0
 42
0.0
 43
0.0
 44
297.0
 45
210.0
 46
0.0
 47
0.0
 48
0.0
 49
0.0
140
0.0
141
0.0
142
1.0
143
1.0
 70
0
 72
0
 73
0
 74
0
  7

 75
0
147
1.0
148
0.0
149
0.0
100
AcDbLayout
  1
Layout1
 70
0
 71
1
 10
0.0
 20
0.0
 11
11.6929133858
 21
8.2677165354
 12
0.0
 22
0.0
 32
0.0
 14
0.0
 24
0.0
 34
0.0
 15
0.0
 25
0.0
 35
0.0
146
0.0
 13
0.0
 23
0.0
 33
0.0
 16
1.0
 26
0.0
 36
0.0
 17
0.0
 27
1.0
 37
0.0
 76
0
330
204
345
0
346
0
  0
ENDSEC
  0
EOF
