999
DXF file: 2-533_FRONT.dxf
999
Pro/ENGINEER 2009300 by Parametric Technology Corporation
  0
SECTION
  2
HEADER
  9
$ACADVER
  1
AC1015
  9
$DWGCODEPAGE
  3
ANSI_1252
  9
$EXTMAX
 10
11.6929133858
 20
8.2677165354
 30
0.0
  9
$EXTMIN
 10
0.0
 20
0.0
 30
0.0
  9
$LIMMIN
 10
0.0
 20
0.0
  9
$LIMMAX
 10
11.6929133858
 20
8.2677165354
  9
$VIEWCTR
 10
5.8464566929
 20
4.1338582677
  9
$VIEWSIZE
 40
8.2677165354
  9
$CLAYER
  8
0
  9
$LTSCALE
 40
0.6431102362
  9
$CELTYPE
  6
BYLAYER
  9
$DIMSCALE
 40
1.0
  9
$DIMASZ
 40
0.1
  9
$DIMEXO
 40
0.0730807087
  9
$DIMDLI
 40
0.4443307087
  9
$DIMEXE
 40
0.2104724409
  9
$DIMCEN
 40
0.1052362205
  9
$DIMLFAC
 40
1.0
  9
$DIMBLK
  1
_FILLED
  9
$DIMTXT
 40
0.08
  9
$DIMTOL
 70
1
  9
$DIMLIM
 70
0
  9
$DIMTFAC
 40
1.0
  9
$DIMTP
 40
0.01
  9
$DIMTM
 40
0.01
  9
$PDMODE
 70
3
  9
$PDSIZE
 40
0.06
  9
$HANDSEED
  5
254
  9
$TILEMODE
 70
1
  9
$MEASUREMENT
 70
0
  9
$INSUNITS
 70
1
  0
ENDSEC
  0
SECTION
  2
CLASSES
  0
CLASS
  1
ACDBDICTIONARYWDFLT
  2
AcDbDictionaryWithDefault
  3
AutoCAD 2000
 90
0
280
0
281
0
  0
CLASS
  1
ACDBPLACEHOLDER
  2
AcDbPlaceHolder
  3
AutoCAD 2000
 90
0
280
0
281
0
  0
CLASS
  1
LAYOUT
  2
AcDbLayout
  3
AutoCAD 2000
 90
0
280
0
281
0
  0
ENDSEC
  0
SECTION
  2
TABLES
  0
TABLE
  2
VPORT
  5
8
100
AcDbSymbolTable
 70
2
  0
VPORT
  5
1F4
100
AcDbSymbolTableRecord
100
AcDbViewportTableRecord
  2
*ACTIVE
 70
0
 10
0.0
 20
0.0
 11
1.0
 21
1.0
 12
5.8464566929
 22
4.1338582677
 13
0.0
 23
0.0
 14
1.0
 24
1.0
 15
0.0
 25
0.0
 16
0.0
 26
0.0
 36
1.0
 17
0.0
 27
0.0
 37
0.0
 40
8.2677165354
 41
1.4142857143
 42
50.0
 43
0.0
 44
0.0
 50
0.0
 51
0.0
 71
0
 72
100
 73
1
 74
1
 75
0
 76
0
 77
0
 78
0
  0
ENDTAB
  0
TABLE
  2
LTYPE
  5
5
100
AcDbSymbolTable
 70
6
  0
LTYPE
  5
14
100
AcDbSymbolTableRecord
100
AcDbLinetypeTableRecord
  2
BYBLOCK
 70
0
  3

 72
65
 73
0
 40
0.0
  0
LTYPE
  5
15
100
AcDbSymbolTableRecord
100
AcDbLinetypeTableRecord
  2
BYLAYER
 70
0
  3

 72
65
 73
0
 40
0.0
  0
LTYPE
  5
16
100
AcDbSymbolTableRecord
100
AcDbLinetypeTableRecord
  2
CONTINUOUS
 70
64
  3
Solid line
 72
65
 73
0
 40
0.0
  0
LTYPE
  5
1F5
100
AcDbSymbolTableRecord
100
AcDbLinetypeTableRecord
  2
CENTER
 70
64
  3
____ _ ____ _ ____ _ ____ _ ____ _ ____ _ ____
 72
65
 73
4
 40
0.6
 49
0.375
 74
0
 49
-0.075
 74
0
 49
0.075
 74
0
 49
-0.075
 74
0
  0
LTYPE
  5
1F6
100
AcDbSymbolTableRecord
100
AcDbLinetypeTableRecord
  2
HIDDEN
 70
64
  3
- - - - - - - - - - - - - - - - - - - -
 72
65
 73
2
 40
0.2
 49
0.1
 74
0
 49
-0.1
 74
0
  0
LTYPE
  5
1F7
100
AcDbSymbolTableRecord
100
AcDbLinetypeTableRecord
  2
PHANTOM
 70
64
  3
_____ _ _ _____ _ _ _____ _ _ _____
 72
65
 73
6
 40
0.8
 49
0.45
 74
0
 49
-0.05
 74
0
 49
0.1
 74
0
 49
-0.05
 74
0
 49
0.1
 74
0
 49
-0.05
 74
0
  0
LTYPE
  5
1F8
100
AcDbSymbolTableRecord
100
AcDbLinetypeTableRecord
  2
DOT
 70
64
  3
. . . . . . . . . . . . . . . . . . . .
 72
65
 73
2
 40
0.2
 49
0.1
 74
0
 49
-0.1
 74
0
  0
LTYPE
  5
1F9
100
AcDbSymbolTableRecord
100
AcDbLinetypeTableRecord
  2
DASHED
 70
64
  3
- - - - - - - - - - - - - - - - - - - -
 72
65
 73
2
 40
0.2
 49
0.1
 74
0
 49
-0.1
 74
0
  0
ENDTAB
  0
TABLE
  2
LAYER
  5
2
100
AcDbSymbolTable
 70
36
  0
LAYER
  5
10
100
AcDbSymbolTableRecord
100
AcDbLayerTableRecord
  2
0
 70
0
 62
7
  6
CONTINUOUS
370
-3
390
F
  0
LAYER
  5
1FA
100
AcDbSymbolTableRecord
100
AcDbLayerTableRecord
  2
DEFAULT_1
 70
0
 62
7
  6
CENTER
370
-3
390
F
  0
LAYER
  5
1FB
100
AcDbSymbolTableRecord
100
AcDbLayerTableRecord
  2
DEFAULT_2
 70
0
 62
8
  6
HIDDEN
370
-3
390
F
  0
LAYER
  5
1FC
100
AcDbSymbolTableRecord
100
AcDbLayerTableRecord
  2
DEFAULT_3
 70
0
 62
7
  6
PHANTOM
370
-3
390
F
  0
LAYER
  5
1FD
100
AcDbSymbolTableRecord
100
AcDbLayerTableRecord
  2
DEFAULT_COORDINATE_SYSTEM
 70
0
 62
7
  6
CONTINUOUS
370
-3
390
F
  0
LAYER
  5
1FE
100
AcDbSymbolTableRecord
100
AcDbLayerTableRecord
  2
DEFAULT_DATUM_AXES
 70
0
 62
7
  6
CONTINUOUS
370
-3
390
F
  0
LAYER
  5
1FF
100
AcDbSymbolTableRecord
100
AcDbLayerTableRecord
  2
DEFAULT_DATUM_CURVES
 70
0
 62
7
  6
CONTINUOUS
370
-3
390
F
  0
LAYER
  5
200
100
AcDbSymbolTableRecord
100
AcDbLayerTableRecord
  2
DEFAULT_DATUM_PLANES
 70
0
 62
7
  6
CONTINUOUS
370
-3
390
F
  0
ENDTAB
  0
TABLE
  2
STYLE
  5
3
100
AcDbSymbolTable
 70
1
  0
STYLE
  5
11
100
AcDbSymbolTableRecord
100
AcDbTextStyleTableRecord
  2
STANDARD
 70
0
 40
0.0
 41
0.8
 50
0.0
 71
0
 42
0.2
  3
txt
  4

  0
STYLE
  5
201
100
AcDbSymbolTableRecord
100
AcDbTextStyleTableRecord
  2
TEXTSTYLE_1
 70
0
 40
0.0
 41
0.8
 50
0.0
 71
0
 42
0.2
  3
gdt
  4

  0
ENDTAB
  0
TABLE
  2
VIEW
  5
6
100
AcDbSymbolTable
 70
0
  0
ENDTAB
  0
TABLE
  2
UCS
  5
7
100
AcDbSymbolTable
 70
0
  0
ENDTAB
  0
TABLE
  2
APPID
  5
9
100
AcDbSymbolTable
 70
1
  0
APPID
  5
202
100
AcDbSymbolTableRecord
100
AcDbRegAppTableRecord
  2
ACAD
 70
0
  0
ENDTAB
  0
TABLE
  2
BLOCK_RECORD
  5
1
100
AcDbSymbolTable
 70
0
  0
BLOCK_RECORD
  5
203
100
AcDbSymbolTableRecord
100
AcDbBlockTableRecord
  2
*Model_Space
  0
BLOCK_RECORD
  5
204
100
AcDbSymbolTableRecord
100
AcDbBlockTableRecord
  2
*Paper_Space
  0
ENDTAB
  0
TABLE
  2
DIMSTYLE
  5
A
100
AcDbSymbolTable
 70
1
100
AcDbDimStyleTable
 71
0
  0
DIMSTYLE
105
205
100
AcDbSymbolTableRecord
100
AcDbDimStyleTableRecord
  2
STANDARD
 70
0
  3

  4

 40
1.0
 41
0.1
 42
0.0625
 43
0.38
 44
0.18
 45
0.0
 46
0.0
 47
0.01
 48
0.01
140
0.08
141
0.09
142
0.0
143
25.4
144
1.0
145
0.0
146
1.0
147
0.09
 71
1.0
 72
0.0
 73
1
 74
1
 75
0
 76
0
 77
0
 78
4
170
0
171
2
172
0
173
0
174
0
175
0
176
0
177
0
178
0
270
2
271
2
272
2
273
2
274
2
275
0
280
0
281
0
282
0
283
1
284
4
285
0
286
0
287
3
288
0
340
11
  0
ENDTAB
  0
ENDSEC
  0
SECTION
  2
BLOCKS
  0
BLOCK
  5
20
100
AcDbEntity
  8
0
100
AcDbBlockBegin
  2
*Model_Space
 70
0
 10
0.0
 20
0.0
 30
0.0
  3
*Model_Space
  1

  0
ENDBLK
  5
21
100
AcDbEntity
  8
0
100
AcDbBlockEnd
  0
BLOCK
  5
1C
100
AcDbEntity
  8
0
100
AcDbBlockBegin
  2
*Paper_Space
 70
0
 10
0.0
 20
0.0
 30
0.0
  3
*Paper_Space
  1

  0
ENDBLK
  5
1D
100
AcDbEntity
  8
0
100
AcDbBlockEnd
  0
ENDSEC
  0
SECTION
  2
ENTITIES
  0
LINE
  5
206
100
AcDbEntity
  8
0
100
AcDbLine
 62
9
  6
CONTINUOUS
 10
4.8205369589
 20
4.2105058088
 11
4.8205369589
 21
4.6626777372
  0
LINE
  5
207
100
AcDbEntity
  8
0
100
AcDbLine
 62
9
  6
CONTINUOUS
 10
4.9010526394
 20
4.2668834953
 11
4.9010526394
 21
4.6063000507
  0
LINE
  5
208
100
AcDbEntity
  8
0
100
AcDbLine
 62
6
  6
CONTINUOUS
 10
4.9262298624
 20
4.2475008833
 11
4.9262298624
 21
4.6256826627
  0
LINE
  5
209
100
AcDbEntity
  8
0
100
AcDbLine
 62
9
  6
CONTINUOUS
 10
4.951093021
 20
4.2456744798
 11
4.951093021
 21
4.6275090662
  0
LINE
  5
20A
100
AcDbEntity
  8
0
100
AcDbLine
 62
6
  6
CONTINUOUS
 10
5.7012397475
 20
3.146591773
 11
6.1412199773
 21
3.146591773
  0
LINE
  5
20B
100
AcDbEntity
  8
0
100
AcDbLine
 62
6
  6
CONTINUOUS
 10
5.6712298624
 20
3.176591773
 11
6.1712298624
 21
3.176591773
  0
LINE
  5
20C
100
AcDbEntity
  8
0
100
AcDbLine
 62
6
  6
CONTINUOUS
 10
4.9010526394
 20
4.2668834953
 11
4.8205369589
 21
4.2105058088
  0
LINE
  5
20D
100
AcDbEntity
  8
0
100
AcDbLine
 62
6
  6
CONTINUOUS
 10
5.7012298624
 20
3.146591773
 11
5.6712298624
 21
3.176591773
  0
LINE
  5
20E
100
AcDbEntity
  8
0
100
AcDbLine
 62
9
  6
CONTINUOUS
 10
5.3125638526
 20
4.623269709
 11
5.3125638526
 21
4.2499138371
  0
LINE
  5
20F
100
AcDbEntity
  8
0
100
AcDbLine
 62
6
  6
CONTINUOUS
 10
5.6712298624
 20
3.176591773
 11
5.6712298624
 21
4.018591773
  0
LINE
  5
210
100
AcDbEntity
  8
0
100
AcDbLine
 62
6
  6
CONTINUOUS
 10
4.9010526394
 20
4.6063000507
 11
4.8205369589
 21
4.6626777372
  0
LINE
  5
211
100
AcDbEntity
  8
0
100
AcDbLine
 62
6
  6
CONTINUOUS
 10
5.3912298614
 20
4.7365917748
 11
5.3830747939
 21
4.750716766
  0
LINE
  5
212
100
AcDbEntity
  8
0
100
AcDbLine
 62
9
  6
CONTINUOUS
 10
6.1712298624
 20
4.018591773
 11
5.6712298624
 21
4.018591773
  0
LINE
  5
213
100
AcDbEntity
  8
0
100
AcDbLine
 62
6
  6
CONTINUOUS
 10
6.4512298635
 20
4.7365917748
 11
6.4593849309
 21
4.750716766
  0
LINE
  5
214
100
AcDbEntity
  8
0
100
AcDbLine
 62
9
  6
CONTINUOUS
 10
5.4165298045
 20
4.136591773
 11
6.4259299204
 21
4.136591773
  0
LINE
  5
215
100
AcDbEntity
  8
0
100
AcDbLine
 62
9
  6
CONTINUOUS
 10
5.3416732032
 20
4.1903254922
 11
5.7971732827
 21
4.1903254996
  0
LINE
  5
216
100
AcDbEntity
  8
0
100
AcDbLine
 62
9
  6
CONTINUOUS
 10
6.0452864423
 20
4.1903254997
 11
6.5007865216
 21
4.1903254922
  0
LINE
  5
217
100
AcDbEntity
  8
0
100
AcDbLine
 62
6
  6
CONTINUOUS
 10
6.1712298624
 20
3.176591773
 11
6.1712298624
 21
4.018591773
  0
LINE
  5
218
100
AcDbEntity
  8
0
100
AcDbLine
 62
6
  6
CONTINUOUS
 10
7.021922766
 20
4.6626777372
 11
6.9414070854
 21
4.6063000507
  0
LINE
  5
219
100
AcDbEntity
  8
0
100
AcDbLine
 62
9
  6
CONTINUOUS
 10
6.5298958723
 20
4.2499138371
 11
6.5298958723
 21
4.623269709
  0
LINE
  5
21A
100
AcDbEntity
  8
0
100
AcDbLine
 62
9
  6
CONTINUOUS
 10
5.3434710336
 20
4.6881212684
 11
5.8085500434
 21
4.6881214964
  0
LINE
  5
21B
100
AcDbEntity
  8
0
100
AcDbLine
 62
9
  6
CONTINUOUS
 10
6.0339096814
 20
4.6881214964
 11
6.4989886913
 21
4.6881212684
  0
LINE
  5
21C
100
AcDbEntity
  8
0
100
AcDbLine
 62
6
  6
CONTINUOUS
 10
5.3912298614
 20
4.7365917748
 11
6.4512298635
 21
4.7365917748
  0
LINE
  5
21D
100
AcDbEntity
  8
0
100
AcDbLine
 62
9
  6
CONTINUOUS
 10
5.3830747939
 20
4.750716766
 11
6.4593849309
 21
4.750716766
  0
LINE
  5
21E
100
AcDbEntity
  8
0
100
AcDbLine
 62
9
  6
CONTINUOUS
 10
5.3987298624
 20
4.8059237794
 11
6.4437298624
 21
4.8059237794
  0
LINE
  5
21F
100
AcDbEntity
  8
0
100
AcDbLine
 62
6
  6
CONTINUOUS
 10
6.1412298624
 20
3.146591773
 11
6.1712298624
 21
3.176591773
  0
LINE
  5
220
100
AcDbEntity
  8
0
100
AcDbLine
 62
9
  6
CONTINUOUS
 10
5.4506005902
 20
4.8824330899
 11
6.3918591347
 21
4.8824330899
  0
LINE
  5
221
100
AcDbEntity
  8
0
100
AcDbLine
 62
9
  6
CONTINUOUS
 10
5.4664913055
 20
4.896591773
 11
6.3759684194
 21
4.896591773
  0
LINE
  5
222
100
AcDbEntity
  8
0
100
AcDbLine
 62
6
  6
CONTINUOUS
 10
7.021922766
 20
4.2105058088
 11
6.9414070854
 21
4.2668834953
  0
LINE
  5
223
100
AcDbEntity
  8
0
100
AcDbLine
 62
9
  6
CONTINUOUS
 10
6.8913667038
 20
4.6275090662
 11
6.8913667038
 21
4.2456744798
  0
LINE
  5
224
100
AcDbEntity
  8
0
100
AcDbLine
 62
9
  6
CONTINUOUS
 10
5.5347120053
 20
4.9409032989
 11
6.3077477196
 21
4.9409032989
  0
LINE
  5
225
100
AcDbEntity
  8
0
100
AcDbLine
 62
6
  6
CONTINUOUS
 10
6.9162298624
 20
4.6256826627
 11
6.9162298624
 21
4.2475008833
  0
LINE
  5
226
100
AcDbEntity
  8
0
100
AcDbLine
 62
9
  6
CONTINUOUS
 10
6.9414070854
 20
4.6063000507
 11
6.9414070854
 21
4.2668834953
  0
LINE
  5
227
100
AcDbEntity
  8
0
100
AcDbLine
 62
9
  6
CONTINUOUS
 10
7.021922766
 20
4.6626777372
 11
7.021922766
 21
4.2105058088
  0
ARC
  5
228
100
AcDbEntity
  8
0
100
AcDbCircle
 62
6
  6
CONTINUOUS
 10
5.1338539035
 20
4.075091773
 40
0.25
100
AcDbArc
 50
44.3699285546
 51
136.9739483152
  0
ARC
  5
229
100
AcDbEntity
  8
0
100
AcDbCircle
 62
6
  6
CONTINUOUS
 10
4.9393963245
 20
4.256591773
 40
0.016
100
AcDbArc
 50
214.6234510997
 51
316.9739483152
  0
ARC
  5
22A
100
AcDbEntity
  8
0
100
AcDbCircle
 62
6
  6
CONTINUOUS
 10
4.9102298624
 20
4.2537770626
 40
0.016
100
AcDbArc
 50
0.0
 51
125.0
  0
ARC
  5
22B
100
AcDbEntity
  8
0
100
AcDbCircle
 62
6
  6
CONTINUOUS
 10
5.5532298624
 20
4.018591773
 40
0.118
100
AcDbArc
 50
0.0
 51
89.9999976231
  0
ARC
  5
22C
100
AcDbEntity
  8
0
100
AcDbCircle
 62
6
  6
CONTINUOUS
 10
5.4165238215
 20
4.215591773
 40
0.079
100
AcDbArc
 50
198.652422936
 51
270.0000000547
  0
ARC
  5
22D
100
AcDbEntity
  8
0
100
AcDbCircle
 62
6
  6
CONTINUOUS
 10
5.3347238863
 20
4.271591773
 40
0.031
100
AcDbArc
 50
224.3699285546
 51
254.840566516
  0
ARC
  5
22E
100
AcDbEntity
  8
0
100
AcDbCircle
 62
6
  6
CONTINUOUS
 10
4.6622298624
 20
4.436591773
 40
0.276
100
AcDbArc
 50
55.0
 51
305.0
  0
ARC
  5
22F
100
AcDbEntity
  8
0
100
AcDbCircle
 62
6
  6
CONTINUOUS
 10
4.9102298624
 20
4.6194064835
 40
0.016
100
AcDbArc
 50
235.0
 51
360.0
  0
ARC
  5
230
100
AcDbEntity
  8
0
100
AcDbCircle
 62
6
  6
CONTINUOUS
 10
4.9393963245
 20
4.616591773
 40
0.016
100
AcDbArc
 50
43.0260516848
 51
145.3765489003
  0
ARC
  5
231
100
AcDbEntity
  8
0
100
AcDbCircle
 62
6
  6
CONTINUOUS
 10
5.1338539035
 20
4.798091773
 40
0.25
100
AcDbArc
 50
223.0260516848
 51
315.6300714454
  0
ARC
  5
232
100
AcDbEntity
  8
0
100
AcDbCircle
 62
6
  6
CONTINUOUS
 10
5.7712298624
 20
4.436591773
 40
0.77
100
AcDbArc
 50
341.3475770871
 51
345.3358058711
  0
ARC
  5
233
100
AcDbEntity
  8
0
100
AcDbCircle
 62
6
  6
CONTINUOUS
 10
5.7712298624
 20
4.436591773
 40
0.77
100
AcDbArc
 50
14.6566863596
 51
19.0662779411
  0
ARC
  5
234
100
AcDbEntity
  8
0
100
AcDbCircle
 62
6
  6
CONTINUOUS
 10
5.4181373182
 20
4.66231534
 40
0.079
100
AcDbArc
 50
109.9134773667
 51
160.9339864489
  0
ARC
  5
235
100
AcDbEntity
  8
0
100
AcDbCircle
 62
6
  6
CONTINUOUS
 10
5.3347238863
 20
4.601591773
 40
0.031
100
AcDbArc
 50
105.5420034759
 51
135.6300714454
  0
ARC
  5
236
100
AcDbEntity
  8
0
100
AcDbCircle
 62
6
  6
CONTINUOUS
 10
5.3512649933
 20
4.8939413128
 40
0.1
100
AcDbArc
 50
298.3364788227
 51
353.3916320452
  0
ARC
  5
237
100
AcDbEntity
  8
0
100
AcDbCircle
 62
6
  6
CONTINUOUS
 10
5.5512298624
 20
4.8937104986
 40
0.05
100
AcDbArc
 50
109.2904540361
 51
176.6851709441
  0
ARC
  5
238
100
AcDbEntity
  8
0
100
AcDbCircle
 62
6
  6
CONTINUOUS
 10
5.4177158101
 20
4.770716766
 40
0.04
100
AcDbArc
 50
118.3364788227
 51
210.0
  0
ARC
  5
239
100
AcDbEntity
  8
0
100
AcDbCircle
 62
6
  6
CONTINUOUS
 10
5.4664942855
 20
4.880591773
 40
0.016
100
AcDbArc
 50
89.9999655118
 51
173.391627768
  0
ARC
  5
23A
100
AcDbEntity
  8
0
100
AcDbCircle
 62
6
  6
CONTINUOUS
 10
5.9212298624
 20
3.836591773
 40
1.17
100
AcDbArc
 50
70.7095459639
 51
109.2904540361
  0
ARC
  5
23B
100
AcDbEntity
  8
0
100
AcDbCircle
 62
6
  6
CONTINUOUS
 10
6.2892298624
 20
4.018591773
 40
0.118
100
AcDbArc
 50
90.0000023769
 51
180.0
  0
ARC
  5
23C
100
AcDbEntity
  8
0
100
AcDbCircle
 62
6
  6
CONTINUOUS
 10
6.4259359033
 20
4.215591773
 40
0.079
100
AcDbArc
 50
269.9999999453
 51
341.347577064
  0
ARC
  5
23D
100
AcDbEntity
  8
0
100
AcDbCircle
 62
6
  6
CONTINUOUS
 10
6.7086058214
 20
4.075091773
 40
0.25
100
AcDbArc
 50
43.0260516848
 51
135.6300714454
  0
ARC
  5
23E
100
AcDbEntity
  8
0
100
AcDbCircle
 62
6
  6
CONTINUOUS
 10
6.5077358386
 20
4.271591773
 40
0.031
100
AcDbArc
 50
285.1594334839
 51
315.6300714454
  0
ARC
  5
23F
100
AcDbEntity
  8
0
100
AcDbCircle
 62
6
  6
CONTINUOUS
 10
6.9322298624
 20
4.2537770626
 40
0.016
100
AcDbArc
 50
55.0
 51
180.0
  0
ARC
  5
240
100
AcDbEntity
  8
0
100
AcDbCircle
 62
6
  6
CONTINUOUS
 10
6.9030634003
 20
4.256591773
 40
0.016
100
AcDbArc
 50
223.0260516848
 51
325.3765489003
  0
ARC
  5
241
100
AcDbEntity
  8
0
100
AcDbCircle
 62
6
  6
CONTINUOUS
 10
6.0712298624
 20
4.436591773
 40
0.77
100
AcDbArc
 50
194.6710214922
 51
198.6524229129
  0
ARC
  5
242
100
AcDbEntity
  8
0
100
AcDbCircle
 62
6
  6
CONTINUOUS
 10
6.0712298624
 20
4.436591773
 40
0.77
100
AcDbArc
 50
160.9337220589
 51
165.3377273828
  0
CIRCLE
  5
243
100
AcDbEntity
  8
0
100
AcDbCircle
 62
6
  6
CONTINUOUS
 10
5.9212298624
 20
4.436591773
 40
0.276
  0
ARC
  5
244
100
AcDbEntity
  8
0
100
AcDbCircle
 62
6
  6
CONTINUOUS
 10
6.4243224066
 20
4.66231534
 40
0.079
100
AcDbArc
 50
19.0660135754
 51
70.0865226519
  0
ARC
  5
245
100
AcDbEntity
  8
0
100
AcDbCircle
 62
6
  6
CONTINUOUS
 10
6.5077358386
 20
4.601591773
 40
0.031
100
AcDbArc
 50
44.3699285546
 51
74.5258584956
  0
ARC
  5
246
100
AcDbEntity
  8
0
100
AcDbCircle
 62
6
  6
CONTINUOUS
 10
6.4911947316
 20
4.8939413128
 40
0.1
100
AcDbArc
 50
186.6083679548
 51
241.6635211773
  0
ARC
  5
247
100
AcDbEntity
  8
0
100
AcDbCircle
 62
6
  6
CONTINUOUS
 10
6.2912298624
 20
4.8937104986
 40
0.05
100
AcDbArc
 50
3.3148290559
 51
70.7095459639
  0
ARC
  5
248
100
AcDbEntity
  8
0
100
AcDbCircle
 62
6
  6
CONTINUOUS
 10
6.4247439148
 20
4.770716766
 40
0.04
100
AcDbArc
 50
330.0
 51
61.6635211773
  0
ARC
  5
249
100
AcDbEntity
  8
0
100
AcDbCircle
 62
6
  6
CONTINUOUS
 10
6.3759654393
 20
4.880591773
 40
0.016
100
AcDbArc
 50
6.608372232
 51
90.0000344882
  0
ARC
  5
24A
100
AcDbEntity
  8
0
100
AcDbCircle
 62
6
  6
CONTINUOUS
 10
6.9322298624
 20
4.6194064835
 40
0.016
100
AcDbArc
 50
180.0
 51
305.0
  0
ARC
  5
24B
100
AcDbEntity
  8
0
100
AcDbCircle
 62
6
  6
CONTINUOUS
 10
6.9030634003
 20
4.616591773
 40
0.016
100
AcDbArc
 50
34.6234510997
 51
136.9739483152
  0
ARC
  5
24C
100
AcDbEntity
  8
0
100
AcDbCircle
 62
6
  6
CONTINUOUS
 10
7.1802298624
 20
4.436591773
 40
0.276
100
AcDbArc
 50
235.0
 51
125.0
  0
ARC
  5
24D
100
AcDbEntity
  8
0
100
AcDbCircle
 62
6
  6
CONTINUOUS
 10
6.7086058214
 20
4.798091773
 40
0.25
100
AcDbArc
 50
224.3699285546
 51
316.9739483152
  0
SPLINE
  5
24E
100
AcDbEntity
  8
0
100
AcDbSpline
 62
7
  6
CONTINUOUS
 70
0
 71
3
 72
57
 73
53
 74
51
 42
0.0000001
 43
0.0000001
 44
0.0000000001
 12
0.0
 22
-0.2051629593
 32
0.0
 13
-0.2016131052
 23
-0.0379999351
 33
0.0
 40
0.0
 40
0.0
 40
0.0
 40
0.0
 40
0.0979304225
 40
0.1950054398
 40
0.2901629202
 40
0.3825080337
 40
0.4711805419
 40
0.5553269264
 40
0.6341301545
 40
0.6712926224
 40
0.706839072
 40
0.740686153
 40
0.7727547044
 40
0.8029655351
 40
0.8312425586
 40
0.8575208392
 40
0.8817378785
 40
0.903831231
 40
0.9237452348
 40
0.9328710515
 40
0.9414355255
 40
0.9494332412
 40
0.9568587814
 40
0.9637067306
 40
0.9699723966
 40
0.9756527528
 40
0.9807450063
 40
0.9852463636
 40
0.9891540306
 40
0.9908843572
 40
0.9924652132
 40
0.9938962495
 40
0.9951771167
 40
0.9963074703
 40
0.9972871196
 40
0.9981160543
 40
0.9984740036
 40
0.9987942741
 40
0.9990768658
 40
0.9993217788
 40
0.9995290129
 40
0.9996985681
 40
0.9997692162
 40
0.9998304445
 40
0.9998822531
 40
0.9999246419
 40
0.9999576111
 40
0.9999811605
 40
0.9999894027
 40
0.9999952901
 40
0.9999988225
 40
1.0
 40
1.0
 40
1.0
 40
1.0
 10
5.3361016713
 20
4.436591773
 30
0.0
 10
5.3361016713
 20
4.4298945412
 30
0.0
 10
5.3360566138
 20
4.4165585361
 30
0.0
 10
5.3358586735
 20
4.3967158238
 30
0.0
 10
5.3355354347
 20
4.3772567727
 30
0.0
 10
5.3351009281
 20
4.3583746781
 30
0.0
 10
5.3345699679
 20
4.3402483945
 30
0.0
 10
5.3339638007
 20
4.3230511321
 30
0.0
 10
5.3334036309
 20
4.3093773304
 30
0.0
 10
5.3329376779
 20
4.2990262431
 30
0.0
 10
5.3325912919
 20
4.2917473575
 30
0.0
 10
5.3322444595
 20
4.2848172709
 30
0.0
 10
5.3319005578
 20
4.2782524036
 30
0.0
 10
5.3315629259
 20
4.2720686693
 30
0.0
 10
5.3312348437
 20
4.2662809997
 30
0.0
 10
5.3309194306
 20
4.2609031825
 30
0.0
 10
5.3306197444
 20
4.2559480653
 30
0.0
 10
5.3303388416
 20
4.2514278522
 30
0.0
 10
5.3301167487
 20
4.2479380331
 30
0.0
 10
5.3299506737
 20
4.2453717315
 30
0.0
 10
5.3298360777
 20
4.2436187306
 30
0.0
 10
5.3297280629
 20
4.2419818259
 30
0.0
 10
5.3296269204
 20
4.2404621124
 30
0.0
 10
5.3295329422
 20
4.2390606351
 30
0.0
 10
5.3294463937
 20
4.2377782767
 30
0.0
 10
5.3293674372
 20
4.2366157472
 30
0.0
 10
5.3292962339
 20
4.2355736261
 30
0.0
 10
5.329232942
 20
4.2346524772
 30
0.0
 10
5.3291851681
 20
4.2339607185
 30
0.0
 10
5.3291510392
 20
4.2334682194
 30
0.0
 10
5.3291285766
 20
4.233144689
 30
0.0
 10
5.329108211
 20
4.2328518245
 30
0.0
 10
5.3290899618
 20
4.2325896961
 30
0.0
 10
5.3290738493
 20
4.2323583629
 30
0.0
 10
5.3290598852
 20
4.2321578615
 30
0.0
 10
5.3290495909
 20
4.2320100554
 30
0.0
 10
5.3290424296
 20
4.2319072338
 30
0.0
 10
5.3290378643
 20
4.2318416849
 30
0.0
 10
5.3290338361
 20
4.2317838477
 30
0.0
 10
5.3290303449
 20
4.231733722
 30
0.0
 10
5.3290273908
 20
4.2316913081
 30
0.0
 10
5.329025265
 20
4.2316607826
 30
0.0
 10
5.3290238323
 20
4.2316402186
 30
0.0
 10
5.3290229605
 20
4.2316276863
 30
0.0
 10
5.329022219
 20
4.2316170854
 30
0.0
 10
5.3290216231
 20
4.2316084024
 30
0.0
 10
5.3290211317
 20
4.2316016737
 30
0.0
 10
5.3290208683
 20
4.2315972162
 30
0.0
 10
5.3290206297
 20
4.2315946986
 30
0.0
 10
5.3290206436
 20
4.2315934066
 30
0.0
 10
5.3290204204
 20
4.2315928374
 30
0.0
 10
5.329020577
 20
4.2315923568
 30
0.0
 10
5.3290204979
 20
4.2315923419
 30
0.0
 11
5.3361016713
 21
4.436591773
 31
0.0
 11
5.3360342305
 21
4.4165001909
 31
0.0
 11
5.335835125
 21
4.3965849884
 31
0.0
 11
5.3355111149
 21
4.377064887
 31
0.0
 11
5.3350749362
 21
4.3581241119
 31
0.0
 11
5.3345424031
 21
4.3399395936
 31
0.0
 11
5.3339339717
 21
4.3226865973
 31
0.0
 11
5.3332722832
 21
4.3065326399
 31
0.0
 11
5.3329293767
 21
4.2989159931
 31
0.0
 11
5.3325827159
 21
4.2916314221
 31
0.0
 11
5.3322356121
 21
4.2846959353
 31
0.0
 11
5.3318914212
 21
4.2781256656
 31
0.0
 11
5.3315534996
 21
4.2719367407
 31
0.0
 11
5.3312251486
 21
4.2661446424
 31
0.0
 11
5.3309094753
 21
4.2607625622
 31
0.0
 11
5.330609544
 21
4.2558031841
 31
0.0
 11
5.3303284153
 21
4.2512791729
 31
0.0
 11
5.3300688947
 21
4.2472018078
 31
0.0
 11
5.3299479842
 21
4.2453334365
 31
0.0
 11
5.329833364
 21
4.2435800661
 31
0.0
 11
5.3297253268
 21
4.2419427916
 31
0.0
 11
5.3296241654
 21
4.2404227083
 31
0.0
 11
5.3295301722
 21
4.2390209104
 31
0.0
 11
5.3294436032
 21
4.2377383461
 31
0.0
 11
5.329364629
 21
4.2365756263
 31
0.0
 11
5.3292934088
 21
4.2355333149
 31
0.0
 11
5.3292301013
 21
4.2346119756
 31
0.0
 11
5.3291748657
 21
4.2338121721
 31
0.0
 11
5.3291503244
 21
4.2334580225
 31
0.0
 11
5.3291278607
 21
4.2331344682
 31
0.0
 11
5.3291074945
 21
4.2328415798
 31
0.0
 11
5.3290892455
 21
4.2325794278
 31
0.0
 11
5.3290731334
 21
4.2323480815
 31
0.0
 11
5.329059169
 21
4.2321475794
 31
0.0
 11
5.329047353
 21
4.2319779237
 31
0.0
 11
5.3290422506
 21
4.2319046632
 31
0.0
 11
5.3290376853
 21
4.2318391144
 31
0.0
 11
5.329033657
 21
4.2317812771
 31
0.0
 11
5.3290301659
 21
4.2317311515
 31
0.0
 11
5.3290272118
 21
4.2316887375
 31
0.0
 11
5.3290247949
 21
4.2316540351
 31
0.0
 11
5.3290237878
 21
4.2316395757
 31
0.0
 11
5.329022915
 21
4.2316270443
 31
0.0
 11
5.3290221765
 21
4.2316164408
 31
0.0
 11
5.3290215722
 21
4.2316077652
 31
0.0
 11
5.3290211022
 21
4.2316010175
 31
0.0
 11
5.3290207665
 21
4.2315961977
 31
0.0
 11
5.329020649
 21
4.2315945108
 31
0.0
 11
5.3290205651
 21
4.2315933058
 31
0.0
 11
5.3290205147
 21
4.2315925829
 31
0.0
 11
5.3290204979
 21
4.2315923419
 31
0.0
  0
SPLINE
  5
24F
100
AcDbEntity
  8
0
100
AcDbSpline
 62
7
  6
CONTINUOUS
 70
0
 71
3
 72
48
 73
44
 74
42
 42
0.0000001
 43
0.0000001
 44
0.0000000001
 12
0.0
 22
0.2051629461
 32
0.0
 13
0.0691407919
 23
0.1931615527
 33
0.0
 40
0.0
 40
0.0
 40
0.0
 40
0.0
 40
0.0979302051
 40
0.1950046605
 40
0.2901617706
 40
0.3825069009
 40
0.4711796418
 40
0.5553262099
 40
0.6341295794
 40
0.706838524
 40
0.7406856633
 40
0.7727542749
 40
0.8029651472
 40
0.8312422132
 40
0.8575205511
 40
0.8817376428
 40
0.9038310262
 40
0.9237450662
 40
0.9414353979
 40
0.9568586858
 40
0.9637066437
 40
0.9699723184
 40
0.975652686
 40
0.9807449524
 40
0.9852463226
 40
0.9891540015
 40
0.9924651935
 40
0.9938962333
 40
0.9951771028
 40
0.9963074576
 40
0.9972871083
 40
0.9981160446
 40
0.9987942662
 40
0.9990768589
 40
0.9993217728
 40
0.9995290079
 40
0.9996985642
 40
0.9998304416
 40
0.99992464
 40
0.9999576096
 40
0.9999811595
 40
0.9999952896
 40
1.0
 40
1.0
 40
1.0
 40
1.0
 10
6.5063580535
 20
4.436591773
 30
0.0
 10
6.5063580535
 20
4.4432889895
 30
0.0
 10
6.5064031076
 20
4.4566249405
 30
0.0
 10
6.5066010508
 20
4.4764675729
 30
0.0
 10
6.5069242846
 20
4.4959265601
 30
0.0
 10
6.507358793
 20
4.5148086454
 30
0.0
 10
6.5078897484
 20
4.5329349569
 30
0.0
 10
6.5084959254
 20
4.5501322585
 30
0.0
 10
6.5091555695
 20
4.5662349902
 30
0.0
 10
6.5097413834
 20
4.5788978037
 30
0.0
 10
6.5102152623
 20
4.588366177
 30
0.0
 10
6.510559162
 20
4.5949310553
 30
0.0
 10
6.5108967946
 20
4.601114799
 30
0.0
 10
6.511224877
 20
4.6069024778
 30
0.0
 10
6.5115402909
 20
4.6122803051
 30
0.0
 10
6.5118399777
 20
4.6172354316
 30
0.0
 10
6.5121208803
 20
4.6217556526
 30
0.0
 10
6.5123801731
 20
4.6258300007
 30
0.0
 10
6.5126155039
 20
4.629448795
 30
0.0
 10
6.5127962081
 20
4.6321756931
 30
0.0
 10
6.5129267815
 20
4.634122893
 30
0.0
 10
6.5130133297
 20
4.6354052532
 30
0.0
 10
6.5130922864
 20
4.6365677849
 30
0.0
 10
6.5131634899
 20
4.6376099085
 30
0.0
 10
6.5132267822
 20
4.6385310599
 30
0.0
 10
6.5132820047
 20
4.6393306751
 30
0.0
 10
6.513322939
 20
4.6399208041
 30
0.0
 10
6.5133515137
 20
4.6403317175
 30
0.0
 10
6.5133697628
 20
4.6405938465
 30
0.0
 10
6.5133858753
 20
4.64082518
 30
0.0
 10
6.5133998393
 20
4.6410256816
 30
0.0
 10
6.5134116555
 20
4.6411953376
 30
0.0
 10
6.5134201592
 20
4.6413174387
 30
0.0
 10
6.5134258888
 20
4.6413996963
 30
0.0
 10
6.5134293787
 20
4.6414498224
 30
0.0
 10
6.5134323363
 20
4.6414922358
 30
0.0
 10
6.5134347435
 20
4.6415269405
 30
0.0
 10
6.5134366485
 20
4.6415539262
 30
0.0
 10
6.5134378274
 20
4.6415716098
 30
0.0
 10
6.5134386134
 20
4.6415818775
 30
0.0
 10
6.5134388344
 20
4.6415867214
 30
0.0
 10
6.5134392384
 20
4.6415895709
 30
0.0
 10
6.5134391182
 20
4.6415909002
 30
0.0
 10
6.5134392268
 20
4.6415912035
 30
0.0
 11
6.5063580535
 21
4.436591773
 31
0.0
 11
6.5064254924
 21
4.4566833092
 31
0.0
 11
6.5066245977
 21
4.4765983952
 31
0.0
 11
6.5069486048
 21
4.4961184194
 31
0.0
 11
6.5073847832
 21
4.5150591968
 31
0.0
 11
6.5079173157
 21
4.5332437616
 31
0.0
 11
6.5085257475
 21
4.5504967946
 31
0.0
 11
6.509187436
 21
4.5666507798
 31
0.0
 11
6.5098770038
 21
4.5815520145
 31
0.0
 11
6.510224108
 21
4.5884875129
 31
0.0
 11
6.5105682991
 21
4.5950577945
 31
0.0
 11
6.5109062208
 21
4.6012467275
 31
0.0
 11
6.5112345722
 21
4.6070388341
 31
0.0
 11
6.5115502462
 21
4.6124209257
 31
0.0
 11
6.511850178
 21
4.6173803143
 31
0.0
 11
6.5121313067
 21
4.6219043315
 31
0.0
 11
6.5123908278
 21
4.6259817038
 31
0.0
 11
6.5126263592
 21
4.6296034538
 31
0.0
 11
6.5128355583
 21
4.6327608181
 31
0.0
 11
6.5129295513
 21
4.6341626177
 31
0.0
 11
6.5130161203
 21
4.6354451837
 31
0.0
 11
6.5130950946
 21
4.6366079057
 31
0.0
 11
6.5131663151
 21
4.6376502197
 31
0.0
 11
6.5132296229
 21
4.6385715616
 31
0.0
 11
6.5132848588
 21
4.6393713674
 31
0.0
 11
6.5133318639
 21
4.6400490732
 31
0.0
 11
6.5133522302
 21
4.6403419623
 31
0.0
 11
6.5133704792
 21
4.6406041148
 31
0.0
 11
6.5133865912
 21
4.6408354614
 31
0.0
 11
6.5134005555
 21
4.6410359637
 31
0.0
 11
6.5134123715
 21
4.6412056198
 31
0.0
 11
6.5134220393
 21
4.6413444294
 31
0.0
 11
6.5134260675
 21
4.6414022669
 31
0.0
 11
6.5134295587
 21
4.6414523927
 31
0.0
 11
6.5134325127
 21
4.6414948069
 31
0.0
 11
6.5134349297
 21
4.6415295095
 31
0.0
 11
6.5134368096
 21
4.6415565005
 31
0.0
 11
6.5134381524
 21
4.6415757798
 31
0.0
 11
6.5134386224
 21
4.6415825276
 31
0.0
 11
6.5134389581
 21
4.6415873475
 31
0.0
 11
6.5134391596
 21
4.6415902395
 31
0.0
 11
6.5134392268
 21
4.6415912035
 31
0.0
  0
SPLINE
  5
250
100
AcDbEntity
  8
0
100
AcDbSpline
 62
7
  6
CONTINUOUS
 70
0
 71
3
 72
49
 73
45
 74
43
 42
0.0000001
 43
0.0000001
 44
0.0000000001
 12
-0.0691408096
 22
0.1931615462
 32
0.0
 13
-0.0
 23
-0.2051629462
 33
0.0
 40
0.0
 40
0.0
 40
0.0
 40
0.0
 40
0.0000047094
 40
0.0000188385
 40
0.0000423874
 40
0.000075356
 40
0.0001695526
 40
0.0003014283
 40
0.000470983
 40
0.000678217
 40
0.0009231301
 40
0.0012057225
 40
0.001883945
 40
0.0027128849
 40
0.0036925424
 40
0.0048229065
 40
0.0061037821
 40
0.0075348244
 40
0.0108460136
 40
0.0147536822
 40
0.019255039
 40
0.0243472928
 40
0.0300276531
 40
0.0362933298
 40
0.0431412928
 40
0.0505668396
 40
0.0585645573
 40
0.0762548481
 40
0.0961688675
 40
0.1182622575
 40
0.1424793276
 40
0.1687576368
 40
0.197034694
 40
0.2272455604
 40
0.2593141451
 40
0.2931612645
 40
0.3658702441
 40
0.444673666
 40
0.5288203237
 40
0.6174930948
 40
0.7098381911
 40
0.804995291
 40
0.9020697998
 40
1.0
 40
1.0
 40
1.0
 40
1.0
 10
5.3290204981
 20
4.6415912035
 30
0.0
 10
5.3290203896
 20
4.6415915067
 30
0.0
 10
5.3290207978
 20
4.6415887008
 30
0.0
 10
5.3290206914
 20
4.6415872775
 30
0.0
 10
5.3290212013
 20
4.6415816262
 30
0.0
 10
5.3290218114
 20
4.6415718502
 30
0.0
 10
5.3290231211
 20
4.6415538013
 30
0.0
 10
5.3290249628
 20
4.6415269923
 30
0.0
 10
5.3290273945
 20
4.6414922192
 30
0.0
 10
5.3290303431
 20
4.6414498308
 30
0.0
 10
5.3290338361
 20
4.6413996964
 30
0.0
 10
5.3290395643
 20
4.6413174425
 30
0.0
 10
5.3290480688
 20
4.6411953388
 30
0.0
 10
5.3290598849
 20
4.641025683
 30
0.0
 10
5.3290738494
 20
4.6408251797
 30
0.0
 10
5.3290899624
 20
4.6405938448
 30
0.0
 10
5.3291082119
 20
4.6403317146
 30
0.0
 10
5.3291367868
 20
4.6399208009
 30
0.0
 10
5.3291777209
 20
4.6393306725
 30
0.0
 10
5.3292329429
 20
4.6385310592
 30
0.0
 10
5.3292962346
 20
4.6376099102
 30
0.0
 10
5.3293674376
 20
4.6365677889
 30
0.0
 10
5.3294463941
 20
4.6354052584
 30
0.0
 10
5.3295329429
 20
4.6341228982
 30
0.0
 10
5.3296269217
 20
4.6327214189
 30
0.0
 10
5.3297280642
 20
4.631201704
 30
0.0
 10
5.3298771722
 20
4.6289420599
 30
0.0
 10
5.3300795512
 20
4.625830017
 30
0.0
 10
5.3303388425
 20
4.6217556726
 30
0.0
 10
5.3306197464
 20
4.6172354541
 30
0.0
 10
5.3309194327
 20
4.6122803306
 30
0.0
 10
5.3312348461
 20
4.6069025073
 30
0.0
 10
5.3315629282
 20
4.6011148314
 30
0.0
 10
5.331900561
 20
4.5949310906
 30
0.0
 10
5.3322444608
 20
4.5883662159
 30
0.0
 10
5.3327183397
 20
4.5788978434
 30
0.0
 10
5.3333041533
 20
4.5662350253
 30
0.0
 10
5.3339637992
 20
4.5501322815
 30
0.0
 10
5.3345699752
 20
4.5329349681
 30
0.0
 10
5.335100932
 20
4.5148086508
 30
0.0
 10
5.3355354402
 20
4.4959265664
 30
0.0
 10
5.3358586742
 20
4.4764675785
 30
0.0
 10
5.3360566165
 20
4.4566249435
 30
0.0
 10
5.3361016713
 20
4.4432889891
 30
0.0
 10
5.3361016713
 20
4.436591773
 30
0.0
 11
5.3290204981
 21
4.6415912035
 31
0.0
 11
5.3290205652
 21
4.6415902397
 31
0.0
 11
5.3290207666
 21
4.6415873479
 31
0.0
 11
5.3290211022
 21
4.6415825282
 31
0.0
 11
5.3290215722
 21
4.6415757806
 31
0.0
 11
5.3290229148
 21
4.6415565017
 31
0.0
 11
5.3290247946
 21
4.641529511
 31
0.0
 11
5.3290272115
 21
4.6414948087
 31
0.0
 11
5.3290301655
 21
4.6414523948
 31
0.0
 11
5.3290336566
 21
4.6414022691
 31
0.0
 11
5.3290376848
 21
4.6413444317
 31
0.0
 11
5.3290473525
 21
4.6412056218
 31
0.0
 11
5.3290591688
 21
4.6410359651
 31
0.0
 11
5.3290731335
 21
4.6408354614
 31
0.0
 11
5.329089246
 21
4.640604113
 31
0.0
 11
5.3291074953
 21
4.6403419592
 31
0.0
 11
5.3291278618
 21
4.6400490696
 31
0.0
 11
5.3291748668
 21
4.6393713644
 31
0.0
 11
5.3292301023
 21
4.6385715606
 31
0.0
 11
5.3292934095
 21
4.6376502214
 31
0.0
 11
5.3293646295
 21
4.63660791
 31
0.0
 11
5.3294436035
 21
4.6354451895
 31
0.0
 11
5.3295301729
 21
4.6341626231
 31
0.0
 11
5.3296241666
 21
4.6327608225
 31
0.0
 11
5.3297253282
 21
4.6312407379
 31
0.0
 11
5.3298333654
 21
4.6296034632
 31
0.0
 11
5.3300688957
 21
4.6259817214
 31
0.0
 11
5.3303284164
 21
4.6219043533
 31
0.0
 11
5.3306095458
 21
4.6173803348
 31
0.0
 11
5.3309094775
 21
4.6124209507
 31
0.0
 11
5.3312251508
 21
4.6070388649
 31
0.0
 11
5.3315535021
 21
4.6012467601
 31
0.0
 11
5.331891424
 21
4.5950578283
 31
0.0
 11
5.3322356151
 21
4.5884875522
 31
0.0
 11
5.3325827191
 21
4.5815520579
 31
0.0
 11
5.333272287
 21
4.5666508161
 31
0.0
 11
5.3339339766
 21
4.5504968201
 31
0.0
 11
5.3345424085
 21
4.5332437687
 31
0.0
 11
5.3350749416
 21
4.5150591977
 31
0.0
 11
5.3355111201
 21
4.4961184273
 31
0.0
 11
5.335835127
 21
4.4765984052
 31
0.0
 11
5.336034232
 21
4.4566833082
 31
0.0
 11
5.3361016713
 21
4.436591773
 31
0.0
  0
SPLINE
  5
251
100
AcDbEntity
  8
0
100
AcDbSpline
 62
7
  6
CONTINUOUS
 70
0
 71
3
 72
57
 73
53
 74
51
 42
0.0000001
 43
0.0000001
 44
0.0000000001
 12
0.2016131045
 22
-0.0379999515
 32
0.0
 13
0.0
 23
0.2051629593
 33
0.0
 40
0.0
 40
0.0
 40
0.0
 40
0.0
 40
0.0000011775
 40
0.0000047098
 40
0.0000105972
 40
0.0000188394
 40
0.0000423887
 40
0.0000753578
 40
0.0001177466
 40
0.0001695552
 40
0.0002307836
 40
0.0003014316
 40
0.0004709871
 40
0.0006782217
 40
0.0009231354
 40
0.0012057282
 40
0.0015260001
 40
0.0018839513
 40
0.0027128913
 40
0.0036925484
 40
0.0048229115
 40
0.0061037857
 40
0.0075348263
 40
0.0091156846
 40
0.0108460114
 40
0.014753675
 40
0.0192550261
 40
0.0243472739
 40
0.0300276281
 40
0.0362932989
 40
0.0431412549
 40
0.0505667917
 40
0.0585644971
 40
0.0671289577
 40
0.0762547613
 40
0.0961687554
 40
0.1182621214
 40
0.1424791535
 40
0.1687574205
 40
0.1970344429
 40
0.2272452713
 40
0.259313803
 40
0.2931608685
 40
0.3287073277
 40
0.3658698155
 40
0.4446731406
 40
0.5288197688
 40
0.6174924433
 40
0.7098373889
 40
0.8049946047
 40
0.9020695732
 40
1.0
 40
1.0
 40
1.0
 40
1.0
 10
6.5134392269
 20
4.2315923419
 30
0.0
 10
6.5134393061
 20
4.231592327
 30
0.0
 10
6.5134390774
 20
4.2315928802
 30
0.0
 10
6.5134392263
 20
4.2315933792
 30
0.0
 10
6.5134390296
 20
4.231594711
 30
0.0
 10
6.5134389192
 20
4.2315972044
 30
0.0
 10
6.5134385604
 20
4.2316016799
 30
0.0
 10
6.5134381151
 20
4.2316083999
 30
0.0
 10
6.5134375013
 20
4.2316170863
 30
0.0
 10
6.5134367663
 20
4.2316276859
 30
0.0
 10
6.5134358923
 20
4.2316402187
 30
0.0
 10
6.5134344606
 20
4.2316607825
 30
0.0
 10
6.5134323343
 20
4.2316913082
 30
0.0
 10
6.5134293804
 20
4.2317337221
 30
0.0
 10
6.5134258892
 20
4.231783848
 30
0.0
 10
6.513421861
 20
4.2318416854
 30
0.0
 10
6.5134172957
 20
4.2319072346
 30
0.0
 10
6.5134101344
 20
4.2320100568
 30
0.0
 10
6.5133998399
 20
4.2321578639
 30
0.0
 10
6.5133858754
 20
4.2323583668
 30
0.0
 10
6.5133697624
 20
4.2325897017
 30
0.0
 10
6.513351513
 20
4.2328518315
 30
0.0
 10
6.5133311473
 20
4.233144697
 30
0.0
 10
6.5133086846
 20
4.2334682278
 30
0.0
 10
6.5132745558
 20
4.2339607268
 30
0.0
 10
6.5132267821
 20
4.2346524849
 30
0.0
 10
6.5131634906
 20
4.2355736328
 30
0.0
 10
6.5130922877
 20
4.236615753
 30
0.0
 10
6.5130133313
 20
4.2377782823
 30
0.0
 10
6.5129267825
 20
4.2390606413
 30
0.0
 10
6.5128328037
 20
4.2404621191
 30
0.0
 10
6.5127316612
 20
4.2419818321
 30
0.0
 10
6.5126236466
 20
4.243618735
 30
0.0
 10
6.512509051
 20
4.2453717335
 30
0.0
 10
6.5123429765
 20
4.2479380326
 30
0.0
 10
6.5121208838
 20
4.251427851
 30
0.0
 10
6.5118399801
 20
4.2559480638
 30
0.0
 10
6.5115402942
 20
4.2609031805
 30
0.0
 10
6.5112248814
 20
4.2662809963
 30
0.0
 10
6.5108967994
 20
4.2720686647
 30
0.0
 10
6.5105591674
 20
4.2782523974
 30
0.0
 10
6.5102152657
 20
4.2848172622
 30
0.0
 10
6.5098684334
 20
4.291747347
 30
0.0
 10
6.5095220476
 20
4.2990262336
 30
0.0
 10
6.509056094
 20
4.3093773296
 30
0.0
 10
6.5084959225
 20
4.3230511558
 30
0.0
 10
6.5078897565
 20
4.3402484529
 30
0.0
 10
6.5073587955
 20
4.3583747531
 30
0.0
 10
6.5069242872
 20
4.3772568295
 30
0.0
 10
6.5066010512
 20
4.3967158477
 30
0.0
 10
6.5064031119
 20
4.4165585388
 30
0.0
 10
6.5063580535
 20
4.429894541
 30
0.0
 10
6.5063580535
 20
4.436591773
 30
0.0
 11
6.5134392269
 21
4.2315923419
 31
0.0
 11
6.5134392102
 21
4.2315925829
 31
0.0
 11
6.5134391598
 21
4.2315933058
 31
0.0
 11
6.5134390759
 21
4.2315945108
 31
0.0
 11
6.5134389584
 21
4.2315961977
 31
0.0
 11
6.5134386228
 21
4.2316010175
 31
0.0
 11
6.5134381528
 21
4.2316077652
 31
0.0
 11
6.5134375486
 21
4.2316164408
 31
0.0
 11
6.5134368101
 21
4.2316270443
 31
0.0
 11
6.5134359374
 21
4.2316395757
 31
0.0
 11
6.5134349303
 21
4.2316540351
 31
0.0
 11
6.5134325134
 21
4.2316887375
 31
0.0
 11
6.5134295594
 21
4.2317311516
 31
0.0
 11
6.5134260683
 21
4.2317812774
 31
0.0
 11
6.5134220401
 21
4.2318391149
 31
0.0
 11
6.5134174747
 21
4.231904664
 31
0.0
 11
6.5134123723
 21
4.2319779249
 31
0.0
 11
6.513400556
 21
4.2321475817
 31
0.0
 11
6.5133865913
 21
4.2323480853
 31
0.0
 11
6.5133704788
 21
4.2325794335
 31
0.0
 11
6.5133522295
 21
4.232841587
 31
0.0
 11
6.5133318631
 21
4.2331344763
 31
0.0
 11
6.5133093994
 21
4.233458031
 31
0.0
 11
6.5132848582
 21
4.2338121807
 31
0.0
 11
6.5132296228
 21
4.2346119835
 31
0.0
 11
6.5131663158
 21
4.2355333216
 31
0.0
 11
6.5130950958
 21
4.2365756318
 31
0.0
 11
6.5130161218
 21
4.2377383512
 31
0.0
 11
6.5129295524
 21
4.2390209165
 31
0.0
 11
6.5128355588
 21
4.2404227157
 31
0.0
 11
6.5127343972
 21
4.2419427984
 31
0.0
 11
6.5126263603
 21
4.2435800707
 31
0.0
 11
6.5125117405
 21
4.2453334383
 31
0.0
 11
6.5123908304
 21
4.247201807
 31
0.0
 11
6.51213131
 21
4.2512791702
 31
0.0
 11
6.5118501806
 21
4.255803184
 31
0.0
 11
6.5115502494
 21
4.2607625607
 31
0.0
 11
6.5112345766
 21
4.2661446382
 31
0.0
 11
6.5109062257
 21
4.2719367362
 31
0.0
 11
6.5105683039
 21
4.2781256606
 31
0.0
 11
6.5102241132
 21
4.2846959262
 31
0.0
 11
6.5098770095
 21
4.29163141
 31
0.0
 11
6.5095303488
 21
4.2989159829
 31
0.0
 11
6.509187442
 21
4.3065326338
 31
0.0
 11
6.5085257524
 21
4.322686611
 31
0.0
 11
6.5079173206
 21
4.3399396573
 31
0.0
 11
6.5073847866
 21
4.3581242097
 31
0.0
 11
6.5069486075
 21
4.3770649504
 31
0.0
 11
6.5066245996
 21
4.3965849975
 31
0.0
 11
6.5064254949
 21
4.41650019
 31
0.0
 11
6.5063580535
 21
4.436591773
 31
0.0
  0
ENDSEC
  0
SECTION
  2
OBJECTS
  0
DICTIONARY
  5
C
100
AcDbDictionary
280
0
281
1
  3
ACAD_GROUP
350
D
  3
ACAD_MLINESTYLE
350
17
  3
ACAD_LAYOUT
350
1A
  3
ACAD_PLOTSETTINGS
350
19
  3
ACAD_PLOTSTYLENAME
350
E
  0
DICTIONARY
  5
D
102
{ACAD_REACTORS
330
C
102
}
100
AcDbDictionary
280
0
281
1
  0
ACDBDICTIONARYWDFLT
  5
E
102
{ACAD_REACTORS
330
C
102
}
100
AcDbDictionary
281
1
  3
Normal
350
F
100
AcDbDictionaryWithDefault
340
F
  0
DICTIONARY
  5
17
102
{ACAD_REACTORS
330
C
102
}
100
AcDbDictionary
280
0
281
1
  3
Standard
350
18
  0
DICTIONARY
  5
19
102
{ACAD_REACTORS
330
C
102
}
100
AcDbDictionary
281
1
  0
DICTIONARY
  5
1A
102
{ACAD_REACTORS
330
C
102
}
100
AcDbDictionary
281
1
  3
Model
350
252
  3
Layout1
350
253
  0
ACDBPLACEHOLDER
  5
F
102
{ACAD_REACTORS
330
E
102
}
  0
MLINESTYLE
  5
18
102
{ACAD_REACTORS
330
17
102
}
100
AcDbMlineStyle
  2
STANDARD
 70
0
  3

 62
256
 51
90.0
 52
90.0
 71
2
 49
0.5
 62
256
  6
BYLAYER
 49
-0.5
 62
256
  6
BYLAYER
  0
LAYOUT
  5
252
102
{ACAD_REACTORS
330
1A
102
}
100
AcDbPlotSettings
  1

  2
none_device
  4
ISO_A4_(297.00_x_210.00_MM)
  6

 40
0.0
 41
0.0
 42
0.0
 43
0.0
 44
297.0
 45
210.0
 46
0.0
 47
0.0
 48
0.0
 49
0.0
140
0.0
141
0.0
142
1.0
143
1.0
 70
1024
 72
0
 73
0
 74
0
  7

 75
0
147
1.0
148
0.0
149
0.0
100
AcDbLayout
  1
Model
 70
0
 71
0
 10
0.0
 20
0.0
 11
11.6929133858
 21
8.2677165354
 12
0.0
 22
0.0
 32
0.0
 14
0.0
 24
0.0
 34
0.0
 15
0.0
 25
0.0
 35
0.0
146
0.0
 13
0.0
 23
0.0
 33
0.0
 16
1.0
 26
0.0
 36
0.0
 17
0.0
 27
1.0
 37
0.0
 76
0
330
203
345
0
346
0
  0
LAYOUT
  5
253
102
{ACAD_REACTORS
330
1A
102
}
100
AcDbPlotSettings
  1

  2
none_device
  4
ISO_A4_(297.00_x_210.00_MM)
  6

 40
0.0
 41
0.0
 42
0.0
 43
0.0
 44
297.0
 45
210.0
 46
0.0
 47
0.0
 48
0.0
 49
0.0
140
0.0
141
0.0
142
1.0
143
1.0
 70
0
 72
0
 73
0
 74
0
  7

 75
0
147
1.0
148
0.0
149
0.0
100
AcDbLayout
  1
Layout1
 70
0
 71
1
 10
0.0
 20
0.0
 11
11.6929133858
 21
8.2677165354
 12
0.0
 22
0.0
 32
0.0
 14
0.0
 24
0.0
 34
0.0
 15
0.0
 25
0.0
 35
0.0
146
0.0
 13
0.0
 23
0.0
 33
0.0
 16
1.0
 26
0.0
 36
0.0
 17
0.0
 27
1.0
 37
0.0
 76
0
330
204
345
0
346
0
  0
ENDSEC
  0
EOF
