ISO-10303-21;
HEADER;
FILE_DESCRIPTION((''),'2;1');
FILE_NAME('20-511_ASM','2024-02-07T21:29:26',('ChavanR'),(''),
'CREO PARAMETRIC BY PTC INC, 2023134','CREO PARAMETRIC BY PTC INC, 2023134','');
FILE_SCHEMA(('CONFIG_CONTROL_DESIGN'));
ENDSEC;
DATA;
#2=CARTESIAN_POINT('',(0.E0,1.226789931046E-14,1.75E-1));
#3=DIRECTION('',(0.E0,0.E0,-1.E0));
#4=DIRECTION('',(0.E0,1.E0,0.E0));
#5=AXIS2_PLACEMENT_3D('',#2,#3,#4);
#7=CARTESIAN_POINT('',(0.E0,1.555E0,1.75E-1));
#8=DIRECTION('',(1.E0,0.E0,0.E0));
#9=DIRECTION('',(0.E0,1.E0,0.E0));
#10=AXIS2_PLACEMENT_3D('',#7,#8,#9);
#12=CARTESIAN_POINT('',(0.E0,-1.555E0,1.75E-1));
#13=DIRECTION('',(-1.E0,0.E0,0.E0));
#14=DIRECTION('',(0.E0,-1.E0,0.E0));
#15=AXIS2_PLACEMENT_3D('',#12,#13,#14);
#17=CARTESIAN_POINT('',(0.E0,1.226789931046E-14,1.75E-1));
#18=DIRECTION('',(0.E0,0.E0,1.E0));
#19=DIRECTION('',(0.E0,1.E0,0.E0));
#20=AXIS2_PLACEMENT_3D('',#17,#18,#19);
#22=CARTESIAN_POINT('',(0.E0,1.703093193696E0,5.786934554596E-1));
#23=DIRECTION('',(-1.E0,0.E0,0.E0));
#24=DIRECTION('',(0.E0,-3.444027760373E-1,-9.388219894409E-1));
#25=AXIS2_PLACEMENT_3D('',#22,#23,#24);
#27=CARTESIAN_POINT('',(0.E0,-1.703093193696E0,5.786934554596E-1));
#28=DIRECTION('',(1.E0,0.E0,0.E0));
#29=DIRECTION('',(0.E0,3.444027760373E-1,-9.388219894409E-1));
#30=AXIS2_PLACEMENT_3D('',#27,#28,#29);
#32=CARTESIAN_POINT('',(0.E0,1.227594738787E-14,2.407175392609E-1));
#33=DIRECTION('',(0.E0,0.E0,1.E0));
#34=DIRECTION('',(0.E0,1.E0,0.E0));
#35=AXIS2_PLACEMENT_3D('',#32,#33,#34);
#37=CARTESIAN_POINT('',(0.E0,1.227594738787E-14,2.407175392609E-1));
#38=DIRECTION('',(0.E0,0.E0,-1.E0));
#39=DIRECTION('',(0.E0,1.E0,0.E0));
#40=AXIS2_PLACEMENT_3D('',#37,#38,#39);
#42=CARTESIAN_POINT('',(0.E0,1.228286806629E-14,2.972291671678E-1));
#43=DIRECTION('',(0.E0,0.E0,-1.E0));
#44=DIRECTION('',(0.E0,1.E0,0.E0));
#45=AXIS2_PLACEMENT_3D('',#42,#43,#44);
#47=CARTESIAN_POINT('',(0.E0,1.435E0,2.425E-1));
#48=DIRECTION('',(1.E0,0.E0,0.E0));
#49=DIRECTION('',(0.E0,6.234725434791E-1,7.818452452549E-1));
#50=AXIS2_PLACEMENT_3D('',#47,#48,#49);
#52=CARTESIAN_POINT('',(0.E0,-1.435E0,2.425E-1));
#53=DIRECTION('',(-1.E0,0.E0,0.E0));
#54=DIRECTION('',(0.E0,-6.234725434791E-1,7.818452452549E-1));
#55=AXIS2_PLACEMENT_3D('',#52,#53,#54);
#57=CARTESIAN_POINT('',(0.E0,1.228286806629E-14,2.972291671678E-1));
#58=DIRECTION('',(0.E0,0.E0,1.E0));
#59=DIRECTION('',(0.E0,1.E0,0.E0));
#60=AXIS2_PLACEMENT_3D('',#57,#58,#59);
#62=CARTESIAN_POINT('',(0.E0,1.228473820395E-14,3.125E-1));
#63=DIRECTION('',(0.E0,0.E0,1.E0));
#64=DIRECTION('',(0.E0,1.E0,0.E0));
#65=AXIS2_PLACEMENT_3D('',#62,#63,#64);
#67=CARTESIAN_POINT('',(0.E0,1.228473820395E-14,3.125E-1));
#68=DIRECTION('',(0.E0,0.E0,-1.E0));
#69=DIRECTION('',(0.E0,1.E0,0.E0));
#70=AXIS2_PLACEMENT_3D('',#67,#68,#69);
#72=CARTESIAN_POINT('',(0.E0,0.E0,3.125E-1));
#73=DIRECTION('',(0.E0,0.E0,1.E0));
#74=DIRECTION('',(1.E0,0.E0,0.E0));
#75=AXIS2_PLACEMENT_3D('',#72,#73,#74);
#77=CARTESIAN_POINT('',(0.E0,0.E0,3.125E-1));
#78=DIRECTION('',(0.E0,0.E0,1.E0));
#79=DIRECTION('',(-1.E0,0.E0,0.E0));
#80=AXIS2_PLACEMENT_3D('',#77,#78,#79);
#82=DIRECTION('',(0.E0,0.E0,1.E0));
#83=VECTOR('',#82,8.E-2);
#84=CARTESIAN_POINT('',(2.95E-1,0.E0,2.325E-1));
#85=LINE('',#84,#83);
#86=DIRECTION('',(0.E0,0.E0,1.E0));
#87=VECTOR('',#86,8.E-2);
#88=CARTESIAN_POINT('',(-2.95E-1,0.E0,2.325E-1));
#89=LINE('',#88,#87);
#90=CARTESIAN_POINT('',(0.E0,0.E0,2.325E-1));
#91=DIRECTION('',(0.E0,0.E0,1.E0));
#92=DIRECTION('',(1.E0,0.E0,0.E0));
#93=AXIS2_PLACEMENT_3D('',#90,#91,#92);
#95=CARTESIAN_POINT('',(0.E0,0.E0,2.325E-1));
#96=DIRECTION('',(0.E0,0.E0,1.E0));
#97=DIRECTION('',(-1.E0,0.E0,0.E0));
#98=AXIS2_PLACEMENT_3D('',#95,#96,#97);
#100=CARTESIAN_POINT('',(0.E0,0.E0,2.325E-1));
#101=DIRECTION('',(0.E0,0.E0,1.E0));
#102=DIRECTION('',(0.E0,1.E0,0.E0));
#103=AXIS2_PLACEMENT_3D('',#100,#101,#102);
#105=CARTESIAN_POINT('',(0.E0,0.E0,2.325E-1));
#106=DIRECTION('',(0.E0,0.E0,1.E0));
#107=DIRECTION('',(0.E0,-1.E0,0.E0));
#108=AXIS2_PLACEMENT_3D('',#105,#106,#107);
#110=CARTESIAN_POINT('',(0.E0,1.282E0,2.195E-1));
#111=DIRECTION('',(-1.E0,0.E0,0.E0));
#112=DIRECTION('',(0.E0,0.E0,1.E0));
#113=AXIS2_PLACEMENT_3D('',#110,#111,#112);
#115=CARTESIAN_POINT('',(0.E0,-1.282E0,2.195E-1));
#116=DIRECTION('',(1.E0,0.E0,0.E0));
#117=DIRECTION('',(0.E0,-3.416070845E-14,1.E0));
#118=AXIS2_PLACEMENT_3D('',#115,#116,#117);
#120=CARTESIAN_POINT('',(0.E0,0.E0,2.195E-1));
#121=DIRECTION('',(0.E0,0.E0,1.E0));
#122=DIRECTION('',(0.E0,-1.E0,0.E0));
#123=AXIS2_PLACEMENT_3D('',#120,#121,#122);
#125=CARTESIAN_POINT('',(0.E0,0.E0,1.9E-1));
#126=DIRECTION('',(0.E0,0.E0,-1.E0));
#127=DIRECTION('',(0.E0,1.E0,0.E0));
#128=AXIS2_PLACEMENT_3D('',#125,#126,#127);
#130=CARTESIAN_POINT('',(0.E0,0.E0,2.195E-1));
#131=DIRECTION('',(0.E0,0.E0,1.E0));
#132=DIRECTION('',(0.E0,1.E0,0.E0));
#133=AXIS2_PLACEMENT_3D('',#130,#131,#132);
#135=DIRECTION('',(0.E0,0.E0,1.E0));
#136=VECTOR('',#135,2.95E-2);
#137=CARTESIAN_POINT('',(0.E0,1.295E0,1.9E-1));
#138=LINE('',#137,#136);
#139=CARTESIAN_POINT('',(0.E0,0.E0,1.9E-1));
#140=DIRECTION('',(0.E0,0.E0,1.E0));
#141=DIRECTION('',(0.E0,1.E0,0.E0));
#142=AXIS2_PLACEMENT_3D('',#139,#140,#141);
#144=DIRECTION('',(-1.287038353698E-14,0.E0,1.E0));
#145=VECTOR('',#144,2.95E-2);
#146=CARTESIAN_POINT('',(0.E0,-1.295E0,1.9E-1));
#147=LINE('',#146,#145);
#148=CARTESIAN_POINT('',(0.E0,0.E0,1.9E-1));
#149=DIRECTION('',(0.E0,0.E0,1.E0));
#150=DIRECTION('',(0.E0,1.E0,0.E0));
#151=AXIS2_PLACEMENT_3D('',#148,#149,#150);
#153=CARTESIAN_POINT('',(0.E0,0.E0,1.9E-1));
#154=DIRECTION('',(0.E0,0.E0,1.E0));
#155=DIRECTION('',(0.E0,-1.E0,0.E0));
#156=AXIS2_PLACEMENT_3D('',#153,#154,#155);
#158=CARTESIAN_POINT('',(0.E0,1.532E0,1.77E-1));
#159=DIRECTION('',(-1.E0,0.E0,0.E0));
#160=DIRECTION('',(0.E0,3.416070845E-14,1.E0));
#161=AXIS2_PLACEMENT_3D('',#158,#159,#160);
#163=CARTESIAN_POINT('',(0.E0,-1.532E0,1.77E-1));
#164=DIRECTION('',(1.E0,0.E0,0.E0));
#165=DIRECTION('',(0.E0,-3.416070845E-14,1.E0));
#166=AXIS2_PLACEMENT_3D('',#163,#164,#165);
#168=CARTESIAN_POINT('',(0.E0,0.E0,1.77E-1));
#169=DIRECTION('',(0.E0,0.E0,1.E0));
#170=DIRECTION('',(0.E0,-1.E0,0.E0));
#171=AXIS2_PLACEMENT_3D('',#168,#169,#170);
#173=CARTESIAN_POINT('',(0.E0,0.E0,1.77E-1));
#174=DIRECTION('',(0.E0,0.E0,1.E0));
#175=DIRECTION('',(0.E0,1.E0,0.E0));
#176=AXIS2_PLACEMENT_3D('',#173,#174,#175);
#178=DIRECTION('',(0.E0,0.E0,1.E0));
#179=VECTOR('',#178,1.77E-1);
#180=CARTESIAN_POINT('',(0.E0,1.545E0,0.E0));
#181=LINE('',#180,#179);
#182=DIRECTION('',(0.E0,0.E0,1.E0));
#183=VECTOR('',#182,1.77E-1);
#184=CARTESIAN_POINT('',(0.E0,-1.545E0,0.E0));
#185=LINE('',#184,#183);
#186=CARTESIAN_POINT('',(0.E0,0.E0,0.E0));
#187=DIRECTION('',(0.E0,0.E0,-1.E0));
#188=DIRECTION('',(0.E0,1.E0,0.E0));
#189=AXIS2_PLACEMENT_3D('',#186,#187,#188);
#191=CARTESIAN_POINT('',(0.E0,0.E0,0.E0));
#192=DIRECTION('',(0.E0,0.E0,-1.E0));
#193=DIRECTION('',(0.E0,-1.E0,0.E0));
#194=AXIS2_PLACEMENT_3D('',#191,#192,#193);
#196=CARTESIAN_POINT('',(0.E0,1.224646799147E-14,0.E0));
#197=DIRECTION('',(0.E0,0.E0,-1.E0));
#198=DIRECTION('',(0.E0,1.E0,0.E0));
#199=AXIS2_PLACEMENT_3D('',#196,#197,#198);
#201=DIRECTION('',(0.E0,0.E0,1.E0));
#202=VECTOR('',#201,1.75E-1);
#203=CARTESIAN_POINT('',(0.E0,1.625E0,0.E0));
#204=LINE('',#203,#202);
#205=DIRECTION('',(0.E0,0.E0,1.E0));
#206=VECTOR('',#205,1.75E-1);
#207=CARTESIAN_POINT('',(0.E0,-1.625E0,0.E0));
#208=LINE('',#207,#206);
#209=CARTESIAN_POINT('',(0.E0,1.224646799147E-14,0.E0));
#210=DIRECTION('',(0.E0,0.E0,1.E0));
#211=DIRECTION('',(0.E0,1.E0,0.E0));
#212=AXIS2_PLACEMENT_3D('',#209,#210,#211);
#214=CARTESIAN_POINT('',(0.E0,1.625E0,0.E0));
#215=CARTESIAN_POINT('',(0.E0,1.625E0,1.75E-1));
#216=VERTEX_POINT('',#214);
#217=VERTEX_POINT('',#215);
#218=CARTESIAN_POINT('',(0.E0,-1.625E0,0.E0));
#219=CARTESIAN_POINT('',(0.E0,-1.625E0,1.75E-1));
#220=VERTEX_POINT('',#218);
#221=VERTEX_POINT('',#219);
#222=CARTESIAN_POINT('',(0.E0,1.579108194323E0,2.407175392609E-1));
#223=VERTEX_POINT('',#222);
#224=CARTESIAN_POINT('',(0.E0,1.478643078044E0,2.972291671678E-1));
#225=VERTEX_POINT('',#224);
#226=CARTESIAN_POINT('',(0.E0,1.435E0,3.125E-1));
#227=VERTEX_POINT('',#226);
#228=CARTESIAN_POINT('',(0.E0,-1.579108194323E0,2.407175392609E-1));
#229=VERTEX_POINT('',#228);
#230=CARTESIAN_POINT('',(0.E0,-1.478643078044E0,2.972291671678E-1));
#231=VERTEX_POINT('',#230);
#232=CARTESIAN_POINT('',(0.E0,-1.435E0,3.125E-1));
#233=VERTEX_POINT('',#232);
#234=CARTESIAN_POINT('',(0.E0,1.545E0,0.E0));
#235=CARTESIAN_POINT('',(0.E0,-1.545E0,0.E0));
#236=VERTEX_POINT('',#234);
#237=VERTEX_POINT('',#235);
#238=CARTESIAN_POINT('',(2.95E-1,0.E0,3.125E-1));
#239=CARTESIAN_POINT('',(-2.95E-1,0.E0,3.125E-1));
#240=VERTEX_POINT('',#238);
#241=VERTEX_POINT('',#239);
#242=CARTESIAN_POINT('',(2.95E-1,0.E0,2.325E-1));
#243=CARTESIAN_POINT('',(-2.95E-1,0.E0,2.325E-1));
#244=VERTEX_POINT('',#242);
#245=VERTEX_POINT('',#243);
#246=CARTESIAN_POINT('',(0.E0,1.295E0,1.9E-1));
#247=CARTESIAN_POINT('',(0.E0,-1.295E0,1.9E-1));
#248=VERTEX_POINT('',#246);
#249=VERTEX_POINT('',#247);
#250=CARTESIAN_POINT('',(0.E0,1.532E0,1.9E-1));
#251=CARTESIAN_POINT('',(0.E0,-1.532E0,1.9E-1));
#252=VERTEX_POINT('',#250);
#253=VERTEX_POINT('',#251);
#254=CARTESIAN_POINT('',(0.E0,1.545E0,1.77E-1));
#255=CARTESIAN_POINT('',(0.E0,-1.545E0,1.77E-1));
#256=VERTEX_POINT('',#254);
#257=VERTEX_POINT('',#255);
#258=CARTESIAN_POINT('',(0.E0,1.282E0,2.325E-1));
#259=CARTESIAN_POINT('',(0.E0,-1.282E0,2.325E-1));
#260=VERTEX_POINT('',#258);
#261=VERTEX_POINT('',#259);
#262=CARTESIAN_POINT('',(0.E0,1.295E0,2.195E-1));
#263=CARTESIAN_POINT('',(0.E0,-1.295E0,2.195E-1));
#264=VERTEX_POINT('',#262);
#265=VERTEX_POINT('',#263);
#266=CARTESIAN_POINT('',(0.E0,1.226789931046E-14,1.75E-1));
#267=DIRECTION('',(0.E0,0.E0,-1.E0));
#268=DIRECTION('',(0.E0,-1.E0,0.E0));
#269=AXIS2_PLACEMENT_3D('',#266,#267,#268);
#270=TOROIDAL_SURFACE('',#269,1.555E0,7.E-2);
#272=ORIENTED_EDGE('',*,*,#271,.F.);
#274=ORIENTED_EDGE('',*,*,#273,.T.);
#276=ORIENTED_EDGE('',*,*,#275,.T.);
#278=ORIENTED_EDGE('',*,*,#277,.F.);
#279=EDGE_LOOP('',(#272,#274,#276,#278));
#280=FACE_OUTER_BOUND('',#279,.F.);
#281=ADVANCED_FACE('',(#280),#270,.T.);
#282=CARTESIAN_POINT('',(0.E0,1.226789931046E-14,1.75E-1));
#283=DIRECTION('',(0.E0,0.E0,-1.E0));
#284=DIRECTION('',(0.E0,-1.E0,0.E0));
#285=AXIS2_PLACEMENT_3D('',#282,#283,#284);
#286=TOROIDAL_SURFACE('',#285,1.555E0,7.E-2);
#287=ORIENTED_EDGE('',*,*,#271,.T.);
#289=ORIENTED_EDGE('',*,*,#288,.T.);
#290=ORIENTED_EDGE('',*,*,#275,.F.);
#292=ORIENTED_EDGE('',*,*,#291,.F.);
#293=EDGE_LOOP('',(#287,#289,#290,#292));
#294=FACE_OUTER_BOUND('',#293,.F.);
#295=ADVANCED_FACE('',(#294),#286,.T.);
#296=CARTESIAN_POINT('',(0.E0,1.231733750027E-14,5.786934554596E-1));
#297=DIRECTION('',(0.E0,0.E0,-1.E0));
#298=DIRECTION('',(0.E0,-1.E0,0.E0));
#299=AXIS2_PLACEMENT_3D('',#296,#297,#298);
#300=TOROIDAL_SURFACE('',#299,1.703093193696E0,3.6E-1);
#302=ORIENTED_EDGE('',*,*,#301,.T.);
#304=ORIENTED_EDGE('',*,*,#303,.T.);
#306=ORIENTED_EDGE('',*,*,#305,.F.);
#307=ORIENTED_EDGE('',*,*,#288,.F.);
#308=EDGE_LOOP('',(#302,#304,#306,#307));
#309=FACE_OUTER_BOUND('',#308,.F.);
#310=ADVANCED_FACE('',(#309),#300,.F.);
#311=CARTESIAN_POINT('',(0.E0,1.231733750027E-14,5.786934554596E-1));
#312=DIRECTION('',(0.E0,0.E0,-1.E0));
#313=DIRECTION('',(0.E0,-1.E0,0.E0));
#314=AXIS2_PLACEMENT_3D('',#311,#312,#313);
#315=TOROIDAL_SURFACE('',#314,1.703093193696E0,3.6E-1);
#316=ORIENTED_EDGE('',*,*,#301,.F.);
#317=ORIENTED_EDGE('',*,*,#277,.T.);
#318=ORIENTED_EDGE('',*,*,#305,.T.);
#320=ORIENTED_EDGE('',*,*,#319,.F.);
#321=EDGE_LOOP('',(#316,#317,#318,#320));
#322=FACE_OUTER_BOUND('',#321,.F.);
#323=ADVANCED_FACE('',(#322),#315,.F.);
#324=CARTESIAN_POINT('',(0.E0,1.227616567635E-14,2.425E-1));
#325=DIRECTION('',(0.E0,0.E0,-1.E0));
#326=DIRECTION('',(0.E0,-1.E0,0.E0));
#327=AXIS2_PLACEMENT_3D('',#324,#325,#326);
#328=TOROIDAL_SURFACE('',#327,1.435E0,7.E-2);
#330=ORIENTED_EDGE('',*,*,#329,.F.);
#331=ORIENTED_EDGE('',*,*,#319,.T.);
#333=ORIENTED_EDGE('',*,*,#332,.T.);
#335=ORIENTED_EDGE('',*,*,#334,.F.);
#336=EDGE_LOOP('',(#330,#331,#333,#335));
#337=FACE_OUTER_BOUND('',#336,.F.);
#338=ADVANCED_FACE('',(#337),#328,.T.);
#339=CARTESIAN_POINT('',(0.E0,1.227616567635E-14,2.425E-1));
#340=DIRECTION('',(0.E0,0.E0,-1.E0));
#341=DIRECTION('',(0.E0,-1.E0,0.E0));
#342=AXIS2_PLACEMENT_3D('',#339,#340,#341);
#343=TOROIDAL_SURFACE('',#342,1.435E0,7.E-2);
#344=ORIENTED_EDGE('',*,*,#329,.T.);
#346=ORIENTED_EDGE('',*,*,#345,.T.);
#347=ORIENTED_EDGE('',*,*,#332,.F.);
#348=ORIENTED_EDGE('',*,*,#303,.F.);
#349=EDGE_LOOP('',(#344,#346,#347,#348));
#350=FACE_OUTER_BOUND('',#349,.F.);
#351=ADVANCED_FACE('',(#350),#343,.T.);
#352=CARTESIAN_POINT('',(0.E0,1.228473820395E-14,3.125E-1));
#353=DIRECTION('',(0.E0,0.E0,-1.E0));
#354=DIRECTION('',(0.E0,-1.E0,0.E0));
#355=AXIS2_PLACEMENT_3D('',#352,#353,#354);
#356=PLANE('',#355);
#357=ORIENTED_EDGE('',*,*,#345,.F.);
#358=ORIENTED_EDGE('',*,*,#334,.T.);
#359=EDGE_LOOP('',(#357,#358));
#360=FACE_OUTER_BOUND('',#359,.F.);
#362=ORIENTED_EDGE('',*,*,#361,.T.);
#364=ORIENTED_EDGE('',*,*,#363,.T.);
#365=EDGE_LOOP('',(#362,#364));
#366=FACE_BOUND('',#365,.F.);
#367=ADVANCED_FACE('',(#360,#366),#356,.F.);
#368=CARTESIAN_POINT('',(0.E0,0.E0,0.E0));
#369=DIRECTION('',(0.E0,0.E0,1.E0));
#370=DIRECTION('',(1.E0,0.E0,0.E0));
#371=AXIS2_PLACEMENT_3D('',#368,#369,#370);
#372=CYLINDRICAL_SURFACE('',#371,2.95E-1);
#373=ORIENTED_EDGE('',*,*,#361,.F.);
#375=ORIENTED_EDGE('',*,*,#374,.F.);
#377=ORIENTED_EDGE('',*,*,#376,.T.);
#379=ORIENTED_EDGE('',*,*,#378,.T.);
#380=EDGE_LOOP('',(#373,#375,#377,#379));
#381=FACE_OUTER_BOUND('',#380,.F.);
#382=ADVANCED_FACE('',(#381),#372,.F.);
#383=CARTESIAN_POINT('',(0.E0,0.E0,0.E0));
#384=DIRECTION('',(0.E0,0.E0,1.E0));
#385=DIRECTION('',(1.E0,0.E0,0.E0));
#386=AXIS2_PLACEMENT_3D('',#383,#384,#385);
#387=CYLINDRICAL_SURFACE('',#386,2.95E-1);
#388=ORIENTED_EDGE('',*,*,#363,.F.);
#389=ORIENTED_EDGE('',*,*,#378,.F.);
#391=ORIENTED_EDGE('',*,*,#390,.T.);
#392=ORIENTED_EDGE('',*,*,#374,.T.);
#393=EDGE_LOOP('',(#388,#389,#391,#392));
#394=FACE_OUTER_BOUND('',#393,.F.);
#395=ADVANCED_FACE('',(#394),#387,.F.);
#396=CARTESIAN_POINT('',(0.E0,0.E0,2.325E-1));
#397=DIRECTION('',(0.E0,0.E0,-1.E0));
#398=DIRECTION('',(0.E0,-1.E0,0.E0));
#399=AXIS2_PLACEMENT_3D('',#396,#397,#398);
#400=PLANE('',#399);
#402=ORIENTED_EDGE('',*,*,#401,.T.);
#404=ORIENTED_EDGE('',*,*,#403,.T.);
#405=EDGE_LOOP('',(#402,#404));
#406=FACE_OUTER_BOUND('',#405,.F.);
#407=ORIENTED_EDGE('',*,*,#376,.F.);
#408=ORIENTED_EDGE('',*,*,#390,.F.);
#409=EDGE_LOOP('',(#407,#408));
#410=FACE_BOUND('',#409,.F.);
#411=ADVANCED_FACE('',(#406,#410),#400,.T.);
#412=CARTESIAN_POINT('',(0.E0,0.E0,2.195E-1));
#413=DIRECTION('',(0.E0,0.E0,-1.E0));
#414=DIRECTION('',(6.475318413167E-4,9.999997903512E-1,0.E0));
#415=AXIS2_PLACEMENT_3D('',#412,#413,#414);
#416=TOROIDAL_SURFACE('',#415,1.282E0,1.3E-2);
#417=ORIENTED_EDGE('',*,*,#401,.F.);
#419=ORIENTED_EDGE('',*,*,#418,.T.);
#421=ORIENTED_EDGE('',*,*,#420,.T.);
#423=ORIENTED_EDGE('',*,*,#422,.F.);
#424=EDGE_LOOP('',(#417,#419,#421,#423));
#425=FACE_OUTER_BOUND('',#424,.F.);
#426=ADVANCED_FACE('',(#425),#416,.F.);
#427=CARTESIAN_POINT('',(0.E0,0.E0,2.195E-1));
#428=DIRECTION('',(0.E0,0.E0,-1.E0));
#429=DIRECTION('',(-6.475318413166E-4,-9.999997903512E-1,0.E0));
#430=AXIS2_PLACEMENT_3D('',#427,#428,#429);
#431=TOROIDAL_SURFACE('',#430,1.282E0,1.3E-2);
#432=ORIENTED_EDGE('',*,*,#403,.F.);
#433=ORIENTED_EDGE('',*,*,#422,.T.);
#435=ORIENTED_EDGE('',*,*,#434,.T.);
#436=ORIENTED_EDGE('',*,*,#418,.F.);
#437=EDGE_LOOP('',(#432,#433,#435,#436));
#438=FACE_OUTER_BOUND('',#437,.F.);
#439=ADVANCED_FACE('',(#438),#431,.F.);
#440=CARTESIAN_POINT('',(0.E0,0.E0,0.E0));
#441=DIRECTION('',(0.E0,0.E0,-1.E0));
#442=DIRECTION('',(0.E0,-1.E0,0.E0));
#443=AXIS2_PLACEMENT_3D('',#440,#441,#442);
#444=CYLINDRICAL_SURFACE('',#443,1.295E0);
#445=ORIENTED_EDGE('',*,*,#434,.F.);
#447=ORIENTED_EDGE('',*,*,#446,.F.);
#449=ORIENTED_EDGE('',*,*,#448,.F.);
#451=ORIENTED_EDGE('',*,*,#450,.T.);
#452=EDGE_LOOP('',(#445,#447,#449,#451));
#453=FACE_OUTER_BOUND('',#452,.F.);
#454=ADVANCED_FACE('',(#453),#444,.F.);
#455=CARTESIAN_POINT('',(0.E0,0.E0,0.E0));
#456=DIRECTION('',(0.E0,0.E0,-1.E0));
#457=DIRECTION('',(0.E0,-1.E0,0.E0));
#458=AXIS2_PLACEMENT_3D('',#455,#456,#457);
#459=CYLINDRICAL_SURFACE('',#458,1.295E0);
#460=ORIENTED_EDGE('',*,*,#420,.F.);
#461=ORIENTED_EDGE('',*,*,#450,.F.);
#463=ORIENTED_EDGE('',*,*,#462,.T.);
#464=ORIENTED_EDGE('',*,*,#446,.T.);
#465=EDGE_LOOP('',(#460,#461,#463,#464));
#466=FACE_OUTER_BOUND('',#465,.F.);
#467=ADVANCED_FACE('',(#466),#459,.F.);
#468=CARTESIAN_POINT('',(0.E0,0.E0,1.9E-1));
#469=DIRECTION('',(0.E0,0.E0,-1.E0));
#470=DIRECTION('',(0.E0,-1.E0,0.E0));
#471=AXIS2_PLACEMENT_3D('',#468,#469,#470);
#472=PLANE('',#471);
#474=ORIENTED_EDGE('',*,*,#473,.T.);
#476=ORIENTED_EDGE('',*,*,#475,.T.);
#477=EDGE_LOOP('',(#474,#476));
#478=FACE_OUTER_BOUND('',#477,.F.);
#479=ORIENTED_EDGE('',*,*,#448,.T.);
#480=ORIENTED_EDGE('',*,*,#462,.F.);
#481=EDGE_LOOP('',(#479,#480));
#482=FACE_BOUND('',#481,.F.);
#483=ADVANCED_FACE('',(#478,#482),#472,.T.);
#484=CARTESIAN_POINT('',(0.E0,0.E0,1.77E-1));
#485=DIRECTION('',(0.E0,0.E0,-1.E0));
#486=DIRECTION('',(5.427532374986E-4,9.999998527095E-1,0.E0));
#487=AXIS2_PLACEMENT_3D('',#484,#485,#486);
#488=TOROIDAL_SURFACE('',#487,1.532E0,1.3E-2);
#489=ORIENTED_EDGE('',*,*,#473,.F.);
#491=ORIENTED_EDGE('',*,*,#490,.T.);
#493=ORIENTED_EDGE('',*,*,#492,.T.);
#495=ORIENTED_EDGE('',*,*,#494,.F.);
#496=EDGE_LOOP('',(#489,#491,#493,#495));
#497=FACE_OUTER_BOUND('',#496,.F.);
#498=ADVANCED_FACE('',(#497),#488,.F.);
#499=CARTESIAN_POINT('',(0.E0,0.E0,1.77E-1));
#500=DIRECTION('',(0.E0,0.E0,-1.E0));
#501=DIRECTION('',(-5.427532374985E-4,-9.999998527095E-1,0.E0));
#502=AXIS2_PLACEMENT_3D('',#499,#500,#501);
#503=TOROIDAL_SURFACE('',#502,1.532E0,1.3E-2);
#504=ORIENTED_EDGE('',*,*,#475,.F.);
#505=ORIENTED_EDGE('',*,*,#494,.T.);
#507=ORIENTED_EDGE('',*,*,#506,.T.);
#508=ORIENTED_EDGE('',*,*,#490,.F.);
#509=EDGE_LOOP('',(#504,#505,#507,#508));
#510=FACE_OUTER_BOUND('',#509,.F.);
#511=ADVANCED_FACE('',(#510),#503,.F.);
#512=CARTESIAN_POINT('',(0.E0,0.E0,0.E0));
#513=DIRECTION('',(0.E0,0.E0,-1.E0));
#514=DIRECTION('',(0.E0,-1.E0,0.E0));
#515=AXIS2_PLACEMENT_3D('',#512,#513,#514);
#516=CYLINDRICAL_SURFACE('',#515,1.545E0);
#517=ORIENTED_EDGE('',*,*,#506,.F.);
#519=ORIENTED_EDGE('',*,*,#518,.F.);
#521=ORIENTED_EDGE('',*,*,#520,.F.);
#523=ORIENTED_EDGE('',*,*,#522,.T.);
#524=EDGE_LOOP('',(#517,#519,#521,#523));
#525=FACE_OUTER_BOUND('',#524,.F.);
#526=ADVANCED_FACE('',(#525),#516,.F.);
#527=CARTESIAN_POINT('',(0.E0,0.E0,0.E0));
#528=DIRECTION('',(0.E0,0.E0,-1.E0));
#529=DIRECTION('',(0.E0,-1.E0,0.E0));
#530=AXIS2_PLACEMENT_3D('',#527,#528,#529);
#531=CYLINDRICAL_SURFACE('',#530,1.545E0);
#532=ORIENTED_EDGE('',*,*,#492,.F.);
#533=ORIENTED_EDGE('',*,*,#522,.F.);
#535=ORIENTED_EDGE('',*,*,#534,.F.);
#536=ORIENTED_EDGE('',*,*,#518,.T.);
#537=EDGE_LOOP('',(#532,#533,#535,#536));
#538=FACE_OUTER_BOUND('',#537,.F.);
#539=ADVANCED_FACE('',(#538),#531,.F.);
#540=CARTESIAN_POINT('',(0.E0,1.224646799147E-14,0.E0));
#541=DIRECTION('',(0.E0,0.E0,-1.E0));
#542=DIRECTION('',(0.E0,-1.E0,0.E0));
#543=AXIS2_PLACEMENT_3D('',#540,#541,#542);
#544=PLANE('',#543);
#546=ORIENTED_EDGE('',*,*,#545,.F.);
#548=ORIENTED_EDGE('',*,*,#547,.T.);
#549=EDGE_LOOP('',(#546,#548));
#550=FACE_OUTER_BOUND('',#549,.F.);
#551=ORIENTED_EDGE('',*,*,#520,.T.);
#552=ORIENTED_EDGE('',*,*,#534,.T.);
#553=EDGE_LOOP('',(#551,#552));
#554=FACE_BOUND('',#553,.F.);
#555=ADVANCED_FACE('',(#550,#554),#544,.T.);
#556=CARTESIAN_POINT('',(0.E0,1.228665171457E-14,3.28125E-1));
#557=DIRECTION('',(0.E0,0.E0,-1.E0));
#558=DIRECTION('',(0.E0,-1.E0,0.E0));
#559=AXIS2_PLACEMENT_3D('',#556,#557,#558);
#560=CYLINDRICAL_SURFACE('',#559,1.625E0);
#562=ORIENTED_EDGE('',*,*,#561,.F.);
#563=ORIENTED_EDGE('',*,*,#545,.T.);
#565=ORIENTED_EDGE('',*,*,#564,.T.);
#566=ORIENTED_EDGE('',*,*,#273,.F.);
#567=EDGE_LOOP('',(#562,#563,#565,#566));
#568=FACE_OUTER_BOUND('',#567,.F.);
#569=ADVANCED_FACE('',(#568),#560,.T.);
#570=CARTESIAN_POINT('',(0.E0,1.228665171457E-14,3.28125E-1));
#571=DIRECTION('',(0.E0,0.E0,-1.E0));
#572=DIRECTION('',(0.E0,-1.E0,0.E0));
#573=AXIS2_PLACEMENT_3D('',#570,#571,#572);
#574=CYLINDRICAL_SURFACE('',#573,1.625E0);
#575=ORIENTED_EDGE('',*,*,#561,.T.);
#576=ORIENTED_EDGE('',*,*,#291,.T.);
#577=ORIENTED_EDGE('',*,*,#564,.F.);
#578=ORIENTED_EDGE('',*,*,#547,.F.);
#579=EDGE_LOOP('',(#575,#576,#577,#578));
#580=FACE_OUTER_BOUND('',#579,.F.);
#581=ADVANCED_FACE('',(#580),#574,.T.);
#584=DIMENSIONAL_EXPONENTS(1.E0,0.E0,0.E0,0.E0,0.E0,0.E0,0.E0);
#586=LENGTH_MEASURE_WITH_UNIT(LENGTH_MEASURE(2.54E1),#585);
#587=(CONVERSION_BASED_UNIT('INCH',#586)LENGTH_UNIT()NAMED_UNIT(#584));
#588=DIMENSIONAL_EXPONENTS(0.E0,0.E0,0.E0,0.E0,0.E0,0.E0,0.E0);
#590=PLANE_ANGLE_MEASURE_WITH_UNIT(PLANE_ANGLE_MEASURE(1.745329251994E-2),#589);
#591=(CONVERSION_BASED_UNIT('DEGREE',#590)NAMED_UNIT(*)PLANE_ANGLE_UNIT());
#593=UNCERTAINTY_MEASURE_WITH_UNIT(LENGTH_MEASURE(3.838899234126E-5),#587,
'closure',
'Maximum model space distance between geometric entities at asserted connectivities');
#594=(GEOMETRIC_REPRESENTATION_CONTEXT(3)GLOBAL_UNCERTAINTY_ASSIGNED_CONTEXT((
#593))GLOBAL_UNIT_ASSIGNED_CONTEXT((#587,#591,#592))REPRESENTATION_CONTEXT
('ID1','3'));
#595=CARTESIAN_POINT('',(0.E0,0.E0,0.E0));
#596=DIRECTION('',(0.E0,0.E0,1.E0));
#597=DIRECTION('',(1.E0,0.E0,0.E0));
#600=APPLICATION_CONTEXT(
'CONFIGURATION CONTROLLED 3D DESIGNS OF MECHANICAL PARTS AND ASSEMBLIES');
#601=APPLICATION_PROTOCOL_DEFINITION('international standard',
'config_control_design',1994,#600);
#602=DESIGN_CONTEXT('',#600,'design');
#603=MECHANICAL_CONTEXT('',#600,'mechanical');
#604=PRODUCT('12507','12507','NOT SPECIFIED',(#603));
#605=PRODUCT_DEFINITION_FORMATION_WITH_SPECIFIED_SOURCE('1','LAST_VERSION',#604,
.MADE.);
#614=CARTESIAN_POINT('',(0.E0,0.E0,0.E0));
#615=DIRECTION('',(0.E0,0.E0,1.E0));
#616=DIRECTION('',(1.E0,0.E0,0.E0));
#617=AXIS2_PLACEMENT_3D('',#614,#615,#616);
#618=ITEM_DEFINED_TRANSFORMATION('','',#598,#617);
#619=(REPRESENTATION_RELATIONSHIP('','',#599,#611)REPRESENTATION_RELATIONSHIP_WITH_TRANSFORMATION(#618)SHAPE_REPRESENTATION_RELATIONSHIP());
#620=CONTEXT_DEPENDENT_SHAPE_REPRESENTATION(#619,#613);
#621=DIMENSIONAL_EXPONENTS(1.E0,0.E0,0.E0,0.E0,0.E0,0.E0,0.E0);
#623=LENGTH_MEASURE_WITH_UNIT(LENGTH_MEASURE(2.54E1),#622);
#624=(CONVERSION_BASED_UNIT('INCH',#623)LENGTH_UNIT()NAMED_UNIT(#621));
#625=DIMENSIONAL_EXPONENTS(0.E0,0.E0,0.E0,0.E0,0.E0,0.E0,0.E0);
#627=PLANE_ANGLE_MEASURE_WITH_UNIT(PLANE_ANGLE_MEASURE(1.745329251994E-2),#626);
#628=(CONVERSION_BASED_UNIT('DEGREE',#627)NAMED_UNIT(*)PLANE_ANGLE_UNIT());
#630=UNCERTAINTY_MEASURE_WITH_UNIT(LENGTH_MEASURE(4.606679080951E-4),#624,
'closure',
'Maximum model space distance between geometric entities at asserted connectivities');
#631=(GEOMETRIC_REPRESENTATION_CONTEXT(3)GLOBAL_UNCERTAINTY_ASSIGNED_CONTEXT((
#630))GLOBAL_UNIT_ASSIGNED_CONTEXT((#624,#628,#629))REPRESENTATION_CONTEXT
('ID2','3'));
#632=CARTESIAN_POINT('',(0.E0,0.E0,0.E0));
#633=DIRECTION('',(0.E0,0.E0,1.E0));
#634=DIRECTION('',(1.E0,0.E0,0.E0));
#636=MECHANICAL_CONTEXT('',#600,'mechanical');
#637=PRODUCT('20-511_ASM','20-511_ASM','NOT SPECIFIED',(#636));
#638=PRODUCT_DEFINITION_FORMATION_WITH_SPECIFIED_SOURCE('1','LAST_VERSION',#637,
.MADE.);
#640=PRODUCT_CATEGORY('part','');
#641=PRODUCT_RELATED_PRODUCT_CATEGORY('assembly','',(#637));
#642=PRODUCT_CATEGORY_RELATIONSHIP('','',#640,#641);
#643=PRODUCT_CATEGORY('part','');
#644=PRODUCT_RELATED_PRODUCT_CATEGORY('detail','',(#604));
#645=PRODUCT_CATEGORY_RELATIONSHIP('','',#643,#644);
#646=SECURITY_CLASSIFICATION_LEVEL('unclassified');
#647=SECURITY_CLASSIFICATION('','',#646);
#648=CC_DESIGN_SECURITY_CLASSIFICATION(#647,(#605,#638,#612));
#649=APPROVAL_STATUS('approved');
#650=APPROVAL(#649,'');
#651=CC_DESIGN_APPROVAL(#650,(#647,#605,#638,#606,#639));
#652=CALENDAR_DATE(124,7,2);
#653=COORDINATED_UNIVERSAL_TIME_OFFSET(5,30,.AHEAD.);
#654=LOCAL_TIME(21,29,2.6E1,#653);
#655=DATE_AND_TIME(#652,#654);
#656=APPROVAL_DATE_TIME(#655,#650);
#657=DATE_TIME_ROLE('creation_date');
#658=CC_DESIGN_DATE_AND_TIME_ASSIGNMENT(#655,#657,(#606,#639));
#659=DATE_TIME_ROLE('classification_date');
#660=CC_DESIGN_DATE_AND_TIME_ASSIGNMENT(#655,#659,(#647));
#661=PERSON('UNSPECIFIED','UNSPECIFIED',$,$,$,$);
#662=ORGANIZATION('UNSPECIFIED','UNSPECIFIED','UNSPECIFIED');
#663=PERSON_AND_ORGANIZATION(#661,#662);
#664=APPROVAL_ROLE('approver');
#665=APPROVAL_PERSON_ORGANIZATION(#663,#650,#664);
#666=PERSON_AND_ORGANIZATION_ROLE('creator');
#667=CC_DESIGN_PERSON_AND_ORGANIZATION_ASSIGNMENT(#663,#666,(#605,#638,#606,
#639));
#668=PERSON_AND_ORGANIZATION_ROLE('design_supplier');
#669=CC_DESIGN_PERSON_AND_ORGANIZATION_ASSIGNMENT(#663,#668,(#605,#638));
#670=PERSON_AND_ORGANIZATION_ROLE('classification_officer');
#671=CC_DESIGN_PERSON_AND_ORGANIZATION_ASSIGNMENT(#663,#670,(#647));
#672=PERSON_AND_ORGANIZATION_ROLE('design_owner');
#673=CC_DESIGN_PERSON_AND_ORGANIZATION_ASSIGNMENT(#663,#672,(#637,#604));
#6=CIRCLE('',#5,1.625E0);
#11=CIRCLE('',#10,7.E-2);
#16=CIRCLE('',#15,7.E-2);
#21=CIRCLE('',#20,1.625E0);
#26=CIRCLE('',#25,3.6E-1);
#31=CIRCLE('',#30,3.6E-1);
#36=CIRCLE('',#35,1.579108194323E0);
#41=CIRCLE('',#40,1.579108194323E0);
#46=CIRCLE('',#45,1.478643078044E0);
#51=CIRCLE('',#50,7.E-2);
#56=CIRCLE('',#55,7.E-2);
#61=CIRCLE('',#60,1.478643078044E0);
#66=CIRCLE('',#65,1.435E0);
#71=CIRCLE('',#70,1.435E0);
#76=CIRCLE('',#75,2.95E-1);
#81=CIRCLE('',#80,2.95E-1);
#94=CIRCLE('',#93,2.95E-1);
#99=CIRCLE('',#98,2.95E-1);
#104=CIRCLE('',#103,1.282E0);
#109=CIRCLE('',#108,1.282E0);
#114=CIRCLE('',#113,1.3E-2);
#119=CIRCLE('',#118,1.3E-2);
#124=CIRCLE('',#123,1.295E0);
#129=CIRCLE('',#128,1.295E0);
#134=CIRCLE('',#133,1.295E0);
#143=CIRCLE('',#142,1.295E0);
#152=CIRCLE('',#151,1.532E0);
#157=CIRCLE('',#156,1.532E0);
#162=CIRCLE('',#161,1.3E-2);
#167=CIRCLE('',#166,1.3E-2);
#172=CIRCLE('',#171,1.545E0);
#177=CIRCLE('',#176,1.545E0);
#190=CIRCLE('',#189,1.545E0);
#195=CIRCLE('',#194,1.545E0);
#200=CIRCLE('',#199,1.625E0);
#213=CIRCLE('',#212,1.625E0);
#271=EDGE_CURVE('',#217,#223,#11,.T.);
#273=EDGE_CURVE('',#217,#221,#6,.T.);
#275=EDGE_CURVE('',#221,#229,#16,.T.);
#277=EDGE_CURVE('',#223,#229,#41,.T.);
#288=EDGE_CURVE('',#223,#229,#36,.T.);
#291=EDGE_CURVE('',#217,#221,#21,.T.);
#301=EDGE_CURVE('',#223,#225,#26,.T.);
#303=EDGE_CURVE('',#225,#231,#61,.T.);
#305=EDGE_CURVE('',#229,#231,#31,.T.);
#319=EDGE_CURVE('',#225,#231,#46,.T.);
#329=EDGE_CURVE('',#225,#227,#51,.T.);
#332=EDGE_CURVE('',#231,#233,#56,.T.);
#334=EDGE_CURVE('',#227,#233,#71,.T.);
#345=EDGE_CURVE('',#227,#233,#66,.T.);
#361=EDGE_CURVE('',#240,#241,#76,.T.);
#363=EDGE_CURVE('',#241,#240,#81,.T.);
#374=EDGE_CURVE('',#244,#240,#85,.T.);
#376=EDGE_CURVE('',#244,#245,#94,.T.);
#378=EDGE_CURVE('',#245,#241,#89,.T.);
#390=EDGE_CURVE('',#245,#244,#99,.T.);
#401=EDGE_CURVE('',#260,#261,#104,.T.);
#403=EDGE_CURVE('',#261,#260,#109,.T.);
#418=EDGE_CURVE('',#260,#264,#114,.T.);
#420=EDGE_CURVE('',#264,#265,#134,.T.);
#422=EDGE_CURVE('',#261,#265,#119,.T.);
#434=EDGE_CURVE('',#265,#264,#124,.T.);
#446=EDGE_CURVE('',#249,#265,#147,.T.);
#448=EDGE_CURVE('',#248,#249,#129,.T.);
#450=EDGE_CURVE('',#248,#264,#138,.T.);
#462=EDGE_CURVE('',#248,#249,#143,.T.);
#473=EDGE_CURVE('',#252,#253,#152,.T.);
#475=EDGE_CURVE('',#253,#252,#157,.T.);
#490=EDGE_CURVE('',#252,#256,#162,.T.);
#492=EDGE_CURVE('',#256,#257,#177,.T.);
#494=EDGE_CURVE('',#253,#257,#167,.T.);
#506=EDGE_CURVE('',#257,#256,#172,.T.);
#518=EDGE_CURVE('',#237,#257,#185,.T.);
#520=EDGE_CURVE('',#236,#237,#190,.T.);
#522=EDGE_CURVE('',#236,#256,#181,.T.);
#534=EDGE_CURVE('',#237,#236,#195,.T.);
#545=EDGE_CURVE('',#216,#220,#200,.T.);
#547=EDGE_CURVE('',#216,#220,#213,.T.);
#561=EDGE_CURVE('',#216,#217,#204,.T.);
#564=EDGE_CURVE('',#220,#221,#208,.T.);
#582=CLOSED_SHELL('',(#281,#295,#310,#323,#338,#351,#367,#382,#395,#411,#426,
#439,#454,#467,#483,#498,#511,#526,#539,#555,#569,#581));
#583=MANIFOLD_SOLID_BREP('',#582);
#585=(LENGTH_UNIT()NAMED_UNIT(*)SI_UNIT(.MILLI.,.METRE.));
#589=(NAMED_UNIT(*)PLANE_ANGLE_UNIT()SI_UNIT($,.RADIAN.));
#592=(NAMED_UNIT(*)SI_UNIT($,.STERADIAN.)SOLID_ANGLE_UNIT());
#598=AXIS2_PLACEMENT_3D('',#595,#596,#597);
#599=ADVANCED_BREP_SHAPE_REPRESENTATION('',(#598,#583),#594);
#606=PRODUCT_DEFINITION('design','',#605,#602);
#607=PRODUCT_DEFINITION_SHAPE('','SHAPE FOR 12507.',#606);
#608=SHAPE_DEFINITION_REPRESENTATION(#607,#599);
#609=SHAPE_DEFINITION_REPRESENTATION(#610,#611);
#610=PRODUCT_DEFINITION_SHAPE('','SHAPE FOR 20-511_ASM.',#639);
#611=SHAPE_REPRESENTATION('',(#617,#635),#631);
#612=NEXT_ASSEMBLY_USAGE_OCCURRENCE('0','Next assembly relationship','12507',
#639,#606,$);
#613=PRODUCT_DEFINITION_SHAPE('Placement #0',
'Placement of 12507 with respect to 20-511_ASM',#612);
#622=(LENGTH_UNIT()NAMED_UNIT(*)SI_UNIT(.MILLI.,.METRE.));
#626=(NAMED_UNIT(*)PLANE_ANGLE_UNIT()SI_UNIT($,.RADIAN.));
#629=(NAMED_UNIT(*)SI_UNIT($,.STERADIAN.)SOLID_ANGLE_UNIT());
#635=AXIS2_PLACEMENT_3D('',#632,#633,#634);
#639=PRODUCT_DEFINITION('design','',#638,#602);
ENDSEC;
END-ISO-10303-21;
