999
DXF file: 2008_front.dxf
999
Pro/ENGINEER 2018400 by Parametric Technology Corporation
  0
SECTION
  2
HEADER
  9
$ACADVER
  1
AC1027
  9
$DWGCODEPAGE
  3
ANSI_1252
  9
$EXTMAX
 10
11.0
 20
8.5
 30
0.0
  9
$EXTMIN
 10
0.0
 20
0.0
 30
0.0
  9
$LIMMIN
 10
0.0
 20
0.0
  9
$LIMMAX
 10
11.0
 20
8.5
  9
$VIEWCTR
 10
5.5
 20
4.25
  9
$VIEWSIZE
 40
8.5
  9
$CLAYER
  8
0
  9
$LTSCALE
 40
0.605
  9
$CELTYPE
  6
BYLAYER
  9
$DIMSCALE
 40
1.0
  9
$DIMASZ
 40
0.1
  9
$DIMEXO
 40
0.0625
  9
$DIMDLI
 40
0.418
  9
$DIMEXE
 40
0.125
  9
$DIMCEN
 40
0.099
  9
$DIMLFAC
 40
1.0
  9
$DIMBLK
  1
_FILLED
  9
$DIMALT
 70
1
  9
$DIMALTD
 70
1
  9
$DIMALTTD
 70
2
  9
$DIMALTF
 40
25.4
  9
$DIMTXT
 40
0.08
  9
$DIMTOL
 70
1
  9
$DIMLIM
 70
0
  9
$DIMTFAC
 40
1.0
  9
$DIMTP
 40
0.01
  9
$DIMTM
 40
0.01
  9
$DIMGAP
 40
0.09
  9
$DIMDSEP
 70
46
  9
$AUNITS
 70
0
  9
$PDMODE
 70
3
  9
$PDSIZE
 40
0.3125
  9
$HANDSEED
  5
25B
  9
$TILEMODE
 70
1
  9
$MEASUREMENT
 70
0
  9
$INSUNITS
 70
1
  0
ENDSEC
  0
SECTION
  2
CLASSES
  0
CLASS
  1
ACDBDICTIONARYWDFLT
  2
AcDbDictionaryWithDefault
  3
AutoCAD 2000
 90
0
 91
1
280
0
281
0
  0
CLASS
  1
ACDBPLACEHOLDER
  2
AcDbPlaceHolder
  3
AutoCAD 2000
 90
0
 91
1
280
0
281
0
  0
CLASS
  1
LAYOUT
  2
AcDbLayout
  3
AutoCAD 2000
 90
0
 91
0
280
0
281
0
  0
ENDSEC
  0
SECTION
  2
TABLES
  0
TABLE
  2
VPORT
  5
8
100
AcDbSymbolTable
 70
2
  0
VPORT
  5
1F4
100
AcDbSymbolTableRecord
100
AcDbViewportTableRecord
  2
*ACTIVE
 70
0
 10
0.0
 20
0.0
 11
1.0
 21
1.0
 12
5.5
 22
4.25
 13
0.0
 23
0.0
 14
1.0
 24
1.0
 15
0.0
 25
0.0
 16
0.0
 26
0.0
 36
1.0
 17
0.0
 27
0.0
 37
0.0
 40
8.5
 41
1.2941176471
 42
50.0
 43
0.0
 44
0.0
 50
0.0
 51
0.0
 71
0
 72
100
 73
1
 74
1
 75
0
 76
0
 77
0
 78
0
  0
ENDTAB
  0
TABLE
  2
LTYPE
  5
5
100
AcDbSymbolTable
 70
6
  0
LTYPE
  5
14
100
AcDbSymbolTableRecord
100
AcDbLinetypeTableRecord
  2
BYBLOCK
 70
0
  3

 72
65
 73
0
 40
0.0
  0
LTYPE
  5
15
100
AcDbSymbolTableRecord
100
AcDbLinetypeTableRecord
  2
BYLAYER
 70
0
  3

 72
65
 73
0
 40
0.0
  0
LTYPE
  5
16
100
AcDbSymbolTableRecord
100
AcDbLinetypeTableRecord
  2
CONTINUOUS
 70
64
  3
Solid line
 72
65
 73
0
 40
0.0
  0
LTYPE
  5
1F5
100
AcDbSymbolTableRecord
100
AcDbLinetypeTableRecord
  2
CENTER
 70
64
  3
____ _ ____ _ ____ _ ____ _ ____ _ ____ _ ____
 72
65
 73
4
 40
0.6
 49
0.375
 74
0
 49
-0.075
 74
0
 49
0.075
 74
0
 49
-0.075
 74
0
  0
LTYPE
  5
1F6
100
AcDbSymbolTableRecord
100
AcDbLinetypeTableRecord
  2
HIDDEN
 70
64
  3
- - - - - - - - - - - - - - - - - - - -
 72
65
 73
2
 40
0.2
 49
0.1
 74
0
 49
-0.1
 74
0
  0
LTYPE
  5
1F7
100
AcDbSymbolTableRecord
100
AcDbLinetypeTableRecord
  2
PHANTOM
 70
64
  3
_____ _ _ _____ _ _ _____ _ _ _____
 72
65
 73
6
 40
0.8
 49
0.45
 74
0
 49
-0.05
 74
0
 49
0.1
 74
0
 49
-0.05
 74
0
 49
0.1
 74
0
 49
-0.05
 74
0
  0
LTYPE
  5
1F8
100
AcDbSymbolTableRecord
100
AcDbLinetypeTableRecord
  2
DOT
 70
64
  3
. . . . . . . . . . . . . . . . . . . .
 72
65
 73
2
 40
0.2
 49
0.1
 74
0
 49
-0.1
 74
0
  0
LTYPE
  5
1F9
100
AcDbSymbolTableRecord
100
AcDbLinetypeTableRecord
  2
DASHED
 70
64
  3
- - - - - - - - - - - - - - - - - - - -
 72
65
 73
2
 40
0.2
 49
0.1
 74
0
 49
-0.1
 74
0
  0
ENDTAB
  0
TABLE
  2
LAYER
  5
2
100
AcDbSymbolTable
 70
36
  0
LAYER
  5
10
100
AcDbSymbolTableRecord
100
AcDbLayerTableRecord
  2
0
 70
0
 62
7
  6
CONTINUOUS
370
-3
390
F
  0
LAYER
  5
1FA
100
AcDbSymbolTableRecord
100
AcDbLayerTableRecord
  2
DEFAULT_1
 70
0
 62
7
  6
CENTER
370
-3
390
F
  0
LAYER
  5
1FB
100
AcDbSymbolTableRecord
100
AcDbLayerTableRecord
  2
DEFAULT_2
 70
0
 62
8
  6
HIDDEN
370
-3
390
F
  0
LAYER
  5
1FC
100
AcDbSymbolTableRecord
100
AcDbLayerTableRecord
  2
DEFAULT_3
 70
0
 62
7
  6
PHANTOM
370
-3
390
F
  0
LAYER
  5
1FD
100
AcDbSymbolTableRecord
100
AcDbLayerTableRecord
  2
DEFAULT_COORDINATE_SYSTEM
 70
0
 62
7
  6
CONTINUOUS
370
-3
390
F
  0
LAYER
  5
1FE
100
AcDbSymbolTableRecord
100
AcDbLayerTableRecord
  2
DEFAULT_DATUM_AXES
 70
0
 62
7
  6
CONTINUOUS
370
-3
390
F
  0
LAYER
  5
1FF
100
AcDbSymbolTableRecord
100
AcDbLayerTableRecord
  2
DEFAULT_DATUM_PLANES
 70
0
 62
7
  6
CONTINUOUS
370
-3
390
F
  0
ENDTAB
  0
TABLE
  2
STYLE
  5
3
100
AcDbSymbolTable
 70
1
  0
STYLE
  5
11
100
AcDbSymbolTableRecord
100
AcDbTextStyleTableRecord
  2
STANDARD
 70
0
 40
0.0
 41
0.8
 50
0.0
 71
0
 42
0.2
  3
txt
  4

  0
STYLE
  5
200
100
AcDbSymbolTableRecord
100
AcDbTextStyleTableRecord
  2
TEXTSTYLE_1
 70
0
 40
0.0
 41
0.8
 50
0.0
 71
0
 42
0.2
  3
gdt
  4

  0
ENDTAB
  0
TABLE
  2
VIEW
  5
6
100
AcDbSymbolTable
 70
0
  0
ENDTAB
  0
TABLE
  2
UCS
  5
7
100
AcDbSymbolTable
 70
0
  0
ENDTAB
  0
TABLE
  2
APPID
  5
9
100
AcDbSymbolTable
 70
1
  0
APPID
  5
201
100
AcDbSymbolTableRecord
100
AcDbRegAppTableRecord
  2
ACAD
 70
0
  0
ENDTAB
  0
TABLE
  2
BLOCK_RECORD
  5
1
100
AcDbSymbolTable
 70
0
  0
BLOCK_RECORD
  5
202
100
AcDbSymbolTableRecord
100
AcDbBlockTableRecord
  2
*Model_Space
  0
BLOCK_RECORD
  5
203
100
AcDbSymbolTableRecord
100
AcDbBlockTableRecord
  2
*Paper_Space
  0
BLOCK_RECORD
  5
204
100
AcDbSymbolTableRecord
100
AcDbBlockTableRecord
  2
_FILLED
  0
ENDTAB
  0
TABLE
  2
DIMSTYLE
  5
A
100
AcDbSymbolTable
 70
1
100
AcDbDimStyleTable
 71
0
  0
DIMSTYLE
105
205
100
AcDbSymbolTableRecord
100
AcDbDimStyleTableRecord
  2
STANDARD
 70
0
  3

  4

 40
1.0
 41
0.1
 42
0.0625
 43
0.38
 44
0.125
 45
0.0
 46
0.0
 47
0.01
 48
0.01
140
0.08
141
0.09
142
0.0
143
25.4
144
1.0
145
0.0
146
1.0
147
0.09
 71
1.0
 72
0.0
 73
1
 74
1
 75
0
 76
0
 77
0
 78
4
 79
1
170
1
171
1
172
0
173
0
174
0
175
0
176
0
177
0
178
0
270
2
179
2
271
2
272
2
273
2
274
2
275
0
280
0
281
0
282
0
283
1
284
4
285
0
286
0
287
3
288
0
340
11
278
46
341
204
342
204
343
204
344
204
  0
ENDTAB
  0
ENDSEC
  0
SECTION
  2
BLOCKS
  0
BLOCK
  5
20
100
AcDbEntity
  8
0
100
AcDbBlockBegin
  2
*Model_Space
 70
0
 10
0.0
 20
0.0
 30
0.0
  3
*Model_Space
  1

  0
ENDBLK
  5
21
100
AcDbEntity
  8
0
100
AcDbBlockEnd
  0
BLOCK
  5
1C
100
AcDbEntity
  8
0
100
AcDbBlockBegin
  2
*Paper_Space
 70
0
 10
0.0
 20
0.0
 30
0.0
  3
*Paper_Space
  1

  0
ENDBLK
  5
1D
100
AcDbEntity
  8
0
100
AcDbBlockEnd
  0
BLOCK
  5
206
100
AcDbEntity
  8
0
100
AcDbBlockBegin
  2
_FILLED
 70
64
 10
0.0
 20
0.0
  3
_FILLED
  1

  0
SOLID
  5
207
100
AcDbEntity
  8
0
  6
BYBLOCK
 62
0
100
AcDbTrace
 10
0.0
 20
0.0
 11
-1.0
 21
0.2
 12
-1.0
 22
-0.2
 13
-1.0
 23
-0.2
  0
ENDBLK
  5
208
100
AcDbEntity
  8
0
  6
BYBLOCK
 62
0
100
AcDbBlockEnd
  0
ENDSEC
  0
SECTION
  2
ENTITIES
  0
MTEXT
  5
209
100
AcDbEntity
  8
0
100
AcDbMText
 62
2
  6
CONTINUOUS
  7
STANDARD
 71
3
 72
1
 10
4.4277562112
 20
0.7198881988
 30
0.0
 11
1.0
 21
0.0
 31
0.0
 73
2
 44
0.9
  1
SCALE  .500
 40
0.08
 41
0.704
  0
LINE
  5
20A
100
AcDbEntity
  8
0
100
AcDbLine
 62
7
  6
CONTINUOUS
 10
0.0
 20
0.0
 11
0.0
 21
8.5
  0
LINE
  5
20B
100
AcDbEntity
  8
0
100
AcDbLine
 62
7
  6
CONTINUOUS
 10
0.0
 20
0.0
 11
11.0
 21
0.0
  0
LINE
  5
20C
100
AcDbEntity
  8
0
100
AcDbLine
 62
7
  6
CONTINUOUS
 10
0.0
 20
8.5
 11
11.0
 21
8.5
  0
LINE
  5
20D
100
AcDbEntity
  8
0
100
AcDbLine
 62
7
  6
CONTINUOUS
 10
11.0
 20
0.0
 11
11.0
 21
8.5
  0
LINE
  5
20E
100
AcDbEntity
  8
0
100
AcDbLine
 62
7
  6
CONTINUOUS
 10
4.5747872671
 20
1.1492437888
 11
3.6247872671
 21
1.1492437888
  0
LINE
  5
20F
100
AcDbEntity
  8
0
100
AcDbLine
 62
7
  6
CONTINUOUS
 10
3.6247872671
 20
1.2057437888
 11
4.5747872671
 21
1.2057437888
  0
LINE
  5
210
100
AcDbEntity
  8
0
100
AcDbLine
 62
7
  6
CONTINUOUS
 10
3.6497872671
 20
1.2307437888
 11
4.5497872671
 21
1.2307437888
  0
LINE
  5
211
100
AcDbEntity
  8
0
100
AcDbLine
 62
7
  6
CONTINUOUS
 10
4.4960372671
 20
1.2382437888
 11
3.7035372671
 21
1.2382437888
  0
LINE
  5
212
100
AcDbEntity
  8
0
100
AcDbLine
 62
7
  6
CONTINUOUS
 10
5.1447872671
 20
1.6342437888
 11
4.4907648714
 21
1.6342437888
  0
LINE
  5
213
100
AcDbEntity
  8
0
100
AcDbLine
 62
7
  6
CONTINUOUS
 10
3.7088096627
 20
1.6342437888
 11
3.5558485683
 21
1.6342437888
  0
LINE
  5
214
100
AcDbEntity
  8
0
100
AcDbLine
 62
7
  6
CONTINUOUS
 10
5.3542872671
 20
1.6342437888
 11
5.6883478827
 21
1.6342437888
  0
LINE
  5
215
100
AcDbEntity
  8
0
100
AcDbLine
 62
7
  6
CONTINUOUS
 10
5.1990582198
 20
1.6367437888
 11
5.1447872671
 21
1.6367437888
  0
LINE
  5
216
100
AcDbEntity
  8
0
100
AcDbLine
 62
7
  6
CONTINUOUS
 10
5.1990582198
 20
2.6117437888
 11
5.1447872671
 21
2.6117437888
  0
LINE
  5
217
100
AcDbEntity
  8
0
100
AcDbLine
 62
7
  6
CONTINUOUS
 10
5.1447872671
 20
2.6142437888
 11
4.3996686093
 21
2.6142437888
  0
LINE
  5
218
100
AcDbEntity
  8
0
100
AcDbLine
 62
7
  6
CONTINUOUS
 10
3.7999059248
 20
2.6142437888
 11
3.5558485683
 21
2.6142437888
  0
LINE
  5
219
100
AcDbEntity
  8
0
100
AcDbLine
 62
7
  6
CONTINUOUS
 10
5.3542872671
 20
2.6142437888
 11
5.5042872671
 21
2.6142437888
  0
LINE
  5
21A
100
AcDbEntity
  8
0
100
AcDbLine
 62
7
  6
CONTINUOUS
 10
5.6642872671
 20
2.6142437888
 11
5.6883478827
 21
2.6142437888
  0
LINE
  5
21B
100
AcDbEntity
  8
0
100
AcDbLine
 62
7
  6
CONTINUOUS
 10
5.6642872671
 20
2.9267437888
 11
5.5042872671
 21
2.9267437888
  0
LINE
  5
21C
100
AcDbEntity
  8
0
100
AcDbLine
 62
7
  6
CONTINUOUS
 10
5.4842872671
 20
2.9392437888
 11
5.6842872671
 21
2.9392437888
  0
LINE
  5
21D
100
AcDbEntity
  8
0
100
AcDbLine
 62
7
  6
CONTINUOUS
 10
5.4592872671
 20
2.9642437888
 11
5.7092872671
 21
2.9642437888
  0
LINE
  5
21E
100
AcDbEntity
  8
0
100
AcDbLine
 62
7
  6
CONTINUOUS
 10
3.4719762595
 20
1.6968101605
 11
3.4719762595
 21
2.5516774171
  0
LINE
  5
21F
100
AcDbEntity
  8
0
100
AcDbLine
 62
7
  6
CONTINUOUS
 10
3.5558485683
 20
1.6342437888
 11
3.5558485683
 21
2.6142437888
  0
LINE
  5
220
100
AcDbEntity
  8
0
100
AcDbLine
 62
7
  6
CONTINUOUS
 10
3.6247872671
 20
1.1492437888
 11
3.6247872671
 21
1.2057437888
  0
LINE
  5
221
100
AcDbEntity
  8
0
100
AcDbLine
 62
7
  6
CONTINUOUS
 10
3.7035372671
 20
1.2382437888
 11
3.7035372671
 21
1.6299901028
  0
LINE
  5
222
100
AcDbEntity
  8
0
100
AcDbLine
 62
7
  6
CONTINUOUS
 10
3.7997872671
 20
3.3982437888
 11
4.3997872671
 21
3.3982437888
  0
LINE
  5
223
100
AcDbEntity
  8
0
100
AcDbLine
 62
7
  6
CONTINUOUS
 10
3.8497872671
 20
3.4482437888
 11
4.3497872671
 21
3.4482437888
  0
LINE
  5
224
100
AcDbEntity
  8
0
100
AcDbLine
 62
7
  6
CONTINUOUS
 10
3.7997872671
 20
3.3982437888
 11
3.7997872671
 21
2.6143163763
  0
LINE
  5
225
100
AcDbEntity
  8
0
100
AcDbLine
 62
7
  6
CONTINUOUS
 10
3.8810372671
 20
3.4482437888
 11
3.8810372671
 21
7.4202437888
  0
LINE
  5
226
100
AcDbEntity
  8
0
100
AcDbLine
 62
7
  6
CONTINUOUS
 10
5.4592872671
 20
3.6496539854
 11
5.7092872671
 21
3.6496539854
  0
LINE
  5
227
100
AcDbEntity
  8
0
100
AcDbLine
 62
7
  6
CONTINUOUS
 10
5.4771444099
 20
3.6736118566
 11
5.6914301242
 21
3.6736118566
  0
LINE
  5
228
100
AcDbEntity
  8
0
100
AcDbLine
 62
7
  6
CONTINUOUS
 10
4.3185372671
 20
3.4482437888
 11
4.3185372671
 21
7.4202437888
  0
LINE
  5
229
100
AcDbEntity
  8
0
100
AcDbLine
 62
7
  6
CONTINUOUS
 10
4.3997872671
 20
2.6143163763
 11
4.3997872671
 21
3.3982437888
  0
LINE
  5
22A
100
AcDbEntity
  8
0
100
AcDbLine
 62
7
  6
CONTINUOUS
 10
4.4960372671
 20
1.2382437888
 11
4.4960372671
 21
1.6299901028
  0
LINE
  5
22B
100
AcDbEntity
  8
0
100
AcDbLine
 62
7
  6
CONTINUOUS
 10
4.5747872671
 20
1.1492437888
 11
4.5747872671
 21
1.2057437888
  0
LINE
  5
22C
100
AcDbEntity
  8
0
100
AcDbLine
 62
7
  6
CONTINUOUS
 10
4.3185372671
 20
4.8592437888
 11
3.8810372671
 21
4.8592437888
  0
LINE
  5
22D
100
AcDbEntity
  8
0
100
AcDbLine
 62
7
  6
CONTINUOUS
 10
5.1447872671
 20
2.6142437888
 11
5.1447872671
 21
1.6342437888
  0
LINE
  5
22E
100
AcDbEntity
  8
0
100
AcDbLine
 62
7
  6
CONTINUOUS
 10
5.1990582198
 20
1.6367437888
 11
5.1990582198
 21
2.6117437888
  0
LINE
  5
22F
100
AcDbEntity
  8
0
100
AcDbLine
 62
7
  6
CONTINUOUS
 10
5.2026054831
 20
1.6368697783
 11
5.2026054831
 21
2.6116177993
  0
LINE
  5
230
100
AcDbEntity
  8
0
100
AcDbLine
 62
7
  6
CONTINUOUS
 10
5.3542872671
 20
1.6342437888
 11
5.3542872671
 21
2.6142437888
  0
LINE
  5
231
100
AcDbEntity
  8
0
100
AcDbLine
 62
7
  6
CONTINUOUS
 10
5.4592872671
 20
2.9642437888
 11
5.4592872671
 21
3.6496539854
  0
LINE
  5
232
100
AcDbEntity
  8
0
100
AcDbLine
 62
7
  6
CONTINUOUS
 10
5.5042872671
 20
2.6142437888
 11
5.5042872671
 21
2.9267437888
  0
LINE
  5
233
100
AcDbEntity
  8
0
100
AcDbLine
 62
7
  6
CONTINUOUS
 10
5.6642872671
 20
2.6142437888
 11
5.6642872671
 21
2.9267437888
  0
LINE
  5
234
100
AcDbEntity
  8
0
100
AcDbLine
 62
7
  6
CONTINUOUS
 10
5.6883478827
 20
1.6342437888
 11
5.6883478827
 21
2.6142437888
  0
LINE
  5
235
100
AcDbEntity
  8
0
100
AcDbLine
 62
7
  6
CONTINUOUS
 10
5.7092872671
 20
2.9642437888
 11
5.7092872671
 21
3.6496539854
  0
LINE
  5
236
100
AcDbEntity
  8
0
100
AcDbLine
 62
7
  6
CONTINUOUS
 10
5.7707629596
 20
1.6956723602
 11
5.7707629596
 21
2.5528152174
  0
LINE
  5
237
100
AcDbEntity
  8
0
100
AcDbLine
 62
7
  6
CONTINUOUS
 10
5.8305148637
 20
2.0330310223
 11
5.8305148637
 21
2.2154565554
  0
LINE
  5
238
100
AcDbEntity
  8
0
100
AcDbLine
 62
7
  6
CONTINUOUS
 10
5.848551608
 20
2.2014973856
 11
5.848551608
 21
2.0469901921
  0
LINE
  5
239
100
AcDbEntity
  8
0
100
AcDbLine
 62
7
  6
CONTINUOUS
 10
3.8810372671
 20
5.6387437888
 11
4.3185372671
 21
5.6387437888
  0
ARC
  5
23A
100
AcDbEntity
  8
0
100
AcDbCircle
 62
7
  6
CONTINUOUS
 10
4.9097872671
 20
2.1242437888
 40
1.5
100
AcDbArc
 50
163.4437962975
 51
196.5562037025
  0
ARC
  5
23B
100
AcDbEntity
  8
0
100
AcDbCircle
 62
7
  6
CONTINUOUS
 10
4.3332906883
 20
2.1242437888
 40
1.5
100
AcDbArc
 50
3.4862217819
 51
16.601549599
  0
ARC
  5
23C
100
AcDbEntity
  8
0
100
AcDbCircle
 62
7
  6
CONTINUOUS
 10
4.3332906883
 20
2.1242437888
 40
1.5
100
AcDbArc
 50
343.398450401
 51
356.5137782181
  0
ARC
  5
23D
100
AcDbEntity
  8
0
100
AcDbCircle
 62
7
  6
CONTINUOUS
 10
5.1671328506
 20
2.1128776943
 40
0.5
100
AcDbArc
 50
68.0183990535
 51
85.931718091
  0
ARC
  5
23E
100
AcDbEntity
  8
0
100
AcDbCircle
 62
7
  6
CONTINUOUS
 10
5.1671328506
 20
2.1356098833
 40
0.5
100
AcDbArc
 50
274.068281909
 51
291.9816009465
  0
ARC
  5
23F
100
AcDbEntity
  8
0
100
AcDbCircle
 62
7
  6
CONTINUOUS
 10
5.5842872671
 20
3.3142437888
 40
0.375
100
AcDbArc
 50
73.398450401
 51
106.601549599
  0
ARC
  5
240
100
AcDbEntity
  8
0
100
AcDbCircle
 62
7
  6
CONTINUOUS
 10
5.6107872671
 20
2.1242437888
 40
0.25
100
AcDbArc
 50
342.0001570838
 51
17.9998429162
  0
ARC
  5
241
100
AcDbEntity
  8
0
100
AcDbCircle
 62
7
  6
CONTINUOUS
 10
4.0997872671
 20
7.4202437888
 40
0.21875
100
AcDbArc
 50
0.0
 51
180.0
  0
ARC
  5
242
100
AcDbEntity
  8
0
100
AcDbCircle
 62
7
  6
CONTINUOUS
 10
3.5558485683
 20
1.7217437888
 40
0.0875
100
AcDbArc
 50
196.5562037025
 51
270.0
  0
ARC
  5
243
100
AcDbEntity
  8
0
100
AcDbCircle
 62
7
  6
CONTINUOUS
 10
3.5558485683
 20
2.5267437888
 40
0.0875
100
AcDbArc
 50
90.0
 51
163.4437962975
  0
ARC
  5
244
100
AcDbEntity
  8
0
100
AcDbCircle
 62
7
  6
CONTINUOUS
 10
5.6883478827
 20
1.7202437888
 40
0.086
100
AcDbArc
 50
270.0
 51
343.398450401
  0
ARC
  5
245
100
AcDbEntity
  8
0
100
AcDbCircle
 62
7
  6
CONTINUOUS
 10
5.6883478827
 20
2.5282437888
 40
0.086
100
AcDbArc
 50
16.601549599
 51
90.0
  0
ARC
  5
246
100
AcDbEntity
  8
0
100
AcDbCircle
 62
7
  6
CONTINUOUS
 10
5.1990582198
 20
1.6867437888
 40
0.05
100
AcDbArc
 50
270.0
 51
274.068281909
  0
ARC
  5
247
100
AcDbEntity
  8
0
100
AcDbCircle
 62
7
  6
CONTINUOUS
 10
5.1990582198
 20
2.5617437888
 40
0.05
100
AcDbArc
 50
85.931718091
 51
90.0
  0
ARC
  5
248
100
AcDbEntity
  8
0
100
AcDbCircle
 62
7
  6
CONTINUOUS
 10
4.3497872671
 20
3.3982437888
 40
0.05
100
AcDbArc
 50
0.0
 51
90.0
  0
ARC
  5
249
100
AcDbEntity
  8
0
100
AcDbCircle
 62
7
  6
CONTINUOUS
 10
3.8497872671
 20
3.3982437888
 40
0.05
100
AcDbArc
 50
90.0
 51
180.0
  0
ARC
  5
24A
100
AcDbEntity
  8
0
100
AcDbCircle
 62
7
  6
CONTINUOUS
 10
5.4842872671
 20
3.6496539854
 40
0.025
100
AcDbArc
 50
106.601549599
 51
180.0
  0
ARC
  5
24B
100
AcDbEntity
  8
0
100
AcDbCircle
 62
7
  6
CONTINUOUS
 10
5.6842872671
 20
3.6496539854
 40
0.025
100
AcDbArc
 50
0.0
 51
73.398450401
  0
ARC
  5
24C
100
AcDbEntity
  8
0
100
AcDbCircle
 62
7
  6
CONTINUOUS
 10
5.4842872671
 20
2.9642437888
 40
0.025
100
AcDbArc
 50
180.0
 51
270.0
  0
ARC
  5
24D
100
AcDbEntity
  8
0
100
AcDbCircle
 62
7
  6
CONTINUOUS
 10
5.6842872671
 20
2.9642437888
 40
0.025
100
AcDbArc
 50
270.0
 51
360.0
  0
ARC
  5
24E
100
AcDbEntity
  8
0
100
AcDbCircle
 62
7
  6
CONTINUOUS
 10
3.6497872671
 20
1.2057437888
 40
0.025
100
AcDbArc
 50
90.0
 51
180.0
  0
ARC
  5
24F
100
AcDbEntity
  8
0
100
AcDbCircle
 62
7
  6
CONTINUOUS
 10
4.5497872671
 20
1.2057437888
 40
0.025
100
AcDbArc
 50
0.0
 51
90.0
  0
ARC
  5
250
100
AcDbEntity
  8
0
100
AcDbCircle
 62
7
  6
CONTINUOUS
 10
5.8292872671
 20
2.0532494975
 40
0.0202557087
100
AcDbArc
 50
273.4745380627
 51
342.0001570838
  0
ARC
  5
251
100
AcDbEntity
  8
0
100
AcDbCircle
 62
7
  6
CONTINUOUS
 10
5.8292872671
 20
2.1952380802
 40
0.0202557087
100
AcDbArc
 50
17.9998429162
 51
86.5254619373
  0
ARC
  5
252
100
AcDbEntity
  8
0
100
AcDbCircle
 62
7
  6
CONTINUOUS
 10
5.6767872671
 20
2.9267437888
 40
0.0125
100
AcDbArc
 50
90.0
 51
180.0
  0
ARC
  5
253
100
AcDbEntity
  8
0
100
AcDbCircle
 62
7
  6
CONTINUOUS
 10
5.4917872671
 20
2.9267437888
 40
0.0125
100
AcDbArc
 50
0.0
 51
90.0
  0
ARC
  5
254
100
AcDbEntity
  8
0
100
AcDbCircle
 62
7
  6
CONTINUOUS
 10
3.6960372671
 20
1.2382437888
 40
0.0075
100
AcDbArc
 50
270.0
 51
360.0
  0
ARC
  5
255
100
AcDbEntity
  8
0
100
AcDbCircle
 62
7
  6
CONTINUOUS
 10
4.5035372671
 20
1.2382437888
 40
0.0075
100
AcDbArc
 50
180.0
 51
270.0
  0
SPLINE
  5
256
100
AcDbEntity
  8
0
100
AcDbSpline
 62
7
  6
CONTINUOUS
 70
0
 71
3
 72
43
 73
39
 74
0
 42
0.0000001
 43
0.0000001
 44
0.0000000001
 40
0.0
 40
0.0
 40
0.0
 40
0.0
 40
0.0110582278
 40
0.0430023009
 40
0.0658942972
 40
0.0928050866
 40
0.1232894872
 40
0.1569318635
 40
0.1933563625
 40
0.2322277024
 40
0.2732437566
 40
0.3161211727
 40
0.338171675
 40
0.3605790316
 40
0.3833028284
 40
0.4062992594
 40
0.4295206364
 40
0.4529152663
 40
0.476427778
 40
0.5
 40
0.523572222
 40
0.5470847337
 40
0.5704793636
 40
0.5937007406
 40
0.6166971716
 40
0.6394209684
 40
0.661828325
 40
0.6838788273
 40
0.7267562434
 40
0.7677722976
 40
0.8066436375
 40
0.8430681365
 40
0.8767105128
 40
0.9071949134
 40
0.9341057028
 40
0.9569976991
 40
0.9889417722
 40
1.0
 40
1.0
 40
1.0
 40
1.0
 10
4.3997872671
 20
2.6143163763
 30
0.0
 10
4.3977680944
 20
2.6130801615
 30
0.0
 10
4.3899025423
 20
2.60829483
 30
0.0
 10
4.3777671477
 20
2.6010982698
 30
0.0
 10
4.3625730925
 20
2.5924104649
 30
0.0
 10
4.3475199733
 20
2.5841091309
 30
0.0
 10
4.3302720663
 20
2.5750277059
 30
0.0
 10
4.3109883621
 20
2.5654516755
 30
0.0
 10
4.2898055422
 20
2.5556812914
 30
0.0
 10
4.2668405859
 20
2.5460357368
 30
0.0
 10
4.2422016585
 20
2.536859236
 30
0.0
 10
4.2205754997
 20
2.529979028
 30
0.0
 10
4.2025326897
 20
2.5250620025
 30
0.0
 10
4.1885448137
 20
2.5217009802
 30
0.0
 10
4.1742573604
 20
2.5187512441
 30
0.0
 10
4.1597055975
 20
2.516260379
 30
0.0
 10
4.1449314944
 20
2.5142718082
 30
0.0
 10
4.1299835025
 20
2.5128225399
 30
0.0
 10
4.1149158817
 20
2.5119409959
 30
0.0
 10
4.0997872671
 20
2.5116451053
 30
0.0
 10
4.0846586525
 20
2.5119409959
 30
0.0
 10
4.0695910317
 20
2.5128225399
 30
0.0
 10
4.0546430398
 20
2.5142718082
 30
0.0
 10
4.0398689366
 20
2.516260379
 30
0.0
 10
4.0253171737
 20
2.5187512441
 30
0.0
 10
4.0110297205
 20
2.5217009802
 30
0.0
 10
3.9970418445
 20
2.5250620025
 30
0.0
 10
3.9789990344
 20
2.529979028
 30
0.0
 10
3.9573728757
 20
2.536859236
 30
0.0
 10
3.9327339483
 20
2.5460357368
 30
0.0
 10
3.909768992
 20
2.5556812914
 30
0.0
 10
3.8885861721
 20
2.5654516755
 30
0.0
 10
3.8693024678
 20
2.5750277059
 30
0.0
 10
3.8520545609
 20
2.5841091309
 30
0.0
 10
3.8370014417
 20
2.5924104649
 30
0.0
 10
3.8218073865
 20
2.6010982698
 30
0.0
 10
3.8096719919
 20
2.60829483
 30
0.0
 10
3.8018064397
 20
2.6130801615
 30
0.0
 10
3.7997872671
 20
2.6143163763
 30
0.0
  0
SPLINE
  5
257
100
AcDbEntity
  8
0
100
AcDbSpline
 62
7
  6
CONTINUOUS
 70
0
 71
3
 72
61
 73
57
 74
0
 42
0.0000001
 43
0.0000001
 44
0.0000000001
 40
0.0
 40
0.0
 40
0.0
 40
0.0
 40
0.0120599667
 40
0.0463867371
 40
0.0705855686
 40
0.0986727874
 40
0.130085176
 40
0.1468796101
 40
0.16432359
 40
0.1823658302
 40
0.2009593845
 40
0.2200614292
 40
0.2396330112
 40
0.25963874
 40
0.2800464197
 40
0.3008266135
 40
0.3219521067
 40
0.3433971794
 40
0.365136557
 40
0.3871440245
 40
0.4093907356
 40
0.4205946689
 40
0.4318453969
 40
0.4431376193
 40
0.4544655094
 40
0.4658227193
 40
0.4772024177
 40
0.4885973595
 40
0.5
 40
0.5114026405
 40
0.5227975823
 40
0.5341772807
 40
0.5455344906
 40
0.5568623807
 40
0.5681546031
 40
0.5794053311
 40
0.5906092644
 40
0.6128559755
 40
0.634863443
 40
0.6566028206
 40
0.6780478933
 40
0.6991733865
 40
0.7199535803
 40
0.74036126
 40
0.7603669888
 40
0.7799385708
 40
0.7990406155
 40
0.8176341698
 40
0.83567641
 40
0.8531203899
 40
0.869914824
 40
0.9013272126
 40
0.9294144314
 40
0.9536132629
 40
0.9879400333
 40
1.0
 40
1.0
 40
1.0
 40
1.0
 10
3.7035372671
 20
1.6299901028
 30
0.0
 10
3.7063680918
 20
1.6322792706
 30
0.0
 10
3.7172723103
 20
1.6410646545
 30
0.0
 10
3.7339629461
 20
1.6543114278
 30
0.0
 10
3.7546164957
 20
1.6703449726
 30
0.0
 10
3.7747402547
 20
1.6856242953
 30
0.0
 10
3.7932761274
 20
1.6992957905
 30
0.0
 10
3.8093789762
 20
1.7108489175
 30
0.0
 10
3.8222954808
 20
1.7199182075
 30
0.0
 10
3.8357639433
 20
1.7291447938
 30
0.0
 10
3.8497689114
 20
1.7384715508
 30
0.0
 10
3.8642995764
 20
1.7478386822
 30
0.0
 10
3.8793497364
 20
1.7571824693
 30
0.0
 10
3.8949175988
 20
1.7664337752
 30
0.0
 10
3.9110053888
 20
1.7755162711
 30
0.0
 10
3.9276186168
 20
1.7843443968
 30
0.0
 10
3.9447648201
 20
1.7928211243
 30
0.0
 10
3.9624513776
 20
1.8008357213
 30
0.0
 10
3.9806823761
 20
1.8082618936
 30
0.0
 10
3.9994529538
 20
1.814957056
 30
0.0
 10
4.0154921692
 20
1.8197854576
 30
0.0
 10
4.0285676894
 20
1.8231274167
 30
0.0
 10
4.0385098341
 20
1.8253564382
 30
0.0
 10
4.0485533459
 20
1.8272821522
 30
0.0
 10
4.0586859217
 20
1.8288862672
 30
0.0
 10
4.0688929762
 20
1.8301524966
 30
0.0
 10
4.0791579373
 20
1.8310672781
 30
0.0
 10
4.0894625327
 20
1.831620393
 30
0.0
 10
4.0997872671
 20
1.8318054844
 30
0.0
 10
4.1101120015
 20
1.831620393
 30
0.0
 10
4.1204165968
 20
1.8310672781
 30
0.0
 10
4.1306815579
 20
1.8301524966
 30
0.0
 10
4.1408886125
 20
1.8288862672
 30
0.0
 10
4.1510211883
 20
1.8272821522
 30
0.0
 10
4.1610647001
 20
1.8253564382
 30
0.0
 10
4.1710068447
 20
1.8231274167
 30
0.0
 10
4.1840823649
 20
1.8197854576
 30
0.0
 10
4.2001215804
 20
1.814957056
 30
0.0
 10
4.2188921581
 20
1.8082618936
 30
0.0
 10
4.2371231565
 20
1.8008357213
 30
0.0
 10
4.2548097141
 20
1.7928211243
 30
0.0
 10
4.2719559174
 20
1.7843443968
 30
0.0
 10
4.2885691453
 20
1.7755162711
 30
0.0
 10
4.3046569354
 20
1.7664337752
 30
0.0
 10
4.3202247978
 20
1.7571824693
 30
0.0
 10
4.3352749577
 20
1.7478386822
 30
0.0
 10
4.3498056228
 20
1.7384715508
 30
0.0
 10
4.3638105909
 20
1.7291447938
 30
0.0
 10
4.3772790533
 20
1.7199182075
 30
0.0
 10
4.3901955579
 20
1.7108489175
 30
0.0
 10
4.4062984068
 20
1.6992957905
 30
0.0
 10
4.4248342795
 20
1.6856242953
 30
0.0
 10
4.4449580385
 20
1.6703449726
 30
0.0
 10
4.4656115881
 20
1.6543114278
 30
0.0
 10
4.4823022238
 20
1.6410646545
 30
0.0
 10
4.4932064424
 20
1.6322792706
 30
0.0
 10
4.4960372671
 20
1.6299901028
 30
0.0
  0
SPLINE
  5
258
100
AcDbEntity
  8
0
100
AcDbSpline
 62
7
  6
CONTINUOUS
 70
0
 71
3
 72
19
 73
15
 74
0
 42
0.0000001
 43
0.0000001
 44
0.0000000001
 40
0.0
 40
0.0
 40
0.0
 40
0.0
 40
0.0384391823
 40
0.1472283317
 40
0.2229443266
 40
0.3091915967
 40
0.4027275806
 40
0.4999999894
 40
0.5972723962
 40
0.690808382
 40
0.777055654
 40
0.8527716536
 40
0.9615608166
 40
1.0
 40
1.0
 40
1.0
 40
1.0
 10
5.5042872671
 20
2.6142437888
 30
0.0
 10
5.5063194945
 20
2.6139119795
 30
0.0
 10
5.5141110331
 20
2.6126870551
 30
0.0
 10
5.5259512139
 20
2.6111020026
 30
0.0
 10
5.5403788617
 20
2.6096017462
 30
0.0
 10
5.5540268708
 20
2.6085439198
 30
0.0
 10
5.5688541143
 20
2.6078344514
 30
0.0
 10
5.5842872653
 20
2.6075847635
 30
0.0
 10
5.5997204163
 20
2.6078344513
 30
0.0
 10
5.61454766
 20
2.6085439196
 30
0.0
 10
5.6281956695
 20
2.6096017459
 30
0.0
 10
5.6426233184
 20
2.6111020023
 30
0.0
 10
5.6544635003
 20
2.612687055
 30
0.0
 10
5.6622550396
 20
2.6139119795
 30
0.0
 10
5.6642872671
 20
2.6142437888
 30
0.0
  0
ENDSEC
  0
SECTION
  2
OBJECTS
  0
DICTIONARY
  5
C
100
AcDbDictionary
280
0
281
1
  3
ACAD_GROUP
350
D
  3
ACAD_MLINESTYLE
350
17
  3
ACAD_LAYOUT
350
1A
  3
ACAD_PLOTSETTINGS
350
19
  3
ACAD_PLOTSTYLENAME
350
E
  0
DICTIONARY
  5
D
102
{ACAD_REACTORS
330
C
102
}
100
AcDbDictionary
280
0
281
1
  0
ACDBDICTIONARYWDFLT
  5
E
102
{ACAD_REACTORS
330
C
102
}
100
AcDbDictionary
281
1
  3
Normal
350
F
100
AcDbDictionaryWithDefault
340
F
  0
DICTIONARY
  5
17
102
{ACAD_REACTORS
330
C
102
}
100
AcDbDictionary
280
0
281
1
  3
Standard
350
18
  0
DICTIONARY
  5
19
102
{ACAD_REACTORS
330
C
102
}
100
AcDbDictionary
281
1
  0
DICTIONARY
  5
1A
102
{ACAD_REACTORS
330
C
102
}
100
AcDbDictionary
281
1
  3
Model
350
259
  3
Layout1
350
25A
  0
ACDBPLACEHOLDER
  5
F
102
{ACAD_REACTORS
330
E
102
}
  0
MLINESTYLE
  5
18
102
{ACAD_REACTORS
330
17
102
}
100
AcDbMlineStyle
  2
STANDARD
 70
0
  3

 62
256
 51
90.0
 52
90.0
 71
2
 49
0.5
 62
256
  6
BYLAYER
 49
-0.5
 62
256
  6
BYLAYER
  0
LAYOUT
  5
259
102
{ACAD_REACTORS
330
1A
102
}
100
AcDbPlotSettings
  1

  2
none_device
  4
ANSI_A_(11.00_x_8.50_Inches)
  6

 40
0.0
 41
0.0
 42
0.0
 43
0.0
 44
279.4
 45
215.9
 46
0.0
 47
0.0
 48
0.0
 49
0.0
140
0.0
141
0.0
142
1.0
143
1.0
 70
1024
 72
0
 73
0
 74
0
  7

 75
0
147
1.0
148
0.0
149
0.0
100
AcDbLayout
  1
Model
 70
0
 71
0
 10
0.0
 20
0.0
 11
11.0
 21
8.5
 12
0.0
 22
0.0
 32
0.0
 14
0.0
 24
0.0
 34
0.0
 15
0.0
 25
0.0
 35
0.0
146
0.0
 13
0.0
 23
0.0
 33
0.0
 16
1.0
 26
0.0
 36
0.0
 17
0.0
 27
1.0
 37
0.0
 76
0
330
202
345
0
346
0
  0
LAYOUT
  5
25A
102
{ACAD_REACTORS
330
1A
102
}
100
AcDbPlotSettings
  1

  2
none_device
  4
ANSI_A_(11.00_x_8.50_Inches)
  6

 40
0.0
 41
0.0
 42
0.0
 43
0.0
 44
279.4
 45
215.9
 46
0.0
 47
0.0
 48
0.0
 49
0.0
140
0.0
141
0.0
142
1.0
143
1.0
 70
0
 72
0
 73
0
 74
0
  7

 75
0
147
1.0
148
0.0
149
0.0
100
AcDbLayout
  1
Layout1
 70
0
 71
1
 10
0.0
 20
0.0
 11
11.0
 21
8.5
 12
0.0
 22
0.0
 32
0.0
 14
0.0
 24
0.0
 34
0.0
 15
0.0
 25
0.0
 35
0.0
146
0.0
 13
0.0
 23
0.0
 33
0.0
 16
1.0
 26
0.0
 36
0.0
 17
0.0
 27
1.0
 37
0.0
 76
0
330
203
345
0
346
0
  0
ENDSEC
  0
EOF
