  0
SECTION
  2
HEADER
  9
$ACADVER
  1
AC1015
  9
$DWGCODEPAGE
  3
ANSI_1252
  9
$EXTMAX
 10
11.0
 20
8.5
 30
0.0
  9
$EXTMIN
 10
0.0
 20
0.0
 30
0.0
  9
$LIMMIN
 10
0.0
 20
0.0
  9
$LIMMAX
 10
11.0
 20
8.5
  9
$VIEWCTR
 10
5.5
 20
4.25
  9
$VIEWSIZE
 40
8.5
  9
$CLAYER
  8
0
  9
$LTSCALE
 40
0.605
  9
$CELTYPE
  6
BYLAYER
  9
$DIMSCALE
 40
1.0
  9
$DIMASZ
 40
0.1
  9
$DIMEXO
 40
0.06875
  9
$DIMDLI
 40
0.418
  9
$DIMEXE
 40
0.198
  9
$DIMCEN
 40
0.099
  9
$DIMLFAC
 40
1.0
  9
$DIMBLK
  1
_FILLED
  9
$DIMTXT
 40
0.08
  9
$DIMTOL
 70
1
  9
$DIMLIM
 70
0
  9
$DIMTFAC
 40
1.0
  9
$DIMTP
 40
0.01
  9
$DIMTM
 40
0.01
  9
$PDMODE
 70
3
  9
$PDSIZE
 40
0.06
  9
$HANDSEED
  5
337
  9
$TILEMODE
 70
1
  9
$MEASUREMENT
 70
0
  9
$INSUNITS
 70
1
  0
ENDSEC
  0
SECTION
  2
CLASSES
  0
CLASS
  1
ACDBDICTIONARYWDFLT
  2
AcDbDictionaryWithDefault
  3
AutoCAD 2000
 90
0
280
0
281
0
  0
CLASS
  1
ACDBPLACEHOLDER
  2
AcDbPlaceHolder
  3
AutoCAD 2000
 90
0
280
0
281
0
  0
CLASS
  1
LAYOUT
  2
AcDbLayout
  3
AutoCAD 2000
 90
0
280
0
281
0
  0
ENDSEC
  0
SECTION
  2
TABLES
  0
TABLE
  2
VPORT
  5
8
100
AcDbSymbolTable
 70
2
  0
VPORT
  5
1F4
100
AcDbSymbolTableRecord
100
AcDbViewportTableRecord
  2
*ACTIVE
 70
0
 10
0.0
 20
0.0
 11
1.0
 21
1.0
 12
5.5
 22
4.25
 13
0.0
 23
0.0
 14
1.0
 24
1.0
 15
0.0
 25
0.0
 16
0.0
 26
0.0
 36
1.0
 17
0.0
 27
0.0
 37
0.0
 40
8.5
 41
1.2941176471
 42
50.0
 43
0.0
 44
0.0
 50
0.0
 51
0.0
 71
0
 72
100
 73
1
 74
1
 75
0
 76
0
 77
0
 78
0
  0
ENDTAB
  0
TABLE
  2
LTYPE
  5
5
100
AcDbSymbolTable
 70
6
  0
LTYPE
  5
14
100
AcDbSymbolTableRecord
100
AcDbLinetypeTableRecord
  2
BYBLOCK
 70
0
  3

 72
65
 73
0
 40
0.0
  0
LTYPE
  5
15
100
AcDbSymbolTableRecord
100
AcDbLinetypeTableRecord
  2
BYLAYER
 70
0
  3

 72
65
 73
0
 40
0.0
  0
LTYPE
  5
16
100
AcDbSymbolTableRecord
100
AcDbLinetypeTableRecord
  2
CONTINUOUS
 70
64
  3
Solid line
 72
65
 73
0
 40
0.0
  0
LTYPE
  5
1F5
100
AcDbSymbolTableRecord
100
AcDbLinetypeTableRecord
  2
CENTER
 70
64
  3
____ _ ____ _ ____ _ ____ _ ____ _ ____ _ ____
 72
65
 73
4
 40
0.6
 49
0.375
 74
0
 49
-0.075
 74
0
 49
0.075
 74
0
 49
-0.075
 74
0
  0
LTYPE
  5
1F6
100
AcDbSymbolTableRecord
100
AcDbLinetypeTableRecord
  2
HIDDEN
 70
64
  3
- - - - - - - - - - - - - - - - - - - -
 72
65
 73
2
 40
0.2
 49
0.1
 74
0
 49
-0.1
 74
0
  0
LTYPE
  5
1F7
100
AcDbSymbolTableRecord
100
AcDbLinetypeTableRecord
  2
PHANTOM
 70
64
  3
_____ _ _ _____ _ _ _____ _ _ _____
 72
65
 73
6
 40
0.8
 49
0.45
 74
0
 49
-0.05
 74
0
 49
0.1
 74
0
 49
-0.05
 74
0
 49
0.1
 74
0
 49
-0.05
 74
0
  0
LTYPE
  5
1F8
100
AcDbSymbolTableRecord
100
AcDbLinetypeTableRecord
  2
DOT
 70
64
  3
. . . . . . . . . . . . . . . . . . . .
 72
65
 73
2
 40
0.2
 49
0.1
 74
0
 49
-0.1
 74
0
  0
LTYPE
  5
1F9
100
AcDbSymbolTableRecord
100
AcDbLinetypeTableRecord
  2
DASHED
 70
64
  3
- - - - - - - - - - - - - - - - - - - -
 72
65
 73
2
 40
0.2
 49
0.1
 74
0
 49
-0.1
 74
0
  0
ENDTAB
  0
TABLE
  2
LAYER
  5
2
100
AcDbSymbolTable
 70
36
  0
LAYER
  5
10
100
AcDbSymbolTableRecord
100
AcDbLayerTableRecord
  2
0
 70
0
 62
7
  6
CONTINUOUS
370
-3
390
F
  0
LAYER
  5
1FA
100
AcDbSymbolTableRecord
100
AcDbLayerTableRecord
  2
DEFAULT_1
 70
0
 62
7
  6
CENTER
370
-3
390
F
  0
LAYER
  5
1FB
100
AcDbSymbolTableRecord
100
AcDbLayerTableRecord
  2
DEFAULT_2
 70
0
 62
8
  6
HIDDEN
370
-3
390
F
  0
LAYER
  5
1FC
100
AcDbSymbolTableRecord
100
AcDbLayerTableRecord
  2
DEFAULT_3
 70
0
 62
7
  6
PHANTOM
370
-3
390
F
  0
LAYER
  5
1FD
100
AcDbSymbolTableRecord
100
AcDbLayerTableRecord
  2
DEFAULT_COORDINATE_SYSTEM
 70
0
 62
7
  6
CONTINUOUS
370
-3
390
F
  0
LAYER
  5
1FE
100
AcDbSymbolTableRecord
100
AcDbLayerTableRecord
  2
DEFAULT_DATUM_AXES
 70
0
 62
7
  6
CONTINUOUS
370
-3
390
F
  0
LAYER
  5
1FF
100
AcDbSymbolTableRecord
100
AcDbLayerTableRecord
  2
DEFAULT_DATUM_CURVES
 70
0
 62
7
  6
CONTINUOUS
370
-3
390
F
  0
LAYER
  5
200
100
AcDbSymbolTableRecord
100
AcDbLayerTableRecord
  2
DEFAULT_DATUM_PLANES
 70
0
 62
7
  6
CONTINUOUS
370
-3
390
F
  0
ENDTAB
  0
TABLE
  2
STYLE
  5
3
100
AcDbSymbolTable
 70
1
  0
STYLE
  5
11
100
AcDbSymbolTableRecord
100
AcDbTextStyleTableRecord
  2
STANDARD
 70
0
 40
0.0
 41
0.8
 50
0.0
 71
0
 42
0.2
  3
txt
  4

  0
STYLE
  5
201
100
AcDbSymbolTableRecord
100
AcDbTextStyleTableRecord
  2
TEXTSTYLE_1
 70
0
 40
0.0
 41
0.8
 50
0.0
 71
0
 42
0.2
  3
gdt
  4

  0
ENDTAB
  0
TABLE
  2
VIEW
  5
6
100
AcDbSymbolTable
 70
0
  0
ENDTAB
  0
TABLE
  2
UCS
  5
7
100
AcDbSymbolTable
 70
0
  0
ENDTAB
  0
TABLE
  2
APPID
  5
9
100
AcDbSymbolTable
 70
1
  0
APPID
  5
202
100
AcDbSymbolTableRecord
100
AcDbRegAppTableRecord
  2
ACAD
 70
0
  0
ENDTAB
  0
TABLE
  2
BLOCK_RECORD
  5
1
100
AcDbSymbolTable
 70
0
  0
BLOCK_RECORD
  5
203
100
AcDbSymbolTableRecord
100
AcDbBlockTableRecord
  2
*Model_Space
  0
BLOCK_RECORD
  5
204
100
AcDbSymbolTableRecord
100
AcDbBlockTableRecord
  2
*Paper_Space
  0
ENDTAB
  0
TABLE
  2
DIMSTYLE
  5
A
100
AcDbSymbolTable
 70
1
100
AcDbDimStyleTable
 71
0
  0
DIMSTYLE
105
205
100
AcDbSymbolTableRecord
100
AcDbDimStyleTableRecord
  2
STANDARD
 70
0
  3

  4

 40
1.0
 41
0.1
 42
0.0625
 43
0.38
 44
0.18
 45
0.0
 46
0.0
 47
0.01
 48
0.01
140
0.08
141
0.09
142
0.0
143
25.4
144
1.0
145
0.0
146
1.0
147
0.09
 71
1.0
 72
0.0
 73
1
 74
1
 75
0
 76
0
 77
0
 78
4
170
0
171
2
172
0
173
0
174
0
175
0
176
0
177
0
178
0
270
2
271
2
272
2
273
2
274
2
275
0
280
0
281
0
282
0
283
1
284
4
285
0
286
0
287
3
288
0
340
11
  0
ENDTAB
  0
ENDSEC
  0
SECTION
  2
BLOCKS
  0
BLOCK
  5
20
100
AcDbEntity
  8
0
100
AcDbBlockBegin
  2
*Model_Space
 70
0
 10
0.0
 20
0.0
 30
0.0
  3
*Model_Space
  1

  0
ENDBLK
  5
21
100
AcDbEntity
  8
0
100
AcDbBlockEnd
  0
BLOCK
  5
1C
100
AcDbEntity
  8
0
100
AcDbBlockBegin
  2
*Paper_Space
 70
0
 10
0.0
 20
0.0
 30
0.0
  3
*Paper_Space
  1

  0
ENDBLK
  5
1D
100
AcDbEntity
  8
0
100
AcDbBlockEnd
  0
ENDSEC
  0
SECTION
  2
ENTITIES
  0
LINE
  5
206
100
AcDbEntity
  8
0
100
AcDbLine
 62
6
  6
CONTINUOUS
 10
5.1334749393
 20
3.6618628392
 11
5.1300760773
 21
3.663247777
  0
LINE
  5
207
100
AcDbEntity
  8
0
100
AcDbLine
 62
6
  6
CONTINUOUS
 10
5.1300758317
 20
3.6327725476
 11
5.1300760773
 21
3.6324419109
  0
LINE
  5
208
100
AcDbEntity
  8
0
100
AcDbLine
 62
6
  6
CONTINUOUS
 10
5.1300758317
 20
4.9427823971
 11
5.1300760773
 21
3.663247777
  0
LINE
  5
209
100
AcDbEntity
  8
0
100
AcDbLine
 62
6
  6
CONTINUOUS
 10
5.3387936043
 20
3.9140473282
 11
5.3387936043
 21
3.9014184011
  0
LINE
  5
20A
100
AcDbEntity
  8
0
100
AcDbLine
 62
6
  6
CONTINUOUS
 10
5.9425758317
 20
4.9427823971
 11
5.9425758317
 21
3.6387027009
  0
ARC
  5
20B
100
AcDbEntity
  8
0
100
AcDbCircle
 62
6
  6
CONTINUOUS
 10
5.3996852466
 20
3.2508315794
 40
0.2748296284
100
AcDbArc
 50
144.2137729377
 51
147.5179768518
  0
ARC
  5
20C
100
AcDbEntity
  8
0
100
AcDbCircle
 62
6
  6
CONTINUOUS
 10
5.3916362166
 20
3.2559371435
 40
0.2652979228
100
AcDbArc
 50
147.5145729909
 51
149.9523208893
  0
ARC
  5
20D
100
AcDbEntity
  8
0
100
AcDbCircle
 62
6
  6
CONTINUOUS
 10
5.3907114427
 20
3.3590352028
 40
0.2642308917
100
AcDbArc
 50
148.3212730142
 51
150.6777873566
  0
ARC
  5
20E
100
AcDbEntity
  8
0
100
AcDbCircle
 62
6
  6
CONTINUOUS
 10
5.3905587143
 20
3.307805102
 40
0.2640713
100
AcDbArc
 50
148.1294856958
 51
150.2452791873
  0
ARC
  5
20F
100
AcDbEntity
  8
0
100
AcDbCircle
 62
6
  6
CONTINUOUS
 10
5.3798532836
 20
3.3650901483
 40
0.2517986576
100
AcDbArc
 50
150.6690768115
 51
156.5379861145
  0
ARC
  5
210
100
AcDbEntity
  8
0
100
AcDbCircle
 62
6
  6
CONTINUOUS
 10
5.3773415117
 20
3.2638209289
 40
0.2489769475
100
AcDbArc
 50
149.875602799
 51
157.3144012408
  0
ARC
  5
211
100
AcDbEntity
  8
0
100
AcDbCircle
 62
6
  6
CONTINUOUS
 10
5.3680612492
 20
3.2678148754
 40
0.2388743134
100
AcDbArc
 50
157.3397775924
 51
158.284091206
  0
ARC
  5
212
100
AcDbEntity
  8
0
100
AcDbCircle
 62
6
  6
CONTINUOUS
 10
5.3658169362
 20
3.319994695
 40
0.2364531888
100
AcDbArc
 50
158.2199527959
 51
161.0348834365
  0
ARC
  5
213
100
AcDbEntity
  8
0
100
AcDbCircle
 62
6
  6
CONTINUOUS
 10
5.3603900051
 20
3.3616592493
 40
0.2307128746
100
AcDbArc
 50
158.734066283
 51
164.3097193507
  0
ARC
  5
214
100
AcDbEntity
  8
0
100
AcDbCircle
 62
6
  6
CONTINUOUS
 10
5.3597394933
 20
3.2709425588
 40
0.2299859614
100
AcDbArc
 50
158.2408980955
 51
166.7284973605
  0
ARC
  5
215
100
AcDbEntity
  8
0
100
AcDbCircle
 62
6
  6
CONTINUOUS
 10
5.3584355384
 20
3.3225282518
 40
0.2286490914
100
AcDbArc
 50
161.0341638391
 51
166.3341036523
  0
ARC
  5
216
100
AcDbEntity
  8
0
100
AcDbCircle
 62
6
  6
CONTINUOUS
 10
5.3529314883
 20
3.3239810963
 40
0.2229576405
100
AcDbArc
 50
166.3627128939
 51
166.5942889403
  0
ARC
  5
217
100
AcDbEntity
  8
0
100
AcDbCircle
 62
6
  6
CONTINUOUS
 10
5.3520300758
 20
3.2729021017
 40
0.2220326367
100
AcDbArc
 50
166.7639515468
 51
169.2559971115
  0
ARC
  5
218
100
AcDbEntity
  8
0
100
AcDbCircle
 62
6
  6
CONTINUOUS
 10
5.3517899622
 20
3.2644734913
 40
0.2217972578
100
AcDbArc
 50
164.8313439564
 51
169.7101732887
  0
ARC
  5
219
100
AcDbEntity
  8
0
100
AcDbCircle
 62
6
  6
CONTINUOUS
 10
5.3516528352
 20
3.3242797562
 40
0.2216445845
100
AcDbArc
 50
166.5927568331
 51
169.5118970811
  0
ARC
  5
21A
100
AcDbEntity
  8
0
100
AcDbCircle
 62
6
  6
CONTINUOUS
 10
5.3514249948
 20
3.314357995
 40
0.2214205207
100
AcDbArc
 50
164.4840001988
 51
170.5352509582
  0
ARC
  5
21B
100
AcDbEntity
  8
0
100
AcDbCircle
 62
6
  6
CONTINUOUS
 10
5.3491432851
 20
3.364633872
 40
0.2190808577
100
AcDbArc
 50
164.2632328687
 51
176.9586055117
  0
ARC
  5
21C
100
AcDbEntity
  8
0
100
AcDbCircle
 62
6
  6
CONTINUOUS
 10
5.3481539991
 20
3.2651528274
 40
0.2180984254
100
AcDbArc
 50
169.7151455609
 51
171.10918369
  0
ARC
  5
21D
100
AcDbEntity
  8
0
100
AcDbCircle
 62
6
  6
CONTINUOUS
 10
5.3475478131
 20
3.3150369222
 40
0.2174844784
100
AcDbArc
 50
170.5437124207
 51
171.9689423801
  0
ARC
  5
21E
100
AcDbEntity
  8
0
100
AcDbCircle
 62
6
  6
CONTINUOUS
 10
5.3768631457
 20
3.2351778251
 40
0.2171552861
100
AcDbArc
 50
154.5675624663
 51
162.6988852786
  0
ARC
  5
21F
100
AcDbEntity
  8
0
100
AcDbCircle
 62
6
  6
CONTINUOUS
 10
5.3467919026
 20
3.3251012504
 40
0.2167153408
100
AcDbArc
 50
169.4915203489
 51
179.9626985021
  0
ARC
  5
220
100
AcDbEntity
  8
0
100
AcDbCircle
 62
6
  6
CONTINUOUS
 10
5.3462083506
 20
3.2738765272
 40
0.2161313511
100
AcDbArc
 50
169.2220781317
 51
179.9891151512
  0
ARC
  5
221
100
AcDbEntity
  8
0
100
AcDbCircle
 62
6
  6
CONTINUOUS
 10
5.345935781
 20
3.2654599904
 40
0.2158593909
100
AcDbArc
 50
171.0987368992
 51
177.7669894702
  0
ARC
  5
222
100
AcDbEntity
  8
0
100
AcDbCircle
 62
6
  6
CONTINUOUS
 10
5.3458823662
 20
3.3152477554
 40
0.2158059112
100
AcDbArc
 50
171.9625933217
 51
177.3590722376
  0
ARC
  5
223
100
AcDbEntity
  8
0
100
AcDbCircle
 62
6
  6
CONTINUOUS
 10
5.3450634416
 20
3.3152914452
 40
0.2149858434
100
AcDbArc
 50
177.3606473322
 51
186.0580337872
  0
ARC
  5
224
100
AcDbEntity
  8
0
100
AcDbCircle
 62
6
  6
CONTINUOUS
 10
5.3449813773
 20
3.2655069292
 40
0.2149038834
100
AcDbArc
 50
177.7695799491
 51
179.9802423682
  0
ARC
  5
225
100
AcDbEntity
  8
0
100
AcDbCircle
 62
6
  6
CONTINUOUS
 10
5.3448953849
 20
3.3650147006
 40
0.2148187909
100
AcDbArc
 50
176.9999224734
 51
179.9795522132
  0
ARC
  5
226
100
AcDbEntity
  8
0
100
AcDbCircle
 62
6
  6
CONTINUOUS
 10
5.344582391
 20
3.365029832
 40
0.2145057921
100
AcDbArc
 50
179.9835640806
 51
185.6751601772
  0
ARC
  5
227
100
AcDbEntity
  8
0
100
AcDbCircle
 62
6
  6
CONTINUOUS
 10
5.3679825993
 20
3.2381090323
 40
0.2078048779
100
AcDbArc
 50
162.7423299183
 51
166.1209954341
  0
ARC
  5
228
100
AcDbEntity
  8
0
100
AcDbCircle
 62
6
  6
CONTINUOUS
 10
5.3618193312
 20
3.2396276364
 40
0.2014572788
100
AcDbArc
 50
166.1198208897
 51
172.8074961113
  0
ARC
  5
229
100
AcDbEntity
  8
0
100
AcDbCircle
 62
6
  6
CONTINUOUS
 10
5.3570157344
 20
3.2403393
 40
0.1966024062
100
AcDbArc
 50
172.8379903866
 51
177.0039499804
  0
ARC
  5
22A
100
AcDbEntity
  8
0
100
AcDbCircle
 62
6
  6
CONTINUOUS
 10
5.3562013052
 20
3.2403914907
 40
0.1957863626
100
AcDbArc
 50
177.0067451768
 51
180.7185146562
  0
ARC
  5
22B
100
AcDbEntity
  8
0
100
AcDbCircle
 62
6
  6
CONTINUOUS
 10
5.3592229697
 20
3.227535873
 40
0.1891991923
100
AcDbArc
 50
162.8170741635
 51
172.9526217665
  0
ARC
  5
22C
100
AcDbEntity
  8
0
100
AcDbCircle
 62
6
  6
CONTINUOUS
 10
5.3544696053
 20
3.2282685795
 40
0.1843918998
100
AcDbArc
 50
172.99736059
 51
176.9422167505
  0
ARC
  5
22D
100
AcDbEntity
  8
0
100
AcDbCircle
 62
6
  6
CONTINUOUS
 10
5.3791562825
 20
3.416651376
 40
0.2510230211
100
AcDbArc
 50
151.0162975075
 51
156.6751699667
  0
ARC
  5
22E
100
AcDbEntity
  8
0
100
AcDbCircle
 62
6
  6
CONTINUOUS
 10
5.3747471002
 20
3.4700799224
 40
0.246120547
100
AcDbArc
 50
151.324236791
 51
158.6877937364
  0
ARC
  5
22F
100
AcDbEntity
  8
0
100
AcDbCircle
 62
6
  6
CONTINUOUS
 10
5.3693689644
 20
3.3698811442
 40
0.2402737469
100
AcDbArc
 50
156.5906046727
 51
158.0108405738
  0
ARC
  5
230
100
AcDbEntity
  8
0
100
AcDbCircle
 62
6
  6
CONTINUOUS
 10
5.3689264528
 20
3.4212826663
 40
0.2397955817
100
AcDbArc
 50
156.7235217885
 51
158.3332021393
  0
ARC
  5
231
100
AcDbEntity
  8
0
100
AcDbCircle
 62
6
  6
CONTINUOUS
 10
5.3680120432
 20
3.5081089862
 40
0.2388397015
100
AcDbArc
 50
155.9798688311
 51
158.9062336221
  0
ARC
  5
232
100
AcDbEntity
  8
0
100
AcDbCircle
 62
6
  6
CONTINUOUS
 10
5.3673567155
 20
3.4586497939
 40
0.2381265605
100
AcDbArc
 50
156.7012877692
 51
159.0008405598
  0
ARC
  5
233
100
AcDbEntity
  8
0
100
AcDbCircle
 62
6
  6
CONTINUOUS
 10
5.3657499555
 20
3.4738067632
 40
0.2363842498
100
AcDbArc
 50
158.7367472834
 51
159.4237617803
  0
ARC
  5
234
100
AcDbEntity
  8
0
100
AcDbCircle
 62
6
  6
CONTINUOUS
 10
5.3629050983
 20
3.4748630497
 40
0.2333496439
100
AcDbArc
 50
159.4210771745
 51
162.4330466161
  0
ARC
  5
235
100
AcDbEntity
  8
0
100
AcDbCircle
 62
6
  6
CONTINUOUS
 10
5.3627290907
 20
3.4106667907
 40
0.2331592923
100
AcDbArc
 50
156.5222095812
 51
163.6757054299
  0
ARC
  5
236
100
AcDbEntity
  8
0
100
AcDbCircle
 62
6
  6
CONTINUOUS
 10
5.3615278369
 20
3.5105528714
 40
0.2319104477
100
AcDbArc
 50
158.8930138583
 51
162.9680692209
  0
ARC
  5
237
100
AcDbEntity
  8
0
100
AcDbCircle
 62
6
  6
CONTINUOUS
 10
5.3613161631
 20
3.4608995771
 40
0.2316809769
100
AcDbArc
 50
158.9849407894
 51
163.2922868832
  0
ARC
  5
238
100
AcDbEntity
  8
0
100
AcDbCircle
 62
6
  6
CONTINUOUS
 10
5.3602769208
 20
3.373346023
 40
0.2305458276
100
AcDbArc
 50
157.9632437631
 51
166.8711616407
  0
ARC
  5
239
100
AcDbEntity
  8
0
100
AcDbCircle
 62
6
  6
CONTINUOUS
 10
5.3600027754
 20
3.4246429108
 40
0.2302618258
100
AcDbArc
 50
158.2904375343
 51
166.8414861779
  0
ARC
  5
23A
100
AcDbEntity
  8
0
100
AcDbCircle
 62
6
  6
CONTINUOUS
 10
5.3570506572
 20
3.4767295292
 40
0.2272048846
100
AcDbArc
 50
162.4361857565
 51
166.8650432951
  0
ARC
  5
23B
100
AcDbEntity
  8
0
100
AcDbCircle
 62
6
  6
CONTINUOUS
 10
5.3523647877
 20
3.5132111885
 40
0.2223706868
100
AcDbArc
 50
162.931437464
 51
171.8831198438
  0
ARC
  5
23C
100
AcDbEntity
  8
0
100
AcDbCircle
 62
6
  6
CONTINUOUS
 10
5.3518345658
 20
3.46358328
 40
0.2218281747
100
AcDbArc
 50
163.2521353025
 51
172.7077912231
  0
ARC
  5
23D
100
AcDbEntity
  8
0
100
AcDbCircle
 62
6
  6
CONTINUOUS
 10
5.3517476712
 20
3.3755130373
 40
0.2217473661
100
AcDbArc
 50
166.9158685949
 51
170.117427162
  0
ARC
  5
23E
100
AcDbEntity
  8
0
100
AcDbCircle
 62
6
  6
CONTINUOUS
 10
5.351605741
 20
3.413824516
 40
0.2215968345
100
AcDbArc
 50
163.6508695159
 51
172.6155376827
  0
ARC
  5
23F
100
AcDbEntity
  8
0
100
AcDbCircle
 62
6
  6
CONTINUOUS
 10
5.3515852226
 20
3.4267700513
 40
0.2215811039
100
AcDbArc
 50
166.8815835154
 51
170.4708842611
  0
ARC
  5
240
100
AcDbEntity
  8
0
100
AcDbCircle
 62
6
  6
CONTINUOUS
 10
5.3512108319
 20
3.478143213
 40
0.221196596
100
AcDbArc
 50
166.8778973114
 51
170.8373241723
  0
ARC
  5
241
100
AcDbEntity
  8
0
100
AcDbCircle
 62
6
  6
CONTINUOUS
 10
5.3479517876
 20
3.4787089215
 40
0.2178890576
100
AcDbArc
 50
170.8477179009
 51
171.9274302495
  0
ARC
  5
242
100
AcDbEntity
  8
0
100
AcDbCircle
 62
6
  6
CONTINUOUS
 10
5.3461685574
 20
3.4789472697
 40
0.2160900273
100
AcDbArc
 50
171.9236047818
 51
179.9979282384
  0
ARC
  5
243
100
AcDbEntity
  8
0
100
AcDbCircle
 62
6
  6
CONTINUOUS
 10
5.3461181751
 20
3.5142350549
 40
0.2160421295
100
AcDbArc
 50
171.9180295063
 51
175.7400923036
  0
ARC
  5
244
100
AcDbEntity
  8
0
100
AcDbCircle
 62
6
  6
CONTINUOUS
 10
5.346077559
 20
3.3764536604
 40
0.2159999559
100
AcDbArc
 50
170.1050946254
 51
180.016293337
  0
ARC
  5
245
100
AcDbEntity
  8
0
100
AcDbCircle
 62
6
  6
CONTINUOUS
 10
5.3459734851
 20
3.4276820347
 40
0.2158958236
100
AcDbArc
 50
170.4630243469
 51
180.0180254779
  0
ARC
  5
246
100
AcDbEntity
  8
0
100
AcDbCircle
 62
6
  6
CONTINUOUS
 10
5.345171737
 20
3.4645696031
 40
0.2150940839
100
AcDbArc
 50
172.7431217781
 51
184.3880293052
  0
ARC
  5
247
100
AcDbEntity
  8
0
100
AcDbCircle
 62
6
  6
CONTINUOUS
 10
5.3451697336
 20
3.4147744976
 40
0.2150921397
100
AcDbArc
 50
172.6461455357
 51
184.6277253073
  0
ARC
  5
248
100
AcDbEntity
  8
0
100
AcDbCircle
 62
6
  6
CONTINUOUS
 10
5.3451552462
 20
3.514304301
 40
0.2150767172
100
AcDbArc
 50
175.739433666
 51
184.6616176099
  0
ARC
  5
249
100
AcDbEntity
  8
0
100
AcDbCircle
 62
6
  6
CONTINUOUS
 10
5.3724080295
 20
3.5735789497
 40
0.2435824472
100
AcDbArc
 50
155.3342387841
 51
156.5529762003
  0
ARC
  5
24A
100
AcDbEntity
  8
0
100
AcDbCircle
 62
6
  6
CONTINUOUS
 10
5.3686009591
 20
3.5752235399
 40
0.2394353488
100
AcDbArc
 50
156.551530038
 51
159.4840931037
  0
ARC
  5
24B
100
AcDbEntity
  8
0
100
AcDbCircle
 62
6
  6
CONTINUOUS
 10
5.3654714929
 20
3.5252183073
 40
0.2360790528
100
AcDbArc
 50
159.1407659132
 51
159.7089999184
  0
ARC
  5
24C
100
AcDbEntity
  8
0
100
AcDbCircle
 62
6
  6
CONTINUOUS
 10
5.3648377229
 20
3.5591729871
 40
0.2353982166
100
AcDbArc
 50
155.3781435643
 51
162.6411486232
  0
ARC
  5
24D
100
AcDbEntity
  8
0
100
AcDbCircle
 62
6
  6
CONTINUOUS
 10
5.3634022965
 20
3.6320406706
 40
0.233372457
100
AcDbArc
 50
166.7543554467
 51
172.3141209908
  0
ARC
  5
24E
100
AcDbEntity
  8
0
100
AcDbCircle
 62
6
  6
CONTINUOUS
 10
5.3627348088
 20
3.5262181027
 40
0.2331654809
100
AcDbArc
 50
159.7062235065
 51
162.7042218952
  0
ARC
  5
24F
100
AcDbEntity
  8
0
100
AcDbCircle
 62
6
  6
CONTINUOUS
 10
5.3600601499
 20
3.5783839188
 40
0.2303286337
100
AcDbArc
 50
159.4757986562
 51
166.8634415569
  0
ARC
  5
250
100
AcDbEntity
  8
0
100
AcDbCircle
 62
6
  6
CONTINUOUS
 10
5.3587261509
 20
3.6326985991
 40
0.2286503299
100
AcDbArc
 50
172.3207917474
 51
179.9814697924
  0
ARC
  5
251
100
AcDbEntity
  8
0
100
AcDbCircle
 62
6
  6
CONTINUOUS
 10
5.3569616886
 20
3.5280308671
 40
0.227114463
100
AcDbArc
 50
162.7078600924
 51
166.8873462673
  0
ARC
  5
252
100
AcDbEntity
  8
0
100
AcDbCircle
 62
6
  6
CONTINUOUS
 10
5.3531400807
 20
3.5627411245
 40
0.2231687882
100
AcDbArc
 50
162.6194726076
 51
171.0368734152
  0
ARC
  5
253
100
AcDbEntity
  8
0
100
AcDbCircle
 62
6
  6
CONTINUOUS
 10
5.3510292516
 20
3.580675981
 40
0.2210132133
100
AcDbArc
 50
166.9100025513
 51
170.9065156381
  0
ARC
  5
254
100
AcDbEntity
  8
0
100
AcDbCircle
 62
6
  6
CONTINUOUS
 10
5.3509796131
 20
3.5294673699
 40
0.2209624746
100
AcDbArc
 50
166.8982149369
 51
171.0683011136
  0
ARC
  5
255
100
AcDbEntity
  8
0
100
AcDbCircle
 62
6
  6
CONTINUOUS
 10
5.3496443557
 20
3.6132193651
 40
0.2196099409
100
AcDbArc
 50
167.2296738928
 51
170.9076763948
  0
ARC
  5
256
100
AcDbEntity
  8
0
100
AcDbCircle
 62
6
  6
CONTINUOUS
 10
5.3479802344
 20
3.5812091126
 40
0.2179182622
100
AcDbArc
 50
170.9182280187
 51
171.414830533
  0
ARC
  5
257
100
AcDbEntity
  8
0
100
AcDbCircle
 62
6
  6
CONTINUOUS
 10
5.3465649021
 20
3.6137066688
 40
0.2164921742
100
AcDbArc
 50
170.9062334262
 51
174.9713527309
  0
ARC
  5
258
100
AcDbEntity
  8
0
100
AcDbCircle
 62
6
  6
CONTINUOUS
 10
5.3463993086
 20
3.5639269156
 40
0.216325618
100
AcDbArc
 50
171.0689496979
 51
175.3379365992
  0
ARC
  5
259
100
AcDbEntity
  8
0
100
AcDbCircle
 62
6
  6
CONTINUOUS
 10
5.3461174782
 20
3.5302367695
 40
0.2160398427
100
AcDbArc
 50
171.0696774841
 51
179.9719742395
  0
ARC
  5
25A
100
AcDbEntity
  8
0
100
AcDbCircle
 62
6
  6
CONTINUOUS
 10
5.346082555
 20
3.5814561951
 40
0.2160049654
100
AcDbArc
 50
171.4044935413
 51
179.9646934827
  0
ARC
  5
25B
100
AcDbEntity
  8
0
100
AcDbCircle
 62
6
  6
CONTINUOUS
 10
5.3451170818
 20
3.5640277812
 40
0.2150394354
100
AcDbArc
 50
175.3369545711
 51
184.9307030001
  0
ARC
  5
25C
100
AcDbEntity
  8
0
100
AcDbCircle
 62
6
  6
CONTINUOUS
 10
5.3450827184
 20
3.6138313609
 40
0.2150051123
100
AcDbArc
 50
174.9696441798
 51
184.820413293
  0
ARC
  5
25D
100
AcDbEntity
  8
0
100
AcDbCircle
 62
6
  6
CONTINUOUS
 10
5.3444097964
 20
3.6635894817
 40
0.2143339916
100
AcDbArc
 50
180.0913445585
 51
183.8650396651
  0
ARC
  5
25E
100
AcDbEntity
  8
0
100
AcDbCircle
 62
6
  6
CONTINUOUS
 10
5.4309241998
 20
3.4308919077
 40
0.3148780359
100
AcDbArc
 50
136.7486264522
 51
138.3685816448
  0
ARC
  5
25F
100
AcDbEntity
  8
0
100
AcDbCircle
 62
6
  6
CONTINUOUS
 10
5.4267432549
 20
3.420098281
 40
0.3092623625
100
AcDbArc
 50
136.4826915216
 51
139.7542440782
  0
ARC
  5
260
100
AcDbEntity
  8
0
100
AcDbCircle
 62
6
  6
CONTINUOUS
 10
5.4212984589
 20
3.4394308198
 40
0.3020107229
100
AcDbArc
 50
138.3662186938
 51
141.6796089765
  0
ARC
  5
261
100
AcDbEntity
  8
0
100
AcDbCircle
 62
6
  6
CONTINUOUS
 10
5.4024898137
 20
3.4891904963
 40
0.2782270217
100
AcDbArc
 50
141.6301486542
 51
147.9375185172
  0
ARC
  5
262
100
AcDbEntity
  8
0
100
AcDbCircle
 62
6
  6
CONTINUOUS
 10
5.3995477246
 20
3.5073008581
 40
0.2746490944
100
AcDbArc
 50
144.5059052539
 51
148.9987264233
  0
ARC
  5
263
100
AcDbEntity
  8
0
100
AcDbCircle
 62
6
  6
CONTINUOUS
 10
5.3897204027
 20
3.4108379569
 40
0.2630810226
100
AcDbArc
 50
148.6543223685
 51
151.0236208957
  0
ARC
  5
264
100
AcDbEntity
  8
0
100
AcDbCircle
 62
6
  6
CONTINUOUS
 10
5.38905027
 20
3.4624987237
 40
0.2623073641
100
AcDbArc
 50
149.0189831627
 51
151.3705552473
  0
ARC
  5
265
100
AcDbEntity
  8
0
100
AcDbCircle
 62
6
  6
CONTINUOUS
 10
5.5453373434
 20
3.0699624451
 40
0.5062036153
100
AcDbArc
 50
100.9212180958
 51
101.1535312774
  0
ARC
  5
266
100
AcDbEntity
  8
0
100
AcDbCircle
 62
6
  6
CONTINUOUS
 10
5.5264444353
 20
3.1336194434
 40
0.4887250486
100
AcDbArc
 50
111.2797912549
 51
111.767171311
  0
ARC
  5
267
100
AcDbEntity
  8
0
100
AcDbCircle
 62
6
  6
CONTINUOUS
 10
5.5409722617
 20
3.0896654205
 40
0.4860286353
100
AcDbArc
 50
101.0979697028
 51
107.7179888356
  0
ARC
  5
268
100
AcDbEntity
  8
0
100
AcDbCircle
 62
6
  6
CONTINUOUS
 10
5.524517459
 20
3.1280723424
 40
0.4837368254
100
AcDbArc
 50
111.3957940101
 51
112.8986959044
  0
ARC
  5
269
100
AcDbEntity
  8
0
100
AcDbCircle
 62
6
  6
CONTINUOUS
 10
5.5234752143
 20
3.1410255488
 40
0.4807459166
100
AcDbArc
 50
111.765852922
 51
113.3319816356
  0
ARC
  5
26A
100
AcDbEntity
  8
0
100
AcDbCircle
 62
6
  6
CONTINUOUS
 10
5.4923063324
 20
3.3527047738
 40
0.3752585723
100
AcDbArc
 50
239.3056242643
 51
242.6084386148
  0
ARC
  5
26B
100
AcDbEntity
  8
0
100
AcDbCircle
 62
6
  6
CONTINUOUS
 10
5.4813193901
 20
3.3343064885
 40
0.3538294692
100
AcDbArc
 50
236.5258100805
 51
239.3147144803
  0
ARC
  5
26C
100
AcDbEntity
  8
0
100
AcDbCircle
 62
6
  6
CONTINUOUS
 10
5.5340970185
 20
3.5200936466
 40
0.5505609196
100
AcDbArc
 50
251.931405019
 51
261.8573499222
  0
ARC
  5
26D
100
AcDbEntity
  8
0
100
AcDbCircle
 62
6
  6
CONTINUOUS
 10
5.5362490528
 20
3.4829652426
 40
0.513626804
100
AcDbArc
 50
260.7786813289
 51
279.1182121814
  0
ARC
  5
26E
100
AcDbEntity
  8
0
100
AcDbCircle
 62
6
  6
CONTINUOUS
 10
5.5396033766
 20
3.4611768924
 40
0.491607267
100
AcDbArc
 50
279.1539527966
 51
282.0320199457
  0
ARC
  5
26F
100
AcDbEntity
  8
0
100
AcDbCircle
 62
6
  6
CONTINUOUS
 10
5.53263123
 20
3.4589580058
 40
0.489350147
100
AcDbArc
 50
257.8261873378
 51
260.7463593872
  0
ARC
  5
270
100
AcDbEntity
  8
0
100
AcDbCircle
 62
6
  6
CONTINUOUS
 10
5.5251530051
 20
3.4539456628
 40
0.4850497198
100
AcDbArc
 50
244.7135176841
 51
250.5122177242
  0
ARC
  5
271
100
AcDbEntity
  8
0
100
AcDbCircle
 62
6
  6
CONTINUOUS
 10
5.5101658683
 20
3.4769102831
 40
0.4695287522
100
AcDbArc
 50
111.4068316056
 51
112.1078803564
  0
ARC
  5
272
100
AcDbEntity
  8
0
100
AcDbCircle
 62
6
  6
CONTINUOUS
 10
5.5263672202
 20
3.4327356171
 40
0.4623968761
100
AcDbArc
 50
250.780339409
 51
257.8997183998
  0
ARC
  5
273
100
AcDbEntity
  8
0
100
AcDbCircle
 62
6
  6
CONTINUOUS
 10
5.5315516632
 20
3.5002678097
 40
0.4564747082
100
AcDbArc
 50
114.9783291951
 51
115.7674874777
  0
ARC
  5
274
100
AcDbEntity
  8
0
100
AcDbCircle
 62
6
  6
CONTINUOUS
 10
5.5185443931
 20
3.4096557008
 40
0.4380282032
100
AcDbArc
 50
249.6364149936
 51
250.7527550206
  0
ARC
  5
275
100
AcDbEntity
  8
0
100
AcDbCircle
 62
6
  6
CONTINUOUS
 10
5.5171570861
 20
3.4058998068
 40
0.4340242902
100
AcDbArc
 50
249.435020452
 51
249.6355757978
  0
ARC
  5
276
100
AcDbEntity
  8
0
100
AcDbCircle
 62
6
  6
CONTINUOUS
 10
5.514619582
 20
3.3992726631
 40
0.4269281201
100
AcDbArc
 50
247.4824285322
 51
249.4414471236
  0
ARC
  5
277
100
AcDbEntity
  8
0
100
AcDbCircle
 62
6
  6
CONTINUOUS
 10
5.5053184743
 20
3.3776908494
 40
0.4034297754
100
AcDbArc
 50
242.6002095596
 51
247.5288545834
  0
ARC
  5
278
100
AcDbEntity
  8
0
100
AcDbCircle
 62
6
  6
CONTINUOUS
 10
5.5008540471
 20
3.4795905417
 40
0.3985245136
100
AcDbArc
 50
119.3878468424
 51
121.1791621425
  0
ARC
  5
279
100
AcDbEntity
  8
0
100
AcDbCircle
 62
9
  6
CONTINUOUS
 10
5.5363258317
 20
4.9427823971
 40
0.40625
100
AcDbArc
 50
0.0
 51
180.0
  0
ARC
  5
27A
100
AcDbEntity
  8
0
100
AcDbCircle
 62
6
  6
CONTINUOUS
 10
5.5477453992
 20
3.2080068283
 40
0.5710878845
100
AcDbArc
 50
91.1457722133
 51
91.2834249421
  0
ARC
  5
27B
100
AcDbEntity
  8
0
100
AcDbCircle
 62
6
  6
CONTINUOUS
 10
5.5477918521
 20
3.1570005186
 40
0.5708959185
100
AcDbArc
 50
91.1508205391
 51
91.2765489981
  0
ARC
  5
27C
100
AcDbEntity
  8
0
100
AcDbCircle
 62
6
  6
CONTINUOUS
 10
5.5479324054
 20
3.3471405886
 40
0.5401046046
100
AcDbArc
 50
91.2167958953
 51
92.8468391911
  0
ARC
  5
27D
100
AcDbEntity
  8
0
100
AcDbCircle
 62
6
  6
CONTINUOUS
 10
5.5479987052
 20
3.1998644061
 40
0.5319411659
100
AcDbArc
 50
89.9705102203
 51
91.2838106077
  0
ARC
  5
27E
100
AcDbEntity
  8
0
100
AcDbCircle
 62
6
  6
CONTINUOUS
 10
5.5479100892
 20
3.1506843943
 40
0.5293735457
100
AcDbArc
 50
91.2404654816
 51
92.0622674686
  0
ARC
  5
27F
100
AcDbEntity
  8
0
100
AcDbCircle
 62
6
  6
CONTINUOUS
 10
5.5476381519
 20
3.0564309736
 40
0.5199260114
100
AcDbArc
 50
91.2471182557
 51
100.8876597634
  0
ARC
  5
280
100
AcDbEntity
  8
0
100
AcDbCircle
 62
6
  6
CONTINUOUS
 10
5.588720589
 20
3.3384840329
 40
0.3587550338
100
AcDbArc
 50
300.3532876196
 51
303.2923824784
  0
ARC
  5
281
100
AcDbEntity
  8
0
100
AcDbCircle
 62
6
  6
CONTINUOUS
 10
5.5963362803
 20
3.3266772201
 40
0.3447056283
100
AcDbArc
 50
303.3115124923
 51
304.6204552792
  0
ARC
  5
282
100
AcDbEntity
  8
0
100
AcDbCircle
 62
6
  6
CONTINUOUS
 10
5.6269821775
 20
3.2875233423
 40
0.2949438661
100
AcDbArc
 50
310.6736539969
 51
314.9449406881
  0
ARC
  5
283
100
AcDbEntity
  8
0
100
AcDbCircle
 62
6
  6
CONTINUOUS
 10
5.6377841396
 20
3.2763966408
 40
0.2794378284
100
AcDbArc
 50
314.9889677019
 51
315.6905797667
  0
ARC
  5
284
100
AcDbEntity
  8
0
100
AcDbCircle
 62
6
  6
CONTINUOUS
 10
5.6396819892
 20
3.2745364017
 40
0.2767803309
100
AcDbArc
 50
315.6917049794
 51
315.9096495241
  0
ARC
  5
285
100
AcDbEntity
  8
0
100
AcDbCircle
 62
6
  6
CONTINUOUS
 10
5.6405225968
 20
3.273722614
 40
0.2756103432
100
AcDbArc
 50
315.9095683894
 51
316.2428999244
  0
ARC
  5
286
100
AcDbEntity
  8
0
100
AcDbCircle
 62
6
  6
CONTINUOUS
 10
5.6434903293
 20
3.2708957787
 40
0.2715117681
100
AcDbArc
 50
316.2406357046
 51
318.1787770537
  0
ARC
  5
287
100
AcDbEntity
  8
0
100
AcDbCircle
 62
6
  6
CONTINUOUS
 10
5.55512813
 20
3.4067329113
 40
0.4349323981
100
AcDbArc
 50
289.028275492
 51
292.2784160584
  0
ARC
  5
288
100
AcDbEntity
  8
0
100
AcDbCircle
 62
6
  6
CONTINUOUS
 10
5.5638078691
 20
3.3854144606
 40
0.4119147624
100
AcDbArc
 50
292.2853941608
 51
296.6019844651
  0
ARC
  5
289
100
AcDbEntity
  8
0
100
AcDbCircle
 62
6
  6
CONTINUOUS
 10
5.5763161155
 20
3.3600137817
 40
0.3836020104
100
AcDbArc
 50
296.6303728914
 51
300.3270752887
  0
ARC
  5
28A
100
AcDbEntity
  8
0
100
AcDbCircle
 62
6
  6
CONTINUOUS
 10
5.5812087359
 20
3.3562664831
 40
0.379821952
100
AcDbArc
 50
295.6851537244
 51
296.0817600292
  0
ARC
  5
28B
100
AcDbEntity
  8
0
100
AcDbCircle
 62
6
  6
CONTINUOUS
 10
5.6995707671
 20
3.2778901516
 40
0.2479144466
100
AcDbArc
 50
32.5855427499
 51
35.0724035746
  0
ARC
  5
28C
100
AcDbEntity
  8
0
100
AcDbCircle
 62
6
  6
CONTINUOUS
 10
5.7007400447
 20
3.3298421396
 40
0.2465180958
100
AcDbArc
 50
32.194891332
 51
34.6584558086
  0
ARC
  5
28D
100
AcDbEntity
  8
0
100
AcDbCircle
 62
6
  6
CONTINUOUS
 10
5.6951605411
 20
3.2261699071
 40
0.2445720532
100
AcDbArc
 50
32.3765268624
 51
34.6952100025
  0
ARC
  5
28E
100
AcDbEntity
  8
0
100
AcDbCircle
 62
6
  6
CONTINUOUS
 10
5.7019068666
 20
3.2304205959
 40
0.2365983004
100
AcDbArc
 50
30.1745204902
 51
32.3820046392
  0
ARC
  5
28F
100
AcDbEntity
  8
0
100
AcDbCircle
 62
6
  6
CONTINUOUS
 10
5.7144822128
 20
3.3381653173
 40
0.2304544865
100
AcDbArc
 50
25.6898898198
 51
32.2641140991
  0
ARC
  5
290
100
AcDbEntity
  8
0
100
AcDbCircle
 62
6
  6
CONTINUOUS
 10
5.7120794085
 20
3.236142103
 40
0.224928383
100
AcDbArc
 50
24.4381478585
 51
30.2170213733
  0
ARC
  5
291
100
AcDbEntity
  8
0
100
AcDbCircle
 62
6
  6
CONTINUOUS
 10
5.7233597622
 20
3.3425324376
 40
0.2205613216
100
AcDbArc
 50
24.4665098348
 51
25.6672824536
  0
ARC
  5
292
100
AcDbEntity
  8
0
100
AcDbCircle
 62
6
  6
CONTINUOUS
 10
5.7209162081
 20
3.2401698227
 40
0.2152169761
100
AcDbArc
 50
21.3157712642
 51
24.4352216422
  0
ARC
  5
293
100
AcDbEntity
  8
0
100
AcDbCircle
 62
6
  6
CONTINUOUS
 10
5.7292686087
 20
3.3347536429
 40
0.2140604238
100
AcDbArc
 50
17.5144421501
 51
24.7245813059
  0
ARC
  5
294
100
AcDbEntity
  8
0
100
AcDbCircle
 62
6
  6
CONTINUOUS
 10
5.7298388665
 20
3.2851943958
 40
0.2134481009
100
AcDbArc
 50
17.0940090864
 51
24.525546421
  0
ARC
  5
295
100
AcDbEntity
  8
0
100
AcDbCircle
 62
6
  6
CONTINUOUS
 10
5.733158816
 20
3.3467059787
 40
0.2099138299
100
AcDbArc
 50
14.6584016618
 51
24.5373720674
  0
ARC
  5
296
100
AcDbEntity
  8
0
100
AcDbCircle
 62
6
  6
CONTINUOUS
 10
5.7301270811
 20
3.2436008583
 40
0.2053890562
100
AcDbArc
 50
14.8358646846
 51
21.358145747
  0
ARC
  5
297
100
AcDbEntity
  8
0
100
AcDbCircle
 62
6
  6
CONTINUOUS
 10
5.7429900741
 20
3.33910282
 40
0.1996662027
100
AcDbArc
 50
7.8519128043
 51
17.5092392044
  0
ARC
  5
298
100
AcDbEntity
  8
0
100
AcDbCircle
 62
6
  6
CONTINUOUS
 10
5.7358111022
 20
3.245149689
 40
0.1994979464
100
AcDbArc
 50
12.6551340171
 51
14.8238600113
  0
ARC
  5
299
100
AcDbEntity
  8
0
100
AcDbCircle
 62
6
  6
CONTINUOUS
 10
5.7432216558
 20
3.2983736533
 40
0.1994551257
100
AcDbArc
 50
11.6392072094
 51
14.5745221647
  0
ARC
  5
29A
100
AcDbEntity
  8
0
100
AcDbCircle
 62
6
  6
CONTINUOUS
 10
5.7480196275
 20
3.2905170984
 40
0.1945544735
100
AcDbArc
 50
345.8493801889
 51
359.9387765064
  0
ARC
  5
29B
100
AcDbEntity
  8
0
100
AcDbCircle
 62
6
  6
CONTINUOUS
 10
5.7492813257
 20
3.2995006139
 40
0.1932927324
100
AcDbArc
 50
359.9913119793
 51
11.6744041137
  0
ARC
  5
29C
100
AcDbEntity
  8
0
100
AcDbCircle
 62
6
  6
CONTINUOUS
 10
5.7495516939
 20
3.3401553213
 40
0.1930223714
100
AcDbArc
 50
359.9821023413
 51
7.8085066911
  0
ARC
  5
29D
100
AcDbEntity
  8
0
100
AcDbCircle
 62
6
  6
CONTINUOUS
 10
5.7499079785
 20
3.3401831414
 40
0.1926660975
100
AcDbArc
 50
354.4837800413
 51
359.9737960094
  0
ARC
  5
29E
100
AcDbEntity
  8
0
100
AcDbCircle
 62
6
  6
CONTINUOUS
 10
5.7501266691
 20
3.2904010118
 40
0.1924473427
100
AcDbArc
 50
359.972667695
 51
2.6920553627
  0
ARC
  5
29F
100
AcDbEntity
  8
0
100
AcDbCircle
 62
6
  6
CONTINUOUS
 10
5.7143297382
 20
3.2276454108
 40
0.1882954387
100
AcDbArc
 50
10.0375253064
 51
13.5978223893
  0
ARC
  5
2A0
100
AcDbEntity
  8
0
100
AcDbCircle
 62
6
  6
CONTINUOUS
 10
5.7162155167
 20
3.2279901763
 40
0.1863784343
100
AcDbArc
 50
9.7435628304
 51
10.0342020611
  0
ARC
  5
2A1
100
AcDbEntity
  8
0
100
AcDbCircle
 62
6
  6
CONTINUOUS
 10
5.7019573463
 20
3.3819988172
 40
0.2450631924
100
AcDbArc
 50
31.7900407507
 51
34.2518961582
  0
ARC
  5
2A2
100
AcDbEntity
  8
0
100
AcDbCircle
 62
6
  6
CONTINUOUS
 10
5.7030952379
 20
3.4339619957
 40
0.2437152859
100
AcDbArc
 50
31.4116240958
 51
33.8952259438
  0
ARC
  5
2A3
100
AcDbEntity
  8
0
100
AcDbCircle
 62
6
  6
CONTINUOUS
 10
5.7040535057
 20
3.4857576604
 40
0.2425838959
100
AcDbArc
 50
31.057996808
 51
33.5827484553
  0
ARC
  5
2A4
100
AcDbEntity
  8
0
100
AcDbCircle
 62
6
  6
CONTINUOUS
 10
5.7143947693
 20
3.3894583201
 40
0.2305619493
100
AcDbArc
 50
26.0801434763
 51
31.8426429036
  0
ARC
  5
2A5
100
AcDbEntity
  8
0
100
AcDbCircle
 62
6
  6
CONTINUOUS
 10
5.7152340406
 20
3.4411414936
 40
0.2296137401
100
AcDbArc
 50
25.8204771652
 51
31.4613376599
  0
ARC
  5
2A6
100
AcDbEntity
  8
0
100
AcDbCircle
 62
6
  6
CONTINUOUS
 10
5.7169910513
 20
3.493267283
 40
0.2276268781
100
AcDbArc
 50
24.8517564522
 51
31.1187760008
  0
ARC
  5
2A7
100
AcDbEntity
  8
0
100
AcDbCircle
 62
6
  6
CONTINUOUS
 10
5.7230790618
 20
3.4314990177
 40
0.2208295817
100
AcDbArc
 50
23.2272990808
 51
26.0464362689
  0
ARC
  5
2A8
100
AcDbEntity
  8
0
100
AcDbCircle
 62
6
  6
CONTINUOUS
 10
5.7233922832
 20
3.481422047
 40
0.2204834211
100
AcDbArc
 50
23.2549896103
 51
25.7843561782
  0
ARC
  5
2A9
100
AcDbEntity
  8
0
100
AcDbCircle
 62
6
  6
CONTINUOUS
 10
5.7234247764
 20
3.3939357807
 40
0.220482967
100
AcDbArc
 50
23.9971209827
 51
26.0667026749
  0
ARC
  5
2AA
100
AcDbEntity
  8
0
100
AcDbCircle
 62
6
  6
CONTINUOUS
 10
5.7241271873
 20
3.4454957758
 40
0.219711942
100
AcDbArc
 50
23.6425707621
 51
25.8084477616
  0
ARC
  5
2AB
100
AcDbEntity
  8
0
100
AcDbCircle
 62
6
  6
CONTINUOUS
 10
5.724766291
 20
3.5318564406
 40
0.2189787398
100
AcDbArc
 50
23.2481377674
 51
24.8066134684
  0
ARC
  5
2AC
100
AcDbEntity
  8
0
100
AcDbCircle
 62
6
  6
CONTINUOUS
 10
5.7255499662
 20
3.4973108236
 40
0.2181611594
100
AcDbArc
 50
23.3520842687
 51
24.8328392164
  0
ARC
  5
2AD
100
AcDbEntity
  8
0
100
AcDbCircle
 62
6
  6
CONTINUOUS
 10
5.7257962506
 20
3.3949974285
 40
0.2178847068
100
AcDbArc
 50
23.3292550116
 51
23.9956934505
  0
ARC
  5
2AE
100
AcDbEntity
  8
0
100
AcDbCircle
 62
6
  6
CONTINUOUS
 10
5.7262903001
 20
3.5489861773
 40
0.2173485963
100
AcDbArc
 50
22.988044343
 51
24.4674624723
  0
ARC
  5
2AF
100
AcDbEntity
  8
0
100
AcDbCircle
 62
6
  6
CONTINUOUS
 10
5.7265429777
 20
3.4465598584
 40
0.2170721922
100
AcDbArc
 50
22.9731337921
 51
23.6409963209
  0
ARC
  5
2B0
100
AcDbEntity
  8
0
100
AcDbCircle
 62
6
  6
CONTINUOUS
 10
5.727404951
 20
3.4981135876
 40
0.2161399232
100
AcDbArc
 50
22.6180702375
 51
23.3516263577
  0
ARC
  5
2B1
100
AcDbEntity
  8
0
100
AcDbCircle
 62
6
  6
CONTINUOUS
 10
5.7278410939
 20
3.384024416
 40
0.2155909281
100
AcDbArc
 50
17.8331842089
 51
25.6678144055
  0
ARC
  5
2B2
100
AcDbEntity
  8
0
100
AcDbCircle
 62
6
  6
CONTINUOUS
 10
5.7281232985
 20
3.5497655542
 40
0.2153567859
100
AcDbArc
 50
22.2395549425
 51
22.9876116474
  0
ARC
  5
2B3
100
AcDbEntity
  8
0
100
AcDbCircle
 62
6
  6
CONTINUOUS
 10
5.729681978
 20
3.5339525675
 40
0.2136348166
100
AcDbArc
 50
19.0104815782
 51
23.2519892023
  0
ARC
  5
2B4
100
AcDbEntity
  8
0
100
AcDbCircle
 62
6
  6
CONTINUOUS
 10
5.7298877891
 20
3.4842113234
 40
0.2134143579
100
AcDbArc
 50
18.5573553753
 51
23.2555034699
  0
ARC
  5
2B5
100
AcDbEntity
  8
0
100
AcDbCircle
 62
6
  6
CONTINUOUS
 10
5.7299837257
 20
3.3967547866
 40
0.2133436472
100
AcDbArc
 50
20.0706232205
 51
23.3412372203
  0
ARC
  5
2B6
100
AcDbEntity
  8
0
100
AcDbCircle
 62
6
  6
CONTINUOUS
 10
5.7302335485
 20
3.4345697133
 40
0.2130439635
100
AcDbArc
 50
18.148166757
 51
23.2272390653
  0
ARC
  5
2B7
100
AcDbEntity
  8
0
100
AcDbCircle
 62
6
  6
CONTINUOUS
 10
5.7306806946
 20
3.4482658973
 40
0.2125967846
100
AcDbArc
 50
19.6974918177
 51
22.9850510627
  0
ARC
  5
2B8
100
AcDbEntity
  8
0
100
AcDbCircle
 62
6
  6
CONTINUOUS
 10
5.7315107163
 20
3.4997771559
 40
0.2117101552
100
AcDbArc
 50
19.3052135931
 51
22.6298157847
  0
ARC
  5
2B9
100
AcDbEntity
  8
0
100
AcDbCircle
 62
6
  6
CONTINUOUS
 10
5.7321782631
 20
3.5513773638
 40
0.2109934389
100
AcDbArc
 50
18.9082885226
 51
22.2511818003
  0
ARC
  5
2BA
100
AcDbEntity
  8
0
100
AcDbCircle
 62
6
  6
CONTINUOUS
 10
5.7376901253
 20
3.3994675189
 40
0.205174327
100
AcDbArc
 50
14.5449261952
 51
20.0976212729
  0
ARC
  5
2BB
100
AcDbEntity
  8
0
100
AcDbCircle
 62
6
  6
CONTINUOUS
 10
5.7379568989
 20
3.4507838171
 40
0.2048976864
100
AcDbArc
 50
14.5176896147
 51
19.720390702
  0
ARC
  5
2BC
100
AcDbEntity
  8
0
100
AcDbCircle
 62
6
  6
CONTINUOUS
 10
5.7381730504
 20
3.5020434874
 40
0.2046731984
100
AcDbArc
 50
14.5714401575
 51
19.3230377379
  0
ARC
  5
2BD
100
AcDbEntity
  8
0
100
AcDbCircle
 62
6
  6
CONTINUOUS
 10
5.7383699045
 20
3.5534452001
 40
0.2044658228
100
AcDbArc
 50
14.5677660659
 51
18.9223486831
  0
ARC
  5
2BE
100
AcDbEntity
  8
0
100
AcDbCircle
 62
6
  6
CONTINUOUS
 10
5.7417794819
 20
3.5379343736
 40
0.2009001618
100
AcDbArc
 50
8.1164868379
 51
19.0606816798
  0
ARC
  5
2BF
100
AcDbEntity
  8
0
100
AcDbCircle
 62
6
  6
CONTINUOUS
 10
5.743619914
 20
3.3496533919
 40
0.1990474678
100
AcDbArc
 50
11.2942400187
 51
14.5996110701
  0
ARC
  5
2C0
100
AcDbEntity
  8
0
100
AcDbCircle
 62
6
  6
CONTINUOUS
 10
5.7440501222
 20
3.4011124894
 40
0.1986050453
100
AcDbArc
 50
10.8535652783
 51
14.5463665612
  0
ARC
  5
2C1
100
AcDbEntity
  8
0
100
AcDbCircle
 62
6
  6
CONTINUOUS
 10
5.744327708
 20
3.4524152405
 40
0.1983213328
100
AcDbArc
 50
10.4380018326
 51
14.5228017183
  0
ARC
  5
2C2
100
AcDbEntity
  8
0
100
AcDbCircle
 62
6
  6
CONTINUOUS
 10
5.7444356608
 20
3.5036373412
 40
0.1982110366
100
AcDbArc
 50
10.0247303183
 51
14.5809804878
  0
ARC
  5
2C3
100
AcDbEntity
  8
0
100
AcDbCircle
 62
6
  6
CONTINUOUS
 10
5.7446339332
 20
3.5550233058
 40
0.1980062504
100
AcDbArc
 50
9.5517874126
 51
14.581710012
  0
ARC
  5
2C4
100
AcDbEntity
  8
0
100
AcDbCircle
 62
6
  6
CONTINUOUS
 10
5.7466143418
 20
3.4016147931
 40
0.1959921121
100
AcDbArc
 50
9.7167180546
 51
10.8505024936
  0
ARC
  5
2C5
100
AcDbEntity
  8
0
100
AcDbCircle
 62
6
  6
CONTINUOUS
 10
5.7470219975
 20
3.4529249251
 40
0.1955792898
100
AcDbArc
 50
9.3238702634
 51
10.4341577812
  0
ARC
  5
2C6
100
AcDbEntity
  8
0
100
AcDbCircle
 62
6
  6
CONTINUOUS
 10
5.7478493325
 20
3.5042501415
 40
0.1947428106
100
AcDbArc
 50
8.0627471002
 51
10.022018951
  0
ARC
  5
2C7
100
AcDbEntity
  8
0
100
AcDbCircle
 62
6
  6
CONTINUOUS
 10
5.7481176002
 20
3.6068761802
 40
0.1944714919
100
AcDbArc
 50
7.9500369675
 51
9.1427452072
  0
ARC
  5
2C8
100
AcDbEntity
  8
0
100
AcDbCircle
 62
6
  6
CONTINUOUS
 10
5.7481680321
 20
3.5556308498
 40
0.1944203333
100
AcDbArc
 50
7.566649718
 51
9.548051721
  0
ARC
  5
2C9
100
AcDbEntity
  8
0
100
AcDbCircle
 62
6
  6
CONTINUOUS
 10
5.7488111302
 20
3.5391514868
 40
0.1937672257
100
AcDbArc
 50
4.904021947
 51
8.0537552273
  0
ARC
  5
2CA
100
AcDbEntity
  8
0
100
AcDbCircle
 62
6
  6
CONTINUOUS
 10
5.749023708
 20
3.5888538324
 40
0.1935543399
100
AcDbArc
 50
5.3784097652
 51
7.5603312195
  0
ARC
  5
2CB
100
AcDbEntity
  8
0
100
AcDbCircle
 62
6
  6
CONTINUOUS
 10
5.749263622
 20
3.3506876018
 40
0.1933105279
100
AcDbArc
 50
0.0301319294
 51
11.321248682
  0
ARC
  5
2CC
100
AcDbEntity
  8
0
100
AcDbCircle
 62
6
  6
CONTINUOUS
 10
5.7494704075
 20
3.4020494107
 40
0.1931036727
100
AcDbArc
 50
0.0420843658
 51
9.7326381728
  0
ARC
  5
2CD
100
AcDbEntity
  8
0
100
AcDbCircle
 62
6
  6
CONTINUOUS
 10
5.7496208477
 20
3.453305087
 40
0.1929531883
100
AcDbArc
 50
0.0264350001
 51
9.3375038082
  0
ARC
  5
2CE
100
AcDbEntity
  8
0
100
AcDbCircle
 62
6
  6
CONTINUOUS
 10
5.7499240862
 20
3.5392557329
 40
0.1926499467
100
AcDbArc
 50
355.1543212717
 51
4.9026240313
  0
ARC
  5
2CF
100
AcDbEntity
  8
0
100
AcDbCircle
 62
6
  6
CONTINUOUS
 10
5.7499653905
 20
3.3899944346
 40
0.1926087395
100
AcDbArc
 50
353.8536147855
 51
3.6133734431
  0
ARC
  5
2D0
100
AcDbEntity
  8
0
100
AcDbCircle
 62
6
  6
CONTINUOUS
 10
5.7499839334
 20
3.4894370377
 40
0.1925900905
100
AcDbArc
 50
354.1751358276
 51
4.4651575281
  0
ARC
  5
2D1
100
AcDbEntity
  8
0
100
AcDbCircle
 62
6
  6
CONTINUOUS
 10
5.7500028064
 20
3.5889487923
 40
0.1925712176
100
AcDbArc
 50
355.6501986263
 51
5.378537956
  0
ARC
  5
2D2
100
AcDbEntity
  8
0
100
AcDbCircle
 62
6
  6
CONTINUOUS
 10
5.7500038153
 20
3.6387081701
 40
0.1925702811
100
AcDbArc
 50
355.6325736137
 51
359.9780251804
  0
ARC
  5
2D3
100
AcDbEntity
  8
0
100
AcDbCircle
 62
6
  6
CONTINUOUS
 10
5.750016466
 20
3.4396642863
 40
0.1925575898
100
AcDbArc
 50
353.6606489066
 51
4.0664769757
  0
ARC
  5
2D4
100
AcDbEntity
  8
0
100
AcDbCircle
 62
6
  6
CONTINUOUS
 10
5.7501470214
 20
3.6071256646
 40
0.1924270722
100
AcDbArc
 50
359.9802814353
 51
7.9600419721
  0
ARC
  5
2D5
100
AcDbEntity
  8
0
100
AcDbCircle
 62
6
  6
CONTINUOUS
 10
5.7501589026
 20
3.5045420693
 40
0.1924151285
100
AcDbArc
 50
359.9895480105
 51
8.0731370727
  0
ARC
  5
2D6
100
AcDbEntity
  8
0
100
AcDbCircle
 62
6
  6
CONTINUOUS
 10
5.7502007504
 20
3.5558742193
 40
0.1923732703
100
AcDbArc
 50
359.9716274908
 51
7.5745176215
  0
SPLINE
  5
2D7
100
AcDbEntity
  8
0
100
AcDbSpline
 62
6
  6
CONTINUOUS
 70
0
 71
3
 72
10
 73
6
 74
4
 42
0.0000001
 43
0.0000001
 44
0.0000000001
 12
0.114461943
 22
0.0503109686
 32
0.0
 13
0.0919616047
 23
0.0847100539
 33
0.0
 40
0.0
 40
0.0
 40
0.0
 40
0.0
 40
0.2609901264
 40
0.5151530378
 40
1.0
 40
1.0
 40
1.0
 40
1.0
 10
5.749859909
 20
3.0122215036
 30
0.0
 10
5.7598177213
 20
3.0165983923
 30
0.0
 10
5.7791697846
 20
3.0259601492
 30
0.0
 10
5.8151995747
 20
3.0469484892
 30
0.0
 10
5.839910272
 20
3.0656779577
 30
0.0
 10
5.8547727069
 20
3.0793684285
 30
0.0
 11
5.749859909
 21
3.0122215036
 31
0.0
 11
5.779223174
 21
3.0264565061
 31
0.0
 11
5.8066614844
 21
3.0424875538
 31
0.0
 11
5.8547727069
 21
3.0793684285
 31
0.0
  0
SPLINE
  5
2D8
100
AcDbEntity
  8
0
100
AcDbSpline
 62
6
  6
CONTINUOUS
 70
0
 71
3
 72
20
 73
16
 74
14
 42
0.0000001
 43
0.0000001
 44
0.0000000001
 12
0.1718155974
 22
0.1582672309
 32
0.0
 13
-0.051173882
 23
0.2279261935
 33
0.0
 40
0.0
 40
0.0
 40
0.0
 40
0.0
 40
0.1370490701
 40
0.2692407291
 40
0.3336665542
 40
0.3970557781
 40
0.5210455312
 40
0.5819363723
 40
0.6422390927
 40
0.702095114
 40
0.7616520371
 40
0.8210636163
 40
0.8804881057
 40
0.9400823036
 40
1.0
 40
1.0
 40
1.0
 40
1.0
 10
5.8547727069
 20
3.0793684285
 30
0.0
 10
5.8626217629
 20
3.0865985541
 30
0.0
 10
5.8773306269
 20
3.1016018189
 30
0.0
 10
5.8933813206
 20
3.1221104168
 30
0.0
 10
5.904370891
 20
3.139128676
 30
0.0
 10
5.9139678182
 20
3.1562373866
 30
0.0
 10
5.9218043329
 20
3.1739829944
 30
0.0
 10
5.9276964842
 20
3.192155294
 30
0.0
 10
5.9311078503
 20
3.2058465188
 30
0.0
 10
5.933529537
 20
3.2196409958
 30
0.0
 10
5.9349550836
 20
3.2335043878
 30
0.0
 10
5.9353766856
 20
3.2474009678
 30
0.0
 10
5.9347913793
 20
3.2612946827
 30
0.0
 10
5.9332036923
 20
3.2751485945
 30
0.0
 10
5.9314845985
 20
3.2843038743
 30
0.0
 10
5.9304625248
 20
3.2888561451
 30
0.0
 11
5.8547727069
 21
3.0793684285
 31
0.0
 11
5.8771406693
 21
3.1022729219
 31
0.0
 11
5.8961223119
 21
3.1266301099
 31
0.0
 11
5.9042798094
 21
3.139277424
 31
0.0
 11
5.9115177586
 21
3.1521956811
 31
0.0
 11
5.9231696331
 21
3.1787126546
 31
0.0
 11
5.927551856
 21
3.1922449025
 31
0.0
 11
5.9309538412
 21
3.2059146727
 31
0.0
 11
5.9333684508
 21
3.2196869925
 31
0.0
 11
5.9347890278
 21
3.2335267936
 31
0.0
 11
5.9352090245
 21
3.2473990018
 31
0.0
 11
5.9346260041
 21
3.2612683337
 31
0.0
 11
5.9330427841
 21
3.2750992377
 31
0.0
 11
5.9304625248
 21
3.2888561451
 31
0.0
  0
SPLINE
  5
2D9
100
AcDbEntity
  8
0
100
AcDbSpline
 62
6
  6
CONTINUOUS
 70
0
 71
3
 72
20
 73
16
 74
14
 42
0.0000001
 43
0.0000001
 44
0.0000000001
 12
-0.2309542333
 22
0.333724042
 32
0.0
 13
-0.405702217
 23
-0.0108307551
 33
0.0
 40
0.0
 40
0.0
 40
0.0
 40
0.0
 40
0.0529636889
 40
0.107296541
 40
0.1630690741
 40
0.2203126734
 40
0.33914106
 40
0.4635753849
 40
0.5277285898
 40
0.5929994441
 40
0.72631308
 40
0.794124528
 40
0.8624889252
 40
0.931194491
 40
1.0
 40
1.0
 40
1.0
 40
1.0
 10
5.8962456363
 20
3.3653829585
 30
0.0
 10
5.8921682403
 20
3.3712747107
 30
0.0
 10
5.883390137
 20
3.3828599101
 30
0.0
 10
5.868672696
 20
3.3993223636
 30
0.0
 10
5.8523074477
 20
3.4149981299
 30
0.0
 10
5.8281127486
 20
3.4349938271
 30
0.0
 10
5.7941031467
 20
3.4575051428
 30
0.0
 10
5.756704898
 20
3.4759369311
 30
0.0
 10
5.7246817357
 20
3.4883875812
 30
0.0
 10
5.6908641916
 20
3.4993804362
 30
0.0
 10
5.6557032086
 20
3.5076557974
 30
0.0
 10
5.6196601604
 20
3.5132115055
 30
0.0
 10
5.5920710198
 20
3.5160059684
 30
0.0
 10
5.564243092
 20
3.5173923827
 30
0.0
 10
5.5456306809
 20
3.517372757
 30
0.0
 10
5.5363258317
 20
3.5171243518
 30
0.0
 11
5.8962456363
 21
3.3653829585
 31
0.0
 11
5.8832814647
 21
3.3825285518
 31
0.0
 11
5.8686005193
 21
3.3989817629
 31
0.0
 11
5.852270579
 21
3.414655974
 31
0.0
 11
5.8343754899
 21
3.4294714261
 31
0.0
 11
5.7942454169
 21
3.4562171827
 31
0.0
 11
5.7490026544
 21
3.4786553308
 31
0.0
 11
5.7247411114
 21
3.4881036176
 31
0.0
 11
5.699551857
 21
3.4963023797
 31
0.0
 11
5.6469023821
 21
3.5087672825
 31
0.0
 11
5.6197032708
 21
3.5129645314
 31
0.0
 11
5.5920995831
 21
3.5157658684
 31
0.0
 11
5.5642503072
 21
3.5171556387
 31
0.0
 11
5.5363258317
 21
3.5171243518
 31
0.0
  0
SPLINE
  5
2DA
100
AcDbEntity
  8
0
100
AcDbSpline
 62
6
  6
CONTINUOUS
 70
0
 71
3
 72
22
 73
18
 74
16
 42
0.0000001
 43
0.0000001
 44
0.0000000001
 12
-0.4219200343
 22
-0.0112637111
 32
0.0
 13
-0.1809051262
 23
-0.3813354453
 33
0.0
 40
0.0
 40
0.0
 40
0.0
 40
0.0
 40
0.0691885915
 40
0.1382643779
 40
0.206961474
 40
0.2750516767
 40
0.4087068198
 40
0.474031571
 40
0.5381478868
 40
0.6009350088
 40
0.6623079521
 40
0.7222097157
 40
0.7806128159
 40
0.8375285568
 40
0.8930001545
 40
0.9471138295
 40
1.0
 40
1.0
 40
1.0
 40
1.0
 10
5.5363258317
 20
3.5171243518
 30
0.0
 10
5.5265951474
 20
3.5168645783
 30
0.0
 10
5.5071595224
 20
3.5158235989
 30
0.0
 10
5.4781955993
 20
3.5127138457
 30
0.0
 10
5.4495920813
 20
3.5080647226
 30
0.0
 10
5.4124187819
 20
3.4998877171
 30
0.0
 10
5.3764302716
 20
3.4887384788
 30
0.0
 10
5.3421920967
 20
3.4746238952
 30
0.0
 10
5.3178591485
 20
3.4627769063
 30
0.0
 10
5.2948321578
 20
3.4496455336
 30
0.0
 10
5.2732442636
 20
3.4353055639
 30
0.0
 10
5.2532211955
 20
3.4198378578
 30
0.0
 10
5.2348885114
 20
3.4033198788
 30
0.0
 10
5.2183507692
 20
3.3858514243
 30
0.0
 10
5.2037114832
 20
3.367526139
 30
0.0
 10
5.1910683563
 20
3.3484472402
 30
0.0
 10
5.1839410031
 20
3.3351568556
 30
0.0
 10
5.1807518767
 20
3.3284343985
 30
0.0
 11
5.5363258317
 21
3.5171243518
 31
0.0
 11
5.5071651378
 21
3.5155631897
 31
0.0
 11
5.4781773737
 21
3.5124464073
 31
0.0
 11
5.4495591885
 21
3.5077870124
 31
0.0
 11
5.4214929838
 21
3.5016055879
 31
0.0
 11
5.3676370837
 21
3.4848174507
 31
0.0
 11
5.3421519331
 21
3.4742959257
 31
0.0
 11
5.3178295232
 21
3.4624320994
 31
0.0
 11
5.2948185279
 21
3.4492877091
 31
0.0
 11
5.2732533263
 21
3.4349369684
 31
0.0
 11
5.2532608095
 21
3.4194606264
 31
0.0
 11
5.234963477
 21
3.4029427319
 31
0.0
 11
5.2184676778
 21
3.3854794397
 31
0.0
 11
5.2038758497
 21
3.3671697909
 31
0.0
 11
5.1912795302
 21
3.3481175417
 31
0.0
 11
5.1807518767
 21
3.3284343985
 31
0.0
  0
SPLINE
  5
2DB
100
AcDbEntity
  8
0
100
AcDbSpline
 62
6
  6
CONTINUOUS
 70
0
 71
3
 72
21
 73
17
 74
15
 42
0.0000001
 43
0.0000001
 44
0.0000000001
 12
0.0035765722
 22
-0.2849777318
 32
0.0
 13
0.254148431
 23
-0.1289716037
 33
0.0
 40
0.0
 40
0.0
 40
0.0
 40
0.0
 40
0.0562708228
 40
0.112755709
 40
0.1696369887
 40
0.227085282
 40
0.2852586921
 40
0.3443040381
 40
0.404346665
 40
0.4654858833
 40
0.5278036788
 40
0.5913673261
 40
0.6562267782
 40
0.7224151802
 40
0.8587479922
 40
1.0
 40
1.0
 40
1.0
 40
1.0
 10
5.1604303374
 20
3.2379363067
 30
0.0
 10
5.160497423
 20
3.2325909962
 30
0.0
 10
5.16107143
 20
3.2218804005
 30
0.0
 10
5.1632495293
 20
3.2058955095
 30
0.0
 10
5.1667434515
 20
3.190030484
 30
0.0
 10
5.1715357148
 20
3.1743413968
 30
0.0
 10
5.1776098797
 20
3.1588820436
 30
0.0
 10
5.1849505677
 20
3.1437087776
 30
0.0
 10
5.1935305049
 20
3.1288748345
 30
0.0
 10
5.2033148702
 20
3.1144301416
 30
0.0
 10
5.2142706661
 20
3.1004260539
 30
0.0
 10
5.2263636593
 20
3.0869143738
 30
0.0
 10
5.2395501268
 20
3.0739383634
 30
0.0
 10
5.2587158999
 20
3.0572475418
 30
0.0
 10
5.2852123135
 20
3.0380291864
 30
0.0
 10
5.3081495702
 20
3.0249086604
 30
0.0
 10
5.3201158956
 20
3.0188361611
 30
0.0
 11
5.1604303374
 21
3.2379363067
 31
0.0
 11
5.1612879491
 21
3.2219220598
 31
0.0
 11
5.163458746
 21
3.2059708917
 31
0.0
 11
5.1669391839
 21
3.1901377387
 31
0.0
 11
5.1717152335
 21
3.1744770533
 31
0.0
 11
5.1777711406
 21
3.1590432088
 31
0.0
 11
5.1850906175
 21
3.1438904989
 31
0.0
 11
5.1936483096
 21
3.1290718655
 31
0.0
 11
5.2034112817
 21
3.1146391206
 31
0.0
 11
5.2143463653
 21
3.1006440415
 31
0.0
 11
5.2264186064
 21
3.087137088
 31
0.0
 11
5.2395859738
 21
3.0741634993
 31
0.0
 11
5.2538046832
 21
3.0617672212
 31
0.0
 11
5.2852052031
 21
3.038882539
 31
0.0
 11
5.3201158956
 21
3.0188361611
 31
0.0
  0
SPLINE
  5
2DC
100
AcDbEntity
  8
0
100
AcDbSpline
 62
6
  6
CONTINUOUS
 70
0
 71
3
 72
20
 73
16
 74
14
 42
0.0000001
 43
0.0000001
 44
0.0000000001
 12
0.2380463363
 22
0.330437198
 32
0.0
 13
0.4071580081
 23
0.008783876
 33
0.0
 40
0.0
 40
0.0
 40
0.0
 40
0.0
 40
0.109963521
 40
0.1668436559
 40
0.2249968246
 40
0.2844139772
 40
0.3450622457
 40
0.4697850641
 40
0.5985696865
 40
0.6642420749
 40
0.7306004365
 40
0.7975234595
 40
0.8648658498
 40
0.9324282463
 40
1.0
 40
1.0
 40
1.0
 40
1.0
 10
5.1767422402
 20
3.4115416928
 30
0.0
 10
5.1854677113
 20
3.4236537053
 30
0.0
 10
5.2001910896
 20
3.4410073851
 30
0.0
 10
5.2222883173
 20
3.4621131921
 30
0.0
 10
5.2404975437
 20
3.477284712
 30
0.0
 10
5.2600596651
 20
3.4915469197
 30
0.0
 10
5.2880833882
 20
3.5094389986
 30
0.0
 10
5.3260369575
 20
3.5291091909
 30
0.0
 10
5.3665379127
 20
3.544744955
 30
0.0
 10
5.4004671547
 20
3.5549072641
 30
0.0
 10
5.4267100857
 20
3.5613409862
 30
0.0
 10
5.4534619643
 20
3.5665051332
 30
0.0
 10
5.4805968336
 20
3.5703739009
 30
0.0
 10
5.5079730725
 20
3.5729410736
 30
0.0
 10
5.5263068653
 20
3.5737786469
 30
0.0
 10
5.5354776588
 20
3.5739764942
 30
0.0
 11
5.1767422402
 21
3.4115416928
 31
0.0
 11
5.2055977084
 21
3.4457889438
 31
0.0
 11
5.2223368023
 21
3.4618014708
 31
0.0
 11
5.2405204812
 21
3.4769751354
 31
0.0
 11
5.2600632224
 21
3.4912444985
 31
0.0
 11
5.2808736374
 21
3.5045477245
 31
0.0
 11
5.3259192898
 21
3.5280187752
 31
0.0
 11
5.3748190652
 21
3.5469817198
 31
0.0
 11
5.400437223
 21
3.5546640991
 31
0.0
 11
5.4266831417
 21
3.56110476
 31
0.0
 11
5.4534428081
 21
3.566275123
 31
0.0
 11
5.4805928476
 21
3.570151521
 31
0.0
 11
5.5079874837
 21
3.5727220417
 31
0.0
 11
5.5354776588
 21
3.5739764942
 31
0.0
  0
LINE
  5
2DD
100
AcDbEntity
  8
0
100
AcDbLine
 62
6
  6
CONTINUOUS
 10
5.5354776588
 20
3.5739764942
 11
5.5363258317
 21
3.5739941615
  0
SPLINE
  5
2DE
100
AcDbEntity
  8
0
100
AcDbSpline
 62
6
  6
CONTINUOUS
 70
0
 71
3
 72
10
 73
6
 74
4
 42
0.0000001
 43
0.0000001
 44
0.0000000001
 12
-0.1295387491
 22
-0.0565943253
 32
0.0
 13
-0.1400406341
 23
-0.0192827902
 33
0.0
 40
0.0
 40
0.0
 40
0.0
 40
0.0
 40
0.2433786933
 40
0.4919422457
 40
1.0
 40
1.0
 40
1.0
 40
1.0
 10
5.749859909
 20
3.0122215036
 30
0.0
 10
5.7393509185
 20
3.0076302193
 30
0.0
 10
5.7177513847
 20
2.9991451799
 30
0.0
 10
5.6727657741
 20
2.9850384419
 30
0.0
 10
5.6376914262
 20
2.9778999228
 30
0.0
 10
5.6139751829
 20
2.9746343324
 30
0.0
 11
5.749859909
 21
3.0122215036
 31
0.0
 11
5.7178491197
 21
2.9996128426
 31
0.0
 11
5.6843273323
 21
2.9890805632
 31
0.0
 11
5.6139751829
 21
2.9746343324
 31
0.0
  0
SPLINE
  5
2DF
100
AcDbEntity
  8
0
100
AcDbSpline
 62
6
  6
CONTINUOUS
 70
0
 71
3
 72
20
 73
16
 74
14
 42
0.0000001
 43
0.0000001
 44
0.0000000001
 12
-0.2983309831
 22
0.1413057513
 32
0.0
 13
0.0001119455
 23
0.3301040416
 33
0.0
 40
0.0
 40
0.0
 40
0.0
 40
0.0
 40
0.1417144004
 40
0.2106971539
 40
0.2783584429
 40
0.4096021047
 40
0.473262511
 40
0.5356301037
 40
0.6566625427
 40
0.7156064957
 40
0.773640207
 40
0.8309187064
 40
0.8876132122
 40
0.9439077144
 40
1.0
 40
1.0
 40
1.0
 40
1.0
 10
5.3179666594
 20
3.0153717822
 30
0.0
 10
5.3038740606
 20
3.0220468021
 30
0.0
 10
5.2833984484
 20
3.0330452327
 30
0.0
 10
5.2577166181
 20
3.0497608295
 30
0.0
 10
5.2339658362
 20
3.0672397705
 30
0.0
 10
5.2122464186
 20
3.0864269553
 30
0.0
 10
5.1929658604
 20
3.1071808728
 30
0.0
 10
5.1758470353
 20
3.1283191657
 30
0.0
 10
5.1612837948
 20
3.1507958348
 30
0.0
 10
5.1496681351
 20
3.1742925814
 30
0.0
 10
5.1425548054
 20
3.1921220019
 30
0.0
 10
5.1369941221
 20
3.2102355918
 30
0.0
 10
5.1330034953
 20
3.228564116
 30
0.0
 10
5.1306049531
 20
3.2470356395
 30
0.0
 10
5.1300754137
 20
3.2594089391
 30
0.0
 10
5.1300775068
 20
3.2655810358
 30
0.0
 11
5.3179666594
 21
3.0153717822
 31
0.0
 11
5.2767991877
 21
3.0375901161
 31
0.0
 11
5.2577201458
 21
3.0500211573
 31
0.0
 11
5.2397397191
 21
3.0632713789
 31
0.0
 11
5.2073432872
 21
3.0920367377
 31
0.0
 11
5.1930507359
 21
3.1074424072
 31
0.0
 11
5.1801069778
 21
3.1234522933
 31
0.0
 11
5.1584716275
 21
3.1570406509
 31
0.0
 11
5.1498607916
 21
3.1744892379
 31
0.0
 11
5.1427720256
 21
3.1922866063
 31
0.0
 11
5.1372311759
 21
3.2103643924
 31
0.0
 11
5.1332573079
 21
3.2286527176
 31
0.0
 11
5.1308692307
 21
3.2470816786
 31
0.0
 11
5.1300775068
 21
3.2655810358
 31
0.0
  0
SPLINE
  5
2E0
100
AcDbEntity
  8
0
100
AcDbSpline
 62
6
  6
CONTINUOUS
 70
0
 71
3
 72
14
 73
10
 74
8
 42
0.0000001
 43
0.0000001
 44
0.0000000001
 12
-0.2000393841
 22
-0.0863746744
 32
0.0
 13
-0.115037836
 23
-0.1850476583
 33
0.0
 40
0.0
 40
0.0
 40
0.0
 40
0.0
 40
0.1351552786
 40
0.2678011364
 40
0.3975808184
 40
0.5242601936
 40
0.6478002055
 40
0.7682322551
 40
1.0
 40
1.0
 40
1.0
 40
1.0
 10
5.3330718981
 20
3.5824586848
 30
0.0
 10
5.3240597719
 20
3.5785673538
 30
0.0
 10
5.3064378245
 20
3.5702973634
 30
0.0
 10
5.2811292054
 20
3.5563518131
 30
0.0
 10
5.2573392289
 20
3.5410536236
 30
0.0
 10
5.2352342342
 20
3.5244885341
 30
0.0
 10
5.2149376942
 20
3.5067576174
 30
0.0
 10
5.1907768012
 20
3.4820267942
 30
0.0
 10
5.1751852268
 20
3.461531135
 30
0.0
 10
5.1662978735
 20
3.4472351088
 30
0.0
 11
5.3330718981
 21
3.5824586848
 31
0.0
 11
5.3064190671
 21
3.5699337302
 31
0.0
 11
5.2811154642
 21
3.5559669752
 31
0.0
 11
5.2573446676
 21
3.5406509019
 31
0.0
 11
5.2352704453
 21
3.5240794488
 31
0.0
 11
5.2150160537
 21
3.5063495332
 31
0.0
 11
5.1966994572
 21
3.4875587548
 31
0.0
 11
5.1662978735
 21
3.4472351088
 31
0.0
  0
SPLINE
  5
2E1
100
AcDbEntity
  8
0
100
AcDbSpline
 62
6
  6
CONTINUOUS
 70
0
 71
3
 72
9
 73
5
 74
3
 42
0.0000001
 43
0.0000001
 44
0.0000000001
 12
-0.0171664217
 22
-0.0300391828
 32
0.0
 13
-0.0128357757
 23
-0.0321291363
 33
0.0
 40
0.0
 40
0.0
 40
0.0
 40
0.0
 40
0.2528637048
 40
1.0
 40
1.0
 40
1.0
 40
1.0
 10
5.161303122
 20
3.4388605289
 30
0.0
 10
5.1598562003
 20
3.4363285892
 30
0.0
 10
5.1543032336
 20
3.4262200249
 30
0.0
 10
5.1494396268
 20
3.415730959
 30
0.0
 10
5.1462429355
 20
3.4077293444
 30
0.0
 11
5.161303122
 21
3.4388605289
 31
0.0
 11
5.1570919906
 21
3.4311920819
 31
0.0
 11
5.1462429355
 21
3.4077293444
 31
0.0
  0
LINE
  5
2E2
100
AcDbEntity
  8
0
100
AcDbLine
 62
6
  6
CONTINUOUS
 10
5.5363258317
 20
3.6252218615
 11
5.5354941339
 21
3.6252047027
  0
SPLINE
  5
2E3
100
AcDbEntity
  8
0
100
AcDbSpline
 62
6
  6
CONTINUOUS
 70
0
 71
3
 72
10
 73
6
 74
4
 42
0.0000001
 43
0.0000001
 44
0.0000000001
 12
-0.1906608249
 22
-0.0040722613
 32
0.0
 13
-0.1777017526
 23
-0.0692114193
 33
0.0
 40
0.0
 40
0.0
 40
0.0
 40
0.0
 40
0.253849264
 40
0.5063924304
 40
1.0
 40
1.0
 40
1.0
 40
1.0
 10
5.5354941339
 20
3.6252047027
 30
0.0
 10
5.5193610972
 20
3.6248601225
 30
0.0
 10
5.4871852035
 20
3.6228144901
 30
0.0
 10
5.4242702245
 20
3.6134431904
 30
0.0
 10
5.378313384
 20
3.6004106321
 30
0.0
 10
5.3490750739
 20
3.589022872
 30
0.0
 11
5.5354941339
 21
3.6252047027
 31
0.0
 11
5.4871816793
 21
3.6221307469
 31
0.0
 11
5.4395498781
 21
3.6150103406
 31
0.0
 11
5.3490750739
 21
3.589022872
 31
0.0
  0
LINE
  5
2E4
100
AcDbEntity
  8
0
100
AcDbLine
 62
6
  6
CONTINUOUS
 10
5.5363258317
 20
3.6765579321
 11
5.5352221561
 21
3.6765347221
  0
SPLINE
  5
2E5
100
AcDbEntity
  8
0
100
AcDbSpline
 62
6
  6
CONTINUOUS
 70
0
 71
3
 72
14
 73
10
 74
8
 42
0.0000001
 43
0.0000001
 44
0.0000000001
 12
-0.2129803157
 22
-0.004684911
 32
0.0
 13
-0.194645285
 23
-0.0865781514
 33
0.0
 40
0.0
 40
0.0
 40
0.0
 40
0.0
 40
0.1273845203
 40
0.2547438579
 40
0.3816941178
 40
0.5078756219
 40
0.6330262925
 40
0.7569200524
 40
1.0
 40
1.0
 40
1.0
 40
1.0
 10
5.5352221561
 20
3.6765347221
 30
0.0
 10
5.526178691
 20
3.6763357937
 30
0.0
 10
5.5081001054
 20
3.6755085532
 30
0.0
 10
5.4811031604
 20
3.6729930687
 30
0.0
 10
5.4543395791
 20
3.6692111252
 30
0.0
 10
5.4279445371
 20
3.6641688971
 30
0.0
 10
5.4020371742
 20
3.6578914908
 30
0.0
 10
5.3685172187
 20
3.6479785012
 30
0.0
 10
5.3441045656
 20
3.638683425
 30
0.0
 10
5.3283331104
 20
3.6316682875
 30
0.0
 11
5.5352221561
 21
3.6765347221
 31
0.0
 11
5.5081135061
 21
3.6752955289
 31
0.0
 11
5.4810990821
 21
3.672776746
 31
0.0
 11
5.4543213854
 21
3.6689876733
 31
0.0
 11
5.4279189381
 21
3.663939743
 31
0.0
 11
5.4020090013
 21
3.6576557785
 31
0.0
 11
5.3767017642
 21
3.6501623922
 31
0.0
 11
5.3283331104
 21
3.6316682875
 31
0.0
  0
SPLINE
  5
2E6
100
AcDbEntity
  8
0
100
AcDbSpline
 62
6
  6
CONTINUOUS
 70
0
 71
3
 72
14
 73
10
 74
8
 42
0.0000001
 43
0.0000001
 44
0.0000000001
 12
-0.195156133
 22
-0.0868053764
 32
0.0
 13
-0.112158991
 23
-0.1817730738
 33
0.0
 40
0.0
 40
0.0
 40
0.0
 40
0.0
 40
0.2675227397
 40
0.3971289021
 40
0.5237356064
 40
0.6472784879
 40
0.7677720447
 40
0.885292279
 40
1.0
 40
1.0
 40
1.0
 40
1.0
 10
5.3283331104
 20
3.6316682875
 30
0.0
 10
5.3109302093
 20
3.6239274834
 30
0.0
 10
5.2857446522
 20
3.6108481613
 30
0.0
 10
5.2545545398
 20
3.590372958
 30
0.0
 10
5.2330309313
 20
3.5739682916
 30
0.0
 10
5.2132707204
 20
3.5564407466
 30
0.0
 10
5.1953801121
 20
3.5378935207
 30
0.0
 10
5.1794686501
 20
3.518428453
 30
0.0
 10
5.1701378296
 20
3.5047478259
 30
0.0
 10
5.1658493288
 20
3.4977975676
 30
0.0
 11
5.3283331104
 21
3.6316682875
 31
0.0
 11
5.277694805
 21
3.6051958271
 31
0.0
 11
5.2545644457
 21
3.5899866696
 31
0.0
 11
5.233072855
 21
3.5735737563
 31
0.0
 11
5.2133477627
 21
3.5560458275
 31
0.0
 11
5.1954996516
 21
3.5375038826
 31
0.0
 11
5.1796350299
 21
3.5180517131
 31
0.0
 11
5.1658493288
 21
3.4977975676
 31
0.0
  0
SPLINE
  5
2E7
100
AcDbEntity
  8
0
100
AcDbSpline
 62
6
  6
CONTINUOUS
 70
0
 71
3
 72
14
 73
10
 74
8
 42
0.0000001
 43
0.0000001
 44
0.0000000001
 12
-0.3397615419
 22
-0.0075710954
 32
0.0
 13
-0.2527670345
 23
-0.227165255
 33
0.0
 40
0.0
 40
0.0
 40
0.0
 40
0.0
 40
0.1318966988
 40
0.2633209504
 40
0.3932995541
 40
0.5211440656
 40
0.6462519441
 40
0.7680690474
 40
1.0
 40
1.0
 40
1.0
 40
1.0
 10
5.5350733529
 20
3.7277547473
 30
0.0
 10
5.5201355444
 20
3.7274218798
 30
0.0
 10
5.4903265804
 20
3.7255895579
 30
0.0
 10
5.4461613774
 20
3.7193937831
 30
0.0
 10
5.4030760651
 20
3.7097831135
 30
0.0
 10
5.3616085419
 20
3.6968834005
 30
0.0
 10
5.3222426935
 20
3.6808190763
 30
0.0
 10
5.2740262054
 20
3.6558801788
 30
0.0
 10
5.2410750973
 20
3.6324295408
 30
0.0
 10
5.2215335976
 20
3.6148673228
 30
0.0
 11
5.5350733529
 21
3.7277547473
 31
0.0
 11
5.4903332091
 21
3.7250052265
 31
0.0
 11
5.44610511
 21
3.7187804878
 31
0.0
 11
5.4029970425
 21
3.7091409132
 31
0.0
 11
5.3615221644
 21
3.6961982018
 31
0.0
 11
5.3221727122
 21
3.6800938626
 31
0.0
 11
5.2854300808
 21
3.6610187566
 31
0.0
 11
5.2215335976
 21
3.6148673228
 31
0.0
  0
SPLINE
  5
2E8
100
AcDbEntity
  8
0
100
AcDbSpline
 62
6
  6
CONTINUOUS
 70
0
 71
3
 72
11
 73
7
 74
5
 42
0.0000001
 43
0.0000001
 44
0.0000000001
 12
-0.0655008175
 22
-0.0588664972
 32
0.0
 13
-0.0458079934
 23
-0.0752146883
 33
0.0
 40
0.0
 40
0.0
 40
0.0
 40
0.0
 40
0.2581782077
 40
0.5107693263
 40
0.7579426958
 40
1.0
 40
1.0
 40
1.0
 40
1.0
 10
5.2215335976
 20
3.6148673228
 30
0.0
 10
5.2158966364
 20
3.6098013072
 30
0.0
 10
5.2050709946
 20
3.5994077945
 30
0.0
 10
5.1901176072
 20
3.5829075437
 30
0.0
 10
5.1766974347
 20
3.5657332986
 30
0.0
 10
5.1687335856
 20
3.5537614972
 30
0.0
 10
5.1650375325
 20
3.5476927423
 30
0.0
 11
5.2215335976
 21
3.6148673228
 31
0.0
 11
5.205143874
 21
3.5991086562
 31
0.0
 11
5.1902198464
 21
3.5826132117
 31
0.0
 11
5.1768312266
 21
3.5654501107
 31
0.0
 11
5.1650375325
 21
3.5476927423
 31
0.0
  0
SPLINE
  5
2E9
100
AcDbEntity
  8
0
100
AcDbSpline
 62
6
  6
CONTINUOUS
 70
0
 71
3
 72
9
 73
5
 74
3
 42
0.0000001
 43
0.0000001
 44
0.0000000001
 12
-0.0219879608
 22
-0.0278595666
 32
0.0
 13
-0.0182676609
 23
-0.0304289079
 33
0.0
 40
0.0
 40
0.0
 40
0.0
 40
0.0
 40
0.2530789265
 40
1.0
 40
1.0
 40
1.0
 40
1.0
 10
5.1843542105
 20
3.6266950713
 30
0.0
 10
5.182499314
 20
3.6243448483
 30
0.0
 10
5.175313513
 20
3.6149462101
 30
0.0
 10
5.1687123935
 20
3.6050984995
 30
0.0
 10
5.1641642265
 20
3.597522502
 30
0.0
 11
5.1843542105
 21
3.6266950713
 31
0.0
 11
5.1788996127
 21
3.6195588911
 31
0.0
 11
5.1641642265
 21
3.597522502
 31
0.0
  0
SPLINE
  5
2EA
100
AcDbEntity
  8
0
100
AcDbSpline
 62
6
  6
CONTINUOUS
 70
0
 71
3
 72
18
 73
14
 74
12
 42
0.0000001
 43
0.0000001
 44
0.0000000001
 12
-0.3676075651
 22
-0.0082357337
 32
0.0
 13
-0.2519390721
 23
-0.2678242953
 33
0.0
 40
0.0
 40
0.0
 40
0.0
 40
0.0
 40
0.1331448474
 40
0.2656511006
 40
0.3313164348
 40
0.3964402986
 40
0.4609288428
 40
0.5246920756
 40
0.5876403856
 40
0.6496884538
 40
0.7707588025
 40
0.8875865701
 40
1.0
 40
1.0
 40
1.0
 40
1.0
 10
5.5349541055
 20
3.7789514443
 30
0.0
 10
5.5186390877
 20
3.7785859292
 30
0.0
 10
5.4861029459
 20
3.7764663798
 30
0.0
 10
5.4459002194
 20
3.7703759258
 30
0.0
 10
5.4143734343
 20
3.76344152
 30
0.0
 10
5.3912415981
 20
3.7572627296
 30
0.0
 10
5.3686366727
 20
3.7501094096
 30
0.0
 10
5.3466399035
 20
3.7420020543
 30
0.0
 10
5.3253285147
 20
3.7329729003
 30
0.0
 10
5.2981589474
 20
3.7198587336
 30
0.0
 10
5.2662859785
 20
3.7013900992
 30
0.0
 10
5.2316161758
 20
3.6759192574
 30
0.0
 10
5.2110217966
 20
3.6566821626
 30
0.0
 10
5.2015813515
 20
3.6466464801
 30
0.0
 11
5.5349541055
 21
3.7789514443
 31
0.0
 11
5.4861004464
 21
3.7757670073
 31
0.0
 11
5.4379316248
 21
3.7684424619
 31
0.0
 11
5.4143509015
 21
3.7632523918
 31
0.0
 11
5.3912173743
 21
3.7570675411
 31
0.0
 11
5.3686118962
 21
3.7499071305
 31
0.0
 11
5.3466149291
 21
3.7417932153
 31
0.0
 11
5.3253057098
 21
3.732756719
 31
0.0
 11
5.3047632366
 21
3.7228302955
 31
0.0
 11
5.2662845581
 21
3.7004427313
 31
0.0
 11
5.2317229626
 21
3.6749310276
 31
0.0
 11
5.2015813515
 21
3.6466464801
 31
0.0
  0
SPLINE
  5
2EB
100
AcDbEntity
  8
0
100
AcDbSpline
 62
6
  6
CONTINUOUS
 70
0
 71
3
 72
21
 73
17
 74
15
 42
0.0000001
 43
0.0000001
 44
0.0000000001
 12
-0.4094256564
 22
-0.008210699
 32
0.0
 13
-0.2377021828
 23
-0.3334583271
 33
0.0
 40
0.0
 40
0.0
 40
0.0
 40
0.0
 40
0.0675992684
 40
0.1351873939
 40
0.2025515764
 40
0.2694947343
 40
0.3358754513
 40
0.4015702857
 40
0.5303875928
 40
0.5933323637
 40
0.6551540931
 40
0.7157848132
 40
0.7751747141
 40
0.8900638826
 40
0.9456425201
 40
1.0
 40
1.0
 40
1.0
 40
1.0
 10
5.5363258317
 20
3.8303388362
 30
0.0
 10
5.5271002068
 20
3.8301538237
 30
0.0
 10
5.5086563804
 20
3.8293367617
 30
0.0
 10
5.4811153892
 20
3.8267848092
 30
0.0
 10
5.453817858
 20
3.822914964
 30
0.0
 10
5.4269065943
 20
3.8177341547
 30
0.0
 10
5.4005074386
 20
3.8112698393
 30
0.0
 10
5.3663823522
 20
3.8010469557
 30
0.0
 10
5.3335278594
 20
3.7883435465
 30
0.0
 10
5.3023828187
 20
3.7732040509
 30
0.0
 10
5.2802854192
 20
3.7608382442
 30
0.0
 10
5.2593739451
 20
3.7474340296
 30
0.0
 10
5.2334945243
 20
3.7284769076
 30
0.0
 10
5.2100069345
 20
3.7074960394
 30
0.0
 10
5.1894404569
 20
3.6846894394
 30
0.0
 10
5.1802421618
 20
3.6728093378
 30
0.0
 10
5.1759351979
 20
3.666767353
 30
0.0
 11
5.5363258317
 21
3.8303388362
 31
0.0
 11
5.5086704529
 21
3.829115116
 31
0.0
 11
5.4811108012
 21
3.8265596416
 31
0.0
 11
5.45379848
 21
3.8226822848
 31
0.0
 11
5.4268798583
 21
3.8174955822
 31
0.0
 11
5.4004780279
 21
3.8110239216
 31
0.0
 11
5.3747096133
 21
3.8032949837
 31
0.0
 11
5.3255364371
 21
3.7841967594
 31
0.0
 11
5.3023601614
 21
3.7729148133
 31
0.0
 11
5.2802742916
 21
3.7605398752
 31
0.0
 11
5.2593792009
 21
3.7471285859
 31
0.0
 11
5.2397703302
 21
3.7327415906
 31
0.0
 11
5.2047753412
 21
3.7012953194
 31
0.0
 11
5.1895481416
 21
3.6843794916
 31
0.0
 11
5.1759351979
 21
3.666767353
 31
0.0
  0
SPLINE
  5
2EC
100
AcDbEntity
  8
0
100
AcDbSpline
 62
6
  6
CONTINUOUS
 70
0
 71
3
 72
9
 73
5
 74
3
 42
0.0000001
 43
0.0000001
 44
0.0000000001
 12
-0.0226262344
 22
-0.0377057241
 32
0.0
 13
-0.0156576244
 23
-0.0410914457
 33
0.0
 40
0.0
 40
0.0
 40
0.0
 40
0.0
 40
0.5046471221
 40
1.0
 40
1.0
 40
1.0
 40
1.0
 10
5.164130646
 20
3.6487608319
 30
0.0
 10
5.160324558
 20
3.6424181368
 30
0.0
 10
5.1533046301
 20
3.6295274764
 30
0.0
 10
5.1474508697
 20
3.6160646585
 30
0.0
 10
5.14486552
 20
3.6092797366
 30
0.0
 11
5.164130646
 21
3.6487608319
 31
0.0
 11
5.1535363716
 21
3.6292619569
 31
0.0
 11
5.14486552
 21
3.6092797366
 31
0.0
  0
SPLINE
  5
2ED
100
AcDbEntity
  8
0
100
AcDbSpline
 62
6
  6
CONTINUOUS
 70
0
 71
3
 72
21
 73
17
 74
15
 42
0.0000001
 43
0.0000001
 44
0.0000000001
 12
-0.4589199419
 22
-0.0092196778
 32
0.0
 13
-0.1915528809
 23
-0.4171330835
 33
0.0
 40
0.0
 40
0.0
 40
0.0
 40
0.0
 40
0.068988875
 40
0.1379290121
 40
0.2745215842
 40
0.4081594525
 40
0.4735033312
 40
0.5376469371
 40
0.6004674306
 40
0.6618800812
 40
0.7218252079
 40
0.7802785474
 40
0.8372534584
 40
0.8927962178
 40
0.9470009346
 40
1.0
 40
1.0
 40
1.0
 40
1.0
 10
5.5363258317
 20
3.8815688309
 30
0.0
 10
5.5257723749
 20
3.8813568125
 30
0.0
 10
5.5046794951
 20
3.8803479174
 30
0.0
 10
5.4628818107
 20
3.8760366005
 30
0.0
 10
5.4117675195
 20
3.8664194413
 30
0.0
 10
5.3626099357
 20
3.8511497934
 30
0.0
 10
5.3254063372
 20
3.8357057033
 30
0.0
 10
5.2989802708
 20
3.8227178977
 30
0.0
 10
5.2739948278
 20
3.8083053405
 30
0.0
 10
5.2505956461
 20
3.7925598191
 30
0.0
 10
5.2289263157
 20
3.7755671323
 30
0.0
 10
5.2091212879
 20
3.757422097
 30
0.0
 10
5.191294481
 20
3.7382369928
 30
0.0
 10
5.1755640378
 20
3.7181133309
 30
0.0
 10
5.1620256997
 20
3.69717522
 30
0.0
 10
5.1544346404
 20
3.6826009948
 30
0.0
 10
5.1510505992
 20
3.6752317737
 30
0.0
 11
5.5363258317
 21
3.8815688309
 31
0.0
 11
5.5046951323
 21
3.880058042
 31
0.0
 11
5.4732182349
 21
3.8768065499
 31
0.0
 11
5.4116133109
 21
3.8651517043
 31
0.0
 11
5.3530631375
 21
3.8468582175
 31
0.0
 11
5.325367731
 21
3.8353437007
 31
0.0
 11
5.2989533508
 21
3.8223377689
 31
0.0
 11
5.2739856429
 21
3.8079123213
 31
0.0
 11
5.250612287
 21
3.7921542777
 31
0.0
 11
5.2289766226
 21
3.7751541498
 31
0.0
 11
5.2092107507
 21
3.7570101978
 31
0.0
 11
5.1914312563
 21
3.7378313792
 31
0.0
 11
5.175751625
 21
3.7177282655
 31
0.0
 11
5.1622646246
 21
3.6968201974
 31
0.0
 11
5.1510505992
 21
3.6752317737
 31
0.0
  0
SPLINE
  5
2EE
100
AcDbEntity
  8
0
100
AcDbSpline
 62
6
  6
CONTINUOUS
 70
0
 71
3
 72
15
 73
11
 74
9
 42
0.0000001
 43
0.0000001
 44
0.0000000001
 12
-0.2805935276
 22
-0.1235077395
 32
0.0
 13
-0.0702191703
 23
-0.2984227832
 33
0.0
 40
0.0
 40
0.0
 40
0.0
 40
0.0
 40
0.1387462415
 40
0.2738488779
 40
0.4048005121
 40
0.5314880921
 40
0.653964729
 40
0.7724911568
 40
0.887576513
 40
1.0
 40
1.0
 40
1.0
 40
1.0
 10
5.3387936043
 20
3.9014184011
 30
0.0
 10
5.3258165051
 20
3.8957063229
 30
0.0
 10
5.3006805009
 20
3.883302207
 30
0.0
 10
5.2653973205
 20
3.8615905538
 30
0.0
 10
5.2334206972
 20
3.8372173892
 30
0.0
 10
5.2051530378
 20
3.8104599637
 30
0.0
 10
5.180937176
 20
3.7816143591
 30
0.0
 10
5.161088913
 20
3.7509957687
 30
0.0
 10
5.1458649967
 20
3.7189656898
 30
0.0
 10
5.1388697499
 20
3.6966957041
 30
0.0
 10
5.1362383219
 20
3.6855124608
 30
0.0
 11
5.3387936043
 21
3.9014184011
 31
0.0
 11
5.30067125
 21
3.8825509011
 31
0.0
 11
5.2654295086
 21
3.8607900127
 31
0.0
 11
5.2335429684
 21
3.8363980715
 31
0.0
 11
5.2053878321
 21
3.8096444977
 31
0.0
 11
5.1813068846
 21
3.7808354574
 31
0.0
 11
5.1616033735
 21
3.7503043619
 31
0.0
 11
5.1465191393
 21
3.7184094043
 31
0.0
 11
5.1362383219
 21
3.6855124608
 31
0.0
  0
SPLINE
  5
2EF
100
AcDbEntity
  8
0
100
AcDbSpline
 62
6
  6
CONTINUOUS
 70
0
 71
3
 72
23
 73
19
 74
17
 42
0.0000001
 43
0.0000001
 44
0.0000000001
 12
-0.0811322535
 22
0.5041504377
 32
0.0
 13
-0.5105339445
 23
-0.0102566004
 33
0.0
 40
0.0
 40
0.0
 40
0.0
 40
0.0
 40
0.0505325165
 40
0.1020157727
 40
0.154812188
 40
0.2092134266
 40
0.2654381888
 40
0.3236294943
 40
0.3838498831
 40
0.4461022575
 40
0.5103224683
 40
0.5763990865
 40
0.6441577752
 40
0.7133867223
 40
0.7838595333
 40
0.8553356331
 40
0.927514952
 40
1.0
 40
1.0
 40
1.0
 40
1.0
 10
5.9401184366
 20
3.6377766653
 30
0.0
 10
5.938751831
 20
3.6462686621
 30
0.0
 10
5.9348513485
 20
3.6632483851
 30
0.0
 10
5.9257125993
 20
3.6880334147
 30
0.0
 10
5.9133113218
 20
3.7121005532
 30
0.0
 10
5.8977760369
 20
3.7352442247
 30
0.0
 10
5.8792351211
 20
3.7572663336
 30
0.0
 10
5.8578497585
 20
3.7779806312
 30
0.0
 10
5.833805698
 20
3.797220585
 30
0.0
 10
5.8072960946
 20
3.8148141071
 30
0.0
 10
5.7785476649
 20
3.8306261648
 30
0.0
 10
5.7477907799
 20
3.8445079866
 30
0.0
 10
5.7152878571
 20
3.8563546793
 30
0.0
 10
5.6813036222
 20
3.8660542174
 30
0.0
 10
5.6461152811
 20
3.8735242076
 30
0.0
 10
5.6100094389
 20
3.878695585
 30
0.0
 10
5.5733031477
 20
3.8815140617
 30
0.0
 10
5.5486611909
 20
3.8818166476
 30
0.0
 10
5.5363258317
 20
3.8815688309
 30
0.0
 11
5.9401184366
 21
3.6377766653
 31
0.0
 11
5.9343671316
 21
3.6629313284
 31
0.0
 11
5.9253041067
 21
3.6876089787
 31
0.0
 11
5.9129970356
 21
3.711595785
 31
0.0
 11
5.8975543573
 21
3.7346871743
 31
0.0
 11
5.8791021969
 21
3.756682793
 31
0.0
 11
5.8577942272
 21
3.7773934122
 31
0.0
 11
5.8338123399
 21
3.7966412198
 31
0.0
 11
5.8073515695
 21
3.8142573394
 31
0.0
 11
5.7786352376
 21
3.8300929677
 31
0.0
 11
5.7478964491
 21
3.8440067378
 31
0.0
 11
5.7153975592
 21
3.8558805934
 31
0.0
 11
5.6814106963
 21
3.865605633
 31
0.0
 11
5.646212871
 21
3.8730960854
 31
0.0
 11
5.6100850453
 21
3.8782834664
 31
0.0
 11
5.5733366036
 21
3.8811157866
 31
0.0
 11
5.5363258317
 21
3.8815688309
 31
0.0
  0
SPLINE
  5
2F0
100
AcDbEntity
  8
0
100
AcDbSpline
 62
6
  6
CONTINUOUS
 70
0
 71
3
 72
21
 73
17
 74
15
 42
0.0000001
 43
0.0000001
 44
0.0000000001
 12
-0.1886933877
 22
0.4147233342
 32
0.0
 13
-0.4555405374
 23
-0.0091354955
 33
0.0
 40
0.0
 40
0.0
 40
0.0
 40
0.0
 40
0.0514389691
 40
0.1042286777
 40
0.1585339372
 40
0.2144741066
 40
0.2721129318
 40
0.331476108
 40
0.392545642
 40
0.4552645804
 40
0.5195471198
 40
0.5852633851
 40
0.7203114987
 40
0.8591310414
 40
0.9294596549
 40
1.0
 40
1.0
 40
1.0
 40
1.0
 10
5.9241202585
 20
3.6390068409
 30
0.0
 10
5.9208848607
 20
3.6461178212
 30
0.0
 10
5.9135529112
 20
3.6601850391
 30
0.0
 10
5.9003230356
 20
3.6803455072
 30
0.0
 10
5.8848099448
 20
3.6996912031
 30
0.0
 10
5.867111914
 20
3.7180911333
 30
0.0
 10
5.8473500173
 20
3.7354382999
 30
0.0
 10
5.8256414438
 20
3.7516138156
 30
0.0
 10
5.8021253913
 20
3.7665183744
 30
0.0
 10
5.7769492602
 20
3.7800597185
 30
0.0
 10
5.7502650609
 20
3.7921411225
 30
0.0
 10
5.7125719021
 20
3.8063388336
 30
0.0
 10
5.6626747963
 20
3.8199169944
 30
0.0
 10
5.6108538691
 20
3.8276651362
 30
0.0
 10
5.5684451781
 20
3.8303808204
 30
0.0
 10
5.5470371606
 20
3.8305536432
 30
0.0
 10
5.5363258317
 20
3.8303388362
 30
0.0
 11
5.9241202585
 21
3.6390068409
 31
0.0
 11
5.9133152038
 21
3.6598048059
 31
0.0
 11
5.9001450493
 21
3.6799313754
 31
0.0
 11
5.8846908883
 21
3.69925483
 31
0.0
 11
5.8670471288
 21
3.7176489311
 31
0.0
 11
5.8473301081
 21
3.7349964679
 31
0.0
 11
5.8256596385
 21
3.7511820365
 31
0.0
 11
5.8021724175
 21
3.766101639
 31
0.0
 11
5.7770161694
 21
3.7796587256
 31
0.0
 11
5.7503443601
 21
3.7917612568
 31
0.0
 11
5.7223302102
 21
3.8023327862
 31
0.0
 11
5.6629878626
 21
3.8186025365
 31
0.0
 11
5.6004433554
 21
3.8280274283
 31
0.0
 11
5.5684652446
 21
3.8300809197
 31
0.0
 11
5.5363258317
 21
3.8303388362
 31
0.0
  0
SPLINE
  5
2F1
100
AcDbEntity
  8
0
100
AcDbSpline
 62
6
  6
CONTINUOUS
 70
0
 71
3
 72
22
 73
18
 74
16
 42
0.0000001
 43
0.0000001
 44
0.0000000001
 12
-0.231529084
 22
0.348855447
 32
0.0
 13
-0.4186116878
 23
-0.0083722451
 33
0.0
 40
0.0
 40
0.0
 40
0.0
 40
0.0
 40
0.0525707883
 40
0.1065401622
 40
0.16198444
 40
0.2189440884
 40
0.3373657639
 40
0.3988289502
 40
0.4616889268
 40
0.5258465053
 40
0.5911824331
 40
0.6575685353
 40
0.724870903
 40
0.7929486976
 40
0.8616451051
 40
0.9307419545
 40
1.0
 40
1.0
 40
1.0
 40
1.0
 10
5.9061471965
 20
3.6199406948
 30
0.0
 10
5.9020899743
 20
3.6260538968
 30
0.0
 10
5.8933131252
 20
3.6380834859
 30
0.0
 10
5.8784902526
 20
3.6551842586
 30
0.0
 10
5.8619225315
 20
3.6714876796
 30
0.0
 10
5.8373131617
 20
3.6923141099
 30
0.0
 10
5.8098163074
 20
3.7108794868
 30
0.0
 10
5.7800484015
 20
3.7270844952
 30
0.0
 10
5.7561934952
 20
3.7382135079
 30
0.0
 10
5.7312225443
 20
3.7481095621
 30
0.0
 10
5.7052612944
 20
3.7567219398
 30
0.0
 10
5.6784396098
 20
3.7639963587
 30
0.0
 10
5.6508921753
 20
3.7698991758
 30
0.0
 10
5.622754613
 20
3.7743976534
 30
0.0
 10
5.5941726989
 20
3.7774574434
 30
0.0
 10
5.5653088887
 20
3.7790700953
 30
0.0
 10
5.5459899075
 20
3.7791738094
 30
0.0
 10
5.5363258317
 20
3.7789805276
 30
0.0
 11
5.9061471965
 21
3.6199406948
 31
0.0
 11
5.8931915753
 21
3.6377351458
 31
0.0
 11
5.8784102912
 21
3.6548268335
 31
0.0
 11
5.8618810946
 21
3.6711267636
 31
0.0
 11
5.8436904982
 21
3.6865496278
 31
0.0
 11
5.8026942482
 21
3.7144376684
 31
0.0
 11
5.7801001593
 21
3.7267569254
 31
0.0
 11
5.7562565006
 21
3.737900504
 31
0.0
 11
5.7312890952
 21
3.7478111886
 31
0.0
 11
5.7053282433
 21
3.7564353891
 31
0.0
 11
5.6785048869
 21
3.7637223961
 31
0.0
 11
5.6509530085
 21
3.7696351667
 31
0.0
 11
5.622807492
 21
3.7741407087
 31
0.0
 11
5.5942087694
 21
3.7772092189
 31
0.0
 11
5.5653234448
 21
3.7788259356
 31
0.0
 11
5.5363258317
 21
3.7789805276
 31
0.0
  0
SPLINE
  5
2F2
100
AcDbEntity
  8
0
100
AcDbSpline
 62
6
  6
CONTINUOUS
 70
0
 71
3
 72
20
 73
16
 74
14
 42
0.0000001
 43
0.0000001
 44
0.0000000001
 12
-0.2326495791
 22
0.3464254088
 32
0.0
 13
-0.4172123544
 23
-0.0083810428
 33
0.0
 40
0.0
 40
0.0
 40
0.0
 40
0.0
 40
0.0526259169
 40
0.1066507882
 40
0.1621486932
 40
0.2191563396
 40
0.3376484781
 40
0.4619421461
 40
0.5261001825
 40
0.5914270544
 40
0.7250203091
 40
0.7930632358
 40
0.8617212127
 40
0.9307794376
 40
1.0
 40
1.0
 40
1.0
 40
1.0
 10
5.9053932447
 20
3.5698761488
 30
0.0
 10
5.9013121123
 20
3.5759531337
 30
0.0
 10
5.8924940197
 20
3.5879094694
 30
0.0
 10
5.8776284813
 20
3.6049028498
 30
0.0
 10
5.8610352615
 20
3.6210996842
 30
0.0
 10
5.8364153452
 20
3.6417856937
 30
0.0
 10
5.8016735229
 20
3.6651005553
 30
0.0
 10
5.7633750544
 20
3.6842193438
 30
0.0
 10
5.7305197216
 20
3.6971729535
 30
0.0
 10
5.6957549448
 20
3.7086494916
 30
0.0
 10
5.6595637164
 20
3.7173378696
 30
0.0
 10
5.6224215062
 20
3.7232470248
 30
0.0
 10
5.5939479293
 20
3.7262792895
 30
0.0
 10
5.5651962436
 20
3.7278749005
 30
0.0
 10
5.5459523896
 20
3.7279746624
 30
0.0
 10
5.5363258317
 20
3.7277812823
 30
0.0
 11
5.9053932447
 21
3.5698761488
 31
0.0
 11
5.8923760683
 21
3.5875629125
 31
0.0
 11
5.8775513374
 21
3.6045475209
 31
0.0
 11
5.8609956993
 21
3.6207417782
 31
0.0
 11
5.8427961014
 21
3.6360615554
 31
0.0
 11
5.8018318609
 21
3.6637540325
 31
0.0
 11
5.7554871573
 21
3.687043234
 31
0.0
 11
5.730585797
 21
3.69687745
 31
0.0
 11
5.7047027099
 21
3.7054337515
 31
0.0
 11
5.6505137581
 21
3.7185256239
 31
0.0
 11
5.6224732034
 21
3.7229922671
 31
0.0
 11
5.593984271
 21
3.7260328849
 31
0.0
 11
5.5652109493
 21
3.7276326024
 31
0.0
 11
5.5363258317
 21
3.7277812823
 31
0.0
  0
SPLINE
  5
2F3
100
AcDbEntity
  8
0
100
AcDbSpline
 62
6
  6
CONTINUOUS
 70
0
 71
3
 72
20
 73
16
 74
14
 42
0.0000001
 43
0.0000001
 44
0.0000000001
 12
-0.2339298766
 22
0.3436884102
 32
0.0
 13
-0.4156625661
 23
-0.0083391614
 33
0.0
 40
0.0
 40
0.0
 40
0.0
 40
0.0
 40
0.052684391
 40
0.1067657496
 40
0.1623151532
 40
0.2193670267
 40
0.3379201704
 40
0.4622302642
 40
0.5263791365
 40
0.5916863658
 40
0.7252134207
 40
0.7932131785
 40
0.8618239419
 40
0.9308317588
 40
1.0
 40
1.0
 40
1.0
 40
1.0
 10
5.9045195045
 20
3.5199282931
 30
0.0
 10
5.9004113535
 20
3.5259639647
 30
0.0
 10
5.8915469158
 20
3.5378366205
 30
0.0
 10
5.8766335672
 20
3.5547065348
 30
0.0
 10
5.8600128422
 20
3.5707812338
 30
0.0
 10
5.8353848433
 20
3.5913047001
 30
0.0
 10
5.8006841776
 20
3.6144284145
 30
0.0
 10
5.7624748867
 20
3.633387792
 30
0.0
 10
5.7297186922
 20
3.6462298165
 30
0.0
 10
5.6950775067
 20
3.6576040785
 30
0.0
 10
5.6590291092
 20
3.6662145253
 30
0.0
 10
5.6220418085
 20
3.6720692417
 30
0.0
 10
5.5936919214
 20
3.6750727755
 30
0.0
 10
5.5650674219
 20
3.6766525002
 30
0.0
 10
5.5459093813
 20
3.6767502004
 30
0.0
 10
5.5363258317
 20
3.6765579321
 30
0.0
 11
5.9045195045
 21
3.5199282931
 31
0.0
 11
5.891432772
 21
3.5374922777
 31
0.0
 11
5.8765594009
 21
3.5543540236
 31
0.0
 11
5.8599755265
 21
3.5704266375
 31
0.0
 11
5.8417676533
 21
3.5856275935
 31
0.0
 11
5.8008436769
 21
3.6130964319
 31
0.0
 11
5.754608277
 21
3.6361888571
 31
0.0
 11
5.7297841749
 21
3.6459374061
 31
0.0
 11
5.7039913473
 21
3.6544179428
 31
0.0
 11
5.6500152557
 21
3.6673915865
 31
0.0
 11
5.6220931083
 21
3.6718168386
 31
0.0
 11
5.5937278896
 21
3.6748286275
 31
0.0
 11
5.5650818973
 21
3.6764123603
 31
0.0
 11
5.5363258317
 21
3.6765579321
 31
0.0
  0
SPLINE
  5
2F4
100
AcDbEntity
  8
0
100
AcDbSpline
 62
6
  6
CONTINUOUS
 70
0
 71
3
 72
20
 73
16
 74
14
 42
0.0000001
 43
0.0000001
 44
0.0000000001
 12
-0.2353561887
 22
0.3405638073
 32
0.0
 13
-0.4138941632
 23
-0.0082379695
 33
0.0
 40
0.0
 40
0.0
 40
0.0
 40
0.0
 40
0.0527456918
 40
0.1068873135
 40
0.1624916185
 40
0.219590786
 40
0.338209637
 40
0.4625367858
 40
0.52667492
 40
0.5919611012
 40
0.7254239092
 40
0.7933806999
 40
0.8619410303
 40
0.930891971
 40
1.0
 40
1.0
 40
1.0
 40
1.0
 10
5.9035151314
 20
3.4700328518
 30
0.0
 10
5.899377123
 20
3.4760206097
 30
0.0
 10
5.8904614543
 20
3.4877963922
 30
0.0
 10
5.8754951655
 20
3.50452299
 30
0.0
 10
5.8588456473
 20
3.5204575289
 30
0.0
 10
5.8342108437
 20
3.540794667
 30
0.0
 10
5.7995594127
 20
3.5637001026
 30
0.0
 10
5.7614535697
 20
3.5824779425
 30
0.0
 10
5.7288117059
 20
3.5951948383
 30
0.0
 10
5.6943106657
 20
3.6064549762
 30
0.0
 10
5.6584232177
 20
3.6149791841
 30
0.0
 10
5.621610293
 20
3.6207757059
 30
0.0
 10
5.5934003091
 20
3.6237493016
 30
0.0
 10
5.5649205064
 20
3.6253140068
 30
0.0
 10
5.5458603016
 20
3.6254116315
 30
0.0
 10
5.5363258317
 20
3.6252218615
 30
0.0
 11
5.9035151314
 21
3.4700328518
 31
0.0
 11
5.8903516228
 21
3.4874543689
 31
0.0
 11
5.8754246118
 21
3.5041738823
 31
0.0
 11
5.858810871
 21
3.5201065946
 31
0.0
 11
5.8405955815
 21
3.5351712469
 31
0.0
 11
5.7997204638
 21
3.5623845246
 31
0.0
 11
5.7536117584
 21
3.5852535209
 31
0.0
 11
5.7288766888
 21
3.5949058173
 31
0.0
 11
5.703186915
 21
3.6033016487
 31
0.0
 11
5.6494500095
 21
3.616145077
 31
0.0
 11
5.6216607256
 21
3.6205260218
 31
0.0
 11
5.5934354493
 21
3.6235078075
 31
0.0
 11
5.5649345367
 21
3.625076386
 31
0.0
 11
5.5363258317
 21
3.6252218615
 31
0.0
  0
SPLINE
  5
2F5
100
AcDbEntity
  8
0
100
AcDbSpline
 62
6
  6
CONTINUOUS
 70
0
 71
3
 72
9
 73
5
 74
3
 42
0.0000001
 43
0.0000001
 44
0.0000000001
 12
-0.0097034095
 22
0.0373389681
 32
0.0
 13
-0.0163491869
 23
0.0349436516
 33
0.0
 40
0.0
 40
0.0
 40
0.0
 40
0.0
 40
0.4959878141
 40
1.0
 40
1.0
 40
1.0
 40
1.0
 10
5.9362585475
 20
3.3485643456
 30
0.0
 10
5.9346542899
 20
3.35473757
 30
0.0
 10
5.9308270204
 20
3.3670366419
 30
0.0
 10
5.9258884218
 20
3.3789314242
 30
0.0
 10
5.923141692
 20
3.3848020996
 30
0.0
 11
5.9362585475
 21
3.3485643456
 31
0.0
 11
5.9305843405
 21
3.3668384927
 31
0.0
 11
5.923141692
 21
3.3848020996
 31
0.0
  0
SPLINE
  5
2F6
100
AcDbEntity
  8
0
100
AcDbSpline
 62
6
  6
CONTINUOUS
 70
0
 71
3
 72
9
 73
5
 74
3
 42
0.0000001
 43
0.0000001
 44
0.0000000001
 12
-0.0128824262
 22
0.0275340306
 32
0.0
 13
-0.0163697993
 23
0.0256146329
 33
0.0
 40
0.0
 40
0.0
 40
0.0
 40
0.0
 40
0.2470736656
 40
1.0
 40
1.0
 40
1.0
 40
1.0
 10
5.923141692
 20
3.3848020996
 30
0.0
 10
5.9220807226
 20
3.3870697442
 30
0.0
 10
5.9176307452
 20
3.3961742699
 30
0.0
 10
5.9125690009
 20
3.4049778645
 30
0.0
 10
5.9084605832
 20
3.4114065084
 30
0.0
 11
5.923141692
 21
3.3848020996
 31
0.0
 11
5.9198444326
 21
3.3915503508
 31
0.0
 11
5.9084605832
 21
3.4114065084
 31
0.0
  0
SPLINE
  5
2F7
100
AcDbEntity
  8
0
100
AcDbSpline
 62
6
  6
CONTINUOUS
 70
0
 71
3
 72
23
 73
19
 74
17
 42
0.0000001
 43
0.0000001
 44
0.0000000001
 12
-0.236795229
 22
0.3374093555
 32
0.0
 13
-0.4121268363
 23
-0.0082779498
 33
0.0
 40
0.0
 40
0.0
 40
0.0
 40
0.0
 40
0.0528013422
 40
0.1069966391
 40
0.1626471799
 40
0.2197834531
 40
0.2784122424
 40
0.3385082455
 40
0.4000232889
 40
0.4628901877
 40
0.5270100023
 40
0.5922664868
 40
0.6585355934
 40
0.725688163
 40
0.7935887067
 40
0.8620849934
 40
0.930965396
 40
1.0
 40
1.0
 40
1.0
 40
1.0
 10
5.902470538
 20
3.4203445506
 30
0.0
 10
5.898302836
 20
3.4262831062
 30
0.0
 10
5.8893360242
 20
3.4379590994
 30
0.0
 10
5.8743173231
 20
3.4545380551
 30
0.0
 10
5.8576413804
 20
3.4703281381
 30
0.0
 10
5.8393919548
 20
3.4852491283
 30
0.0
 10
5.8196538122
 20
3.4992202111
 30
0.0
 10
5.7985282055
 20
3.5121771647
 30
0.0
 10
5.7761172618
 20
3.5240548105
 30
0.0
 10
5.7525277036
 20
3.5347862207
 30
0.0
 10
5.7278796984
 20
3.5443237995
 30
0.0
 10
5.7022946294
 20
3.5526179375
 30
0.0
 10
5.6758951236
 20
3.5596188966
 30
0.0
 10
5.648808844
 20
3.5652958766
 30
0.0
 10
5.6211640638
 20
3.5696176718
 30
0.0
 10
5.5930992479
 20
3.5725526322
 30
0.0
 10
5.5647684736
 20
3.5740933766
 30
0.0
 10
5.5458095027
 20
3.5741846498
 30
0.0
 10
5.5363258317
 20
3.5739941615
 30
0.0
 11
5.902470538
 21
3.4203445506
 31
0.0
 11
5.8892304621
 21
3.4376195625
 31
0.0
 11
5.8742504239
 21
3.454192642
 31
0.0
 11
5.8576086269
 21
3.4699812698
 31
0.0
 11
5.839388024
 21
3.484904841
 31
0.0
 11
5.819674562
 21
3.4988848711
 31
0.0
 11
5.7985675802
 21
3.5118523607
 31
0.0
 11
5.7761701608
 21
3.5237409612
 31
0.0
 11
5.7525889402
 21
3.5344871324
 31
0.0
 11
5.7279440807
 21
3.5440380215
 31
0.0
 11
5.7023589613
 21
3.5523433173
 31
0.0
 11
5.6759576713
 21
3.5593560687
 31
0.0
 11
5.6488670158
 21
3.5650421775
 31
0.0
 11
5.6212144495
 21
3.5693706188
 31
0.0
 11
5.5931334114
 21
3.5723137734
 31
0.0
 11
5.5647822585
 21
3.5738582036
 31
0.0
 11
5.5363258317
 21
3.5739941615
 31
0.0
  0
SPLINE
  5
2F8
100
AcDbEntity
  8
0
100
AcDbSpline
 62
6
  6
CONTINUOUS
 70
0
 71
3
 72
20
 73
16
 74
14
 42
0.0000001
 43
0.0000001
 44
0.0000000001
 12
0.4162305143
 22
0.0081878966
 32
0.0
 13
0.2334510747
 23
-0.3446962118
 33
0.0
 40
0.0
 40
0.0
 40
0.0
 40
0.0
 40
0.069167664
 40
0.1381765879
 40
0.2067902114
 40
0.2747938341
 40
0.4083251294
 40
0.4736307387
 40
0.5377763627
 40
0.6620796436
 40
0.7806277013
 40
0.8376781683
 40
0.8932275219
 40
0.9473108686
 40
1.0
 40
1.0
 40
1.0
 40
1.0
 10
5.5363258317
 20
3.6647921361
 30
0.0
 10
5.5459223958
 20
3.6649809153
 30
0.0
 10
5.5651065257
 20
3.6648748025
 30
0.0
 10
5.5937696028
 20
3.6632781695
 30
0.0
 10
5.6221573371
 20
3.6602535165
 30
0.0
 10
5.6591923797
 20
3.654365069
 30
0.0
 10
5.6952838862
 20
3.6457133203
 30
0.0
 10
5.7299611536
 20
3.6342902811
 30
0.0
 10
5.7627465355
 20
3.6213960737
 30
0.0
 10
5.8009827232
 20
3.602364432
 30
0.0
 10
5.8356949697
 20
3.5791583209
 30
0.0
 10
5.860320449
 20
3.5585651194
 30
0.0
 10
5.8769336338
 20
3.542437251
 30
0.0
 10
5.8918334118
 20
3.5255131995
 30
0.0
 10
5.9006840172
 20
3.5136038602
 30
0.0
 10
5.9047841286
 20
3.5075499456
 30
0.0
 11
5.5363258317
 21
3.6647921361
 31
0.0
 11
5.5651206593
 21
3.6646339403
 31
0.0
 11
5.5938052115
 21
3.6630332922
 31
0.0
 11
5.622208343
 21
3.6600003052
 31
0.0
 11
5.6501669596
 21
3.655549556
 31
0.0
 11
5.7042074404
 21
3.6425136071
 31
0.0
 11
5.730026466
 21
3.6339968502
 31
0.0
 11
5.7548725198
 21
3.624208816
 31
0.0
 11
5.8011393994
 21
3.6010287153
 31
0.0
 11
5.8420759478
 21
3.5734623532
 31
0.0
 11
5.8602818952
 21
3.5582097765
 31
0.0
 11
5.8768580244
 21
3.5420841759
 31
0.0
 11
5.8917175923
 21
3.5251684812
 31
0.0
 11
5.9047841286
 21
3.5075499456
 31
0.0
  0
SPLINE
  5
2F9
100
AcDbEntity
  8
0
100
AcDbSpline
 62
6
  6
CONTINUOUS
 70
0
 71
3
 72
9
 73
5
 74
3
 42
0.0000001
 43
0.0000001
 44
0.0000000001
 12
0.0195188964
 22
-0.0288201271
 32
0.0
 13
0.0150638742
 23
-0.0313793999
 33
0.0
 40
0.0
 40
0.0
 40
0.0
 40
0.0
 40
0.253681655
 40
1.0
 40
1.0
 40
1.0
 40
1.0
 10
5.9047841286
 20
3.5075499456
 30
0.0
 10
5.9064346573
 20
3.5051128997
 30
0.0
 10
5.9127708731
 20
3.4953925013
 30
0.0
 10
5.9184101318
 20
3.4852145796
 30
0.0
 10
5.9221576137
 20
3.477408239
 30
0.0
 11
5.9047841286
 21
3.5075499456
 31
0.0
 11
5.9096045685
 21
3.5001516826
 31
0.0
 11
5.9221576137
 21
3.477408239
 31
0.0
  0
SPLINE
  5
2FA
100
AcDbEntity
  8
0
100
AcDbSpline
 62
6
  6
CONTINUOUS
 70
0
 71
3
 72
9
 73
5
 74
3
 42
0.0000001
 43
0.0000001
 44
0.0000000001
 12
0.0149087121
 22
-0.046538801
 32
0.0
 13
0.0030794661
 23
-0.0487713706
 33
0.0
 40
0.0
 40
0.0
 40
0.0
 40
0.0
 40
0.5029739733
 40
1.0
 40
1.0
 40
1.0
 40
1.0
 10
5.9330733484
 20
3.4500484267
 30
0.0
 10
5.9355729131
 20
3.4422458249
 30
0.0
 10
5.9396248366
 20
3.4264214973
 30
0.0
 10
5.9416810409
 20
3.4102135188
 30
0.0
 10
5.9421912325
 20
3.4021333053
 30
0.0
 11
5.9330733484
 21
3.4500484267
 31
0.0
 11
5.9391440546
 21
3.4262303179
 31
0.0
 11
5.9421912325
 21
3.4021333053
 31
0.0
  0
SPLINE
  5
2FB
100
AcDbEntity
  8
0
100
AcDbSpline
 62
6
  6
CONTINUOUS
 70
0
 71
3
 72
20
 73
16
 74
14
 42
0.0000001
 43
0.0000001
 44
0.0000000001
 12
0.2187818015
 22
0.2949452283
 32
0.0
 13
0.3671384314
 23
0.0082180617
 33
0.0
 40
0.0
 40
0.0
 40
0.0
 40
0.0
 40
0.0545864434
 40
0.1103772322
 40
0.1674064901
 40
0.2256824272
 40
0.345859174
 40
0.4706230915
 40
0.5345626471
 40
0.5993921142
 40
0.6649962359
 40
0.731252897
 40
0.798028983
 40
0.8651825188
 40
1.0
 40
1.0
 40
1.0
 40
1.0
 10
5.2118263302
 20
3.379268339
 30
0.0
 10
5.2158071704
 20
3.3846350094
 30
0.0
 10
5.2242753618
 20
3.3951823475
 30
0.0
 10
5.238245865
 20
3.4101964439
 30
0.0
 10
5.2535537222
 20
3.4245147709
 30
0.0
 10
5.2758749299
 20
3.4427820702
 30
0.0
 10
5.3068098151
 20
3.4634733104
 30
0.0
 10
5.3405377288
 20
3.480743517
 30
0.0
 10
5.3692257726
 20
3.4926137227
 30
0.0
 10
5.391669385
 20
3.5005469626
 30
0.0
 10
5.4147598259
 20
3.5074039201
 30
0.0
 10
5.4383963237
 20
3.5131503129
 30
0.0
 10
5.462472916
 20
3.5177670378
 30
0.0
 10
5.4950507387
 20
3.5224022027
 30
0.0
 10
5.5197634861
 20
3.5241234695
 30
0.0
 10
5.536262379
 20
3.5244927823
 30
0.0
 11
5.2118263302
 21
3.379268339
 31
0.0
 11
5.2243647004
 21
3.3949087809
 31
0.0
 11
5.2383085111
 21
3.4099198202
 31
0.0
 11
5.2535922417
 21
3.4242380489
 31
0.0
 11
5.2701450332
 21
3.4378025196
 31
0.0
 11
5.3067646894
 21
3.4624334582
 31
0.0
 11
5.3475059665
 21
3.4833942612
 31
0.0
 11
5.3691985276
 21
3.4923814156
 31
0.0
 11
5.3916420728
 21
3.5003235337
 31
0.0
 11
5.4147353978
 21
3.507187534
 31
0.0
 11
5.4383766695
 21
3.5129416817
 31
0.0
 11
5.4624591547
 21
3.5175647343
 31
0.0
 11
5.4868738219
 21
3.5210403711
 31
0.0
 11
5.536262379
 21
3.5244927823
 31
0.0
  0
SPLINE
  5
2FC
100
AcDbEntity
  8
0
100
AcDbSpline
 62
6
  6
CONTINUOUS
 70
0
 71
3
 72
15
 73
11
 74
9
 42
0.0000001
 43
0.0000001
 44
0.0000000001
 12
0.2864831495
 22
0.0064126662
 32
0.0
 13
0.2316468102
 23
-0.1686815716
 33
0.0
 40
0.0
 40
0.0
 40
0.0
 40
0.0
 40
0.1324615664
 40
0.2640195645
 40
0.393998787
 40
0.5217494304
 40
0.6466883154
 40
0.7682996517
 40
0.8861684419
 40
1.0
 40
1.0
 40
1.0
 40
1.0
 10
5.536262379
 20
3.5244927823
 30
0.0
 10
5.5489117146
 20
3.5247759263
 30
0.0
 10
5.5741543462
 20
3.524430022
 30
0.0
 10
5.6116788303
 20
3.5211643775
 30
0.0
 10
5.6484185402
 20
3.5152090227
 30
0.0
 10
5.6839860067
 20
3.5066263602
 30
0.0
 10
5.7180093065
 20
3.495517373
 30
0.0
 10
5.7501353086
 20
3.4820068825
 30
0.0
 10
5.7800205363
 20
3.4662377927
 30
0.0
 10
5.7985874903
 20
3.4541178529
 30
0.0
 10
5.8073770627
 20
3.4477174242
 30
0.0
 11
5.536262379
 21
3.5244927823
 31
0.0
 11
5.574216223
 21
3.5239650771
 31
0.0
 11
5.6117720576
 21
3.5206874233
 31
0.0
 11
5.6485350697
 21
3.5147075232
 31
0.0
 11
5.6841151035
 21
3.5060949922
 31
0.0
 11
5.7181382036
 21
3.4949504327
 31
0.0
 11
5.7502447243
 21
3.4814013688
 31
0.0
 11
5.7800950495
 21
3.4655973123
 31
0.0
 11
5.8073770627
 21
3.4477174242
 31
0.0
  0
SPLINE
  5
2FD
100
AcDbEntity
  8
0
100
AcDbSpline
 62
6
  6
CONTINUOUS
 70
0
 71
3
 72
20
 73
16
 74
14
 42
0.0000001
 43
0.0000001
 44
0.0000000001
 12
0.4166336485
 22
0.0081296878
 32
0.0
 13
0.2331371507
 23
-0.3453936274
 33
0.0
 40
0.0
 40
0.0
 40
0.0
 40
0.0
 40
0.0691814763
 40
0.1382033918
 40
0.2068278824
 40
0.2748402868
 40
0.4083869848
 40
0.47370023
 40
0.5378517156
 40
0.6621556139
 40
0.7806890899
 40
0.8377276685
 40
0.8932624162
 40
0.9473288724
 40
1.0
 40
1.0
 40
1.0
 40
1.0
 10
5.5363258317
 20
3.714473349
 30
0.0
 10
5.5459336087
 20
3.7146608236
 30
0.0
 10
5.5651399805
 20
3.7145511222
 30
0.0
 10
5.5938356219
 20
3.7129462968
 30
0.0
 10
5.622254479
 20
3.709910582
 30
0.0
 10
5.6593282798
 20
3.7040042174
 30
0.0
 10
5.6954557211
 20
3.6953288639
 30
0.0
 10
5.7301647555
 20
3.6838766755
 30
0.0
 10
5.7629766721
 20
3.6709515656
 30
0.0
 10
5.8012364107
 20
3.6518765327
 30
0.0
 10
5.8359595748
 20
3.6286199256
 30
0.0
 10
5.8605830408
 20
3.607984806
 30
0.0
 10
5.8771891239
 20
3.5918260765
 30
0.0
 10
5.892076065
 20
3.5748708002
 30
0.0
 10
5.9009147654
 20
3.5629407439
 30
0.0
 10
5.9050079642
 20
3.5568766533
 30
0.0
 11
5.5363258317
 21
3.714473349
 31
0.0
 11
5.5651541852
 21
3.7143097768
 31
0.0
 11
5.5938714776
 21
3.7127008802
 31
0.0
 11
5.6223057169
 21
3.7096568515
 31
0.0
 11
5.6502935468
 21
3.7051924914
 31
0.0
 11
5.7043872812
 21
3.6921210884
 31
0.0
 11
5.7302301202
 21
3.683582588
 31
0.0
 11
5.755097082
 21
3.6737706354
 31
0.0
 11
5.8013932648
 21
3.6505369415
 31
0.0
 11
5.84234027
 21
3.6229117174
 31
0.0
 11
5.8605440507
 21
3.6076285839
 31
0.0
 11
5.8771128016
 21
3.5914721324
 31
0.0
 11
5.8919594362
 21
3.574525539
 31
0.0
 11
5.9050079642
 21
3.5568766533
 31
0.0
  0
SPLINE
  5
2FE
100
AcDbEntity
  8
0
100
AcDbSpline
 62
6
  6
CONTINUOUS
 70
0
 71
3
 72
9
 73
5
 74
3
 42
0.0000001
 43
0.0000001
 44
0.0000000001
 12
0.0183820425
 22
-0.0272330699
 32
0.0
 13
0.0144254829
 23
-0.0295202477
 33
0.0
 40
0.0
 40
0.0
 40
0.0
 40
0.0
 40
0.2534787103
 40
1.0
 40
1.0
 40
1.0
 40
1.0
 10
5.9050079642
 20
3.5568766533
 30
0.0
 10
5.9065611164
 20
3.5545756522
 30
0.0
 10
5.912536695
 20
3.5453967646
 30
0.0
 10
5.9178912092
 20
3.5358109955
 30
0.0
 10
5.9214808525
 20
3.5284651643
 30
0.0
 11
5.9050079642
 21
3.5568766533
 31
0.0
 11
5.909550576
 21
3.5498962043
 31
0.0
 11
5.9214808525
 21
3.5284651643
 31
0.0
  0
SPLINE
  5
2FF
100
AcDbEntity
  8
0
100
AcDbSpline
 62
6
  6
CONTINUOUS
 70
0
 71
3
 72
9
 73
5
 74
3
 42
0.0000001
 43
0.0000001
 44
0.0000000001
 12
0.0151211781
 22
-0.0462108897
 32
0.0
 13
0.0034473557
 23
-0.0484996092
 33
0.0
 40
0.0
 40
0.0
 40
0.0
 40
0.0
 40
0.5030584938
 40
1.0
 40
1.0
 40
1.0
 40
1.0
 10
5.9326794738
 20
3.5009276645
 30
0.0
 10
5.9352150862
 20
3.4931787377
 30
0.0
 10
5.9393512446
 20
3.4774620717
 30
0.0
 10
5.9415179945
 20
3.4613522891
 30
0.0
 10
5.9420890392
 20
3.4533184661
 30
0.0
 11
5.9326794738
 21
3.5009276645
 31
0.0
 11
5.9388781514
 21
3.4772664479
 31
0.0
 11
5.9420890392
 21
3.4533184661
 31
0.0
  0
SPLINE
  5
300
100
AcDbEntity
  8
0
100
AcDbSpline
 62
6
  6
CONTINUOUS
 70
0
 71
3
 72
21
 73
17
 74
15
 42
0.0000001
 43
0.0000001
 44
0.0000000001
 12
0.4169721923
 22
0.0081255178
 32
0.0
 13
0.2328875891
 23
-0.3459699467
 33
0.0
 40
0.0
 40
0.0
 40
0.0
 40
0.0
 40
0.0691852643
 40
0.138210821
 40
0.2068394119
 40
0.2748566625
 40
0.4084111337
 40
0.473725511
 40
0.5378761529
 40
0.6007436163
 40
0.6622301473
 40
0.7807449899
 40
0.8377713272
 40
0.8932923584
 40
0.9473442228
 40
1.0
 40
1.0
 40
1.0
 40
1.0
 10
5.5363258317
 20
3.7642672934
 30
0.0
 10
5.5459419421
 20
3.7644546821
 30
0.0
 10
5.5651649567
 20
3.764343984
 30
0.0
 10
5.5938853698
 20
3.7627350957
 30
0.0
 10
5.6223286537
 20
3.7596926697
 30
0.0
 10
5.6594336623
 20
3.7537739518
 30
0.0
 10
5.6955905719
 20
3.745081457
 30
0.0
 10
5.7303239142
 20
3.7336073979
 30
0.0
 10
5.7552105485
 20
3.7237912645
 30
0.0
 10
5.7789960109
 20
3.7127511513
 30
0.0
 10
5.8087007498
 20
3.6966728603
 30
0.0
 10
5.8361661367
 20
3.6782516362
 30
0.0
 10
5.8607858086
 20
3.6575834415
 30
0.0
 10
5.8773858914
 20
3.6413991574
 30
0.0
 10
5.8922630951
 20
3.6244190754
 30
0.0
 10
5.9010922784
 20
3.6124720457
 30
0.0
 10
5.9051799041
 20
3.6063996068
 30
0.0
 11
5.5363258317
 21
3.7642672934
 31
0.0
 11
5.5651791677
 21
3.7641022069
 31
0.0
 11
5.5939211458
 21
3.7624892298
 31
0.0
 11
5.6223797403
 21
3.7594384819
 31
0.0
 11
5.6503914294
 21
3.7549647605
 31
0.0
 11
5.7045287166
 21
3.7418673982
 31
0.0
 11
5.7303898667
 21
3.7333123687
 31
0.0
 11
5.7552724492
 21
3.7234818241
 31
0.0
 11
5.7790471942
 21
3.7124276211
 31
0.0
 11
5.8015906205
 21
3.700206349
 31
0.0
 11
5.8425449991
 21
3.6725342506
 31
0.0
 11
5.8607465621
 21
3.6572264103
 31
0.0
 11
5.8773090284
 21
3.6410448049
 31
0.0
 11
5.8921457117
 21
3.6240732765
 31
0.0
 11
5.9051799041
 21
3.6063996068
 31
0.0
  0
SPLINE
  5
301
100
AcDbEntity
  8
0
100
AcDbSpline
 62
6
  6
CONTINUOUS
 70
0
 71
3
 72
9
 73
5
 74
3
 42
0.0000001
 43
0.0000001
 44
0.0000000001
 12
0.0187424123
 22
-0.0278430955
 32
0.0
 13
0.014598272
 23
-0.0302226147
 33
0.0
 40
0.0
 40
0.0
 40
0.0
 40
0.0
 40
0.2535445794
 40
1.0
 40
1.0
 40
1.0
 40
1.0
 10
5.9051799041
 20
3.6063996068
 30
0.0
 10
5.9067639165
 20
3.6040464515
 30
0.0
 10
5.9128526553
 20
3.5946599052
 30
0.0
 10
5.9182915198
 20
3.5848490309
 30
0.0
 10
5.9219238396
 20
3.577329086
 30
0.0
 11
5.9051799041
 21
3.6063996068
 31
0.0
 11
5.9098096728
 21
3.5992593578
 31
0.0
 11
5.9219238396
 21
3.577329086
 31
0.0
  0
SPLINE
  5
302
100
AcDbEntity
  8
0
100
AcDbSpline
 62
6
  6
CONTINUOUS
 70
0
 71
3
 72
9
 73
5
 74
3
 42
0.0000001
 43
0.0000001
 44
0.0000000001
 12
0.0155061167
 22
-0.0462555635
 32
0.0
 13
0.0037973216
 23
-0.0486374049
 33
0.0
 40
0.0
 40
0.0
 40
0.0
 40
0.0
 40
0.5031746593
 40
1.0
 40
1.0
 40
1.0
 40
1.0
 10
5.9322057838
 20
3.5521312553
 30
0.0
 10
5.9348065455
 20
3.5443730461
 30
0.0
 10
5.9390704343
 20
3.5286339633
 30
0.0
 10
5.9413602788
 20
3.5124858477
 30
0.0
 10
5.9419891473
 20
3.5044310826
 30
0.0
 11
5.9322057838
 21
3.5521312553
 31
0.0
 11
5.9385977092
 21
3.52843047
 31
0.0
 11
5.9419891473
 21
3.5044310826
 31
0.0
  0
SPLINE
  5
303
100
AcDbEntity
  8
0
100
AcDbSpline
 62
6
  6
CONTINUOUS
 70
0
 71
3
 72
12
 73
8
 74
6
 42
0.0000001
 43
0.0000001
 44
0.0000000001
 12
0.1551949662
 22
0.0034410135
 32
0.0
 13
0.1488488467
 23
-0.0440606279
 33
0.0
 40
0.0
 40
0.0
 40
0.0
 40
0.0
 40
0.254117334
 40
0.506394405
 40
0.6314318144
 40
0.7554947933
 40
1.0
 40
1.0
 40
1.0
 40
1.0
 10
5.5363221696
 20
3.5762338265
 30
0.0
 10
5.54946808
 20
3.5765253002
 30
0.0
 10
5.5756965893
 20
3.5761277455
 30
0.0
 10
5.6082678434
 20
3.5731642517
 30
0.0
 10
5.6339320364
 20
3.569326105
 30
0.0
 10
5.6590311589
 20
3.5645709297
 30
0.0
 10
5.6775535126
 20
3.5599152131
 30
0.0
 10
5.6896849519
 20
3.5563241955
 30
0.0
 11
5.5363221696
 21
3.5762338265
 31
0.0
 11
5.5757649399
 21
3.5756279226
 31
0.0
 11
5.6147645066
 21
3.5720674767
 31
0.0
 11
5.6339606487
 21
3.5691944779
 31
0.0
 11
5.6528820567
 21
3.5656060034
 31
0.0
 11
5.6896849519
 21
3.5563241955
 31
0.0
  0
SPLINE
  5
304
100
AcDbEntity
  8
0
100
AcDbSpline
 62
6
  6
CONTINUOUS
 70
0
 71
3
 72
22
 73
18
 74
16
 42
0.0000001
 43
0.0000001
 44
0.0000000001
 12
0.4543156293
 22
0.0088932722
 32
0.0
 13
0.1906407338
 23
-0.4124777471
 33
0.0
 40
0.0
 40
0.0
 40
0.0
 40
0.0
 40
0.0704671667
 40
0.140726991
 40
0.2104840345
 40
0.2794887253
 40
0.414458955
 40
0.4801535715
 40
0.5444280278
 40
0.6071525505
 40
0.6682402835
 40
0.727633109
 40
0.7853108862
 40
0.8412984009
 40
0.8956576991
 40
0.9485046143
 40
1.0
 40
1.0
 40
1.0
 40
1.0
 10
5.5363258317
 20
3.8140852903
 30
0.0
 10
5.5469972768
 20
3.8142941849
 30
0.0
 10
5.5683252823
 20
3.8141139991
 30
0.0
 10
5.6001565558
 20
3.812069257
 30
0.0
 10
5.6316055824
 20
3.8082599714
 30
0.0
 10
5.6724268597
 20
3.8009125607
 30
0.0
 10
5.7119616247
 20
3.7901804328
 30
0.0
 10
5.7495495471
 20
3.7760639835
 30
0.0
 10
5.7761741541
 20
3.7640512003
 30
0.0
 10
5.8013063133
 20
3.7505866789
 30
0.0
 10
5.8247954354
 20
3.7357654366
 30
0.0
 10
5.8464958158
 20
3.719679876
 30
0.0
 10
5.8662686489
 20
3.7024267876
 30
0.0
 10
5.8839978607
 20
3.6841237418
 30
0.0
 10
5.8995642082
 20
3.6648766212
 30
0.0
 10
5.9128693286
 20
3.6448138843
 30
0.0
 10
5.9202672832
 20
3.630810707
 30
0.0
 10
5.9235396559
 20
3.6237304734
 30
0.0
 11
5.5363258317
 21
3.8140852903
 31
0.0
 11
5.5683451687
 21
3.8138161328
 31
0.0
 11
5.6002054214
 21
3.8117643475
 31
0.0
 11
5.6316721526
 21
3.8079440735
 31
0.0
 11
5.6625305836
 21
3.8023807413
 31
0.0
 11
5.7216882663
 21
3.7861992852
 31
0.0
 11
5.7496280671
 21
3.7756874813
 31
0.0
 11
5.7762402803
 21
3.7636538275
 31
0.0
 11
5.8013531754
 21
3.7501735698
 31
0.0
 11
5.8248142562
 21
3.7353375309
 31
0.0
 11
5.8464772696
 21
3.7192415709
 31
0.0
 11
5.8662059743
 21
3.7019879766
 31
0.0
 11
5.8838819052
 21
3.6836904459
 31
0.0
 11
5.8993901597
 21
3.6644645796
 31
0.0
 11
5.9126363819
 21
3.6444346225
 31
0.0
 11
5.9235396559
 21
3.6237304734
 31
0.0
  0
SPLINE
  5
305
100
AcDbEntity
  8
0
100
AcDbSpline
 62
9
  6
CONTINUOUS
 70
0
 71
3
 72
22
 73
18
 74
16
 42
0.0000001
 43
0.0000001
 44
0.0000000001
 12
0.0
 22
0.548329365
 32
0.0
 13
-0.548329365
 23
0.0
 33
0.0
 40
0.0
 40
0.0
 40
0.0
 40
0.0
 40
0.0514733427
 40
0.0773784266
 40
0.1034653736
 40
0.1563732634
 40
0.2106226845
 40
0.2383682997
 40
0.2665619989
 40
0.3243678969
 40
0.3842102584
 40
0.4461390187
 40
0.5759503985
 40
0.7128631419
 40
0.8550488179
 40
0.9274104712
 40
1.0
 40
1.0
 40
1.0
 40
1.0
 10
5.9425721428
 20
4.21054935
 30
0.0
 10
5.9425721428
 20
4.2199574652
 30
0.0
 10
5.9415863926
 20
4.2341255864
 30
0.0
 10
5.9383299336
 20
4.2527646869
 30
0.0
 10
5.9337492891
 20
4.271396846
 30
0.0
 10
5.9255616549
 20
4.2944125492
 30
0.0
 10
5.9143617788
 20
4.3164547575
 30
0.0
 10
5.903647691
 20
4.333520005
 30
0.0
 10
5.8915762203
 20
4.3504592606
 30
0.0
 10
5.8742686095
 20
4.3708099973
 30
0.0
 10
5.850427122
 20
4.3934516123
 30
0.0
 10
5.8140794049
 20
4.4217201027
 30
0.0
 10
5.761670387
 20
4.4517610349
 30
0.0
 10
5.6914051055
 20
4.4780385236
 30
0.0
 10
5.6283262083
 20
4.4914305541
 30
0.0
 10
5.5760977462
 20
4.4968857892
 30
0.0
 10
5.5495934885
 20
4.4978114799
 30
0.0
 10
5.5363258317
 20
4.4978114799
 30
0.0
 11
5.9425721428
 21
4.21054935
 31
0.0
 11
5.9406191821
 21
4.2387060475
 31
0.0
 11
5.9381782809
 21
4.2526992723
 31
0.0
 11
5.934767289
 21
4.2665908665
 31
0.0
 11
5.925080532
 21
4.293936834
 31
0.0
 11
5.9116512756
 21
4.3204794854
 31
0.0
 11
5.9035688729
 21
4.3333687257
 31
0.0
 11
5.8946029171
 21
4.3459626016
 31
0.0
 11
5.874110064
 21
4.3701436261
 31
0.0
 11
5.8503597001
 21
4.3927850583
 31
0.0
 11
5.8235870111
 21
4.4136734589
 31
0.0
 11
5.7620213402
 21
4.4493970356
 31
0.0
 11
5.6917979866
 21
4.4759428002
 31
0.0
 11
5.6155666446
 21
4.4922908417
 31
0.0
 11
5.5761046761
 21
4.4964258464
 31
0.0
 11
5.5363258317
 21
4.4978114799
 31
0.0
  0
SPLINE
  5
306
100
AcDbEntity
  8
0
100
AcDbSpline
 62
6
  6
CONTINUOUS
 70
0
 71
3
 72
23
 73
19
 74
17
 42
0.0000001
 43
0.0000001
 44
0.0000000001
 12
0.516055977
 22
0.0100738996
 32
0.0
 13
0.0679068362
 23
-0.5116677794
 33
0.0
 40
0.0
 40
0.0
 40
0.0
 40
0.0
 40
0.0726443132
 40
0.1449765385
 40
0.2165894204
 40
0.2871768527
 40
0.356491972
 40
0.424302897
 40
0.4903934939
 40
0.55458818
 40
0.6167772521
 40
0.6769012141
 40
0.73497214
 40
0.7910654227
 40
0.8453409637
 40
0.8980346361
 40
0.9494600416
 40
1.0
 40
1.0
 40
1.0
 40
1.0
 10
5.5363258317
 20
3.8637442684
 30
0.0
 10
5.548822009
 20
3.8639882055
 30
0.0
 10
5.5737841836
 20
3.8636569553
 30
0.0
 10
5.6109595297
 20
3.8607339955
 30
0.0
 10
5.6475107252
 20
3.855397064
 30
0.0
 10
5.6831090665
 20
3.8477041137
 30
0.0
 10
5.7174569135
 20
3.8377266111
 30
0.0
 10
5.7502666277
 20
3.8255522629
 30
0.0
 10
5.7812635364
 20
3.8112981014
 30
0.0
 10
5.8101759058
 20
3.7950749289
 30
0.0
 10
5.8367662252
 20
3.7770391112
 30
0.0
 10
5.8608006428
 20
3.7573324102
 30
0.0
 10
5.8820819748
 20
3.7361356503
 30
0.0
 10
5.9004181875
 20
3.7136215343
 30
0.0
 10
5.9156488924
 20
3.6899880661
 30
0.0
 10
5.927639796
 20
3.6654396341
 30
0.0
 10
5.9362658957
 20
3.6401948513
 30
0.0
 10
5.939751452
 20
3.6229396837
 30
0.0
 10
5.9408954549
 20
3.6143197943
 30
0.0
 11
5.5363258317
 21
3.8637442684
 31
0.0
 11
5.5738182239
 21
3.8632481746
 31
0.0
 11
5.6110370655
 21
3.8603106013
 31
0.0
 11
5.6476106171
 21
3.8549570409
 31
0.0
 11
5.6832185013
 21
3.8472424186
 31
0.0
 11
5.7175686604
 21
3.8372383439
 31
0.0
 11
5.7503734318
 21
3.8250354761
 31
0.0
 11
5.7813503275
 21
3.8107482451
 31
0.0
 11
5.8102279122
 21
3.7945010574
 31
0.0
 11
5.8367656617
 21
3.7764427158
 31
0.0
 11
5.8607336036
 21
3.7567297804
 31
0.0
 11
5.8819322138
 21
3.7355393796
 31
0.0
 11
5.9001754632
 21
3.7130572127
 31
0.0
 11
5.9153091657
 21
3.6894820933
 31
0.0
 11
5.9272043781
 21
3.6650231751
 31
0.0
 11
5.9357552919
 21
3.6398947792
 31
0.0
 11
5.9408954549
 21
3.6143197943
 31
0.0
  0
SPLINE
  5
307
100
AcDbEntity
  8
0
100
AcDbSpline
 62
6
  6
CONTINUOUS
 70
0
 71
3
 72
23
 73
19
 74
17
 42
0.0000001
 43
0.0000001
 44
0.0000000001
 12
0.541542591
 22
0.010552064
 32
0.0
 13
-0.0002036932
 23
-0.5416453475
 33
0.0
 40
0.0
 40
0.0
 40
0.0
 40
0.0
 40
0.0734867762
 40
0.1466095808
 40
0.21891225
 40
0.2900631391
 40
0.359784856
 40
0.4278170181
 40
0.4939246931
 40
0.5579407514
 40
0.6197650965
 40
0.6793720293
 40
0.7368150884
 40
0.7922403338
 40
0.8458935106
 40
0.898111088
 40
0.94931805
 40
1.0
 40
1.0
 40
1.0
 40
1.0
 10
5.5363258317
 20
3.9135315714
 30
0.0
 10
5.5495912381
 20
3.9137900505
 30
0.0
 10
5.5760833034
 20
3.9133844048
 30
0.0
 10
5.6154970021
 20
3.9100444693
 30
0.0
 10
5.6541618655
 20
3.9039883165
 30
0.0
 10
5.6916911354
 20
3.8952948129
 30
0.0
 10
5.7277303321
 20
3.8840455396
 30
0.0
 10
5.7619421755
 20
3.8703641937
 30
0.0
 10
5.7939968623
 20
3.8543790408
 30
0.0
 10
5.8235874173
 20
3.8362498484
 30
0.0
 10
5.8504317736
 20
3.8161523772
 30
0.0
 10
5.8742704792
 20
3.7942794518
 30
0.0
 10
5.8948753033
 20
3.770845205
 30
0.0
 10
5.9120315211
 20
3.7460685877
 30
0.0
 10
5.9255773606
 20
3.7202000671
 30
0.0
 10
5.9353506272
 20
3.6934846164
 30
0.0
 10
5.9412649544
 20
3.6662082199
 30
0.0
 10
5.9425775234
 20
3.6477848606
 30
0.0
 10
5.9425740822
 20
3.6386343131
 30
0.0
 11
5.5363258317
 21
3.9135315714
 31
0.0
 11
5.5761249574
 21
3.9129233292
 31
0.0
 11
5.6155889318
 21
3.9095647813
 31
0.0
 11
5.6542771609
 21
3.9034890051
 31
0.0
 11
5.6918157429
 21
3.8947669207
 31
0.0
 11
5.727856093
 21
3.8834865584
 31
0.0
 11
5.7620562527
 21
3.8697672116
 31
0.0
 11
5.7940797698
 21
3.8537475467
 31
0.0
 11
5.8236190259
 21
3.8355893859
 31
0.0
 11
5.8503912789
 21
3.8154742916
 31
0.0
 11
5.8741398086
 21
3.7936023572
 31
0.0
 11
5.894635787
 21
3.7701933541
 31
0.0
 11
5.9116777082
 21
3.7454785193
 31
0.0
 11
5.9251062091
 21
3.7197061148
 31
0.0
 11
5.9347849618
 21
3.6931303172
 31
0.0
 11
5.9406289578
 21
3.6660169585
 31
0.0
 11
5.9425740822
 21
3.6386343131
 31
0.0
  0
SPLINE
  5
308
100
AcDbEntity
  8
0
100
AcDbSpline
 62
6
  6
CONTINUOUS
 70
0
 71
3
 72
9
 73
5
 74
3
 42
0.0000001
 43
0.0000001
 44
0.0000000001
 12
0.0140601674
 22
0.032448679
 32
0.0
 13
0.0184403691
 23
0.0301754514
 33
0.0
 40
0.0
 40
0.0
 40
0.0
 40
0.0
 40
0.2472271073
 40
1.0
 40
1.0
 40
1.0
 40
1.0
 10
5.14887199
 20
3.5035559509
 30
0.0
 10
5.1500306749
 20
3.5062300152
 30
0.0
 10
5.1549130329
 20
3.5169607222
 30
0.0
 10
5.1605636558
 20
3.5273393952
 30
0.0
 10
5.1651907924
 20
3.5349111491
 30
0.0
 11
5.14887199
 21
3.5035559509
 31
0.0
 11
5.1524917347
 21
3.5115143418
 31
0.0
 11
5.1651907924
 21
3.5349111491
 31
0.0
  0
SPLINE
  5
309
100
AcDbEntity
  8
0
100
AcDbSpline
 62
6
  6
CONTINUOUS
 70
0
 71
3
 72
21
 73
17
 74
15
 42
0.0000001
 43
0.0000001
 44
0.0000000001
 12
0.2236293867
 22
0.3659426591
 32
0.0
 13
0.4287821475
 23
0.008366739
 33
0.0
 40
0.0
 40
0.0
 40
0.0
 40
0.0
 40
0.0537634279
 40
0.1087656875
 40
0.1650799732
 40
0.2227434488
 40
0.3420717218
 40
0.4037440693
 40
0.4666546071
 40
0.5307093544
 40
0.5957917341
 40
0.7284798773
 40
0.7958646142
 40
0.8637265605
 40
0.9318510298
 40
1.0
 40
1.0
 40
1.0
 40
1.0
 10
5.1651907924
 20
3.5349111491
 30
0.0
 10
5.1691984866
 20
3.5414692597
 30
0.0
 10
5.1778843037
 20
3.5543917898
 30
0.0
 10
5.1926278724
 20
3.572848685
 30
0.0
 10
5.2091506365
 20
3.5905044514
 30
0.0
 10
5.2337011398
 20
3.613115393
 30
0.0
 10
5.2612372702
 20
3.6334719374
 30
0.0
 10
5.2911381995
 20
3.6514377141
 30
0.0
 10
5.3150867473
 20
3.6638733844
 30
0.0
 10
5.3401753469
 20
3.675060893
 30
0.0
 10
5.3751913009
 20
3.6883280657
 30
0.0
 10
5.411725733
 20
3.6987596532
 30
0.0
 10
5.4492816567
 20
3.7063471063
 30
0.0
 10
5.478054664
 20
3.7106101103
 30
0.0
 10
5.5071143354
 20
3.7134049095
 30
0.0
 10
5.5265854778
 20
3.7142832874
 30
0.0
 10
5.5363258317
 20
3.714473349
 30
0.0
 11
5.1651907924
 21
3.5349111491
 31
0.0
 11
5.1780366077
 21
3.5540584432
 31
0.0
 11
5.1927408203
 21
3.5725030183
 31
0.0
 11
5.2092259833
 21
3.5901528844
 31
0.0
 11
5.2274028642
 21
3.6069207942
 31
0.0
 11
5.2684568555
 21
3.6374741747
 31
0.0
 11
5.2911196993
 21
3.6511104124
 31
0.0
 11
5.3150562601
 21
3.6635588732
 31
0.0
 11
5.3401396108
 21
3.6747601318
 31
0.0
 11
5.3662365299
 21
3.6846596887
 31
0.0
 11
5.4209332739
 21
3.7003587601
 31
0.0
 11
5.4492588205
 21
3.7060866064
 31
0.0
 11
5.4780471415
 21
3.7103583788
 31
0.0
 11
5.5071288289
 21
3.7131578304
 31
0.0
 11
5.5363258317
 21
3.714473349
 31
0.0
  0
SPLINE
  5
30A
100
AcDbEntity
  8
0
100
AcDbSpline
 62
6
  6
CONTINUOUS
 70
0
 71
3
 72
12
 73
8
 74
6
 42
0.0000001
 43
0.0000001
 44
0.0000000001
 12
0.1697370826
 22
0.0734064141
 32
0.0
 13
0.184810405
 23
0.0066553035
 33
0.0
 40
0.0
 40
0.0
 40
0.0
 40
0.0
 40
0.2435931363
 40
0.4299670748
 40
0.6186795987
 40
0.8089646475
 40
1.0
 40
1.0
 40
1.0
 40
1.0
 10
5.3492142391
 20
3.6402770661
 30
0.0
 10
5.3629965019
 20
3.646237499
 30
0.0
 10
5.3878813542
 20
3.6555153036
 30
0.0
 10
5.4246260543
 20
3.6658249699
 30
0.0
 10
5.4587830273
 20
3.6728928129
 30
0.0
 10
5.4936218738
 20
3.6776609369
 30
0.0
 10
5.5170918316
 20
3.6792912702
 30
0.0
 10
5.5288602719
 20
3.6797150696
 30
0.0
 11
5.3492142391
 21
3.6402770661
 31
0.0
 11
5.3914021916
 21
3.6560718251
 31
0.0
 11
5.4245818931
 21
3.6654005046
 31
0.0
 11
5.4587540013
 21
3.6724844607
 31
0.0
 11
5.493617031
 21
3.6772663741
 31
0.0
 11
5.5288602719
 21
3.6797150696
 31
0.0
  0
SPLINE
  5
30B
100
AcDbEntity
  8
0
100
AcDbSpline
 62
6
  6
CONTINUOUS
 70
0
 71
3
 72
14
 73
10
 74
8
 42
0.0000001
 43
0.0000001
 44
0.0000000001
 12
0.2088796536
 22
0.0045235007
 32
0.0
 13
0.1918293327
 23
-0.0827809088
 33
0.0
 40
0.0
 40
0.0
 40
0.0
 40
0.0
 40
0.1288473091
 40
0.2572262768
 40
0.384806136
 40
0.5112673138
 40
0.6363077744
 40
0.7596349268
 40
1.0
 40
1.0
 40
1.0
 40
1.0
 10
5.5364499378
 20
3.6799338779
 30
0.0
 10
5.5454211315
 20
3.6801281582
 30
0.0
 10
5.5633440809
 20
3.6800614075
 30
0.0
 10
5.5901143443
 20
3.6786031009
 30
0.0
 10
5.6166109062
 20
3.6757952518
 30
0.0
 10
5.6426954015
 20
3.6716490173
 30
0.0
 10
5.6682377372
 20
3.666196067
 30
0.0
 10
5.7011026746
 20
3.6573032383
 30
0.0
 10
5.7249904799
 20
3.6486640376
 30
0.0
 10
5.7403601704
 20
3.6420314912
 30
0.0
 11
5.5364499378
 21
3.6799338779
 31
0.0
 11
5.563369642
 21
3.6798334425
 31
0.0
 11
5.5901518024
 21
3.678371321
 31
0.0
 11
5.6166578657
 21
3.6755566865
 31
0.0
 11
5.6427508289
 21
3.6714039095
 31
0.0
 11
5.6682979089
 21
3.6659415045
 31
0.0
 11
5.6931670338
 21
3.6592003695
 31
0.0
 11
5.7403601704
 21
3.6420314912
 31
0.0
  0
SPLINE
  5
30C
100
AcDbEntity
  8
0
100
AcDbSpline
 62
6
  6
CONTINUOUS
 70
0
 71
3
 72
22
 73
18
 74
16
 42
0.0000001
 43
0.0000001
 44
0.0000000001
 12
-0.4385659005
 22
0.0
 32
0.0
 13
-0.1291367818
 23
-0.4191225843
 33
0.0
 40
0.0
 40
0.0
 40
0.0
 40
0.0
 40
0.0706571424
 40
0.1411773791
 40
0.2112170266
 40
0.2804744519
 40
0.4157557745
 40
0.4814953135
 40
0.5457309602
 40
0.608330445
 40
0.6692112929
 40
0.7283410722
 40
0.7857262863
 40
0.8414357407
 40
0.8955918306
 40
0.9483672478
 40
1.0
 40
1.0
 40
1.0
 40
1.0
 10
5.5363258317
 20
3.4872941616
 30
0.0
 10
5.5259965606
 20
3.4872941616
 30
0.0
 10
5.5053526613
 20
3.4866715055
 30
0.0
 10
5.4745829219
 20
3.4838965235
 30
0.0
 10
5.4442354238
 20
3.479296143
 30
0.0
 10
5.4049818174
 20
3.470822488
 30
0.0
 10
5.3671820506
 20
3.4588593237
 30
0.0
 10
5.3315847189
 20
3.4434167345
 30
0.0
 10
5.3065901743
 20
3.4304063227
 30
0.0
 10
5.2832378711
 20
3.4159427008
 30
0.0
 10
5.2616972093
 20
3.4001248235
 30
0.0
 10
5.2421144019
 20
3.3830751585
 30
0.0
 10
5.2246387848
 20
3.3649019041
 30
0.0
 10
5.2093966347
 20
3.3457360048
 30
0.0
 10
5.1964902252
 20
3.3257174045
 30
0.0
 10
5.1860328708
 20
3.3049820097
 30
0.0
 10
5.1806909732
 20
3.2906432189
 30
0.0
 10
5.1784684107
 20
3.2834297348
 30
0.0
 11
5.5363258317
 21
3.4872941616
 31
0.0
 11
5.5053520339
 21
3.4863622688
 31
0.0
 11
5.4745497271
 21
3.4835792987
 31
0.0
 11
5.444181384
 21
3.4789643346
 31
0.0
 11
5.4144933692
 21
3.472545743
 31
0.0
 11
5.3579711497
 21
3.454510752
 31
0.0
 11
5.3315294705
 21
3.4430185333
 31
0.0
 11
5.3065531343
 21
3.4299870461
 31
0.0
 11
5.2832285228
 21
3.4155065562
 31
0.0
 11
5.2617244312
 21
3.3996800553
 31
0.0
 11
5.2421894992
 21
3.3826251184
 31
0.0
 11
5.224769721
 21
3.3644608901
 31
0.0
 11
5.2095877911
 21
3.3453181454
 31
0.0
 11
5.1967483284
 21
3.325336682
 31
0.0
 11
5.1863519682
 21
3.3046574705
 31
0.0
 11
5.1784684107
 21
3.2834297348
 31
0.0
  0
SPLINE
  5
30D
100
AcDbEntity
  8
0
100
AcDbSpline
 62
6
  6
CONTINUOUS
 70
0
 71
3
 72
19
 73
15
 74
13
 42
0.0000001
 43
0.0000001
 44
0.0000000001
 12
-0.0128451489
 22
-0.2406804233
 32
0.0
 13
0.2010326512
 23
-0.132958404
 33
0.0
 40
0.0
 40
0.0
 40
0.0
 40
0.0
 40
0.0575279738
 40
0.1151038422
 40
0.1728905648
 40
0.231049858
 40
0.2897338873
 40
0.3490826443
 40
0.4092252864
 40
0.4702809492
 40
0.5954558108
 40
0.7252730167
 40
0.86009326
 40
1.0
 40
1.0
 40
1.0
 40
1.0
 10
5.1703402342
 20
3.2381046068
 30
0.0
 10
5.1700939158
 20
3.2334893212
 30
0.0
 10
5.1699496145
 20
3.2242324793
 30
0.0
 10
5.1707835289
 20
3.2103547527
 30
0.0
 10
5.172667785
 20
3.1965282668
 30
0.0
 10
5.1756016802
 20
3.1827953393
 30
0.0
 10
5.1795708673
 20
3.1691947533
 30
0.0
 10
5.184561539
 20
3.155765391
 30
0.0
 10
5.1905598371
 20
3.1425452002
 30
0.0
 10
5.1999589066
 20
3.1251104132
 30
0.0
 10
5.2142267901
 20
3.1040145321
 30
0.0
 10
5.2348688123
 20
3.0803666549
 30
0.0
 10
5.25895142
 20
3.0584456683
 30
0.0
 10
5.2767854781
 20
3.0453657598
 30
0.0
 10
5.2861607524
 20
3.0391651675
 30
0.0
 11
5.1703402342
 21
3.2381046068
 31
0.0
 11
5.1701244013
 21
3.2242407247
 31
0.0
 11
5.1709559448
 21
3.2103885551
 31
0.0
 11
5.1728348644
 21
3.1965879464
 31
0.0
 11
5.175758655
 21
3.1828785317
 31
0.0
 11
5.1797158473
 21
3.1692991736
 31
0.0
 11
5.184692968
 21
3.1558885624
 31
0.0
 11
5.1906765439
 21
3.1426853886
 31
0.0
 11
5.1976527958
 21
3.1297282611
 31
0.0
 11
5.2144970622
 21
3.1046982694
 31
0.0
 11
5.2350226829
 21
3.0810826854
 31
0.0
 11
5.2590049248
 21
3.0591563916
 31
0.0
 11
5.2861607524
 21
3.0391651675
 31
0.0
  0
SPLINE
  5
30E
100
AcDbEntity
  8
0
100
AcDbSpline
 62
6
  6
CONTINUOUS
 70
0
 71
3
 72
14
 73
10
 74
8
 42
0.0000001
 43
0.0000001
 44
0.0000000001
 12
0.1967764413
 22
0.1108561013
 32
0.0
 13
0.2255751716
 23
0.0112198479
 33
0.0
 40
0.0
 40
0.0
 40
0.0
 40
0.0
 40
0.2401640074
 40
0.3634696617
 40
0.4885349627
 40
0.615054732
 40
0.7427067099
 40
0.8711430625
 40
1.0
 40
1.0
 40
1.0
 40
1.0
 10
5.3052905174
 20
3.8268320914
 30
0.0
 10
5.3210433903
 20
3.8357066399
 30
0.0
 10
5.3458085145
 20
3.8475670946
 30
0.0
 10
5.3802868126
 20
3.8604079356
 30
0.0
 10
5.4072826916
 20
3.8687010706
 30
0.0
 10
5.4350211141
 20
3.8755243293
 30
0.0
 10
5.4633472696
 20
3.8808341099
 30
0.0
 10
5.4920940215
 20
3.8846120351
 30
0.0
 10
5.511418446
 20
3.886096715
 30
0.0
 10
5.5211074213
 20
3.8865786334
 30
0.0
 11
5.3052905174
 21
3.8268320914
 31
0.0
 11
5.3541578282
 21
3.8503731508
 31
0.0
 11
5.3802504775
 21
3.8601068474
 31
0.0
 11
5.4072483771
 21
3.8684121658
 31
0.0
 11
5.4349944578
 21
3.8752448534
 31
0.0
 11
5.4633301209
 21
3.8805646511
 31
0.0
 11
5.4920901241
 21
3.8843486459
 31
0.0
 11
5.5211074213
 21
3.8865786334
 31
0.0
  0
SPLINE
  5
30F
100
AcDbEntity
  8
0
100
AcDbSpline
 62
6
  6
CONTINUOUS
 70
0
 71
3
 72
15
 73
11
 74
9
 42
0.0000001
 43
0.0000001
 44
0.0000000001
 12
0.2718490577
 22
0.0057767984
 32
0.0
 13
0.23051599
 23
-0.144213938
 33
0.0
 40
0.0
 40
0.0
 40
0.0
 40
0.0
 40
0.1312342414
 40
0.2617177518
 40
0.3908897415
 40
0.5182209651
 40
0.6432075504
 40
0.7654087017
 40
0.8844419129
 40
1.0
 40
1.0
 40
1.0
 40
1.0
 10
5.536463015
 20
3.8871234004
 30
0.0
 10
5.5483549832
 20
3.887376105
 30
0.0
 10
5.5720949024
 20
3.8870990526
 30
0.0
 10
5.6074419859
 20
3.8843480126
 30
0.0
 10
5.6421762244
 20
3.879277468
 30
0.0
 10
5.6759970848
 20
3.8719538874
 30
0.0
 10
5.7086109225
 20
3.8624353039
 30
0.0
 10
5.7397363656
 20
3.8508127905
 30
0.0
 10
5.7691048553
 20
3.837199566
 30
0.0
 10
5.7876306539
 20
3.8267041907
 30
0.0
 10
5.7965099829
 20
3.8211491618
 30
0.0
 11
5.536463015
 21
3.8871234004
 31
0.0
 11
5.5721445184
 21
3.886704788
 31
0.0
 11
5.6075165445
 21
3.8839411094
 31
0.0
 11
5.6422698278
 21
3.8788568929
 31
0.0
 11
5.6761038874
 21
3.871509314
 31
0.0
 11
5.7087213342
 21
3.8619650488
 31
0.0
 11
5.7398398135
 21
3.850314951
 31
0.0
 11
5.7691890503
 21
3.8366692812
 31
0.0
 11
5.7965099829
 21
3.8211491618
 31
0.0
  0
SPLINE
  5
310
100
AcDbEntity
  8
0
100
AcDbSpline
 62
6
  6
CONTINUOUS
 70
0
 71
3
 72
12
 73
8
 74
6
 42
0.0000001
 43
0.0000001
 44
0.0000000001
 12
0.1918287034
 22
0.0827640032
 32
0.0
 13
0.2088809415
 23
0.0041090105
 33
0.0
 40
0.0
 40
0.0
 40
0.0
 40
0.0
 40
0.1208907313
 40
0.2435026994
 40
0.4926145137
 40
0.7454909837
 40
1.0
 40
1.0
 40
1.0
 40
1.0
 10
5.3330718981
 20
3.6220543474
 30
0.0
 10
5.3408020022
 20
3.625389481
 30
0.0
 10
5.3565548834
 20
3.6316925798
 30
0.0
 10
5.3890254126
 20
3.6427984858
 30
0.0
 10
5.4311968837
 20
3.6537680973
 30
0.0
 10
5.4832872243
 20
3.6621119225
 30
0.0
 10
5.5186051374
 20
3.6644435427
 30
0.0
 10
5.5363258317
 20
3.6647921361
 30
0.0
 11
5.3330718981
 21
3.6220543474
 31
0.0
 11
5.3565168643
 21
3.6314475464
 31
0.0
 11
5.38075204
 21
3.639745073
 31
0.0
 11
5.4311083238
 21
3.6528943513
 31
0.0
 11
5.4832693832
 21
3.6612830064
 31
0.0
 11
5.5363258317
 21
3.6647921361
 31
0.0
  0
SPLINE
  5
311
100
AcDbEntity
  8
0
100
AcDbSpline
 62
6
  6
CONTINUOUS
 70
0
 71
3
 72
12
 73
8
 74
6
 42
0.0000001
 43
0.0000001
 44
0.0000000001
 12
0.2158508961
 22
0.0000290482
 32
0.0
 13
0.1945221118
 23
0.0935561768
 33
0.0
 40
0.0
 40
0.0
 40
0.0
 40
0.0
 40
0.2604720769
 40
0.5156468106
 40
0.7628963043
 40
0.8828608655
 40
1.0
 40
1.0
 40
1.0
 40
1.0
 10
5.5363615199
 20
2.9693392021
 30
0.0
 10
5.5551025637
 20
2.9693417242
 30
0.0
 10
5.5922340062
 20
2.9712085203
 30
0.0
 10
5.6465660265
 20
2.9796624132
 30
0.0
 10
5.689902853
 20
2.991368179
 30
0.0
 10
5.7226146947
 20
3.0034349809
 30
0.0
 10
5.7382379042
 20
3.0103219517
 30
0.0
 10
5.7458332881
 20
3.0139749815
 30
0.0
 11
5.5363615199
 21
2.9693392021
 31
0.0
 11
5.5925113432
 21
2.9722093735
 31
0.0
 11
5.6469246083
 21
2.9807515878
 31
0.0
 11
5.6984173029
 21
2.9947785356
 31
0.0
 11
5.7227056523
 21
3.003756233
 31
0.0
 11
5.7458332881
 21
3.0139749815
 31
0.0
  0
SPLINE
  5
312
100
AcDbEntity
  8
0
100
AcDbSpline
 62
6
  6
CONTINUOUS
 70
0
 71
3
 72
11
 73
7
 74
5
 42
0.0000001
 43
0.0000001
 44
0.0000000001
 12
0.111117614
 22
0.0543927229
 32
0.0
 13
0.0795001824
 23
0.0947914207
 33
0.0
 40
0.0
 40
0.0
 40
0.0
 40
0.0
 40
0.2655182146
 40
0.5208733496
 40
0.7657795174
 40
1.0
 40
1.0
 40
1.0
 40
1.0
 10
5.7481986963
 20
3.0151227182
 30
0.0
 10
5.7580332798
 20
3.0199368044
 30
0.0
 10
5.7769298906
 20
3.0302230748
 30
0.0
 10
5.8031530125
 20
3.0479106053
 30
0.0
 10
5.8264191606
 20
3.067390533
 30
0.0
 10
5.8400882274
 20
3.0817338314
 30
0.0
 10
5.8462950844
 20
3.0891345289
 30
0.0
 11
5.7481986963
 21
3.0151227182
 31
0.0
 11
5.7770231567
 21
3.0308771021
 31
0.0
 11
5.8031762637
 21
3.0485983246
 31
0.0
 11
5.8263635928
 21
3.0681013595
 31
0.0
 11
5.8462950844
 21
3.0891345289
 31
0.0
  0
SPLINE
  5
313
100
AcDbEntity
  8
0
100
AcDbSpline
 62
6
  6
CONTINUOUS
 70
0
 71
3
 72
15
 73
11
 74
9
 42
0.0000001
 43
0.0000001
 44
0.0000000001
 12
0.2048535814
 22
0.1107988281
 32
0.0
 13
0.2328433935
 23
0.0050323217
 33
0.0
 40
0.0
 40
0.0
 40
0.0
 40
0.0
 40
0.1192083867
 40
0.2406797154
 40
0.3641489804
 40
0.4893134688
 40
0.6158477886
 40
0.7433932325
 40
0.8715721711
 40
1.0
 40
1.0
 40
1.0
 40
1.0
 10
5.312550913
 20
3.7787637017
 30
0.0
 10
5.3206910013
 20
3.7831664182
 30
0.0
 10
5.3374299889
 20
3.7915040258
 30
0.0
 10
5.3635089173
 20
3.8024617511
 30
0.0
 10
5.3906499503
 20
3.8119448151
 30
0.0
 10
5.4186856024
 20
3.8198988969
 30
0.0
 10
5.4474463112
 20
3.8262703249
 30
0.0
 10
5.4767532286
 20
3.8310344565
 30
0.0
 10
5.5064262206
 20
3.8341639167
 30
0.0
 10
5.5263352225
 20
3.8351453901
 30
0.0
 10
5.5363030797
 20
3.8353608201
 30
0.0
 11
5.312550913
 21
3.7787637017
 31
0.0
 11
5.3373946644
 21
3.7911569488
 31
0.0
 11
5.3634692786
 21
3.8021324349
 31
0.0
 11
5.3906111623
 21
3.8116302962
 31
0.0
 11
5.4186522418
 21
3.8195959257
 31
0.0
 11
5.4474219874
 21
3.8259800261
 31
0.0
 11
5.4767412411
 21
3.8307519553
 31
0.0
 11
5.5064289472
 21
3.8338851892
 31
0.0
 11
5.5363030797
 21
3.8353608201
 31
0.0
  0
SPLINE
  5
314
100
AcDbEntity
  8
0
100
AcDbSpline
 62
6
  6
CONTINUOUS
 70
0
 71
3
 72
14
 73
10
 74
8
 42
0.0000001
 43
0.0000001
 44
0.0000000001
 12
0.2427109393
 22
0.0052455838
 32
0.0
 13
0.2149087847
 23
-0.1129173612
 33
0.0
 40
0.0
 40
0.0
 40
0.0
 40
0.0
 40
0.259317464
 40
0.387686547
 40
0.5145900251
 40
0.6396203449
 40
0.7624124995
 40
0.8826358341
 40
1.0
 40
1.0
 40
1.0
 40
1.0
 10
5.5363030797
 20
3.8353608201
 30
0.0
 10
5.5572828081
 20
3.8358142439
 30
0.0
 10
5.5887307551
 20
3.8346673155
 30
0.0
 10
5.6300601219
 20
3.829437707
 30
0.0
 10
5.6603245504
 20
3.8237420852
 30
0.0
 10
5.6897393496
 20
3.8162931753
 30
0.0
 10
5.71810665
 20
3.8071498288
 30
0.0
 10
5.7452327195
 20
3.79638564
 30
0.0
 10
5.7625864379
 20
3.7880649549
 30
0.0
 10
5.7709939679
 20
3.783647471
 30
0.0
 11
5.5363030797
 21
3.8353608201
 31
0.0
 11
5.599213811
 21
3.8330303124
 31
0.0
 11
5.6301303643
 21
3.8291120625
 31
0.0
 11
5.6604043884
 21
3.823400695
 31
0.0
 11
5.6898253789
 21
3.8159355142
 31
0.0
 11
5.7181926735
 21
3.8067741691
 31
0.0
 11
5.7453123037
 21
3.7959867846
 31
0.0
 11
5.7709939679
 21
3.783647471
 31
0.0
  0
SPLINE
  5
315
100
AcDbEntity
  8
0
100
AcDbSpline
 62
6
  6
CONTINUOUS
 70
0
 71
3
 72
19
 73
15
 74
13
 42
0.0000001
 43
0.0000001
 44
0.0000000001
 12
0.2450329597
 22
0.3103210662
 32
0.0
 13
0.3953231984
 23
0.0077384896
 33
0.0
 40
0.0
 40
0.0
 40
0.0
 40
0.0
 40
0.1106721934
 40
0.1679064825
 40
0.2263478739
 40
0.2859764384
 40
0.3467658309
 40
0.4715872945
 40
0.6002190633
 40
0.6657237549
 40
0.7318618987
 40
0.7985188659
 40
0.8655583261
 40
1.0
 40
1.0
 40
1.0
 40
1.0
 10
5.1843542105
 20
3.6618958357
 30
0.0
 10
5.1933936556
 20
3.6733438067
 30
0.0
 10
5.2084313534
 20
3.6897083024
 30
0.0
 10
5.2306919841
 20
3.7095868687
 30
0.0
 10
5.2488910346
 20
3.7238496298
 30
0.0
 10
5.2683140707
 20
3.7372332419
 30
0.0
 10
5.2959745107
 20
3.7539865663
 30
0.0
 10
5.3331866476
 20
3.7723720745
 30
0.0
 10
5.3726909469
 20
3.7869689444
 30
0.0
 10
5.4056748507
 20
3.7964352446
 30
0.0
 10
5.431127851
 20
3.8024163286
 30
0.0
 10
5.4570372392
 20
3.8072083174
 30
0.0
 10
5.4920621886
 20
3.8119855075
 30
0.0
 10
5.5186098609
 20
3.8137384985
 30
0.0
 10
5.5363258317
 20
3.8140852903
 30
0.0
 11
5.1843542105
 21
3.6618958357
 31
0.0
 11
5.2138582402
 21
3.694213334
 31
0.0
 11
5.2307280895
 21
3.7092978338
 31
0.0
 11
5.2489060546
 21
3.7235640775
 31
0.0
 11
5.2683118955
 21
3.736954059
 31
0.0
 11
5.2888644308
 21
3.7494170247
 31
0.0
 11
5.3330695876
 21
3.7713657926
 31
0.0
 11
5.3807543736
 21
3.7890572785
 31
0.0
 11
5.4056476664
 21
3.7962098377
 31
0.0
 11
5.4311040137
 21
3.8021970441
 31
0.0
 11
5.4570198375
 21
3.8069943088
 31
0.0
 11
5.4832833468
 21
3.8105813235
 31
0.0
 11
5.5363258317
 21
3.8140852903
 31
0.0
  0
SPLINE
  5
316
100
AcDbEntity
  8
0
100
AcDbSpline
 62
6
  6
CONTINUOUS
 70
0
 71
3
 72
9
 73
5
 74
3
 42
0.0000001
 43
0.0000001
 44
0.0000000001
 12
0.0556817878
 22
0.0118761338
 32
0.0
 13
0.0538209665
 23
0.018568996
 33
0.0
 40
0.0
 40
0.0
 40
0.0
 40
0.0
 40
0.2527643514
 40
1.0
 40
1.0
 40
1.0
 40
1.0
 10
5.6420829915
 20
2.9803696198
 30
0.0
 10
5.6467744485
 20
2.9813702409
 30
0.0
 10
5.6652750225
 20
2.9856039073
 30
0.0
 10
5.6835255481
 20
2.990941041
 30
0.0
 10
5.6969311964
 20
2.9955661796
 30
0.0
 11
5.6420829915
 21
2.9803696198
 31
0.0
 11
5.6561110441
 21
2.9835809811
 31
0.0
 11
5.6969311964
 21
2.9955661796
 31
0.0
  0
SPLINE
  5
317
100
AcDbEntity
  8
0
100
AcDbSpline
 62
6
  6
CONTINUOUS
 70
0
 71
3
 72
9
 73
5
 74
3
 42
0.0000001
 43
0.0000001
 44
0.0000000001
 12
0.0280872534
 22
0.0193935347
 32
0.0
 13
0.025881422
 23
0.0222520784
 33
0.0
 40
0.0
 40
0.0
 40
0.0
 40
0.0
 40
0.2535303505
 40
1.0
 40
1.0
 40
1.0
 40
1.0
 10
5.7921765012
 20
3.0430073802
 30
0.0
 10
5.7945501583
 20
3.0446463301
 30
0.0
 10
5.8038298828
 20
3.0512295047
 30
0.0
 10
5.8127718628
 20
3.0582910209
 30
0.0
 10
5.8192117615
 20
3.0638278546
 30
0.0
 11
5.7921765012
 21
3.0430073802
 31
0.0
 11
5.7992338325
 21
3.0480151459
 31
0.0
 11
5.8192117615
 21
3.0638278546
 31
0.0
  0
SPLINE
  5
318
100
AcDbEntity
  8
0
100
AcDbSpline
 62
6
  6
CONTINUOUS
 70
0
 71
3
 72
15
 73
11
 74
9
 42
0.0000001
 43
0.0000001
 44
0.0000000001
 12
0.1229047415
 22
0.1373942467
 32
0.0
 13
-0.0311980391
 23
0.1816849935
 33
0.0
 40
0.0
 40
0.0
 40
0.0
 40
0.0
 40
0.1343279304
 40
0.2648466677
 40
0.3919636943
 40
0.5162474724
 40
0.6383811688
 40
0.7591433463
 40
0.8793924672
 40
1.0
 40
1.0
 40
1.0
 40
1.0
 10
5.8458287885
 20
3.0898494085
 30
0.0
 10
5.8513319684
 20
3.0960013701
 30
0.0
 10
5.8616271595
 20
3.1086438521
 30
0.0
 10
5.8749266997
 20
3.1287731489
 30
0.0
 10
5.8857418798
 20
3.1496534057
 30
0.0
 10
5.8939897412
 20
3.1711257255
 30
0.0
 10
5.8996157162
 20
3.193029182
 30
0.0
 10
5.9025537101
 20
3.2152048407
 30
0.0
 10
5.9027931394
 20
3.2374760623
 30
0.0
 10
5.9011596964
 20
3.2522284414
 30
0.0
 10
5.8999054568
 20
3.2595326344
 30
0.0
 11
5.8458287885
 21
3.0898494085
 31
0.0
 11
5.8614385517
 21
3.1090723082
 31
0.0
 11
5.8746710116
 21
3.1291671586
 31
0.0
 11
5.8854212061
 21
3.1499890644
 31
0.0
 11
5.8936135686
 21
3.1713852876
 31
0.0
 11
5.8991926191
 21
3.1931977314
 31
0.0
 11
5.9021083766
 21
3.2152677558
 31
0.0
 11
5.9023460063
 21
3.2374337005
 31
0.0
 11
5.8999054568
 21
3.2595326344
 31
0.0
  0
SPLINE
  5
319
100
AcDbEntity
  8
0
100
AcDbSpline
 62
6
  6
CONTINUOUS
 70
0
 71
3
 72
22
 73
18
 74
16
 42
0.0000001
 43
0.0000001
 44
0.0000000001
 12
-0.1058330806
 22
0.4378830731
 32
0.0
 13
-0.450491095
 23
0.0
 33
0.0
 40
0.0
 40
0.0
 40
0.0
 40
0.0
 40
0.0514577089
 40
0.1039610593
 40
0.1577915835
 40
0.2131665984
 40
0.2702380855
 40
0.3291051099
 40
0.3897955775
 40
0.4522867631
 40
0.5165081265
 40
0.5823277734
 40
0.7180148319
 40
0.7875828546
 40
0.8579884938
 40
0.9289170817
 40
1.0
 40
1.0
 40
1.0
 40
1.0
 10
5.8973472438
 20
3.2719146423
 30
0.0
 10
5.8955319345
 20
3.2794254622
 30
0.0
 10
5.8909370027
 20
3.2943904107
 30
0.0
 10
5.881381619
 20
3.3161260399
 30
0.0
 10
5.8691668791
 20
3.3371692796
 30
0.0
 10
5.854405821
 20
3.3573609761
 30
0.0
 10
5.8372166506
 20
3.3765539684
 30
0.0
 10
5.8177224113
 20
3.3945923839
 30
0.0
 10
5.7960857254
 20
3.4113545069
 30
0.0
 10
5.7724672349
 20
3.4267098909
 30
0.0
 10
5.7470435454
 20
3.4405367142
 30
0.0
 10
5.7106542986
 20
3.4569775013
 30
0.0
 10
5.6718363143
 20
3.4697236679
 30
0.0
 10
5.6314200578
 20
3.4787572814
 30
0.0
 10
5.6001093092
 20
3.4836676888
 30
0.0
 10
5.568330794
 20
3.486629325
 30
0.0
 10
5.5469999056
 20
3.4872941616
 30
0.0
 10
5.5363258317
 20
3.4872941616
 30
0.0
 11
5.8973472438
 21
3.2719146423
 31
0.0
 11
5.8905665688
 21
3.2940820128
 31
0.0
 11
5.881073689
 21
3.3157457185
 31
0.0
 11
5.8689322639
 21
3.3367375413
 31
0.0
 11
5.8542410863
 21
3.3568986369
 31
0.0
 11
5.8371150069
 21
3.3760744452
 31
0.0
 11
5.8176777908
 21
3.3941148365
 31
0.0
 11
5.7960850678
 21
3.4108855874
 31
0.0
 11
5.7724998044
 21
3.4262561708
 31
0.0
 11
5.747099422
 21
3.4401065191
 31
0.0
 11
5.7200875036
 21
3.4523354946
 31
0.0
 11
5.6620616722
 21
3.4715544365
 31
0.0
 11
5.631479073
 21
3.4784017794
 31
0.0
 11
5.600146847
 21
3.4833279244
 31
0.0
 11
5.5683325892
 21
3.4862990961
 31
0.0
 11
5.5363258317
 21
3.4872941616
 31
0.0
  0
SPLINE
  5
31A
100
AcDbEntity
  8
0
100
AcDbSpline
 62
6
  6
CONTINUOUS
 70
0
 71
3
 72
22
 73
18
 74
16
 42
0.0000001
 43
0.0000001
 44
0.0000000001
 12
-0.0000017669
 22
0.3404603487
 32
0.0
 13
0.3154280904
 23
0.128134183
 33
0.0
 40
0.0
 40
0.0
 40
0.0
 40
0.0
 40
0.0551288749
 40
0.1105599414
 40
0.1664783628
 40
0.22306502
 40
0.280513476
 40
0.3390055845
 40
0.3987004121
 40
0.4597189547
 40
0.5859353114
 40
0.651300624
 40
0.7181722199
 40
0.7865471491
 40
0.856390996
 40
0.9275901155
 40
1.0
 40
1.0
 40
1.0
 40
1.0
 10
5.1300758335
 20
3.6635597566
 30
0.0
 10
5.130075801
 20
3.6698161553
 30
0.0
 10
5.1306627226
 20
3.6823708844
 30
0.0
 10
5.1332844078
 20
3.7011065417
 30
0.0
 10
5.1376357622
 20
3.7196887896
 30
0.0
 10
5.1437078218
 20
3.738022049
 30
0.0
 10
5.1514673215
 20
3.7560244806
 30
0.0
 10
5.1608751622
 20
3.7736222767
 30
0.0
 10
5.1718968243
 20
3.7907407419
 30
0.0
 10
5.1888609169
 20
3.8130736916
 30
0.0
 10
5.2087226174
 20
3.8339040971
 30
0.0
 10
5.2309998557
 20
3.8530050194
 30
0.0
 10
5.2492146728
 20
3.8666909422
 30
0.0
 10
5.2686612917
 20
3.879504926
 30
0.0
 10
5.2892590441
 20
3.8913880494
 30
0.0
 10
5.3109032496
 20
3.9022924851
 30
0.0
 10
5.3258445572
 20
3.9088250879
 30
0.0
 10
5.3334579277
 20
3.911917815
 30
0.0
 11
5.1300758335
 21
3.6635597566
 31
0.0
 11
5.1309480846
 21
3.6823086738
 31
0.0
 11
5.1335571693
 21
3.7009995296
 31
0.0
 11
5.1378912929
 21
3.719537626
 31
0.0
 11
5.1439367038
 21
3.737830056
 31
0.0
 11
5.1516648771
 21
3.755797436
 31
0.0
 11
5.1610405411
 21
3.7733665574
 31
0.0
 11
5.1720278727
 21
3.7904642828
 31
0.0
 11
5.1845792632
 21
3.8070183775
 31
0.0
 11
5.2141363637
 21
3.8382103924
 31
0.0
 11
5.2310187105
 21
3.8527100512
 31
0.0
 11
5.249211207
 21
3.866398555
 31
0.0
 11
5.2686416594
 21
3.8792191297
 31
0.0
 11
5.2892309976
 21
3.8911154682
 31
0.0
 11
5.3108737095
 21
3.9020330573
 31
0.0
 11
5.3334579277
 21
3.911917815
 31
0.0
  0
SPLINE
  5
31B
100
AcDbEntity
  8
0
100
AcDbSpline
 62
6
  6
CONTINUOUS
 70
0
 71
3
 72
21
 73
17
 74
15
 42
0.0000001
 43
0.0000001
 44
0.0000000001
 12
0.1120205232
 22
0.4946455832
 32
0.0
 13
0.5070751691
 23
0.0098804595
 33
0.0
 40
0.0
 40
0.0
 40
0.0
 40
0.0
 40
0.0521765867
 40
0.1053213786
 40
0.1597043959
 40
0.2155330194
 40
0.3319516186
 40
0.3927871523
 40
0.4553219139
 40
0.5194821306
 40
0.5851549606
 40
0.7202691202
 40
0.7893931588
 40
0.8592539079
 40
0.9295765516
 40
1.0
 40
1.0
 40
1.0
 40
1.0
 10
5.1354666939
 20
3.6617626999
 30
0.0
 10
5.1374149767
 20
3.6703656727
 30
0.0
 10
5.1423868177
 20
3.6875125789
 30
0.0
 10
5.1528423236
 20
3.7124631709
 30
0.0
 10
5.1662779125
 20
3.7366546722
 30
0.0
 10
5.1882895923
 20
3.768081797
 30
0.0
 10
5.2156583807
 20
3.7968100631
 30
0.0
 10
5.2471932245
 20
3.8223307539
 30
0.0
 10
5.2734308465
 20
3.8401936434
 30
0.0
 10
5.3016860564
 20
3.8563595962
 30
0.0
 10
5.3421406572
 20
3.8756617508
 30
0.0
 10
5.3853464174
 20
3.8908595794
 30
0.0
 10
5.4303758408
 20
3.9018881596
 30
0.0
 10
5.4652408938
 20
3.9080844527
 30
0.0
 10
5.5006407639
 20
3.9120923863
 30
0.0
 10
5.5244225044
 20
3.9132996327
 30
0.0
 10
5.5363258317
 20
3.9135315714
 30
0.0
 11
5.1354666939
 21
3.6617626999
 31
0.0
 11
5.1428131436
 21
3.6871849773
 31
0.0
 11
5.1532019891
 21
3.7120559264
 31
0.0
 11
5.1665582883
 21
3.7361878366
 31
0.0
 11
5.1827719723
 21
3.7594007142
 31
0.0
 11
5.2232623474
 21
3.8023744907
 31
0.0
 11
5.2472217583
 21
3.8218146211
 31
0.0
 11
5.2734185635
 21
3.8396926006
 31
0.0
 11
5.3016480361
 21
3.8558778819
 31
0.0
 11
5.3316963358
 21
3.8702473433
 31
0.0
 11
5.3962858177
 21
3.8931387617
 31
0.0
 11
5.4303336013
 21
3.9014930028
 31
0.0
 11
5.465216584
 21
3.9077026635
 31
0.0
 11
5.5006548808
 21
3.9117231924
 31
0.0
 11
5.5363258317
 21
3.9135315714
 31
0.0
  0
SPLINE
  5
31C
100
AcDbEntity
  8
0
100
AcDbSpline
 62
6
  6
CONTINUOUS
 70
0
 71
3
 72
21
 73
17
 74
15
 42
0.0000001
 43
0.0000001
 44
0.0000000001
 12
0.1909843783
 22
0.417789143
 32
0.0
 13
0.4592846802
 23
0.0089656703
 33
0.0
 40
0.0
 40
0.0
 40
0.0
 40
0.0
 40
0.0529653151
 40
0.1071367298
 40
0.1626492787
 40
0.2195984246
 40
0.2780311444
 40
0.3379615478
 40
0.3993655278
 40
0.4621842337
 40
0.5263330933
 40
0.5916881619
 40
0.7253631388
 40
0.8620077081
 40
0.9309781699
 40
1.0
 40
1.0
 40
1.0
 40
1.0
 10
5.1508425606
 20
3.6572463824
 30
0.0
 10
5.1542144098
 20
3.6646224936
 30
0.0
 10
5.1617836054
 20
3.6792111864
 30
0.0
 10
5.1752968117
 20
3.7001712562
 30
0.0
 10
5.1910097851
 20
3.7203167987
 30
0.0
 10
5.208825852
 20
3.7395240273
 30
0.0
 10
5.2286272168
 20
3.7576905541
 30
0.0
 10
5.2503000308
 20
3.774703004
 30
0.0
 10
5.2737088435
 20
3.7904670429
 30
0.0
 10
5.2987104015
 20
3.8048954938
 30
0.0
 10
5.3251583357
 20
3.8178963529
 30
0.0
 10
5.3623991077
 20
3.8333548169
 30
0.0
 10
5.4116132227
 20
3.8486317602
 30
0.0
 10
5.4627892453
 20
3.8582419666
 30
0.0
 10
5.5046392805
 20
3.8625391296
 30
0.0
 10
5.525758942
 20
3.8635379927
 30
0.0
 10
5.5363258317
 20
3.8637442684
 30
0.0
 11
5.1508425606
 21
3.6572463824
 31
0.0
 11
5.1620239208
 21
3.678855747
 31
0.0
 11
5.1754854386
 21
3.6997852201
 31
0.0
 11
5.1911471046
 21
3.7199100598
 31
0.0
 11
5.2089156518
 21
3.7391108145
 31
0.0
 11
5.2286776184
 21
3.7572760913
 31
0.0
 11
5.2503164279
 21
3.7742961575
 31
0.0
 11
5.2736992451
 21
3.7900725487
 31
0.0
 11
5.2986828521
 21
3.8045139962
 31
0.0
 11
5.3251190877
 21
3.8175332262
 31
0.0
 11
5.3528412324
 21
3.8290580349
 31
0.0
 11
5.411456807
 21
3.8473605135
 31
0.0
 11
5.4731375109
 21
3.8590075425
 31
0.0
 11
5.5046544254
 21
3.8622484762
 31
0.0
 11
5.5363258317
 21
3.8637442684
 31
0.0
  0
SPLINE
  5
31D
100
AcDbEntity
  8
0
100
AcDbSpline
 62
6
  6
CONTINUOUS
 70
0
 71
3
 72
9
 73
5
 74
3
 42
0.0000001
 43
0.0000001
 44
0.0000000001
 12
0.0145618954
 22
0.0326900108
 32
0.0
 13
0.0189858029
 23
0.0303352087
 33
0.0
 40
0.0
 40
0.0
 40
0.0
 40
0.0
 40
0.247170117
 40
1.0
 40
1.0
 40
1.0
 40
1.0
 10
5.1498552646
 20
3.6053305011
 30
0.0
 10
5.1510550197
 20
3.6080238324
 30
0.0
 10
5.1561073181
 20
3.6188313915
 30
0.0
 10
5.1619364801
 20
3.6292731551
 30
0.0
 10
5.16670084
 20
3.6368855724
 30
0.0
 11
5.1498552646
 21
3.6053305011
 31
0.0
 11
5.1536000351
 21
3.6133440961
 31
0.0
 11
5.16670084
 21
3.6368855724
 31
0.0
  0
SPLINE
  5
31E
100
AcDbEntity
  8
0
100
AcDbSpline
 62
6
  6
CONTINUOUS
 70
0
 71
3
 72
12
 73
8
 74
6
 42
0.0000001
 43
0.0000001
 44
0.0000000001
 12
0.103387992
 22
0.1558377053
 32
0.0
 13
0.1684184092
 23
0.0813001029
 33
0.0
 40
0.0
 40
0.0
 40
0.0
 40
0.0
 40
0.233924079
 40
0.478519856
 40
0.7340718421
 40
0.8658643264
 40
1.0
 40
1.0
 40
1.0
 40
1.0
 10
5.1908111299
 20
3.7932397695
 30
0.0
 10
5.1988727769
 20
3.8053911667
 30
0.0
 10
5.2174412132
 20
3.8289175722
 30
0.0
 10
5.250815322
 20
3.8604223116
 30
0.0
 10
5.2828691461
 20
3.8835201527
 30
0.0
 10
5.3108479724
 20
3.9000973252
 30
0.0
 10
5.3255826072
 20
3.9077181472
 30
0.0
 10
5.3331129128
 20
3.9113532285
 30
0.0
 11
5.1908111299
 21
3.7932397695
 31
0.0
 11
5.2177887578
 21
3.8276785129
 31
0.0
 11
5.2509462216
 21
3.8591904684
 31
0.0
 11
5.2896405593
 21
3.8872407694
 31
0.0
 11
5.3108369228
 21
3.899818319
 31
0.0
 11
5.3331129128
 21
3.9113532285
 31
0.0
  0
SPLINE
  5
31F
100
AcDbEntity
  8
0
100
AcDbSpline
 62
6
  6
CONTINUOUS
 70
0
 71
3
 72
9
 73
5
 74
3
 42
0.0000001
 43
0.0000001
 44
0.0000000001
 12
0.0141133766
 22
0.0327816486
 32
0.0
 13
0.018583106
 23
0.0304711676
 33
0.0
 40
0.0
 40
0.0
 40
0.0
 40
0.0
 40
0.2472102357
 40
1.0
 40
1.0
 40
1.0
 40
1.0
 10
5.1486481207
 20
3.5528347683
 30
0.0
 10
5.1498111111
 20
3.555536088
 30
0.0
 10
5.1547152822
 20
3.5663765531
 30
0.0
 10
5.1604036801
 20
3.5768596666
 30
0.0
 10
5.1650667375
 20
3.5845057943
 30
0.0
 11
5.1486481207
 21
3.5528347683
 31
0.0
 11
5.1522837601
 21
3.5608739971
 31
0.0
 11
5.1650667375
 21
3.5845057943
 31
0.0
  0
SPLINE
  5
320
100
AcDbEntity
  8
0
100
AcDbSpline
 62
6
  6
CONTINUOUS
 70
0
 71
3
 72
9
 73
5
 74
3
 42
0.0000001
 43
0.0000001
 44
0.0000000001
 12
0.0227689624
 22
0.0373348175
 32
0.0
 13
0.0282481035
 23
0.0333820145
 33
0.0
 40
0.0
 40
0.0
 40
0.0
 40
0.0
 40
0.4946756801
 40
1.0
 40
1.0
 40
1.0
 40
1.0
 10
5.1650667375
 20
3.5845057943
 30
0.0
 10
5.1688211548
 20
3.590662003
 30
0.0
 10
5.176919232
 20
3.602803003
 30
0.0
 10
5.1859312262
 20
3.6142797102
 30
0.0
 10
5.1906893774
 20
3.6199026248
 30
0.0
 11
5.1650667375
 21
3.5845057943
 31
0.0
 11
5.1770566376
 21
3.6025111627
 31
0.0
 11
5.1906893774
 21
3.6199026248
 31
0.0
  0
SPLINE
  5
321
100
AcDbEntity
  8
0
100
AcDbSpline
 62
6
  6
CONTINUOUS
 70
0
 71
3
 72
19
 73
15
 74
13
 42
0.0000001
 43
0.0000001
 44
0.0000000001
 12
0.2531033686
 22
0.2667626884
 32
0.0
 13
0.3676578798
 23
0.0071645321
 33
0.0
 40
0.0
 40
0.0
 40
0.0
 40
0.0
 40
0.1124104485
 40
0.1703123932
 40
0.2293123472
 40
0.3504306257
 40
0.4124913062
 40
0.4754444458
 40
0.5392070682
 40
0.6036918171
 40
0.6688087986
 40
0.7344635593
 40
0.866930872
 40
1.0
 40
1.0
 40
1.0
 40
1.0
 10
5.202476583
 20
3.6330482018
 30
0.0
 10
5.2119604041
 20
3.6430438396
 30
0.0
 10
5.2273263037
 20
3.6572757215
 30
0.0
 10
5.2495420851
 20
3.6745114512
 30
0.0
 10
5.273573552
 20
3.6910793699
 30
0.0
 10
5.2993666082
 20
3.7059042551
 30
0.0
 10
5.3265888137
 20
3.7189305351
 30
0.0
 10
5.3479334791
 20
3.7278910178
 30
0.0
 10
5.3699580852
 20
3.735927575
 30
0.0
 10
5.3925858961
 20
3.7430094767
 30
0.0
 10
5.4157357771
 20
3.7491170881
 30
0.0
 10
5.4472789734
 20
3.7559553588
 30
0.0
 10
5.4874873427
 20
3.761924593
 30
0.0
 10
5.5200178605
 20
3.7639495007
 30
0.0
 10
5.5363258317
 20
3.7642672934
 30
0.0
 11
5.202476583
 21
3.6330482018
 31
0.0
 11
5.232738155
 21
3.6612073566
 31
0.0
 11
5.2495528348
 21
3.6742695962
 31
0.0
 11
5.2674089078
 21
3.6865932903
 31
0.0
 11
5.3059844968
 21
3.708855496
 31
0.0
 11
5.3265661592
 21
3.7187151533
 31
0.0
 11
5.3479083396
 21
3.7276826433
 31
0.0
 11
5.3699329321
 21
3.7357257969
 31
0.0
 11
5.3925613147
 21
3.7428148359
 31
0.0
 11
5.4157130603
 21
3.7489283342
 31
0.0
 11
5.4393073482
 21
3.7540466883
 31
0.0
 11
5.4874871937
 21
3.7612266224
 31
0.0
 11
5.5363258317
 21
3.7642672934
 31
0.0
  0
SPLINE
  5
322
100
AcDbEntity
  8
0
100
AcDbSpline
 62
6
  6
CONTINUOUS
 70
0
 71
3
 72
9
 73
5
 74
3
 42
0.0000001
 43
0.0000001
 44
0.0000000001
 12
0.0182537599
 22
0.0674205443
 32
0.0
 13
0.0366074863
 23
0.0594863134
 33
0.0
 40
0.0
 40
0.0
 40
0.0
 40
0.0
 40
0.4930746109
 40
1.0
 40
1.0
 40
1.0
 40
1.0
 10
5.1377201692
 20
3.3225092328
 30
0.0
 10
5.1407203244
 20
3.3335903524
 30
0.0
 10
5.1485303727
 20
3.3556271424
 30
0.0
 10
5.1594316452
 20
3.3762952092
 30
0.0
 10
5.1656174
 20
3.3863469167
 30
0.0
 11
5.1377201692
 21
3.3225092328
 31
0.0
 11
5.1491737438
 21
3.3549891482
 31
0.0
 11
5.1656174
 21
3.3863469167
 31
0.0
  0
SPLINE
  5
323
100
AcDbEntity
  8
0
100
AcDbSpline
 62
6
  6
CONTINUOUS
 70
0
 71
3
 72
20
 73
16
 74
14
 42
0.0000001
 43
0.0000001
 44
0.0000000001
 12
0.2243258159
 22
0.3645242305
 32
0.0
 13
0.4279373189
 23
0.0083449048
 33
0.0
 40
0.0
 40
0.0
 40
0.0
 40
0.0
 40
0.0537853973
 40
0.108809819
 40
0.1651468107
 40
0.2228324623
 40
0.342199142
 40
0.4667440068
 40
0.5308023331
 40
0.5958831757
 40
0.7285503115
 40
0.7959172283
 40
0.8637598609
 40
0.9318666037
 40
1.0
 40
1.0
 40
1.0
 40
1.0
 10
5.1656174
 20
3.3863469167
 30
0.0
 10
5.1696392177
 20
3.3928822769
 30
0.0
 10
5.1783494864
 20
3.4057586557
 30
0.0
 10
5.1931168393
 20
3.4241489549
 30
0.0
 10
5.2096541592
 20
3.4417382235
 30
0.0
 10
5.2342125285
 20
3.4642632194
 30
0.0
 10
5.2689699743
 20
3.4898721139
 30
0.0
 10
5.3074908866
 20
3.5112459763
 30
0.0
 10
5.3405779626
 20
3.5259591435
 30
0.0
 10
5.375534259
 20
3.5391701836
 30
0.0
 10
5.41199667
 20
3.549557178
 30
0.0
 10
5.4494737131
 20
3.5571119366
 30
0.0
 10
5.4781834305
 20
3.5613570319
 30
0.0
 10
5.5071788503
 20
3.5641400999
 30
0.0
 10
5.5266068907
 20
3.5650151048
 30
0.0
 10
5.5363258317
 20
3.565204627
 30
0.0
 11
5.1656174
 21
3.3863469167
 31
0.0
 11
5.1784993947
 21
3.4054264284
 31
0.0
 11
5.1932280436
 21
3.4238041082
 31
0.0
 11
5.2097281551
 21
3.4413881013
 31
0.0
 11
5.2279104646
 21
3.4580921786
 31
0.0
 11
5.2689477721
 21
3.4885264824
 31
0.0
 11
5.3154962414
 21
3.5145059464
 31
0.0
 11
5.340542893
 21
3.5256603511
 31
0.0
 11
5.3665961477
 21
3.535518059
 31
0.0
 11
5.4211862007
 21
3.5511497605
 31
0.0
 11
5.4494508963
 21
3.5568527206
 31
0.0
 11
5.4781755769
 21
3.561106326
 31
0.0
 11
5.5071929271
 21
3.5638941085
 31
0.0
 11
5.5363258317
 21
3.565204627
 31
0.0
  0
SPLINE
  5
324
100
AcDbEntity
  8
0
100
AcDbSpline
 62
9
  6
CONTINUOUS
 70
0
 71
3
 72
22
 73
18
 74
16
 42
0.0000001
 43
0.0000001
 44
0.0000000001
 12
-0.548329365
 22
0.0
 32
0.0
 13
-0.0
 23
-0.548329365
 33
0.0
 40
0.0
 40
0.0
 40
0.0
 40
0.0
 40
0.0725895288
 40
0.1449511821
 40
0.2871368581
 40
0.4240496015
 40
0.5538609813
 40
0.6157897416
 40
0.6756321031
 40
0.7334380011
 40
0.7616317003
 40
0.7893773155
 40
0.8436267366
 40
0.8965346264
 40
0.9226215734
 40
0.9485266573
 40
1.0
 40
1.0
 40
1.0
 40
1.0
 10
5.5363258317
 20
4.4978114799
 30
0.0
 10
5.5230581749
 20
4.4978114799
 30
0.0
 10
5.4965539172
 20
4.4968857892
 30
0.0
 10
5.4443254551
 20
4.4914305541
 30
0.0
 10
5.3812465579
 20
4.4780385236
 30
0.0
 10
5.3109812764
 20
4.4517610349
 30
0.0
 10
5.2585722585
 20
4.4217201027
 30
0.0
 10
5.2222245414
 20
4.3934516123
 30
0.0
 10
5.1983830539
 20
4.3708099973
 30
0.0
 10
5.1810754432
 20
4.3504592606
 30
0.0
 10
5.1690039724
 20
4.333520005
 30
0.0
 10
5.1582898847
 20
4.3164547575
 30
0.0
 10
5.1470900085
 20
4.2944125492
 30
0.0
 10
5.1389023743
 20
4.271396846
 30
0.0
 10
5.1343217298
 20
4.2527646869
 30
0.0
 10
5.1310652708
 20
4.2341255864
 30
0.0
 10
5.1300795206
 20
4.2199574652
 30
0.0
 10
5.1300795206
 20
4.21054935
 30
0.0
 11
5.5363258317
 21
4.4978114799
 31
0.0
 11
5.4965469873
 21
4.4964258464
 31
0.0
 11
5.4570850188
 21
4.4922908417
 31
0.0
 11
5.3808536768
 21
4.4759428002
 31
0.0
 11
5.3106303232
 21
4.4493970356
 31
0.0
 11
5.2490646523
 21
4.4136734589
 31
0.0
 11
5.2222919634
 21
4.3927850583
 31
0.0
 11
5.1985415994
 21
4.3701436261
 31
0.0
 11
5.1780487463
 21
4.3459626016
 31
0.0
 11
5.1690827905
 21
4.3333687257
 31
0.0
 11
5.1610003878
 21
4.3204794854
 31
0.0
 11
5.1475711314
 21
4.293936834
 31
0.0
 11
5.1378843744
 21
4.2665908665
 31
0.0
 11
5.1344733825
 21
4.2526992723
 31
0.0
 11
5.1320324813
 21
4.2387060475
 31
0.0
 11
5.1300795206
 21
4.21054935
 31
0.0
  0
SPLINE
  5
325
100
AcDbEntity
  8
0
100
AcDbSpline
 62
6
  6
CONTINUOUS
 70
0
 71
3
 72
12
 73
8
 74
6
 42
0.0000001
 43
0.0000001
 44
0.0000000001
 12
0.194340517
 22
0.0974089637
 32
0.0
 13
0.2173316306
 23
0.0048687887
 33
0.0
 40
0.0
 40
0.0
 40
0.0
 40
0.0
 40
0.2417100995
 40
0.4905052611
 40
0.7441018013
 40
0.8719452482
 40
1.0
 40
1.0
 40
1.0
 40
1.0
 10
5.3262433334
 20
3.6815514444
 30
0.0
 10
5.3419013553
 20
3.6893996878
 30
0.0
 10
5.374698378
 20
3.7033561357
 30
0.0
 10
5.426498188
 20
3.7186869773
 30
0.0
 10
5.4715273954
 20
3.7268560831
 30
0.0
 10
5.5082722569
 20
3.7305647867
 30
0.0
 10
5.526803862
 20
3.7314642202
 30
0.0
 10
5.5360806447
 20
3.7316720441
 30
0.0
 11
5.3262433334
 21
3.6815514444
 31
0.0
 11
5.3745522095
 21
3.7022195277
 31
0.0
 11
5.4263899581
 21
3.7176465971
 31
0.0
 11
5.4806255244
 21
3.7275279649
 31
0.0
 11
5.5082760302
 21
3.7303228223
 31
0.0
 11
5.5360806447
 21
3.7316720441
 31
0.0
  0
SPLINE
  5
326
100
AcDbEntity
  8
0
100
AcDbSpline
 62
6
  6
CONTINUOUS
 70
0
 71
3
 72
14
 73
10
 74
8
 42
0.0000001
 43
0.0000001
 44
0.0000000001
 12
0.2089155767
 22
-0.0001093334
 32
0.0
 13
0.1895580616
 23
-0.0878263709
 33
0.0
 40
0.0
 40
0.0
 40
0.0
 40
0.0
 40
0.1293322812
 40
0.258050483
 40
0.3858259832
 40
0.5123396951
 40
0.6372955703
 40
0.7604109961
 40
1.0
 40
1.0
 40
1.0
 40
1.0
 10
5.548272492
 20
3.7318055015
 30
0.0
 10
5.5572790014
 20
3.7318007881
 30
0.0
 10
5.5752523902
 20
3.7313341866
 30
0.0
 10
5.6020524795
 20
3.7292706922
 30
0.0
 10
5.6285178242
 20
3.7258592692
 30
0.0
 10
5.6545098793
 20
3.7211124321
 30
0.0
 10
5.6798986291
 20
3.7150624545
 30
0.0
 10
5.7124654937
 20
3.7053996758
 30
0.0
 10
5.7360637081
 20
3.6961839307
 30
0.0
 10
5.7512023838
 20
3.6891698531
 30
0.0
 11
5.548272492
 21
3.7318055015
 31
0.0
 11
5.5752829056
 21
3.7311036087
 31
0.0
 11
5.6020945245
 21
3.7290357748
 31
0.0
 11
5.6285688984
 21
3.7256162767
 31
0.0
 11
5.6545684043
 21
3.7208615954
 31
0.0
 11
5.6799606522
 21
3.714802148
 31
0.0
 11
5.7046152908
 21
3.7074737828
 31
0.0
 11
5.7512023838
 21
3.6891698531
 31
0.0
  0
SPLINE
  5
327
100
AcDbEntity
  8
0
100
AcDbSpline
 62
6
  6
CONTINUOUS
 70
0
 71
3
 72
9
 73
5
 74
3
 42
0.0000001
 43
0.0000001
 44
0.0000000001
 12
0.0182023163
 22
0.0656940462
 32
0.0
 13
0.0356503636
 23
0.0581040755
 33
0.0
 40
0.0
 40
0.0
 40
0.0
 40
0.0
 40
0.4932071314
 40
1.0
 40
1.0
 40
1.0
 40
1.0
 10
5.1380739701
 20
3.3735896358
 30
0.0
 10
5.1410664742
 20
3.3843898932
 30
0.0
 10
5.1487709339
 20
3.4058626398
 30
0.0
 10
5.1594133682
 20
3.4260277786
 30
0.0
 10
5.1654358182
 20
3.4358433556
 30
0.0
 11
5.1380739701
 21
3.3735896358
 31
0.0
 11
5.1493809351
 21
3.4052528368
 31
0.0
 11
5.1654358182
 21
3.4358433556
 31
0.0
  0
SPLINE
  5
328
100
AcDbEntity
  8
0
100
AcDbSpline
 62
6
  6
CONTINUOUS
 70
0
 71
3
 72
14
 73
10
 74
8
 42
0.0000001
 43
0.0000001
 44
0.0000000001
 12
0.1165977511
 22
0.1900346546
 32
0.0
 13
0.2053812394
 23
0.0867568558
 33
0.0
 40
0.0
 40
0.0
 40
0.0
 40
0.0
 40
0.114307203
 40
0.2315410534
 40
0.3518767903
 40
0.4753911974
 40
0.6020909192
 40
0.7318932618
 40
1.0
 40
1.0
 40
1.0
 40
1.0
 10
5.1654358182
 20
3.4358433556
 30
0.0
 10
5.1698784724
 20
3.4430841322
 30
0.0
 10
5.1795833507
 20
3.4573291196
 30
0.0
 10
5.1962139098
 20
3.4775514768
 30
0.0
 10
5.2149860171
 20
3.496771422
 30
0.0
 10
5.2357733864
 20
3.5148763978
 30
0.0
 10
5.2584547772
 20
3.5317506908
 30
0.0
 10
5.2913619835
 20
3.5527046047
 30
0.0
 10
5.3179393191
 20
3.5659345645
 30
0.0
 10
5.3362940172
 20
3.5736879303
 30
0.0
 11
5.1654358182
 21
3.4358433556
 31
0.0
 11
5.1797624855
 21
3.4569203765
 31
0.0
 11
5.1963406993
 21
3.477127832
 31
0.0
 11
5.2150648604
 21
3.496342797
 31
0.0
 11
5.2358133714
 21
3.5144490989
 31
0.0
 11
5.2584599663
 21
3.5313336656
 31
0.0
 11
5.2828586842
 21
3.5468970402
 31
0.0
 11
5.3362940172
 21
3.5736879303
 31
0.0
  0
SPLINE
  5
329
100
AcDbEntity
  8
0
100
AcDbSpline
 62
6
  6
CONTINUOUS
 70
0
 71
3
 72
12
 73
8
 74
6
 42
0.0000001
 43
0.0000001
 44
0.0000000001
 12
0.1794454157
 22
0.0703234439
 32
0.0
 13
0.1926964976
 23
0.0037555047
 33
0.0
 40
0.0
 40
0.0
 40
0.0
 40
0.0
 40
0.2444443736
 40
0.3685850255
 40
0.4937485622
 40
0.7462906071
 40
1.0
 40
1.0
 40
1.0
 40
1.0
 10
5.3480461843
 20
3.5784712827
 30
0.0
 10
5.3626676584
 20
3.5842013395
 30
0.0
 10
5.3851467399
 20
3.5917864142
 30
0.0
 10
5.4158261978
 20
3.5998735493
 30
0.0
 10
5.4473460081
 20
3.6067017536
 30
0.0
 10
5.4875234158
 20
3.6126627395
 30
0.0
 10
5.5200295279
 20
3.6146849848
 30
0.0
 10
5.5363258317
 20
3.6150025871
 30
0.0
 11
5.3480461843
 21
3.5784712827
 31
0.0
 11
5.3926699178
 21
3.5935812759
 31
0.0
 11
5.4158041748
 21
3.5996853876
 31
0.0
 11
5.4393797933
 21
3.6047958502
 31
0.0
 11
5.4875220377
 21
3.6119656161
 31
0.0
 11
5.5363258317
 21
3.6150025871
 31
0.0
  0
SPLINE
  5
32A
100
AcDbEntity
  8
0
100
AcDbSpline
 62
6
  6
CONTINUOUS
 70
0
 71
3
 72
9
 73
5
 74
3
 42
0.0000001
 43
0.0000001
 44
0.0000000001
 12
0.0159686508
 22
0.0411011046
 32
0.0
 13
0.022934334
 23
0.0376605222
 33
0.0
 40
0.0
 40
0.0
 40
0.0
 40
0.0
 40
0.4952873616
 40
1.0
 40
1.0
 40
1.0
 40
1.0
 10
5.1453870529
 20
3.4453381657
 30
0.0
 10
5.1480234098
 20
3.4521237849
 30
0.0
 10
5.1539794033
 20
3.4655855958
 30
0.0
 10
5.1610991973
 20
3.4784675428
 30
0.0
 10
5.1649576133
 20
3.4848034567
 30
0.0
 11
5.1453870529
 21
3.4453381657
 31
0.0
 11
5.1542087578
 21
3.4653164683
 31
0.0
 11
5.1649576133
 21
3.4848034567
 31
0.0
  0
SPLINE
  5
32B
100
AcDbEntity
  8
0
100
AcDbSpline
 62
6
  6
CONTINUOUS
 70
0
 71
3
 72
13
 73
9
 74
7
 42
0.0000001
 43
0.0000001
 44
0.0000000001
 12
0.1145853964
 22
0.1881609411
 32
0.0
 13
0.2023062133
 23
0.0872155313
 33
0.0
 40
0.0
 40
0.0
 40
0.0
 40
0.0
 40
0.2315387856
 40
0.4752471435
 40
0.6019683999
 40
0.7318450733
 40
0.864644138
 40
1.0
 40
1.0
 40
1.0
 40
1.0
 10
5.1649576133
 20
3.4848034567
 30
0.0
 10
5.1738012679
 20
3.4993256419
 30
0.0
 10
5.1948547685
 20
3.5274340783
 30
0.0
 10
5.2270848806
 20
3.5579650097
 30
0.0
 10
5.2564460165
 20
3.5800943125
 30
0.0
 10
5.2804930557
 20
3.5956154183
 30
0.0
 10
5.306101477
 20
3.6097494856
 30
0.0
 10
5.3239441208
 20
3.6181193029
 30
0.0
 10
5.3330718981
 20
3.6220543474
 30
0.0
 11
5.1649576133
 21
3.4848034567
 31
0.0
 11
5.1953580957
 21
3.5257637726
 31
0.0
 11
5.2341734663
 21
3.5628583125
 31
0.0
 11
5.2564528514
 21
3.5796811266
 31
0.0
 11
5.2804784608
 21
3.5952196317
 31
0.0
 11
5.3060817243
 21
3.6093760762
 31
0.0
 11
5.3330718981
 21
3.6220543474
 31
0.0
  0
SPLINE
  5
32C
100
AcDbEntity
  8
0
100
AcDbSpline
 62
6
  6
CONTINUOUS
 70
0
 71
3
 72
23
 73
19
 74
17
 42
0.0000001
 43
0.0000001
 44
0.0000000001
 12
0.4152226452
 22
0.0080969649
 32
0.0
 13
0.2343723285
 23
-0.3428483886
 33
0.0
 40
0.0
 40
0.0
 40
0.0
 40
0.0
 40
0.0691163901
 40
0.1380776273
 40
0.2066498015
 40
0.2746182788
 40
0.3418286396
 40
0.4081430022
 40
0.4734301275
 40
0.5375642274
 40
0.6004277378
 40
0.6619211695
 40
0.721977625
 40
0.7805497165
 40
0.8376141778
 40
0.8931816877
 40
0.9472876836
 40
1.0
 40
1.0
 40
1.0
 40
1.0
 10
5.5363258317
 20
3.565204627
 30
0.0
 10
5.5458920618
 20
3.5653911714
 30
0.0
 10
5.5650158317
 20
3.5652837588
 30
0.0
 10
5.5935903318
 20
3.563694459
 30
0.0
 10
5.6218918013
 20
3.5606867905
 30
0.0
 10
5.6497623355
 20
3.5562685483
 30
0.0
 10
5.6770600912
 20
3.5504725741
 30
0.0
 10
5.7036534908
 20
3.5433308832
 30
0.0
 10
5.7294115528
 20
3.5348754098
 30
0.0
 10
5.7542086584
 20
3.5251577466
 30
0.0
 10
5.7779204136
 20
3.5142290362
 30
0.0
 10
5.8004237159
 20
3.5021385442
 30
0.0
 10
5.8216096033
 20
3.4889557408
 30
0.0
 10
5.8413737399
 20
3.4747480057
 30
0.0
 10
5.8596129516
 20
3.4595819168
 30
0.0
 10
5.8762412819
 20
3.443540752
 30
0.0
 10
5.8911733535
 20
3.4267065572
 30
0.0
 10
5.900054997
 20
3.4148576264
 30
0.0
 10
5.9041730998
 20
3.4088335155
 30
0.0
 11
5.5363258317
 21
3.565204627
 31
0.0
 11
5.5650295312
 21
3.5650444732
 31
0.0
 11
5.5936248967
 21
3.5634513238
 31
0.0
 11
5.6219428609
 21
3.5604352109
 31
0.0
 11
5.64982127
 21
3.5560101308
 31
0.0
 11
5.6771234367
 21
3.550204683
 31
0.0
 11
5.7037185357
 21
3.5430508284
 31
0.0
 11
5.7294764759
 21
3.5345838811
 31
0.0
 11
5.7542700854
 21
3.5248524993
 31
0.0
 11
5.7779729192
 21
3.5139086611
 31
0.0
 11
5.8004619707
 21
3.5018070774
 31
0.0
 11
5.8216283059
 21
3.4886136424
 31
0.0
 11
5.8413665899
 21
3.4743971105
 31
0.0
 11
5.8595756116
 21
3.4592289764
 31
0.0
 11
5.8761681927
 21
3.4431900592
 31
0.0
 11
5.8910601417
 21
3.4263631611
 31
0.0
 11
5.9041730998
 21
3.4088335155
 31
0.0
  0
SPLINE
  5
32D
100
AcDbEntity
  8
0
100
AcDbSpline
 62
6
  6
CONTINUOUS
 70
0
 71
3
 72
9
 73
5
 74
3
 42
0.0000001
 43
0.0000001
 44
0.0000000001
 12
0.0227482971
 22
-0.0332770386
 32
0.0
 13
0.016719098
 23
-0.036678578
 33
0.0
 40
0.0
 40
0.0
 40
0.0
 40
0.0
 40
0.5054201301
 40
1.0
 40
1.0
 40
1.0
 40
1.0
 10
5.9041730998
 20
3.4088335155
 30
0.0
 10
5.9080055822
 20
3.4032272204
 30
0.0
 10
5.9151415263
 20
3.3918216169
 30
0.0
 10
5.9212725763
 20
3.3798433018
 30
0.0
 10
5.9240288861
 20
3.373796473
 30
0.0
 11
5.9041730998
 21
3.4088335155
 31
0.0
 11
5.9149621821
 21
3.3915516783
 31
0.0
 11
5.9240288861
 21
3.373796473
 31
0.0
  0
SPLINE
  5
32E
100
AcDbEntity
  8
0
100
AcDbSpline
 62
6
  6
CONTINUOUS
 70
0
 71
3
 72
9
 73
5
 74
3
 42
0.0000001
 43
0.0000001
 44
0.0000000001
 12
0.0144513416
 22
-0.0471683889
 32
0.0
 13
0.0023170651
 23
-0.0492780823
 33
0.0
 40
0.0
 40
0.0
 40
0.0
 40
0.0
 40
0.5027896222
 40
1.0
 40
1.0
 40
1.0
 40
1.0
 10
5.9338576318
 20
3.3479354127
 30
0.0
 10
5.9362796267
 20
3.3400301539
 30
0.0
 10
5.9401523065
 20
3.3240000382
 30
0.0
 10
5.9419776034
 20
3.3076070591
 30
0.0
 10
5.9423616264
 20
3.2994398678
 30
0.0
 11
5.9338576318
 21
3.3479354127
 31
0.0
 11
5.93965634
 21
3.3238188713
 31
0.0
 11
5.9423616264
 21
3.2994398678
 31
0.0
  0
SPLINE
  5
32F
100
AcDbEntity
  8
0
100
AcDbSpline
 62
6
  6
CONTINUOUS
 70
0
 71
3
 72
11
 73
7
 74
5
 42
0.0000001
 43
0.0000001
 44
0.0000000001
 12
0.1289153242
 22
0.0375862622
 32
0.0
 13
0.1342513417
 23
0.0029094989
 33
0.0
 40
0.0
 40
0.0
 40
0.0
 40
0.0
 40
0.247128179
 40
0.4341977264
 40
0.6223084179
 40
1.0
 40
1.0
 40
1.0
 40
1.0
 10
5.4039202411
 20
3.6078855552
 30
0.0
 10
5.4145397775
 20
3.6109817634
 30
0.0
 10
5.4333911501
 20
3.6157833888
 30
0.0
 10
5.4607492129
 20
3.6210778711
 30
0.0
 10
5.4941173726
 20
3.6258576673
 30
0.0
 10
5.5194336154
 20
3.6276213663
 30
0.0
 10
5.5363354826
 20
3.6279876641
 30
0.0
 11
5.4039202411
 21
3.6078855552
 31
0.0
 11
5.43607544
 21
3.6160887692
 31
0.0
 11
5.4607369225
 21
3.6208676265
 31
0.0
 11
5.4857413683
 21
3.6244519598
 31
0.0
 11
5.5363354826
 21
3.6279876641
 31
0.0
  0
SPLINE
  5
330
100
AcDbEntity
  8
0
100
AcDbSpline
 62
6
  6
CONTINUOUS
 70
0
 71
3
 72
10
 73
6
 74
4
 42
0.0000001
 43
0.0000001
 44
0.0000000001
 12
0.1606251527
 22
0.0034810729
 32
0.0
 13
0.153554859
 23
-0.0472595264
 33
0.0
 40
0.0
 40
0.0
 40
0.0
 40
0.0
 40
0.2544462046
 40
0.6318699283
 40
1.0
 40
1.0
 40
1.0
 40
1.0
 10
5.5363354826
 20
3.6279876641
 30
0.0
 10
5.5499589694
 20
3.6282829127
 30
0.0
 10
5.583830121
 20
3.6277139714
 30
0.0
 10
5.6371582796
 20
3.6216198059
 30
0.0
 10
5.6761177423
 20
3.6123466121
 30
0.0
 10
5.6949604627
 20
3.6065473945
 30
0.0
 11
5.5363354826
 21
3.6279876641
 31
0.0
 11
5.5772096294
 21
3.627292537
 31
0.0
 11
5.6374489915
 21
3.6203510901
 31
0.0
 11
5.6949604627
 21
3.6065473945
 31
0.0
  0
SPLINE
  5
331
100
AcDbEntity
  8
0
100
AcDbSpline
 62
6
  6
CONTINUOUS
 70
0
 71
3
 72
22
 73
18
 74
16
 42
0.0000001
 43
0.0000001
 44
0.0000000001
 12
0.4156575586
 22
0.0081008421
 32
0.0
 13
0.2339840502
 23
-0.3436397735
 33
0.0
 40
0.0
 40
0.0
 40
0.0
 40
0.0
 40
0.0691358141
 40
0.138115391
 40
0.2067038817
 40
0.2746865565
 40
0.3419091841
 40
0.4082336142
 40
0.473528269
 40
0.5376667987
 40
0.6005313173
 40
0.6620233574
 40
0.7805775991
 40
0.837636866
 40
0.8931983167
 40
0.9472964748
 40
1.0
 40
1.0
 40
1.0
 40
1.0
 10
5.5363258317
 20
3.6150025871
 30
0.0
 10
5.5459047729
 20
3.6151892732
 30
0.0
 10
5.5650538255
 20
3.6150808621
 30
0.0
 10
5.5936655884
 20
3.613486276
 30
0.0
 10
5.6220029072
 20
3.6104694712
 30
0.0
 10
5.6499073758
 20
3.6060384853
 30
0.0
 10
5.6772368174
 20
3.6002264281
 30
0.0
 10
5.7038591024
 20
3.593065128
 30
0.0
 10
5.7296429962
 20
3.5845870177
 30
0.0
 10
5.754461792
 20
3.5748444778
 30
0.0
 10
5.7781927853
 20
3.5638866561
 30
0.0
 10
5.8078455047
 20
3.5479243174
 30
0.0
 10
5.8352836494
 20
3.5296329896
 30
0.0
 10
5.8599092999
 20
3.5091059717
 30
0.0
 10
5.8765321951
 20
3.4930267471
 30
0.0
 10
5.8914513572
 20
3.4761539883
 30
0.0
 10
5.9003201848
 20
3.4642788119
 30
0.0
 10
5.9044307795
 20
3.4582418027
 30
0.0
 11
5.5363258317
 21
3.6150025871
 31
0.0
 11
5.5650676579
 21
3.614840933
 31
0.0
 11
5.5937004003
 21
3.6132424467
 31
0.0
 11
5.6220542028
 21
3.6102171885
 31
0.0
 11
5.6499664939
 21
3.6057793604
 31
0.0
 11
5.6773003151
 21
3.5999577284
 31
0.0
 11
5.7039243351
 21
3.5927842581
 31
0.0
 11
5.7297080207
 21
3.5842946936
 31
0.0
 11
5.7545236297
 21
3.5745379919
 31
0.0
 11
5.7782440312
 21
3.5635659973
 31
0.0
 11
5.8007463947
 21
3.5514339519
 31
0.0
 11
5.8416638188
 21
3.5239566022
 31
0.0
 11
5.8598717589
 21
3.5087517955
 31
0.0
 11
5.8764579919
 21
3.4926751946
 31
0.0
 11
5.8913370657
 21
3.4758098669
 31
0.0
 11
5.9044307795
 21
3.4582418027
 31
0.0
  0
SPLINE
  5
332
100
AcDbEntity
  8
0
100
AcDbSpline
 62
6
  6
CONTINUOUS
 70
0
 71
3
 72
9
 73
5
 74
3
 42
0.0000001
 43
0.0000001
 44
0.0000000001
 12
0.0219944646
 22
-0.0323020856
 32
0.0
 13
0.0163328993
 23
-0.0355023606
 33
0.0
 40
0.0
 40
0.0
 40
0.0
 40
0.0
 40
0.505259462
 40
1.0
 40
1.0
 40
1.0
 40
1.0
 10
5.9044307795
 20
3.4582418027
 30
0.0
 10
5.9081350833
 20
3.4528014913
 30
0.0
 10
5.9150455131
 20
3.4417403399
 30
0.0
 10
5.9210123448
 20
3.4301406915
 30
0.0
 10
5.9237058606
 20
3.4242858725
 30
0.0
 11
5.9044307795
 21
3.4582418027
 31
0.0
 11
5.914877315
 21
3.4414865171
 31
0.0
 11
5.9237058606
 21
3.4242858725
 31
0.0
  0
SPLINE
  5
333
100
AcDbEntity
  8
0
100
AcDbSpline
 62
6
  6
CONTINUOUS
 70
0
 71
3
 72
13
 73
9
 74
7
 42
0.0000001
 43
0.0000001
 44
0.0000000001
 12
0.2044114862
 22
0.1112627629
 32
0.0
 13
0.2326746898
 23
0.0050938042
 33
0.0
 40
0.0
 40
0.0
 40
0.0
 40
0.0
 40
0.2405156869
 40
0.3640001236
 40
0.4891978936
 40
0.6157753639
 40
0.7433706096
 40
1.0
 40
1.0
 40
1.0
 40
1.0
 10
5.3126558385
 20
3.7265244942
 30
0.0
 10
5.3290438948
 20
3.7354446408
 30
0.0
 10
5.3548063631
 20
3.7472560988
 30
0.0
 10
5.3906218263
 20
3.7598465526
 30
0.0
 10
5.4186355407
 20
3.7678345754
 30
0.0
 10
5.4473782824
 20
3.7742383355
 30
0.0
 10
5.4864996908
 20
3.7806364835
 30
0.0
 10
5.5163000251
 20
3.7829426534
 30
0.0
 10
5.5362037464
 20
3.7833783933
 30
0.0
 11
5.3126558385
 21
3.7265244942
 31
0.0
 11
5.3634766022
 21
3.7499869457
 31
0.0
 11
5.3905846185
 21
3.7595295795
 31
0.0
 11
5.4186018199
 21
3.767530864
 31
0.0
 11
5.4473531051
 21
3.7739466824
 31
0.0
 11
5.4766583631
 21
3.7787438231
 31
0.0
 11
5.5362037464
 21
3.7833783933
 31
0.0
  0
SPLINE
  5
334
100
AcDbEntity
  8
0
100
AcDbSpline
 62
6
  6
CONTINUOUS
 70
0
 71
3
 72
15
 73
11
 74
9
 42
0.0000001
 43
0.0000001
 44
0.0000000001
 12
0.2322988089
 22
0.0050855753
 32
0.0
 13
0.2082101104
 23
-0.1031365581
 33
0.0
 40
0.0
 40
0.0
 40
0.0
 40
0.0
 40
0.1296292048
 40
0.2586968889
 40
0.3868031682
 40
0.5135537424
 40
0.6385750602
 40
0.7615277563
 40
0.8820938541
 40
1.0
 40
1.0
 40
1.0
 40
1.0
 10
5.5362037464
 20
3.7833783933
 30
0.0
 10
5.5462413163
 20
3.7835981397
 30
0.0
 10
5.5662899427
 20
3.7834757297
 30
0.0
 10
5.5962048559
 20
3.781598555
 30
0.0
 10
5.6257447854
 20
3.7780536269
 30
0.0
 10
5.6547231269
 20
3.7728667317
 30
0.0
 10
5.6829557609
 20
3.7660655541
 30
0.0
 10
5.7102677766
 20
3.7577074185
 30
0.0
 10
5.7364853407
 20
3.7478453863
 30
0.0
 10
5.753324135
 20
3.7402162393
 30
0.0
 10
5.7615072189
 20
3.7361627612
 30
0.0
 11
5.5362037464
 21
3.7833783933
 31
0.0
 11
5.5663230884
 21
3.7831909683
 31
0.0
 11
5.596253505
 21
3.7813101517
 31
0.0
 11
5.6258066753
 21
3.7777564429
 31
0.0
 11
5.6547950013
 21
3.772556247
 31
0.0
 11
5.6830338535
 21
3.7657425217
 31
0.0
 11
5.7103472288
 21
3.7573672651
 31
0.0
 11
5.7365607508
 21
3.7474859959
 31
0.0
 11
5.7615072189
 21
3.7361627612
 31
0.0
  0
ENDSEC
  0
SECTION
  2
OBJECTS
  0
DICTIONARY
  5
C
100
AcDbDictionary
280
0
281
1
  3
ACAD_GROUP
350
D
  3
ACAD_MLINESTYLE
350
17
  3
ACAD_LAYOUT
350
1A
  3
ACAD_PLOTSETTINGS
350
19
  3
ACAD_PLOTSTYLENAME
350
E
  0
DICTIONARY
  5
D
102
{ACAD_REACTORS
330
C
102
}
100
AcDbDictionary
280
0
281
1
  0
ACDBDICTIONARYWDFLT
  5
E
102
{ACAD_REACTORS
330
C
102
}
100
AcDbDictionary
281
1
  3
Normal
350
F
100
AcDbDictionaryWithDefault
340
F
  0
DICTIONARY
  5
17
102
{ACAD_REACTORS
330
C
102
}
100
AcDbDictionary
280
0
281
1
  3
Standard
350
18
  0
DICTIONARY
  5
19
102
{ACAD_REACTORS
330
C
102
}
100
AcDbDictionary
281
1
  0
DICTIONARY
  5
1A
102
{ACAD_REACTORS
330
C
102
}
100
AcDbDictionary
281
1
  3
Model
350
335
  3
Layout1
350
336
  0
ACDBPLACEHOLDER
  5
F
102
{ACAD_REACTORS
330
E
102
}
  0
MLINESTYLE
  5
18
102
{ACAD_REACTORS
330
17
102
}
100
AcDbMlineStyle
  2
STANDARD
 70
0
  3

 62
256
 51
90.0
 52
90.0
 71
2
 49
0.5
 62
256
  6
BYLAYER
 49
-0.5
 62
256
  6
BYLAYER
  0
LAYOUT
  5
335
102
{ACAD_REACTORS
330
1A
102
}
100
AcDbPlotSettings
  1

  2
none_device
  4
ANSI_A_(11.00_x_8.50_Inches)
  6

 40
0.0
 41
0.0
 42
0.0
 43
0.0
 44
279.4
 45
215.9
 46
0.0
 47
0.0
 48
0.0
 49
0.0
140
0.0
141
0.0
142
1.0
143
1.0
 70
1024
 72
0
 73
0
 74
0
  7

 75
0
147
1.0
148
0.0
149
0.0
100
AcDbLayout
  1
Model
 70
0
 71
0
 10
0.0
 20
0.0
 11
11.0
 21
8.5
 12
0.0
 22
0.0
 32
0.0
 14
0.0
 24
0.0
 34
0.0
 15
0.0
 25
0.0
 35
0.0
146
0.0
 13
0.0
 23
0.0
 33
0.0
 16
1.0
 26
0.0
 36
0.0
 17
0.0
 27
1.0
 37
0.0
 76
0
330
203
345
0
346
0
  0
LAYOUT
  5
336
102
{ACAD_REACTORS
330
1A
102
}
100
AcDbPlotSettings
  1

  2
none_device
  4
ANSI_A_(11.00_x_8.50_Inches)
  6

 40
0.0
 41
0.0
 42
0.0
 43
0.0
 44
279.4
 45
215.9
 46
0.0
 47
0.0
 48
0.0
 49
0.0
140
0.0
141
0.0
142
1.0
143
1.0
 70
0
 72
0
 73
0
 74
0
  7

 75
0
147
1.0
148
0.0
149
0.0
100
AcDbLayout
  1
Layout1
 70
0
 71
1
 10
0.0
 20
0.0
 11
11.0
 21
8.5
 12
0.0
 22
0.0
 32
0.0
 14
0.0
 24
0.0
 34
0.0
 15
0.0
 25
0.0
 35
0.0
146
0.0
 13
0.0
 23
0.0
 33
0.0
 16
1.0
 26
0.0
 36
0.0
 17
0.0
 27
1.0
 37
0.0
 76
0
330
204
345
0
346
0
  0
ENDSEC
  0
EOF
