  0
SECTION
  2
HEADER
  9
$ACADVER
  1
AC1015
  9
$DWGCODEPAGE
  3
ANSI_1252
  9
$EXTMAX
 10
17.0
 20
11.0
 30
0.0
  9
$EXTMIN
 10
0.0
 20
0.0
 30
0.0
  9
$LIMMIN
 10
0.0
 20
0.0
  9
$LIMMAX
 10
17.0
 20
11.0
  9
$VIEWCTR
 10
8.5
 20
5.5
  9
$VIEWSIZE
 40
11.0
  9
$CLAYER
  8
0
  9
$LTSCALE
 40
0.935
  9
$CELTYPE
  6
BYLAYER
  9
$DIMSCALE
 40
1.0
  9
$DIMASZ
 40
0.1
  9
$DIMEXO
 40
0.10625
  9
$DIMDLI
 40
0.646
  9
$DIMEXE
 40
0.306
  9
$DIMCEN
 40
0.153
  9
$DIMLFAC
 40
1.0
  9
$DIMBLK
  1
_FILLED
  9
$DIMTXT
 40
0.08
  9
$DIMTOL
 70
1
  9
$DIMLIM
 70
0
  9
$DIMTFAC
 40
1.0
  9
$DIMTP
 40
0.01
  9
$DIMTM
 40
0.01
  9
$PDMODE
 70
3
  9
$PDSIZE
 40
0.06
  9
$HANDSEED
  5
34E
  9
$TILEMODE
 70
1
  9
$MEASUREMENT
 70
0
  9
$INSUNITS
 70
1
  0
ENDSEC
  0
SECTION
  2
CLASSES
  0
CLASS
  1
ACDBDICTIONARYWDFLT
  2
AcDbDictionaryWithDefault
  3
AutoCAD 2000
 90
0
280
0
281
0
  0
CLASS
  1
ACDBPLACEHOLDER
  2
AcDbPlaceHolder
  3
AutoCAD 2000
 90
0
280
0
281
0
  0
CLASS
  1
LAYOUT
  2
AcDbLayout
  3
AutoCAD 2000
 90
0
280
0
281
0
  0
ENDSEC
  0
SECTION
  2
TABLES
  0
TABLE
  2
VPORT
  5
8
100
AcDbSymbolTable
 70
2
  0
VPORT
  5
1F4
100
AcDbSymbolTableRecord
100
AcDbViewportTableRecord
  2
*ACTIVE
 70
0
 10
0.0
 20
0.0
 11
1.0
 21
1.0
 12
8.5
 22
5.5
 13
0.0
 23
0.0
 14
1.0
 24
1.0
 15
0.0
 25
0.0
 16
0.0
 26
0.0
 36
1.0
 17
0.0
 27
0.0
 37
0.0
 40
11.0
 41
1.5454545455
 42
50.0
 43
0.0
 44
0.0
 50
0.0
 51
0.0
 71
0
 72
100
 73
1
 74
1
 75
0
 76
0
 77
0
 78
0
  0
ENDTAB
  0
TABLE
  2
LTYPE
  5
5
100
AcDbSymbolTable
 70
6
  0
LTYPE
  5
14
100
AcDbSymbolTableRecord
100
AcDbLinetypeTableRecord
  2
BYBLOCK
 70
0
  3

 72
65
 73
0
 40
0.0
  0
LTYPE
  5
15
100
AcDbSymbolTableRecord
100
AcDbLinetypeTableRecord
  2
BYLAYER
 70
0
  3

 72
65
 73
0
 40
0.0
  0
LTYPE
  5
16
100
AcDbSymbolTableRecord
100
AcDbLinetypeTableRecord
  2
CONTINUOUS
 70
64
  3
Solid line
 72
65
 73
0
 40
0.0
  0
LTYPE
  5
1F5
100
AcDbSymbolTableRecord
100
AcDbLinetypeTableRecord
  2
CENTER
 70
64
  3
____ _ ____ _ ____ _ ____ _ ____ _ ____ _ ____
 72
65
 73
4
 40
0.6
 49
0.375
 74
0
 49
-0.075
 74
0
 49
0.075
 74
0
 49
-0.075
 74
0
  0
LTYPE
  5
1F6
100
AcDbSymbolTableRecord
100
AcDbLinetypeTableRecord
  2
HIDDEN
 70
64
  3
- - - - - - - - - - - - - - - - - - - -
 72
65
 73
2
 40
0.2
 49
0.1
 74
0
 49
-0.1
 74
0
  0
LTYPE
  5
1F7
100
AcDbSymbolTableRecord
100
AcDbLinetypeTableRecord
  2
PHANTOM
 70
64
  3
_____ _ _ _____ _ _ _____ _ _ _____
 72
65
 73
6
 40
0.8
 49
0.45
 74
0
 49
-0.05
 74
0
 49
0.1
 74
0
 49
-0.05
 74
0
 49
0.1
 74
0
 49
-0.05
 74
0
  0
LTYPE
  5
1F8
100
AcDbSymbolTableRecord
100
AcDbLinetypeTableRecord
  2
DOT
 70
64
  3
. . . . . . . . . . . . . . . . . . . .
 72
65
 73
2
 40
0.2
 49
0.1
 74
0
 49
-0.1
 74
0
  0
LTYPE
  5
1F9
100
AcDbSymbolTableRecord
100
AcDbLinetypeTableRecord
  2
DASHED
 70
64
  3
- - - - - - - - - - - - - - - - - - - -
 72
65
 73
2
 40
0.2
 49
0.1
 74
0
 49
-0.1
 74
0
  0
ENDTAB
  0
TABLE
  2
LAYER
  5
2
100
AcDbSymbolTable
 70
36
  0
LAYER
  5
10
100
AcDbSymbolTableRecord
100
AcDbLayerTableRecord
  2
0
 70
0
 62
7
  6
CONTINUOUS
370
-3
390
F
  0
LAYER
  5
1FA
100
AcDbSymbolTableRecord
100
AcDbLayerTableRecord
  2
DEFAULT_1
 70
0
 62
7
  6
CENTER
370
-3
390
F
  0
LAYER
  5
1FB
100
AcDbSymbolTableRecord
100
AcDbLayerTableRecord
  2
DEFAULT_2
 70
0
 62
8
  6
HIDDEN
370
-3
390
F
  0
LAYER
  5
1FC
100
AcDbSymbolTableRecord
100
AcDbLayerTableRecord
  2
DEFAULT_3
 70
0
 62
7
  6
PHANTOM
370
-3
390
F
  0
LAYER
  5
1FD
100
AcDbSymbolTableRecord
100
AcDbLayerTableRecord
  2
DEFAULT_COORDINATE_SYSTEM
 70
0
 62
7
  6
CONTINUOUS
370
-3
390
F
  0
LAYER
  5
1FE
100
AcDbSymbolTableRecord
100
AcDbLayerTableRecord
  2
DEFAULT_DATUM_AXES
 70
0
 62
7
  6
CONTINUOUS
370
-3
390
F
  0
LAYER
  5
1FF
100
AcDbSymbolTableRecord
100
AcDbLayerTableRecord
  2
DEFAULT_DATUM_CURVES
 70
0
 62
7
  6
CONTINUOUS
370
-3
390
F
  0
LAYER
  5
200
100
AcDbSymbolTableRecord
100
AcDbLayerTableRecord
  2
DEFAULT_DATUM_PLANES
 70
0
 62
7
  6
CONTINUOUS
370
-3
390
F
  0
ENDTAB
  0
TABLE
  2
STYLE
  5
3
100
AcDbSymbolTable
 70
1
  0
STYLE
  5
11
100
AcDbSymbolTableRecord
100
AcDbTextStyleTableRecord
  2
STANDARD
 70
0
 40
0.0
 41
0.8
 50
0.0
 71
0
 42
0.2
  3
txt
  4

  0
STYLE
  5
201
100
AcDbSymbolTableRecord
100
AcDbTextStyleTableRecord
  2
TEXTSTYLE_1
 70
0
 40
0.0
 41
0.8
 50
0.0
 71
0
 42
0.2
  3
gdt
  4

  0
ENDTAB
  0
TABLE
  2
VIEW
  5
6
100
AcDbSymbolTable
 70
0
  0
ENDTAB
  0
TABLE
  2
UCS
  5
7
100
AcDbSymbolTable
 70
0
  0
ENDTAB
  0
TABLE
  2
APPID
  5
9
100
AcDbSymbolTable
 70
1
  0
APPID
  5
202
100
AcDbSymbolTableRecord
100
AcDbRegAppTableRecord
  2
ACAD
 70
0
  0
ENDTAB
  0
TABLE
  2
BLOCK_RECORD
  5
1
100
AcDbSymbolTable
 70
0
  0
BLOCK_RECORD
  5
203
100
AcDbSymbolTableRecord
100
AcDbBlockTableRecord
  2
*Model_Space
  0
BLOCK_RECORD
  5
204
100
AcDbSymbolTableRecord
100
AcDbBlockTableRecord
  2
*Paper_Space
  0
ENDTAB
  0
TABLE
  2
DIMSTYLE
  5
A
100
AcDbSymbolTable
 70
1
100
AcDbDimStyleTable
 71
0
  0
DIMSTYLE
105
205
100
AcDbSymbolTableRecord
100
AcDbDimStyleTableRecord
  2
STANDARD
 70
0
  3

  4

 40
1.0
 41
0.1
 42
0.0625
 43
0.38
 44
0.18
 45
0.0
 46
0.0
 47
0.01
 48
0.01
140
0.08
141
0.09
142
0.0
143
25.4
144
1.0
145
0.0
146
1.0
147
0.09
 71
1.0
 72
0.0
 73
1
 74
1
 75
0
 76
0
 77
0
 78
4
170
0
171
2
172
0
173
0
174
0
175
0
176
0
177
0
178
0
270
2
271
2
272
2
273
2
274
2
275
0
280
0
281
0
282
0
283
1
284
4
285
0
286
0
287
3
288
0
340
11
  0
ENDTAB
  0
ENDSEC
  0
SECTION
  2
BLOCKS
  0
BLOCK
  5
20
100
AcDbEntity
  8
0
100
AcDbBlockBegin
  2
*Model_Space
 70
0
 10
0.0
 20
0.0
 30
0.0
  3
*Model_Space
  1

  0
ENDBLK
  5
21
100
AcDbEntity
  8
0
100
AcDbBlockEnd
  0
BLOCK
  5
1C
100
AcDbEntity
  8
0
100
AcDbBlockBegin
  2
*Paper_Space
 70
0
 10
0.0
 20
0.0
 30
0.0
  3
*Paper_Space
  1

  0
ENDBLK
  5
1D
100
AcDbEntity
  8
0
100
AcDbBlockEnd
  0
ENDSEC
  0
SECTION
  2
ENTITIES
  0
LINE
  5
206
100
AcDbEntity
  8
0
100
AcDbLine
 62
9
  6
CONTINUOUS
 10
6.3315282549
 20
5.09375
 11
6.3315282549
 21
5.90625
  0
LINE
  5
207
100
AcDbEntity
  8
0
100
AcDbLine
 62
6
  6
CONTINUOUS
 10
5.2994533044
 20
5.8062654037
 11
5.2769138109
 21
5.8283583222
  0
LINE
  5
208
100
AcDbEntity
  8
0
100
AcDbLine
 62
6
  6
CONTINUOUS
 10
13.4890002723
 20
5.09375
 11
5.870320835
 21
5.09375
  0
LINE
  5
209
100
AcDbEntity
  8
0
100
AcDbLine
 62
6
  6
CONTINUOUS
 10
3.9276282549
 20
5.09375
 11
5.4662517359
 21
5.09375
  0
LINE
  5
20A
100
AcDbEntity
  8
0
100
AcDbLine
 62
6
  6
CONTINUOUS
 10
5.8861037139
 20
5.13241
 11
5.8880002723
 21
5.13241
  0
LINE
  5
20B
100
AcDbEntity
  8
0
100
AcDbLine
 62
6
  6
CONTINUOUS
 10
5.8880002722
 20
5.1324105437
 11
5.948756759
 21
5.1425930796
  0
LINE
  5
20C
100
AcDbEntity
  8
0
100
AcDbLine
 62
6
  6
CONTINUOUS
 10
13.4890002723
 20
5.90625
 11
5.8450665163
 21
5.90625
  0
LINE
  5
20D
100
AcDbEntity
  8
0
100
AcDbLine
 62
6
  6
CONTINUOUS
 10
3.9276282549
 20
5.90625
 11
5.446058534
 21
5.90625
  0
LINE
  5
20E
100
AcDbEntity
  8
0
100
AcDbLine
 62
9
  6
CONTINUOUS
 10
11.0851002723
 20
5.09375
 11
11.0851002723
 21
5.90625
  0
ARC
  5
20F
100
AcDbEntity
  8
0
100
AcDbCircle
 62
6
  6
CONTINUOUS
 10
3.9276282549
 20
5.5
 40
0.40625
100
AcDbArc
 50
90.0
 51
270.0
  0
ARC
  5
210
100
AcDbEntity
  8
0
100
AcDbCircle
 62
6
  6
CONTINUOUS
 10
5.7527320204
 20
5.3858041124
 40
0.3030577837
100
AcDbArc
 50
228.4865437235
 51
230.4750025134
  0
ARC
  5
211
100
AcDbEntity
  8
0
100
AcDbCircle
 62
6
  6
CONTINUOUS
 10
5.8032406577
 20
5.3858041124
 40
0.3030577836
100
AcDbArc
 50
228.4865437234
 51
230.4750025134
  0
ARC
  5
212
100
AcDbEntity
  8
0
100
AcDbCircle
 62
6
  6
CONTINUOUS
 10
5.9029748968
 20
5.3842259195
 40
0.3010257145
100
AcDbArc
 50
229.456167249
 51
230.1174613335
  0
ARC
  5
213
100
AcDbEntity
  8
0
100
AcDbCircle
 62
6
  6
CONTINUOUS
 10
5.6996181221
 20
5.3825746127
 40
0.2989102311
100
AcDbArc
 50
229.4742038165
 51
231.1441862281
  0
ARC
  5
214
100
AcDbEntity
  8
0
100
AcDbCircle
 62
6
  6
CONTINUOUS
 10
5.7986434143
 20
5.3802231458
 40
0.2958271681
100
AcDbArc
 50
230.4738908166
 51
231.8647805608
  0
ARC
  5
215
100
AcDbEntity
  8
0
100
AcDbCircle
 62
6
  6
CONTINUOUS
 10
5.8044626087
 20
5.3796575469
 40
0.2950768596
100
AcDbArc
 50
229.4584972653
 51
232.88354863
  0
ARC
  5
216
100
AcDbEntity
  8
0
100
AcDbCircle
 62
6
  6
CONTINUOUS
 10
5.6965365543
 20
5.3787623379
 40
0.2940082485
100
AcDbArc
 50
231.1457494712
 51
231.6930005467
  0
ARC
  5
217
100
AcDbEntity
  8
0
100
AcDbCircle
 62
6
  6
CONTINUOUS
 10
5.7939540794
 20
5.3741965414
 40
0.288191155
100
AcDbArc
 50
231.8581953026
 51
233.9238300911
  0
ARC
  5
218
100
AcDbEntity
  8
0
100
AcDbCircle
 62
6
  6
CONTINUOUS
 10
5.8925287922
 20
5.371156946
 40
0.2842991249
100
AcDbArc
 50
230.0440823257
 51
236.6478972866
  0
ARC
  5
219
100
AcDbEntity
  8
0
100
AcDbCircle
 62
6
  6
CONTINUOUS
 10
5.7408626435
 20
5.3708894643
 40
0.2839997668
100
AcDbArc
 50
230.4071160703
 51
236.6728378836
  0
ARC
  5
21A
100
AcDbEntity
  8
0
100
AcDbCircle
 62
6
  6
CONTINUOUS
 10
5.6887877906
 20
5.3686263415
 40
0.2812513343
100
AcDbArc
 50
231.6517294909
 51
236.5893426667
  0
ARC
  5
21B
100
AcDbEntity
  8
0
100
AcDbCircle
 62
6
  6
CONTINUOUS
 10
5.6430991367
 20
5.3665692916
 40
0.2787111864
100
AcDbArc
 50
231.6302213061
 51
237.7338845633
  0
ARC
  5
21C
100
AcDbEntity
  8
0
100
AcDbCircle
 62
6
  6
CONTINUOUS
 10
5.8839486491
 20
5.3582608129
 40
0.2688096822
100
AcDbArc
 50
236.6643074
 51
238.956137547
  0
ARC
  5
21D
100
AcDbEntity
  8
0
100
AcDbCircle
 62
6
  6
CONTINUOUS
 10
5.6312678005
 20
5.3579790499
 40
0.2684998401
100
AcDbArc
 50
236.6885722732
 51
238.8505953957
  0
ARC
  5
21E
100
AcDbEntity
  8
0
100
AcDbCircle
 62
6
  6
CONTINUOUS
 10
5.7322850753
 20
5.3579790499
 40
0.2684998401
100
AcDbArc
 50
236.6885722738
 51
238.8505953963
  0
ARC
  5
21F
100
AcDbEntity
  8
0
100
AcDbCircle
 62
6
  6
CONTINUOUS
 10
5.83330235
 20
5.3579790499
 40
0.2684998401
100
AcDbArc
 50
236.6885722734
 51
238.8505953959
  0
ARC
  5
220
100
AcDbEntity
  8
0
100
AcDbCircle
 62
6
  6
CONTINUOUS
 10
5.6817277957
 20
5.3579670182
 40
0.2684660262
100
AcDbArc
 50
236.5944415233
 51
238.9164226325
  0
ARC
  5
221
100
AcDbEntity
  8
0
100
AcDbCircle
 62
6
  6
CONTINUOUS
 10
5.7288524171
 20
5.3522894325
 40
0.2618549279
100
AcDbArc
 50
238.8494281507
 51
240.3540259185
  0
ARC
  5
222
100
AcDbEntity
  8
0
100
AcDbCircle
 62
6
  6
CONTINUOUS
 10
5.7348092104
 20
5.3517405733
 40
0.2612013418
100
AcDbArc
 50
237.7466454779
 51
241.4517088537
  0
ARC
  5
223
100
AcDbEntity
  8
0
100
AcDbCircle
 62
6
  6
CONTINUOUS
 10
5.6832185246
 20
5.3498998167
 40
0.2590671788
100
AcDbArc
 50
237.7317699268
 51
242.4783448269
  0
ARC
  5
224
100
AcDbEntity
  8
0
100
AcDbCircle
 62
6
  6
CONTINUOUS
 10
5.8347444367
 20
5.3498998167
 40
0.2590671788
100
AcDbArc
 50
237.731769926
 51
242.4783448269
  0
ARC
  5
225
100
AcDbEntity
  8
0
100
AcDbCircle
 62
6
  6
CONTINUOUS
 10
5.6256139884
 20
5.3484509827
 40
0.2574209766
100
AcDbArc
 50
238.830575976
 51
242.4836812249
  0
ARC
  5
226
100
AcDbEntity
  8
0
100
AcDbCircle
 62
6
  6
CONTINUOUS
 10
5.8276485379
 20
5.3484509827
 40
0.2574209766
100
AcDbArc
 50
238.8305759763
 51
242.4836812249
  0
ARC
  5
227
100
AcDbEntity
  8
0
100
AcDbCircle
 62
6
  6
CONTINUOUS
 10
5.7261175766
 20
5.3474572344
 40
0.2563025132
100
AcDbArc
 50
240.3510415162
 51
241.938478552
  0
ARC
  5
228
100
AcDbEntity
  8
0
100
AcDbCircle
 62
6
  6
CONTINUOUS
 10
5.7757623187
 20
5.3458649333
 40
0.2544910199
100
AcDbArc
 50
240.8274982102
 51
242.4897578908
  0
ARC
  5
229
100
AcDbEntity
  8
0
100
AcDbCircle
 62
6
  6
CONTINUOUS
 10
5.7312855292
 20
5.3453266234
 40
0.2538832714
100
AcDbArc
 50
241.4584861809
 51
242.4901093525
  0
ARC
  5
22A
100
AcDbEntity
  8
0
100
AcDbCircle
 62
6
  6
CONTINUOUS
 10
5.7245847
 20
5.3445920601
 40
0.2530530655
100
AcDbArc
 50
241.9395750296
 51
242.4909781074
  0
ARC
  5
22B
100
AcDbEntity
  8
0
100
AcDbCircle
 62
6
  6
CONTINUOUS
 10
5.6732901544
 20
5.3433300175
 40
0.2515746434
100
AcDbArc
 50
238.8410873293
 51
245.9794296093
  0
ARC
  5
22C
100
AcDbEntity
  8
0
100
AcDbCircle
 62
6
  6
CONTINUOUS
 10
5.7232810163
 20
5.3420720687
 40
0.2502158329
100
AcDbArc
 50
242.4892223066
 51
243.7913218663
  0
ARC
  5
22D
100
AcDbEntity
  8
0
100
AcDbCircle
 62
6
  6
CONTINUOUS
 10
5.6790118729
 20
5.3419254815
 40
0.2500514277
100
AcDbArc
 50
242.4888392091
 51
243.9056047688
  0
ARC
  5
22E
100
AcDbEntity
  8
0
100
AcDbCircle
 62
6
  6
CONTINUOUS
 10
5.7295205103
 20
5.3419254815
 40
0.2500514277
100
AcDbArc
 50
242.4888392091
 51
243.9056047686
  0
ARC
  5
22F
100
AcDbEntity
  8
0
100
AcDbCircle
 62
6
  6
CONTINUOUS
 10
5.8305377851
 20
5.3419254815
 40
0.2500514277
100
AcDbArc
 50
242.4888392091
 51
243.9056047677
  0
ARC
  5
230
100
AcDbEntity
  8
0
100
AcDbCircle
 62
6
  6
CONTINUOUS
 10
5.6212922134
 20
5.3401343699
 40
0.2480484798
100
AcDbArc
 50
242.4815116493
 51
245.3189835103
  0
ARC
  5
231
100
AcDbEntity
  8
0
100
AcDbCircle
 62
6
  6
CONTINUOUS
 10
5.823326763
 20
5.3401343699
 40
0.2480484798
100
AcDbArc
 50
242.4815116493
 51
245.3189835106
  0
ARC
  5
232
100
AcDbEntity
  8
0
100
AcDbCircle
 62
6
  6
CONTINUOUS
 10
5.721752066
 20
5.3389452468
 40
0.2467352268
100
AcDbArc
 50
243.7891915589
 51
245.3212969354
  0
ARC
  5
233
100
AcDbEntity
  8
0
100
AcDbCircle
 62
6
  6
CONTINUOUS
 10
5.5699208031
 20
5.3383653775
 40
0.2460810024
100
AcDbArc
 50
242.4693634338
 51
246.7475155827
  0
ARC
  5
234
100
AcDbEntity
  8
0
100
AcDbCircle
 62
6
  6
CONTINUOUS
 10
5.7719553526
 20
5.3383653775
 40
0.2460810024
100
AcDbArc
 50
242.4693634338
 51
246.7475155833
  0
ARC
  5
235
100
AcDbEntity
  8
0
100
AcDbCircle
 62
6
  6
CONTINUOUS
 10
5.6258271026
 20
5.3362619584
 40
0.2437882702
100
AcDbArc
 50
245.1936894659
 51
246.0048514621
  0
ARC
  5
236
100
AcDbEntity
  8
0
100
AcDbCircle
 62
6
  6
CONTINUOUS
 10
5.6193100808
 20
5.3358297748
 40
0.243309453
100
AcDbArc
 50
245.3198325123
 51
246.7539735399
  0
ARC
  5
237
100
AcDbEntity
  8
0
100
AcDbCircle
 62
6
  6
CONTINUOUS
 10
5.8213446303
 20
5.3358297748
 40
0.243309453
100
AcDbArc
 50
245.3198325125
 51
246.7539735397
  0
ARC
  5
238
100
AcDbEntity
  8
0
100
AcDbCircle
 62
6
  6
CONTINUOUS
 10
5.726373364
 20
5.3352945918
 40
0.2427121609
100
AcDbArc
 50
243.8843008744
 51
248.2432104294
  0
ARC
  5
239
100
AcDbEntity
  8
0
100
AcDbCircle
 62
6
  6
CONTINUOUS
 10
5.6693521271
 20
5.3347625571
 40
0.2421461237
100
AcDbArc
 50
246.0053348455
 51
246.5014465492
  0
ARC
  5
23A
100
AcDbEntity
  8
0
100
AcDbCircle
 62
6
  6
CONTINUOUS
 10
5.6755635762
 20
5.3346221331
 40
0.2419757949
100
AcDbArc
 50
243.8782389202
 51
248.8144674421
  0
ARC
  5
23B
100
AcDbEntity
  8
0
100
AcDbCircle
 62
6
  6
CONTINUOUS
 10
5.8270894883
 20
5.3346221331
 40
0.2419757949
100
AcDbArc
 50
243.8782389191
 51
248.8144674411
  0
ARC
  5
23C
100
AcDbEntity
  8
0
100
AcDbCircle
 62
6
  6
CONTINUOUS
 10
5.8712414805
 20
5.334323767
 40
0.2416861358
100
AcDbArc
 50
246.0701172969
 51
246.5815964853
  0
ARC
  5
23D
100
AcDbEntity
  8
0
100
AcDbCircle
 62
6
  6
CONTINUOUS
 10
5.7700335949
 20
5.333967261
 40
0.2412814501
100
AcDbArc
 50
246.7544867124
 51
247.3686006568
  0
ARC
  5
23E
100
AcDbEntity
  8
0
100
AcDbCircle
 62
6
  6
CONTINUOUS
 10
5.5679990453
 20
5.333967261
 40
0.2412814501
100
AcDbArc
 50
246.7544867119
 51
247.3686006563
  0
ARC
  5
23F
100
AcDbEntity
  8
0
100
AcDbCircle
 62
6
  6
CONTINUOUS
 10
5.6185076827
 20
5.333967261
 40
0.2412814501
100
AcDbArc
 50
246.7544867124
 51
247.3686006569
  0
ARC
  5
240
100
AcDbEntity
  8
0
100
AcDbCircle
 62
6
  6
CONTINUOUS
 10
5.8205422322
 20
5.333967261
 40
0.24128145
100
AcDbArc
 50
246.7544867121
 51
247.3686006567
  0
ARC
  5
241
100
AcDbEntity
  8
0
100
AcDbCircle
 62
6
  6
CONTINUOUS
 10
5.7188246893
 20
5.3323644668
 40
0.239533263
100
AcDbArc
 50
245.3003267927
 51
249.7066516796
  0
ARC
  5
242
100
AcDbEntity
  8
0
100
AcDbCircle
 62
6
  6
CONTINUOUS
 10
5.5663847221
 20
5.3299971423
 40
0.2369958421
100
AcDbArc
 50
247.3594895054
 51
250.2894190237
  0
ARC
  5
243
100
AcDbEntity
  8
0
100
AcDbCircle
 62
6
  6
CONTINUOUS
 10
5.6168933595
 20
5.3299971423
 40
0.2369958421
100
AcDbArc
 50
247.359489506
 51
250.2894190243
  0
ARC
  5
244
100
AcDbEntity
  8
0
100
AcDbCircle
 62
6
  6
CONTINUOUS
 10
5.7684192716
 20
5.3299971423
 40
0.2369958421
100
AcDbArc
 50
247.359489506
 51
250.2894190243
  0
ARC
  5
245
100
AcDbEntity
  8
0
100
AcDbCircle
 62
6
  6
CONTINUOUS
 10
5.818927909
 20
5.3299971423
 40
0.2369958421
100
AcDbArc
 50
247.3594895058
 51
250.289419024
  0
ARC
  5
246
100
AcDbEntity
  8
0
100
AcDbCircle
 62
6
  6
CONTINUOUS
 10
5.6672428964
 20
5.3297040467
 40
0.2366661243
100
AcDbArc
 50
246.4814381615
 51
251.0211682947
  0
ARC
  5
247
100
AcDbEntity
  8
0
100
AcDbCircle
 62
6
  6
CONTINUOUS
 10
5.6718740349
 20
5.3248972578
 40
0.2315748262
100
AcDbArc
 50
248.7960891398
 51
253.9983777002
  0
ARC
  5
248
100
AcDbEntity
  8
0
100
AcDbCircle
 62
6
  6
CONTINUOUS
 10
5.7219601295
 20
5.3237140587
 40
0.2303207986
100
AcDbArc
 50
248.1950329099
 51
255.6209836218
  0
ARC
  5
249
100
AcDbEntity
  8
0
100
AcDbCircle
 62
6
  6
CONTINUOUS
 10
5.5703112005
 20
5.3232789168
 40
0.2298687387
100
AcDbArc
 50
248.7769688054
 51
255.6237508898
  0
ARC
  5
24A
100
AcDbEntity
  8
0
100
AcDbCircle
 62
6
  6
CONTINUOUS
 10
5.7723457501
 20
5.3232789168
 40
0.2298687387
100
AcDbArc
 50
248.7769688057
 51
255.6237508901
  0
ARC
  5
24B
100
AcDbEntity
  8
0
100
AcDbCircle
 62
6
  6
CONTINUOUS
 10
5.8228543874
 20
5.3232789168
 40
0.2298687387
100
AcDbArc
 50
248.7769688052
 51
255.6237508896
  0
ARC
  5
24C
100
AcDbEntity
  8
0
100
AcDbCircle
 62
6
  6
CONTINUOUS
 10
5.7148858173
 20
5.3211785326
 40
0.2276756176
100
AcDbArc
 50
249.6600455441
 51
257.1387722646
  0
ARC
  5
24D
100
AcDbEntity
  8
0
100
AcDbCircle
 62
6
  6
CONTINUOUS
 10
5.5632537119
 20
5.3207612134
 40
0.2272451308
100
AcDbArc
 50
250.2472033706
 51
257.1414543896
  0
ARC
  5
24E
100
AcDbEntity
  8
0
100
AcDbCircle
 62
6
  6
CONTINUOUS
 10
5.6137623493
 20
5.3207612134
 40
0.2272451308
100
AcDbArc
 50
250.2472033711
 51
257.1414543902
  0
ARC
  5
24F
100
AcDbEntity
  8
0
100
AcDbCircle
 62
6
  6
CONTINUOUS
 10
5.7652882614
 20
5.3207612134
 40
0.2272451308
100
AcDbArc
 50
250.2472033711
 51
257.1414543902
  0
ARC
  5
250
100
AcDbEntity
  8
0
100
AcDbCircle
 62
6
  6
CONTINUOUS
 10
5.8157968988
 20
5.3207612134
 40
0.2272451308
100
AcDbArc
 50
250.2472033709
 51
257.1414543899
  0
ARC
  5
251
100
AcDbEntity
  8
0
100
AcDbCircle
 62
6
  6
CONTINUOUS
 10
5.6642646771
 20
5.3207178589
 40
0.2271998883
100
AcDbArc
 50
250.994397238
 51
257.0609281716
  0
ARC
  5
252
100
AcDbEntity
  8
0
100
AcDbCircle
 62
6
  6
CONTINUOUS
 10
5.6703851532
 20
5.3198116934
 40
0.2262758776
100
AcDbArc
 50
254.0057926122
 51
255.6371488219
  0
ARC
  5
253
100
AcDbEntity
  8
0
100
AcDbCircle
 62
6
  6
CONTINUOUS
 10
5.8651574335
 20
5.3160721479
 40
0.2224152135
100
AcDbArc
 50
257.0450088328
 51
258.6297026378
  0
ARC
  5
254
100
AcDbEntity
  8
0
100
AcDbCircle
 62
6
  6
CONTINUOUS
 10
5.5619184997
 20
5.3151427488
 40
0.2214704249
100
AcDbArc
 50
257.1547436823
 51
258.6783653738
  0
ARC
  5
255
100
AcDbEntity
  8
0
100
AcDbCircle
 62
6
  6
CONTINUOUS
 10
5.6124271371
 20
5.3151427488
 40
0.2214704249
100
AcDbArc
 50
257.154743683
 51
258.6783653737
  0
ARC
  5
256
100
AcDbEntity
  8
0
100
AcDbCircle
 62
6
  6
CONTINUOUS
 10
5.7134444119
 20
5.3151427488
 40
0.2214704249
100
AcDbArc
 50
257.1547436829
 51
258.6783653737
  0
ARC
  5
257
100
AcDbEntity
  8
0
100
AcDbCircle
 62
6
  6
CONTINUOUS
 10
5.7639530493
 20
5.3151427488
 40
0.2214704249
100
AcDbArc
 50
257.1547436829
 51
258.6783653737
  0
ARC
  5
258
100
AcDbEntity
  8
0
100
AcDbCircle
 62
6
  6
CONTINUOUS
 10
5.8144616866
 20
5.3151427488
 40
0.2214704249
100
AcDbArc
 50
257.1547436826
 51
258.6783653738
  0
ARC
  5
259
100
AcDbEntity
  8
0
100
AcDbCircle
 62
6
  6
CONTINUOUS
 10
5.6690670917
 20
5.3143882988
 40
0.2206950454
100
AcDbArc
 50
255.6193722317
 51
260.512486952
  0
ARC
  5
25A
100
AcDbEntity
  8
0
100
AcDbCircle
 62
6
  6
CONTINUOUS
 10
5.8710051142
 20
5.3141501213
 40
0.22043851
100
AcDbArc
 50
255.4805339214
 51
265.0091149515
  0
ARC
  5
25B
100
AcDbEntity
  8
0
100
AcDbCircle
 62
6
  6
CONTINUOUS
 10
5.61842533
 20
5.3136999475
 40
0.2199936748
100
AcDbArc
 50
255.4921544701
 51
261.8291201215
  0
ARC
  5
25C
100
AcDbEntity
  8
0
100
AcDbCircle
 62
6
  6
CONTINUOUS
 10
5.5674542653
 20
5.311458748
 40
0.2177094252
100
AcDbArc
 50
255.57971198
 51
268.299118683
  0
ARC
  5
25D
100
AcDbEntity
  8
0
100
AcDbCircle
 62
6
  6
CONTINUOUS
 10
5.7189801775
 20
5.311458748
 40
0.2177094252
100
AcDbArc
 50
255.5797119804
 51
268.2991186829
  0
ARC
  5
25E
100
AcDbEntity
  8
0
100
AcDbCircle
 62
6
  6
CONTINUOUS
 10
5.7694888148
 20
5.311458748
 40
0.2177094252
100
AcDbArc
 50
255.5797119803
 51
268.2991186826
  0
ARC
  5
25F
100
AcDbEntity
  8
0
100
AcDbCircle
 62
6
  6
CONTINUOUS
 10
5.8199974522
 20
5.311458748
 40
0.2177094252
100
AcDbArc
 50
255.5797119797
 51
268.2991186823
  0
ARC
  5
260
100
AcDbEntity
  8
0
100
AcDbCircle
 62
6
  6
CONTINUOUS
 10
5.6177074716
 20
5.3102095776
 40
0.2164531891
100
AcDbArc
 50
273.6442526775
 51
275.113947224
  0
ARC
  5
261
100
AcDbEntity
  8
0
100
AcDbCircle
 62
6
  6
CONTINUOUS
 10
5.668320763
 20
5.3097647662
 40
0.2160117378
100
AcDbArc
 50
260.5055935199
 51
268.3257572588
  0
ARC
  5
262
100
AcDbEntity
  8
0
100
AcDbCircle
 62
6
  6
CONTINUOUS
 10
5.4662397965
 20
5.3093472081
 40
0.2155935196
100
AcDbArc
 50
270.003173014
 51
275.8959550709
  0
ARC
  5
263
100
AcDbEntity
  8
0
100
AcDbCircle
 62
6
  6
CONTINUOUS
 10
5.6177437612
 20
5.309194018
 40
0.215436621
100
AcDbArc
 50
261.8382265119
 51
273.6444730044
  0
ARC
  5
264
100
AcDbEntity
  8
0
100
AcDbCircle
 62
6
  6
CONTINUOUS
 10
5.516760747
 20
5.3089785465
 40
0.2152248576
100
AcDbArc
 50
268.3287171362
 51
275.8959550709
  0
ARC
  5
265
100
AcDbEntity
  8
0
100
AcDbCircle
 62
6
  6
CONTINUOUS
 10
5.5672693844
 20
5.3089785465
 40
0.2152248576
100
AcDbArc
 50
268.328717137
 51
275.8959550709
  0
ARC
  5
266
100
AcDbEntity
  8
0
100
AcDbCircle
 62
6
  6
CONTINUOUS
 10
5.6682866591
 20
5.3089785465
 40
0.2152248576
100
AcDbArc
 50
268.3287171368
 51
275.8959550709
  0
ARC
  5
267
100
AcDbEntity
  8
0
100
AcDbCircle
 62
6
  6
CONTINUOUS
 10
5.7187952965
 20
5.3089785465
 40
0.2152248576
100
AcDbArc
 50
268.3287171368
 51
275.8959550709
  0
ARC
  5
268
100
AcDbEntity
  8
0
100
AcDbCircle
 62
6
  6
CONTINUOUS
 10
5.7693039339
 20
5.3089785465
 40
0.2152248576
100
AcDbArc
 50
268.3287171365
 51
275.8959550709
  0
ARC
  5
269
100
AcDbEntity
  8
0
100
AcDbCircle
 62
6
  6
CONTINUOUS
 10
5.8198125713
 20
5.3089785465
 40
0.2152248576
100
AcDbArc
 50
268.3287171363
 51
276.1958897845
  0
ARC
  5
26A
100
AcDbEntity
  8
0
100
AcDbCircle
 62
6
  6
CONTINUOUS
 10
5.8702813032
 20
5.3083317787
 40
0.2145793653
100
AcDbArc
 50
265.0664928373
 51
270.0105362691
  0
ARC
  5
26B
100
AcDbEntity
  8
0
100
AcDbCircle
 62
6
  6
CONTINUOUS
 10
5.8893689046
 20
5.3245190659
 40
0.1922344875
100
AcDbArc
 50
254.1037296057
 51
257.8344049373
  0
ARC
  5
26C
100
AcDbEntity
  8
0
100
AcDbCircle
 62
6
  6
CONTINUOUS
 10
5.8881097741
 20
5.3182158869
 40
0.1858075404
100
AcDbArc
 50
257.8043506481
 51
269.3924088947
  0
ARC
  5
26D
100
AcDbEntity
  8
0
100
AcDbCircle
 62
6
  6
CONTINUOUS
 10
5.887989075
 20
5.3157009808
 40
0.18329152
100
AcDbArc
 50
269.4218000844
 51
270.0035001936
  0
ARC
  5
26E
100
AcDbEntity
  8
0
100
AcDbCircle
 62
6
  6
CONTINUOUS
 10
6.0340890614
 20
5.5114285422
 40
0.521677112
100
AcDbArc
 50
181.2505283401
 51
183.1287148548
  0
ARC
  5
26F
100
AcDbEntity
  8
0
100
AcDbCircle
 62
6
  6
CONTINUOUS
 10
5.882191725
 20
5.511405528
 40
0.5213051433
100
AcDbArc
 50
179.7887790377
 51
183.2139593679
  0
ARC
  5
270
100
AcDbEntity
  8
0
100
AcDbCircle
 62
6
  6
CONTINUOUS
 10
6.0335753475
 20
5.5114201223
 40
0.5211633366
100
AcDbArc
 50
180.0202211981
 51
181.250835439
  0
ARC
  5
271
100
AcDbEntity
  8
0
100
AcDbCircle
 62
6
  6
CONTINUOUS
 10
5.730515859
 20
5.511387358
 40
0.5211552846
100
AcDbArc
 50
179.0692472494
 51
182.6986674705
  0
ARC
  5
272
100
AcDbEntity
  8
0
100
AcDbCircle
 62
6
  6
CONTINUOUS
 10
5.7804975354
 20
5.5114410815
 40
0.5206312659
100
AcDbArc
 50
181.2563181571
 51
182.7184321086
  0
ARC
  5
273
100
AcDbEntity
  8
0
100
AcDbCircle
 62
6
  6
CONTINUOUS
 10
6.0832313819
 20
5.5114300494
 40
0.5203133074
100
AcDbArc
 50
181.2567573772
 51
182.1628362217
  0
ARC
  5
274
100
AcDbEntity
  8
0
100
AcDbCircle
 62
6
  6
CONTINUOUS
 10
5.9821040973
 20
5.5113172011
 40
0.5202002556
100
AcDbArc
 50
179.6094925036
 51
181.6930927312
  0
ARC
  5
275
100
AcDbEntity
  8
0
100
AcDbCircle
 62
6
  6
CONTINUOUS
 10
5.8303848772
 20
5.5113145441
 40
0.5200075902
100
AcDbArc
 50
180.3721092187
 51
181.2476149668
  0
ARC
  5
276
100
AcDbEntity
  8
0
100
AcDbCircle
 62
6
  6
CONTINUOUS
 10
5.7796582515
 20
5.5114203482
 40
0.5197917291
100
AcDbArc
 50
181.0102135193
 51
181.2560616691
  0
ARC
  5
277
100
AcDbEntity
  8
0
100
AcDbCircle
 62
6
  6
CONTINUOUS
 10
6.082627624
 20
5.5114156626
 40
0.5197093792
100
AcDbArc
 50
181.0902981539
 51
181.2566315665
  0
ARC
  5
278
100
AcDbEntity
  8
0
100
AcDbCircle
 62
6
  6
CONTINUOUS
 10
5.8288261448
 20
5.5112741362
 40
0.5184483476
100
AcDbArc
 50
181.246901092
 51
183.04242127
  0
ARC
  5
279
100
AcDbEntity
  8
0
100
AcDbCircle
 62
6
  6
CONTINUOUS
 10
5.9802940046
 20
5.5112535275
 40
0.5183890719
100
AcDbArc
 50
181.6919691945
 51
183.7167708284
  0
ARC
  5
27A
100
AcDbEntity
  8
0
100
AcDbCircle
 62
6
  6
CONTINUOUS
 10
6.0809430995
 20
5.5113919602
 40
0.5180247087
100
AcDbArc
 50
179.3875663199
 51
181.0912222763
  0
ARC
  5
27B
100
AcDbEntity
  8
0
100
AcDbCircle
 62
6
  6
CONTINUOUS
 10
5.9293319291
 20
5.5113770043
 40
0.51793961
100
AcDbArc
 50
179.9055432082
 51
181.2593479302
  0
ARC
  5
27C
100
AcDbEntity
  8
0
100
AcDbCircle
 62
6
  6
CONTINUOUS
 10
5.7777982579
 20
5.5113968852
 40
0.517931611
100
AcDbArc
 50
179.2316711415
 51
181.0112460335
  0
ARC
  5
27D
100
AcDbEntity
  8
0
100
AcDbCircle
 62
6
  6
CONTINUOUS
 10
6.1117383598
 20
5.5082276144
 40
0.4980696654
100
AcDbArc
 50
190.7324760967
 51
191.2991076978
  0
ARC
  5
27E
100
AcDbEntity
  8
0
100
AcDbCircle
 62
6
  6
CONTINUOUS
 10
5.6557907236
 20
5.572433501
 40
0.3828582298
100
AcDbArc
 50
147.3996035572
 51
149.0395341082
  0
ARC
  5
27F
100
AcDbEntity
  8
0
100
AcDbCircle
 62
6
  6
CONTINUOUS
 10
5.6606969277
 20
5.5732910257
 40
0.3812099036
100
AcDbArc
 50
146.7980528731
 51
149.0412077618
  0
ARC
  5
280
100
AcDbEntity
  8
0
100
AcDbCircle
 62
6
  6
CONTINUOUS
 10
5.6476389796
 20
5.5776102058
 40
0.3732017178
100
AcDbArc
 50
146.1784561726
 51
147.394865626
  0
ARC
  5
281
100
AcDbEntity
  8
0
100
AcDbCircle
 62
6
  6
CONTINUOUS
 10
5.5892236703
 20
5.5827514722
 40
0.3637712983
100
AcDbArc
 50
142.5128650093
 51
147.5766676235
  0
ARC
  5
282
100
AcDbEntity
  8
0
100
AcDbCircle
 62
6
  6
CONTINUOUS
 10
5.6345739803
 20
5.5864307844
 40
0.3574380394
100
AcDbArc
 50
142.1779274145
 51
146.1874062351
  0
ARC
  5
283
100
AcDbEntity
  8
0
100
AcDbCircle
 62
6
  6
CONTINUOUS
 10
5.571461
 20
5.5959321274
 40
0.3416554512
100
AcDbArc
 50
141.5632163278
 51
142.4539441362
  0
ARC
  5
284
100
AcDbEntity
  8
0
100
AcDbCircle
 62
6
  6
CONTINUOUS
 10
5.5676676061
 20
5.5989301376
 40
0.3368203913
100
AcDbArc
 50
141.1534725855
 51
141.5615422395
  0
ARC
  5
285
100
AcDbEntity
  8
0
100
AcDbCircle
 62
6
  6
CONTINUOUS
 10
5.5669705497
 20
5.6045411691
 40
0.3278406435
100
AcDbArc
 50
137.5207491901
 51
141.7595935794
  0
ARC
  5
286
100
AcDbEntity
  8
0
100
AcDbCircle
 62
6
  6
CONTINUOUS
 10
5.5574646113
 20
5.6072562007
 40
0.323651605
100
AcDbArc
 50
136.9098262833
 51
141.1685002214
  0
ARC
  5
287
100
AcDbEntity
  8
0
100
AcDbCircle
 62
6
  6
CONTINUOUS
 10
5.5510400704
 20
5.6188291419
 40
0.3064426458
100
AcDbArc
 50
135.3110678113
 51
137.4795168861
  0
ARC
  5
288
100
AcDbEntity
  8
0
100
AcDbCircle
 62
6
  6
CONTINUOUS
 10
5.6745455122
 20
5.6493833756
 40
0.264950801
100
AcDbArc
 50
125.1235753304
 51
129.8119223659
  0
ARC
  5
289
100
AcDbEntity
  8
0
100
AcDbCircle
 62
6
  6
CONTINUOUS
 10
5.6678058381
 20
5.6500185199
 40
0.2641888865
100
AcDbArc
 50
126.2109921882
 51
128.7244337089
  0
ARC
  5
28A
100
AcDbEntity
  8
0
100
AcDbCircle
 62
6
  6
CONTINUOUS
 10
5.6619338558
 20
5.6579676605
 40
0.2543062147
100
AcDbArc
 50
123.9578858808
 51
126.2015850847
  0
ARC
  5
28B
100
AcDbEntity
  8
0
100
AcDbCircle
 62
6
  6
CONTINUOUS
 10
5.6623649975
 20
5.6665443621
 40
0.2439066626
100
AcDbArc
 50
119.0094893686
 51
125.1026289163
  0
ARC
  5
28C
100
AcDbEntity
  8
0
100
AcDbCircle
 62
6
  6
CONTINUOUS
 10
5.6547545156
 20
5.6686712154
 40
0.2414179095
100
AcDbArc
 50
118.9851774912
 51
123.9635666079
  0
ARC
  5
28D
100
AcDbEntity
  8
0
100
AcDbCircle
 62
6
  6
CONTINUOUS
 10
5.6026677599
 20
5.6713578676
 40
0.2383040097
100
AcDbArc
 50
119.670599769
 51
121.9981212573
  0
ARC
  5
28E
100
AcDbEntity
  8
0
100
AcDbCircle
 62
6
  6
CONTINUOUS
 10
5.6072348819
 20
5.6743293094
 40
0.2348573639
100
AcDbArc
 50
118.9445180118
 51
120.8349405963
  0
ARC
  5
28F
100
AcDbEntity
  8
0
100
AcDbCircle
 62
6
  6
CONTINUOUS
 10
5.599661282
 20
5.6765569911
 40
0.2322983239
100
AcDbArc
 50
118.9385518438
 51
119.6610662515
  0
ARC
  5
290
100
AcDbEntity
  8
0
100
AcDbCircle
 62
6
  6
CONTINUOUS
 10
5.598714876
 20
5.6782658757
 40
0.2303448734
100
AcDbArc
 50
118.3683925708
 51
118.938214389
  0
ARC
  5
291
100
AcDbEntity
  8
0
100
AcDbCircle
 62
6
  6
CONTINUOUS
 10
5.6486610319
 20
5.6792929373
 40
0.2291738829
100
AcDbArc
 50
117.1506457341
 51
118.9393917327
  0
ARC
  5
292
100
AcDbEntity
  8
0
100
AcDbCircle
 62
6
  6
CONTINUOUS
 10
5.5970149299
 20
5.6814403782
 40
0.2267438841
100
AcDbArc
 50
115.6056438009
 51
118.3715584045
  0
ARC
  5
293
100
AcDbEntity
  8
0
100
AcDbCircle
 62
6
  6
CONTINUOUS
 10
5.5462863091
 20
5.6818135257
 40
0.2263111898
100
AcDbArc
 50
114.3651585261
 51
118.9474240181
  0
ARC
  5
294
100
AcDbEntity
  8
0
100
AcDbCircle
 62
6
  6
CONTINUOUS
 10
5.6532515095
 20
5.6825034836
 40
0.2255302733
100
AcDbArc
 50
113.5831140156
 51
118.9508911223
  0
ARC
  5
295
100
AcDbEntity
  8
0
100
AcDbCircle
 62
6
  6
CONTINUOUS
 10
5.6027428721
 20
5.6825034836
 40
0.2255302733
100
AcDbArc
 50
113.5831140159
 51
118.9508911222
  0
ARC
  5
296
100
AcDbEntity
  8
0
100
AcDbCircle
 62
6
  6
CONTINUOUS
 10
5.6467429656
 20
5.6830041804
 40
0.2249963086
100
AcDbArc
 50
115.5984872774
 51
117.1472953956
  0
ARC
  5
297
100
AcDbEntity
  8
0
100
AcDbCircle
 62
6
  6
CONTINUOUS
 10
5.5950583671
 20
5.6854317573
 40
0.2222989253
100
AcDbArc
 50
115.1230797046
 51
115.5954794796
  0
ARC
  5
298
100
AcDbEntity
  8
0
100
AcDbCircle
 62
6
  6
CONTINUOUS
 10
5.6455670045
 20
5.6854317573
 40
0.2222989253
100
AcDbArc
 50
115.1230797041
 51
115.5954794791
  0
ARC
  5
299
100
AcDbEntity
  8
0
100
AcDbCircle
 62
6
  6
CONTINUOUS
 10
5.6440970825
 20
5.6886026558
 40
0.218803925
100
AcDbArc
 50
111.9597669852
 51
115.1271085618
  0
ARC
  5
29A
100
AcDbEntity
  8
0
100
AcDbCircle
 62
6
  6
CONTINUOUS
 10
5.5935884451
 20
5.6886026558
 40
0.218803925
100
AcDbArc
 50
111.9597669858
 51
115.1271085623
  0
ARC
  5
29B
100
AcDbEntity
  8
0
100
AcDbCircle
 62
6
  6
CONTINUOUS
 10
5.5421867119
 20
5.6906603738
 40
0.2165610143
100
AcDbArc
 50
110.5601811438
 51
114.3427511816
  0
ARC
  5
29C
100
AcDbEntity
  8
0
100
AcDbCircle
 62
6
  6
CONTINUOUS
 10
5.6477023966
 20
5.695066901
 40
0.211796069
100
AcDbArc
 50
105.9625121275
 51
113.5670730927
  0
ARC
  5
29D
100
AcDbEntity
  8
0
100
AcDbCircle
 62
6
  6
CONTINUOUS
 10
5.5971937592
 20
5.695066901
 40
0.211796069
100
AcDbArc
 50
105.9625121279
 51
113.567073093
  0
ARC
  5
29E
100
AcDbEntity
  8
0
100
AcDbCircle
 62
6
  6
CONTINUOUS
 10
5.5396406743
 20
5.6973083402
 40
0.2094423581
100
AcDbArc
 50
107.2797590937
 51
110.5467331315
  0
ARC
  5
29F
100
AcDbEntity
  8
0
100
AcDbCircle
 62
6
  6
CONTINUOUS
 10
5.6908712228
 20
5.6979551621
 40
0.2087334414
100
AcDbArc
 50
104.2926860552
 51
111.9690650495
  0
ARC
  5
2A0
100
AcDbEntity
  8
0
100
AcDbCircle
 62
6
  6
CONTINUOUS
 10
5.6403625854
 20
5.6979551621
 40
0.2087334414
100
AcDbArc
 50
104.292686055
 51
111.9690650493
  0
ARC
  5
2A1
100
AcDbEntity
  8
0
100
AcDbCircle
 62
6
  6
CONTINUOUS
 10
5.589853948
 20
5.6979551621
 40
0.2087334414
100
AcDbArc
 50
104.2926860556
 51
111.9690650498
  0
ARC
  5
2A2
100
AcDbEntity
  8
0
100
AcDbCircle
 62
6
  6
CONTINUOUS
 10
5.5453932948
 20
5.6990022841
 40
0.2076581263
100
AcDbArc
 50
107.2227975435
 51
108.9138066848
  0
ARC
  5
2A3
100
AcDbEntity
  8
0
100
AcDbCircle
 62
6
  6
CONTINUOUS
 10
5.5382295604
 20
5.701715383
 40
0.2048150734
100
AcDbArc
 50
105.5642901723
 51
107.2690261369
  0
ARC
  5
2A4
100
AcDbEntity
  8
0
100
AcDbCircle
 62
6
  6
CONTINUOUS
 10
5.4460616313
 20
5.7031205814
 40
0.2031293264
100
AcDbArc
 50
85.4158394582
 51
87.9863338716
  0
ARC
  5
2A5
100
AcDbEntity
  8
0
100
AcDbCircle
 62
6
  6
CONTINUOUS
 10
5.4460869032
 20
5.7036386838
 40
0.2026106561
100
AcDbArc
 50
87.9883278655
 51
90.0080224279
  0
ARC
  5
2A6
100
AcDbEntity
  8
0
100
AcDbCircle
 62
6
  6
CONTINUOUS
 10
5.5372784997
 20
5.7051285772
 40
0.201271853
100
AcDbArc
 50
102.5605302121
 51
105.5641880182
  0
ARC
  5
2A7
100
AcDbEntity
  8
0
100
AcDbCircle
 62
6
  6
CONTINUOUS
 10
5.5435344174
 20
5.70515599
 40
0.2012299625
100
AcDbArc
 50
100.0667394967
 51
107.236041029
  0
ARC
  5
2A8
100
AcDbEntity
  8
0
100
AcDbCircle
 62
6
  6
CONTINUOUS
 10
5.644291799
 20
5.7062956237
 40
0.2000624537
100
AcDbArc
 50
100.0505041947
 51
105.9077834833
  0
ARC
  5
2A9
100
AcDbEntity
  8
0
100
AcDbCircle
 62
6
  6
CONTINUOUS
 10
5.5937831617
 20
5.7062956237
 40
0.2000624537
100
AcDbArc
 50
100.0505041947
 51
105.9077834837
  0
ARC
  5
2AA
100
AcDbEntity
  8
0
100
AcDbCircle
 62
6
  6
CONTINUOUS
 10
5.6884897144
 20
5.7064355689
 40
0.1999277056
100
AcDbArc
 50
102.5539580107
 51
104.2313026439
  0
ARC
  5
2AB
100
AcDbEntity
  8
0
100
AcDbCircle
 62
6
  6
CONTINUOUS
 10
5.637981077
 20
5.7064355689
 40
0.1999277056
100
AcDbArc
 50
102.5539580107
 51
104.2313026437
  0
ARC
  5
2AC
100
AcDbEntity
  8
0
100
AcDbCircle
 62
6
  6
CONTINUOUS
 10
5.5874724397
 20
5.7064355689
 40
0.1999277056
100
AcDbArc
 50
102.5539580107
 51
104.2313026443
  0
ARC
  5
2AD
100
AcDbEntity
  8
0
100
AcDbCircle
 62
6
  6
CONTINUOUS
 10
5.5871321635
 20
5.7079384641
 40
0.19838678
100
AcDbArc
 50
102.0443476828
 51
102.5523773657
  0
ARC
  5
2AE
100
AcDbEntity
  8
0
100
AcDbCircle
 62
6
  6
CONTINUOUS
 10
5.6881494383
 20
5.7079384642
 40
0.1983867799
100
AcDbArc
 50
102.0443476828
 51
102.5523773657
  0
ARC
  5
2AF
100
AcDbEntity
  8
0
100
AcDbCircle
 62
6
  6
CONTINUOUS
 10
5.6376408009
 20
5.7079384642
 40
0.1983867798
100
AcDbArc
 50
102.0443476826
 51
102.5523773658
  0
ARC
  5
2B0
100
AcDbEntity
  8
0
100
AcDbCircle
 62
6
  6
CONTINUOUS
 10
5.5366235261
 20
5.7079384642
 40
0.1983867798
100
AcDbArc
 50
102.0443476826
 51
102.5523773659
  0
ARC
  5
2B1
100
AcDbEntity
  8
0
100
AcDbCircle
 62
6
  6
CONTINUOUS
 10
5.6430911768
 20
5.7126660111
 40
0.193580309
100
AcDbArc
 50
90.0175249382
 51
100.029648843
  0
ARC
  5
2B2
100
AcDbEntity
  8
0
100
AcDbCircle
 62
6
  6
CONTINUOUS
 10
5.5925825394
 20
5.7126660111
 40
0.193580309
100
AcDbArc
 50
90.0175249382
 51
100.029648843
  0
ARC
  5
2B3
100
AcDbEntity
  8
0
100
AcDbCircle
 62
6
  6
CONTINUOUS
 10
5.542073902
 20
5.7126660111
 40
0.193580309
100
AcDbArc
 50
90.0175249382
 51
100.029648843
  0
ARC
  5
2B4
100
AcDbEntity
  8
0
100
AcDbCircle
 62
6
  6
CONTINUOUS
 10
5.4915652646
 20
5.7126660111
 40
0.193580309
100
AcDbArc
 50
90.0175249382
 51
100.029648843
  0
ARC
  5
2B5
100
AcDbEntity
  8
0
100
AcDbCircle
 62
6
  6
CONTINUOUS
 10
5.4915020649
 20
5.7135634178
 40
0.1926828934
100
AcDbArc
 50
83.4023669068
 51
89.9988136251
  0
ARC
  5
2B6
100
AcDbEntity
  8
0
100
AcDbCircle
 62
6
  6
CONTINUOUS
 10
5.5420107023
 20
5.7135634178
 40
0.1926828934
100
AcDbArc
 50
83.4023669069
 51
89.998813625
  0
ARC
  5
2B7
100
AcDbEntity
  8
0
100
AcDbCircle
 62
6
  6
CONTINUOUS
 10
5.5925193397
 20
5.7135634178
 40
0.1926828934
100
AcDbArc
 50
83.4023669069
 51
89.998813625
  0
ARC
  5
2B8
100
AcDbEntity
  8
0
100
AcDbCircle
 62
6
  6
CONTINUOUS
 10
5.643027977
 20
5.7135634178
 40
0.1926828934
100
AcDbArc
 50
83.4023669069
 51
89.998813625
  0
ARC
  5
2B9
100
AcDbEntity
  8
0
100
AcDbCircle
 62
6
  6
CONTINUOUS
 10
5.4806913973
 20
5.7204479423
 40
0.1858369324
100
AcDbArc
 50
100.636478788
 51
101.7351937036
  0
ARC
  5
2BA
100
AcDbEntity
  8
0
100
AcDbCircle
 62
6
  6
CONTINUOUS
 10
5.4801673351
 20
5.7237761968
 40
0.182469161
100
AcDbArc
 50
90.0043697987
 51
100.6676472776
  0
ARC
  5
2BB
100
AcDbEntity
  8
0
100
AcDbCircle
 62
6
  6
CONTINUOUS
 10
5.7868497621
 20
5.6291543611
 40
0.2917732881
100
AcDbArc
 50
132.6509075198
 51
134.6863169287
  0
ARC
  5
2BC
100
AcDbEntity
  8
0
100
AcDbCircle
 62
6
  6
CONTINUOUS
 10
5.7363411248
 20
5.6291543611
 40
0.2917732881
100
AcDbArc
 50
132.65090752
 51
134.6863169288
  0
ARC
  5
2BD
100
AcDbEntity
  8
0
100
AcDbCircle
 62
6
  6
CONTINUOUS
 10
5.8878100078
 20
5.6292115398
 40
0.2916924574
100
AcDbArc
 50
132.6169059288
 51
134.6441084153
  0
ARC
  5
2BE
100
AcDbEntity
  8
0
100
AcDbCircle
 62
6
  6
CONTINUOUS
 10
5.9407371506
 20
5.6305834179
 40
0.2840235788
100
AcDbArc
 50
131.2217402772
 51
131.9417157201
  0
ARC
  5
2BF
100
AcDbEntity
  8
0
100
AcDbCircle
 62
6
  6
CONTINUOUS
 10
5.9338638921
 20
5.6386146357
 40
0.2734535011
100
AcDbArc
 50
127.3253197333
 51
131.2474171441
  0
ARC
  5
2C0
100
AcDbEntity
  8
0
100
AcDbCircle
 62
6
  6
CONTINUOUS
 10
5.9271491655
 20
5.6474231668
 40
0.2623775012
100
AcDbArc
 50
124.9983288275
 51
127.3256200738
  0
ARC
  5
2C1
100
AcDbEntity
  8
0
100
AcDbCircle
 62
6
  6
CONTINUOUS
 10
5.8134597679
 20
5.6579676605
 40
0.2543062147
100
AcDbArc
 50
123.957885881
 51
126.2015850849
  0
ARC
  5
2C2
100
AcDbEntity
  8
0
100
AcDbCircle
 62
6
  6
CONTINUOUS
 10
5.7629511305
 20
5.6579676605
 40
0.2543062147
100
AcDbArc
 50
123.9578858808
 51
126.2015850847
  0
ARC
  5
2C3
100
AcDbEntity
  8
0
100
AcDbCircle
 62
6
  6
CONTINUOUS
 10
5.7124424931
 20
5.6579676605
 40
0.2543062146
100
AcDbArc
 50
123.9578858806
 51
126.2015850845
  0
ARC
  5
2C4
100
AcDbEntity
  8
0
100
AcDbCircle
 62
6
  6
CONTINUOUS
 10
5.8639434528
 20
5.6580066514
 40
0.254260181
100
AcDbArc
 50
123.9643177356
 51
126.1968229953
  0
ARC
  5
2C5
100
AcDbEntity
  8
0
100
AcDbCircle
 62
6
  6
CONTINUOUS
 10
5.8141071319
 20
5.6662235378
 40
0.244293688
100
AcDbArc
 50
119.3136391028
 51
125.1012208557
  0
ARC
  5
2C6
100
AcDbEntity
  8
0
100
AcDbCircle
 62
6
  6
CONTINUOUS
 10
5.864399547
 20
5.6665443621
 40
0.2439066626
100
AcDbArc
 50
119.0094893687
 51
125.1026289172
  0
ARC
  5
2C7
100
AcDbEntity
  8
0
100
AcDbCircle
 62
6
  6
CONTINUOUS
 10
5.7633822722
 20
5.6665443621
 40
0.2439066626
100
AcDbArc
 50
119.0094893687
 51
125.1026289164
  0
ARC
  5
2C8
100
AcDbEntity
  8
0
100
AcDbCircle
 62
6
  6
CONTINUOUS
 10
5.7128736349
 20
5.6665443621
 40
0.2439066626
100
AcDbArc
 50
119.0094893686
 51
125.1026289161
  0
ARC
  5
2C9
100
AcDbEntity
  8
0
100
AcDbCircle
 62
6
  6
CONTINUOUS
 10
5.8569981805
 20
5.6683474001
 40
0.2418035526
100
AcDbArc
 50
119.2906814522
 51
123.9683042129
  0
ARC
  5
2CA
100
AcDbEntity
  8
0
100
AcDbCircle
 62
6
  6
CONTINUOUS
 10
5.8062804278
 20
5.6686712154
 40
0.2414179095
100
AcDbArc
 50
118.9851774913
 51
123.9635666081
  0
ARC
  5
2CB
100
AcDbEntity
  8
0
100
AcDbCircle
 62
6
  6
CONTINUOUS
 10
5.7557717904
 20
5.6686712154
 40
0.2414179095
100
AcDbArc
 50
118.9851774912
 51
123.9635666079
  0
ARC
  5
2CC
100
AcDbEntity
  8
0
100
AcDbCircle
 62
6
  6
CONTINUOUS
 10
5.705263153
 20
5.6686712154
 40
0.2414179095
100
AcDbArc
 50
118.9851774912
 51
123.9635666077
  0
ARC
  5
2CD
100
AcDbEntity
  8
0
100
AcDbCircle
 62
6
  6
CONTINUOUS
 10
5.9123156242
 20
5.6713624061
 40
0.2341898642
100
AcDbArc
 50
116.9860118519
 51
117.7445431755
  0
ARC
  5
2CE
100
AcDbEntity
  8
0
100
AcDbCircle
 62
6
  6
CONTINUOUS
 10
5.9111688135
 20
5.6736179878
 40
0.2316594845
100
AcDbArc
 50
115.9989707802
 51
116.9864023908
  0
ARC
  5
2CF
100
AcDbEntity
  8
0
100
AcDbCircle
 62
6
  6
CONTINUOUS
 10
5.8074647675
 20
5.6775217004
 40
0.2311903353
100
AcDbArc
 50
118.6241561859
 51
119.2491141686
  0
ARC
  5
2D0
100
AcDbEntity
  8
0
100
AcDbCircle
 62
6
  6
CONTINUOUS
 10
5.8509352683
 20
5.6788294605
 40
0.2296954681
100
AcDbArc
 50
117.1051779209
 51
119.2508923313
  0
ARC
  5
2D1
100
AcDbEntity
  8
0
100
AcDbCircle
 62
6
  6
CONTINUOUS
 10
5.800186944
 20
5.6792929373
 40
0.2291738829
100
AcDbArc
 50
117.1506457344
 51
118.9393917328
  0
ARC
  5
2D2
100
AcDbEntity
  8
0
100
AcDbCircle
 62
6
  6
CONTINUOUS
 10
5.7496783066
 20
5.6792929373
 40
0.2291738829
100
AcDbArc
 50
117.1506457341
 51
118.9393917327
  0
ARC
  5
2D3
100
AcDbEntity
  8
0
100
AcDbCircle
 62
6
  6
CONTINUOUS
 10
5.6991696693
 20
5.6792929373
 40
0.2291738829
100
AcDbArc
 50
117.1506457338
 51
118.9393917327
  0
ARC
  5
2D4
100
AcDbEntity
  8
0
100
AcDbCircle
 62
6
  6
CONTINUOUS
 10
5.9093764494
 20
5.677333191
 40
0.2275345617
100
AcDbArc
 50
113.8430133777
 51
116.00340205
  0
ARC
  5
2D5
100
AcDbEntity
  8
0
100
AcDbCircle
 62
6
  6
CONTINUOUS
 10
5.855286059
 20
5.6825034836
 40
0.2255302733
100
AcDbArc
 50
113.583114017
 51
118.9508911223
  0
ARC
  5
2D6
100
AcDbEntity
  8
0
100
AcDbCircle
 62
6
  6
CONTINUOUS
 10
5.7542687842
 20
5.6825034836
 40
0.2255302733
100
AcDbArc
 50
113.5831140161
 51
118.9508911223
  0
ARC
  5
2D7
100
AcDbEntity
  8
0
100
AcDbCircle
 62
6
  6
CONTINUOUS
 10
5.7037601469
 20
5.6825034836
 40
0.2255302733
100
AcDbArc
 50
113.5831140158
 51
118.9508911223
  0
ARC
  5
2D8
100
AcDbEntity
  8
0
100
AcDbCircle
 62
6
  6
CONTINUOUS
 10
5.8046313375
 20
5.6828036519
 40
0.2251965538
100
AcDbArc
 50
113.6109997064
 51
118.6351603245
  0
ARC
  5
2D9
100
AcDbEntity
  8
0
100
AcDbCircle
 62
6
  6
CONTINUOUS
 10
5.7982688778
 20
5.6830041804
 40
0.2249963086
100
AcDbArc
 50
115.5984872779
 51
117.1472953958
  0
ARC
  5
2DA
100
AcDbEntity
  8
0
100
AcDbCircle
 62
6
  6
CONTINUOUS
 10
5.7477602404
 20
5.6830041804
 40
0.2249963086
100
AcDbArc
 50
115.5984872777
 51
117.1472953956
  0
ARC
  5
2DB
100
AcDbEntity
  8
0
100
AcDbCircle
 62
6
  6
CONTINUOUS
 10
5.697251603
 20
5.6830041804
 40
0.2249963086
100
AcDbArc
 50
115.5984872776
 51
117.1472953952
  0
ARC
  5
2DC
100
AcDbEntity
  8
0
100
AcDbCircle
 62
6
  6
CONTINUOUS
 10
5.8487640303
 20
5.6830254679
 40
0.2249710312
100
AcDbArc
 50
115.5551657968
 51
117.0998379991
  0
ARC
  5
2DD
100
AcDbEntity
  8
0
100
AcDbCircle
 62
6
  6
CONTINUOUS
 10
5.8476232434
 20
5.6853837821
 40
0.2223513178
100
AcDbArc
 50
115.1501850598
 51
115.5521110512
  0
ARC
  5
2DE
100
AcDbEntity
  8
0
100
AcDbCircle
 62
6
  6
CONTINUOUS
 10
5.7970929167
 20
5.6854317573
 40
0.2222989253
100
AcDbArc
 50
115.1230797046
 51
115.5954794795
  0
ARC
  5
2DF
100
AcDbEntity
  8
0
100
AcDbCircle
 62
6
  6
CONTINUOUS
 10
5.6960756419
 20
5.6854317573
 40
0.2222989253
100
AcDbArc
 50
115.1230797043
 51
115.5954794792
  0
ARC
  5
2E0
100
AcDbEntity
  8
0
100
AcDbCircle
 62
6
  6
CONTINUOUS
 10
5.7465842793
 20
5.6854317573
 40
0.2222989253
100
AcDbArc
 50
115.1230797044
 51
115.5954794794
  0
ARC
  5
2E1
100
AcDbEntity
  8
0
100
AcDbCircle
 62
6
  6
CONTINUOUS
 10
5.846182335
 20
5.6884894388
 40
0.2189277124
100
AcDbArc
 50
111.9981092642
 51
115.1542611508
  0
ARC
  5
2E2
100
AcDbEntity
  8
0
100
AcDbCircle
 62
6
  6
CONTINUOUS
 10
5.7956229946
 20
5.6886026558
 40
0.218803925
100
AcDbArc
 50
111.9597669857
 51
115.1271085623
  0
ARC
  5
2E3
100
AcDbEntity
  8
0
100
AcDbCircle
 62
6
  6
CONTINUOUS
 10
5.7451143572
 20
5.6886026558
 40
0.218803925
100
AcDbArc
 50
111.9597669855
 51
115.1271085621
  0
ARC
  5
2E4
100
AcDbEntity
  8
0
100
AcDbCircle
 62
6
  6
CONTINUOUS
 10
5.6946057199
 20
5.6886026558
 40
0.218803925
100
AcDbArc
 50
111.9597669854
 51
115.127108562
  0
ARC
  5
2E5
100
AcDbEntity
  8
0
100
AcDbCircle
 62
6
  6
CONTINUOUS
 10
5.9056848897
 20
5.6861525486
 40
0.217975714
100
AcDbArc
 50
106.7760734868
 51
113.8925766624
  0
ARC
  5
2E6
100
AcDbEntity
  8
0
100
AcDbCircle
 62
6
  6
CONTINUOUS
 10
5.903875232
 20
5.691964431
 40
0.2118888668
100
AcDbArc
 50
105.1316325708
 51
106.761162399
  0
ARC
  5
2E7
100
AcDbEntity
  8
0
100
AcDbCircle
 62
6
  6
CONTINUOUS
 10
5.7992450313
 20
5.6950251996
 40
0.2118407764
100
AcDbArc
 50
105.9521533093
 51
113.6000833162
  0
ARC
  5
2E8
100
AcDbEntity
  8
0
100
AcDbCircle
 62
6
  6
CONTINUOUS
 10
5.8497369461
 20
5.695066901
 40
0.211796069
100
AcDbArc
 50
105.962512129
 51
113.5670730941
  0
ARC
  5
2E9
100
AcDbEntity
  8
0
100
AcDbCircle
 62
6
  6
CONTINUOUS
 10
5.7487196714
 20
5.695066901
 40
0.211796069
100
AcDbArc
 50
105.9625121281
 51
113.5670730933
  0
ARC
  5
2EA
100
AcDbEntity
  8
0
100
AcDbCircle
 62
6
  6
CONTINUOUS
 10
5.698211034
 20
5.695066901
 40
0.211796069
100
AcDbArc
 50
105.9625121278
 51
113.567073093
  0
ARC
  5
2EB
100
AcDbEntity
  8
0
100
AcDbCircle
 62
6
  6
CONTINUOUS
 10
5.9034019739
 20
5.6936988193
 40
0.2100910739
100
AcDbArc
 50
104.2225832177
 51
105.1305118968
  0
ARC
  5
2EC
100
AcDbEntity
  8
0
100
AcDbCircle
 62
6
  6
CONTINUOUS
 10
5.8424101455
 20
5.6979211574
 40
0.2087696899
100
AcDbArc
 50
104.2886653309
 51
112.0078069545
  0
ARC
  5
2ED
100
AcDbEntity
  8
0
100
AcDbCircle
 62
6
  6
CONTINUOUS
 10
5.7918884975
 20
5.6979551621
 40
0.2087334414
100
AcDbArc
 50
104.2926860555
 51
111.9690650498
  0
ARC
  5
2EE
100
AcDbEntity
  8
0
100
AcDbCircle
 62
6
  6
CONTINUOUS
 10
5.7413798601
 20
5.6979551621
 40
0.2087334414
100
AcDbArc
 50
104.2926860554
 51
111.9690650496
  0
ARC
  5
2EF
100
AcDbEntity
  8
0
100
AcDbCircle
 62
6
  6
CONTINUOUS
 10
5.9024020338
 20
5.6979283796
 40
0.2057454928
100
AcDbArc
 50
98.8997839039
 51
104.2420399695
  0
ARC
  5
2F0
100
AcDbEntity
  8
0
100
AcDbCircle
 62
6
  6
CONTINUOUS
 10
5.901934801
 20
5.7007782135
 40
0.2028576867
100
AcDbArc
 50
81.2269383289
 51
98.8939318912
  0
ARC
  5
2F1
100
AcDbEntity
  8
0
100
AcDbCircle
 62
6
  6
CONTINUOUS
 10
5.7958642942
 20
5.7061244339
 40
0.2002399132
100
AcDbArc
 50
100.4649520628
 51
105.8948983241
  0
ARC
  5
2F2
100
AcDbEntity
  8
0
100
AcDbCircle
 62
6
  6
CONTINUOUS
 10
5.8463263486
 20
5.7062956237
 40
0.2000624537
100
AcDbArc
 50
100.0505041948
 51
105.9077834848
  0
ARC
  5
2F3
100
AcDbEntity
  8
0
100
AcDbCircle
 62
6
  6
CONTINUOUS
 10
5.7453090738
 20
5.7062956237
 40
0.2000624537
100
AcDbArc
 50
100.0505041948
 51
105.9077834839
  0
ARC
  5
2F4
100
AcDbEntity
  8
0
100
AcDbCircle
 62
6
  6
CONTINUOUS
 10
5.6948004364
 20
5.7062956237
 40
0.2000624537
100
AcDbArc
 50
100.0505041947
 51
105.9077834836
  0
ARC
  5
2F5
100
AcDbEntity
  8
0
100
AcDbCircle
 62
6
  6
CONTINUOUS
 10
5.7895069892
 20
5.7064355689
 40
0.1999277056
100
AcDbArc
 50
102.5539580107
 51
104.2313026442
  0
ARC
  5
2F6
100
AcDbEntity
  8
0
100
AcDbCircle
 62
6
  6
CONTINUOUS
 10
5.7389983518
 20
5.7064355689
 40
0.1999277056
100
AcDbArc
 50
102.5539580106
 51
104.2313026441
  0
ARC
  5
2F7
100
AcDbEntity
  8
0
100
AcDbCircle
 62
6
  6
CONTINUOUS
 10
5.8400017043
 20
5.7064940095
 40
0.1998677407
100
AcDbArc
 50
102.5554273989
 51
104.2261450748
  0
ARC
  5
2F8
100
AcDbEntity
  8
0
100
AcDbCircle
 62
6
  6
CONTINUOUS
 10
5.7891667131
 20
5.7079384641
 40
0.1983867799
100
AcDbArc
 50
102.0443476828
 51
102.5523773657
  0
ARC
  5
2F9
100
AcDbEntity
  8
0
100
AcDbCircle
 62
6
  6
CONTINUOUS
 10
5.7386580757
 20
5.7079384641
 40
0.1983867799
100
AcDbArc
 50
102.0443476828
 51
102.5523773657
  0
ARC
  5
2FA
100
AcDbEntity
  8
0
100
AcDbCircle
 62
6
  6
CONTINUOUS
 10
5.8396713103
 20
5.7079517652
 40
0.1983730233
100
AcDbArc
 50
102.1220251742
 51
102.5538098527
  0
ARC
  5
2FB
100
AcDbEntity
  8
0
100
AcDbCircle
 62
6
  6
CONTINUOUS
 10
5.7946344808
 20
5.7124953493
 40
0.1937516013
100
AcDbArc
 50
90.0226507421
 51
100.4495209641
  0
ARC
  5
2FC
100
AcDbEntity
  8
0
100
AcDbCircle
 62
6
  6
CONTINUOUS
 10
5.8451257263
 20
5.7126660111
 40
0.193580309
100
AcDbArc
 50
90.0175249382
 51
100.029648843
  0
ARC
  5
2FD
100
AcDbEntity
  8
0
100
AcDbCircle
 62
6
  6
CONTINUOUS
 10
5.7441084515
 20
5.7126660111
 40
0.193580309
100
AcDbArc
 50
90.0175249382
 51
100.029648843
  0
ARC
  5
2FE
100
AcDbEntity
  8
0
100
AcDbCircle
 62
6
  6
CONTINUOUS
 10
5.6935998141
 20
5.7126660111
 40
0.193580309
100
AcDbArc
 50
90.0175249382
 51
100.029648843
  0
ARC
  5
2FF
100
AcDbEntity
  8
0
100
AcDbCircle
 62
6
  6
CONTINUOUS
 10
5.6935366144
 20
5.7135634178
 40
0.1926828934
100
AcDbArc
 50
83.4023669069
 51
89.998813625
  0
ARC
  5
300
100
AcDbEntity
  8
0
100
AcDbCircle
 62
6
  6
CONTINUOUS
 10
5.7440452518
 20
5.7135634178
 40
0.1926828934
100
AcDbArc
 50
83.4023669069
 51
89.9988136251
  0
ARC
  5
301
100
AcDbEntity
  8
0
100
AcDbCircle
 62
6
  6
CONTINUOUS
 10
5.7945588906
 20
5.7136337082
 40
0.1926132273
100
AcDbArc
 50
83.0994299405
 51
90.0002991197
  0
ARC
  5
302
100
AcDbEntity
  8
0
100
AcDbCircle
 62
9
  6
CONTINUOUS
 10
13.4890002723
 20
5.5
 40
0.40625
100
AcDbArc
 50
270.0
 51
90.0
  0
SPLINE
  5
303
100
AcDbEntity
  8
0
100
AcDbSpline
 62
6
  6
CONTINUOUS
 70
0
 71
3
 72
9
 73
5
 74
3
 42
0.0000001
 43
0.0000001
 44
0.0000000001
 12
-0.0276321875
 22
-0.0145342694
 32
0.0
 13
-0.0255766558
 23
-0.0179057938
 33
0.0
 40
0.0
 40
0.0
 40
0.0
 40
0.0
 40
0.2470400825
 40
1.0
 40
1.0
 40
1.0
 40
1.0
 10
5.8032931623
 20
5.8786279249
 30
0.0
 10
5.801017743
 20
5.8774310759
 30
0.0
 10
5.7918868147
 20
5.8724356958
 30
0.0
 10
5.7830812812
 20
5.8668487377
 30
0.0
 10
5.7766618823
 20
5.8623546227
 30
0.0
 11
5.8032931623
 21
5.8786279249
 31
0.0
 11
5.7965261909
 21
5.8749268544
 31
0.0
 11
5.7766618823
 21
5.8623546227
 31
0.0
  0
SPLINE
  5
304
100
AcDbEntity
  8
0
100
AcDbSpline
 62
6
  6
CONTINUOUS
 70
0
 71
3
 72
15
 73
11
 74
9
 42
0.0000001
 43
0.0000001
 44
0.0000000001
 12
-0.3435627463
 22
-0.3087048328
 32
0.0
 13
0.0951031293
 23
-0.4519838816
 33
0.0
 40
0.0
 40
0.0
 40
0.0
 40
0.0
 40
0.1096200384
 40
0.2253477759
 40
0.3468491583
 40
0.4732889471
 40
0.6034328411
 40
0.735748553
 40
0.8685790094
 40
1.0
 40
1.0
 40
1.0
 40
1.0
 10
5.7509030916
 20
5.8418472892
 30
0.0
 10
5.7383493044
 20
5.8305672107
 30
0.0
 10
5.7145559435
 20
5.8050636064
 30
0.0
 10
5.6844838747
 20
5.760717939
 30
0.0
 10
5.6597606412
 20
5.710289985
 30
0.0
 10
5.6410435737
 20
5.6550114552
 30
0.0
 10
5.6288327833
 20
5.596250725
 30
0.0
 10
5.6234791887
 20
5.5354883094
 30
0.0
 10
5.6251878569
 20
5.4743264876
 30
0.0
 10
5.6310958781
 20
5.4339560074
 30
0.0
 10
5.6352620606
 20
5.4141559509
 30
0.0
 11
5.7509030916
 21
5.8418472892
 31
0.0
 11
5.716207824
 21
5.80497212
 31
0.0
 11
5.6860411841
 21
5.7608457425
 31
0.0
 11
5.6611965545
 21
5.7105257029
 31
0.0
 11
5.6423551163
 21
5.6552484406
 31
0.0
 11
5.6300532116
 21
5.5964097281
 31
0.0
 11
5.6246649243
 21
5.5355336179
 31
0.0
 11
5.6263990471
 21
5.4742062699
 31
0.0
 11
5.6352620606
 21
5.4141559509
 31
0.0
  0
SPLINE
  5
305
100
AcDbEntity
  8
0
100
AcDbSpline
 62
6
  6
CONTINUOUS
 70
0
 71
3
 72
14
 73
10
 74
8
 42
0.0000001
 43
0.0000001
 44
0.0000000001
 12
-0.1169729549
 22
0.2276034059
 32
0.0
 13
-0.2497318533
 23
0.0558568172
 33
0.0
 40
0.0
 40
0.0
 40
0.0
 40
0.0
 40
0.1395817968
 40
0.2750150483
 40
0.5320471025
 40
0.6542222748
 40
0.7725532504
 40
0.8876088821
 40
1.0
 40
1.0
 40
1.0
 40
1.0
 10
6.1203705088
 20
5.7388455753
 30
0.0
 10
6.1149280771
 20
5.7494353394
 30
0.0
 10
6.103329316
 20
5.7698708578
 30
0.0
 10
6.0775098266
 20
5.8072361066
 30
0.0
 10
6.0475103376
 20
5.8397870173
 30
0.0
 10
6.0139270912
 20
5.8658612969
 30
0.0
 10
5.9879050576
 20
5.8815912934
 30
0.0
 10
5.9608942577
 20
5.8936252315
 30
0.0
 10
5.9422307778
 20
5.8991699025
 30
0.0
 10
5.9328748971
 20
5.9012625058
 30
0.0
 11
6.1203705088
 21
5.7388455753
 31
0.0
 11
6.1027042406
 21
5.7698902443
 31
0.0
 11
6.0829545366
 21
5.7983701307
 31
0.0
 11
6.0380452516
 21
5.8464275836
 31
0.0
 11
6.0133146632
 21
5.8655558972
 31
0.0
 11
5.9873695465
 21
5.8811699947
 31
0.0
 11
5.960456778
 21
5.8931112311
 31
0.0
 11
5.9328748971
 21
5.9012625058
 31
0.0
  0
SPLINE
  5
306
100
AcDbEntity
  8
0
100
AcDbSpline
 62
6
  6
CONTINUOUS
 70
0
 71
3
 72
14
 73
10
 74
8
 42
0.0000001
 43
0.0000001
 44
0.0000000001
 12
-0.2916690605
 22
0.2492840938
 32
0.0
 13
-0.0075906868
 23
0.3836088916
 33
0.0
 40
0.0
 40
0.0
 40
0.0
 40
0.0
 40
0.1114823557
 40
0.2276625141
 40
0.3484214261
 40
0.4733764364
 40
0.7328753802
 40
0.8660851943
 40
1.0
 40
1.0
 40
1.0
 40
1.0
 10
5.5053891417
 20
5.1553689141
 30
0.0
 10
5.4945504904
 20
5.1646325068
 30
0.0
 10
5.4737237903
 20
5.1851253128
 30
0.0
 10
5.4460979901
 20
5.2202186501
 30
0.0
 10
5.4218227722
 20
5.2597462034
 30
0.0
 10
5.3940947008
 20
5.3182138796
 30
0.0
 10
5.3749797646
 20
5.3821157473
 30
0.0
 10
5.3646307092
 20
5.44872466
 30
0.0
 10
5.3624218789
 20
5.4828763633
 30
0.0
 10
5.3620830438
 20
5.5
 30
0.0
 11
5.5053891417
 21
5.1553689141
 31
0.0
 11
5.4748191276
 21
5.1852869495
 31
0.0
 11
5.4471566186
 21
5.2202418766
 31
0.0
 11
5.4228279507
 21
5.2596739315
 31
0.0
 11
5.4022083487
 21
5.3029565599
 31
0.0
 11
5.3732784914
 21
5.3982265438
 31
0.0
 11
5.3654007129
 21
5.4487262565
 31
0.0
 11
5.3620830438
 21
5.5
 31
0.0
  0
SPLINE
  5
307
100
AcDbEntity
  8
0
100
AcDbSpline
 62
6
  6
CONTINUOUS
 70
0
 71
3
 72
14
 73
10
 74
8
 42
0.0000001
 43
0.0000001
 44
0.0000000001
 12
-0.0072448877
 22
0.366133317
 32
0.0
 13
0.2605619228
 23
0.2573199926
 33
0.0
 40
0.0
 40
0.0
 40
0.0
 40
0.0
 40
0.135101324
 40
0.26917145
 40
0.400958458
 40
0.5296044089
 40
0.654395722
 40
0.774711146
 40
1.0
 40
1.0
 40
1.0
 40
1.0
 10
5.5641175933
 20
5.5
 30
0.0
 10
5.5637913287
 20
5.5164883653
 30
0.0
 10
5.5645644778
 20
5.5493846514
 30
0.0
 10
5.5699249158
 20
5.598094126
 30
0.0
 10
5.5794437186
 20
5.645368971
 30
0.0
 10
5.5929321599
 20
5.6904854138
 30
0.0
 10
5.6102134375
 20
5.7328051641
 30
0.0
 10
5.6372796294
 20
5.7835009445
 30
0.0
 10
5.6632701972
 20
5.8174226575
 30
0.0
 10
5.6828374295
 20
5.8367464329
 30
0.0
 11
5.5641175933
 21
5.5
 31
0.0
 11
5.5652792173
 21
5.5494611401
 31
0.0
 11
5.5706828987
 21
5.5982600158
 31
0.0
 11
5.5802454711
 21
5.6455642134
 31
0.0
 11
5.5937999839
 21
5.6906829637
 31
0.0
 11
5.6111384642
 21
5.7329652782
 31
0.0
 11
5.6319794079
 21
5.7717847093
 31
0.0
 11
5.6828374295
 21
5.8367464329
 31
0.0
  0
SPLINE
  5
308
100
AcDbEntity
  8
0
100
AcDbSpline
 62
6
  6
CONTINUOUS
 70
0
 71
3
 72
9
 73
5
 74
3
 42
0.0000001
 43
0.0000001
 44
0.0000000001
 12
0.0223886011
 22
0.0205934991
 32
0.0
 13
0.0245492913
 23
0.0179631277
 33
0.0
 40
0.0
 40
0.0
 40
0.0
 40
0.0
 40
0.253424695
 40
1.0
 40
1.0
 40
1.0
 40
1.0
 10
5.6903070471
 20
5.8438672413
 30
0.0
 10
5.6921983219
 20
5.8456068751
 30
0.0
 10
5.6997531658
 20
5.852370476
 30
0.0
 10
5.7076780278
 20
5.8587225769
 30
0.0
 10
5.713787326
 20
5.8631928528
 30
0.0
 11
5.6903070471
 21
5.8438672413
 31
0.0
 11
5.696051254
 21
5.8490085739
 31
0.0
 11
5.713787326
 21
5.8631928528
 31
0.0
  0
SPLINE
  5
309
100
AcDbEntity
  8
0
100
AcDbSpline
 62
6
  6
CONTINUOUS
 70
0
 71
3
 72
14
 73
10
 74
8
 42
0.0000001
 43
0.0000001
 44
0.0000000001
 12
-0.0074449302
 22
0.3762428203
 32
0.0
 13
0.2768166263
 23
0.2549247775
 33
0.0
 40
0.0
 40
0.0
 40
0.0
 40
0.0
 40
0.1357062079
 40
0.2702994151
 40
0.4024590372
 40
0.531284879
 40
0.6560242983
 40
0.7760312642
 40
1.0
 40
1.0
 40
1.0
 40
1.0
 10
5.5136089559
 20
5.5
 30
0.0
 10
5.5132721815
 20
5.5170194955
 30
0.0
 10
5.5141168388
 20
5.5509678935
 30
0.0
 10
5.5198574947
 20
5.601190056
 30
0.0
 10
5.530019029
 20
5.6498353822
 30
0.0
 10
5.5443915036
 20
5.6961126752
 30
0.0
 10
5.5627702746
 20
5.7393267784
 30
0.0
 10
5.5914683774
 20
5.7907024614
 30
0.0
 10
5.6190072332
 20
5.8247205427
 30
0.0
 10
5.6396733231
 20
5.8437522694
 30
0.0
 11
5.5136089559
 21
5.5
 31
0.0
 11
5.5148792485
 21
5.5510526801
 31
0.0
 11
5.5206680052
 21
5.6013704345
 31
0.0
 11
5.5308791885
 21
5.6500447279
 31
0.0
 11
5.5453250182
 21
5.6963217114
 31
0.0
 11
5.5637679021
 21
5.7394884148
 31
0.0
 11
5.5858916095
 21
5.7788587231
 31
0.0
 11
5.6396733231
 21
5.8437522694
 31
0.0
  0
SPLINE
  5
30A
100
AcDbEntity
  8
0
100
AcDbSpline
 62
6
  6
CONTINUOUS
 70
0
 71
3
 72
9
 73
5
 74
3
 42
0.0000001
 43
0.0000001
 44
0.0000000001
 12
0.0224836186
 22
0.0207055174
 32
0.0
 13
0.02466544
 23
0.01805125
 33
0.0
 40
0.0
 40
0.0
 40
0.0
 40
0.0
 40
0.2534416905
 40
1.0
 40
1.0
 40
1.0
 40
1.0
 10
5.6396733231
 20
5.8437522694
 30
0.0
 10
5.6415727519
 20
5.8455014831
 30
0.0
 10
5.6491601905
 20
5.852301529
 30
0.0
 10
5.657121336
 20
5.8586864241
 30
0.0
 10
5.663259399
 20
5.8631785277
 30
0.0
 11
5.6396733231
 21
5.8437522694
 31
0.0
 11
5.6454427026
 21
5.8489216472
 31
0.0
 11
5.663259399
 21
5.8631785277
 31
0.0
  0
SPLINE
  5
30B
100
AcDbEntity
  8
0
100
AcDbSpline
 62
6
  6
CONTINUOUS
 70
0
 71
3
 72
14
 73
10
 74
8
 42
0.0000001
 43
0.0000001
 44
0.0000000001
 12
-0.0072406586
 22
0.3659195888
 32
0.0
 13
0.2602203523
 23
0.2573614984
 33
0.0
 40
0.0
 40
0.0
 40
0.0
 40
0.0
 40
0.1350873916
 40
0.2691473514
 40
0.4009275177
 40
0.5295695717
 40
0.6543613117
 40
0.7746832946
 40
1.0
 40
1.0
 40
1.0
 40
1.0
 10
5.4631003186
 20
5.5
 30
0.0
 10
5.462774278
 20
5.5164770409
 30
0.0
 10
5.4635460708
 20
5.5493511319
 30
0.0
 10
5.4688985122
 20
5.5980288215
 30
0.0
 10
5.4784040638
 20
5.6452749089
 30
0.0
 10
5.4918740834
 20
5.6903667587
 30
0.0
 10
5.5091328511
 20
5.7326670951
 30
0.0
 10
5.5361648036
 20
5.7833478927
 30
0.0
 10
5.5621235135
 20
5.8172663856
 30
0.0
 10
5.581667511
 20
5.8365956672
 30
0.0
 11
5.4631003186
 21
5.5
 31
0.0
 11
5.4642597534
 21
5.5494272023
 31
0.0
 11
5.4696554379
 21
5.5981943846
 31
0.0
 11
5.4792046267
 21
5.6454699905
 31
0.0
 11
5.492740645
 21
5.6905640916
 31
0.0
 11
5.5100562636
 21
5.732827115
 31
0.0
 11
5.530870506
 21
5.7716344097
 31
0.0
 11
5.581667511
 21
5.8365956672
 31
0.0
  0
SPLINE
  5
30C
100
AcDbEntity
  8
0
100
AcDbSpline
 62
6
  6
CONTINUOUS
 70
0
 71
3
 72
9
 73
5
 74
3
 42
0.0000001
 43
0.0000001
 44
0.0000000001
 12
0.0224836186
 22
0.0207055174
 32
0.0
 13
0.02466544
 23
0.01805125
 33
0.0
 40
0.0
 40
0.0
 40
0.0
 40
0.0
 40
0.2534416905
 40
1.0
 40
1.0
 40
1.0
 40
1.0
 10
5.5891646857
 20
5.8437522694
 30
0.0
 10
5.5910641145
 20
5.8455014831
 30
0.0
 10
5.5986515531
 20
5.852301529
 30
0.0
 10
5.6066126986
 20
5.8586864241
 30
0.0
 10
5.6127507616
 20
5.8631785277
 30
0.0
 11
5.5891646857
 21
5.8437522694
 31
0.0
 11
5.5949340652
 21
5.8489216472
 31
0.0
 11
5.6127507616
 21
5.8631785277
 31
0.0
  0
SPLINE
  5
30D
100
AcDbEntity
  8
0
100
AcDbSpline
 62
6
  6
CONTINUOUS
 70
0
 71
3
 72
14
 73
10
 74
8
 42
0.0000001
 43
0.0000001
 44
0.0000000001
 12
-0.0072406586
 22
0.3659195888
 32
0.0
 13
0.2602203523
 23
0.2573614984
 33
0.0
 40
0.0
 40
0.0
 40
0.0
 40
0.0
 40
0.1350873916
 40
0.2691473514
 40
0.4009275177
 40
0.5295695717
 40
0.6543613117
 40
0.7746832946
 40
1.0
 40
1.0
 40
1.0
 40
1.0
 10
5.4125916812
 20
5.5
 30
0.0
 10
5.4122656406
 20
5.5164770409
 30
0.0
 10
5.4130374335
 20
5.5493511319
 30
0.0
 10
5.4183898749
 20
5.5980288215
 30
0.0
 10
5.4278954264
 20
5.6452749089
 30
0.0
 10
5.4413654461
 20
5.6903667587
 30
0.0
 10
5.4586242138
 20
5.7326670951
 30
0.0
 10
5.4856561662
 20
5.7833478927
 30
0.0
 10
5.5116148762
 20
5.8172663856
 30
0.0
 10
5.5311588736
 20
5.8365956672
 30
0.0
 11
5.4125916812
 21
5.5
 31
0.0
 11
5.413751116
 21
5.5494272023
 31
0.0
 11
5.4191468005
 21
5.5981943846
 31
0.0
 11
5.4286959893
 21
5.6454699905
 31
0.0
 11
5.4422320077
 21
5.6905640916
 31
0.0
 11
5.4595476262
 21
5.732827115
 31
0.0
 11
5.4803618686
 21
5.7716344097
 31
0.0
 11
5.5311588736
 21
5.8365956672
 31
0.0
  0
SPLINE
  5
30E
100
AcDbEntity
  8
0
100
AcDbSpline
 62
6
  6
CONTINUOUS
 70
0
 71
3
 72
9
 73
5
 74
3
 42
0.0000001
 43
0.0000001
 44
0.0000000001
 12
0.0224836186
 22
0.0207055174
 32
0.0
 13
0.02466544
 23
0.01805125
 33
0.0
 40
0.0
 40
0.0
 40
0.0
 40
0.0
 40
0.2534416905
 40
1.0
 40
1.0
 40
1.0
 40
1.0
 10
5.5386560484
 20
5.8437522694
 30
0.0
 10
5.5405554771
 20
5.8455014831
 30
0.0
 10
5.5481429157
 20
5.852301529
 30
0.0
 10
5.5561040612
 20
5.8586864241
 30
0.0
 10
5.5622421243
 20
5.8631785277
 30
0.0
 11
5.5386560484
 21
5.8437522694
 31
0.0
 11
5.5444254279
 21
5.8489216472
 31
0.0
 11
5.5622421243
 21
5.8631785277
 31
0.0
  0
SPLINE
  5
30F
100
AcDbEntity
  8
0
100
AcDbSpline
 62
6
  6
CONTINUOUS
 70
0
 71
3
 72
15
 73
11
 74
9
 42
0.0000001
 43
0.0000001
 44
0.0000000001
 12
-0.0078231238
 22
0.395355508
 32
0.0
 13
0.3085204861
 23
0.247350538
 33
0.0
 40
0.0
 40
0.0
 40
0.0
 40
0.0
 40
0.1368120997
 40
0.2723428748
 40
0.4051449772
 40
0.5342345131
 40
0.6587828331
 40
0.7781071504
 40
0.8918474819
 40
1.0
 40
1.0
 40
1.0
 40
1.0
 10
5.3620830438
 20
5.5
 30
0.0
 10
5.3617262778
 20
5.5180298057
 30
0.0
 10
5.3627142765
 20
5.553976822
 30
0.0
 10
5.3692141346
 20
5.6070609611
 30
0.0
 10
5.3806499939
 20
5.6582722148
 30
0.0
 10
5.3967778877
 20
5.7066865654
 30
0.0
 10
5.4173036994
 20
5.751470067
 30
0.0
 10
5.4418699167
 20
5.7918393078
 30
0.0
 10
5.4700274178
 20
5.8270720171
 30
0.0
 10
5.4914133439
 20
5.8472119052
 30
0.0
 10
5.5025357664
 20
5.8561290998
 30
0.0
 11
5.3620830438
 21
5.5
 31
0.0
 11
5.3635722169
 21
5.5540795058
 31
0.0
 11
5.3701294593
 21
5.6072701754
 31
0.0
 11
5.3816295442
 21
5.6585098272
 31
0.0
 11
5.3978412304
 21
5.7069133481
 31
0.0
 11
5.4184601139
 21
5.7516400038
 31
0.0
 11
5.4430981475
 21
5.7918813874
 31
0.0
 11
5.4712965257
 21
5.8269206831
 31
0.0
 11
5.5025357664
 21
5.8561290998
 31
0.0
  0
SPLINE
  5
310
100
AcDbEntity
  8
0
100
AcDbSpline
 62
6
  6
CONTINUOUS
 70
0
 71
3
 72
15
 73
11
 74
9
 42
0.0000001
 43
0.0000001
 44
0.0000000001
 12
-0.0084133789
 22
0.4251851018
 32
0.0
 13
0.3606686616
 23
0.225324815
 33
0.0
 40
0.0
 40
0.0
 40
0.0
 40
0.0
 40
0.1387630339
 40
0.2759456372
 40
0.4098897857
 40
0.5394608302
 40
0.6637055605
 40
0.7819357464
 40
0.893935425
 40
1.0
 40
1.0
 40
1.0
 40
1.0
 10
5.3115744064
 20
5.5
 30
0.0
 10
5.3111852511
 20
5.5196666582
 30
0.0
 10
5.3124269489
 20
5.5588455884
 30
0.0
 10
5.3202540271
 20
5.6165230151
 30
0.0
 10
5.3339038309
 20
5.6717792547
 30
0.0
 10
5.3530562768
 20
5.723434197
 30
0.0
 10
5.3772822338
 20
5.7704380443
 30
0.0
 10
5.4061117275
 20
5.8117963989
 30
0.0
 10
5.4389112799
 20
5.8466361795
 30
0.0
 10
5.4636411118
 20
5.8654889431
 30
0.0
 10
5.4763925012
 20
5.87345527
 30
0.0
 11
5.3115744064
 21
5.5
 31
0.0
 11
5.3134525376
 21
5.5589816295
 31
0.0
 11
5.3213549101
 21
5.6167833604
 31
0.0
 11
5.3350963475
 21
5.6720632453
 31
0.0
 11
5.3543593528
 21
5.7236889944
 31
0.0
 11
5.3787061561
 21
5.7705826898
 31
0.0
 11
5.4076021605
 21
5.8117294332
 31
0.0
 11
5.4404032754
 21
5.8462648618
 31
0.0
 11
5.4763925012
 21
5.87345527
 31
0.0
  0
SPLINE
  5
311
100
AcDbEntity
  8
0
100
AcDbSpline
 62
6
  6
CONTINUOUS
 70
0
 71
3
 72
12
 73
8
 74
6
 42
0.0000001
 43
0.0000001
 44
0.0000000001
 12
-0.0055557118
 22
0.2807677982
 32
0.0
 13
0.1444762947
 23
0.2408070238
 33
0.0
 40
0.0
 40
0.0
 40
0.0
 40
0.0
 40
0.130784445
 40
0.2610840649
 40
0.5173080453
 40
0.7646020961
 40
1.0
 40
1.0
 40
1.0
 40
1.0
 10
5.261065769
 20
5.5
 30
0.0
 10
5.2608235688
 20
5.5122400202
 30
0.0
 10
5.2611274554
 20
5.5366986246
 30
0.0
 10
5.2648176036
 20
5.5850058297
 30
0.0
 10
5.27506301
 20
5.6436406054
 30
0.0
 10
5.2961544346
 20
5.7097327142
 30
0.0
 10
5.3161447152
 20
5.7504984237
 30
0.0
 10
5.3274811875
 20
5.7693935799
 30
0.0
 11
5.261065769
 21
5.5
 31
0.0
 11
5.2615190986
 21
5.5367244509
 31
0.0
 11
5.2643160342
 21
5.5732084977
 31
0.0
 11
5.2768214019
 21
5.6440669876
 31
0.0
 11
5.2981246043
 21
5.7101645851
 31
0.0
 11
5.3274811875
 21
5.7693935799
 31
0.0
  0
SPLINE
  5
312
100
AcDbEntity
  8
0
100
AcDbSpline
 62
6
  6
CONTINUOUS
 70
0
 71
3
 72
9
 73
5
 74
3
 42
0.0000001
 43
0.0000001
 44
0.0000000001
 12
0.069396121
 22
0.089270563
 32
0.0
 13
0.0989534829
 23
0.0547107233
 33
0.0
 40
0.0
 40
0.0
 40
0.0
 40
0.0
 40
0.5165631689
 40
1.0
 40
1.0
 40
1.0
 40
1.0
 10
5.3522269397
 20
5.8056158674
 30
0.0
 10
5.3641760997
 20
5.8209871624
 30
0.0
 10
5.3899135353
 20
5.848851448
 30
0.0
 10
5.4208042249
 20
5.8710339557
 30
0.0
 10
5.4367501443
 20
5.8798503486
 30
0.0
 11
5.3522269397
 21
5.8056158674
 31
0.0
 11
5.3921412038
 21
5.8482583783
 31
0.0
 11
5.4367501443
 21
5.8798503486
 31
0.0
  0
SPLINE
  5
313
100
AcDbEntity
  8
0
100
AcDbSpline
 62
6
  6
CONTINUOUS
 70
0
 71
3
 72
13
 73
9
 74
7
 42
0.0000001
 43
0.0000001
 44
0.0000000001
 12
-0.0057515555
 22
0.2906651097
 32
0.0
 13
0.1559558422
 23
0.245350895
 33
0.0
 40
0.0
 40
0.0
 40
0.0
 40
0.0
 40
0.1312784418
 40
0.2619258691
 40
0.5184383965
 40
0.6434694578
 40
0.7656850239
 40
1.0
 40
1.0
 40
1.0
 40
1.0
 10
5.2105571317
 20
5.5
 30
0.0
 10
5.2103054466
 20
5.5127193542
 30
0.0
 10
5.2106492358
 20
5.5381235762
 30
0.0
 10
5.2146644837
 20
5.5882278304
 30
0.0
 10
5.2236122201
 20
5.6372427886
 30
0.0
 10
5.2374960391
 20
5.6840859494
 30
0.0
 10
5.2540326723
 20
5.7277520935
 30
0.0
 10
5.2699798763
 20
5.7586318117
 30
0.0
 10
5.2821608061
 20
5.7777949414
 30
0.0
 11
5.2105571317
 21
5.5
 31
0.0
 11
5.2110732953
 21
5.5381620418
 31
0.0
 11
5.2141184034
 21
5.576021861
 31
0.0
 11
5.2276493545
 21
5.6493578723
 31
0.0
 11
5.2380022648
 21
5.6842016307
 31
0.0
 11
5.2506184754
 21
5.7174170756
 31
0.0
 11
5.2821608061
 21
5.7777949414
 31
0.0
  0
SPLINE
  5
314
100
AcDbEntity
  8
0
100
AcDbSpline
 62
6
  6
CONTINUOUS
 70
0
 71
3
 72
9
 73
5
 74
3
 42
0.0000001
 43
0.0000001
 44
0.0000000001
 12
-0.0587270088
 22
-0.0193507872
 32
0.0
 13
-0.0618299217
 23
-0.0006126315
 33
0.0
 40
0.0
 40
0.0
 40
0.0
 40
0.0
 40
0.5025914935
 40
1.0
 40
1.0
 40
1.0
 40
1.0
 10
5.948756759
 20
5.1425930796
 30
0.0
 10
5.938918194
 20
5.1393512326
 30
0.0
 10
5.9188285101
 20
5.1343590748
 30
0.0
 10
5.8982041539
 20
5.1325237274
 30
0.0
 10
5.8879525776
 20
5.1324221514
 30
0.0
 11
5.948756759
 21
5.1425930796
 31
0.0
 11
5.9185893282
 21
5.1351306052
 31
0.0
 11
5.8879525776
 21
5.1324221514
 31
0.0
  0
SPLINE
  5
315
100
AcDbEntity
  8
0
100
AcDbSpline
 62
6
  6
CONTINUOUS
 70
0
 71
3
 72
21
 73
17
 74
15
 42
0.0000001
 43
0.0000001
 44
0.0000000001
 12
-0.5028559799
 22
0.1006662046
 32
0.0
 13
-0.0101457342
 23
0.5127327621
 33
0.0
 40
0.0
 40
0.0
 40
0.0
 40
0.0
 40
0.0521428125
 40
0.1052066695
 40
0.1594772698
 40
0.2151846008
 40
0.2724896353
 40
0.3315008478
 40
0.3922578316
 40
0.454743134
 40
0.5188933207
 40
0.5845808623
 40
0.719813777
 40
0.858996403
 40
0.9294610516
 40
1.0
 40
1.0
 40
1.0
 40
1.0
 10
5.4679315845
 20
5.0979820054
 30
0.0
 10
5.4591914762
 20
5.0997316785
 30
0.0
 10
5.4417552381
 20
5.1043386424
 30
0.0
 10
5.4163352312
 20
5.1143442329
 30
0.0
 10
5.3916599951
 20
5.1274251059
 30
0.0
 10
5.3679247307
 20
5.1434651583
 30
0.0
 10
5.3452985668
 20
5.1623216187
 30
0.0
 10
5.3239666268
 20
5.1838578614
 30
0.0
 10
5.3040774994
 20
5.2078889461
 30
0.0
 10
5.2857792535
 20
5.2342257042
 30
0.0
 10
5.2692211547
 20
5.2626673558
 30
0.0
 10
5.2494174517
 20
5.3034629909
 30
0.0
 10
5.2298014724
 20
5.3584074703
 30
0.0
 10
5.217502982
 20
5.4162444711
 30
0.0
 10
5.2120377057
 20
5.4638525125
 30
0.0
 10
5.2107956881
 20
5.4879441234
 30
0.0
 10
5.2105571317
 20
5.5
 30
0.0
 11
5.4679315845
 21
5.0979820054
 31
0.0
 11
5.4420716643
 21
5.1047880448
 31
0.0
 11
5.4167388348
 21
5.1147273553
 31
0.0
 11
5.3921306762
 21
5.1277291054
 31
0.0
 11
5.3684358392
 21
5.1436889803
 31
0.0
 11
5.3458352234
 21
5.1624736023
 31
0.0
 11
5.3245066752
 21
5.1839430328
 31
0.0
 11
5.3046100315
 21
5.2079212863
 31
0.0
 11
5.2862979754
 21
5.2342180678
 31
0.0
 11
5.2697143396
 21
5.2626308093
 31
0.0
 11
5.2549790813
 21
5.2929238635
 31
0.0
 11
5.2314965217
 21
5.3581791934
 31
0.0
 11
5.2165451752
 21
5.4279731711
 31
0.0
 11
5.2124158528
 21
5.4638730739
 31
0.0
 11
5.2105571317
 21
5.5
 31
0.0
  0
SPLINE
  5
316
100
AcDbEntity
  8
0
100
AcDbSpline
 62
6
  6
CONTINUOUS
 70
0
 71
3
 72
15
 73
11
 74
9
 42
0.0000001
 43
0.0000001
 44
0.0000000001
 12
-0.3959481507
 22
0.2061937894
 32
0.0
 13
-0.008831837
 23
0.4463326287
 33
0.0
 40
0.0
 40
0.0
 40
0.0
 40
0.0
 40
0.1077500254
 40
0.2208154037
 40
0.3396118281
 40
0.4639996589
 40
0.5933364399
 40
0.7266503551
 40
0.862774289
 40
1.0
 40
1.0
 40
1.0
 40
1.0
 10
5.4561765433
 20
5.1201496514
 30
0.0
 10
5.4419554022
 20
5.1275554468
 30
0.0
 10
5.4142111277
 20
5.1455452981
 30
0.0
 10
5.3769026601
 20
5.1799348512
 30
0.0
 10
5.3437214024
 20
5.2215223827
 30
0.0
 10
5.3153758102
 20
5.2693463571
 30
0.0
 10
5.2924126909
 20
5.3223183062
 30
0.0
 10
5.2753168464
 20
5.3792790667
 30
0.0
 10
5.2644502677
 20
5.4389255919
 30
0.0
 10
5.2614697541
 20
5.4795838959
 30
0.0
 10
5.261065769
 20
5.5
 30
0.0
 11
5.4561765433
 21
5.1201496514
 31
0.0
 11
5.4157091007
 21
5.1461528439
 31
0.0
 11
5.3784538791
 21
5.1802077756
 31
0.0
 11
5.3452315973
 21
5.2215452849
 31
0.0
 11
5.3167744773
 21
5.2692284695
 31
0.0
 11
5.2936969394
 21
5.3221544991
 31
0.0
 11
5.2765025738
 21
5.3791305446
 31
0.0
 11
5.2655519485
 21
5.4389041835
 31
0.0
 11
5.261065769
 21
5.5
 31
0.0
  0
SPLINE
  5
317
100
AcDbEntity
  8
0
100
AcDbSpline
 62
6
  6
CONTINUOUS
 70
0
 71
3
 72
15
 73
11
 74
9
 42
0.0000001
 43
0.0000001
 44
0.0000000001
 12
-0.3509862185
 22
0.2305825326
 32
0.0
 13
-0.008308201
 23
0.4198697461
 33
0.0
 40
0.0
 40
0.0
 40
0.0
 40
0.0
 40
0.1092404761
 40
0.2236321492
 40
0.3433003775
 40
0.4679655098
 40
0.596955055
 40
0.7293979225
 40
0.8642563975
 40
1.0
 40
1.0
 40
1.0
 40
1.0
 10
5.4838105048
 20
5.1335943131
 30
0.0
 10
5.471029871
 20
5.1419906283
 30
0.0
 10
5.4462729964
 20
5.1614019639
 30
0.0
 10
5.413223397
 20
5.1965005109
 30
0.0
 10
5.3839828847
 20
5.2375019227
 30
0.0
 10
5.3591123505
 20
5.2836044632
 30
0.0
 10
5.3390244432
 20
5.3338993688
 30
0.0
 10
5.3240881489
 20
5.3874332055
 30
0.0
 10
5.3145873896
 20
5.4431401548
 30
0.0
 10
5.3119503348
 20
5.4810017894
 30
0.0
 10
5.3115744064
 20
5.5
 30
0.0
 11
5.4838105048
 21
5.1335943131
 31
0.0
 11
5.447613446
 21
5.1617786587
 31
0.0
 11
5.4145564327
 21
5.1966352197
 31
0.0
 11
5.3852630771
 21
5.2374696994
 31
0.0
 11
5.3602944476
 21
5.2834853733
 31
0.0
 11
5.3401166134
 21
5.3337564378
 31
0.0
 11
5.3251056442
 21
5.3873121567
 31
0.0
 11
5.31553757
 21
5.4431321418
 31
0.0
 11
5.3115744064
 21
5.5
 31
0.0
  0
SPLINE
  5
318
100
AcDbEntity
  8
0
100
AcDbSpline
 62
6
  6
CONTINUOUS
 70
0
 71
3
 72
14
 73
10
 74
8
 42
0.0000001
 43
0.0000001
 44
0.0000000001
 12
-0.2833038538
 22
0.2507009717
 32
0.0
 13
-0.0074842021
 23
0.3782274944
 33
0.0
 40
0.0
 40
0.0
 40
0.0
 40
0.0
 40
0.2278372947
 40
0.3487640883
 40
0.4737532436
 40
0.602186591
 40
0.733348837
 40
0.8663762921
 40
1.0
 40
1.0
 40
1.0
 40
1.0
 10
5.5518665557
 20
5.1588744198
 30
0.0
 10
5.5303508279
 20
5.1779140969
 30
0.0
 10
5.5013827457
 20
5.211781056
 30
0.0
 10
5.4706056408
 20
5.2630469344
 30
0.0
 10
5.4506376606
 20
5.3059265506
 30
0.0
 10
5.4345975103
 20
5.3517687421
 30
0.0
 10
5.4226770569
 20
5.3998965515
 30
0.0
 10
5.415078794
 20
5.449546202
 30
0.0
 10
5.4129250368
 20
5.4831532799
 30
0.0
 10
5.4125916812
 20
5.5
 30
0.0
 11
5.5518665557
 21
5.1588744198
 31
0.0
 11
5.4951960628
 21
5.2238157616
 31
0.0
 11
5.4715607611
 21
5.2629838794
 31
0.0
 11
5.4515384816
 21
5.3058189834
 31
0.0
 11
5.4354323109
 21
5.3516582939
 31
0.0
 11
5.4234669815
 21
5.3998128787
 31
0.0
 11
5.4158217244
 21
5.4495532484
 31
0.0
 11
5.4125916812
 21
5.5
 31
0.0
  0
SPLINE
  5
319
100
AcDbEntity
  8
0
100
AcDbSpline
 62
6
  6
CONTINUOUS
 70
0
 71
3
 72
9
 73
5
 74
3
 42
0.0000001
 43
0.0000001
 44
0.0000000001
 12
-0.0284999435
 22
0.0159070796
 32
0.0
 13
-0.0263805776
 23
0.0192184048
 33
0.0
 40
0.0
 40
0.0
 40
0.0
 40
0.0
 40
0.2471919926
 40
1.0
 40
1.0
 40
1.0
 40
1.0
 10
5.6517130486
 20
5.1236545425
 30
0.0
 10
5.6493647293
 20
5.1249652434
 30
0.0
 10
5.6399480682
 20
5.1304159027
 30
0.0
 10
5.6308695998
 20
5.1364478114
 30
0.0
 10
5.6242497631
 20
5.1412704011
 30
0.0
 11
5.6517130486
 21
5.1236545425
 31
0.0
 11
5.6447299478
 21
5.1276954787
 31
0.0
 11
5.6242497631
 21
5.1412704011
 31
0.0
  0
SPLINE
  5
31A
100
AcDbEntity
  8
0
100
AcDbSpline
 62
6
  6
CONTINUOUS
 70
0
 71
3
 72
14
 73
10
 74
8
 42
0.0000001
 43
0.0000001
 44
0.0000000001
 12
-0.2833038538
 22
0.2507009717
 32
0.0
 13
-0.0074842021
 23
0.3782274944
 33
0.0
 40
0.0
 40
0.0
 40
0.0
 40
0.0
 40
0.2278372947
 40
0.3487640883
 40
0.4737532436
 40
0.602186591
 40
0.733348837
 40
0.8663762921
 40
1.0
 40
1.0
 40
1.0
 40
1.0
 10
5.6023751931
 20
5.1588744198
 30
0.0
 10
5.5808594652
 20
5.1779140969
 30
0.0
 10
5.5518913831
 20
5.211781056
 30
0.0
 10
5.5211142782
 20
5.2630469344
 30
0.0
 10
5.5011462979
 20
5.3059265506
 30
0.0
 10
5.4851061477
 20
5.3517687421
 30
0.0
 10
5.4731856943
 20
5.3998965515
 30
0.0
 10
5.4655874314
 20
5.449546202
 30
0.0
 10
5.4634336742
 20
5.4831532799
 30
0.0
 10
5.4631003186
 20
5.5
 30
0.0
 11
5.6023751931
 21
5.1588744198
 31
0.0
 11
5.5457047002
 21
5.2238157616
 31
0.0
 11
5.5220693985
 21
5.2629838794
 31
0.0
 11
5.502047119
 21
5.3058189834
 31
0.0
 11
5.4859409483
 21
5.3516582939
 31
0.0
 11
5.4739756189
 21
5.3998128787
 31
0.0
 11
5.4663303618
 21
5.4495532484
 31
0.0
 11
5.4631003186
 21
5.5
 31
0.0
  0
SPLINE
  5
31B
100
AcDbEntity
  8
0
100
AcDbSpline
 62
6
  6
CONTINUOUS
 70
0
 71
3
 72
13
 73
9
 74
7
 42
0.0000001
 43
0.0000001
 44
0.0000000001
 12
-0.2199421299
 22
0.144492321
 32
0.0
 13
-0.0783585382
 23
0.2512220349
 33
0.0
 40
0.0
 40
0.0
 40
0.0
 40
0.0
 40
0.1130517707
 40
0.2295123616
 40
0.349554076
 40
0.4731967298
 40
0.7306285727
 40
1.0
 40
1.0
 40
1.0
 40
1.0
 10
5.6858450544
 20
5.1335943131
 30
0.0
 10
5.6775567719
 20
5.1390393507
 30
0.0
 10
5.6613205551
 20
5.1510170607
 30
0.0
 10
5.6385788589
 20
5.1716536624
 30
0.0
 10
5.6172826177
 20
5.1950513354
 30
0.0
 10
5.590676026
 20
5.2301048553
 30
0.0
 10
5.5621367791
 20
5.2798122459
 30
0.0
 10
5.5453317495
 20
5.3230521862
 30
0.0
 10
5.5382958991
 20
5.3456095323
 30
0.0
 11
5.6858450544
 21
5.1335943131
 31
0.0
 11
5.6618781719
 21
5.1512205743
 31
0.0
 11
5.6391517345
 21
5.1717823461
 31
0.0
 11
5.6178525865
 21
5.1951120859
 31
0.0
 11
5.5981493226
 21
5.2210057238
 31
0.0
 11
5.5641672636
 21
5.2796117599
 31
0.0
 11
5.5382958991
 21
5.3456095323
 31
0.0
  0
SPLINE
  5
31C
100
AcDbEntity
  8
0
100
AcDbSpline
 62
6
  6
CONTINUOUS
 70
0
 71
3
 72
10
 73
6
 74
4
 42
0.0000001
 43
0.0000001
 44
0.0000000001
 12
-0.0466907727
 22
0.1496933353
 32
0.0
 13
-0.0031022021
 23
0.1567753145
 33
0.0
 40
0.0
 40
0.0
 40
0.0
 40
0.0
 40
0.2464812804
 40
0.6218569815
 40
1.0
 40
1.0
 40
1.0
 40
1.0
 10
5.5382958991
 20
5.3456095323
 30
0.0
 10
5.5344597652
 20
5.3579084006
 30
0.0
 10
5.5259341965
 20
5.3893070882
 30
0.0
 10
5.5168197844
 20
5.4408727942
 30
0.0
 10
5.5139999813
 20
5.4802388365
 30
0.0
 10
5.5136089559
 20
5.5
 30
0.0
 11
5.5382958991
 21
5.3456095323
 31
0.0
 11
5.5281502772
 21
5.38290389
 31
0.0
 11
5.5178496065
 21
5.4408567396
 31
0.0
 11
5.5136089559
 21
5.5
 31
0.0
  0
SPLINE
  5
31D
100
AcDbEntity
  8
0
100
AcDbSpline
 62
6
  6
CONTINUOUS
 70
0
 71
3
 72
9
 73
5
 74
3
 42
0.0000001
 43
0.0000001
 44
0.0000000001
 12
-0.0411925448
 22
0.0094750935
 32
0.0
 13
-0.038786545
 23
0.0167990198
 33
0.0
 40
0.0
 40
0.0
 40
0.0
 40
0.0
 40
0.2476549852
 40
1.0
 40
1.0
 40
1.0
 40
1.0
 10
5.8152951529
 20
5.0993181856
 30
0.0
 10
5.8118946399
 20
5.1001003703
 30
0.0
 10
5.7982390819
 20
5.1035795023
 30
0.0
 10
5.7849120557
 20
5.1083331538
 30
0.0
 10
5.7751851011
 20
5.11254604
 30
0.0
 11
5.8152951529
 21
5.0993181856
 31
0.0
 11
5.8051510557
 21
5.1019017892
 31
0.0
 11
5.7751851011
 21
5.11254604
 31
0.0
  0
SPLINE
  5
31E
100
AcDbEntity
  8
0
100
AcDbSpline
 62
6
  6
CONTINUOUS
 70
0
 71
3
 72
9
 73
5
 74
3
 42
0.0000001
 43
0.0000001
 44
0.0000000001
 12
-0.0287545455
 22
0.0127600511
 32
0.0
 13
-0.0269536955
 23
0.0162216242
 33
0.0
 40
0.0
 40
0.0
 40
0.0
 40
0.0
 40
0.2475193455
 40
1.0
 40
1.0
 40
1.0
 40
1.0
 10
5.773209146
 20
5.1134123604
 30
0.0
 10
5.7708367105
 20
5.1144651469
 30
0.0
 10
5.7613205801
 20
5.1188721266
 30
0.0
 10
5.7520857872
 20
5.1238831787
 30
0.0
 10
5.7453250757
 20
5.1279519982
 30
0.0
 11
5.773209146
 21
5.1134123604
 31
0.0
 11
5.7661430941
 21
5.1166837813
 31
0.0
 11
5.7453250757
 21
5.1279519982
 31
0.0
  0
SPLINE
  5
31F
100
AcDbEntity
  8
0
100
AcDbSpline
 62
6
  6
CONTINUOUS
 70
0
 71
3
 72
14
 73
10
 74
8
 42
0.0000001
 43
0.0000001
 44
0.0000000001
 12
-0.2913979299
 22
0.2492586861
 32
0.0
 13
-0.0075862833
 23
0.3833863514
 33
0.0
 40
0.0
 40
0.0
 40
0.0
 40
0.0
 40
0.2272583188
 40
0.3480512264
 40
0.4730108753
 40
0.6015235862
 40
0.7328634238
 40
0.8661312087
 40
1.0
 40
1.0
 40
1.0
 40
1.0
 10
5.7072992755
 20
5.1554738004
 30
0.0
 10
5.6852250743
 20
5.174355837
 30
0.0
 10
5.6554511847
 20
5.2082455782
 30
0.0
 10
5.6238219511
 20
5.2598396916
 30
0.0
 10
5.6032711044
 20
5.3031507095
 30
0.0
 10
5.5867599528
 20
5.3495629645
 30
0.0
 10
5.5744859379
 20
5.3983677515
 30
0.0
 10
5.5666682864
 20
5.4487647141
 30
0.0
 10
5.5644561155
 20
5.4828921775
 30
0.0
 10
5.5641175933
 20
5.5
 30
0.0
 11
5.7072992755
 21
5.1554738004
 31
0.0
 11
5.6491150284
 21
5.22034913
 31
0.0
 11
5.6248105499
 21
5.2597798386
 31
0.0
 11
5.6042056234
 21
5.3030406205
 31
0.0
 11
5.5876239236
 21
5.3494467896
 31
0.0
 11
5.57530256
 21
5.3982800993
 31
0.0
 11
5.56743386
 21
5.4487737171
 31
0.0
 11
5.5641175933
 21
5.5
 31
0.0
  0
SPLINE
  5
320
100
AcDbEntity
  8
0
100
AcDbSpline
 62
6
  6
CONTINUOUS
 70
0
 71
3
 72
26
 73
22
 74
20
 42
0.0000001
 43
0.0000001
 44
0.0000000001
 12
0.8016815876
 22
0.0001392638
 32
0.0
 13
-0.3524451285
 23
0.7200526499
 33
0.0
 40
0.0
 40
0.0
 40
0.0
 40
0.0
 40
0.0253251114
 40
0.0507591256
 40
0.0764075708
 40
0.1023711315
 40
0.1555372624
 40
0.2108816283
 40
0.2687501149
 40
0.3292709669
 40
0.3605196164
 40
0.3923835372
 40
0.4577749618
 40
0.5250614768
 40
0.5937315171
 40
0.6631891832
 40
0.7327931211
 40
0.8018737306
 40
0.8698240713
 40
0.9360810294
 40
1.0
 40
1.0
 40
1.0
 40
1.0
 10
5.8703207627
 20
5.093752417
 30
0.0
 10
5.8770883212
 20
5.0937535926
 30
0.0
 10
5.8906610694
 20
5.0943985061
 30
0.0
 10
5.9109030216
 20
5.0972817696
 30
0.0
 10
5.9309576604
 20
5.1020752732
 30
0.0
 10
5.957512749
 20
5.1110542757
 30
0.0
 10
5.9898933492
 20
5.1270799762
 30
0.0
 10
6.0260968776
 20
5.1531956029
 30
0.0
 10
6.0593832534
 20
5.1857861361
 30
0.0
 10
6.0839277559
 20
5.2175088653
 30
0.0
 10
6.1016527069
 20
5.2454088469
 30
0.0
 10
6.1182979226
 20
5.2754661428
 30
0.0
 10
6.1361963635
 20
5.3157381825
 30
0.0
 10
6.1526757761
 20
5.3670579426
 30
0.0
 10
6.1640508723
 20
5.4208537874
 30
0.0
 10
6.1701410373
 20
5.4761185669
 30
0.0
 10
6.1708565428
 20
5.5318224427
 30
0.0
 10
6.1662049501
 20
5.5869323218
 30
0.0
 10
6.156292292
 20
5.6404403676
 30
0.0
 10
6.1412982559
 20
5.6913137505
 30
0.0
 10
6.1278798188
 20
5.7235039006
 30
0.0
 10
6.1203705088
 20
5.7388455753
 30
0.0
 11
5.8703207627
 21
5.093752417
 31
0.0
 11
5.8906006834
 21
5.0947133854
 31
0.0
 11
5.9107876264
 21
5.0975836936
 31
0.0
 11
5.9307882877
 21
5.102354933
 31
0.0
 11
5.9505107615
 21
5.1090083386
 31
0.0
 11
5.988764557
 21
5.1278048369
 31
0.0
 11
6.0248441328
 21
5.1536279526
 31
0.0
 11
6.0580952768
 21
5.1859789719
 31
0.0
 11
6.0879046013
 21
5.2242600965
 31
0.0
 11
6.1013504226
 21
5.2453974072
 31
0.0
 11
6.1137384241
 21
5.2677372838
 31
0.0
 11
6.135122237
 21
5.3156007789
 31
0.0
 11
6.1516810977
 21
5.3669387029
 31
0.0
 11
6.1631176249
 21
5.4207891843
 31
0.0
 11
6.1692389162
 21
5.4761346341
 31
0.0
 11
6.1699518665
 21
5.5319302755
 31
0.0
 11
6.1652653274
 21
5.5871122756
 31
0.0
 11
6.1552836532
 21
5.6406645067
 31
0.0
 11
6.1401972937
 21
5.6915940243
 31
0.0
 11
6.1203705088
 21
5.7388455753
 31
0.0
  0
SPLINE
  5
321
100
AcDbEntity
  8
0
100
AcDbSpline
 62
6
  6
CONTINUOUS
 70
0
 71
3
 72
11
 73
7
 74
5
 42
0.0000001
 43
0.0000001
 44
0.0000000001
 12
-0.1417554205
 22
-0.0294459652
 32
0.0
 13
-0.0970571942
 23
-0.1074316767
 33
0.0
 40
0.0
 40
0.0
 40
0.0
 40
0.0
 40
0.2353906515
 40
0.478899457
 40
0.7333540748
 40
1.0
 40
1.0
 40
1.0
 40
1.0
 10
5.4428942576
 20
5.9024005231
 30
0.0
 10
5.431771624
 20
5.9000900882
 30
0.0
 10
5.4095320173
 20
5.8932955068
 30
0.0
 10
5.3778101115
 20
5.8772551696
 30
0.0
 10
5.3478292892
 20
5.8555052026
 30
0.0
 10
5.3297351309
 20
5.8379070618
 30
0.0
 10
5.3211084958
 20
5.8283583222
 30
0.0
 11
5.4428942576
 21
5.9024005231
 31
0.0
 11
5.4102772978
 21
5.8925215697
 31
0.0
 11
5.378765287
 21
5.8767118481
 31
0.0
 11
5.3488649148
 21
5.8551903284
 31
0.0
 11
5.3211084958
 21
5.8283583222
 31
0.0
  0
SPLINE
  5
322
100
AcDbEntity
  8
0
100
AcDbSpline
 62
6
  6
CONTINUOUS
 70
0
 71
3
 72
15
 73
11
 74
9
 42
0.0000001
 43
0.0000001
 44
0.0000000001
 12
-0.3102770893
 22
0.1264222324
 32
0.0
 13
-0.0656462455
 23
0.3285498797
 33
0.0
 40
0.0
 40
0.0
 40
0.0
 40
0.0
 40
0.1090370758
 40
0.2222812947
 40
0.3403559064
 40
0.4634871908
 40
0.5915735007
 40
0.7241745205
 40
0.8606151799
 40
1.0
 40
1.0
 40
1.0
 40
1.0
 10
5.8097102249
 20
5.1476514159
 30
0.0
 10
5.7984329894
 20
5.1522463194
 30
0.0
 10
5.7762014955
 20
5.1635726854
 30
0.0
 10
5.7452659935
 20
5.1858842384
 30
0.0
 10
5.7166814669
 20
5.2134479785
 30
0.0
 10
5.6908663159
 20
5.2457476555
 30
0.0
 10
5.6682434432
 20
5.2822674006
 30
0.0
 10
5.6491210979
 20
5.3223785716
 30
0.0
 10
5.6338274361
 20
5.3654297192
 30
0.0
 10
5.6263724551
 20
5.395375435
 30
0.0
 10
5.6233224251
 20
5.4106403903
 30
0.0
 11
5.8097102249
 21
5.1476514159
 31
0.0
 11
5.7771102595
 21
5.1641391346
 31
0.0
 11
5.746273122
 21
5.1862445744
 31
0.0
 11
5.7177100466
 21
5.2136153429
 31
0.0
 11
5.6918743152
 21
5.2457780528
 31
0.0
 11
5.6691886041
 21
5.2822062919
 31
0.0
 11
5.6500056835
 21
5.3222785893
 31
0.0
 11
5.634640776
 21
5.3653326777
 31
0.0
 11
5.6233224251
 21
5.4106403903
 31
0.0
  0
SPLINE
  5
323
100
AcDbEntity
  8
0
100
AcDbSpline
 62
6
  6
CONTINUOUS
 70
0
 71
3
 72
15
 73
11
 74
9
 42
0.0000001
 43
0.0000001
 44
0.0000000001
 12
-0.0708870301
 22
0.3739921211
 32
0.0
 13
0.2349775007
 23
0.2994672801
 33
0.0
 40
0.0
 40
0.0
 40
0.0
 40
0.0
 40
0.1309513391
 40
0.2624765442
 40
0.3933630896
 40
0.5224120237
 40
0.6484928957
 40
0.7706123143
 40
0.8879618055
 40
1.0
 40
1.0
 40
1.0
 40
1.0
 10
5.6223812278
 20
5.4154753157
 30
0.0
 10
5.6192869773
 20
5.4318002387
 30
0.0
 10
5.6147117343
 20
5.4648513948
 30
0.0
 10
5.6126352241
 20
5.5147923621
 30
0.0
 10
5.6153600739
 20
5.564465798
 30
0.0
 10
5.6227815422
 20
5.6129600684
 30
0.0
 10
5.6347803632
 20
5.6593856796
 30
0.0
 10
5.6510912187
 20
5.7029064791
 30
0.0
 10
5.6714292721
 20
5.74270848
 30
0.0
 10
5.687807217
 20
5.7668866527
 30
0.0
 10
5.6965827019
 20
5.7780705771
 30
0.0
 11
5.6223812278
 21
5.4154753157
 31
0.0
 11
5.6155156706
 21
5.4648469837
 31
0.0
 11
5.6134387188
 21
5.5148690665
 31
0.0
 11
5.6161812053
 21
5.5646156045
 31
0.0
 11
5.6236597859
 21
5.6131655732
 31
0.0
 11
5.6357270536
 21
5.6596165063
 31
0.0
 11
5.6521285564
 21
5.7031117138
 31
0.0
 11
5.6725493699
 21
5.7428398707
 31
0.0
 11
5.6965827019
 21
5.7780705771
 31
0.0
  0
SPLINE
  5
324
100
AcDbEntity
  8
0
100
AcDbSpline
 62
6
  6
CONTINUOUS
 70
0
 71
3
 72
9
 73
5
 74
3
 42
0.0000001
 43
0.0000001
 44
0.0000000001
 12
-0.0375976864
 22
0.0097055449
 32
0.0
 13
-0.0354746591
 23
0.015790256
 33
0.0
 40
0.0
 40
0.0
 40
0.0
 40
0.0
 40
0.2476511296
 40
1.0
 40
1.0
 40
1.0
 40
1.0
 10
5.563314149
 20
5.1007211348
 30
0.0
 10
5.5602104459
 20
5.1015223311
 30
0.0
 10
5.5477478601
 20
5.1050240188
 30
0.0
 10
5.5355847781
 20
5.1095819692
 30
0.0
 10
5.5266883382
 20
5.1135418963
 30
0.0
 11
5.563314149
 21
5.1007211348
 31
0.0
 11
5.5540560679
 21
5.1033215067
 31
0.0
 11
5.5266883382
 21
5.1135418963
 31
0.0
  0
SPLINE
  5
325
100
AcDbEntity
  8
0
100
AcDbSpline
 62
6
  6
CONTINUOUS
 70
0
 71
3
 72
9
 73
5
 74
3
 42
0.0000001
 43
0.0000001
 44
0.0000000001
 12
-0.0302348596
 22
0.0139740992
 32
0.0
 13
-0.0281711218
 23
0.017771046
 33
0.0
 40
0.0
 40
0.0
 40
0.0
 40
0.0
 40
0.2473732247
 40
1.0
 40
1.0
 40
1.0
 40
1.0
 10
5.5235452311
 20
5.1149677212
 30
0.0
 10
5.5210521329
 20
5.1161199938
 30
0.0
 10
5.5110526489
 20
5.1209471706
 30
0.0
 10
5.501375956
 20
5.1264390059
 30
0.0
 10
5.4943085092
 20
5.1308973276
 30
0.0
 11
5.5235452311
 21
5.1149677212
 31
0.0
 11
5.5161246764
 21
5.1185488952
 31
0.0
 11
5.4943085092
 21
5.1308973276
 31
0.0
  0
SPLINE
  5
326
100
AcDbEntity
  8
0
100
AcDbSpline
 62
6
  6
CONTINUOUS
 70
0
 71
3
 72
14
 73
10
 74
8
 42
0.0000001
 43
0.0000001
 44
0.0000000001
 12
-0.3100908542
 22
0.2449527683
 32
0.0
 13
-0.0078178943
 23
0.3950912263
 33
0.0
 40
0.0
 40
0.0
 40
0.0
 40
0.0
 40
0.1107702987
 40
0.2264058169
 40
0.3468492473
 40
0.4717393956
 40
0.7317660391
 40
0.8654920054
 40
1.0
 40
1.0
 40
1.0
 40
1.0
 10
5.4700935363
 20
5.1480538741
 30
0.0
 10
5.4586439175
 20
5.1570983712
 30
0.0
 10
5.4365972217
 20
5.1773540672
 30
0.0
 10
5.4072919256
 20
5.212555074
 30
0.0
 10
5.3814934533
 20
5.2526332907
 30
0.0
 10
5.3519538439
 20
5.3124079811
 30
0.0
 10
5.3315917967
 20
5.3781962119
 30
0.0
 10
5.3205774182
 20
5.4469647317
 30
0.0
 10
5.318238882
 20
5.4822856905
 30
0.0
 10
5.3178883589
 20
5.5
 30
0.0
 11
5.4700935363
 21
5.1480538741
 31
0.0
 11
5.4377693863
 21
5.1775703038
 31
0.0
 11
5.4084356012
 21
5.2126075666
 31
0.0
 11
5.3825809845
 21
5.2525683775
 31
0.0
 11
5.3606306298
 21
5.2967709461
 31
0.0
 11
5.329794499
 21
5.3947892646
 31
0.0
 11
5.3214025407
 21
5.4469629641
 31
0.0
 11
5.3178883589
 21
5.5
 31
0.0
  0
SPLINE
  5
327
100
AcDbEntity
  8
0
100
AcDbSpline
 62
9
  6
CONTINUOUS
 70
0
 71
3
 72
21
 73
17
 74
15
 42
0.0000001
 43
0.0000001
 44
0.0000000001
 12
0.0
 22
-0.5483658711
 32
0.0
 13
0.5483658711
 23
0.0
 33
0.0
 40
0.0
 40
0.0
 40
0.0
 40
0.0
 40
0.0725642951
 40
0.1449216918
 40
0.2871242742
 40
0.4240197344
 40
0.489958333
 40
0.5539464016
 40
0.6158696634
 40
0.6757087931
 40
0.7335117937
 40
0.7894198792
 40
0.843668845
 40
0.8965712846
 40
0.9485301952
 40
1.0
 40
1.0
 40
1.0
 40
1.0
 10
4.3444521337
 20
5.5
 30
0.0
 10
4.3444521337
 20
5.4867360724
 30
0.0
 10
4.3453790342
 20
5.4602357535
 30
0.0
 10
4.3508357419
 20
5.4080046045
 30
0.0
 10
4.3642191399
 20
5.344933615
 30
0.0
 10
4.3864097509
 20
5.2855994599
 30
0.0
 10
4.4090362966
 20
5.2423360596
 30
0.0
 10
4.4279336819
 20
5.2127382721
 30
0.0
 10
4.4488132607
 20
5.1858987796
 30
0.0
 10
4.4714574816
 20
5.1620598337
 30
0.0
 10
4.4956642884
 20
5.1414575576
 30
0.0
 10
4.521214223
 20
5.1243085341
 30
0.0
 10
4.5478493571
 20
5.1107613882
 30
0.0
 10
4.5753315243
 20
5.1009855694
 30
0.0
 10
4.6033752092
 20
5.0950776892
 30
0.0
 10
4.6223061688
 20
5.09375
 30
0.0
 10
4.6317142636
 20
5.09375
 30
0.0
 11
4.3444521337
 21
5.5
 31
0.0
 11
4.3458384856
 21
5.4602323748
 31
0.0
 11
4.3499738209
 21
5.4207701318
 31
0.0
 11
4.3663219639
 21
5.3445240213
 31
0.0
 11
4.3928660402
 21
5.2743048181
 31
0.0
 11
4.4096601875
 21
5.2422830743
 31
0.0
 11
4.4285892636
 21
5.2127378701
 31
0.0
 11
4.4494789373
 21
5.1859671316
 31
0.0
 11
4.4721213318
 21
5.1622171154
 31
0.0
 11
4.4962999643
 21
5.1417206336
 31
0.0
 11
4.5217851737
 21
5.1246788514
 31
0.0
 11
4.5483268732
 21
5.1112438811
 31
0.0
 11
4.5756723094
 21
5.1015587907
 31
0.0
 11
4.6035581556
 21
5.0957105638
 31
0.0
 11
4.6317142636
 21
5.09375
 31
0.0
  0
SPLINE
  5
328
100
AcDbEntity
  8
0
100
AcDbSpline
 62
9
  6
CONTINUOUS
 70
0
 71
3
 72
21
 73
17
 74
15
 42
0.0000001
 43
0.0000001
 44
0.0000000001
 12
-0.5483658711
 22
0.0
 32
0.0
 13
-0.0
 23
-0.5483658711
 33
0.0
 40
0.0
 40
0.0
 40
0.0
 40
0.0
 40
0.0514698048
 40
0.1034287154
 40
0.156331155
 40
0.2105801208
 40
0.2664882063
 40
0.3242912069
 40
0.3841303366
 40
0.4460535984
 40
0.510041667
 40
0.5759802656
 40
0.7128757258
 40
0.8550783082
 40
0.9274357049
 40
1.0
 40
1.0
 40
1.0
 40
1.0
 10
4.6317142636
 20
5.90625
 30
0.0
 10
4.6223061688
 20
5.90625
 30
0.0
 10
4.6033752092
 20
5.9049223108
 30
0.0
 10
4.5753315243
 20
5.8990144306
 30
0.0
 10
4.5478493571
 20
5.8892386118
 30
0.0
 10
4.521214223
 20
5.8756914659
 30
0.0
 10
4.4956642884
 20
5.8585424424
 30
0.0
 10
4.4714574816
 20
5.8379401663
 30
0.0
 10
4.4488132607
 20
5.8141012204
 30
0.0
 10
4.4279336819
 20
5.7872617279
 30
0.0
 10
4.4090362966
 20
5.7576639404
 30
0.0
 10
4.3864097509
 20
5.7144005401
 30
0.0
 10
4.3642191399
 20
5.655066385
 30
0.0
 10
4.3508357419
 20
5.5919953955
 30
0.0
 10
4.3453790342
 20
5.5397642465
 30
0.0
 10
4.3444521337
 20
5.5132639276
 30
0.0
 10
4.3444521337
 20
5.5
 30
0.0
 11
4.6317142636
 21
5.90625
 31
0.0
 11
4.6035581556
 21
5.9042894362
 31
0.0
 11
4.5756723094
 21
5.8984412093
 31
0.0
 11
4.5483268732
 21
5.8887561189
 31
0.0
 11
4.5217851737
 21
5.8753211486
 31
0.0
 11
4.4962999643
 21
5.8582793664
 31
0.0
 11
4.4721213318
 21
5.8377828846
 31
0.0
 11
4.4494789373
 21
5.8140328684
 31
0.0
 11
4.4285892636
 21
5.7872621299
 31
0.0
 11
4.4096601875
 21
5.7577169257
 31
0.0
 11
4.3928660402
 21
5.7256951819
 31
0.0
 11
4.3663219639
 21
5.6554759787
 31
0.0
 11
4.3499738209
 21
5.5792298682
 31
0.0
 11
4.3458384856
 21
5.5397676252
 31
0.0
 11
4.3444521337
 21
5.5
 31
0.0
  0
SPLINE
  5
329
100
AcDbEntity
  8
0
100
AcDbSpline
 62
6
  6
CONTINUOUS
 70
0
 71
3
 72
14
 73
10
 74
8
 42
0.0000001
 43
0.0000001
 44
0.0000000001
 12
-0.0073429688
 22
0.3710900206
 32
0.0
 13
0.2684735795
 23
0.2562882356
 33
0.0
 40
0.0
 40
0.0
 40
0.0
 40
0.0
 40
0.1353948864
 40
0.2697200766
 40
0.4016891428
 40
0.5304231718
 40
0.6551898284
 40
0.7753559886
 40
1.0
 40
1.0
 40
1.0
 40
1.0
 10
5.5704315458
 20
5.5
 30
0.0
 10
5.5701001456
 20
5.5167478971
 30
0.0
 10
5.5709079602
 20
5.5501585074
 30
0.0
 10
5.5764525528
 20
5.5996080622
 30
0.0
 10
5.586283127
 20
5.6475545959
 30
0.0
 10
5.600200379
 20
5.6932418118
 30
0.0
 10
5.6180148294
 20
5.7360037981
 30
0.0
 10
5.645874275
 20
5.7870419514
 30
0.0
 10
5.6726177887
 20
5.8210218654
 30
0.0
 10
5.6927214493
 20
5.8402130712
 30
0.0
 11
5.5704315458
 21
5.5
 31
0.0
 11
5.5716457521
 21
5.5502388559
 31
0.0
 11
5.5772359937
 21
5.5997809524
 31
0.0
 11
5.5871130936
 21
5.6477567614
 31
0.0
 11
5.6011000034
 21
5.6934450054
 31
0.0
 11
5.6189748365
 21
5.7361648873
 31
0.0
 11
5.6404392123
 21
5.7752615228
 31
0.0
 11
5.6927214493
 21
5.8402130712
 31
0.0
  0
SPLINE
  5
32A
100
AcDbEntity
  8
0
100
AcDbSpline
 62
6
  6
CONTINUOUS
 70
0
 71
3
 72
9
 73
5
 74
3
 42
0.0000001
 43
0.0000001
 44
0.0000000001
 12
0.029458747
 22
0.0281216882
 32
0.0
 13
0.0333289142
 23
0.0234057813
 33
0.0
 40
0.0
 40
0.0
 40
0.0
 40
0.0
 40
0.2546170613
 40
1.0
 40
1.0
 40
1.0
 40
1.0
 10
5.6927214493
 20
5.8402130712
 30
0.0
 10
5.6952216825
 20
5.8425998251
 30
0.0
 10
5.7052069795
 20
5.8517978648
 30
0.0
 10
5.7158618444
 20
5.8602746706
 30
0.0
 10
5.7241427791
 20
5.8660900939
 30
0.0
 11
5.6927214493
 21
5.8402130712
 31
0.0
 11
5.7003499444
 21
5.8472370233
 31
0.0
 11
5.7241427791
 21
5.8660900939
 31
0.0
  0
SPLINE
  5
32B
100
AcDbEntity
  8
0
100
AcDbSpline
 62
6
  6
CONTINUOUS
 70
0
 71
3
 72
20
 73
16
 74
14
 42
0.0000001
 43
0.0000001
 44
0.0000000001
 12
-0.5554660143
 22
0.0
 32
0.0
 13
-0.0109891701
 23
0.5553573005
 33
0.0
 40
0.0
 40
0.0
 40
0.0
 40
0.0
 40
0.0522294829
 40
0.1049150854
 40
0.158484556
 40
0.2133084904
 40
0.2696918178
 40
0.3278461751
 40
0.3879088209
 40
0.4499260077
 40
0.5795190649
 40
0.7157033313
 40
0.8566855711
 40
0.9282796079
 40
1.0
 40
1.0
 40
1.0
 40
1.0
 10
5.4662517359
 20
5.0937536889
 30
0.0
 10
5.4565811684
 20
5.0937536889
 30
0.0
 10
5.4371299673
 20
5.0950678721
 30
0.0
 10
5.4083035702
 20
5.1009814255
 30
0.0
 10
5.3800380216
 20
5.1107536548
 30
0.0
 10
5.3526080793
 20
5.124283845
 30
0.0
 10
5.3262768724
 20
5.1414411679
 30
0.0
 10
5.3012717063
 20
5.1620301901
 30
0.0
 10
5.277836588
 20
5.1858704428
 30
0.0
 10
5.2485271621
 20
5.2221769784
 30
0.0
 10
5.2171644689
 20
5.2745337115
 30
0.0
 10
5.1892985821
 20
5.3448044007
 30
0.0
 10
5.1745835329
 20
5.4079341741
 30
0.0
 10
5.1680775804
 20
5.4602007325
 30
0.0
 10
5.1666251626
 20
5.4867231856
 30
0.0
 10
5.1663624467
 20
5.5
 30
0.0
 11
5.4662517359
 21
5.0937536889
 31
0.0
 11
5.4373058409
 21
5.0957066496
 31
0.0
 11
5.4086318252
 21
5.1015585427
 31
0.0
 11
5.3804966606
 21
5.1112452997
 31
0.0
 11
5.3531648098
 21
5.1246745561
 31
0.0
 11
5.3268924931
 21
5.1417229145
 31
0.0
 11
5.3019222737
 21
5.1622157677
 31
0.0
 11
5.2784916561
 21
5.1859661321
 31
0.0
 11
5.2568140614
 21
5.2127388211
 31
0.0
 11
5.2195120192
 21
5.2743044893
 31
0.0
 11
5.1913880771
 21
5.3445278515
 31
0.0
 11
5.1734611885
 21
5.4207591756
 31
0.0
 11
5.1685364778
 21
5.4602211239
 31
0.0
 11
5.1663624467
 21
5.5
 31
0.0
  0
SPLINE
  5
32C
100
AcDbEntity
  8
0
100
AcDbSpline
 62
6
  6
CONTINUOUS
 70
0
 71
3
 72
14
 73
10
 74
8
 42
0.0000001
 43
0.0000001
 44
0.0000000001
 12
-0.0073467628
 22
0.3712817541
 32
0.0
 13
0.2687830865
 23
0.2562416209
 33
0.0
 40
0.0
 40
0.0
 40
0.0
 40
0.0
 40
0.1354076967
 40
0.2697420313
 40
0.4017172837
 40
0.5304548817
 40
0.6552211203
 40
0.7753811706
 40
1.0
 40
1.0
 40
1.0
 40
1.0
 10
5.5199229084
 20
5.5
 30
0.0
 10
5.5195913057
 20
5.5167581357
 30
0.0
 10
5.5204003533
 20
5.5501887761
 30
0.0
 10
5.5259523259
 20
5.5996669616
 30
0.0
 10
5.5357950129
 20
5.6476393169
 30
0.0
 10
5.549729201
 20
5.6933484654
 30
0.0
 10
5.5675641473
 20
5.736127619
 30
0.0
 10
5.5954549366
 20
5.7871784794
 30
0.0
 10
5.6222276033
 20
5.8211603207
 30
0.0
 10
5.6423521841
 20
5.840345885
 30
0.0
 11
5.5199229084
 21
5.5
 31
0.0
 11
5.5211391288
 21
5.5502695381
 31
0.0
 11
5.5267367254
 21
5.5998401451
 31
0.0
 11
5.5366260902
 21
5.6478416126
 31
0.0
 11
5.5506299685
 21
5.6935518654
 31
0.0
 11
5.5685256821
 21
5.7362887771
 31
0.0
 11
5.5900144781
 21
5.7753957027
 31
0.0
 11
5.6423521841
 21
5.840345885
 31
0.0
  0
SPLINE
  5
32D
100
AcDbEntity
  8
0
100
AcDbSpline
 62
6
  6
CONTINUOUS
 70
0
 71
3
 72
9
 73
5
 74
3
 42
0.0000001
 43
0.0000001
 44
0.0000000001
 12
0.0293371539
 22
0.0279682772
 32
0.0
 13
0.0331699369
 23
0.0232948152
 33
0.0
 40
0.0
 40
0.0
 40
0.0
 40
0.0
 40
0.2545941096
 40
1.0
 40
1.0
 40
1.0
 40
1.0
 10
5.6423521841
 20
5.840345885
 30
0.0
 10
5.6448418729
 20
5.8427194046
 30
0.0
 10
5.6547849866
 20
5.8518678382
 30
0.0
 10
5.6653910307
 20
5.8603013256
 30
0.0
 10
5.6736327195
 20
5.8660893565
 30
0.0
 11
5.6423521841
 21
5.840345885
 31
0.0
 11
5.6499477592
 21
5.8473313377
 31
0.0
 11
5.6736327195
 21
5.8660893565
 31
0.0
  0
SPLINE
  5
32E
100
AcDbEntity
  8
0
100
AcDbSpline
 62
6
  6
CONTINUOUS
 70
0
 71
3
 72
20
 73
16
 74
14
 42
0.0000001
 43
0.0000001
 44
0.0000000001
 12
-0.5489732591
 22
0.0160176559
 32
0.0
 13
-0.0108653414
 23
0.549099398
 33
0.0
 40
0.0
 40
0.0
 40
0.0
 40
0.0
 40
0.0521683116
 40
0.1048750402
 40
0.1585250174
 40
0.2134682489
 40
0.269986254
 40
0.3282719172
 40
0.3884478685
 40
0.4505472005
 40
0.5801931662
 40
0.7162648669
 40
0.8570054741
 40
0.9284436803
 40
1.0
 40
1.0
 40
1.0
 40
1.0
 10
5.5104836597
 20
5.0938452448
 30
0.0
 10
5.5009373237
 20
5.0941237828
 30
0.0
 10
5.4817591616
 20
5.0959669649
 30
0.0
 10
5.453415628
 20
5.1025555756
 30
0.0
 10
5.4256654825
 20
5.1128765557
 30
0.0
 10
5.3987753523
 20
5.1268387121
 30
0.0
 10
5.3729903116
 20
5.1443000017
 30
0.0
 10
5.3485295878
 20
5.1650754266
 30
0.0
 10
5.3256258608
 20
5.1889863622
 30
0.0
 10
5.2970088288
 20
5.225227799
 30
0.0
 10
5.266418355
 20
5.2772333651
 30
0.0
 10
5.2392455838
 20
5.3467923362
 30
0.0
 10
5.2248980977
 20
5.409154103
 30
0.0
 10
5.218550758
 20
5.4607378066
 30
0.0
 10
5.2171302454
 20
5.4869028226
 30
0.0
 10
5.2168710841
 20
5.5
 30
0.0
 11
5.5104836597
 21
5.0938452448
 31
0.0
 11
5.4819632754
 21
5.0965799689
 31
0.0
 11
5.4537607065
 21
5.1031020871
 31
0.0
 11
5.4261312937
 21
5.1133391794
 31
0.0
 11
5.3993285977
 21
5.1272012951
 31
0.0
 11
5.3735957997
 21
5.1445595648
 31
0.0
 11
5.3491650465
 21
5.1652437428
 31
0.0
 11
5.3262623051
 21
5.1890702813
 31
0.0
 11
5.3050896533
 21
5.215807817
 31
0.0
 11
5.2686919144
 21
5.2770041774
 31
0.0
 11
5.2412736513
 21
5.3465242335
 31
0.0
 11
5.2238006195
 21
5.4218191208
 31
0.0
 11
5.2189972582
 21
5.4607583339
 31
0.0
 11
5.2168710841
 21
5.5
 31
0.0
  0
SPLINE
  5
32F
100
AcDbEntity
  8
0
100
AcDbSpline
 62
6
  6
CONTINUOUS
 70
0
 71
3
 72
17
 73
13
 74
11
 42
0.0000001
 43
0.0000001
 44
0.0000000001
 12
-0.4414986925
 22
0.1710355843
 32
0.0
 13
-0.0093669949
 23
0.4733777836
 33
0.0
 40
0.0
 40
0.0
 40
0.0
 40
0.0
 40
0.0526876383
 40
0.1065389539
 40
0.1617209976
 40
0.2183537646
 40
0.336149115
 40
0.4601201668
 40
0.5897100963
 40
0.7238589208
 40
0.8612554755
 40
1.0
 40
1.0
 40
1.0
 40
1.0
 10
5.4870988764
 20
5.1090002522
 30
0.0
 10
5.4793450352
 20
5.1120040725
 30
0.0
 10
5.4639745997
 20
5.1189071323
 30
0.0
 10
5.4418266456
 20
5.131669349
 30
0.0
 10
5.4204854338
 20
5.1468419949
 30
0.0
 10
5.3929363908
 20
5.170448222
 30
0.0
 10
5.3613129563
 20
5.2056579359
 30
0.0
 10
5.3291677487
 20
5.2549018812
 30
0.0
 10
5.3030423137
 20
5.3104345947
 30
0.0
 10
5.2835542164
 20
5.3708396917
 30
0.0
 10
5.2711722833
 20
5.4345425407
 30
0.0
 10
5.2678129279
 20
5.4781071415
 30
0.0
 10
5.2673797215
 20
5.5
 30
0.0
 11
5.4870988764
 21
5.1090002522
 31
0.0
 11
5.464333187
 21
5.1191996779
 31
0.0
 11
5.4422251519
 21
5.1319013366
 31
0.0
 11
5.4209130243
 21
5.1470148024
 31
0.0
 11
5.4005323005
 21
5.1644393129
 31
0.0
 11
5.3630817458
 21
5.2057677633
 31
0.0
 11
5.3308165212
 21
5.2548009114
 31
0.0
 11
5.3045467036
 21
5.3102497923
 31
0.0
 11
5.2849316626
 21
5.3706606311
 31
0.0
 11
5.272444394
 21
5.4345040964
 31
0.0
 11
5.2673797215
 21
5.5
 31
0.0
  0
SPLINE
  5
330
100
AcDbEntity
  8
0
100
AcDbSpline
 62
6
  6
CONTINUOUS
 70
0
 71
3
 72
14
 73
10
 74
8
 42
0.0000001
 43
0.0000001
 44
0.0000000001
 12
-0.0073429688
 22
0.3710900206
 32
0.0
 13
0.2684735795
 23
0.2562882356
 33
0.0
 40
0.0
 40
0.0
 40
0.0
 40
0.0
 40
0.1353948864
 40
0.2697200766
 40
0.4016891428
 40
0.5304231718
 40
0.6551898284
 40
0.7753559886
 40
1.0
 40
1.0
 40
1.0
 40
1.0
 10
5.469414271
 20
5.5
 30
0.0
 10
5.4690828709
 20
5.5167478971
 30
0.0
 10
5.4698906855
 20
5.5501585074
 30
0.0
 10
5.4754352781
 20
5.5996080622
 30
0.0
 10
5.4852658522
 20
5.6475545959
 30
0.0
 10
5.4991831042
 20
5.6932418118
 30
0.0
 10
5.5169975547
 20
5.7360037981
 30
0.0
 10
5.5448570002
 20
5.7870419514
 30
0.0
 10
5.5716005139
 20
5.8210218654
 30
0.0
 10
5.5917041745
 20
5.8402130712
 30
0.0
 11
5.469414271
 21
5.5
 31
0.0
 11
5.4706284773
 21
5.5502388559
 31
0.0
 11
5.476218719
 21
5.5997809524
 31
0.0
 11
5.4860958188
 21
5.6477567614
 31
0.0
 11
5.5000827287
 21
5.6934450054
 31
0.0
 11
5.5179575617
 21
5.7361648874
 31
0.0
 11
5.5394219375
 21
5.7752615228
 31
0.0
 11
5.5917041745
 21
5.8402130712
 31
0.0
  0
SPLINE
  5
331
100
AcDbEntity
  8
0
100
AcDbSpline
 62
6
  6
CONTINUOUS
 70
0
 71
3
 72
9
 73
5
 74
3
 42
0.0000001
 43
0.0000001
 44
0.0000000001
 12
0.029458747
 22
0.0281216882
 32
0.0
 13
0.0333289142
 23
0.0234057813
 33
0.0
 40
0.0
 40
0.0
 40
0.0
 40
0.0
 40
0.2546170613
 40
1.0
 40
1.0
 40
1.0
 40
1.0
 10
5.5917041745
 20
5.8402130712
 30
0.0
 10
5.5942044077
 20
5.8425998251
 30
0.0
 10
5.6041897047
 20
5.8517978648
 30
0.0
 10
5.6148445696
 20
5.8602746706
 30
0.0
 10
5.6231255043
 20
5.8660900939
 30
0.0
 11
5.5917041745
 21
5.8402130712
 31
0.0
 11
5.5993326697
 21
5.8472370233
 31
0.0
 11
5.6231255043
 21
5.8660900939
 31
0.0
  0
SPLINE
  5
332
100
AcDbEntity
  8
0
100
AcDbSpline
 62
6
  6
CONTINUOUS
 70
0
 71
3
 72
9
 73
5
 74
3
 42
0.0000001
 43
0.0000001
 44
0.0000000001
 12
-0.0350000408
 22
0.022065978
 32
0.0
 13
-0.0314525187
 23
0.0268821375
 33
0.0
 40
0.0
 40
0.0
 40
0.0
 40
0.0
 40
0.2463424043
 40
1.0
 40
1.0
 40
1.0
 40
1.0
 10
5.5449068122
 20
5.1308434922
 30
0.0
 10
5.5420328141
 20
5.1326554209
 30
0.0
 10
5.5305059823
 20
5.1402310295
 30
0.0
 10
5.5195472397
 20
5.1486649065
 30
0.0
 10
5.5116457631
 20
5.1554182155
 30
0.0
 11
5.5449068122
 21
5.1308434922
 31
0.0
 11
5.5363881934
 21
5.1364398918
 31
0.0
 11
5.5116457631
 21
5.1554182155
 31
0.0
  0
SPLINE
  5
333
100
AcDbEntity
  8
0
100
AcDbSpline
 62
6
  6
CONTINUOUS
 70
0
 71
3
 72
14
 73
10
 74
8
 42
0.0000001
 43
0.0000001
 44
0.0000000001
 12
-0.2915645963
 22
0.249197199
 32
0.0
 13
-0.0075879989
 23
0.3834730501
 33
0.0
 40
0.0
 40
0.0
 40
0.0
 40
0.0
 40
0.2272465179
 40
0.3480341471
 40
0.4730008524
 40
0.6015167392
 40
0.7328473268
 40
0.8661088842
 40
1.0
 40
1.0
 40
1.0
 40
1.0
 10
5.5116457631
 20
5.1554182155
 30
0.0
 10
5.4895600834
 20
5.1742946141
 30
0.0
 10
5.45977645
 20
5.2081874246
 30
0.0
 10
5.4281276872
 20
5.2597840003
 30
0.0
 10
5.4075710526
 20
5.3031052054
 30
0.0
 10
5.3910497266
 20
5.3495256699
 30
0.0
 10
5.3787707954
 20
5.3983394194
 30
0.0
 10
5.3709471114
 20
5.4487480522
 30
0.0
 10
5.3687356515
 20
5.4828854552
 30
0.0
 10
5.3683969963
 20
5.5
 30
0.0
 11
5.5116457631
 21
5.1554182155
 31
0.0
 11
5.4534357129
 21
5.2202907915
 31
0.0
 11
5.4291188824
 21
5.2597238117
 31
0.0
 11
5.4085047502
 21
5.3029952089
 31
0.0
 11
5.391914109
 21
5.3494113105
 31
0.0
 11
5.3795873896
 21
5.3982513559
 31
0.0
 11
5.3717143326
 21
5.4487535731
 31
0.0
 11
5.3683969963
 21
5.5
 31
0.0
  0
SPLINE
  5
334
100
AcDbEntity
  8
0
100
AcDbSpline
 62
6
  6
CONTINUOUS
 70
0
 71
3
 72
14
 73
10
 74
8
 42
0.0000001
 43
0.0000001
 44
0.0000000001
 12
-0.0073429688
 22
0.3710900206
 32
0.0
 13
0.2684735795
 23
0.2562882356
 33
0.0
 40
0.0
 40
0.0
 40
0.0
 40
0.0
 40
0.1353948864
 40
0.2697200766
 40
0.4016891428
 40
0.5304231718
 40
0.6551898284
 40
0.7753559886
 40
1.0
 40
1.0
 40
1.0
 40
1.0
 10
5.4189056336
 20
5.5
 30
0.0
 10
5.4185742335
 20
5.5167478971
 30
0.0
 10
5.4193820481
 20
5.5501585074
 30
0.0
 10
5.4249266407
 20
5.5996080622
 30
0.0
 10
5.4347572148
 20
5.6475545959
 30
0.0
 10
5.4486744668
 20
5.6932418118
 30
0.0
 10
5.4664889173
 20
5.7360037981
 30
0.0
 10
5.4943483628
 20
5.7870419514
 30
0.0
 10
5.5210918765
 20
5.8210218654
 30
0.0
 10
5.5411955372
 20
5.8402130712
 30
0.0
 11
5.4189056336
 21
5.5
 31
0.0
 11
5.4201198399
 21
5.5502388559
 31
0.0
 11
5.4257100816
 21
5.5997809524
 31
0.0
 11
5.4355871814
 21
5.6477567614
 31
0.0
 11
5.4495740913
 21
5.6934450054
 31
0.0
 11
5.4674489244
 21
5.7361648874
 31
0.0
 11
5.4889133002
 21
5.7752615228
 31
0.0
 11
5.5411955372
 21
5.8402130712
 31
0.0
  0
SPLINE
  5
335
100
AcDbEntity
  8
0
100
AcDbSpline
 62
6
  6
CONTINUOUS
 70
0
 71
3
 72
9
 73
5
 74
3
 42
0.0000001
 43
0.0000001
 44
0.0000000001
 12
0.029458747
 22
0.0281216882
 32
0.0
 13
0.0333289142
 23
0.0234057813
 33
0.0
 40
0.0
 40
0.0
 40
0.0
 40
0.0
 40
0.2546170613
 40
1.0
 40
1.0
 40
1.0
 40
1.0
 10
5.5411955372
 20
5.8402130712
 30
0.0
 10
5.5436957704
 20
5.8425998251
 30
0.0
 10
5.5536810673
 20
5.8517978648
 30
0.0
 10
5.5643359322
 20
5.8602746706
 30
0.0
 10
5.5726168669
 20
5.8660900939
 30
0.0
 11
5.5411955372
 21
5.8402130712
 31
0.0
 11
5.5488240323
 21
5.8472370233
 31
0.0
 11
5.5726168669
 21
5.8660900939
 31
0.0
  0
SPLINE
  5
336
100
AcDbEntity
  8
0
100
AcDbSpline
 62
6
  6
CONTINUOUS
 70
0
 71
3
 72
9
 73
5
 74
3
 42
0.0000001
 43
0.0000001
 44
0.0000000001
 12
-0.0350000408
 22
0.022065978
 32
0.0
 13
-0.0314525187
 23
0.0268821375
 33
0.0
 40
0.0
 40
0.0
 40
0.0
 40
0.0
 40
0.2463424043
 40
1.0
 40
1.0
 40
1.0
 40
1.0
 10
5.5954154496
 20
5.1308434922
 30
0.0
 10
5.5925414515
 20
5.1326554209
 30
0.0
 10
5.5810146197
 20
5.1402310295
 30
0.0
 10
5.570055877
 20
5.1486649065
 30
0.0
 10
5.5621544005
 20
5.1554182155
 30
0.0
 11
5.5954154496
 21
5.1308434922
 31
0.0
 11
5.5868968308
 21
5.1364398918
 31
0.0
 11
5.5621544005
 21
5.1554182155
 31
0.0
  0
SPLINE
  5
337
100
AcDbEntity
  8
0
100
AcDbSpline
 62
6
  6
CONTINUOUS
 70
0
 71
3
 72
14
 73
10
 74
8
 42
0.0000001
 43
0.0000001
 44
0.0000000001
 12
-0.2915645963
 22
0.249197199
 32
0.0
 13
-0.0075879989
 23
0.3834730501
 33
0.0
 40
0.0
 40
0.0
 40
0.0
 40
0.0
 40
0.2272465179
 40
0.3480341471
 40
0.4730008524
 40
0.6015167392
 40
0.7328473268
 40
0.8661088842
 40
1.0
 40
1.0
 40
1.0
 40
1.0
 10
5.5621544005
 20
5.1554182155
 30
0.0
 10
5.5400687208
 20
5.1742946141
 30
0.0
 10
5.5102850873
 20
5.2081874246
 30
0.0
 10
5.4786363246
 20
5.2597840003
 30
0.0
 10
5.4580796899
 20
5.3031052054
 30
0.0
 10
5.441558364
 20
5.3495256699
 30
0.0
 10
5.4292794327
 20
5.3983394194
 30
0.0
 10
5.4214557487
 20
5.4487480522
 30
0.0
 10
5.4192442888
 20
5.4828854552
 30
0.0
 10
5.4189056336
 20
5.5
 30
0.0
 11
5.5621544005
 21
5.1554182155
 31
0.0
 11
5.5039443502
 21
5.2202907915
 31
0.0
 11
5.4796275198
 21
5.2597238117
 31
0.0
 11
5.4590133876
 21
5.3029952089
 31
0.0
 11
5.4424227463
 21
5.3494113105
 31
0.0
 11
5.430096027
 21
5.3982513559
 31
0.0
 11
5.42222297
 21
5.4487535731
 31
0.0
 11
5.4189056336
 21
5.5
 31
0.0
  0
SPLINE
  5
338
100
AcDbEntity
  8
0
100
AcDbSpline
 62
6
  6
CONTINUOUS
 70
0
 71
3
 72
15
 73
11
 74
9
 42
0.0000001
 43
0.0000001
 44
0.0000000001
 12
-0.0077225704
 22
0.3902738603
 32
0.0
 13
0.2999112048
 23
0.2498531435
 33
0.0
 40
0.0
 40
0.0
 40
0.0
 40
0.0
 40
0.1364928787
 40
0.2717513144
 40
0.4043625346
 40
0.5333661393
 40
0.6579542516
 40
0.7774520744
 40
0.8914802146
 40
1.0
 40
1.0
 40
1.0
 40
1.0
 10
5.3683969963
 20
5.5
 30
0.0
 10
5.3680456376
 20
5.5177565342
 30
0.0
 10
5.3689938614
 20
5.5531632252
 30
0.0
 10
5.3752838486
 20
5.6054752771
 30
0.0
 10
5.3863679377
 20
5.6559973288
 30
0.0
 10
5.402012853
 20
5.7038444398
 30
0.0
 10
5.4219457884
 20
5.7482153289
 30
0.0
 10
5.4458220022
 20
5.7883611315
 30
0.0
 10
5.4732254676
 20
5.823580116
 30
0.0
 10
5.4940568146
 20
5.8438674123
 30
0.0
 10
5.5049055812
 20
5.8529054155
 30
0.0
 11
5.3683969963
 21
5.5
 31
0.0
 11
5.3698253716
 21
5.5532608805
 31
0.0
 11
5.3761700876
 21
5.6056764396
 31
0.0
 11
5.3873143897
 21
5.6562274192
 31
0.0
 11
5.4030394066
 21
5.7040657933
 31
0.0
 11
5.4230600632
 21
5.7483866933
 31
0.0
 11
5.4470087734
 21
5.7884155474
 31
0.0
 11
5.4744547872
 21
5.8234574907
 31
0.0
 11
5.5049055812
 21
5.8529054155
 31
0.0
  0
SPLINE
  5
339
100
AcDbEntity
  8
0
100
AcDbSpline
 62
6
  6
CONTINUOUS
 70
0
 71
3
 72
9
 73
5
 74
3
 42
0.0000001
 43
0.0000001
 44
0.0000000001
 12
-0.0367217152
 22
0.0142259085
 32
0.0
 13
-0.0340127424
 23
0.0198492871
 33
0.0
 40
0.0
 40
0.0
 40
0.0
 40
0.0
 40
0.2470652991
 40
1.0
 40
1.0
 40
1.0
 40
1.0
 10
5.6891334259
 20
5.1090002522
 30
0.0
 10
5.6861092054
 20
5.1101718283
 30
0.0
 10
5.6739664862
 20
5.1151636863
 30
0.0
 10
5.6622337239
 20
5.121144332
 30
0.0
 10
5.6536972659
 20
5.126126071
 30
0.0
 11
5.6891334259
 21
5.1090002522
 31
0.0
 11
5.6801341406
 21
5.1126988149
 31
0.0
 11
5.6536972659
 21
5.126126071
 31
0.0
  0
SPLINE
  5
33A
100
AcDbEntity
  8
0
100
AcDbSpline
 62
6
  6
CONTINUOUS
 70
0
 71
3
 72
9
 73
5
 74
3
 42
0.0000001
 43
0.0000001
 44
0.0000000001
 12
-0.028360183
 22
0.0165505448
 32
0.0
 13
-0.0261864895
 23
0.019811317
 33
0.0
 40
0.0
 40
0.0
 40
0.0
 40
0.0
 40
0.2471418814
 40
1.0
 40
1.0
 40
1.0
 40
1.0
 10
5.6536972659
 20
5.126126071
 30
0.0
 10
5.6513609362
 20
5.1274895153
 30
0.0
 10
5.6419934
 20
5.1331525475
 30
0.0
 10
5.6329738919
 20
5.1393883991
 30
0.0
 10
5.6264023215
 20
5.1443601027
 30
0.0
 11
5.6536972659
 21
5.126126071
 31
0.0
 11
5.6467519724
 21
5.1303236474
 31
0.0
 11
5.6264023215
 21
5.1443601027
 31
0.0
  0
SPLINE
  5
33B
100
AcDbEntity
  8
0
100
AcDbSpline
 62
6
  6
CONTINUOUS
 70
0
 71
3
 72
14
 73
10
 74
8
 42
0.0000001
 43
0.0000001
 44
0.0000000001
 12
-0.2915645963
 22
0.249197199
 32
0.0
 13
-0.0075879989
 23
0.3834730501
 33
0.0
 40
0.0
 40
0.0
 40
0.0
 40
0.0
 40
0.2272465179
 40
0.3480341471
 40
0.4730008524
 40
0.6015167392
 40
0.7328473268
 40
0.8661088842
 40
1.0
 40
1.0
 40
1.0
 40
1.0
 10
5.6126630379
 20
5.1554182155
 30
0.0
 10
5.5905773581
 20
5.1742946141
 30
0.0
 10
5.5607937247
 20
5.2081874246
 30
0.0
 10
5.529144962
 20
5.2597840003
 30
0.0
 10
5.5085883273
 20
5.3031052054
 30
0.0
 10
5.4920670014
 20
5.3495256699
 30
0.0
 10
5.4797880701
 20
5.3983394194
 30
0.0
 10
5.4719643861
 20
5.4487480522
 30
0.0
 10
5.4697529262
 20
5.4828854552
 30
0.0
 10
5.469414271
 20
5.5
 30
0.0
 11
5.6126630379
 21
5.1554182155
 31
0.0
 11
5.5544529876
 21
5.2202907915
 31
0.0
 11
5.5301361572
 21
5.2597238117
 31
0.0
 11
5.509522025
 21
5.3029952089
 31
0.0
 11
5.4929313837
 21
5.3494113105
 31
0.0
 11
5.4806046644
 21
5.3982513559
 31
0.0
 11
5.4727316074
 21
5.4487535731
 31
0.0
 11
5.469414271
 21
5.5
 31
0.0
  0
SPLINE
  5
33C
100
AcDbEntity
  8
0
100
AcDbSpline
 62
6
  6
CONTINUOUS
 70
0
 71
3
 72
13
 73
9
 74
7
 42
0.0000001
 43
0.0000001
 44
0.0000000001
 12
-0.2283847158
 22
0.143986464
 32
0.0
 13
-0.07951548
 23
0.258009629
 33
0.0
 40
0.0
 40
0.0
 40
0.0
 40
0.0
 40
0.1127329247
 40
0.2289378926
 40
0.3488173235
 40
0.4724072299
 40
0.7300530523
 40
1.0
 40
1.0
 40
1.0
 40
1.0
 10
5.6964327243
 20
5.1308434922
 30
0.0
 10
5.6878505653
 20
5.1362541639
 30
0.0
 10
5.6710308555
 20
5.1482360652
 30
0.0
 10
5.6474735519
 20
5.1690615512
 30
0.0
 10
5.6254234048
 20
5.1928279121
 30
0.0
 10
5.5978892688
 20
5.2286133675
 30
0.0
 10
5.5684393066
 20
5.2796076653
 30
0.0
 10
5.551243783
 20
5.3240737978
 30
0.0
 10
5.544088796
 20
5.3472901018
 30
0.0
 11
5.6964327243
 21
5.1308434922
 31
0.0
 11
5.6716153278
 21
5.1484632601
 31
0.0
 11
5.6480779884
 21
5.1692067736
 31
0.0
 11
5.6260262942
 21
5.1928975905
 31
0.0
 11
5.6056445218
 21
5.2193166134
 31
0.0
 11
5.570585096
 21
5.2793956133
 31
0.0
 11
5.544088796
 21
5.3472901018
 31
0.0
  0
SPLINE
  5
33D
100
AcDbEntity
  8
0
100
AcDbSpline
 62
6
  6
CONTINUOUS
 70
0
 71
3
 72
10
 73
6
 74
4
 42
0.0000001
 43
0.0000001
 44
0.0000000001
 12
-0.0456589212
 22
0.1481528041
 32
0.0
 13
-0.0030670464
 23
0.154998657
 33
0.0
 40
0.0
 40
0.0
 40
0.0
 40
0.0
 40
0.4960774542
 40
0.7478358998
 40
1.0
 40
1.0
 40
1.0
 40
1.0
 10
5.544088796
 20
5.3472901018
 30
0.0
 10
5.5365386755
 20
5.3717885237
 30
0.0
 10
5.5278744447
 20
5.4096271288
 30
0.0
 10
5.5215894341
 20
5.460942454
 30
0.0
 10
5.5201807081
 20
5.4869716344
 30
0.0
 10
5.5199229084
 20
5.5
 30
0.0
 11
5.544088796
 21
5.3472901018
 31
0.0
 11
5.5267881566
 21
5.4222252794
 31
0.0
 11
5.5220308843
 21
5.460964127
 31
0.0
 11
5.5199229084
 21
5.5
 31
0.0
  0
SPLINE
  5
33E
100
AcDbEntity
  8
0
100
AcDbSpline
 62
6
  6
CONTINUOUS
 70
0
 71
3
 72
15
 73
11
 74
9
 42
0.0000001
 43
0.0000001
 44
0.0000000001
 12
-0.0085092476
 22
0.430029998
 32
0.0
 13
0.3693249028
 23
0.2204480045
 33
0.0
 40
0.0
 40
0.0
 40
0.0
 40
0.0
 40
0.1390910321
 40
0.2765491301
 40
0.4106806021
 40
0.5403243432
 40
0.6645068789
 40
0.782547112
 40
0.8942585913
 40
1.0
 40
1.0
 40
1.0
 40
1.0
 10
5.3178883589
 20
5.5
 30
0.0
 10
5.3174938389
 20
5.5199377721
 30
0.0
 10
5.318780123
 20
5.559651236
 30
0.0
 10
5.3268385111
 20
5.6180841118
 30
0.0
 10
5.3408726845
 20
5.6739960344
 30
0.0
 10
5.3605470554
 20
5.7261610878
 30
0.0
 10
5.3854103765
 20
5.7734895519
 30
0.0
 10
5.4149657725
 20
5.8149531538
 30
0.0
 10
5.4485527278
 20
5.8496473766
 30
0.0
 10
5.4738371991
 20
5.868218832
 30
0.0
 10
5.4868548443
 20
5.8759889928
 30
0.0
 11
5.3178883589
 21
5.5
 31
0.0
 11
5.3198350203
 21
5.5597933451
 31
0.0
 11
5.3279720859
 21
5.618353392
 31
0.0
 11
5.342102893
 21
5.6742879037
 31
0.0
 11
5.3618932866
 21
5.7264194451
 31
0.0
 11
5.3868807383
 21
5.7736268651
 31
0.0
 11
5.4165013958
 21
5.8148614203
 31
0.0
 11
5.4500780113
 21
5.8492312851
 31
0.0
 11
5.4868548443
 21
5.8759889928
 31
0.0
  0
SPLINE
  5
33F
100
AcDbEntity
  8
0
100
AcDbSpline
 62
6
  6
CONTINUOUS
 70
0
 71
3
 72
12
 73
8
 74
6
 42
0.0000001
 43
0.0000001
 44
0.0000000001
 12
-0.0055557118
 22
0.2807677982
 32
0.0
 13
0.1444762947
 23
0.2408070238
 33
0.0
 40
0.0
 40
0.0
 40
0.0
 40
0.0
 40
0.130784445
 40
0.2610840649
 40
0.5173080453
 40
0.7646020961
 40
1.0
 40
1.0
 40
1.0
 40
1.0
 10
5.2673797215
 20
5.5
 30
0.0
 10
5.2671375213
 20
5.5122400202
 30
0.0
 10
5.2674414078
 20
5.5366986246
 30
0.0
 10
5.271131556
 20
5.5850058297
 30
0.0
 10
5.2813769625
 20
5.6436406054
 30
0.0
 10
5.302468387
 20
5.7097327142
 30
0.0
 10
5.3224586676
 20
5.7504984237
 30
0.0
 10
5.3337951399
 20
5.7693935799
 30
0.0
 11
5.2673797215
 21
5.5
 31
0.0
 11
5.267833051
 21
5.5367244509
 31
0.0
 11
5.2706299867
 21
5.5732084977
 31
0.0
 11
5.2831353543
 21
5.6440669876
 31
0.0
 11
5.3044385568
 21
5.7101645851
 31
0.0
 11
5.3337951399
 21
5.7693935799
 31
0.0
  0
SPLINE
  5
340
100
AcDbEntity
  8
0
100
AcDbSpline
 62
6
  6
CONTINUOUS
 70
0
 71
3
 72
12
 73
8
 74
6
 42
0.0000001
 43
0.0000001
 44
0.0000000001
 12
0.0988472307
 22
0.1509798339
 32
0.0
 13
0.1707171909
 23
0.0584921018
 33
0.0
 40
0.0
 40
0.0
 40
0.0
 40
0.0
 40
0.2698155634
 40
0.5255244084
 40
0.768094508
 40
0.8852158771
 40
1.0
 40
1.0
 40
1.0
 40
1.0
 10
5.3417211782
 20
5.7820383894
 30
0.0
 10
5.350611352
 20
5.7956172924
 30
0.0
 10
5.3696798107
 20
5.8209851634
 30
0.0
 10
5.4027121822
 20
5.8535375097
 30
0.0
 10
5.4331540151
 20
5.8749669756
 30
0.0
 10
5.4585688763
 20
5.8880304059
 30
0.0
 10
5.4715499964
 20
5.8932103943
 30
0.0
 10
5.4780818707
 20
5.8954483825
 30
0.0
 11
5.3417211782
 21
5.7820383894
 31
0.0
 11
5.371122719
 21
5.8208500573
 31
0.0
 11
5.4041250855
 21
5.8531024479
 31
0.0
 11
5.4400298249
 21
5.8781428724
 31
0.0
 11
5.4588367289
 21
5.8877874244
 31
0.0
 11
5.4780818707
 21
5.8954483825
 31
0.0
  0
SPLINE
  5
341
100
AcDbEntity
  8
0
100
AcDbSpline
 62
6
  6
CONTINUOUS
 70
0
 71
3
 72
11
 73
7
 74
5
 42
0.0000001
 43
0.0000001
 44
0.0000000001
 12
-0.156107576
 22
-0.0000212922
 32
0.0
 13
-0.1210601629
 23
-0.098559691
 33
0.0
 40
0.0
 40
0.0
 40
0.0
 40
0.0
 40
0.2406322386
 40
0.4852176083
 40
0.737381406
 40
1.0
 40
1.0
 40
1.0
 40
1.0
 10
5.4460585341
 20
5.9062493379
 30
0.0
 10
5.4335370289
 20
5.90624763
 30
0.0
 10
5.408228949
 20
5.9038885524
 30
0.0
 10
5.3711193767
 20
5.8933885176
 30
0.0
 10
5.3353651241
 20
5.8761415005
 30
0.0
 10
5.3133295664
 20
5.8606927555
 30
0.0
 10
5.3027320165
 20
5.8520648864
 30
0.0
 11
5.4460585341
 21
5.9062493379
 31
0.0
 11
5.4086537664
 21
5.9027886725
 31
0.0
 11
5.3718911843
 21
5.8924760884
 31
0.0
 11
5.3363858858
 21
5.8754775067
 31
0.0
 11
5.3027320165
 21
5.8520648864
 31
0.0
  0
SPLINE
  5
342
100
AcDbEntity
  8
0
100
AcDbSpline
 62
6
  6
CONTINUOUS
 70
0
 71
3
 72
9
 73
5
 74
3
 42
0.0000001
 43
0.0000001
 44
0.0000000001
 12
-0.0271906441
 22
-0.0221369393
 32
0.0
 13
-0.0244208422
 23
-0.0251594451
 33
0.0
 40
0.0
 40
0.0
 40
0.0
 40
0.0
 40
0.2467364763
 40
1.0
 40
1.0
 40
1.0
 40
1.0
 10
5.3027320165
 20
5.8520648864
 30
0.0
 10
5.3004957086
 20
5.8502442229
 30
0.0
 10
5.2915446395
 20
5.8427278583
 30
0.0
 10
5.2830455874
 20
5.834675553
 30
0.0
 10
5.2769138109
 20
5.8283583222
 30
0.0
 11
5.3027320165
 21
5.8520648864
 31
0.0
 11
5.2961061164
 21
5.8465024728
 31
0.0
 11
5.2769138109
 21
5.8283583222
 31
0.0
  0
SPLINE
  5
343
100
AcDbEntity
  8
0
100
AcDbSpline
 62
6
  6
CONTINUOUS
 70
0
 71
3
 72
13
 73
9
 74
7
 42
0.0000001
 43
0.0000001
 44
0.0000000001
 12
-0.0070122561
 22
0.3543768623
 32
0.0
 13
0.242356679
 23
0.2586413974
 33
0.0
 40
0.0
 40
0.0
 40
0.0
 40
0.0
 40
0.1345262076
 40
0.267995608
 40
0.5275955477
 40
0.6524798235
 40
0.7731469389
 40
1.0
 40
1.0
 40
1.0
 40
1.0
 10
5.1663624467
 20
5.5
 30
0.0
 10
5.1660480027
 20
5.5158909918
 30
0.0
 10
5.1667377858
 20
5.5475940389
 30
0.0
 10
5.1732767784
 20
5.6096310124
 30
0.0
 10
5.1873927651
 20
5.6695677072
 30
0.0
 10
5.2090661459
 20
5.7252702511
 30
0.0
 10
5.2343275653
 20
5.7750942041
 30
0.0
 10
5.2585873594
 20
5.808800458
 30
0.0
 10
5.2769138109
 20
5.8283583222
 30
0.0
 11
5.1663624467
 21
5.5
 31
0.0
 11
5.1674036403
 21
5.5476709384
 31
0.0
 11
5.1723869589
 21
5.5947154652
 31
0.0
 11
5.1938075799
 21
5.6842016307
 31
0.0
 11
5.2099183929
 21
5.7254303923
 31
0.0
 11
5.2293337399
 21
5.7635396771
 31
0.0
 11
5.2769138109
 21
5.8283583222
 31
0.0
  0
SPLINE
  5
344
100
AcDbEntity
  8
0
100
AcDbSpline
 62
6
  6
CONTINUOUS
 70
0
 71
3
 72
14
 73
10
 74
8
 42
0.0000001
 43
0.0000001
 44
0.0000000001
 12
-0.0064709567
 22
0.3270213349
 32
0.0
 13
0.2025185717
 23
0.2568483111
 33
0.0
 40
0.0
 40
0.0
 40
0.0
 40
0.0
 40
0.132923208
 40
0.2651008141
 40
0.523281438
 40
0.6481960619
 40
0.7695583282
 40
0.8869251946
 40
1.0
 40
1.0
 40
1.0
 40
1.0
 10
5.2168710841
 20
5.5
 30
0.0
 10
5.2165843707
 20
5.514489575
 30
0.0
 10
5.2171141604
 20
5.5434240172
 30
0.0
 10
5.2224656935
 20
5.6002597063
 30
0.0
 10
5.2341775858
 20
5.6555013874
 30
0.0
 10
5.2522350541
 20
5.7075090128
 30
0.0
 10
5.2684749773
 20
5.7437397264
 30
0.0
 10
5.2873515613
 20
5.7771925626
 30
0.0
 10
5.3018445118
 20
5.797781192
 30
0.0
 10
5.3094777611
 20
5.8074622162
 30
0.0
 11
5.2168710841
 21
5.5
 31
0.0
 11
5.217664063
 21
5.543470002
 31
0.0
 11
5.2217366454
 21
5.5865111146
 31
0.0
 11
5.2394801488
 21
5.669073096
 31
0.0
 11
5.2529237616
 21
5.7076557928
 31
0.0
 11
5.2692085336
 21
5.7438575094
 31
0.0
 11
5.2881339243
 21
5.7772572635
 31
0.0
 11
5.3094777611
 21
5.8074622162
 31
0.0
  0
SPLINE
  5
345
100
AcDbEntity
  8
0
100
AcDbSpline
 62
6
  6
CONTINUOUS
 70
0
 71
3
 72
11
 73
7
 74
5
 42
0.0000001
 43
0.0000001
 44
0.0000000001
 12
0.1017237441
 22
0.1027918354
 32
0.0
 13
0.1424102811
 23
0.0251633338
 33
0.0
 40
0.0
 40
0.0
 40
0.0
 40
0.0
 40
0.2649880007
 40
0.5186378982
 40
0.7627593289
 40
1.0
 40
1.0
 40
1.0
 40
1.0
 10
5.3331791653
 20
5.8343371955
 30
0.0
 10
5.3421643559
 20
5.8434167298
 30
0.0
 10
5.3609173748
 20
5.8600867537
 30
0.0
 10
5.3916964295
 20
5.8804449793
 30
0.0
 10
5.4240543207
 20
5.8952349709
 30
0.0
 10
5.4465899142
 20
5.901298058
 30
0.0
 10
5.4578517511
 20
5.9032879801
 30
0.0
 11
5.3331791653
 21
5.8343371955
 31
0.0
 11
5.3618951731
 21
5.8597130743
 31
0.0
 11
5.3925554594
 21
5.8798503486
 31
0.0
 11
5.4247029857
 21
5.8944416141
 31
0.0
 11
5.4578517511
 21
5.9032879801
 31
0.0
  0
SPLINE
  5
346
100
AcDbEntity
  8
0
100
AcDbSpline
 62
6
  6
CONTINUOUS
 70
0
 71
3
 72
23
 73
19
 74
17
 42
0.0000001
 43
0.0000001
 44
0.0000000001
 12
0.6689075811
 22
0.1744980951
 32
0.0
 13
-0.2906222797
 23
0.6272365007
 33
0.0
 40
0.0
 40
0.0
 40
0.0
 40
0.0
 40
0.0499909013
 40
0.1017927982
 40
0.1557557554
 40
0.2121541544
 40
0.2710940209
 40
0.3324834805
 40
0.396104183
 40
0.4616288916
 40
0.5286577534
 40
0.5967325618
 40
0.6653639575
 40
0.7340509314
 40
0.8023006442
 40
0.8696726059
 40
0.935732893
 40
1.0
 40
1.0
 40
1.0
 40
1.0
 10
5.948756759
 20
5.1425930796
 30
0.0
 10
5.9599031899
 20
5.145500852
 30
0.0
 10
5.982100954
 20
5.153497541
 30
0.0
 10
6.0135230371
 20
5.1711374459
 30
0.0
 10
6.0430287571
 20
5.1942874122
 30
0.0
 10
6.0701713098
 20
5.2224667438
 30
0.0
 10
6.094556301
 20
5.2552052597
 30
0.0
 10
6.1158636938
 20
5.2919475932
 30
0.0
 10
6.1337656242
 20
5.3321208654
 30
0.0
 10
6.1480496161
 20
5.3750818921
 30
0.0
 10
6.1584994396
 20
5.420181697
 30
0.0
 10
6.1650162126
 20
5.4667346128
 30
0.0
 10
6.167498228
 20
5.5140563488
 30
0.0
 10
6.1659667878
 20
5.5614578569
 30
0.0
 10
6.1604371577
 20
5.608268564
 30
0.0
 10
6.1510304464
 20
5.6538419386
 30
0.0
 10
6.1378742942
 20
5.6975178439
 30
0.0
 10
6.1265963265
 20
5.7254086835
 30
0.0
 10
6.1203705088
 20
5.7388455753
 30
0.0
 11
5.948756759
 21
5.1425930796
 31
0.0
 11
5.9813051528
 21
5.1542070638
 31
0.0
 11
6.0125849912
 21
5.1716412535
 31
0.0
 11
6.0420149056
 21
5.1945647624
 31
0.0
 11
6.0691477563
 21
5.2225622862
 31
0.0
 11
6.0935788903
 21
5.2551698755
 31
0.0
 11
6.1149457408
 21
5.2918366703
 31
0.0
 11
6.1329240673
 21
5.3319748313
 31
0.0
 11
6.1472687253
 21
5.3749403099
 31
0.0
 11
6.1577765706
 21
5.420069771
 31
0.0
 11
6.1643237451
 21
5.4666717922
 31
0.0
 11
6.1668275045
 21
5.5140501307
 31
0.0
 11
6.1652877219
 21
5.5615080282
 31
0.0
 11
6.1597410417
 21
5.6083614467
 31
0.0
 11
6.1502921592
 21
5.6539666927
 31
0.0
 11
6.1370856273
 21
5.6976824533
 31
0.0
 11
6.1203705088
 21
5.7388455753
 31
0.0
  0
SPLINE
  5
347
100
AcDbEntity
  8
0
100
AcDbSpline
 62
6
  6
CONTINUOUS
 70
0
 71
3
 72
15
 73
11
 74
9
 42
0.0000001
 43
0.0000001
 44
0.0000000001
 12
0.0599374273
 22
-0.3529301878
 32
0.0
 13
0.3442996511
 23
-0.0980304181
 33
0.0
 40
0.0
 40
0.0
 40
0.0
 40
0.0
 40
0.1423282996
 40
0.2811325129
 40
0.4150819092
 40
0.5434775402
 40
0.6659049631
 40
0.7823516559
 40
0.8933565088
 40
1.0
 40
1.0
 40
1.0
 40
1.0
 10
5.6352620606
 20
5.4141559509
 30
0.0
 10
5.6381056579
 20
5.3974119664
 30
0.0
 10
5.6454227749
 20
5.364598637
 30
0.0
 10
5.6613302041
 20
5.3175902081
 30
0.0
 10
5.6817943077
 20
5.2741912383
 30
0.0
 10
5.7064083096
 20
5.2352824567
 30
0.0
 10
5.7346967916
 20
5.2016183191
 30
0.0
 10
5.7661518194
 20
5.1738993529
 30
0.0
 10
5.8001491074
 20
5.1527196371
 30
0.0
 10
5.8244774237
 20
5.1431205592
 30
0.0
 10
5.8367165293
 20
5.1396357905
 30
0.0
 11
5.6352620606
 21
5.4141559509
 31
0.0
 11
5.6464005223
 21
5.3644371593
 31
0.0
 11
5.662412654
 21
5.3173981298
 31
0.0
 11
5.6829637598
 21
5.2740735925
 31
0.0
 11
5.7076480396
 21
5.2353007709
 31
0.0
 11
5.7359655519
 21
5.2018504407
 31
0.0
 11
5.7673479103
 21
5.1744119625
 31
0.0
 11
5.8011601248
 21
5.1535352857
 31
0.0
 11
5.8367165293
 21
5.1396357905
 31
0.0
  0
SPLINE
  5
348
100
AcDbEntity
  8
0
100
AcDbSpline
 62
6
  6
CONTINUOUS
 70
0
 71
3
 72
14
 73
10
 74
8
 42
0.0000001
 43
0.0000001
 44
0.0000000001
 12
0.0075410844
 22
-0.3811021419
 32
0.0
 13
0.2877906951
 23
-0.2499444465
 33
0.0
 40
0.0
 40
0.0
 40
0.0
 40
0.0
 40
0.1337546508
 40
0.2669185074
 40
0.3981831136
 40
0.5266602912
 40
0.6516310673
 40
0.7724843759
 40
1.0
 40
1.0
 40
1.0
 40
1.0
 10
5.5704315458
 20
5.5
 30
0.0
 10
5.5707677641
 20
5.4830086054
 30
0.0
 10
5.5729544072
 20
5.4491122048
 30
0.0
 10
5.5806737987
 20
5.3990462046
 30
0.0
 10
5.5927906891
 20
5.3505404659
 30
0.0
 10
5.6090917063
 20
5.3043798174
 30
0.0
 10
5.6293842918
 20
5.2612596022
 30
0.0
 10
5.6606333811
 20
5.209807899
 30
0.0
 10
5.6900503784
 20
5.1759266221
 30
0.0
 10
5.7118760049
 20
5.1569711998
 30
0.0
 11
5.5704315458
 21
5.5
 31
0.0
 11
5.5737095531
 21
5.4491213259
 31
0.0
 11
5.581478635
 21
5.3989604454
 31
0.0
 11
5.5936416952
 21
5.3504263057
 31
0.0
 11
5.6100115587
 21
5.3042707586
 31
0.0
 11
5.6303574334
 21
5.261198384
 31
0.0
 11
5.6543641395
 21
5.221881749
 31
0.0
 11
5.7118760049
 21
5.1569711998
 31
0.0
  0
SPLINE
  5
349
100
AcDbEntity
  8
0
100
AcDbSpline
 62
6
  6
CONTINUOUS
 70
0
 71
3
 72
9
 73
5
 74
3
 42
0.0000001
 43
0.0000001
 44
0.0000000001
 12
0.0331492276
 22
-0.0287899
 32
0.0
 13
0.0371564359
 23
-0.0233907867
 33
0.0
 40
0.0
 40
0.0
 40
0.0
 40
0.0
 40
0.2541536677
 40
1.0
 40
1.0
 40
1.0
 40
1.0
 10
5.7118760049
 20
5.1569711998
 30
0.0
 10
5.7146843375
 20
5.1545321803
 30
0.0
 10
5.7259084025
 20
5.1451388682
 30
0.0
 10
5.7378345025
 20
5.136578518
 30
0.0
 10
5.7470721664
 20
5.1307632072
 30
0.0
 11
5.7118760049
 21
5.1569711998
 31
0.0
 11
5.7204349594
 21
5.1498112952
 31
0.0
 11
5.7470721664
 21
5.1307632072
 31
0.0
  0
SPLINE
  5
34A
100
AcDbEntity
  8
0
100
AcDbSpline
 62
6
  6
CONTINUOUS
 70
0
 71
3
 72
9
 73
5
 74
3
 42
0.0000001
 43
0.0000001
 44
0.0000000001
 12
0.0285120557
 22
-0.0179489608
 32
0.0
 13
0.0306178362
 23
-0.0140588272
 33
0.0
 40
0.0
 40
0.0
 40
0.0
 40
0.0
 40
0.2529269594
 40
1.0
 40
1.0
 40
1.0
 40
1.0
 10
5.7470721664
 20
5.1307632072
 30
0.0
 10
5.7494759889
 20
5.1292499485
 30
0.0
 10
5.7590737305
 20
5.1234175689
 30
0.0
 10
5.7690473371
 20
5.1182003656
 30
0.0
 10
5.7766719237
 20
5.1146993753
 30
0.0
 11
5.7470721664
 21
5.1307632072
 31
0.0
 11
5.7543550889
 21
5.1263389705
 31
0.0
 11
5.7766719237
 21
5.1146993753
 31
0.0
  0
SPLINE
  5
34B
100
AcDbEntity
  8
0
100
AcDbSpline
 62
6
  6
CONTINUOUS
 70
0
 71
3
 72
9
 73
5
 74
3
 42
0.0000001
 43
0.0000001
 44
0.0000000001
 12
0.0377258754
 22
-0.0173226338
 32
0.0
 13
0.04019089
 23
-0.010392674
 33
0.0
 40
0.0
 40
0.0
 40
0.0
 40
0.0
 40
0.2529271347
 40
1.0
 40
1.0
 40
1.0
 40
1.0
 10
5.7766719237
 20
5.1146993753
 30
0.0
 10
5.7798525562
 20
5.1132389206
 30
0.0
 10
5.7925500446
 20
5.1077354943
 30
0.0
 10
5.8057307067
 20
5.1033398904
 30
0.0
 10
5.8157392145
 20
5.1007518622
 30
0.0
 11
5.7766719237
 21
5.1146993753
 31
0.0
 11
5.7863065446
 21
5.1105258587
 31
0.0
 11
5.8157392145
 21
5.1007518622
 31
0.0
  0
ENDSEC
  0
SECTION
  2
OBJECTS
  0
DICTIONARY
  5
C
100
AcDbDictionary
280
0
281
1
  3
ACAD_GROUP
350
D
  3
ACAD_MLINESTYLE
350
17
  3
ACAD_LAYOUT
350
1A
  3
ACAD_PLOTSETTINGS
350
19
  3
ACAD_PLOTSTYLENAME
350
E
  0
DICTIONARY
  5
D
102
{ACAD_REACTORS
330
C
102
}
100
AcDbDictionary
280
0
281
1
  0
ACDBDICTIONARYWDFLT
  5
E
102
{ACAD_REACTORS
330
C
102
}
100
AcDbDictionary
281
1
  3
Normal
350
F
100
AcDbDictionaryWithDefault
340
F
  0
DICTIONARY
  5
17
102
{ACAD_REACTORS
330
C
102
}
100
AcDbDictionary
280
0
281
1
  3
Standard
350
18
  0
DICTIONARY
  5
19
102
{ACAD_REACTORS
330
C
102
}
100
AcDbDictionary
281
1
  0
DICTIONARY
  5
1A
102
{ACAD_REACTORS
330
C
102
}
100
AcDbDictionary
281
1
  3
Model
350
34C
  3
Layout1
350
34D
  0
ACDBPLACEHOLDER
  5
F
102
{ACAD_REACTORS
330
E
102
}
  0
MLINESTYLE
  5
18
102
{ACAD_REACTORS
330
17
102
}
100
AcDbMlineStyle
  2
STANDARD
 70
0
  3

 62
256
 51
90.0
 52
90.0
 71
2
 49
0.5
 62
256
  6
BYLAYER
 49
-0.5
 62
256
  6
BYLAYER
  0
LAYOUT
  5
34C
102
{ACAD_REACTORS
330
1A
102
}
100
AcDbPlotSettings
  1

  2
none_device
  4
ANSI_B_(17.00_x_11.00_Inches)
  6

 40
0.0
 41
0.0
 42
0.0
 43
0.0
 44
431.8
 45
279.4
 46
0.0
 47
0.0
 48
0.0
 49
0.0
140
0.0
141
0.0
142
1.0
143
1.0
 70
1024
 72
0
 73
0
 74
0
  7

 75
0
147
1.0
148
0.0
149
0.0
100
AcDbLayout
  1
Model
 70
0
 71
0
 10
0.0
 20
0.0
 11
17.0
 21
11.0
 12
0.0
 22
0.0
 32
0.0
 14
0.0
 24
0.0
 34
0.0
 15
0.0
 25
0.0
 35
0.0
146
0.0
 13
0.0
 23
0.0
 33
0.0
 16
1.0
 26
0.0
 36
0.0
 17
0.0
 27
1.0
 37
0.0
 76
0
330
203
345
0
346
0
  0
LAYOUT
  5
34D
102
{ACAD_REACTORS
330
1A
102
}
100
AcDbPlotSettings
  1

  2
none_device
  4
ANSI_B_(17.00_x_11.00_Inches)
  6

 40
0.0
 41
0.0
 42
0.0
 43
0.0
 44
431.8
 45
279.4
 46
0.0
 47
0.0
 48
0.0
 49
0.0
140
0.0
141
0.0
142
1.0
143
1.0
 70
0
 72
0
 73
0
 74
0
  7

 75
0
147
1.0
148
0.0
149
0.0
100
AcDbLayout
  1
Layout1
 70
0
 71
1
 10
0.0
 20
0.0
 11
17.0
 21
11.0
 12
0.0
 22
0.0
 32
0.0
 14
0.0
 24
0.0
 34
0.0
 15
0.0
 25
0.0
 35
0.0
146
0.0
 13
0.0
 23
0.0
 33
0.0
 16
1.0
 26
0.0
 36
0.0
 17
0.0
 27
1.0
 37
0.0
 76
0
330
204
345
0
346
0
  0
ENDSEC
  0
EOF
