999
DXF file: 208_RIGHT.dxf
999
Pro/ENGINEER 2018400 by Parametric Technology Corporation
  0
SECTION
  2
HEADER
  9
$ACADVER
  1
AC1027
  9
$DWGCODEPAGE
  3
ANSI_1252
  9
$EXTMAX
 10
11.0
 20
8.5
 30
0.0
  9
$EXTMIN
 10
0.0
 20
0.0
 30
0.0
  9
$LIMMIN
 10
0.0
 20
0.0
  9
$LIMMAX
 10
11.0
 20
8.5
  9
$VIEWCTR
 10
5.5
 20
4.25
  9
$VIEWSIZE
 40
8.5
  9
$CLAYER
  8
0
  9
$LTSCALE
 40
0.605
  9
$CELTYPE
  6
BYLAYER
  9
$DIMSCALE
 40
1.0
  9
$DIMASZ
 40
0.1
  9
$DIMEXO
 40
0.0625
  9
$DIMDLI
 40
0.418
  9
$DIMEXE
 40
0.125
  9
$DIMCEN
 40
0.099
  9
$DIMLFAC
 40
1.0
  9
$DIMBLK
  1
_FILLED
  9
$DIMALT
 70
1
  9
$DIMALTD
 70
1
  9
$DIMALTTD
 70
2
  9
$DIMALTF
 40
25.4
  9
$DIMTXT
 40
0.08
  9
$DIMTOL
 70
1
  9
$DIMLIM
 70
0
  9
$DIMTFAC
 40
1.0
  9
$DIMTP
 40
0.01
  9
$DIMTM
 40
0.01
  9
$DIMGAP
 40
0.09
  9
$DIMDSEP
 70
46
  9
$AUNITS
 70
0
  9
$PDMODE
 70
3
  9
$PDSIZE
 40
0.3125
  9
$HANDSEED
  5
298
  9
$TILEMODE
 70
1
  9
$MEASUREMENT
 70
0
  9
$INSUNITS
 70
1
  0
ENDSEC
  0
SECTION
  2
CLASSES
  0
CLASS
  1
ACDBDICTIONARYWDFLT
  2
AcDbDictionaryWithDefault
  3
AutoCAD 2000
 90
0
 91
1
280
0
281
0
  0
CLASS
  1
ACDBPLACEHOLDER
  2
AcDbPlaceHolder
  3
AutoCAD 2000
 90
0
 91
1
280
0
281
0
  0
CLASS
  1
LAYOUT
  2
AcDbLayout
  3
AutoCAD 2000
 90
0
 91
0
280
0
281
0
  0
ENDSEC
  0
SECTION
  2
TABLES
  0
TABLE
  2
VPORT
  5
8
100
AcDbSymbolTable
 70
2
  0
VPORT
  5
1F4
100
AcDbSymbolTableRecord
100
AcDbViewportTableRecord
  2
*ACTIVE
 70
0
 10
0.0
 20
0.0
 11
1.0
 21
1.0
 12
5.5
 22
4.25
 13
0.0
 23
0.0
 14
1.0
 24
1.0
 15
0.0
 25
0.0
 16
0.0
 26
0.0
 36
1.0
 17
0.0
 27
0.0
 37
0.0
 40
8.5
 41
1.2941176471
 42
50.0
 43
0.0
 44
0.0
 50
0.0
 51
0.0
 71
0
 72
100
 73
1
 74
1
 75
0
 76
0
 77
0
 78
0
  0
ENDTAB
  0
TABLE
  2
LTYPE
  5
5
100
AcDbSymbolTable
 70
6
  0
LTYPE
  5
14
100
AcDbSymbolTableRecord
100
AcDbLinetypeTableRecord
  2
BYBLOCK
 70
0
  3

 72
65
 73
0
 40
0.0
  0
LTYPE
  5
15
100
AcDbSymbolTableRecord
100
AcDbLinetypeTableRecord
  2
BYLAYER
 70
0
  3

 72
65
 73
0
 40
0.0
  0
LTYPE
  5
16
100
AcDbSymbolTableRecord
100
AcDbLinetypeTableRecord
  2
CONTINUOUS
 70
64
  3
Solid line
 72
65
 73
0
 40
0.0
  0
LTYPE
  5
1F5
100
AcDbSymbolTableRecord
100
AcDbLinetypeTableRecord
  2
CENTER
 70
64
  3
____ _ ____ _ ____ _ ____ _ ____ _ ____ _ ____
 72
65
 73
4
 40
0.6
 49
0.375
 74
0
 49
-0.075
 74
0
 49
0.075
 74
0
 49
-0.075
 74
0
  0
LTYPE
  5
1F6
100
AcDbSymbolTableRecord
100
AcDbLinetypeTableRecord
  2
HIDDEN
 70
64
  3
- - - - - - - - - - - - - - - - - - - -
 72
65
 73
2
 40
0.2
 49
0.1
 74
0
 49
-0.1
 74
0
  0
LTYPE
  5
1F7
100
AcDbSymbolTableRecord
100
AcDbLinetypeTableRecord
  2
PHANTOM
 70
64
  3
_____ _ _ _____ _ _ _____ _ _ _____
 72
65
 73
6
 40
0.8
 49
0.45
 74
0
 49
-0.05
 74
0
 49
0.1
 74
0
 49
-0.05
 74
0
 49
0.1
 74
0
 49
-0.05
 74
0
  0
LTYPE
  5
1F8
100
AcDbSymbolTableRecord
100
AcDbLinetypeTableRecord
  2
DOT
 70
64
  3
. . . . . . . . . . . . . . . . . . . .
 72
65
 73
2
 40
0.2
 49
0.1
 74
0
 49
-0.1
 74
0
  0
LTYPE
  5
1F9
100
AcDbSymbolTableRecord
100
AcDbLinetypeTableRecord
  2
DASHED
 70
64
  3
- - - - - - - - - - - - - - - - - - - -
 72
65
 73
2
 40
0.2
 49
0.1
 74
0
 49
-0.1
 74
0
  0
ENDTAB
  0
TABLE
  2
LAYER
  5
2
100
AcDbSymbolTable
 70
36
  0
LAYER
  5
10
100
AcDbSymbolTableRecord
100
AcDbLayerTableRecord
  2
0
 70
0
 62
7
  6
CONTINUOUS
370
-3
390
F
  0
LAYER
  5
1FA
100
AcDbSymbolTableRecord
100
AcDbLayerTableRecord
  2
DEFAULT_1
 70
0
 62
7
  6
CENTER
370
-3
390
F
  0
LAYER
  5
1FB
100
AcDbSymbolTableRecord
100
AcDbLayerTableRecord
  2
DEFAULT_2
 70
0
 62
8
  6
HIDDEN
370
-3
390
F
  0
LAYER
  5
1FC
100
AcDbSymbolTableRecord
100
AcDbLayerTableRecord
  2
DEFAULT_3
 70
0
 62
7
  6
PHANTOM
370
-3
390
F
  0
LAYER
  5
1FD
100
AcDbSymbolTableRecord
100
AcDbLayerTableRecord
  2
ALL_FEATURES
 70
0
 62
7
  6
CONTINUOUS
370
-3
390
F
  0
LAYER
  5
1FE
100
AcDbSymbolTableRecord
100
AcDbLayerTableRecord
  2
AXES_FEATURES
 70
0
 62
7
  6
CONTINUOUS
370
-3
390
F
  0
LAYER
  5
1FF
100
AcDbSymbolTableRecord
100
AcDbLayerTableRecord
  2
DEFAULT_COORDINATE_SYSTEM
 70
0
 62
7
  6
CONTINUOUS
370
-3
390
F
  0
LAYER
  5
200
100
AcDbSymbolTableRecord
100
AcDbLayerTableRecord
  2
DEFAULT_DATUM_AXES
 70
0
 62
7
  6
CONTINUOUS
370
-3
390
F
  0
LAYER
  5
201
100
AcDbSymbolTableRecord
100
AcDbLayerTableRecord
  2
DEFAULT_DATUM_PLANES
 70
0
 62
7
  6
CONTINUOUS
370
-3
390
F
  0
LAYER
  5
202
100
AcDbSymbolTableRecord
100
AcDbLayerTableRecord
  2
DIMENSIONS
 70
0
 62
7
  6
CONTINUOUS
370
-3
390
F
  0
LAYER
  5
203
100
AcDbSymbolTableRecord
100
AcDbLayerTableRecord
  2
PROTRUSION_FEATURES
 70
0
 62
7
  6
CONTINUOUS
370
-3
390
F
  0
LAYER
  5
204
100
AcDbSymbolTableRecord
100
AcDbLayerTableRecord
  2
WETTED_SURFACE_AREA
 70
0
 62
7
  6
CONTINUOUS
370
-3
390
F
  0
ENDTAB
  0
TABLE
  2
STYLE
  5
3
100
AcDbSymbolTable
 70
1
  0
STYLE
  5
11
100
AcDbSymbolTableRecord
100
AcDbTextStyleTableRecord
  2
STANDARD
 70
0
 40
0.0
 41
0.8
 50
0.0
 71
0
 42
0.2
  3
txt
  4

  0
STYLE
  5
205
100
AcDbSymbolTableRecord
100
AcDbTextStyleTableRecord
  2
TEXTSTYLE_1
 70
0
 40
0.0
 41
0.8
 50
0.0
 71
0
 42
0.2
  3
gdt
  4

  0
ENDTAB
  0
TABLE
  2
VIEW
  5
6
100
AcDbSymbolTable
 70
0
  0
ENDTAB
  0
TABLE
  2
UCS
  5
7
100
AcDbSymbolTable
 70
0
  0
ENDTAB
  0
TABLE
  2
APPID
  5
9
100
AcDbSymbolTable
 70
1
  0
APPID
  5
206
100
AcDbSymbolTableRecord
100
AcDbRegAppTableRecord
  2
ACAD
 70
0
  0
ENDTAB
  0
TABLE
  2
BLOCK_RECORD
  5
1
100
AcDbSymbolTable
 70
0
  0
BLOCK_RECORD
  5
207
100
AcDbSymbolTableRecord
100
AcDbBlockTableRecord
  2
*Model_Space
  0
BLOCK_RECORD
  5
208
100
AcDbSymbolTableRecord
100
AcDbBlockTableRecord
  2
*Paper_Space
  0
BLOCK_RECORD
  5
209
100
AcDbSymbolTableRecord
100
AcDbBlockTableRecord
  2
_FILLED
  0
ENDTAB
  0
TABLE
  2
DIMSTYLE
  5
A
100
AcDbSymbolTable
 70
1
100
AcDbDimStyleTable
 71
0
  0
DIMSTYLE
105
20A
100
AcDbSymbolTableRecord
100
AcDbDimStyleTableRecord
  2
STANDARD
 70
0
  3

  4

 40
1.0
 41
0.1
 42
0.0625
 43
0.38
 44
0.125
 45
0.0
 46
0.0
 47
0.01
 48
0.01
140
0.08
141
0.09
142
0.0
143
25.4
144
1.0
145
0.0
146
1.0
147
0.09
 71
1.0
 72
0.0
 73
1
 74
1
 75
0
 76
0
 77
0
 78
4
 79
1
170
1
171
1
172
0
173
0
174
0
175
0
176
0
177
0
178
0
270
2
179
2
271
2
272
2
273
2
274
2
275
0
280
0
281
0
282
0
283
1
284
4
285
0
286
0
287
3
288
0
340
11
278
46
341
209
342
209
343
209
344
209
  0
ENDTAB
  0
ENDSEC
  0
SECTION
  2
BLOCKS
  0
BLOCK
  5
20
100
AcDbEntity
  8
0
100
AcDbBlockBegin
  2
*Model_Space
 70
0
 10
0.0
 20
0.0
 30
0.0
  3
*Model_Space
  1

  0
ENDBLK
  5
21
100
AcDbEntity
  8
0
100
AcDbBlockEnd
  0
BLOCK
  5
1C
100
AcDbEntity
  8
0
100
AcDbBlockBegin
  2
*Paper_Space
 70
0
 10
0.0
 20
0.0
 30
0.0
  3
*Paper_Space
  1

  0
ENDBLK
  5
1D
100
AcDbEntity
  8
0
100
AcDbBlockEnd
  0
BLOCK
  5
20B
100
AcDbEntity
  8
0
100
AcDbBlockBegin
  2
_FILLED
 70
64
 10
0.0
 20
0.0
  3
_FILLED
  1

  0
SOLID
  5
20C
100
AcDbEntity
  8
0
  6
BYBLOCK
 62
0
100
AcDbTrace
 10
0.0
 20
0.0
 11
-1.0
 21
0.2
 12
-1.0
 22
-0.2
 13
-1.0
 23
-0.2
  0
ENDBLK
  5
20D
100
AcDbEntity
  8
0
  6
BYBLOCK
 62
0
100
AcDbBlockEnd
  0
ENDSEC
  0
SECTION
  2
ENTITIES
  0
MTEXT
  5
20E
100
AcDbEntity
  8
0
100
AcDbMText
 62
2
  6
CONTINUOUS
  7
STANDARD
 71
3
 72
1
 10
6.3522737717
 20
2.8625315994
 30
0.0
 11
1.0
 21
0.0
 31
0.0
 73
2
 44
0.9
  1
SCALE  1.000
 40
0.08
 41
0.768
  0
LINE
  5
20F
100
AcDbEntity
  8
0
100
AcDbLine
 62
7
  6
CONTINUOUS
 10
0.0
 20
0.0
 11
0.0
 21
8.5
  0
LINE
  5
210
100
AcDbEntity
  8
0
100
AcDbLine
 62
7
  6
CONTINUOUS
 10
0.0
 20
0.0
 11
11.0
 21
0.0
  0
LINE
  5
211
100
AcDbEntity
  8
0
100
AcDbLine
 62
7
  6
CONTINUOUS
 10
0.0
 20
8.5
 11
11.0
 21
8.5
  0
LINE
  5
212
100
AcDbEntity
  8
0
100
AcDbLine
 62
7
  6
CONTINUOUS
 10
11.0
 20
0.0
 11
11.0
 21
8.5
  0
LINE
  5
213
100
AcDbEntity
  8
0
100
AcDbLine
 62
7
  6
CONTINUOUS
 10
1.4286688211
 20
3.7429099906
 11
1.4286686559
 21
3.7268676045
  0
LINE
  5
214
100
AcDbEntity
  8
0
100
AcDbLine
 62
7
  6
CONTINUOUS
 10
1.4286689348
 20
3.753943688
 11
1.4286693461
 21
3.7938959819
  0
LINE
  5
215
100
AcDbEntity
  8
0
100
AcDbLine
 62
7
  6
CONTINUOUS
 10
1.429045007
 20
3.7515101514
 11
1.4309408344
 21
3.7444165231
  0
LINE
  5
216
100
AcDbEntity
  8
0
100
AcDbLine
 62
7
  6
CONTINUOUS
 10
1.4699015103
 20
3.8381251266
 11
1.4814494717
 21
3.7949251605
  0
LINE
  5
217
100
AcDbEntity
  8
0
100
AcDbLine
 62
7
  6
CONTINUOUS
 10
1.5204101477
 20
3.888633764
 11
1.5319581091
 21
3.8454337979
  0
LINE
  5
218
100
AcDbEntity
  8
0
100
AcDbLine
 62
7
  6
CONTINUOUS
 10
1.9531604721
 20
3.2379237
 11
1.9490408423
 21
3.253337344
  0
LINE
  5
219
100
AcDbEntity
  8
0
100
AcDbLine
 62
7
  6
CONTINUOUS
 10
2.0110974413
 20
3.2606460146
 11
1.9995494796
 21
3.3038459813
  0
LINE
  5
21A
100
AcDbEntity
  8
0
100
AcDbLine
 62
7
  6
CONTINUOUS
 10
2.0616060786
 20
3.3111546519
 11
2.050058117
 21
3.3543546187
  0
LINE
  5
21B
100
AcDbEntity
  8
0
100
AcDbLine
 62
7
  6
CONTINUOUS
 10
2.0733138259
 20
3.3915761023
 11
2.0728563755
 21
3.3938018308
  0
LINE
  5
21C
100
AcDbEntity
  8
0
100
AcDbLine
 62
7
  6
CONTINUOUS
 10
1.4286636174
 20
3.7268676051
 11
1.91798151
 21
3.2375497126
  0
LINE
  5
21D
100
AcDbEntity
  8
0
100
AcDbLine
 62
7
  6
CONTINUOUS
 10
1.6091289905
 20
3.5624498212
 11
1.4286688211
 21
3.7429099906
  0
LINE
  5
21E
100
AcDbEntity
  8
0
100
AcDbLine
 62
7
  6
CONTINUOUS
 10
1.4468007959
 20
3.7794526382
 11
1.5936068662
 21
3.6326465679
  0
LINE
  5
21F
100
AcDbEntity
  8
0
100
AcDbLine
 62
7
  6
CONTINUOUS
 10
1.6356721952
 20
3.8009621091
 11
1.6350720146
 21
3.8015191723
  0
LINE
  5
220
100
AcDbEntity
  8
0
100
AcDbLine
 62
7
  6
CONTINUOUS
 10
2.1088908169
 20
3.3577673894
 11
1.5762576718
 21
3.8904005345
  0
LINE
  5
221
100
AcDbEntity
  8
ALL_FEATURES
100
AcDbLine
 62
7
  6
CONTINUOUS
 10
2.1179159524
 20
3.3911686608
 11
1.5822825657
 21
3.9268020475
  0
LINE
  5
222
100
AcDbEntity
  8
ALL_FEATURES
100
AcDbLine
 62
7
  6
CONTINUOUS
 10
2.1677037652
 20
3.3873427888
 11
1.5784566936
 21
3.9765898603
  0
LINE
  5
223
100
AcDbEntity
  8
ALL_FEATURES
100
AcDbLine
 62
7
  6
CONTINUOUS
 10
2.1712392991
 20
3.3908783227
 11
1.5819922275
 21
3.9801253942
  0
LINE
  5
224
100
AcDbEntity
  8
0
100
AcDbLine
 62
7
  6
CONTINUOUS
 10
2.2531501243
 20
3.3549294382
 11
1.5460433431
 21
4.0620362194
  0
LINE
  5
225
100
AcDbEntity
  8
0
100
AcDbLine
 62
7
  6
CONTINUOUS
 10
1.6168220228
 20
4.1328148991
 11
2.3239288039
 21
3.4257081178
  0
LINE
  5
226
100
AcDbEntity
  8
0
100
AcDbLine
 62
7
  6
CONTINUOUS
 10
1.6584170687
 20
4.1336148849
 11
2.3247287904
 21
3.4673031632
  0
LINE
  5
227
100
AcDbEntity
  8
0
100
AcDbLine
 62
7
  6
CONTINUOUS
 10
2.3083040593
 20
3.483731233
 11
2.3116101704
 21
3.4804256319
  0
LINE
  5
228
100
AcDbEntity
  8
0
100
AcDbLine
 62
7
  6
CONTINUOUS
 10
1.6601313159
 20
4.1318990547
 11
1.6611745445
 21
4.1308559309
  0
LINE
  5
229
100
AcDbEntity
  8
0
100
AcDbLine
 62
7
  6
CONTINUOUS
 10
1.7223392243
 20
4.0696930358
 11
1.7317534092
 21
4.0602799485
  0
LINE
  5
22A
100
AcDbEntity
  8
0
100
AcDbLine
 62
7
  6
CONTINUOUS
 10
1.6685764555
 20
4.1234587155
 11
1.6713911323
 21
4.1206446677
  0
LINE
  5
22B
100
AcDbEntity
  8
0
100
AcDbLine
 62
7
  6
CONTINUOUS
 10
2.7834802102
 20
3.8817061335
 11
2.7834802102
 21
4.6817061335
  0
LINE
  5
22C
100
AcDbEntity
  8
0
100
AcDbLine
 62
7
  6
CONTINUOUS
 10
1.5460433431
 20
4.0620362194
 11
1.6168220228
 21
4.1328148991
  0
LINE
  5
22D
100
AcDbEntity
  8
ALL_FEATURES
100
AcDbLine
 62
7
  6
CONTINUOUS
 10
1.5784566936
 20
3.9765898603
 11
1.5819922275
 21
3.9801253942
  0
LINE
  5
22E
100
AcDbEntity
  8
0
100
AcDbLine
 62
7
  6
CONTINUOUS
 10
2.3273963363
 20
3.6059523456
 11
1.7970662504
 21
4.1362824315
  0
LINE
  5
22F
100
AcDbEntity
  8
0
100
AcDbLine
 62
7
  6
CONTINUOUS
 10
1.4699553735
 20
3.8388700393
 11
1.4762693259
 21
3.8451839918
  0
LINE
  5
230
100
AcDbEntity
  8
0
100
AcDbLine
 62
7
  6
CONTINUOUS
 10
1.5204640109
 20
3.8893786767
 11
1.5267779633
 21
3.8956926291
  0
LINE
  5
231
100
AcDbEntity
  8
0
100
AcDbLine
 62
7
  6
CONTINUOUS
 10
1.9879850814
 20
4.3272012624
 11
1.7970662504
 21
4.1362824315
  0
LINE
  5
232
100
AcDbEntity
  8
0
100
AcDbLine
 62
7
  6
CONTINUOUS
 10
1.5762085184
 20
3.8904496879
 11
1.5698975904
 21
3.8841387599
  0
LINE
  5
233
100
AcDbEntity
  8
0
100
AcDbLine
 62
7
  6
CONTINUOUS
 10
1.5320178801
 20
3.8462590496
 11
1.519388953
 21
3.8336301225
  0
LINE
  5
234
100
AcDbEntity
  8
0
100
AcDbLine
 62
7
  6
CONTINUOUS
 10
1.4815092427
 20
3.7957504122
 11
1.4688803156
 21
3.7831214851
  0
LINE
  5
235
100
AcDbEntity
  8
0
100
AcDbLine
 62
7
  6
CONTINUOUS
 10
1.4310006054
 20
3.7452417749
 11
1.4286688211
 21
3.7429099906
  0
LINE
  5
236
100
AcDbEntity
  8
0
100
AcDbLine
 62
7
  6
CONTINUOUS
 10
1.5859948763
 20
3.8806633301
 11
1.6072080797
 21
3.9018765335
  0
LINE
  5
237
100
AcDbEntity
  8
0
100
AcDbLine
 62
7
  6
CONTINUOUS
 10
2.5183151673
 20
3.7968711765
 11
1.9879850814
 21
4.3272012624
  0
LINE
  5
238
100
AcDbEntity
  8
0
100
AcDbLine
 62
7
  6
CONTINUOUS
 10
2.0717772349
 20
3.3948809714
 11
2.0929904384
 21
3.4160941748
  0
LINE
  5
239
100
AcDbEntity
  8
0
100
AcDbLine
 62
7
  6
CONTINUOUS
 10
2.074197965
 20
3.3924602413
 11
2.0733138259
 21
3.3915761023
  0
LINE
  5
23A
100
AcDbEntity
  8
0
100
AcDbLine
 62
7
  6
CONTINUOUS
 10
1.9489810713
 20
3.2525120921
 11
1.9616099984
 21
3.2651410192
  0
LINE
  5
23B
100
AcDbEntity
  8
0
100
AcDbLine
 62
7
  6
CONTINUOUS
 10
1.9994897087
 20
3.3030207294
 11
2.0121186358
 21
3.3156496565
  0
LINE
  5
23C
100
AcDbEntity
  8
0
100
AcDbLine
 62
7
  6
CONTINUOUS
 10
2.0499983461
 20
3.3535293668
 11
2.0626272732
 21
3.3661582939
  0
LINE
  5
23D
100
AcDbEntity
  8
0
100
AcDbLine
 62
7
  6
CONTINUOUS
 10
2.5183151673
 20
3.7968711765
 11
2.3273963363
 21
3.6059523456
  0
LINE
  5
23E
100
AcDbEntity
  8
0
100
AcDbLine
 62
7
  6
CONTINUOUS
 10
2.1089003409
 20
3.3577578654
 11
2.1057469003
 21
3.3546044247
  0
LINE
  5
23F
100
AcDbEntity
  8
0
100
AcDbLine
 62
7
  6
CONTINUOUS
 10
2.0110435779
 20
3.2599011024
 11
2.0047296255
 21
3.2535871499
  0
LINE
  5
240
100
AcDbEntity
  8
0
100
AcDbLine
 62
7
  6
CONTINUOUS
 10
2.0552382629
 20
3.3040957873
 11
2.0615522153
 21
3.3104097397
  0
LINE
  5
241
100
AcDbEntity
  8
0
100
AcDbLine
 62
7
  6
CONTINUOUS
 10
1.9919755605
 20
3.2567440548
 11
2.0039847128
 21
3.2535332867
  0
LINE
  5
242
100
AcDbEntity
  8
0
100
AcDbLine
 62
7
  6
CONTINUOUS
 10
1.9607847467
 20
3.2650812482
 11
1.9919755605
 21
3.2567440548
  0
LINE
  5
243
100
AcDbEntity
  8
0
100
AcDbLine
 62
7
  6
CONTINUOUS
 10
2.0424841979
 20
3.3072526922
 11
2.0544933502
 21
3.3040419241
  0
LINE
  5
244
100
AcDbEntity
  8
0
100
AcDbLine
 62
7
  6
CONTINUOUS
 10
2.0112933841
 20
3.3155898855
 11
2.0424841979
 21
3.3072526922
  0
LINE
  5
245
100
AcDbEntity
  8
0
100
AcDbLine
 62
7
  6
CONTINUOUS
 10
2.0929928353
 20
3.3577613296
 11
2.1050019875
 21
3.3545505615
  0
LINE
  5
246
100
AcDbEntity
  8
0
100
AcDbLine
 62
7
  6
CONTINUOUS
 10
2.0618020214
 20
3.3660985229
 11
2.0929928353
 21
3.3577613296
  0
LINE
  5
247
100
AcDbEntity
  8
ALL_FEATURES
100
AcDbLine
 62
7
  6
CONTINUOUS
 10
2.1677037652
 20
3.3873427888
 11
2.1712392991
 21
3.3908783227
  0
LINE
  5
248
100
AcDbEntity
  8
0
100
AcDbLine
 62
7
  6
CONTINUOUS
 10
2.2531501243
 20
3.3549294382
 11
2.3239288039
 21
3.4257081178
  0
LINE
  5
249
100
AcDbEntity
  8
0
100
AcDbLine
 62
7
  6
CONTINUOUS
 10
1.4603152235
 20
3.785690935
 11
1.4290168409
 21
3.7940577804
  0
LINE
  5
24A
100
AcDbEntity
  8
0
100
AcDbLine
 62
7
  6
CONTINUOUS
 10
1.4697055675
 20
3.7831812561
 11
1.4603152235
 21
3.785690935
  0
LINE
  5
24B
100
AcDbEntity
  8
0
100
AcDbLine
 62
7
  6
CONTINUOUS
 10
1.5202142049
 20
3.8336898935
 11
1.4879067244
 21
3.8423256223
  0
LINE
  5
24C
100
AcDbEntity
  8
0
100
AcDbLine
 62
7
  6
CONTINUOUS
 10
1.5707228423
 20
3.8841985308
 11
1.5384153618
 21
3.8928342597
  0
LINE
  5
24D
100
AcDbEntity
  8
0
100
AcDbLine
 62
7
  6
CONTINUOUS
 10
1.4286693461
 20
3.7938959819
 11
1.4290168409
 21
3.7940577804
  0
LINE
  5
24E
100
AcDbEntity
  8
0
100
AcDbLine
 62
7
  6
CONTINUOUS
 10
2.0047296255
 20
3.2535871499
 11
2.0039847128
 21
3.2535332867
  0
LINE
  5
24F
100
AcDbEntity
  8
0
100
AcDbLine
 62
7
  6
CONTINUOUS
 10
1.9529887822
 20
3.2375551115
 11
1.9179815094
 21
3.2375547511
  0
LINE
  5
250
100
AcDbEntity
  8
0
100
AcDbLine
 62
7
  6
CONTINUOUS
 10
2.0544933502
 20
3.3040419241
 11
2.0552382629
 21
3.3040957873
  0
LINE
  5
251
100
AcDbEntity
  8
0
100
AcDbLine
 62
7
  6
CONTINUOUS
 10
2.1057469003
 20
3.3546044247
 11
2.1050019875
 21
3.3545505615
  0
LINE
  5
252
100
AcDbEntity
  8
0
100
AcDbLine
 62
7
  6
CONTINUOUS
 10
7.5734802102
 20
3.6617061335
 11
2.7834802102
 21
3.8817061335
  0
LINE
  5
253
100
AcDbEntity
  8
0
100
AcDbLine
 62
7
  6
CONTINUOUS
 10
1.4770142381
 20
3.8452378551
 11
1.4762693259
 21
3.8451839918
  0
LINE
  5
254
100
AcDbEntity
  8
0
100
AcDbLine
 62
7
  6
CONTINUOUS
 10
1.5275228755
 20
3.8957464924
 11
1.5267779633
 21
3.8956926291
  0
LINE
  5
255
100
AcDbEntity
  8
0
100
AcDbLine
 62
7
  6
CONTINUOUS
 10
7.5734802102
 20
4.9017061335
 11
2.7834802102
 21
4.6817061335
  0
LINE
  5
256
100
AcDbEntity
  8
0
100
AcDbLine
 62
7
  6
CONTINUOUS
 10
7.5734802102
 20
4.9017061335
 11
7.5734802102
 21
3.6617061335
  0
LINE
  5
257
100
AcDbEntity
  8
0
100
AcDbLine
 62
7
  6
CONTINUOUS
 10
8.1659812363
 20
5.1309330916
 11
8.1659812363
 21
3.4324791755
  0
LINE
  5
258
100
AcDbEntity
  8
0
100
AcDbLine
 62
7
  6
CONTINUOUS
 10
9.1634802102
 20
5.5317061335
 11
9.1634802102
 21
3.0317061335
  0
ARC
  5
259
100
AcDbEntity
  8
0
100
AcDbCircle
 62
7
  6
CONTINUOUS
 10
3.5154167581
 20
5.0154426345
 40
2.1717745387
100
AcDbArc
 50
228.004714047
 51
228.3472032334
  0
ARC
  5
25A
100
AcDbEntity
  8
0
100
AcDbCircle
 62
7
  6
CONTINUOUS
 10
3.4976922562
 20
4.9962465595
 40
2.1545656376
100
AcDbArc
 50
228.0621749615
 51
228.3223116949
  0
ARC
  5
25B
100
AcDbEntity
  8
0
100
AcDbCircle
 62
7
  6
CONTINUOUS
 10
9.2895329902
 20
3.7762259438
 40
1.76
100
AcDbArc
 50
94.1070915384
 51
129.6712509082
  0
ARC
  5
25C
100
AcDbEntity
  8
0
100
AcDbCircle
 62
7
  6
CONTINUOUS
 10
9.2895329902
 20
4.7871863233
 40
1.76
100
AcDbArc
 50
230.3287490918
 51
265.8929084616
  0
ARC
  5
25D
100
AcDbEntity
  8
0
100
AcDbCircle
 62
7
  6
CONTINUOUS
 10
2.9162915091
 20
4.3404567791
 40
1.2781595035
100
AcDbArc
 50
228.3890835902
 51
229.036211182
  0
ARC
  5
25E
100
AcDbEntity
  8
0
100
AcDbCircle
 62
7
  6
CONTINUOUS
 10
7.527599558
 20
5.9006530619
 40
1.0
100
AcDbArc
 50
272.629690884
 51
309.6712509082
  0
ARC
  5
25F
100
AcDbEntity
  8
0
100
AcDbCircle
 62
7
  6
CONTINUOUS
 10
7.527599558
 20
2.6627592051
 40
1.0
100
AcDbArc
 50
50.3287490918
 51
87.370309116
  0
ARC
  5
260
100
AcDbEntity
  8
0
100
AcDbCircle
 62
7
  6
CONTINUOUS
 10
0.8996146536
 20
3.136151596
 40
0.8445406474
100
AcDbArc
 50
48.8197988486
 51
49.6158072512
  0
ARC
  5
261
100
AcDbEntity
  8
0
100
AcDbCircle
 62
7
  6
CONTINUOUS
 10
1.7263565184
 20
4.2069921635
 40
0.0999999855
100
AcDbArc
 50
227.2036381907
 51
315.0
  0
ARC
  5
262
100
AcDbEntity
  8
0
100
AcDbCircle
 62
7
  6
CONTINUOUS
 10
2.3981060684
 20
3.5352426135
 40
0.0999999855
100
AcDbArc
 50
135.0
 51
222.7963618093
  0
ARC
  5
263
100
AcDbEntity
  8
ALL_FEATURES
100
AcDbCircle
 62
7
  6
CONTINUOUS
 10
2.1426646897
 20
3.4159173981
 40
0.035
100
AcDbArc
 50
319.0960437582
 51
45.0
  0
ARC
  5
264
100
AcDbEntity
  8
ALL_FEATURES
100
AcDbCircle
 62
7
  6
CONTINUOUS
 10
1.607031303
 20
3.9515507849
 40
0.035
100
AcDbArc
 50
45.0
 51
130.9039562418
  0
ARC
  5
265
100
AcDbEntity
  8
ALL_FEATURES
100
AcDbCircle
 62
7
  6
CONTINUOUS
 10
2.1426646897
 20
3.4159173981
 40
0.035
100
AcDbArc
 50
225.0
 51
310.9039562418
  0
ARC
  5
266
100
AcDbEntity
  8
ALL_FEATURES
100
AcDbCircle
 62
7
  6
CONTINUOUS
 10
1.607031303
 20
3.9515507849
 40
0.035
100
AcDbArc
 50
139.0960437582
 51
225.0
  0
ARC
  5
267
100
AcDbEntity
  8
0
100
AcDbCircle
 62
7
  6
CONTINUOUS
 10
1.6380352535
 20
4.1116016614
 40
0.03
100
AcDbArc
 50
47.2037180755
 51
134.9999905239
  0
ARC
  5
268
100
AcDbEntity
  8
0
100
AcDbCircle
 62
7
  6
CONTINUOUS
 10
2.3027155663
 20
3.4469213487
 40
0.03
100
AcDbArc
 50
315.0000094761
 51
42.7962819245
  0
SPLINE
  5
269
100
AcDbEntity
  8
0
100
AcDbSpline
 62
7
  6
CONTINUOUS
 70
0
 71
3
 72
17
 73
13
 74
0
 42
0.0000001
 43
0.0000001
 44
0.0000000001
 40
0.0
 40
0.0
 40
0.0
 40
0.0
 40
0.1249681512
 40
0.1875006939
 40
0.2500226738
 40
0.3750080582
 40
0.4999984698
 40
0.6249891754
 40
0.7499768966
 40
0.8125000974
 40
0.8750308334
 40
1.0
 40
1.0
 40
1.0
 40
1.0
 10
2.7834802102
 20
4.6817061335
 30
0.0
 10
2.746410124
 20
4.6800035409
 30
0.0
 10
2.6908660682
 20
4.6748003503
 30
0.0
 10
2.6175986725
 20
4.6626785688
 30
0.0
 10
2.5449731104
 20
4.6471178741
 30
0.0
 10
2.4556863204
 20
4.6213072194
 30
0.0
 10
2.3519205316
 20
4.5804945492
 30
0.0
 10
2.2523670146
 20
4.5302767882
 30
0.0
 10
2.1735853881
 20
4.4809737272
 30
0.0
 10
2.1134640355
 20
4.4373637052
 30
0.0
 10
2.0553935377
 20
4.3910741867
 30
0.0
 10
2.0142254367
 20
4.3534416177
 30
0.0
 10
1.9879850814
 20
4.3272012624
 30
0.0
  0
SPLINE
  5
26A
100
AcDbEntity
  8
0
100
AcDbSpline
 62
7
  6
CONTINUOUS
 70
0
 71
3
 72
17
 73
13
 74
0
 42
0.0000001
 43
0.0000001
 44
0.0000000001
 40
0.0
 40
0.0
 40
0.0
 40
0.0
 40
0.1249187424
 40
0.2498883529
 40
0.3123987773
 40
0.3749307906
 40
0.4999254605
 40
0.5624313617
 40
0.6249568874
 40
0.7499660602
 40
0.8750692422
 40
1.0
 40
1.0
 40
1.0
 40
1.0
 10
2.7834802102
 20
3.8817061335
 30
0.0
 10
2.7715565186
 20
3.882253777
 30
0.0
 10
2.74766602
 20
3.8826789252
 30
0.0
 10
2.7178238677
 20
3.8811466706
 30
0.0
 10
2.6940805539
 20
3.8784443184
 30
0.0
 10
2.6704803708
 20
3.8746879164
 30
0.0
 10
2.6471635016
 20
3.8692693879
 30
0.0
 10
2.6243822724
 20
3.8620395342
 30
0.0
 10
2.6020360545
 20
3.8535570237
 30
0.0
 10
2.5750572735
 20
3.840544327
 30
0.0
 10
2.5449224264
 20
3.8209760568
 30
0.0
 10
2.5267561905
 20
3.8053121997
 30
0.0
 10
2.5183151673
 20
3.7968711765
 30
0.0
  0
LINE
  5
26B
100
AcDbEntity
  8
0
100
AcDbLine
 62
7
  6
CONTINUOUS
 10
2.0110427274
 20
3.2599019608
 11
2.0111574046
 21
3.2602511032
  0
LINE
  5
26C
100
AcDbEntity
  8
0
100
AcDbLine
 62
7
  6
CONTINUOUS
 10
2.0111574046
 20
3.2602511032
 11
2.0110955456
 21
3.2606479137
  0
LINE
  5
26D
100
AcDbEntity
  8
0
100
AcDbLine
 62
7
  6
CONTINUOUS
 10
1.4286688222
 20
3.7539438897
 11
1.4290446323
 21
3.7515105653
  0
SPLINE
  5
26E
100
AcDbEntity
  8
0
100
AcDbSpline
 62
7
  6
CONTINUOUS
 70
0
 71
3
 72
13
 73
9
 74
0
 42
0.0000001
 43
0.0000001
 44
0.0000000001
 40
0.0
 40
0.0
 40
0.0
 40
0.0
 40
0.2658061372
 40
0.5333197575
 40
0.6618706304
 40
0.7839004972
 40
0.897276453
 40
1.0
 40
1.0
 40
1.0
 40
1.0
 10
1.6091289905
 20
3.5624498212
 30
0.0
 10
1.6318674593
 20
3.5411726241
 30
0.0
 10
1.6774354194
 20
3.4984227673
 30
0.0
 10
1.7339765688
 20
3.4453574002
 30
0.0
 10
1.7783000369
 20
3.4038881827
 30
0.0
 10
1.8094878049
 20
3.3748109185
 30
0.0
 10
1.8385327012
 20
3.3478726213
 30
0.0
 10
1.8571606408
 20
3.3307267824
 30
0.0
 10
1.8660393771
 20
3.3226025682
 30
0.0
  0
SPLINE
  5
26F
100
AcDbEntity
  8
0
100
AcDbSpline
 62
7
  6
CONTINUOUS
 70
0
 71
3
 72
27
 73
23
 74
0
 42
0.0000001
 43
0.0000001
 44
0.0000000001
 40
0.0
 40
0.0
 40
0.0
 40
0.0
 40
0.2232673316
 40
0.4215072245
 40
0.5928303932
 40
0.6678417373
 40
0.7354897408
 40
0.795635062
 40
0.8481448796
 40
0.8928907145
 40
0.9123146123
 40
0.9297584415
 40
0.945220986
 40
0.9587038372
 40
0.9702125751
 40
0.979760072
 40
0.9873739767
 40
0.9931163738
 40
0.995332568
 40
0.99715983
 40
0.9986725485
 40
1.0
 40
1.0
 40
1.0
 40
1.0
 10
1.8660393771
 20
3.3226025682
 30
0.0
 10
1.8720249196
 20
3.3171256818
 30
0.0
 10
1.8833456271
 20
3.3068082673
 30
0.0
 10
1.8993508233
 20
3.2923890399
 30
0.0
 10
1.9114381816
 20
3.2816703164
 30
0.0
 10
1.920044047
 20
3.2741790426
 30
0.0
 10
1.9256387419
 20
3.2693820626
 30
0.0
 10
1.9306526081
 20
3.265164215
 30
0.0
 10
1.9350746254
 20
3.2615362442
 30
0.0
 10
1.9383967398
 20
3.2589012002
 30
0.0
 10
1.9407548024
 20
3.2571024826
 30
0.0
 10
1.9422841438
 20
3.2559722131
 30
0.0
 10
1.9436586306
 20
3.2549961129
 30
0.0
 10
1.9448778104
 20
3.254174385
 30
0.0
 10
1.9459411481
 20
3.2535072281
 30
0.0
 10
1.9468485359
 20
3.2529938298
 30
0.0
 10
1.9475995913
 20
3.252634384
 30
0.0
 10
1.9481358567
 20
3.252444703
 30
0.0
 10
1.9484872603
 20
3.2523841316
 30
0.0
 10
1.948690355
 20
3.2523819004
 30
0.0
 10
1.9488579182
 20
3.2524201286
 30
0.0
 10
1.9489469701
 20
3.2524779761
 30
0.0
 10
1.9489810692
 20
3.2525120947
 30
0.0
  0
SPLINE
  5
270
100
AcDbEntity
  8
0
100
AcDbSpline
 62
7
  6
CONTINUOUS
 70
0
 71
3
 72
55
 73
51
 74
0
 42
0.0000001
 43
0.0000001
 44
0.0000000001
 40
0.0
 40
0.0
 40
0.0
 40
0.0
 40
0.0009615892
 40
0.0013398738
 40
0.0017820272
 40
0.0028657913
 40
0.0042235683
 40
0.0058601971
 40
0.0077782251
 40
0.0099782204
 40
0.0124595025
 40
0.0152210094
 40
0.0215792931
 40
0.029041331
 40
0.0375939965
 40
0.0472215449
 40
0.0578998367
 40
0.0823027187
 40
0.1105868712
 40
0.1424900063
 40
0.1777133051
 40
0.2159380483
 40
0.2568015607
 40
0.2999309673
 40
0.3449230422
 40
0.3913595908
 40
0.4388120233
 40
0.4868370253
 40
0.582823885
 40
0.629893053
 40
0.6757619877
 40
0.7200051801
 40
0.7622083267
 40
0.801986077
 40
0.8389621551
 40
0.8727996062
 40
0.903183619
 40
0.9298296655
 40
0.9416768943
 40
0.9525017561
 40
0.9622766561
 40
0.9709817408
 40
0.9786006798
 40
0.9851177572
 40
0.9905183814
 40
0.994792434
 40
0.9965079643
 40
0.9979446095
 40
0.9991060618
 40
1.0
 40
1.0
 40
1.0
 40
1.0
 10
1.5320194403
 20
3.8462574968
 30
0.0
 10
1.5321820465
 20
3.8464193195
 30
0.0
 10
1.5325785811
 20
3.8463906486
 30
0.0
 10
1.5329770246
 20
3.8462824463
 30
0.0
 10
1.5334087685
 20
3.8461289583
 30
0.0
 10
1.5340312218
 20
3.8458383172
 30
0.0
 10
1.534883931
 20
3.8453672486
 30
0.0
 10
1.5358813994
 20
3.8447518941
 30
0.0
 10
1.5370251083
 20
3.8439919559
 30
0.0
 10
1.5383139542
 20
3.8430875674
 30
0.0
 10
1.5397473229
 20
3.8420394022
 30
0.0
 10
1.5419556658
 20
3.8403709637
 30
0.0
 10
1.5450651754
 20
3.837924935
 30
0.0
 10
1.5492033353
 20
3.8345535095
 30
0.0
 10
1.5538963003
 20
3.8306290632
 30
0.0
 10
1.5591342926
 20
3.8261608681
 30
0.0
 10
1.5671953891
 20
3.8191760505
 30
0.0
 10
1.578525656
 20
3.8091680294
 30
0.0
 10
1.5935404429
 20
3.7956838909
 30
0.0
 10
1.6103846927
 20
3.7803740749
 30
0.0
 10
1.6289091394
 20
3.7633873631
 30
0.0
 10
1.648947125
 20
3.7448885272
 30
0.0
 10
1.6703207081
 20
3.7250559561
 30
0.0
 10
1.69283699
 20
3.7040813836
 30
0.0
 10
1.7162943674
 20
3.6821665288
 30
0.0
 10
1.7404816894
 20
3.6595222836
 30
0.0
 10
1.7651810114
 20
3.6363662274
 30
0.0
 10
1.7984924468
 20
3.6051124467
 30
0.0
 10
1.8317330863
 20
3.5739168395
 30
0.0
 10
1.864622431
 20
3.5430985823
 30
0.0
 10
1.888522752
 20
3.5207411229
 30
0.0
 10
1.9116013794
 20
3.4992046276
 30
0.0
 10
1.9336515665
 20
3.4786960497
 30
0.0
 10
1.9544742352
 20
3.4594134289
 30
0.0
 10
1.9738839734
 20
3.4415425405
 30
0.0
 10
1.9917063684
 20
3.4252564399
 30
0.0
 10
2.0077826679
 20
3.4107132297
 30
0.0
 10
2.0200433607
 20
3.3997726821
 30
0.0
 10
2.0288815261
 20
3.3920058866
 30
0.0
 10
2.0347270587
 20
3.386931246
 30
0.0
 10
2.0400407183
 20
3.3823876921
 30
0.0
 10
2.0448111461
 20
3.3783860698
 30
0.0
 10
2.0490287414
 20
3.3749353654
 30
0.0
 10
2.0526842622
 20
3.372043275
 30
0.0
 10
2.0557691334
 20
3.3697178808
 30
0.0
 10
2.0579949925
 20
3.3681569141
 30
0.0
 10
2.0594930777
 20
3.3672105261
 30
0.0
 10
2.0603864206
 20
3.366698459
 30
0.0
 10
2.0611339044
 20
3.3663298149
 30
0.0
 10
2.0615942991
 20
3.3661553914
 30
0.0
 10
2.0618003088
 20
3.3661002296
 30
0.0
  0
SPLINE
  5
271
100
AcDbEntity
  8
0
100
AcDbSpline
 62
7
  6
CONTINUOUS
 70
0
 71
3
 72
22
 73
18
 74
0
 42
0.0000001
 43
0.0000001
 44
0.0000000001
 40
0.0
 40
0.0
 40
0.0
 40
0.0
 40
0.0057395056
 40
0.0131246373
 40
0.0222024562
 40
0.0329916095
 40
0.0597251401
 40
0.093330266
 40
0.1337713783
 40
0.1809980327
 40
0.2349370223
 40
0.2954747905
 40
0.3624901819
 40
0.4358605329
 40
0.6011450655
 40
0.789832717
 40
1.0
 40
1.0
 40
1.0
 40
1.0
 10
1.5707231142
 20
3.8841982471
 30
0.0
 10
1.5709163283
 20
3.8841467369
 30
0.0
 10
1.5713464598
 20
3.8839866007
 30
0.0
 10
1.5720428768
 20
3.8836490977
 30
0.0
 10
1.572870408
 20
3.8831825545
 30
0.0
 10
1.5742492462
 20
3.8823248545
 30
0.0
 10
1.5762884022
 20
3.8809146804
 30
0.0
 10
1.5791048357
 20
3.8788176137
 30
0.0
 10
1.5824321419
 20
3.8762130938
 30
0.0
 10
1.5862647003
 20
3.8731062124
 30
0.0
 10
1.5905953336
 20
3.8695026695
 30
0.0
 10
1.595415888
 20
3.8654105852
 30
0.0
 10
1.6007170613
 20
3.8608389437
 30
0.0
 10
1.6087375971
 20
3.8538330153
 30
0.0
 10
1.6198717443
 20
3.8439484787
 30
0.0
 10
1.6344760935
 20
3.8307950134
 30
0.0
 10
1.6447520275
 20
3.821440601
 30
0.0
 10
1.6501571291
 20
3.8165010772
 30
0.0
  0
SPLINE
  5
272
100
AcDbEntity
  8
0
100
AcDbSpline
 62
7
  6
CONTINUOUS
 70
0
 71
3
 72
12
 73
8
 74
0
 42
0.0000001
 43
0.0000001
 44
0.0000000001
 40
0.0
 40
0.0
 40
0.0
 40
0.0
 40
0.0647748408
 40
0.1462300317
 40
0.3607450844
 40
0.6452139113
 40
1.0
 40
1.0
 40
1.0
 40
1.0
 10
2.1050019797
 20
3.3545505694
 30
0.0
 10
2.1048486705
 20
3.3545916516
 30
0.0
 10
2.1045106433
 20
3.3547138236
 30
0.0
 10
2.1037096391
 20
3.3550888093
 30
0.0
 10
2.1024819151
 20
3.355811648
 30
0.0
 10
2.1007433026
 20
3.3569753525
 30
0.0
 10
2.0994754287
 20
3.3578959148
 30
0.0
 10
2.0987777879
 20
3.3584146058
 30
0.0
  0
LINE
  5
273
100
AcDbEntity
  8
0
100
AcDbLine
 62
7
  6
CONTINUOUS
 10
2.0987777879
 20
3.3584146058
 11
2.0934223045
 21
3.3625862807
  0
LINE
  5
274
100
AcDbEntity
  8
0
100
AcDbLine
 62
7
  6
CONTINUOUS
 10
2.0934223045
 20
3.3625862807
 11
2.0783532499
 21
3.3752877834
  0
LINE
  5
275
100
AcDbEntity
  8
0
100
AcDbLine
 62
7
  6
CONTINUOUS
 10
2.0675058191
 20
3.3848132426
 11
2.0661462841
 21
3.386020311
  0
LINE
  5
276
100
AcDbEntity
  8
0
100
AcDbLine
 62
7
  6
CONTINUOUS
 10
2.0661462841
 20
3.386020311
 11
2.0650363422
 21
3.3870075721
  0
SPLINE
  5
277
100
AcDbEntity
  8
0
100
AcDbSpline
 62
7
  6
CONTINUOUS
 70
0
 71
3
 72
24
 73
20
 74
0
 42
0.0000001
 43
0.0000001
 44
0.0000000001
 40
0.0
 40
0.0
 40
0.0
 40
0.0
 40
0.0470055908
 40
0.1025718141
 40
0.1655662671
 40
0.2347154301
 40
0.3086176392
 40
0.3857697524
 40
0.5435326844
 40
0.6209406019
 40
0.6952607815
 40
0.7649835102
 40
0.8286987812
 40
0.8851090293
 40
0.9330747011
 40
0.9535821002
 40
0.9716315748
 40
0.9871270259
 40
1.0
 40
1.0
 40
1.0
 40
1.0
 10
2.0577447983
 20
3.3935287412
 30
0.0
 10
2.0494218311
 20
3.4010042185
 30
0.0
 10
2.0313626776
 20
3.4174307196
 30
0.0
 10
2.0023980195
 20
3.4441472369
 30
0.0
 10
1.9696996299
 20
3.4745881283
 30
0.0
 10
1.9339108288
 20
3.5081134214
 30
0.0
 10
1.8957365643
 20
3.5440206847
 30
0.0
 10
1.8422638548
 20
3.5944451075
 30
0.0
 10
1.7882313236
 20
3.645491957
 30
0.0
 10
1.7346467344
 20
3.6960314684
 30
0.0
 10
1.6962623258
 20
3.7321486019
 30
0.0
 10
1.6601848864
 20
3.7659618807
 30
0.0
 10
1.6271262337
 20
3.7967626827
 30
0.0
 10
1.5977353554
 20
3.8239034197
 30
0.0
 10
1.5757665736
 20
3.8439233644
 30
0.0
 10
1.560427658
 20
3.8576624377
 30
0.0
 10
1.5507822925
 20
3.866174972
 30
0.0
 10
1.542426452
 20
3.8734018968
 30
0.0
 10
1.5372577678
 20
3.8777464968
 30
0.0
 10
1.534888702
 20
3.8796891918
 30
0.0
  0
SPLINE
  5
278
100
AcDbEntity
  8
0
100
AcDbSpline
 62
7
  6
CONTINUOUS
 70
0
 71
3
 72
13
 73
9
 74
0
 42
0.0000001
 43
0.0000001
 44
0.0000000001
 40
0.0
 40
0.0
 40
0.0
 40
0.0
 40
0.3580955261
 40
0.644235509
 40
0.7601681959
 40
0.8580296969
 40
0.937904255
 40
1.0
 40
1.0
 40
1.0
 40
1.0
 10
1.534888702
 20
3.8796891918
 30
0.0
 10
1.5333936438
 20
3.8809151779
 30
0.0
 10
1.5306866414
 20
3.8830997758
 30
0.0
 10
1.5274282862
 20
3.8855971752
 30
0.0
 10
1.5252305044
 20
3.8871647035
 30
0.0
 10
1.5239120133
 20
3.8880462254
 30
0.0
 10
1.5228051904
 20
3.8887188832
 30
0.0
 10
1.522124369
 20
3.8890741103
 30
0.0
 10
1.5218174247
 20
3.8892089886
 30
0.0
  0
SPLINE
  5
279
100
AcDbEntity
  8
0
100
AcDbSpline
 62
7
  6
CONTINUOUS
 70
0
 71
3
 72
12
 73
8
 74
0
 42
0.0000001
 43
0.0000001
 44
0.0000000001
 40
0.0
 40
0.0
 40
0.0
 40
0.0
 40
0.362012801
 40
0.6405097968
 40
0.7512605849
 40
0.8456286721
 40
1.0
 40
1.0
 40
1.0
 40
1.0
 10
1.5218174247
 20
3.8892089886
 30
0.0
 10
1.5216601881
 20
3.889278082
 30
0.0
 10
1.5213775004
 20
3.8893903615
 30
0.0
 10
1.5210306279
 20
3.8894809745
 30
0.0
 10
1.5208007186
 20
3.8894971188
 30
0.0
 10
1.5206308539
 20
3.8894823902
 30
0.0
 10
1.5205157976
 20
3.8894304634
 30
0.0
 10
1.5204640109
 20
3.8893786767
 30
0.0
  0
SPLINE
  5
27A
100
AcDbEntity
  8
0
100
AcDbSpline
 62
7
  6
CONTINUOUS
 70
0
 71
3
 72
55
 73
51
 74
0
 42
0.0000001
 43
0.0000001
 44
0.0000000001
 40
0.0
 40
0.0
 40
0.0
 40
0.0
 40
0.0009618915
 40
0.001340295
 40
0.0017825609
 40
0.0028664878
 40
0.0042242765
 40
0.005860689
 40
0.0077782592
 40
0.0099779784
 40
0.0124592239
 40
0.0152208655
 40
0.0215796557
 40
0.0290420506
 40
0.0375943631
 40
0.0472213146
 40
0.0578997892
 40
0.0823034048
 40
0.1105867049
 40
0.1424904636
 40
0.1777134558
 40
0.2159381884
 40
0.256802076
 40
0.2999310138
 40
0.3449234311
 40
0.3913598058
 40
0.438812232
 40
0.4868373779
 40
0.5828240814
 40
0.6298934764
 40
0.6757620963
 40
0.7200055958
 40
0.7622086068
 40
0.8019861017
 40
0.838962736
 40
0.8727995102
 40
0.9031842494
 40
0.9298298235
 40
0.9416767
 40
0.9525017975
 40
0.9622773692
 40
0.970982312
 40
0.978600741
 40
0.9851174942
 40
0.9905185302
 40
0.9947931791
 40
0.9965086587
 40
0.9979451127
 40
0.9991063083
 40
1.0
 40
1.0
 40
1.0
 40
1.0
 10
1.4815105819
 20
3.7957490815
 30
0.0
 10
1.4816733104
 20
3.7959108835
 30
0.0
 10
1.4820699419
 20
3.7958819981
 30
0.0
 10
1.4824684868
 20
3.7957737073
 30
0.0
 10
1.4829003008
 20
3.7956201328
 30
0.0
 10
1.4835228017
 20
3.7953294381
 30
0.0
 10
1.484375503
 20
3.794858376
 30
0.0
 10
1.4853728577
 20
3.7942431395
 30
0.0
 10
1.4865164235
 20
3.7934833953
 30
0.0
 10
1.4878051342
 20
3.7925791334
 30
0.0
 10
1.4892384694
 20
3.7915309942
 30
0.0
 10
1.4914469137
 20
3.7898624506
 30
0.0
 10
1.4945565829
 20
3.7874162397
 30
0.0
 10
1.4986948184
 20
3.7840447149
 30
0.0
 10
1.5033876969
 20
3.780120386
 30
0.0
 10
1.5086255795
 20
3.7756523442
 30
0.0
 10
1.5166867129
 20
3.7686674528
 30
0.0
 10
1.5280169619
 20
3.7586593891
 30
0.0
 10
1.5430318911
 20
3.7451752293
 30
0.0
 10
1.5598760034
 20
3.7298654521
 30
0.0
 10
1.5784005267
 20
3.7128787166
 30
0.0
 10
1.5984385191
 20
3.694379868
 30
0.0
 10
1.6198120698
 20
3.6745472992
 30
0.0
 10
1.6423284145
 20
3.6535727077
 30
0.0
 10
1.6657857233
 20
3.6316578851
 30
0.0
 10
1.6899730819
 20
3.609013623
 30
0.0
 10
1.7146723962
 20
3.585857572
 30
0.0
 10
1.7479838226
 20
3.554603789
 30
0.0
 10
1.7812245092
 20
3.5234081581
 30
0.0
 10
1.8141137985
 20
3.4925899278
 30
0.0
 10
1.8380141703
 20
3.470232447
 30
0.0
 10
1.8610927611
 20
3.4486959631
 30
0.0
 10
1.8831429351
 20
3.4281874011
 30
0.0
 10
1.9039656483
 20
3.4089047711
 30
0.0
 10
1.923375288
 20
3.3910339086
 30
0.0
 10
1.9411978308
 20
3.3747477561
 30
0.0
 10
1.9572740147
 20
3.3602045692
 30
0.0
 10
1.9695347045
 20
3.3492640535
 30
0.0
 10
1.9783727848
 20
3.3414973742
 30
0.0
 10
1.9842184141
 20
3.3364226434
 30
0.0
 10
1.9895321736
 20
3.3318789253
 30
0.0
 10
1.9943026135
 20
3.3278773099
 30
0.0
 10
1.9985200531
 20
3.3244267831
 30
0.0
 10
2.0021755219
 20
3.3215347891
 30
0.0
 10
2.0052605077
 20
3.3192092794
 30
0.0
 10
2.0074864884
 20
3.317648086
 30
0.0
 10
2.0089846507
 20
3.3167016607
 30
0.0
 10
2.0098779078
 20
3.316189682
 30
0.0
 10
2.0106252701
 20
3.3158211646
 30
0.0
 10
2.0110855756
 20
3.3156468413
 30
0.0
 10
2.0112915374
 20
3.3155917281
 30
0.0
  0
SPLINE
  5
27B
100
AcDbEntity
  8
0
100
AcDbSpline
 62
7
  6
CONTINUOUS
 70
0
 71
3
 72
11
 73
7
 74
0
 42
0.0000001
 43
0.0000001
 44
0.0000000001
 40
0.0
 40
0.0
 40
0.0
 40
0.0
 40
0.3346845005
 40
0.4667755371
 40
0.6212460616
 40
1.0
 40
1.0
 40
1.0
 40
1.0
 10
1.4310001691
 20
3.7452422367
 30
0.0
 10
1.4311641589
 20
3.7454058942
 30
0.0
 10
1.4315658145
 20
3.7453745207
 30
0.0
 10
1.4319682418
 20
3.7452637388
 30
0.0
 10
1.432405572
 20
3.745106743
 30
0.0
 10
1.4327387397
 20
3.744949801
 30
0.0
 10
1.4329726904
 20
3.7448314382
 30
0.0
  0
LINE
  5
27C
100
AcDbEntity
  8
0
100
AcDbLine
 62
7
  6
CONTINUOUS
 10
1.4329726904
 20
3.7448314382
 11
1.4362448189
 21
3.7428043573
  0
LINE
  5
27D
100
AcDbEntity
  8
0
100
AcDbLine
 62
7
  6
CONTINUOUS
 10
1.4362448189
 20
3.7428043573
 11
1.4387792692
 21
3.7409793881
  0
LINE
  5
27E
100
AcDbEntity
  8
0
100
AcDbLine
 62
7
  6
CONTINUOUS
 10
1.4387792692
 20
3.7409793881
 11
1.4472410947
 21
3.7342981824
  0
SPLINE
  5
27F
100
AcDbEntity
  8
0
100
AcDbSpline
 62
7
  6
CONTINUOUS
 70
0
 71
3
 72
13
 73
9
 74
0
 42
0.0000001
 43
0.0000001
 44
0.0000000001
 40
0.0
 40
0.0
 40
0.0
 40
0.0
 40
0.0832264847
 40
0.1791393354
 40
0.2874154462
 40
0.4076636716
 40
0.6824887937
 40
1.0
 40
1.0
 40
1.0
 40
1.0
 10
1.4472410947
 20
3.7342981824
 30
0.0
 10
1.4491242117
 20
3.7327523502
 30
0.0
 10
1.4531486281
 20
3.7293898733
 30
0.0
 10
1.4595423298
 20
3.7239206544
 30
0.0
 10
1.4667052893
 20
3.7176840641
 30
0.0
 10
1.4777521058
 20
3.7079328893
 30
0.0
 10
1.4932756424
 20
3.6939984831
 30
0.0
 10
1.5060981736
 20
3.6823256981
 30
0.0
 10
1.5129568658
 20
3.6760527862
 30
0.0
  0
SPLINE
  5
280
100
AcDbEntity
  8
0
100
AcDbSpline
 62
7
  6
CONTINUOUS
 70
0
 71
3
 72
33
 73
29
 74
0
 42
0.0000001
 43
0.0000001
 44
0.0000000001
 40
0.0
 40
0.0
 40
0.0
 40
0.0
 40
0.0641252701
 40
0.1353735211
 40
0.2122894859
 40
0.2932943477
 40
0.3767348915
 40
0.4608992499
 40
0.5440675445
 40
0.6245336572
 40
0.7006539029
 40
0.7708699939
 40
0.8033088124
 40
0.8337421263
 40
0.8620203498
 40
0.8879949491
 40
0.9115294016
 40
0.9325125414
 40
0.9508369231
 40
0.966403118
 40
0.979144001
 40
0.9844376663
 40
0.9890049886
 40
0.992840908
 40
0.9959451073
 40
0.9983246204
 40
0.9992481781
 40
1.0
 40
1.0
 40
1.0
 40
1.0
 10
1.5129568658
 20
3.6760527862
 30
0.0
 10
1.5225477777
 20
3.6672810051
 30
0.0
 10
1.542734929
 20
3.6486974497
 30
0.0
 10
1.5742749161
 20
3.6194288171
 30
0.0
 10
1.6082376087
 20
3.5877415391
 30
0.0
 10
1.6439501166
 20
3.5543074073
 30
0.0
 10
1.6807025869
 20
3.5198345042
 30
0.0
 10
1.7177655508
 20
3.4850516734
 30
0.0
 10
1.754401668
 20
3.4506949981
 30
0.0
 10
1.7898835675
 20
3.4174910375
 30
0.0
 10
1.8235067392
 20
3.3861430263
 30
0.0
 10
1.8500803483
 20
3.3615088687
 30
0.0
 10
1.8699238783
 20
3.3432361268
 30
0.0
 10
1.8835482235
 20
3.3307581326
 30
0.0
 10
1.8962446082
 20
3.3192069421
 30
0.0
 10
1.9079504777
 20
3.3086450498
 30
0.0
 10
1.9186087147
 20
3.2991295248
 30
0.0
 10
1.9281674273
 20
3.2907110972
 30
0.0
 10
1.9365796434
 20
3.2834349905
 30
0.0
 10
1.9438052016
 20
3.2773417437
 30
0.0
 10
1.9490892171
 20
3.2730439908
 30
0.0
 10
1.9527088745
 20
3.2702356768
 30
0.0
 10
1.9549356699
 20
3.2685775189
 30
0.0
 10
1.9568436359
 20
3.267234991
 30
0.0
 10
1.9584307974
 20
3.2662102561
 30
0.0
 10
1.9595638454
 20
3.2655712431
 30
0.0
 10
1.9603141845
 20
3.2652347119
 30
0.0
 10
1.960635612
 20
3.2651225334
 30
0.0
 10
1.9607828237
 20
3.2650831693
 30
0.0
  0
SPLINE
  5
281
100
AcDbEntity
  8
0
100
AcDbSpline
 62
7
  6
CONTINUOUS
 70
0
 71
3
 72
28
 73
24
 74
0
 42
0.0000001
 43
0.0000001
 44
0.0000000001
 40
0.0
 40
0.0
 40
0.0
 40
0.0
 40
0.0186330144
 40
0.0399467536
 40
0.0638157416
 40
0.0900973759
 40
0.1493033268
 40
0.2162206027
 40
0.289310836
 40
0.3668902043
 40
0.4471793828
 40
0.5283326995
 40
0.608483727
 40
0.6857931437
 40
0.758480377
 40
0.8248784293
 40
0.8834650734
 40
0.9093967784
 40
0.9328898027
 40
0.9538094633
 40
0.9720292861
 40
0.9874546157
 40
1.0
 40
1.0
 40
1.0
 40
1.0
 10
1.4556850623
 20
3.7717887612
 30
0.0
 10
1.4591488382
 20
3.7687642399
 30
0.0
 10
1.4665377508
 20
3.7622377077
 30
0.0
 10
1.4782621308
 20
3.7517223247
 30
0.0
 10
1.4913237159
 20
3.7398712569
 30
0.0
 10
1.5112304442
 20
3.7216482778
 30
0.0
 10
1.5388383732
 20
3.6961048067
 30
0.0
 10
1.5747821705
 20
3.6625620488
 30
0.0
 10
1.6139365114
 20
3.6258139795
 30
0.0
 10
1.6554274074
 20
3.5867334765
 30
0.0
 10
1.6983268566
 20
3.5462462638
 30
0.0
 10
1.7416755369
 20
3.5053103939
 30
0.0
 10
1.7845037235
 20
3.4648944091
 30
0.0
 10
1.8258528486
 20
3.4259553348
 30
0.0
 10
1.8647989521
 20
3.389415311
 30
0.0
 10
1.9004732498
 20
3.3561413609
 30
0.0
 10
1.9278215722
 20
3.3308581772
 30
0.0
 10
1.9474940801
 20
3.3128709947
 30
0.0
 10
1.9603598353
 20
3.3012154311
 30
0.0
 10
1.9718765735
 20
3.2909058718
 30
0.0
 10
1.9819814258
 20
3.2820046847
 30
0.0
 10
1.9906187756
 20
3.2745652558
 30
0.0
 10
1.9959213554
 20
3.2701446835
 30
0.0
 10
1.9983287866
 20
3.2681979246
 30
0.0
  0
SPLINE
  5
282
100
AcDbEntity
  8
0
100
AcDbSpline
 62
7
  6
CONTINUOUS
 70
0
 71
3
 72
14
 73
10
 74
0
 42
0.0000001
 43
0.0000001
 44
0.0000000001
 40
0.0
 40
0.0
 40
0.0
 40
0.0
 40
0.3764278146
 40
0.533002697
 40
0.6684222503
 40
0.7826801619
 40
0.8758349355
 40
0.9480859756
 40
1.0
 40
1.0
 40
1.0
 40
1.0
 10
1.9983287866
 20
3.2681979246
 30
0.0
 10
1.9997629326
 20
3.2670382086
 30
0.0
 10
2.0018081898
 20
3.2654135772
 30
0.0
 10
2.0044240629
 20
3.2634427632
 30
0.0
 10
2.0060395984
 20
3.2622794756
 30
0.0
 10
2.0074310843
 20
3.2613382886
 30
0.0
 10
2.0085981328
 20
3.2606181271
 30
0.0
 10
2.0095389577
 20
3.2601198015
 30
0.0
 10
2.0101079028
 20
3.2598926962
 30
0.0
 10
2.010355123
 20
3.259832845
 30
0.0
  0
LINE
  5
283
100
AcDbEntity
  8
0
100
AcDbLine
 62
7
  6
CONTINUOUS
 10
2.010355123
 20
3.259832845
 11
2.0110427274
 21
3.2599019608
  0
LINE
  5
284
100
AcDbEntity
  8
0
100
AcDbLine
 62
7
  6
CONTINUOUS
 10
2.0733138259
 20
3.3915761023
 11
2.0720228019
 21
3.3927231473
  0
SPLINE
  5
285
100
AcDbEntity
  8
0
100
AcDbSpline
 62
7
  6
CONTINUOUS
 70
0
 71
3
 72
17
 73
13
 74
0
 42
0.0000001
 43
0.0000001
 44
0.0000000001
 40
0.0
 40
0.0
 40
0.0
 40
0.0
 40
0.0419667589
 40
0.0897623683
 40
0.1428405738
 40
0.2006352897
 40
0.3277820682
 40
0.4655658009
 40
0.6078929137
 40
0.7484832666
 40
0.8811413894
 40
1.0
 40
1.0
 40
1.0
 40
1.0
 10
2.0623487372
 20
3.4013800664
 30
0.0
 10
2.0562697788
 20
3.4068498714
 30
0.0
 10
2.0433194555
 20
3.4186068962
 30
0.0
 10
2.022819151
 20
3.4374338344
 30
0.0
 10
2.000134623
 20
3.458441678
 30
0.0
 10
1.9662029194
 20
3.4900605599
 30
0.0
 10
1.920344375
 20
3.5330909259
 30
0.0
 10
1.8626003433
 20
3.5875264828
 30
0.0
 10
1.8030013129
 20
3.6438131294
 30
0.0
 10
1.7441096787
 20
3.6993941995
 30
0.0
 10
1.6884569748
 20
3.7517443585
 30
0.0
 10
1.6526469368
 20
3.7852055371
 30
0.0
 10
1.6356721952
 20
3.8009621091
 30
0.0
  0
SPLINE
  5
286
100
AcDbEntity
  8
0
100
AcDbSpline
 62
7
  6
CONTINUOUS
 70
0
 71
3
 72
23
 73
19
 74
0
 42
0.0000001
 43
0.0000001
 44
0.0000000001
 40
0.0
 40
0.0
 40
0.0
 40
0.0
 40
0.2107956088
 40
0.4004460017
 40
0.5668880719
 40
0.6408607054
 40
0.7084004211
 40
0.7693095019
 40
0.8234297615
 40
0.8706414372
 40
0.9108292943
 40
0.9438841211
 40
0.9577113453
 40
0.9697360295
 40
0.9799613978
 40
0.9883960854
 40
0.9950599453
 40
1.0
 40
1.0
 40
1.0
 40
1.0
 10
1.6350720146
 20
3.8015191723
 30
0.0
 10
1.6276996153
 20
3.8083613642
 30
0.0
 10
1.6136747927
 20
3.821338367
 30
0.0
 10
1.5937430891
 20
3.8396249736
 30
0.0
 10
1.5785415332
 20
3.853409877
 30
0.0
 10
1.5675918441
 20
3.8632091414
 30
0.0
 10
1.5603608863
 20
3.8696125547
 30
0.0
 10
1.553801632
 20
3.8753454159
 30
0.0
 10
1.5479305915
 20
3.8803914037
 30
0.0
 10
1.5427620597
 20
3.8847374178
 30
0.0
 10
1.5383087346
 20
3.8883712131
 30
0.0
 10
1.5350355012
 20
3.8909308286
 30
0.0
 10
1.5327764896
 20
3.8926035903
 30
0.0
 10
1.5313705982
 20
3.8935973688
 30
0.0
 10
1.5301504582
 20
3.8944069849
 30
0.0
 10
1.5291161877
 20
3.895033303
 30
0.0
 10
1.5282686727
 20
3.8954763265
 30
0.0
 10
1.5277521596
 20
3.8956836027
 30
0.0
 10
1.5275245337
 20
3.8957448328
 30
0.0
  0
SPLINE
  5
287
100
AcDbEntity
  8
0
100
AcDbSpline
 62
7
  6
CONTINUOUS
 70
0
 71
3
 72
55
 73
51
 74
0
 42
0.0000001
 43
0.0000001
 44
0.0000000001
 40
0.0
 40
0.0
 40
0.0
 40
0.0
 40
0.0008925632
 40
0.002053856
 40
0.0034918866
 40
0.0052096351
 40
0.009487067
 40
0.0148857067
 40
0.0213987077
 40
0.0290168913
 40
0.0377258585
 40
0.0475032627
 40
0.0583256325
 40
0.0701692694
 40
0.0968190511
 40
0.127201988
 40
0.1610373109
 40
0.198016981
 40
0.2377905078
 40
0.2799965857
 40
0.3242383191
 40
0.3701066109
 40
0.4171769361
 40
0.5131625162
 40
0.561188147
 40
0.6086388889
 40
0.6550764744
 40
0.7000684848
 40
0.7431957662
 40
0.784062722
 40
0.8222829613
 40
0.8575095428
 40
0.8894114301
 40
0.917693651
 40
0.9421011665
 40
0.9527758362
 40
0.9624003439
 40
0.9709551419
 40
0.9784210666
 40
0.9847796729
 40
0.9875392726
 40
0.9900182142
 40
0.9922163256
 40
0.9941337919
 40
0.9957714025
 40
0.9971310493
 40
0.9982168526
 40
0.9986598667
 40
0.9990387954
 40
1.0
 40
1.0
 40
1.0
 40
1.0
 10
1.5202149172
 20
3.8336891728
 30
0.0
 10
1.5204206814
 20
3.8336343593
 30
0.0
 10
1.5208808583
 20
3.8334603184
 30
0.0
 10
1.5216282999
 20
3.8330916541
 30
0.0
 10
1.5225221941
 20
3.8325788785
 30
0.0
 10
1.5240213989
 20
3.8316311343
 30
0.0
 10
1.5262477583
 20
3.8300693774
 30
0.0
 10
1.5293323686
 20
3.8277446774
 30
0.0
 10
1.532986868
 20
3.8248538791
 30
0.0
 10
1.5372043211
 20
3.8214033174
 30
0.0
 10
1.5419755739
 20
3.8174005444
 30
0.0
 10
1.5472898677
 20
3.8128562563
 30
0.0
 10
1.5531349046
 20
3.8077822954
 30
0.0
 10
1.5619728771
 20
3.8000160488
 30
0.0
 10
1.5742331863
 20
3.7890752938
 30
0.0
 10
1.5903097699
 20
3.7745320674
 30
0.0
 10
1.6081323811
 20
3.7582459051
 30
0.0
 10
1.6275415446
 20
3.7403751914
 30
0.0
 10
1.6483649081
 20
3.7210923275
 30
0.0
 10
1.6704145582
 20
3.7005839387
 30
0.0
 10
1.6934935077
 20
3.6790472924
 30
0.0
 10
1.7173937707
 20
3.6566898875
 30
0.0
 10
1.7502830806
 20
3.6258715663
 30
0.0
 10
1.7835240128
 20
3.5946757976
 30
0.0
 10
1.81683514
 20
3.5634222072
 30
0.0
 10
1.841534622
 20
3.5402661098
 30
0.0
 10
1.8657218901
 20
3.5176218417
 30
0.0
 10
1.8891791484
 20
3.4957070526
 30
0.0
 10
1.9116958557
 20
3.4747322971
 30
0.0
 10
1.9330687941
 20
3.4548999572
 30
0.0
 10
1.9531074723
 20
3.4364009108
 30
0.0
 10
1.9716314086
 20
3.4194143492
 30
0.0
 10
1.9884757649
 20
3.4041044604
 30
0.0
 10
2.0034910725
 20
3.3906202515
 30
0.0
 10
2.0148208795
 20
3.3806119378
 30
0.0
 10
2.0228818468
 20
3.3736276359
 30
0.0
 10
2.0281192081
 20
3.3691603204
 30
0.0
 10
2.0328126438
 20
3.3652352887
 30
0.0
 10
2.0369517679
 20
3.3618626154
 30
0.0
 10
2.0400616422
 20
3.3594161273
 30
0.0
 10
2.0422694138
 20
3.3577484638
 30
0.0
 10
2.0437017678
 20
3.3567013751
 30
0.0
 10
2.0449898369
 20
3.3557978563
 30
0.0
 10
2.0461333274
 20
3.355038211
 30
0.0
 10
2.0471311791
 20
3.3544224418
 30
0.0
 10
2.0479847456
 20
3.3539504862
 30
0.0
 10
2.0486079888
 20
3.3536589293
 30
0.0
 10
2.0490404433
 20
3.3535047533
 30
0.0
 10
2.0494388433
 20
3.3533960462
 30
0.0
 10
2.0498363383
 20
3.3533670794
 30
0.0
 10
2.0499981048
 20
3.3535296136
 30
0.0
  0
SPLINE
  5
288
100
AcDbEntity
  8
0
100
AcDbSpline
 62
7
  6
CONTINUOUS
 70
0
 71
3
 72
16
 73
12
 74
0
 42
0.0000001
 43
0.0000001
 44
0.0000000001
 40
0.0
 40
0.0
 40
0.0
 40
0.0
 40
0.045829228
 40
0.0739420409
 40
0.1069982393
 40
0.1902756233
 40
0.2986655044
 40
0.4333712639
 40
0.5949790518
 40
0.7837986002
 40
1.0
 40
1.0
 40
1.0
 40
1.0
 10
2.0615522153
 20
3.3104097397
 30
0.0
 10
2.0614997777
 20
3.3103573022
 30
0.0
 10
2.0613827406
 20
3.3103051385
 30
0.0
 10
2.0612102397
 20
3.3102912224
 30
0.0
 10
2.0609761199
 20
3.3103090137
 30
0.0
 10
2.0606227258
 20
3.3104032841
 30
0.0
 10
2.0601322942
 20
3.3106004486
 30
0.0
 10
2.0595455884
 20
3.3108926388
 30
0.0
 10
2.0588624537
 20
3.3112798142
 30
0.0
 10
2.058082781
 20
3.311762635
 30
0.0
 10
2.0575358224
 20
3.3121238278
 30
0.0
 10
2.0572459589
 20
3.3123197092
 30
0.0
  0
SPLINE
  5
289
100
AcDbEntity
  8
0
100
AcDbSpline
 62
7
  6
CONTINUOUS
 70
0
 71
3
 72
11
 73
7
 74
0
 42
0.0000001
 43
0.0000001
 44
0.0000000001
 40
0.0
 40
0.0
 40
0.0
 40
0.0
 40
0.1890408522
 40
0.4188256653
 40
0.6892703938
 40
1.0
 40
1.0
 40
1.0
 40
1.0
 10
2.0572459589
 20
3.3123197092
 30
0.0
 10
2.0565492953
 20
3.3127904944
 30
0.0
 10
2.0550316116
 20
3.3138716281
 30
0.0
 10
2.0525863833
 20
3.3157212121
 30
0.0
 10
2.0497545215
 20
3.3179556023
 30
0.0
 10
2.0477493643
 20
3.319587094
 30
0.0
 10
2.0466820469
 20
3.3204651332
 30
0.0
  0
SPLINE
  5
28A
100
AcDbEntity
  8
0
100
AcDbSpline
 62
7
  6
CONTINUOUS
 70
0
 71
3
 72
40
 73
36
 74
0
 42
0.0000001
 43
0.0000001
 44
0.0000000001
 40
0.0
 40
0.0
 40
0.0
 40
0.0
 40
0.0150534839
 40
0.0336970215
 40
0.0557984584
 40
0.0811822086
 40
0.1096640445
 40
0.1410257713
 40
0.2114231861
 40
0.2902423522
 40
0.375088681
 40
0.4633801
 40
0.5524370536
 40
0.6395597579
 40
0.6815660332
 40
0.7221066807
 40
0.7608723669
 40
0.7975725126
 40
0.8319219231
 40
0.8636650384
 40
0.8925613029
 40
0.9183875741
 40
0.9409567111
 40
0.9509630159
 40
0.9600897541
 40
0.9683226202
 40
0.975648108
 40
0.9820530104
 40
0.9875246342
 40
0.9920528578
 40
0.9956357291
 40
0.9970738617
 40
0.998278082
 40
0.9992513622
 40
1.0
 40
1.0
 40
1.0
 40
1.0
 10
2.0466820469
 20
3.3204651332
 30
0.0
 10
2.043679698
 20
3.3229350452
 30
0.0
 10
2.0370385997
 20
3.3285604946
 30
0.0
 10
2.0261844487
 20
3.3380399342
 30
0.0
 10
2.0134370213
 20
3.349406048
 30
0.0
 10
1.998887612
 20
3.3625681136
 30
0.0
 10
1.982643973
 20
3.377421787
 30
0.0
 10
1.9579133141
 20
3.4002209278
 30
0.0
 10
1.9237749825
 20
3.4319945416
 30
0.0
 10
1.8796761469
 20
3.473340073
 30
0.0
 10
1.8323050335
 20
3.5179518356
 30
0.0
 10
1.7830618029
 20
3.5644321768
 30
0.0
 10
1.7334023651
 20
3.6113280477
 30
0.0
 10
1.6924101659
 20
3.649991603
 30
0.0
 10
1.660496922
 20
3.6800194537
 30
0.0
 10
1.6376557316
 20
3.7014642231
 30
0.0
 10
1.6157842489
 20
3.7219397144
 30
0.0
 10
1.59504458
 20
3.7412844961
 30
0.0
 10
1.5755885883
 20
3.7593464347
 30
0.0
 10
1.5575595365
 20
3.7759829931
 30
0.0
 10
1.5410894329
 20
3.7910629186
 30
0.0
 10
1.5262974703
 20
3.8044667913
 30
0.0
 10
1.5150512473
 20
3.8145178684
 30
0.0
 10
1.5069659647
 20
3.8216329431
 30
0.0
 10
1.5016317667
 20
3.8262695125
 30
0.0
 10
1.4967888814
 20
3.8304156993
 30
0.0
 10
1.4924452636
 20
3.8340638553
 30
0.0
 10
1.4886087951
 20
3.8372064747
 30
0.0
 10
1.485287293
 20
3.8398371244
 30
0.0
 10
1.4824865855
 20
3.8419497519
 30
0.0
 10
1.4804670184
 20
3.8433672271
 30
0.0
 10
1.4791080505
 20
3.8442268238
 30
0.0
 10
1.4782977994
 20
3.8446920557
 30
0.0
 10
1.4776200708
 20
3.8450270984
 30
0.0
 10
1.4772027377
 20
3.8451858023
 30
0.0
 10
1.4770160374
 20
3.8452360541
 30
0.0
  0
SPLINE
  5
28B
100
AcDbEntity
  8
0
100
AcDbSpline
 62
7
  6
CONTINUOUS
 70
0
 71
3
 72
34
 73
30
 74
0
 42
0.0000001
 43
0.0000001
 44
0.0000000001
 40
0.0
 40
0.0
 40
0.0
 40
0.0
 40
0.1131958467
 40
0.2217122407
 40
0.3248998308
 40
0.4221496132
 40
0.5129805413
 40
0.5969390112
 40
0.6735882895
 40
0.7425292792
 40
0.8033753371
 40
0.8306548195
 40
0.8557951189
 40
0.8787675733
 40
0.8995461367
 40
0.9181087101
 40
0.9344416727
 40
0.9485519873
 40
0.9604669908
 40
0.9702468078
 40
0.978019581
 40
0.981238713
 40
0.9840856361
 40
0.9866513939
 40
0.9890601616
 40
0.9914609417
 40
0.9940044542
 40
0.9968188616
 40
1.0
 40
1.0
 40
1.0
 40
1.0
 10
1.5936068662
 20
3.6326465679
 30
0.0
 10
1.5876066345
 20
3.6377902955
 30
0.0
 10
1.5758384743
 20
3.647846774
 30
0.0
 10
1.5585369148
 20
3.6625174765
 30
0.0
 10
1.5420199159
 20
3.6763916508
 30
0.0
 10
1.5263743857
 20
3.6893830665
 30
0.0
 10
1.5116779653
 20
3.7014152923
 30
0.0
 10
1.4979994546
 20
3.7124194493
 30
0.0
 10
1.4854039509
 20
3.7223303593
 30
0.0
 10
1.4739547248
 20
3.7310864366
 30
0.0
 10
1.4651244173
 20
3.7375906652
 30
0.0
 10
1.4586672563
 20
3.7421564959
 30
0.0
 10
1.4543240258
 20
3.7451307953
 30
0.0
 10
1.4503068888
 20
3.7477767176
 30
0.0
 10
1.4466211441
 20
3.7500891665
 30
0.0
 10
1.4432720046
 20
3.7520633898
 30
0.0
 10
1.4402635885
 20
3.753695284
 30
0.0
 10
1.4375995224
 20
3.7549823267
 30
0.0
 10
1.4352807175
 20
3.7559240332
 30
0.0
 10
1.4333084128
 20
3.7565194241
 30
0.0
 10
1.4318649757
 20
3.756742343
 30
0.0
 10
1.4308963137
 20
3.7567091224
 30
0.0
 10
1.4303016377
 20
3.7565934344
 30
0.0
 10
1.4297929502
 20
3.7563827922
 30
0.0
 10
1.4293739401
 20
3.7560738649
 30
0.0
 10
1.4290504568
 20
3.7556678837
 30
0.0
 10
1.4288245544
 20
3.7551703882
 30
0.0
 10
1.4286934687
 20
3.7545854964
 30
0.0
 10
1.4286688636
 20
3.7541659933
 30
0.0
 10
1.4286688222
 20
3.7539438897
 30
0.0
  0
SPLINE
  5
28C
100
AcDbEntity
  8
0
100
AcDbSpline
 62
7
  6
CONTINUOUS
 70
0
 71
3
 72
18
 73
14
 74
0
 42
0.0000001
 43
0.0000001
 44
0.0000000001
 40
0.0
 40
0.0
 40
0.0
 40
0.0
 40
0.0151112042
 40
0.0363476799
 40
0.0638878314
 40
0.0978092803
 40
0.1381515728
 40
0.1849276558
 40
0.2976904623
 40
0.4358640243
 40
0.5991706636
 40
0.7873166631
 40
1.0
 40
1.0
 40
1.0
 40
1.0
 10
1.429016804
 20
3.7940578095
 30
0.0
 10
1.4291290107
 20
3.7940278469
 30
0.0
 10
1.4293878363
 20
3.7939178673
 30
0.0
 10
1.4298175407
 20
3.7936805064
 30
0.0
 10
1.4303538161
 20
3.7933384622
 30
0.0
 10
1.43099627
 20
3.7928917974
 30
0.0
 10
1.4317450584
 20
3.7923396025
 30
0.0
 10
1.4329625468
 20
3.7914026741
 30
0.0
 10
1.4347421083
 20
3.7899639896
 30
0.0
 10
1.4371803287
 20
3.7879166635
 30
0.0
 10
1.4400300596
 20
3.7854589544
 30
0.0
 10
1.4432860041
 20
3.7825958124
 30
0.0
 10
1.4455843081
 20
3.7805444506
 30
0.0
 10
1.4468007959
 20
3.7794526382
 30
0.0
  0
SPLINE
  5
28D
100
AcDbEntity
  8
0
100
AcDbSpline
 62
7
  6
CONTINUOUS
 70
0
 71
3
 72
16
 73
12
 74
0
 42
0.0000001
 43
0.0000001
 44
0.0000000001
 40
0.0
 40
0.0
 40
0.0
 40
0.0
 40
0.0457814351
 40
0.0738768634
 40
0.1069203051
 40
0.1901842498
 40
0.2985736105
 40
0.4332894069
 40
0.5949163878
 40
0.7837634139
 40
1.0
 40
1.0
 40
1.0
 40
1.0
 10
1.4699553735
 20
3.8388700393
 30
0.0
 10
1.4700078911
 20
3.8389225569
 30
0.0
 10
1.4701251726
 20
3.8389747489
 30
0.0
 10
1.4702979981
 20
3.8389885638
 30
0.0
 10
1.4705326373
 20
3.8389705679
 30
0.0
 10
1.4708868354
 20
3.8388758442
 30
0.0
 10
1.4713784213
 20
3.8386779273
 30
0.0
 10
1.4719665531
 20
3.8383847169
 30
0.0
 10
1.4726513853
 20
3.8379962556
 30
0.0
 10
1.4734330259
 20
3.8375118811
 30
0.0
 10
1.4739813773
 20
3.8371495542
 30
0.0
 10
1.4742719828
 20
3.836953062
 30
0.0
  0
SPLINE
  5
28E
100
AcDbEntity
  8
0
100
AcDbSpline
 62
7
  6
CONTINUOUS
 70
0
 71
3
 72
11
 73
7
 74
0
 42
0.0000001
 43
0.0000001
 44
0.0000000001
 40
0.0
 40
0.0
 40
0.0
 40
0.0
 40
0.1888811043
 40
0.418614528
 40
0.6891141226
 40
1.0
 40
1.0
 40
1.0
 40
1.0
 10
1.4742719828
 20
3.836953062
 30
0.0
 10
1.4749734249
 20
3.8364787838
 30
0.0
 10
1.4765019571
 20
3.8353891797
 30
0.0
 10
1.478965276
 20
3.8335245939
 30
0.0
 10
1.4818192764
 20
3.8312711799
 30
0.0
 10
1.4838404533
 20
3.8296255762
 30
0.0
 10
1.4849164529
 20
3.828739832
 30
0.0
  0
SPLINE
  5
28F
100
AcDbEntity
  8
0
100
AcDbSpline
 62
7
  6
CONTINUOUS
 70
0
 71
3
 72
40
 73
36
 74
0
 42
0.0000001
 43
0.0000001
 44
0.0000000001
 40
0.0
 40
0.0
 40
0.0
 40
0.0
 40
0.0150922064
 40
0.0337714956
 40
0.0559059516
 40
0.0813190238
 40
0.1098257392
 40
0.1412081147
 40
0.2116287209
 40
0.2904534552
 40
0.375294476
 40
0.4635722673
 40
0.5526098514
 40
0.639711695
 40
0.6817073825
 40
0.7222356648
 40
0.7609867232
 40
0.7976711157
 40
0.8320047134
 40
0.8637324207
 40
0.8926143442
 40
0.918427668
 40
0.9409854114
 40
0.9509866704
 40
0.9601087961
 40
0.9683374951
 40
0.9756592882
 40
0.9820609952
 40
0.98752995
 40
0.9920560416
 40
0.995637315
 40
0.9970748502
 40
0.9982786079
 40
0.9992515596
 40
1.0
 40
1.0
 40
1.0
 40
1.0
 10
1.4849164529
 20
3.828739832
 30
0.0
 10
1.4879252958
 20
3.8262630049
 30
0.0
 10
1.4945788683
 20
3.8206245875
 30
0.0
 10
1.5054510037
 20
3.8111268731
 30
0.0
 10
1.518214359
 20
3.7997444648
 30
0.0
 10
1.5327774205
 20
3.7865683629
 30
0.0
 10
1.5490321848
 20
3.7717031712
 30
0.0
 10
1.5737713354
 20
3.7488946026
 30
0.0
 10
1.6079131911
 20
3.7171164519
 30
0.0
 10
1.6520092413
 20
3.6757725254
 30
0.0
 10
1.6993703948
 20
3.631169644
 30
0.0
 10
1.7485988504
 20
3.5847030495
 30
0.0
 10
1.7982406537
 20
3.5378238767
 30
0.0
 10
1.8392171963
 20
3.4991753253
 30
0.0
 10
1.8711174823
 20
3.4691599294
 30
0.0
 10
1.8939482443
 20
3.4477251856
 30
0.0
 10
1.9158084854
 20
3.4272604983
 30
0.0
 10
1.9365364353
 20
3.4079269587
 30
0.0
 10
1.9559807451
 20
3.3898761937
 30
0.0
 10
1.9739985899
 20
3.3732503357
 30
0.0
 10
1.9904582437
 20
3.3581803481
 30
0.0
 10
2.0052407471
 20
3.3447854291
 30
0.0
 10
2.0164797709
 20
3.3347411236
 30
0.0
 10
2.0245598784
 20
3.3276308738
 30
0.0
 10
2.0298906675
 20
3.3229974615
 30
0.0
 10
2.0347304655
 20
3.3188541112
 30
0.0
 10
2.0390713305
 20
3.3152084574
 30
0.0
 10
2.0429053973
 20
3.3120679903
 30
0.0
 10
2.0462248613
 20
3.30943913
 30
0.0
 10
2.049023902
 20
3.3073279218
 30
0.0
 10
2.0510423084
 20
3.305911391
 30
0.0
 10
2.0524005306
 20
3.3050523565
 30
0.0
 10
2.0532103705
 20
3.3045874142
 30
0.0
 10
2.0538877835
 20
3.3042525678
 30
0.0
 10
2.0543049309
 20
3.3040939526
 30
0.0
 10
2.0544915536
 20
3.3040437222
 30
0.0
  0
SPLINE
  5
290
100
AcDbEntity
  8
0
100
AcDbSpline
 62
7
  6
CONTINUOUS
 70
0
 71
3
 72
33
 73
29
 74
0
 42
0.0000001
 43
0.0000001
 44
0.0000000001
 40
0.0
 40
0.0
 40
0.0
 40
0.0
 40
0.0006900425
 40
0.001528942
 40
0.0036678276
 40
0.0064342359
 40
0.0098342902
 40
0.01387031
 40
0.0185425213
 40
0.0297799846
 40
0.0435059479
 40
0.0596743125
 40
0.0782353413
 40
0.0991191428
 40
0.1222445365
 40
0.1475299131
 40
0.174888117
 40
0.2042131893
 40
0.2683231275
 40
0.3389278506
 40
0.414977819
 40
0.4953597269
 40
0.5788882161
 40
0.6643291086
 40
0.7504097593
 40
0.8358933675
 40
0.9195462855
 40
1.0
 40
1.0
 40
1.0
 40
1.0
 10
2.0039834615
 20
3.2535345311
 30
0.0
 10
2.0038592884
 20
3.2535678259
 30
0.0
 10
2.0035893612
 20
3.2536608489
 30
0.0
 10
2.0029636315
 20
3.2539364511
 30
0.0
 10
2.0020255722
 20
3.2544551323
 30
0.0
 10
2.0007188158
 20
3.2552842556
 30
0.0
 10
1.9991559258
 20
3.2563669052
 30
0.0
 10
1.9973376609
 20
3.2577023832
 30
0.0
 10
1.9943884026
 20
3.2599633931
 30
0.0
 10
1.9900878733
 20
3.2634271233
 30
0.0
 10
1.9842099704
 20
3.2683441265
 30
0.0
 10
1.9773622525
 20
3.2742270748
 30
0.0
 10
1.9695680157
 20
3.2810538104
 30
0.0
 10
1.9608546258
 20
3.2887978246
 30
0.0
 10
1.9512532621
 20
3.2974282237
 30
0.0
 10
1.9407973985
 20
3.306912121
 30
0.0
 10
1.9295236586
 20
3.3172133682
 30
0.0
 10
1.9129557643
 20
3.3324436221
 30
0.0
 10
1.8905348192
 20
3.353211911
 30
0.0
 10
1.8618193669
 20
3.3799945067
 30
0.0
 10
1.8309576315
 20
3.408920405
 30
0.0
 10
1.7983916754
 20
3.4395488082
 30
0.0
 10
1.764587369
 20
3.4714142219
 30
0.0
 10
1.7300317722
 20
3.5040304522
 30
0.0
 10
1.6952183765
 20
3.5369042157
 30
0.0
 10
1.6606405833
 20
3.5695422971
 30
0.0
 10
1.6268046465
 20
3.6014390552
 30
0.0
 10
1.6045340626
 20
3.6223865638
 30
0.0
 10
1.5936068662
 20
3.6326465679
 30
0.0
  0
SPLINE
  5
291
100
AcDbEntity
  8
0
100
AcDbSpline
 62
7
  6
CONTINUOUS
 70
0
 71
3
 72
55
 73
51
 74
0
 42
0.0000001
 43
0.0000001
 44
0.0000000001
 40
0.0
 40
0.0
 40
0.0
 40
0.0
 40
0.0008924574
 40
0.0020533796
 40
0.00349102
 40
0.0052086399
 40
0.0094863478
 40
0.0148855131
 40
0.0213987238
 40
0.0290162769
 40
0.0377249049
 40
0.0475026406
 40
0.0583254895
 40
0.0701692286
 40
0.0968181934
 40
0.1272018642
 40
0.1610366364
 40
0.1980165485
 40
0.2377903058
 40
0.279995995
 40
0.324238138
 40
0.370106147
 40
0.4171765863
 40
0.5131621577
 40
0.5611878537
 40
0.608638734
 40
0.6550760729
 40
0.7000684834
 40
0.7431954962
 40
0.7840624232
 40
0.8222830299
 40
0.8575090343
 40
0.8894117306
 40
0.9176933237
 40
0.9421011194
 40
0.9527762409
 40
0.962400456
 40
0.9709547591
 40
0.9784205299
 40
0.9847798132
 40
0.9875396921
 40
0.9900186673
 40
0.9922166391
 40
0.9941338654
 40
0.9957712077
 40
0.9971306297
 40
0.9982163203
 40
0.998659339
 40
0.9990383201
 40
1.0
 40
1.0
 40
1.0
 40
1.0
 10
1.4697065464
 20
3.7831802683
 30
0.0
 10
1.4699122862
 20
3.7831254618
 30
0.0
 10
1.4703723663
 20
3.7829514958
 30
0.0
 10
1.4711196718
 20
3.7825830227
 30
0.0
 10
1.4720134203
 20
3.7820704177
 30
0.0
 10
1.473512582
 20
3.781122714
 30
0.0
 10
1.4757390431
 20
3.7795608232
 30
0.0
 10
1.4788238102
 20
3.7772359343
 30
0.0
 10
1.4824783147
 20
3.7743451062
 30
0.0
 10
1.4866956718
 20
3.7708947176
 30
0.0
 10
1.4914668156
 20
3.7668920554
 30
0.0
 10
1.4967811751
 20
3.7623476759
 30
0.0
 10
1.5026263557
 20
3.7572735538
 30
0.0
 10
1.5114642789
 20
3.7495073445
 30
0.0
 10
1.5237246288
 20
3.7385666393
 30
0.0
 10
1.5398010435
 20
3.7240234661
 30
0.0
 10
1.5576237584
 20
3.7077372833
 30
0.0
 10
1.577032883
 20
3.6898665724
 30
0.0
 10
1.5978562467
 20
3.6705836982
 30
0.0
 10
1.619905947
 20
3.6500752953
 30
0.0
 10
1.6429848228
 20
3.6285386826
 30
0.0
 10
1.6668851304
 20
3.6061812629
 30
0.0
 10
1.6997743867
 20
3.5753629763
 30
0.0
 10
1.7330153377
 20
3.5441671983
 30
0.0
 10
1.7663264836
 20
3.5129135902
 30
0.0
 10
1.7910259411
 20
3.489757504
 30
0.0
 10
1.8152132608
 20
3.4671132112
 30
0.0
 10
1.8386704736
 20
3.4451984348
 30
0.0
 10
1.8611871982
 20
3.4242236822
 30
0.0
 10
1.8825601444
 20
3.4043913457
 30
0.0
 10
1.9025987497
 20
3.3858923222
 30
0.0
 10
1.92112282
 20
3.3689057123
 30
0.0
 10
1.9379670528
 20
3.3535958435
 30
0.0
 10
1.9529824693
 20
3.3401116044
 30
0.0
 10
1.9643122917
 20
3.3301032815
 30
0.0
 10
1.9723732993
 20
3.3231188733
 30
0.0
 10
1.9776106125
 20
3.3186516294
 30
0.0
 10
1.9823038948
 20
3.3147267685
 30
0.0
 10
1.9864430445
 20
3.3113541203
 30
0.0
 10
1.9895530285
 20
3.3089074656
 30
0.0
 10
1.9917609593
 20
3.3072396232
 30
0.0
 10
1.9931933439
 20
3.3061925073
 30
0.0
 10
1.9944813544
 20
3.3052890498
 30
0.0
 10
1.9956247347
 20
3.3045295184
 30
0.0
 10
1.9966224621
 20
3.303913882
 30
0.0
 10
1.9974759244
 20
3.3034420364
 30
0.0
 10
1.9980991128
 20
3.3031505533
 30
0.0
 10
1.9985315502
 20
3.3029963722
 30
0.0
 10
1.9989300763
 20
3.3028876487
 30
0.0
 10
1.9993276437
 20
3.3028583362
 30
0.0
 10
1.9994896305
 20
3.3030208108
 30
0.0
  0
SPLINE
  5
292
100
AcDbEntity
  8
0
100
AcDbSpline
 62
7
  6
CONTINUOUS
 70
0
 71
3
 72
17
 73
13
 74
0
 42
0.0000001
 43
0.0000001
 44
0.0000000001
 40
0.0
 40
0.0
 40
0.0
 40
0.0
 40
0.0146835124
 40
0.0351658505
 40
0.0618516948
 40
0.0949123472
 40
0.1804407201
 40
0.292063341
 40
0.4298530973
 40
0.5938070959
 40
0.7838883598
 40
1.0
 40
1.0
 40
1.0
 40
1.0
 10
1.9529887822
 20
3.2375551115
 30
0.0
 10
1.9529268768
 20
3.2375551109
 30
0.0
 10
1.9527796092
 20
3.2375861249
 30
0.0
 10
1.9525366309
 20
3.2376807364
 30
0.0
 10
1.9522340417
 20
3.2378331173
 30
0.0
 10
1.9517047751
 20
3.2381415909
 30
0.0
 10
1.9508988715
 20
3.2386839345
 30
0.0
 10
1.9497613213
 20
3.2395207364
 30
0.0
 10
1.9483868015
 20
3.2405924664
 30
0.0
 10
1.9467761227
 20
3.2418984073
 30
0.0
 10
1.9449304107
 20
3.2434383972
 30
0.0
 10
1.9436272633
 20
3.2445495036
 30
0.0
 10
1.9429362739
 20
3.2451433699
 30
0.0
  0
LINE
  5
293
100
AcDbEntity
  8
0
100
AcDbLine
 62
7
  6
CONTINUOUS
 10
1.9429362739
 20
3.2451433699
 11
1.9329561092
 21
3.2539510757
  0
SPLINE
  5
294
100
AcDbEntity
  8
0
100
AcDbSpline
 62
7
  6
CONTINUOUS
 70
0
 71
3
 72
11
 73
7
 74
0
 42
0.0000001
 43
0.0000001
 44
0.0000000001
 40
0.0
 40
0.0
 40
0.0
 40
0.0
 40
0.1849257146
 40
0.4154222444
 40
0.6883721069
 40
1.0
 40
1.0
 40
1.0
 40
1.0
 10
1.9329561092
 20
3.2539510757
 30
0.0
 10
1.9284052863
 20
3.2580417113
 30
0.0
 10
1.9182586511
 20
3.2673159665
 30
0.0
 10
1.9015728038
 20
3.2828213594
 30
0.0
 10
1.8819162947
 20
3.3012883181
 30
0.0
 10
1.8678675128
 20
3.3145848761
 30
0.0
 10
1.8603871574
 20
3.321682295
 30
0.0
  0
SPLINE
  5
295
100
AcDbEntity
  8
0
100
AcDbSpline
 62
7
  6
CONTINUOUS
 70
0
 71
3
 72
12
 73
8
 74
0
 42
0.0000001
 43
0.0000001
 44
0.0000000001
 40
0.0
 40
0.0
 40
0.0
 40
0.0
 40
0.1057672928
 40
0.221028325
 40
0.4724816331
 40
0.7379653823
 40
1.0
 40
1.0
 40
1.0
 40
1.0
 10
1.8603871574
 20
3.321682295
 30
0.0
 10
1.8514869869
 20
3.3301268454
 30
0.0
 10
1.8329137622
 20
3.3478013416
 30
0.0
 10
1.7932842632
 20
3.3856603819
 30
0.0
 10
1.7403607562
 20
3.43642404
 30
0.0
 10
1.6752077474
 20
3.4990328891
 30
0.0
 10
1.6310720477
 20
3.5414167741
 30
0.0
 10
1.6091289905
 20
3.5624498212
 30
0.0
  0
ENDSEC
  0
SECTION
  2
OBJECTS
  0
DICTIONARY
  5
C
100
AcDbDictionary
280
0
281
1
  3
ACAD_GROUP
350
D
  3
ACAD_MLINESTYLE
350
17
  3
ACAD_LAYOUT
350
1A
  3
ACAD_PLOTSETTINGS
350
19
  3
ACAD_PLOTSTYLENAME
350
E
  0
DICTIONARY
  5
D
102
{ACAD_REACTORS
330
C
102
}
100
AcDbDictionary
280
0
281
1
  0
ACDBDICTIONARYWDFLT
  5
E
102
{ACAD_REACTORS
330
C
102
}
100
AcDbDictionary
281
1
  3
Normal
350
F
100
AcDbDictionaryWithDefault
340
F
  0
DICTIONARY
  5
17
102
{ACAD_REACTORS
330
C
102
}
100
AcDbDictionary
280
0
281
1
  3
Standard
350
18
  0
DICTIONARY
  5
19
102
{ACAD_REACTORS
330
C
102
}
100
AcDbDictionary
281
1
  0
DICTIONARY
  5
1A
102
{ACAD_REACTORS
330
C
102
}
100
AcDbDictionary
281
1
  3
Model
350
296
  3
Layout1
350
297
  0
ACDBPLACEHOLDER
  5
F
102
{ACAD_REACTORS
330
E
102
}
  0
MLINESTYLE
  5
18
102
{ACAD_REACTORS
330
17
102
}
100
AcDbMlineStyle
  2
STANDARD
 70
0
  3

 62
256
 51
90.0
 52
90.0
 71
2
 49
0.5
 62
256
  6
BYLAYER
 49
-0.5
 62
256
  6
BYLAYER
  0
LAYOUT
  5
296
102
{ACAD_REACTORS
330
1A
102
}
100
AcDbPlotSettings
  1

  2
none_device
  4
ANSI_A_(11.00_x_8.50_Inches)
  6

 40
0.0
 41
0.0
 42
0.0
 43
0.0
 44
279.4
 45
215.9
 46
0.0
 47
0.0
 48
0.0
 49
0.0
140
0.0
141
0.0
142
1.0
143
1.0
 70
1024
 72
0
 73
0
 74
0
  7

 75
0
147
1.0
148
0.0
149
0.0
100
AcDbLayout
  1
Model
 70
0
 71
0
 10
0.0
 20
0.0
 11
11.0
 21
8.5
 12
0.0
 22
0.0
 32
0.0
 14
0.0
 24
0.0
 34
0.0
 15
0.0
 25
0.0
 35
0.0
146
0.0
 13
0.0
 23
0.0
 33
0.0
 16
1.0
 26
0.0
 36
0.0
 17
0.0
 27
1.0
 37
0.0
 76
0
330
207
345
0
346
0
  0
LAYOUT
  5
297
102
{ACAD_REACTORS
330
1A
102
}
100
AcDbPlotSettings
  1

  2
none_device
  4
ANSI_A_(11.00_x_8.50_Inches)
  6

 40
0.0
 41
0.0
 42
0.0
 43
0.0
 44
279.4
 45
215.9
 46
0.0
 47
0.0
 48
0.0
 49
0.0
140
0.0
141
0.0
142
1.0
143
1.0
 70
0
 72
0
 73
0
 74
0
  7

 75
0
147
1.0
148
0.0
149
0.0
100
AcDbLayout
  1
Layout1
 70
0
 71
1
 10
0.0
 20
0.0
 11
11.0
 21
8.5
 12
0.0
 22
0.0
 32
0.0
 14
0.0
 24
0.0
 34
0.0
 15
0.0
 25
0.0
 35
0.0
146
0.0
 13
0.0
 23
0.0
 33
0.0
 16
1.0
 26
0.0
 36
0.0
 17
0.0
 27
1.0
 37
0.0
 76
0
330
208
345
0
346
0
  0
ENDSEC
  0
EOF
