999
DXF file: 208_TOP.dxf
999
Pro/ENGINEER 2018400 by Parametric Technology Corporation
  0
SECTION
  2
HEADER
  9
$ACADVER
  1
AC1027
  9
$DWGCODEPAGE
  3
ANSI_1252
  9
$EXTMAX
 10
11.0
 20
8.5
 30
0.0
  9
$EXTMIN
 10
0.0
 20
0.0
 30
0.0
  9
$LIMMIN
 10
0.0
 20
0.0
  9
$LIMMAX
 10
11.0
 20
8.5
  9
$VIEWCTR
 10
5.5
 20
4.25
  9
$VIEWSIZE
 40
8.5
  9
$CLAYER
  8
0
  9
$LTSCALE
 40
0.605
  9
$CELTYPE
  6
BYLAYER
  9
$DIMSCALE
 40
1.0
  9
$DIMASZ
 40
0.1
  9
$DIMEXO
 40
0.0625
  9
$DIMDLI
 40
0.418
  9
$DIMEXE
 40
0.125
  9
$DIMCEN
 40
0.099
  9
$DIMLFAC
 40
1.0
  9
$DIMBLK
  1
_FILLED
  9
$DIMALT
 70
1
  9
$DIMALTD
 70
1
  9
$DIMALTTD
 70
2
  9
$DIMALTF
 40
25.4
  9
$DIMTXT
 40
0.08
  9
$DIMTOL
 70
1
  9
$DIMLIM
 70
0
  9
$DIMTFAC
 40
1.0
  9
$DIMTP
 40
0.01
  9
$DIMTM
 40
0.01
  9
$DIMGAP
 40
0.09
  9
$DIMDSEP
 70
46
  9
$AUNITS
 70
0
  9
$PDMODE
 70
3
  9
$PDSIZE
 40
0.3125
  9
$HANDSEED
  5
262
  9
$TILEMODE
 70
1
  9
$MEASUREMENT
 70
0
  9
$INSUNITS
 70
1
  0
ENDSEC
  0
SECTION
  2
CLASSES
  0
CLASS
  1
ACDBDICTIONARYWDFLT
  2
AcDbDictionaryWithDefault
  3
AutoCAD 2000
 90
0
 91
1
280
0
281
0
  0
CLASS
  1
ACDBPLACEHOLDER
  2
AcDbPlaceHolder
  3
AutoCAD 2000
 90
0
 91
1
280
0
281
0
  0
CLASS
  1
LAYOUT
  2
AcDbLayout
  3
AutoCAD 2000
 90
0
 91
0
280
0
281
0
  0
ENDSEC
  0
SECTION
  2
TABLES
  0
TABLE
  2
VPORT
  5
8
100
AcDbSymbolTable
 70
2
  0
VPORT
  5
1F4
100
AcDbSymbolTableRecord
100
AcDbViewportTableRecord
  2
*ACTIVE
 70
0
 10
0.0
 20
0.0
 11
1.0
 21
1.0
 12
5.5
 22
4.25
 13
0.0
 23
0.0
 14
1.0
 24
1.0
 15
0.0
 25
0.0
 16
0.0
 26
0.0
 36
1.0
 17
0.0
 27
0.0
 37
0.0
 40
8.5
 41
1.2941176471
 42
50.0
 43
0.0
 44
0.0
 50
0.0
 51
0.0
 71
0
 72
100
 73
1
 74
1
 75
0
 76
0
 77
0
 78
0
  0
ENDTAB
  0
TABLE
  2
LTYPE
  5
5
100
AcDbSymbolTable
 70
6
  0
LTYPE
  5
14
100
AcDbSymbolTableRecord
100
AcDbLinetypeTableRecord
  2
BYBLOCK
 70
0
  3

 72
65
 73
0
 40
0.0
  0
LTYPE
  5
15
100
AcDbSymbolTableRecord
100
AcDbLinetypeTableRecord
  2
BYLAYER
 70
0
  3

 72
65
 73
0
 40
0.0
  0
LTYPE
  5
16
100
AcDbSymbolTableRecord
100
AcDbLinetypeTableRecord
  2
CONTINUOUS
 70
64
  3
Solid line
 72
65
 73
0
 40
0.0
  0
LTYPE
  5
1F5
100
AcDbSymbolTableRecord
100
AcDbLinetypeTableRecord
  2
CENTER
 70
64
  3
____ _ ____ _ ____ _ ____ _ ____ _ ____ _ ____
 72
65
 73
4
 40
0.6
 49
0.375
 74
0
 49
-0.075
 74
0
 49
0.075
 74
0
 49
-0.075
 74
0
  0
LTYPE
  5
1F6
100
AcDbSymbolTableRecord
100
AcDbLinetypeTableRecord
  2
HIDDEN
 70
64
  3
- - - - - - - - - - - - - - - - - - - -
 72
65
 73
2
 40
0.2
 49
0.1
 74
0
 49
-0.1
 74
0
  0
LTYPE
  5
1F7
100
AcDbSymbolTableRecord
100
AcDbLinetypeTableRecord
  2
PHANTOM
 70
64
  3
_____ _ _ _____ _ _ _____ _ _ _____
 72
65
 73
6
 40
0.8
 49
0.45
 74
0
 49
-0.05
 74
0
 49
0.1
 74
0
 49
-0.05
 74
0
 49
0.1
 74
0
 49
-0.05
 74
0
  0
LTYPE
  5
1F8
100
AcDbSymbolTableRecord
100
AcDbLinetypeTableRecord
  2
DOT
 70
64
  3
. . . . . . . . . . . . . . . . . . . .
 72
65
 73
2
 40
0.2
 49
0.1
 74
0
 49
-0.1
 74
0
  0
LTYPE
  5
1F9
100
AcDbSymbolTableRecord
100
AcDbLinetypeTableRecord
  2
DASHED
 70
64
  3
- - - - - - - - - - - - - - - - - - - -
 72
65
 73
2
 40
0.2
 49
0.1
 74
0
 49
-0.1
 74
0
  0
ENDTAB
  0
TABLE
  2
LAYER
  5
2
100
AcDbSymbolTable
 70
36
  0
LAYER
  5
10
100
AcDbSymbolTableRecord
100
AcDbLayerTableRecord
  2
0
 70
0
 62
7
  6
CONTINUOUS
370
-3
390
F
  0
LAYER
  5
1FA
100
AcDbSymbolTableRecord
100
AcDbLayerTableRecord
  2
DEFAULT_1
 70
0
 62
7
  6
CENTER
370
-3
390
F
  0
LAYER
  5
1FB
100
AcDbSymbolTableRecord
100
AcDbLayerTableRecord
  2
DEFAULT_2
 70
0
 62
8
  6
HIDDEN
370
-3
390
F
  0
LAYER
  5
1FC
100
AcDbSymbolTableRecord
100
AcDbLayerTableRecord
  2
DEFAULT_3
 70
0
 62
7
  6
PHANTOM
370
-3
390
F
  0
LAYER
  5
1FD
100
AcDbSymbolTableRecord
100
AcDbLayerTableRecord
  2
ALL_FEATURES
 70
0
 62
7
  6
CONTINUOUS
370
-3
390
F
  0
LAYER
  5
1FE
100
AcDbSymbolTableRecord
100
AcDbLayerTableRecord
  2
AXES_FEATURES
 70
0
 62
7
  6
CONTINUOUS
370
-3
390
F
  0
LAYER
  5
1FF
100
AcDbSymbolTableRecord
100
AcDbLayerTableRecord
  2
DEFAULT_COORDINATE_SYSTEM
 70
0
 62
7
  6
CONTINUOUS
370
-3
390
F
  0
LAYER
  5
200
100
AcDbSymbolTableRecord
100
AcDbLayerTableRecord
  2
DEFAULT_DATUM_AXES
 70
0
 62
7
  6
CONTINUOUS
370
-3
390
F
  0
LAYER
  5
201
100
AcDbSymbolTableRecord
100
AcDbLayerTableRecord
  2
DEFAULT_DATUM_PLANES
 70
0
 62
7
  6
CONTINUOUS
370
-3
390
F
  0
LAYER
  5
202
100
AcDbSymbolTableRecord
100
AcDbLayerTableRecord
  2
DIMENSIONS
 70
0
 62
7
  6
CONTINUOUS
370
-3
390
F
  0
LAYER
  5
203
100
AcDbSymbolTableRecord
100
AcDbLayerTableRecord
  2
PROTRUSION_FEATURES
 70
0
 62
7
  6
CONTINUOUS
370
-3
390
F
  0
LAYER
  5
204
100
AcDbSymbolTableRecord
100
AcDbLayerTableRecord
  2
WETTED_SURFACE_AREA
 70
0
 62
7
  6
CONTINUOUS
370
-3
390
F
  0
ENDTAB
  0
TABLE
  2
STYLE
  5
3
100
AcDbSymbolTable
 70
1
  0
STYLE
  5
11
100
AcDbSymbolTableRecord
100
AcDbTextStyleTableRecord
  2
STANDARD
 70
0
 40
0.0
 41
0.8
 50
0.0
 71
0
 42
0.2
  3
txt
  4

  0
STYLE
  5
205
100
AcDbSymbolTableRecord
100
AcDbTextStyleTableRecord
  2
TEXTSTYLE_1
 70
0
 40
0.0
 41
0.8
 50
0.0
 71
0
 42
0.2
  3
gdt
  4

  0
ENDTAB
  0
TABLE
  2
VIEW
  5
6
100
AcDbSymbolTable
 70
0
  0
ENDTAB
  0
TABLE
  2
UCS
  5
7
100
AcDbSymbolTable
 70
0
  0
ENDTAB
  0
TABLE
  2
APPID
  5
9
100
AcDbSymbolTable
 70
1
  0
APPID
  5
206
100
AcDbSymbolTableRecord
100
AcDbRegAppTableRecord
  2
ACAD
 70
0
  0
ENDTAB
  0
TABLE
  2
BLOCK_RECORD
  5
1
100
AcDbSymbolTable
 70
0
  0
BLOCK_RECORD
  5
207
100
AcDbSymbolTableRecord
100
AcDbBlockTableRecord
  2
*Model_Space
  0
BLOCK_RECORD
  5
208
100
AcDbSymbolTableRecord
100
AcDbBlockTableRecord
  2
*Paper_Space
  0
BLOCK_RECORD
  5
209
100
AcDbSymbolTableRecord
100
AcDbBlockTableRecord
  2
_FILLED
  0
ENDTAB
  0
TABLE
  2
DIMSTYLE
  5
A
100
AcDbSymbolTable
 70
1
100
AcDbDimStyleTable
 71
0
  0
DIMSTYLE
105
20A
100
AcDbSymbolTableRecord
100
AcDbDimStyleTableRecord
  2
STANDARD
 70
0
  3

  4

 40
1.0
 41
0.1
 42
0.0625
 43
0.38
 44
0.125
 45
0.0
 46
0.0
 47
0.01
 48
0.01
140
0.08
141
0.09
142
0.0
143
25.4
144
1.0
145
0.0
146
1.0
147
0.09
 71
1.0
 72
0.0
 73
1
 74
1
 75
0
 76
0
 77
0
 78
4
 79
1
170
1
171
1
172
0
173
0
174
0
175
0
176
0
177
0
178
0
270
2
179
2
271
2
272
2
273
2
274
2
275
0
280
0
281
0
282
0
283
1
284
4
285
0
286
0
287
3
288
0
340
11
278
46
341
209
342
209
343
209
344
209
  0
ENDTAB
  0
ENDSEC
  0
SECTION
  2
BLOCKS
  0
BLOCK
  5
20
100
AcDbEntity
  8
0
100
AcDbBlockBegin
  2
*Model_Space
 70
0
 10
0.0
 20
0.0
 30
0.0
  3
*Model_Space
  1

  0
ENDBLK
  5
21
100
AcDbEntity
  8
0
100
AcDbBlockEnd
  0
BLOCK
  5
1C
100
AcDbEntity
  8
0
100
AcDbBlockBegin
  2
*Paper_Space
 70
0
 10
0.0
 20
0.0
 30
0.0
  3
*Paper_Space
  1

  0
ENDBLK
  5
1D
100
AcDbEntity
  8
0
100
AcDbBlockEnd
  0
BLOCK
  5
20B
100
AcDbEntity
  8
0
100
AcDbBlockBegin
  2
_FILLED
 70
64
 10
0.0
 20
0.0
  3
_FILLED
  1

  0
SOLID
  5
20C
100
AcDbEntity
  8
0
  6
BYBLOCK
 62
0
100
AcDbTrace
 10
0.0
 20
0.0
 11
-1.0
 21
0.2
 12
-1.0
 22
-0.2
 13
-1.0
 23
-0.2
  0
ENDBLK
  5
20D
100
AcDbEntity
  8
0
  6
BYBLOCK
 62
0
100
AcDbBlockEnd
  0
ENDSEC
  0
SECTION
  2
ENTITIES
  0
MTEXT
  5
20E
100
AcDbEntity
  8
0
100
AcDbMText
 62
2
  6
CONTINUOUS
  7
STANDARD
 71
3
 72
1
 10
5.6207427213
 20
0.245123303
 30
0.0
 11
1.0
 21
0.0
 31
0.0
 73
2
 44
0.9
  1
SCALE  1.000
 40
0.08
 41
0.768
  0
LINE
  5
20F
100
AcDbEntity
  8
0
100
AcDbLine
 62
7
  6
CONTINUOUS
 10
0.0
 20
0.0
 11
0.0
 21
8.5
  0
LINE
  5
210
100
AcDbEntity
  8
0
100
AcDbLine
 62
7
  6
CONTINUOUS
 10
0.0
 20
0.0
 11
11.0
 21
0.0
  0
LINE
  5
211
100
AcDbEntity
  8
0
100
AcDbLine
 62
7
  6
CONTINUOUS
 10
0.0
 20
8.5
 11
11.0
 21
8.5
  0
LINE
  5
212
100
AcDbEntity
  8
0
100
AcDbLine
 62
7
  6
CONTINUOUS
 10
11.0
 20
0.0
 11
11.0
 21
8.5
  0
LINE
  5
213
100
AcDbEntity
  8
0
100
AcDbLine
 62
7
  6
CONTINUOUS
 10
5.2935475294
 20
0.4143092931
 11
5.2985968919
 21
0.4143092958
  0
LINE
  5
214
100
AcDbEntity
  8
0
100
AcDbLine
 62
7
  6
CONTINUOUS
 10
5.6960718994
 20
1.7691144359
 11
4.8960719285
 21
1.76911443
  0
LWPOLYLINE
  5
215
100
AcDbEntity
  8
0
100
AcDbPolyline
 62
7
  6
CONTINUOUS
 90
11
 70
0
 10
4.9049789479
 20
1.6018960811
 10
4.9098436984
 20
1.5182347727
 10
4.9120956485
 20
1.4786228154
 10
4.9141682839
 20
1.4406089286
 10
4.9160192149
 20
1.4043746654
 10
4.9176162415
 20
1.3700191029
 10
4.918933002
 20
1.3376279466
 10
4.9199441404
 20
1.3074219113
 10
4.9206359542
 20
1.2795468227
 10
4.9210049363
 20
1.2540276037
 10
4.9210719323
 20
1.2388675518
  0
LWPOLYLINE
  5
216
100
AcDbEntity
  8
0
100
AcDbPolyline
 62
7
  6
CONTINUOUS
 90
5
 70
0
 10
4.8960719267
 20
1.7691144706
 10
4.89764486
 20
1.7362078632
 10
4.9000116559
 20
1.6904030826
 10
4.9024778396
 20
1.6456083605
 10
4.9049789479
 20
1.6018960811
  0
LINE
  5
217
100
AcDbEntity
  8
0
100
AcDbLine
 62
7
  6
CONTINUOUS
 10
4.6760719138
 20
6.5591144299
 11
4.8960719138
 21
1.7691144299
  0
LINE
  5
218
100
AcDbEntity
  8
0
100
AcDbLine
 62
7
  6
CONTINUOUS
 10
4.7960719466
 20
0.9561377203
 11
4.7960719138
 21
0.8852309534
  0
LINE
  5
219
100
AcDbEntity
  8
0
100
AcDbLine
 62
7
  6
CONTINUOUS
 10
4.9210730267
 20
1.0472205291
 11
4.9210719323
 21
1.2388675518
  0
LINE
  5
21A
100
AcDbEntity
  8
0
100
AcDbLine
 62
7
  6
CONTINUOUS
 10
5.2960719138
 20
1.7691144299
 11
5.2960719138
 21
0.6024562745
  0
LWPOLYLINE
  5
21B
100
AcDbEntity
  8
0
100
AcDbPolyline
 62
7
  6
CONTINUOUS
 90
13
 70
0
 10
5.7960692749
 20
0.9560829695
 10
5.7960561308
 20
0.958650908
 10
5.7946223542
 20
0.9836987798
 10
5.7908225305
 20
1.0086067654
 10
5.7846795645
 20
1.0332394436
 10
5.7762317512
 20
1.0574802294
 10
5.765504755
 20
1.0812407623
 10
5.7525381774
 20
1.1044137978
 10
5.7373981937
 20
1.1268810481
 10
5.7201413924
 20
1.1485434206
 10
5.7008246705
 20
1.1693119457
 10
5.6795400793
 20
1.189078647
 10
5.6710719138
 20
1.195903572
  0
LINE
  5
21C
100
AcDbEntity
  8
0
100
AcDbLine
 62
7
  6
CONTINUOUS
 10
5.7960719138
 20
0.8852309534
 11
5.7960719027
 21
0.9560843375
  0
LINE
  5
21D
100
AcDbEntity
  8
0
100
AcDbLine
 62
7
  6
CONTINUOUS
 10
5.6710718953
 20
1.2388675518
 11
5.671070792
 21
1.0472179289
  0
LWPOLYLINE
  5
21E
100
AcDbEntity
  8
0
100
AcDbPolyline
 62
7
  6
CONTINUOUS
 90
16
 70
0
 10
5.6710718953
 20
1.2388675518
 10
5.6711388913
 20
1.2540276037
 10
5.6715078735
 20
1.2795468228
 10
5.6721996872
 20
1.3074219115
 10
5.6732108257
 20
1.337627947
 10
5.6745275861
 20
1.3700191034
 10
5.6761246128
 20
1.4043746659
 10
5.6779755438
 20
1.4406089293
 10
5.6800481792
 20
1.4786228163
 10
5.6823001293
 20
1.5182347736
 10
5.6846894001
 20
1.5593711915
 10
5.6871648798
 20
1.6018960823
 10
5.6896659881
 20
1.6456083618
 10
5.6921321718
 20
1.6904030841
 10
5.6944989677
 20
1.7362078648
 10
5.6960719009
 20
1.7691144706
  0
LINE
  5
21F
100
AcDbEntity
  8
0
100
AcDbLine
 62
7
  6
CONTINUOUS
 10
5.9160719138
 20
6.5591144299
 11
5.6960719138
 21
1.7691144299
  0
LWPOLYLINE
  5
220
100
AcDbEntity
  8
0
100
AcDbPolyline
 62
7
  6
CONTINUOUS
 90
13
 70
0
 10
4.9210719138
 20
1.1959102925
 10
4.9130322222
 20
1.1894486684
 10
4.8916880596
 20
1.1696797382
 10
4.8723133102
 20
1.1489036197
 10
4.8550004355
 20
1.1272277175
 10
4.8398081101
 20
1.1047416333
 10
4.8267939695
 20
1.081546671
 10
4.8160244972
 20
1.0577619773
 10
4.8075405488
 20
1.0334947963
 10
4.8013673748
 20
1.0088350018
 10
4.7975424743
 20
0.9839001528
 10
4.796089459
 20
0.9588253916
 10
4.7960745731
 20
0.9561394889
  0
LINE
  5
221
100
AcDbEntity
  8
0
100
AcDbLine
 62
7
  6
CONTINUOUS
 10
4.6760719138
 20
6.5591144299
 11
5.9160719138
 21
6.5591144299
  0
LINE
  5
222
100
AcDbEntity
  8
0
100
AcDbLine
 62
7
  6
CONTINUOUS
 10
4.4468449558
 20
7.151615456
 11
6.1452988719
 21
7.151615456
  0
LINE
  5
223
100
AcDbEntity
  8
0
100
AcDbLine
 62
7
  6
CONTINUOUS
 10
4.0504901335
 20
8.1491144299
 11
6.5416536942
 21
8.1491144299
  0
ARC
  5
224
100
AcDbEntity
  8
0
100
AcDbCircle
 62
7
  6
CONTINUOUS
 10
5.8015521036
 20
8.2751672099
 40
1.76
100
AcDbArc
 50
184.1070915384
 51
219.6712509082
  0
ARC
  5
225
100
AcDbEntity
  8
0
100
AcDbCircle
 62
7
  6
CONTINUOUS
 10
4.7905917241
 20
8.2751672099
 40
1.76
100
AcDbArc
 50
320.3287490918
 51
355.8929084616
  0
ARC
  5
226
100
AcDbEntity
  8
0
100
AcDbCircle
 62
7
  6
CONTINUOUS
 10
3.6771249854
 20
6.5132337777
 40
1.0
100
AcDbArc
 50
2.629690884
 51
39.6712509082
  0
ARC
  5
227
100
AcDbEntity
  8
0
100
AcDbCircle
 62
7
  6
CONTINUOUS
 10
6.9150188422
 20
6.5132337777
 40
1.0
100
AcDbArc
 50
140.3287490918
 51
177.370309116
  0
ARC
  5
228
100
AcDbEntity
  8
0
100
AcDbCircle
 62
7
  6
CONTINUOUS
 10
5.2644660028
 20
1.1847036201
 40
0.5777481897
100
AcDbArc
 50
246.8696192238
 51
248.7775197078
  0
ARC
  5
229
100
AcDbEntity
  8
0
100
AcDbCircle
 62
7
  6
CONTINUOUS
 10
5.2956241171
 20
0.959368772
 40
0.5450634485
100
AcDbArc
 50
261.110190254
 51
269.7817134439
  0
ARC
  5
22A
100
AcDbEntity
  8
0
100
AcDbCircle
 62
7
  6
CONTINUOUS
 10
5.2846866479
 20
0.9609172243
 40
0.5065287868
100
AcDbArc
 50
269.4303119497
 51
272.5605104262
  0
ARC
  5
22B
100
AcDbEntity
  8
0
100
AcDbCircle
 62
7
  6
CONTINUOUS
 10
5.2846974093
 20
1.0111926932
 40
0.506295535
100
AcDbArc
 50
269.008404038
 51
272.1393232696
  0
ARC
  5
22C
100
AcDbEntity
  8
0
100
AcDbCircle
 62
7
  6
CONTINUOUS
 10
5.2852627053
 20
0.9528482712
 40
0.4984422012
100
AcDbArc
 50
272.5357955379
 51
281.3570831666
  0
ARC
  5
22D
100
AcDbEntity
  8
0
100
AcDbCircle
 62
7
  6
CONTINUOUS
 10
5.1799210711
 20
1.0454941646
 40
0.4141823089
100
AcDbArc
 50
229.0902525338
 51
229.37361384
  0
ARC
  5
22E
100
AcDbEntity
  8
0
100
AcDbCircle
 62
7
  6
CONTINUOUS
 10
5.4182339536
 20
1.0385904546
 40
0.4050284945
100
AcDbArc
 50
310.6850615829
 51
314.0388295636
  0
ARC
  5
22F
100
AcDbEntity
  8
0
100
AcDbCircle
 62
7
  6
CONTINUOUS
 10
5.1656530286
 20
1.0296134844
 40
0.3928370933
100
AcDbArc
 50
223.9725739334
 51
229.1461410671
  0
ARC
  5
230
100
AcDbEntity
  8
0
100
AcDbCircle
 62
7
  6
CONTINUOUS
 10
5.407043129
 20
1.0597706696
 40
0.3879612819
100
AcDbArc
 50
310.6919035986
 51
311.7075183143
  0
ARC
  5
231
100
AcDbEntity
  8
0
100
AcDbCircle
 62
7
  6
CONTINUOUS
 10
5.1789507056
 20
1.0528244636
 40
0.3786849779
100
AcDbArc
 50
226.0631341968
 51
229.3971194621
  0
ARC
  5
232
100
AcDbEntity
  8
0
100
AcDbCircle
 62
7
  6
CONTINUOUS
 10
5.4138131768
 20
1.0521910319
 40
0.3777983923
100
AcDbArc
 50
311.7058140687
 51
314.05097825
  0
ARC
  5
233
100
AcDbEntity
  8
0
100
AcDbCircle
 62
7
  6
CONTINUOUS
 10
5.1701602869
 20
1.0436491976
 40
0.36597846
100
AcDbArc
 50
225.0325405313
 51
226.0574393494
  0
ARC
  5
234
100
AcDbEntity
  8
0
100
AcDbCircle
 62
7
  6
CONTINUOUS
 10
5.1664015908
 20
1.0398894477
 40
0.3606621162
100
AcDbArc
 50
224.3129349111
 51
225.0329018132
  0
ARC
  5
235
100
AcDbEntity
  8
0
100
AcDbCircle
 62
7
  6
CONTINUOUS
 10
5.4264972834
 20
1.0390577646
 40
0.3595399961
100
AcDbArc
 50
314.0533999468
 51
317.6832094177
  0
ARC
  5
236
100
AcDbEntity
  8
0
100
AcDbCircle
 62
7
  6
CONTINUOUS
 10
5.1603063759
 20
1.0339985745
 40
0.3521855514
100
AcDbArc
 50
222.4728072974
 51
224.3199059809
  0
ARC
  5
237
100
AcDbEntity
  8
0
100
AcDbCircle
 62
7
  6
CONTINUOUS
 10
5.4364946001
 20
1.0297195321
 40
0.3458609148
100
AcDbArc
 50
317.7121205105
 51
317.9029285698
  0
ARC
  5
238
100
AcDbEntity
  8
0
100
AcDbCircle
 62
7
  6
CONTINUOUS
 10
5.4042252567
 20
0.7898739407
 40
0.2994496253
100
AcDbArc
 50
317.1031723482
 51
321.6641834603
  0
ARC
  5
239
100
AcDbEntity
  8
0
100
AcDbCircle
 62
7
  6
CONTINUOUS
 10
5.4073554202
 20
0.7935060272
 40
0.2953305612
100
AcDbArc
 50
317.1736543299
 51
321.8106328588
  0
ARC
  5
23A
100
AcDbEntity
  8
0
100
AcDbCircle
 62
7
  6
CONTINUOUS
 10
5.4314536684
 20
0.7250413602
 40
0.2652640267
100
AcDbArc
 50
326.5019378405
 51
327.9293903455
  0
ARC
  5
23B
100
AcDbEntity
  8
0
100
AcDbCircle
 62
7
  6
CONTINUOUS
 10
5.4383632713
 20
0.7207339904
 40
0.2571218104
100
AcDbArc
 50
327.9252212879
 51
331.6712154221
  0
SPLINE
  5
23C
100
AcDbEntity
  8
0
100
AcDbSpline
 62
7
  6
CONTINUOUS
 70
0
 71
3
 72
19
 73
15
 74
0
 42
0.0000001
 43
0.0000001
 44
0.0000000001
 40
0.0
 40
0.0
 40
0.0
 40
0.0
 40
0.1331649065
 40
0.2657498753
 40
0.3965772075
 40
0.5248245959
 40
0.5877758897
 40
0.6498234765
 40
0.7108925969
 40
0.7709200998
 40
0.8298651548
 40
0.8877007692
 40
0.9444114847
 40
1.0
 40
1.0
 40
1.0
 40
1.0
 10
5.2960719138
 20
0.4555895932
 30
0.0
 10
5.3121210833
 20
0.4559153873
 30
0.0
 10
5.3441380259
 20
0.4579491372
 30
0.0
 10
5.3914688238
 20
0.4650736103
 30
0.0
 10
5.4374109587
 20
0.4762219589
 30
0.0
 10
5.4742008789
 20
0.4888029271
 30
0.0
 10
5.5023008552
 20
0.5007600369
 30
0.0
 10
5.522489135
 20
0.5105561386
 30
0.0
 10
5.5418418095
 20
0.521201252
 30
0.0
 10
5.5602837671
 20
0.5326637372
 30
0.0
 10
5.5777486157
 20
0.5448995729
 30
0.0
 10
5.5941745824
 20
0.5578637832
 30
0.0
 10
5.6094986843
 20
0.5715123632
 30
0.0
 10
5.6190362028
 20
0.5811343865
 30
0.0
 10
5.6235962392
 20
0.5860444774
 30
0.0
  0
SPLINE
  5
23D
100
AcDbEntity
  8
0
100
AcDbSpline
 62
7
  6
CONTINUOUS
 70
0
 71
3
 72
9
 73
5
 74
0
 42
0.0000001
 43
0.0000001
 44
0.0000000001
 40
0.0
 40
0.0
 40
0.0
 40
0.0
 40
0.5064265756
 40
1.0
 40
1.0
 40
1.0
 40
1.0
 10
5.6391101839
 20
0.6041344751
 30
0.0
 10
5.6446642405
 20
0.6111687725
 30
0.0
 10
5.6549872817
 20
0.6255826336
 30
0.0
 10
5.6638069951
 20
0.6409676554
 30
0.0
 10
5.6677415467
 20
0.6487665286
 30
0.0
  0
SPLINE
  5
23E
100
AcDbEntity
  8
0
100
AcDbSpline
 62
7
  6
CONTINUOUS
 70
0
 71
3
 72
23
 73
19
 74
0
 42
0.0000001
 43
0.0000001
 44
0.0000000001
 40
0.0
 40
0.0
 40
0.0
 40
0.0
 40
0.0712516427
 40
0.1422700804
 40
0.2127184351
 40
0.2823144721
 40
0.4180836605
 40
0.4839652003
 40
0.548267407
 40
0.6108581399
 40
0.6716573668
 40
0.7306202007
 40
0.7594190974
 40
0.7877661933
 40
0.8431278939
 40
0.8968282368
 40
0.9490425253
 40
1.0
 40
1.0
 40
1.0
 40
1.0
 10
5.2960719138
 20
0.4555895932
 30
0.0
 10
5.2850619986
 20
0.4553660947
 30
0.0
 10
5.2630593903
 20
0.455572455
 30
0.0
 10
5.230242008
 20
0.4578178032
 30
0.0
 10
5.1978668411
 20
0.4619865282
 30
0.0
 10
5.1559817366
 20
0.4700064488
 30
0.0
 10
5.1155776497
 20
0.4816989851
 30
0.0
 10
5.0774239356
 20
0.4970594035
 30
0.0
 10
5.0506021666
 20
0.5100921846
 30
0.0
 10
5.0254906071
 20
0.5246694191
 30
0.0
 10
5.0022576628
 20
0.5406741062
 30
0.0
 10
4.9844571966
 20
0.5552248301
 30
0.0
 10
4.9713409286
 20
0.5674797015
 30
0.0
 10
4.9591783649
 20
0.5799134611
 30
0.0
 10
4.9453856927
 20
0.5961075835
 30
0.0
 10
4.9311538696
 20
0.6166235664
 30
0.0
 10
4.9194712198
 20
0.6379187432
 30
0.0
 10
4.9133692016
 20
0.6526940713
 30
0.0
 10
4.9107929118
 20
0.6601364236
 30
0.0
  0
SPLINE
  5
23F
100
AcDbEntity
  8
0
100
AcDbSpline
 62
7
  6
CONTINUOUS
 70
0
 71
3
 72
15
 73
11
 74
0
 42
0.0000001
 43
0.0000001
 44
0.0000000001
 40
0.0
 40
0.0
 40
0.0
 40
0.0
 40
0.1374552788
 40
0.2721075026
 40
0.4033045562
 40
0.5306965714
 40
0.6540795893
 40
0.7733894516
 40
0.8886699548
 40
1.0
 40
1.0
 40
1.0
 40
1.0
 10
5.4362529434
 20
0.4324350156
 30
0.0
 10
5.4482511039
 20
0.4356462116
 30
0.0
 10
5.4717789177
 20
0.4428804616
 30
0.0
 10
5.5057249661
 20
0.4562351236
 30
0.0
 10
5.5376697268
 20
0.4718896285
 30
0.0
 10
5.5672998698
 20
0.4896770667
 30
0.0
 10
5.5943346148
 20
0.5094420012
 30
0.0
 10
5.618525125
 20
0.5309986773
 30
0.0
 10
5.6396133687
 20
0.554146828
 30
0.0
 10
5.6516774575
 20
0.5707584887
 30
0.0
 10
5.6570852913
 20
0.5792410859
 30
0.0
  0
SPLINE
  5
240
100
AcDbEntity
  8
0
100
AcDbSpline
 62
7
  6
CONTINUOUS
 70
0
 71
3
 72
22
 73
18
 74
0
 42
0.0000001
 43
0.0000001
 44
0.0000000001
 40
0.0
 40
0.0
 40
0.0
 40
0.0
 40
0.0522657201
 40
0.1053700916
 40
0.1595529438
 40
0.2150206016
 40
0.2719350366
 40
0.330411494
 40
0.3905292909
 40
0.4523217829
 40
0.5157825091
 40
0.5808771008
 40
0.6475337393
 40
0.7156523353
 40
0.7851145901
 40
0.8557775302
 40
1.0
 40
1.0
 40
1.0
 40
1.0
 10
4.9176898589
 20
0.6423719028
 30
0.0
 10
4.9190443331
 20
0.6357109339
 30
0.0
 10
4.9225018289
 20
0.6224193838
 30
0.0
 10
4.9297922254
 20
0.6029557893
 30
0.0
 10
4.9391674654
 20
0.5839404161
 30
0.0
 10
4.9505783638
 20
0.5654903943
 30
0.0
 10
4.9639495392
 20
0.5477070456
 30
0.0
 10
4.9791974982
 20
0.5306861081
 30
0.0
 10
4.9962411815
 20
0.5145297892
 30
0.0
 10
5.0149765949
 20
0.4993227044
 30
0.0
 10
5.0352955622
 20
0.4851456663
 30
0.0
 10
5.0570887731
 20
0.4720852433
 30
0.0
 10
5.0802293745
 20
0.4602065256
 30
0.0
 10
5.1045875059
 20
0.4495728349
 30
0.0
 10
5.1300331564
 20
0.4402505941
 30
0.0
 10
5.1654483083
 20
0.4295570214
 30
0.0
 10
5.1928627639
 20
0.423758036
 30
0.0
 10
5.211392916
 20
0.4208529713
 30
0.0
  0
SPLINE
  5
241
100
AcDbEntity
  8
0
100
AcDbSpline
 62
7
  6
CONTINUOUS
 70
0
 71
3
 72
10
 73
6
 74
0
 42
0.0000001
 43
0.0000001
 44
0.0000000001
 40
0.0
 40
0.0
 40
0.0
 40
0.0
 40
0.5032060853
 40
0.7530471165
 40
1.0
 40
1.0
 40
1.0
 40
1.0
 10
5.2985968926
 20
0.4143093347
 30
0.0
 10
5.321939194
 20
0.4144154475
 30
0.0
 10
5.3569161371
 20
0.4167701378
 30
0.0
 10
5.4027100727
 20
0.4242904803
 30
0.0
 10
5.4251842573
 20
0.4294830546
 30
0.0
 10
5.4362529434
 20
0.4324350156
 30
0.0
  0
SPLINE
  5
242
100
AcDbEntity
  8
0
100
AcDbSpline
 62
7
  6
CONTINUOUS
 70
0
 71
3
 72
17
 73
13
 74
0
 42
0.0000001
 43
0.0000001
 44
0.0000000001
 40
0.0
 40
0.0
 40
0.0
 40
0.0
 40
0.1110836099
 40
0.1684774991
 40
0.2270670452
 40
0.3476570822
 40
0.4095842691
 40
0.4724899602
 40
0.6008811383
 40
0.7321811164
 40
0.8655978241
 40
1.0
 40
1.0
 40
1.0
 40
1.0
 10
4.9760837949
 20
0.6135910013
 30
0.0
 10
4.9854273537
 20
0.6048487021
 30
0.0
 10
5.000462217
 20
0.5924818703
 30
0.0
 10
5.022004809
 20
0.5776334626
 30
0.0
 10
5.0452659739
 20
0.5634138521
 30
0.0
 10
5.070097504
 20
0.550847362
 30
0.0
 10
5.0961920393
 20
0.5399515397
 30
0.0
 10
5.1236219221
 20
0.5300010344
 30
0.0
 10
5.1594091186
 20
0.5197915663
 30
0.0
 10
5.2039323106
 20
0.5112356884
 30
0.0
 10
5.2497086364
 20
0.5064425978
 30
0.0
 10
5.2805933439
 20
0.5057840195
 30
0.0
 10
5.2960719138
 20
0.5060982306
 30
0.0
  0
SPLINE
  5
243
100
AcDbEntity
  8
0
100
AcDbSpline
 62
7
  6
CONTINUOUS
 70
0
 71
3
 72
28
 73
24
 74
0
 42
0.0000001
 43
0.0000001
 44
0.0000000001
 40
0.0
 40
0.0
 40
0.0
 40
0.0
 40
0.0257109422
 40
0.0514840028
 40
0.0773793766
 40
0.1034552812
 40
0.1297680235
 40
0.1563703517
 40
0.2105997867
 40
0.238332675
 40
0.266514786
 40
0.3243009108
 40
0.3841176755
 40
0.4460228088
 40
0.5099832845
 40
0.5759031528
 40
0.6095530811
 40
0.6436224553
 40
0.7128886407
 40
0.783467973
 40
0.8550930659
 40
0.9274236726
 40
1.0
 40
1.0
 40
1.0
 40
1.0
 10
4.7960719138
 20
0.8852309534
 30
0.0
 10
4.7960719138
 20
0.8794448433
 30
0.0
 10
4.7964763486
 20
0.8678546433
 30
0.0
 10
4.7982887432
 20
0.8505222041
 30
0.0
 10
4.8013003787
 20
0.8332733743
 30
0.0
 10
4.8055039282
 20
0.8161512562
 30
0.0
 10
4.8108940616
 20
0.799197195
 30
0.0
 10
4.8196982674
 20
0.7767351682
 30
0.0
 10
4.8308003928
 20
0.7548867233
 30
0.0
 10
4.8439793644
 20
0.733880555
 30
0.0
 10
4.8588379466
 20
0.7130322383
 30
0.0
 10
4.8801470989
 20
0.6879916378
 30
0.0
 10
4.9094804863
 20
0.6601163641
 30
0.0
 10
4.9425229746
 20
0.6344313864
 30
0.0
 10
4.9789377435
 20
0.6111582974
 30
0.0
 10
5.0115945008
 20
0.5940888543
 30
0.0
 10
5.0390527026
 20
0.5818033146
 30
0.0
 10
5.067678295
 20
0.5703412321
 30
0.0
 10
5.1048453345
 20
0.5579431419
 30
0.0
 10
5.1510288967
 20
0.5462871889
 30
0.0
 10
5.1986142206
 20
0.537881218
 30
0.0
 10
5.2471174036
 20
0.5328153629
 30
0.0
 10
5.2797389991
 20
0.5316775628
 30
0.0
 10
5.2960719138
 20
0.5316775628
 30
0.0
  0
SPLINE
  5
244
100
AcDbEntity
  8
0
100
AcDbSpline
 62
7
  6
CONTINUOUS
 70
0
 71
3
 72
14
 73
10
 74
0
 42
0.0000001
 43
0.0000001
 44
0.0000000001
 40
0.0
 40
0.0
 40
0.0
 40
0.0
 40
0.118821433
 40
0.238303386
 40
0.3590754554
 40
0.481729796
 40
0.606780895
 40
0.7346621457
 40
1.0
 40
1.0
 40
1.0
 40
1.0
 10
5.7960719138
 20
0.8852309534
 30
0.0
 10
5.7960719138
 20
0.8764095946
 30
0.0
 10
5.7951288889
 20
0.8587038006
 30
0.0
 10
5.7909141352
 20
0.832334605
 30
0.0
 10
5.7839231151
 20
0.8062651225
 30
0.0
 10
5.7741846451
 20
0.7806538216
 30
0.0
 10
5.7617698953
 20
0.7556366592
 30
0.0
 10
5.7415116361
 20
0.7228767298
 30
0.0
 10
5.7228235339
 20
0.7002071532
 30
0.0
 10
5.7091495248
 20
0.6860274333
 30
0.0
  0
SPLINE
  5
245
100
AcDbEntity
  8
0
100
AcDbSpline
 62
7
  6
CONTINUOUS
 70
0
 71
3
 72
20
 73
16
 74
0
 42
0.0000001
 43
0.0000001
 44
0.0000000001
 40
0.0
 40
0.0
 40
0.0
 40
0.0
 40
0.0550902145
 40
0.1113726382
 40
0.1688496543
 40
0.2275044064
 40
0.2873082536
 40
0.348219732
 40
0.4101752917
 40
0.4730992012
 40
0.6014820759
 40
0.6667994629
 40
0.7327301661
 40
0.865955273
 40
1.0
 40
1.0
 40
1.0
 40
1.0
 10
5.7091495248
 20
0.6860274333
 30
0.0
 10
5.7033831776
 20
0.6800478273
 30
0.0
 10
5.6913248606
 20
0.6683394701
 30
0.0
 10
5.6719717192
 20
0.6517723074
 30
0.0
 10
5.6512336422
 20
0.6360680724
 30
0.0
 10
5.6291904556
 20
0.6212818549
 30
0.0
 10
5.6059205161
 20
0.6074696643
 30
0.0
 10
5.5815069524
 20
0.5946877531
 30
0.0
 10
5.556043705
 20
0.5829756473
 30
0.0
 10
5.5205905593
 20
0.5687483889
 30
0.0
 10
5.4836600548
 20
0.5569659122
 30
0.0
 10
5.4456284636
 20
0.5476361587
 30
0.0
 10
5.4064972891
 20
0.5398805851
 30
0.0
 10
5.3566053048
 20
0.5334147365
 30
0.0
 10
5.3162844174
 20
0.5316775628
 30
0.0
 10
5.2960719138
 20
0.5316775628
 30
0.0
  0
SPLINE
  5
246
100
AcDbEntity
  8
0
100
AcDbSpline
 62
7
  6
CONTINUOUS
 70
0
 71
3
 72
11
 73
7
 74
0
 42
0.0000001
 43
0.0000001
 44
0.0000000001
 40
0.0
 40
0.0
 40
0.0
 40
0.0
 40
0.2441924772
 40
0.4916494572
 40
0.743354311
 40
1.0
 40
1.0
 40
1.0
 40
1.0
 10
5.6898616627
 20
0.6673285451
 30
0.0
 10
5.688750632
 20
0.6597083552
 30
0.0
 10
5.6856777552
 20
0.6444754007
 30
0.0
 10
5.6786103004
 20
0.6220808352
 30
0.0
 10
5.6691337311
 20
0.6001685144
 30
0.0
 10
5.6613404048
 20
0.5861257354
 30
0.0
 10
5.6570852913
 20
0.5792410859
 30
0.0
  0
SPLINE
  5
247
100
AcDbEntity
  8
0
100
AcDbSpline
 62
7
  6
CONTINUOUS
 70
0
 71
3
 72
14
 73
10
 74
0
 42
0.0000001
 43
0.0000001
 44
0.0000000001
 40
0.0
 40
0.0
 40
0.0
 40
0.0
 40
0.1167852535
 40
0.2366966725
 40
0.3594220777
 40
0.4845766451
 40
0.7403253829
 40
0.8700509688
 40
1.0
 40
1.0
 40
1.0
 40
1.0
 10
5.5679691695
 20
0.5886204445
 30
0.0
 10
5.5587648218
 20
0.5822163272
 30
0.0
 10
5.5395303472
 20
0.5700511272
 30
0.0
 10
5.508916803
 20
0.5540486303
 30
0.0
 10
5.4764151019
 20
0.5401482324
 30
0.0
 10
5.430631847
 20
0.5244822628
 30
0.0
 10
5.3826190578
 20
0.5136508058
 30
0.0
 10
5.333466392
 20
0.5076961543
 30
0.0
 10
5.3085463165
 20
0.5063514578
 30
0.0
 10
5.2960719138
 20
0.5060982306
 30
0.0
  0
SPLINE
  5
248
100
AcDbEntity
  8
0
100
AcDbSpline
 62
7
  6
CONTINUOUS
 70
0
 71
3
 72
22
 73
18
 74
0
 42
0.0000001
 43
0.0000001
 44
0.0000000001
 40
0.0
 40
0.0
 40
0.0
 40
0.0
 40
0.1345905886
 40
0.1993430156
 40
0.2625439368
 40
0.3243850591
 40
0.3851124355
 40
0.4450131496
 40
0.5044038446
 40
0.5636251168
 40
0.6230210614
 40
0.6829318768
 40
0.7436734423
 40
0.8055309797
 40
0.8687504727
 40
0.9335237195
 40
1.0
 40
1.0
 40
1.0
 40
1.0
 10
4.9209363698
 20
1.1787740661
 30
0.0
 10
4.9068019564
 20
1.1656201409
 30
0.0
 10
4.8873016033
 20
1.144458708
 30
0.0
 10
4.8656891102
 20
1.1135642602
 30
0.0
 10
4.8521869162
 20
1.0898706233
 30
0.0
 10
4.8412885505
 20
1.065502926
 30
0.0
 10
4.833060918
 20
1.0406039165
 30
0.0
 10
4.8275464498
 20
1.0153247502
 30
0.0
 10
4.8247957989
 20
0.9898134973
 30
0.0
 10
4.8248164683
 20
0.9642268548
 30
0.0
 10
4.8276070096
 20
0.9387177667
 30
0.0
 10
4.833161732
 20
0.9134430232
 30
0.0
 10
4.8414291927
 20
0.8885512544
 30
0.0
 10
4.8523652152
 20
0.8641922492
 30
0.0
 10
4.8659031687
 20
0.8405119336
 30
0.0
 10
4.8819471045
 20
0.8176440881
 30
0.0
 10
4.8940958539
 20
0.8032231919
 30
0.0
 10
4.9005350562
 20
0.796188726
 30
0.0
  0
SPLINE
  5
249
100
AcDbEntity
  8
0
100
AcDbSpline
 62
7
  6
CONTINUOUS
 70
0
 71
3
 72
13
 73
9
 74
0
 42
0.0000001
 43
0.0000001
 44
0.0000000001
 40
0.0
 40
0.0
 40
0.0
 40
0.0
 40
0.2308146034
 40
0.3523768684
 40
0.4774300419
 40
0.6054248038
 40
0.7357112118
 40
1.0
 40
1.0
 40
1.0
 40
1.0
 10
4.9324978306
 20
0.7653122154
 30
0.0
 10
4.9553151739
 20
0.7457373226
 30
0.0
 10
4.9936798967
 20
0.7197784394
 30
0.0
 10
5.0496031427
 20
0.6924836868
 30
0.0
 10
5.0952632921
 20
0.675082392
 30
0.0
 10
5.1433251824
 20
0.6613367354
 30
0.0
 10
5.2101292363
 20
0.6480297101
 30
0.0
 10
5.2616485363
 20
0.6440515349
 30
0.0
 10
5.2960719113
 20
0.6440512877
 30
0.0
  0
SPLINE
  5
24A
100
AcDbEntity
  8
0
100
AcDbSpline
 62
7
  6
CONTINUOUS
 70
0
 71
3
 72
13
 73
9
 74
0
 42
0.0000001
 43
0.0000001
 44
0.0000000001
 40
0.0
 40
0.0
 40
0.0
 40
0.0
 40
0.2643216977
 40
0.3946193929
 40
0.5226198493
 40
0.6476726617
 40
0.7692266904
 40
1.0
 40
1.0
 40
1.0
 40
1.0
 10
5.2960719113
 20
0.6440512884
 30
0.0
 10
5.3305394574
 20
0.6440515542
 30
0.0
 10
5.3821245715
 20
0.6480398431
 30
0.0
 10
5.4490090785
 20
0.6613810094
 30
0.0
 10
5.4971237349
 20
0.6751612809
 30
0.0
 10
5.5428277727
 20
0.6926059779
 30
0.0
 10
5.5987920123
 20
0.7199664773
 30
0.0
 10
5.6371735575
 20
0.7459876006
 30
0.0
 10
5.6599904964
 20
0.7656081541
 30
0.0
  0
SPLINE
  5
24B
100
AcDbEntity
  8
0
100
AcDbSpline
 62
7
  6
CONTINUOUS
 70
0
 71
3
 72
22
 73
18
 74
0
 42
0.0000001
 43
0.0000001
 44
0.0000000001
 40
0.0
 40
0.0
 40
0.0
 40
0.0
 40
0.0663710237
 40
0.1310558173
 40
0.194205178
 40
0.2560114637
 40
0.3167209691
 40
0.3766193189
 40
0.4360213037
 40
0.4952647539
 40
0.5546905583
 40
0.6146355214
 40
0.6754120594
 40
0.7373024016
 40
0.8005498657
 40
0.8653442704
 40
1.0
 40
1.0
 40
1.0
 40
1.0
 10
5.6931268947
 20
0.7978582853
 30
0.0
 10
5.6994767898
 20
0.8048865885
 30
0.0
 10
5.7114510227
 20
0.8192894469
 30
0.0
 10
5.7272435426
 20
0.8421092516
 30
0.0
 10
5.7405480647
 20
0.8657241805
 30
0.0
 10
5.7512710175
 20
0.8900017487
 30
0.0
 10
5.7593467813
 20
0.914798206
 30
0.0
 10
5.7647338448
 20
0.9399655095
 30
0.0
 10
5.7673826561
 20
0.9653573043
 30
0.0
 10
5.767287357
 20
0.9908192057
 30
0.0
 10
5.7644488696
 20
1.0162005525
 30
0.0
 10
5.7588737313
 20
1.0413468263
 30
0.0
 10
5.7506127984
 20
1.066111896
 30
0.0
 10
5.7397099949
 20
1.0903475143
 30
0.0
 10
5.7262292739
 20
1.1139121598
 30
0.0
 10
5.7046817489
 20
1.1446387994
 30
0.0
 10
5.685265378
 20
1.1656924037
 30
0.0
 10
5.6711971863
 20
1.1787836541
 30
0.0
  0
SPLINE
  5
24C
100
AcDbEntity
  8
0
100
AcDbSpline
 62
7
  6
CONTINUOUS
 70
0
 71
3
 72
9
 73
5
 74
0
 42
0.0000001
 43
0.0000001
 44
0.0000000001
 40
0.0
 40
0.0
 40
0.0
 40
0.0
 40
0.2472442262
 40
1.0
 40
1.0
 40
1.0
 40
1.0
 10
5.1852262669
 20
0.5149526827
 30
0.0
 10
5.1925970866
 20
0.5134270571
 30
0.0
 10
5.2225543359
 20
0.5079766442
 30
0.0
 10
5.2530222809
 20
0.5053698883
 30
0.0
 10
5.2759355851
 20
0.5049729789
 30
0.0
  0
SPLINE
  5
24D
100
AcDbEntity
  8
0
100
AcDbSpline
 62
7
  6
CONTINUOUS
 70
0
 71
3
 72
14
 73
10
 74
0
 42
0.0000001
 43
0.0000001
 44
0.0000000001
 40
0.0
 40
0.0
 40
0.0
 40
0.0
 40
0.2643129071
 40
0.3946064048
 40
0.5226027535
 40
0.6476514568
 40
0.7089097962
 40
0.7692347285
 40
1.0
 40
1.0
 40
1.0
 40
1.0
 10
5.2960719138
 20
0.6024562425
 30
0.0
 10
5.3326498021
 20
0.6024559387
 30
0.0
 10
5.3873935874
 20
0.6066889071
 30
0.0
 10
5.4583726039
 20
0.6208472989
 30
0.0
 10
5.5094348436
 20
0.6354712986
 30
0.0
 10
5.5501265297
 20
0.6510017505
 30
0.0
 10
5.5811241235
 20
0.6653224482
 30
0.0
 10
5.6243847225
 20
0.6878061422
 30
0.0
 10
5.6580585237
 20
0.7106336321
 30
0.0
 10
5.6822723197
 20
0.7314555941
 30
0.0
  0
SPLINE
  5
24E
100
AcDbEntity
  8
0
100
AcDbSpline
 62
7
  6
CONTINUOUS
 70
0
 71
3
 72
13
 73
9
 74
0
 42
0.0000001
 43
0.0000001
 44
0.0000000001
 40
0.0
 40
0.0
 40
0.0
 40
0.0
 40
0.262076896
 40
0.5154357737
 40
0.6391524576
 40
0.7610390416
 40
0.8812573068
 40
1.0
 40
1.0
 40
1.0
 40
1.0
 10
5.699787774
 20
0.7474280815
 30
0.0
 10
5.7092565764
 20
0.7565921667
 30
0.0
 10
5.7269870087
 20
0.775569728
 30
0.0
 10
5.7462492117
 20
0.801386567
 30
0.0
 10
5.7594138857
 20
0.8227581665
 30
0.0
 10
5.7681002353
 20
0.8389851201
 30
0.0
 10
5.7756497644
 20
0.8554958539
 30
0.0
 10
5.7799363232
 20
0.8667308842
 30
0.0
 10
5.7818795587
 20
0.8723761634
 30
0.0
  0
SPLINE
  5
24F
100
AcDbEntity
  8
0
100
AcDbSpline
 62
7
  6
CONTINUOUS
 70
0
 71
3
 72
11
 73
7
 74
0
 42
0.0000001
 43
0.0000001
 44
0.0000000001
 40
0.0
 40
0.0
 40
0.0
 40
0.0
 40
0.2530003972
 40
0.5034520886
 40
0.7521639683
 40
1.0
 40
1.0
 40
1.0
 40
1.0
 10
5.7818795587
 20
0.8723761634
 30
0.0
 10
5.7842181016
 20
0.8791698472
 30
0.0
 10
5.7883366333
 20
0.8928803249
 30
0.0
 10
5.792795222
 20
0.9137945202
 30
0.0
 10
5.7954744241
 20
0.9348628328
 30
0.0
 10
5.7960695425
 20
0.9489713656
 30
0.0
 10
5.7960694831
 20
0.956009613
 30
0.0
  0
SPLINE
  5
250
100
AcDbEntity
  8
0
100
AcDbSpline
 62
7
  6
CONTINUOUS
 70
0
 71
3
 72
9
 73
5
 74
0
 42
0.0000001
 43
0.0000001
 44
0.0000000001
 40
0.0
 40
0.0
 40
0.0
 40
0.0
 40
0.2472083393
 40
1.0
 40
1.0
 40
1.0
 40
1.0
 10
5.1855328083
 20
0.4643804261
 30
0.0
 10
5.1931776116
 20
0.4628034218
 30
0.0
 10
5.2242578602
 20
0.4571990294
 30
0.0
 10
5.2558816394
 20
0.4546500782
 30
0.0
 10
5.2796503495
 20
0.4544134754
 30
0.0
  0
SPLINE
  5
251
100
AcDbEntity
  8
0
100
AcDbSpline
 62
7
  6
CONTINUOUS
 70
0
 71
3
 72
21
 73
17
 74
0
 42
0.0000001
 43
0.0000001
 44
0.0000000001
 40
0.0
 40
0.0
 40
0.0
 40
0.0
 40
0.0511816642
 40
0.103673837
 40
0.1576773561
 40
0.2133310703
 40
0.2707235077
 40
0.3298987576
 40
0.4534259277
 40
0.5177280979
 40
0.583531463
 40
0.7189480706
 40
0.7882847279
 40
0.8584305927
 40
0.9291085335
 40
1.0
 40
1.0
 40
1.0
 40
1.0
 10
4.9142561357
 20
0.6571812609
 30
0.0
 10
4.9171378382
 20
0.6499967112
 30
0.0
 10
4.923790659
 20
0.6357582378
 30
0.0
 10
4.9361183239
 20
0.6152976114
 30
0.0
 10
4.9508358042
 20
0.5956314377
 30
0.0
 10
4.9678277953
 20
0.5768871614
 30
0.0
 10
4.9869854592
 20
0.5591896389
 30
0.0
 10
5.0156522598
 20
0.5368453473
 30
0.0
 10
5.0477798857
 20
0.5174580617
 30
0.0
 10
5.0825326504
 20
0.5011691003
 30
0.0
 10
5.1199805456
 20
0.4865919012
 30
0.0
 10
5.1595036185
 20
0.4755107123
 30
0.0
 10
5.2003987663
 20
0.4679190581
 30
0.0
 10
5.2319600504
 20
0.4639832828
 30
0.0
 10
5.2639273563
 20
0.4618703245
 30
0.0
 10
5.2853522019
 20
0.4616859382
 30
0.0
 10
5.2960719138
 20
0.4619035457
 30
0.0
  0
SPLINE
  5
252
100
AcDbEntity
  8
0
100
AcDbSpline
 62
7
  6
CONTINUOUS
 70
0
 71
3
 72
14
 73
10
 74
0
 42
0.0000001
 43
0.0000001
 44
0.0000000001
 40
0.0
 40
0.0
 40
0.0
 40
0.0
 40
0.1360494037
 40
0.2697195262
 40
0.5273759908
 40
0.6510084303
 40
0.770960244
 40
0.8872455265
 40
1.0
 40
1.0
 40
1.0
 40
1.0
 10
5.4362529434
 20
0.4324350156
 30
0.0
 10
5.447856503
 20
0.4357924579
 30
0.0
 10
5.4706349055
 20
0.4432734553
 30
0.0
 10
5.5139511982
 20
0.4611239093
 30
0.0
 10
5.5541707079
 20
0.4833826171
 30
0.0
 10
5.5900077837
 20
0.5098527708
 30
0.0
 10
5.6138962323
 20
0.5311478897
 30
0.0
 10
5.6349469457
 20
0.5539524397
 30
0.0
 10
5.6471334124
 20
0.5702913028
 30
0.0
 10
5.652658531
 20
0.5786398145
 30
0.0
  0
SPLINE
  5
253
100
AcDbEntity
  8
0
100
AcDbSpline
 62
7
  6
CONTINUOUS
 70
0
 71
3
 72
11
 73
7
 74
0
 42
0.0000001
 43
0.0000001
 44
0.0000000001
 40
0.0
 40
0.0
 40
0.0
 40
0.0
 40
0.2550506428
 40
0.5063061642
 40
0.7543932121
 40
1.0
 40
1.0
 40
1.0
 40
1.0
 10
5.6646919338
 20
0.5987218521
 30
0.0
 10
5.6675894067
 20
0.6041016863
 30
0.0
 10
5.672952169
 20
0.6149969014
 30
0.0
 10
5.6796724327
 20
0.6317938689
 30
0.0
 10
5.6849830015
 20
0.6488518445
 30
0.0
 10
5.6875836416
 20
0.6604060065
 30
0.0
 10
5.688638674
 20
0.666194876
 30
0.0
  0
SPLINE
  5
254
100
AcDbEntity
  8
0
100
AcDbSpline
 62
7
  6
CONTINUOUS
 70
0
 71
3
 72
23
 73
19
 74
0
 42
0.0000001
 43
0.0000001
 44
0.0000000001
 40
0.0
 40
0.0
 40
0.0
 40
0.0
 40
0.0514596786
 40
0.1034074731
 40
0.1563011719
 40
0.2105366174
 40
0.2664358649
 40
0.3242272846
 40
0.3840542497
 40
0.4459656384
 40
0.5099356636
 40
0.5758592361
 40
0.6435743286
 40
0.712859678
 40
0.7834550542
 40
0.8550611509
 40
0.9273562602
 40
1.0
 40
1.0
 40
1.0
 40
1.0
 10
5.6710719138
 20
1.238784344
 30
0.0
 10
5.6710719138
 20
1.2300998871
 30
0.0
 10
5.6698497293
 20
1.2126250952
 30
0.0
 10
5.664396611
 20
1.1867376012
 30
0.0
 10
5.6553658195
 20
1.1613726776
 30
0.0
 10
5.6428717306
 20
1.1367802463
 30
0.0
 10
5.6270314522
 20
1.1132022578
 30
0.0
 10
5.6080194482
 20
1.0908529013
 30
0.0
 10
5.5860128108
 20
1.0699512347
 30
0.0
 10
5.5612363156
 20
1.050680953
 30
0.0
 10
5.5339203842
 20
1.0332332838
 30
0.0
 10
5.5043343948
 20
1.0177591845
 30
0.0
 10
5.4727553264
 20
1.0044159991
 30
0.0
 10
5.4394897986
 20
0.9933168336
 30
0.0
 10
5.4048519076
 20
0.9845788731
 30
0.0
 10
5.3691749579
 20
0.9782722551
 30
0.0
 10
5.332800106
 20
0.9744691892
 30
0.0
 10
5.3083314429
 20
0.9736193011
 30
0.0
 10
5.2960719138
 20
0.9736193011
 30
0.0
  0
SPLINE
  5
255
100
AcDbEntity
  8
0
100
AcDbSpline
 62
7
  6
CONTINUOUS
 70
0
 71
3
 72
15
 73
11
 74
0
 42
0.0000001
 43
0.0000001
 44
0.0000000001
 40
0.0
 40
0.0
 40
0.0
 40
0.0
 40
0.1329249449
 40
0.2650722932
 40
0.3954716019
 40
0.5234273904
 40
0.6483615718
 40
0.7095441191
 40
0.7697793048
 40
1.0
 40
1.0
 40
1.0
 40
1.0
 10
5.2960719138
 20
0.512412183
 30
0.0
 10
5.2819900983
 20
0.5121263258
 30
0.0
 10
5.253875905
 20
0.5126216526
 30
0.0
 10
5.212114371
 20
0.5165171111
 30
0.0
 10
5.1712940499
 20
0.5235440058
 30
0.0
 10
5.1318991274
 20
0.5335936374
 30
0.0
 10
5.1004029788
 20
0.5444713566
 30
0.0
 10
5.0763315688
 20
0.5545950841
 30
0.0
 10
5.0426679787
 20
0.5705545409
 30
0.0
 10
5.0162697361
 20
0.5869154511
 30
0.0
 10
4.9970652625
 20
0.6019575106
 30
0.0
  0
SPLINE
  5
256
100
AcDbEntity
  8
0
100
AcDbSpline
 62
7
  6
CONTINUOUS
 70
0
 71
3
 72
11
 73
7
 74
0
 42
0.0000001
 43
0.0000001
 44
0.0000000001
 40
0.0
 40
0.0
 40
0.0
 40
0.0
 40
0.2477102074
 40
0.4963484696
 40
0.7468279367
 40
1.0
 40
1.0
 40
1.0
 40
1.0
 10
4.7960743446
 20
0.9560096131
 30
0.0
 10
4.7960744058
 20
0.9487633798
 30
0.0
 10
4.7967056369
 20
0.934235974
 30
0.0
 10
4.7995454396
 20
0.9125479844
 30
0.0
 10
4.804271262
 20
0.8910284155
 30
0.0
 10
4.8086341766
 20
0.8769351911
 30
0.0
 10
4.8111106101
 20
0.8699554895
 30
0.0
  0
SPLINE
  5
257
100
AcDbEntity
  8
0
100
AcDbSpline
 62
7
  6
CONTINUOUS
 70
0
 71
3
 72
12
 73
8
 74
0
 42
0.0000001
 43
0.0000001
 44
0.0000000001
 40
0.0
 40
0.0
 40
0.0
 40
0.0
 40
0.2400776688
 40
0.3623316666
 40
0.4862158851
 40
0.7392426759
 40
1.0
 40
1.0
 40
1.0
 40
1.0
 10
4.8111106101
 20
0.8699554895
 30
0.0
 10
4.8147216442
 20
0.8597779743
 30
0.0
 10
4.8210935663
 20
0.8447252471
 30
0.0
 10
4.8312873139
 20
0.8253669484
 30
0.0
 10
4.8428253929
 20
0.8060924829
 30
0.0
 10
4.8595191653
 20
0.7827007985
 30
0.0
 10
4.8747980842
 20
0.7653052438
 30
0.0
 10
4.8829390803
 20
0.7568612062
 30
0.0
  0
SPLINE
  5
258
100
AcDbEntity
  8
0
100
AcDbSpline
 62
7
  6
CONTINUOUS
 70
0
 71
3
 72
10
 73
6
 74
0
 42
0.0000001
 43
0.0000001
 44
0.0000000001
 40
0.0
 40
0.0
 40
0.0
 40
0.0
 40
0.4866508783
 40
0.7402277738
 40
1.0
 40
1.0
 40
1.0
 40
1.0
 10
4.9102371073
 20
0.7311415845
 30
0.0
 10
4.9286583391
 20
0.7153378954
 30
0.0
 10
4.9588340169
 20
0.6937076029
 30
0.0
 10
5.0023843338
 20
0.6693561411
 30
0.0
 10
5.02559795
 20
0.6584886127
 30
0.0
 10
5.0375121905
 20
0.6533986815
 30
0.0
  0
SPLINE
  5
259
100
AcDbEntity
  8
0
100
AcDbSpline
 62
7
  6
CONTINUOUS
 70
0
 71
3
 72
11
 73
7
 74
0
 42
0.0000001
 43
0.0000001
 44
0.0000000001
 40
0.0
 40
0.0
 40
0.0
 40
0.0
 40
0.243334416
 40
0.4923080373
 40
0.7451665971
 40
1.0
 40
1.0
 40
1.0
 40
1.0
 10
5.0553267367
 20
0.6461372471
 30
0.0
 10
5.0739241305
 20
0.6389127218
 30
0.0
 10
5.1123162385
 20
0.6262028201
 30
0.0
 10
5.1719589366
 20
0.612568992
 30
0.0
 10
5.2335274623
 20
0.6042979807
 30
0.0
 10
5.2751777329
 20
0.6024560685
 30
0.0
 10
5.2960719138
 20
0.6024562424
 30
0.0
  0
SPLINE
  5
25A
100
AcDbEntity
  8
0
100
AcDbSpline
 62
7
  6
CONTINUOUS
 70
0
 71
3
 72
23
 73
19
 74
0
 42
0.0000001
 43
0.0000001
 44
0.0000000001
 40
0.0
 40
0.0
 40
0.0
 40
0.0
 40
0.072623829
 40
0.1449001997
 40
0.2164898334
 40
0.2870720448
 40
0.3563483404
 40
0.4240591285
 40
0.489983432
 40
0.5539592329
 40
0.6158809504
 40
0.6757219312
 40
0.7335295731
 40
0.7894453743
 40
0.843695247
 40
0.8965986104
 40
0.9485484296
 40
1.0
 40
1.0
 40
1.0
 40
1.0
 10
5.2960719138
 20
0.7827004702
 30
0.0
 10
5.2838313309
 20
0.7827004702
 30
0.0
 10
5.2594003274
 20
0.7835477472
 30
0.0
 10
5.2230804533
 20
0.7873391181
 30
0.0
 10
5.1874552788
 20
0.7936264893
 30
0.0
 10
5.1528644171
 20
0.802338015
 30
0.0
 10
5.1196397029
 20
0.8134040554
 30
0.0
 10
5.0880938815
 20
0.8267080541
 30
0.0
 10
5.0585323113
 20
0.8421376458
 30
0.0
 10
5.0312308864
 20
0.8595363358
 30
0.0
 10
5.0064579981
 20
0.8787541042
 30
0.0
 10
4.9844433031
 20
0.8996007438
 30
0.0
 10
4.9654108972
 20
0.9218936602
 30
0.0
 10
4.9495374595
 20
0.9454149616
 30
0.0
 10
4.9369971168
 20
0.9699517396
 30
0.0
 10
4.9279070109
 20
0.9952633618
 30
0.0
 10
4.9223816125
 20
1.0211013957
 30
0.0
 10
4.9211029506
 20
1.0385485343
 30
0.0
 10
4.9210730267
 20
1.0472205291
 30
0.0
  0
SPLINE
  5
25B
100
AcDbEntity
  8
0
100
AcDbSpline
 62
7
  6
CONTINUOUS
 70
0
 71
3
 72
23
 73
19
 74
0
 42
0.0000001
 43
0.0000001
 44
0.0000000001
 40
0.0
 40
0.0
 40
0.0
 40
0.0
 40
0.0726437398
 40
0.1449388491
 40
0.2165449458
 40
0.287140322
 40
0.3564256714
 40
0.4241407639
 40
0.4900643364
 40
0.5540343616
 40
0.6159457503
 40
0.6757727154
 40
0.7335641351
 40
0.7894633826
 40
0.8436988281
 40
0.8965925269
 40
0.9485403214
 40
1.0
 40
1.0
 40
1.0
 40
1.0
 10
5.2960719138
 20
0.9736193011
 30
0.0
 10
5.2838123847
 20
0.9736193011
 30
0.0
 10
5.2593437216
 20
0.9744691892
 30
0.0
 10
5.2229688698
 20
0.9782722551
 30
0.0
 10
5.18729192
 20
0.9845788731
 30
0.0
 10
5.152654029
 20
0.9933168336
 30
0.0
 10
5.1193885013
 20
1.0044159991
 30
0.0
 10
5.0878094328
 20
1.0177591845
 30
0.0
 10
5.0582234435
 20
1.0332332838
 30
0.0
 10
5.030907512
 20
1.050680953
 30
0.0
 10
5.0061310168
 20
1.0699512347
 30
0.0
 10
4.9841243794
 20
1.0908529013
 30
0.0
 10
4.9651123755
 20
1.1132022578
 30
0.0
 10
4.9492720971
 20
1.1367802463
 30
0.0
 10
4.9367780081
 20
1.1613726776
 30
0.0
 10
4.9277472166
 20
1.1867376012
 30
0.0
 10
4.9222940983
 20
1.2126250952
 30
0.0
 10
4.9210719138
 20
1.2300998871
 30
0.0
 10
4.9210719138
 20
1.238784344
 30
0.0
  0
SPLINE
  5
25C
100
AcDbEntity
  8
0
100
AcDbSpline
 62
7
  6
CONTINUOUS
 70
0
 71
3
 72
14
 73
10
 74
0
 42
0.0000001
 43
0.0000001
 44
0.0000000001
 40
0.0
 40
0.0
 40
0.0
 40
0.0
 40
0.1187089188
 40
0.2398633151
 40
0.4882229736
 40
0.6149178438
 40
0.7427847337
 40
0.8713388417
 40
1.0
 40
1.0
 40
1.0
 40
1.0
 10
5.537867341
 20
0.575950964
 30
0.0
 10
5.5291906047
 20
0.5709985976
 30
0.0
 10
5.5112917048
 20
0.5616199505
 30
0.0
 10
5.4736709172
 20
0.5450418168
 30
0.0
 10
5.4338596858
 20
0.5319942391
 30
0.0
 10
5.392592479
 20
0.5225087085
 30
0.0
 10
5.3607720282
 20
0.5171770208
 30
0.0
 10
5.3285331446
 20
0.5137029607
 30
0.0
 10
5.3068978469
 20
0.5126319467
 30
0.0
 10
5.2960719138
 20
0.512412183
 30
0.0
  0
SPLINE
  5
25D
100
AcDbEntity
  8
0
100
AcDbSpline
 62
7
  6
CONTINUOUS
 70
0
 71
3
 72
23
 73
19
 74
0
 42
0.0000001
 43
0.0000001
 44
0.0000000001
 40
0.0
 40
0.0
 40
0.0
 40
0.0
 40
0.0514515382
 40
0.103401366
 40
0.1563047685
 40
0.2105546995
 40
0.2664705675
 40
0.3242782748
 40
0.384119312
 40
0.446041071
 40
0.510016895
 40
0.5759412014
 40
0.6436519719
 40
0.7129282309
 40
0.783510389
 40
0.8550999564
 40
0.9273762514
 40
1.0
 40
1.0
 40
1.0
 40
1.0
 10
5.671070792
 20
1.0472179289
 30
0.0
 10
5.6710407476
 20
1.0385459845
 30
0.0
 10
5.6697618584
 20
1.0210989576
 30
0.0
 10
5.6642361691
 20
0.9952611234
 30
0.0
 10
5.6551458247
 20
0.9699497161
 30
0.0
 10
5.642605296
 20
0.9454131625
 30
0.0
 10
5.6267317252
 20
0.9218920896
 30
0.0
 10
5.6076992374
 20
0.8995994008
 30
0.0
 10
5.5856845103
 20
0.8787529829
 30
0.0
 10
5.5609116368
 20
0.8595354262
 30
0.0
 10
5.5336102706
 20
0.8421369334
 30
0.0
 10
5.5040487991
 20
0.8267075212
 30
0.0
 10
5.4725031119
 20
0.8134036803
 30
0.0
 10
5.4392785623
 20
0.8023377734
 30
0.0
 10
5.4046878903
 20
0.7936263541
 30
0.0
 10
5.3690629245
 20
0.7873390605
 30
0.0
 10
5.3327432721
 20
0.7835477366
 30
0.0
 10
5.3083124204
 20
0.7827004702
 30
0.0
 10
5.2960719138
 20
0.7827004702
 30
0.0
  0
SPLINE
  5
25E
100
AcDbEntity
  8
0
100
AcDbSpline
 62
7
  6
CONTINUOUS
 70
0
 71
3
 72
9
 73
5
 74
0
 42
0.0000001
 43
0.0000001
 44
0.0000000001
 40
0.0
 40
0.0
 40
0.0
 40
0.0
 40
0.4950798064
 40
1.0
 40
1.0
 40
1.0
 40
1.0
 10
5.6618117867
 20
0.6440290546
 30
0.0
 10
5.6585487138
 20
0.6382964673
 30
0.0
 10
5.6515036771
 20
0.6269706342
 30
0.0
 10
5.6436347993
 20
0.6162027405
 30
0.0
 10
5.6394768665
 20
0.6109142023
 30
0.0
  0
SPLINE
  5
25F
100
AcDbEntity
  8
0
100
AcDbSpline
 62
7
  6
CONTINUOUS
 70
0
 71
3
 72
19
 73
15
 74
0
 42
0.0000001
 43
0.0000001
 44
0.0000000001
 40
0.0
 40
0.0
 40
0.0
 40
0.0
 40
0.0555715317
 40
0.1122669526
 40
0.1700893007
 40
0.2290234496
 40
0.2890426272
 40
0.3501062028
 40
0.4121510873
 40
0.4751024566
 40
0.6033576233
 40
0.7342015325
 40
0.866809449
 40
1.0
 40
1.0
 40
1.0
 40
1.0
 10
5.6239559828
 20
0.5927466273
 30
0.0
 10
5.6193991556
 20
0.5878229958
 30
0.0
 10
5.6098661676
 20
0.5781740226
 30
0.0
 10
5.5945437386
 20
0.564486655
 30
0.0
 10
5.578114389
 20
0.5514849651
 30
0.0
 10
5.5606413974
 20
0.5392131823
 30
0.0
 10
5.5421867992
 20
0.5277164849
 30
0.0
 10
5.5228172056
 20
0.5170391977
 30
0.0
 10
5.5026080357
 20
0.5072131693
 30
0.0
 10
5.4744746125
 20
0.4952189366
 30
0.0
 10
5.437634687
 20
0.4825986178
 30
0.0
 10
5.3916237322
 20
0.4714155541
 30
0.0
 10
5.3442172749
 20
0.4642692741
 30
0.0
 10
5.3121476456
 20
0.4622298789
 30
0.0
 10
5.2960719138
 20
0.4619035457
 30
0.0
  0
ENDSEC
  0
SECTION
  2
OBJECTS
  0
DICTIONARY
  5
C
100
AcDbDictionary
280
0
281
1
  3
ACAD_GROUP
350
D
  3
ACAD_MLINESTYLE
350
17
  3
ACAD_LAYOUT
350
1A
  3
ACAD_PLOTSETTINGS
350
19
  3
ACAD_PLOTSTYLENAME
350
E
  0
DICTIONARY
  5
D
102
{ACAD_REACTORS
330
C
102
}
100
AcDbDictionary
280
0
281
1
  0
ACDBDICTIONARYWDFLT
  5
E
102
{ACAD_REACTORS
330
C
102
}
100
AcDbDictionary
281
1
  3
Normal
350
F
100
AcDbDictionaryWithDefault
340
F
  0
DICTIONARY
  5
17
102
{ACAD_REACTORS
330
C
102
}
100
AcDbDictionary
280
0
281
1
  3
Standard
350
18
  0
DICTIONARY
  5
19
102
{ACAD_REACTORS
330
C
102
}
100
AcDbDictionary
281
1
  0
DICTIONARY
  5
1A
102
{ACAD_REACTORS
330
C
102
}
100
AcDbDictionary
281
1
  3
Model
350
260
  3
Layout1
350
261
  0
ACDBPLACEHOLDER
  5
F
102
{ACAD_REACTORS
330
E
102
}
  0
MLINESTYLE
  5
18
102
{ACAD_REACTORS
330
17
102
}
100
AcDbMlineStyle
  2
STANDARD
 70
0
  3

 62
256
 51
90.0
 52
90.0
 71
2
 49
0.5
 62
256
  6
BYLAYER
 49
-0.5
 62
256
  6
BYLAYER
  0
LAYOUT
  5
260
102
{ACAD_REACTORS
330
1A
102
}
100
AcDbPlotSettings
  1

  2
none_device
  4
ANSI_A_(11.00_x_8.50_Inches)
  6

 40
0.0
 41
0.0
 42
0.0
 43
0.0
 44
279.4
 45
215.9
 46
0.0
 47
0.0
 48
0.0
 49
0.0
140
0.0
141
0.0
142
1.0
143
1.0
 70
1024
 72
0
 73
0
 74
0
  7

 75
0
147
1.0
148
0.0
149
0.0
100
AcDbLayout
  1
Model
 70
0
 71
0
 10
0.0
 20
0.0
 11
11.0
 21
8.5
 12
0.0
 22
0.0
 32
0.0
 14
0.0
 24
0.0
 34
0.0
 15
0.0
 25
0.0
 35
0.0
146
0.0
 13
0.0
 23
0.0
 33
0.0
 16
1.0
 26
0.0
 36
0.0
 17
0.0
 27
1.0
 37
0.0
 76
0
330
207
345
0
346
0
  0
LAYOUT
  5
261
102
{ACAD_REACTORS
330
1A
102
}
100
AcDbPlotSettings
  1

  2
none_device
  4
ANSI_A_(11.00_x_8.50_Inches)
  6

 40
0.0
 41
0.0
 42
0.0
 43
0.0
 44
279.4
 45
215.9
 46
0.0
 47
0.0
 48
0.0
 49
0.0
140
0.0
141
0.0
142
1.0
143
1.0
 70
0
 72
0
 73
0
 74
0
  7

 75
0
147
1.0
148
0.0
149
0.0
100
AcDbLayout
  1
Layout1
 70
0
 71
1
 10
0.0
 20
0.0
 11
11.0
 21
8.5
 12
0.0
 22
0.0
 32
0.0
 14
0.0
 24
0.0
 34
0.0
 15
0.0
 25
0.0
 35
0.0
146
0.0
 13
0.0
 23
0.0
 33
0.0
 16
1.0
 26
0.0
 36
0.0
 17
0.0
 27
1.0
 37
0.0
 76
0
330
208
345
0
346
0
  0
ENDSEC
  0
EOF
