999
DXF file: E:\BT Custom\CADOUTPUT\_FRONT.dxf
999
Pro/ENGINEER 2018400 by Parametric Technology Corporation
  0
SECTION
  2
HEADER
  9
$ACADVER
  1
AC1018
  9
$DWGCODEPAGE
  3
ANSI_1252
  9
$EXTMAX
 10
22.0
 20
17.0
 30
0.0
  9
$EXTMIN
 10
0.0
 20
0.0
 30
0.0
  9
$LIMMIN
 10
0.0
 20
0.0
  9
$LIMMAX
 10
22.0
 20
17.0
  9
$VIEWCTR
 10
11.0
 20
8.5
  9
$VIEWSIZE
 40
17.0
  9
$CLAYER
  8
0
  9
$LTSCALE
 40
1.21
  9
$CELTYPE
  6
BYLAYER
  9
$DIMSCALE
 40
1.0
  9
$DIMASZ
 40
0.1
  9
$DIMEXO
 40
0.0625
  9
$DIMDLI
 40
0.836
  9
$DIMEXE
 40
0.125
  9
$DIMCEN
 40
0.198
  9
$DIMLFAC
 40
1.0
  9
$DIMBLK
  1
_FILLED
  9
$DIMALT
 70
1
  9
$DIMALTD
 70
2
  9
$DIMALTTD
 70
2
  9
$DIMALTF
 40
25.4
  9
$DIMTXT
 40
0.08
  9
$DIMTOL
 70
1
  9
$DIMLIM
 70
0
  9
$DIMTFAC
 40
1.0
  9
$DIMTP
 40
0.001
  9
$DIMTM
 40
0.001
  9
$DIMGAP
 40
0.09
  9
$DIMDSEP
 70
46
  9
$AUNITS
 70
0
  9
$PDMODE
 70
3
  9
$PDSIZE
 40
0.06
  9
$HANDSEED
  5
5C4
  9
$TILEMODE
 70
1
  9
$MEASUREMENT
 70
0
  9
$INSUNITS
 70
1
  0
ENDSEC
  0
SECTION
  2
CLASSES
  0
CLASS
  1
ACDBDICTIONARYWDFLT
  2
AcDbDictionaryWithDefault
  3
AutoCAD 2000
 90
0
 91
1
280
0
281
0
  0
CLASS
  1
ACDBPLACEHOLDER
  2
AcDbPlaceHolder
  3
AutoCAD 2000
 90
0
 91
1
280
0
281
0
  0
CLASS
  1
LAYOUT
  2
AcDbLayout
  3
AutoCAD 2000
 90
0
 91
0
280
0
281
0
  0
ENDSEC
  0
SECTION
  2
TABLES
  0
TABLE
  2
VPORT
  5
8
100
AcDbSymbolTable
 70
2
  0
VPORT
  5
1F4
100
AcDbSymbolTableRecord
100
AcDbViewportTableRecord
  2
*ACTIVE
 70
0
 10
0.0
 20
0.0
 11
1.0
 21
1.0
 12
11.0
 22
8.5
 13
0.0
 23
0.0
 14
1.0
 24
1.0
 15
0.0
 25
0.0
 16
0.0
 26
0.0
 36
1.0
 17
0.0
 27
0.0
 37
0.0
 40
17.0
 41
1.2941176471
 42
50.0
 43
0.0
 44
0.0
 50
0.0
 51
0.0
 71
0
 72
100
 73
1
 74
1
 75
0
 76
0
 77
0
 78
0
  0
ENDTAB
  0
TABLE
  2
LTYPE
  5
5
100
AcDbSymbolTable
 70
6
  0
LTYPE
  5
14
100
AcDbSymbolTableRecord
100
AcDbLinetypeTableRecord
  2
BYBLOCK
 70
0
  3

 72
65
 73
0
 40
0.0
  0
LTYPE
  5
15
100
AcDbSymbolTableRecord
100
AcDbLinetypeTableRecord
  2
BYLAYER
 70
0
  3

 72
65
 73
0
 40
0.0
  0
LTYPE
  5
16
100
AcDbSymbolTableRecord
100
AcDbLinetypeTableRecord
  2
CONTINUOUS
 70
64
  3
Solid line
 72
65
 73
0
 40
0.0
  0
LTYPE
  5
1F5
100
AcDbSymbolTableRecord
100
AcDbLinetypeTableRecord
  2
CENTER
 70
64
  3
____ _ ____ _ ____ _ ____ _ ____ _ ____ _ ____
 72
65
 73
4
 40
0.6
 49
0.375
 74
0
 49
-0.075
 74
0
 49
0.075
 74
0
 49
-0.075
 74
0
  0
LTYPE
  5
1F6
100
AcDbSymbolTableRecord
100
AcDbLinetypeTableRecord
  2
HIDDEN
 70
64
  3
- - - - - - - - - - - - - - - - - - - -
 72
65
 73
2
 40
0.2
 49
0.1
 74
0
 49
-0.1
 74
0
  0
LTYPE
  5
1F7
100
AcDbSymbolTableRecord
100
AcDbLinetypeTableRecord
  2
PHANTOM
 70
64
  3
_____ _ _ _____ _ _ _____ _ _ _____
 72
65
 73
6
 40
0.8
 49
0.45
 74
0
 49
-0.05
 74
0
 49
0.1
 74
0
 49
-0.05
 74
0
 49
0.1
 74
0
 49
-0.05
 74
0
  0
LTYPE
  5
1F8
100
AcDbSymbolTableRecord
100
AcDbLinetypeTableRecord
  2
DOT
 70
64
  3
. . . . . . . . . . . . . . . . . . . .
 72
65
 73
2
 40
0.2
 49
0.1
 74
0
 49
-0.1
 74
0
  0
LTYPE
  5
1F9
100
AcDbSymbolTableRecord
100
AcDbLinetypeTableRecord
  2
DASHED
 70
64
  3
- - - - - - - - - - - - - - - - - - - -
 72
65
 73
2
 40
0.2
 49
0.1
 74
0
 49
-0.1
 74
0
  0
ENDTAB
  0
TABLE
  2
LAYER
  5
2
100
AcDbSymbolTable
 70
36
  0
LAYER
  5
10
100
AcDbSymbolTableRecord
100
AcDbLayerTableRecord
  2
0
 70
0
 62
7
  6
CONTINUOUS
370
-3
390
F
  0
LAYER
  5
1FA
100
AcDbSymbolTableRecord
100
AcDbLayerTableRecord
  2
DEFAULT_1
 70
0
 62
7
  6
CENTER
370
-3
390
F
  0
LAYER
  5
1FB
100
AcDbSymbolTableRecord
100
AcDbLayerTableRecord
  2
DEFAULT_2
 70
0
 62
8
  6
HIDDEN
370
-3
390
F
  0
LAYER
  5
1FC
100
AcDbSymbolTableRecord
100
AcDbLayerTableRecord
  2
DEFAULT_3
 70
0
 62
7
  6
PHANTOM
370
-3
390
F
  0
LAYER
  5
1FD
100
AcDbSymbolTableRecord
100
AcDbLayerTableRecord
  2
ALL_FEATURES
 70
0
 62
7
  6
CONTINUOUS
370
-3
390
F
  0
LAYER
  5
1FE
100
AcDbSymbolTableRecord
100
AcDbLayerTableRecord
  2
AXES_FEATURES
 70
0
 62
7
  6
CONTINUOUS
370
-3
390
F
  0
LAYER
  5
1FF
100
AcDbSymbolTableRecord
100
AcDbLayerTableRecord
  2
DIMENSIONS
 70
0
 62
7
  6
CONTINUOUS
370
-3
390
F
  0
ENDTAB
  0
TABLE
  2
STYLE
  5
3
100
AcDbSymbolTable
 70
1
  0
STYLE
  5
11
100
AcDbSymbolTableRecord
100
AcDbTextStyleTableRecord
  2
STANDARD
 70
0
 40
0.0
 41
0.8
 50
0.0
 71
0
 42
0.2
  3
txt
  4

  0
STYLE
  5
200
100
AcDbSymbolTableRecord
100
AcDbTextStyleTableRecord
  2
TEXTSTYLE_1
 70
0
 40
0.0
 41
0.8
 50
0.0
 71
0
 42
0.2
  3
gdt
  4

  0
ENDTAB
  0
TABLE
  2
VIEW
  5
6
100
AcDbSymbolTable
 70
0
  0
ENDTAB
  0
TABLE
  2
UCS
  5
7
100
AcDbSymbolTable
 70
0
  0
ENDTAB
  0
TABLE
  2
APPID
  5
9
100
AcDbSymbolTable
 70
1
  0
APPID
  5
201
100
AcDbSymbolTableRecord
100
AcDbRegAppTableRecord
  2
ACAD
 70
0
  0
ENDTAB
  0
TABLE
  2
BLOCK_RECORD
  5
1
100
AcDbSymbolTable
 70
0
  0
BLOCK_RECORD
  5
202
100
AcDbSymbolTableRecord
100
AcDbBlockTableRecord
  2
*Model_Space
  0
BLOCK_RECORD
  5
203
100
AcDbSymbolTableRecord
100
AcDbBlockTableRecord
  2
*Paper_Space
  0
BLOCK_RECORD
  5
204
100
AcDbSymbolTableRecord
100
AcDbBlockTableRecord
  2
_FILLED
  0
ENDTAB
  0
TABLE
  2
DIMSTYLE
  5
A
100
AcDbSymbolTable
 70
1
100
AcDbDimStyleTable
 71
0
  0
DIMSTYLE
105
205
100
AcDbSymbolTableRecord
100
AcDbDimStyleTableRecord
  2
STANDARD
 70
0
  3

  4

 40
1.0
 41
0.1
 42
0.0625
 43
0.38
 44
0.125
 45
0.0
 46
0.0
 47
0.001
 48
0.001
140
0.08
141
0.09
142
0.0
143
25.4
144
1.0
145
0.0
146
1.0
147
0.09
 71
1.0
 72
0.0
 73
1
 74
1
 75
0
 76
0
 77
0
 78
4
 79
1
170
1
171
2
172
0
173
0
174
0
175
0
176
0
177
0
178
0
270
2
179
3
271
3
272
3
273
2
274
2
275
0
280
0
281
0
282
0
283
1
284
4
285
0
286
0
287
3
288
0
340
11
278
46
341
204
342
204
343
204
344
204
  0
ENDTAB
  0
ENDSEC
  0
SECTION
  2
BLOCKS
  0
BLOCK
  5
20
100
AcDbEntity
  8
0
100
AcDbBlockBegin
  2
*Model_Space
 70
0
 10
0.0
 20
0.0
 30
0.0
  3
*Model_Space
  1

  0
ENDBLK
  5
21
100
AcDbEntity
  8
0
100
AcDbBlockEnd
  0
BLOCK
  5
1C
100
AcDbEntity
  8
0
100
AcDbBlockBegin
  2
*Paper_Space
 70
0
 10
0.0
 20
0.0
 30
0.0
  3
*Paper_Space
  1

  0
ENDBLK
  5
1D
100
AcDbEntity
  8
0
100
AcDbBlockEnd
  0
BLOCK
  5
206
100
AcDbEntity
  8
0
100
AcDbBlockBegin
  2
_FILLED
 70
64
 10
0.0
 20
0.0
  3
_FILLED
  1

  0
SOLID
  5
207
100
AcDbEntity
  8
0
  6
BYBLOCK
 62
0
100
AcDbTrace
 10
0.0
 20
0.0
 11
-1.0
 21
0.2
 12
-1.0
 22
-0.2
 13
-1.0
 23
-0.2
  0
ENDBLK
  5
208
100
AcDbEntity
  8
0
  6
BYBLOCK
 62
0
100
AcDbBlockEnd
  0
ENDSEC
  0
SECTION
  2
ENTITIES
  0
LINE
  5
209
100
AcDbEntity
  8
0
100
AcDbLine
 62
7
  6
CONTINUOUS
 10
3.446309738
 20
9.9714267334
 11
3.4020093012
 21
9.9187881477
  0
LWPOLYLINE
  5
20A
100
AcDbEntity
  8
0
100
AcDbPolyline
 62
7
  6
CONTINUOUS
 90
7
 70
0
 10
3.2586616552
 20
10.0395901366
 10
3.2110295217
 20
9.9845334403
 10
3.1614634057
 20
9.9313939114
 10
3.1125466711
 20
9.8849355073
 10
3.06159206
 20
9.8445575883
 10
3.0095176603
 20
9.8129980504
 10
2.9757405442
 20
9.7980250612
  0
LWPOLYLINE
  5
20B
100
AcDbEntity
  8
0
100
AcDbPolyline
 62
7
  6
CONTINUOUS
 90
7
 70
0
 10
3.446309738
 20
9.9714267334
 10
3.4906716445
 20
10.0225898684
 10
3.5320163889
 20
10.0665522129
 10
3.5701385615
 20
10.1018847514
 10
3.604507
 20
10.1277831088
 10
3.6327744103
 20
10.1432442742
 10
3.6406395824
 20
10.1457142491
  0
LWPOLYLINE
  5
20C
100
AcDbEntity
  8
0
100
AcDbPolyline
 62
7
  6
CONTINUOUS
 90
3
 70
0
 10
3.2729927571
 20
9.7783180366
 10
3.2993023096
 20
9.748395185
 10
3.3204731576
 20
9.7218491341
  0
LWPOLYLINE
  5
20D
100
AcDbEntity
  8
0
100
AcDbPolyline
 62
7
  6
CONTINUOUS
 90
3
 70
0
 10
3.6320030166
 20
9.6210302822
 10
3.6058631923
 20
9.6546543446
 10
3.5653939273
 20
9.7091886206
  0
LINE
  5
20E
100
AcDbEntity
  8
0
100
AcDbLine
 62
7
  6
CONTINUOUS
 10
3.7955211449
 20
9.5086242281
 11
3.8318033908
 21
9.4573651807
  0
LWPOLYLINE
  5
20F
100
AcDbEntity
  8
0
100
AcDbPolyline
 62
7
  6
CONTINUOUS
 90
3
 70
0
 10
3.9752477512
 20
9.5779679456
 10
3.9349086201
 20
9.6375477119
 10
3.9071677183
 20
9.6814211885
  0
LWPOLYLINE
  5
210
100
AcDbEntity
  8
0
100
AcDbPolyline
 62
7
  6
CONTINUOUS
 90
3
 70
0
 10
4.1454331845
 20
9.494164503
 10
4.1755466752
 20
9.4494566696
 10
4.1904349401
 20
9.4308661617
  0
LWPOLYLINE
  5
211
100
AcDbEntity
  8
0
100
AcDbPolyline
 62
7
  6
CONTINUOUS
 90
3
 70
0
 10
3.6216423406
 20
9.7849566247
 10
3.6406399706
 20
9.7555320266
 10
3.6840560428
 20
9.6853940027
  0
LINE
  5
212
100
AcDbEntity
  8
0
100
AcDbLine
 62
7
  6
CONTINUOUS
 10
3.7897426171
 20
9.5175899606
 11
3.7955211449
 21
9.5086242281
  0
LWPOLYLINE
  5
213
100
AcDbEntity
  8
0
100
AcDbPolyline
 62
7
  6
CONTINUOUS
 90
3
 70
0
 10
3.7965448324
 20
9.8595729673
 10
3.7880007393
 20
9.8732894848
 10
3.7352625676
 20
9.9531428529
  0
LWPOLYLINE
  5
214
100
AcDbEntity
  8
0
100
AcDbPolyline
 62
7
  6
CONTINUOUS
 90
3
 70
0
 10
3.9713653509
 20
9.7872460198
 10
4.0102986789
 20
9.7182625374
 10
4.0374650848
 20
9.670699738
  0
LWPOLYLINE
  5
215
100
AcDbEntity
  8
0
100
AcDbPolyline
 62
7
  6
CONTINUOUS
 90
4
 70
0
 10
4.3213550166
 20
9.7873817143
 10
4.3234284411
 20
9.7837067843
 10
4.3771741273
 20
9.6898315643
 10
4.3870561299
 20
9.673594561
  0
LWPOLYLINE
  5
216
100
AcDbEntity
  8
0
100
AcDbPolyline
 62
7
  6
CONTINUOUS
 90
4
 70
0
 10
4.1463908482
 20
9.8587045097
 10
4.1453770502
 20
9.8605017942
 10
4.0917649497
 20
9.9542389662
 10
4.0806641635
 20
9.9725277955
  0
LINE
  5
217
100
AcDbEntity
  8
0
100
AcDbLine
 62
7
  6
CONTINUOUS
 10
5.7576923427
 20
10.1050439453
 11
5.7576923427
 21
9.5410439453
  0
LINE
  5
218
100
AcDbEntity
  8
0
100
AcDbLine
 62
9
  6
CONTINUOUS
 10
5.8761497249
 20
10.1349350604
 11
5.8761497249
 21
9.5111528302
  0
LINE
  5
219
100
AcDbEntity
  8
0
100
AcDbLine
 62
9
  6
CONTINUOUS
 10
6.0122626724
 20
9.5977748258
 11
6.0122626724
 21
10.0483130649
  0
LINE
  5
21A
100
AcDbEntity
  8
0
100
AcDbLine
 62
7
  6
CONTINUOUS
 10
6.0216923427
 20
9.607758564
 11
6.0216923427
 21
10.0383293266
  0
LWPOLYLINE
  5
21B
100
AcDbEntity
  8
0
100
AcDbPolyline
 62
7
  6
CONTINUOUS
 90
4
 70
0
 10
2.975830729
 20
9.7980386363
 10
3.0388523623
 20
9.8415753035
 10
3.1078457931
 20
9.8927228715
 10
3.1651961004
 20
9.9353957105
  0
LINE
  5
21C
100
AcDbEntity
  8
0
100
AcDbLine
 62
7
  6
CONTINUOUS
 10
3.26968639
 20
9.4671827745
 11
3.2697221641
 21
9.4671522084
  0
LINE
  5
21D
100
AcDbEntity
  8
0
100
AcDbLine
 62
7
  6
CONTINUOUS
 10
3.2422681362
 20
9.4918210139
 11
3.2697221641
 21
9.4671522084
  0
LINE
  5
21E
100
AcDbEntity
  8
0
100
AcDbLine
 62
7
  6
CONTINUOUS
 10
3.2916991877
 20
9.7016844852
 11
3.240873408
 21
9.7501561403
  0
LINE
  5
21F
100
AcDbEntity
  8
0
100
AcDbLine
 62
7
  6
CONTINUOUS
 10
3.4471329708
 20
9.8631777606
 11
3.4001604003
 21
9.9171819428
  0
LINE
  5
220
100
AcDbEntity
  8
0
100
AcDbLine
 62
7
  6
CONTINUOUS
 10
4.4998993816
 20
9.5019018177
 11
4.5374267418
 21
9.4559466678
  0
LINE
  5
221
100
AcDbEntity
  8
0
100
AcDbLine
 62
7
  6
CONTINUOUS
 10
3.9678226127
 20
10.1442770144
 11
3.9302448268
 21
10.1904630102
  0
LWPOLYLINE
  5
222
100
AcDbEntity
  8
0
100
AcDbPolyline
 62
7
  6
CONTINUOUS
 90
3
 70
0
 10
3.8031668131
 20
10.0508079961
 10
3.8219188264
 20
10.0277472675
 10
3.8615255088
 20
9.9706165947
  0
LWPOLYLINE
  5
223
100
AcDbEntity
  8
0
100
AcDbPolyline
 62
7
  6
CONTINUOUS
 90
3
 70
0
 10
4.3201316978
 20
9.5700767002
 10
4.2890937669
 20
9.6150816586
 10
4.2551763439
 20
9.6699020638
  0
LWPOLYLINE
  5
224
100
AcDbEntity
  8
0
100
AcDbPolyline
 62
7
  6
CONTINUOUS
 90
3
 70
0
 10
4.1475853828
 20
10.0760972246
 10
4.179599979
 20
10.0295066704
 10
4.2125641422
 20
9.9761166549
  0
LWPOLYLINE
  5
225
100
AcDbEntity
  8
0
100
AcDbPolyline
 62
7
  6
CONTINUOUS
 90
3
 70
0
 10
4.4924054688
 20
10.0680084953
 10
4.531964749
 20
10.0097005373
 10
4.5605539077
 20
9.9645502749
  0
LWPOLYLINE
  5
226
100
AcDbEntity
  8
0
100
AcDbPolyline
 62
7
  6
CONTINUOUS
 90
3
 70
0
 10
4.3223734732
 20
10.1518170422
 10
4.2936901465
 20
10.1945978844
 10
4.2772843173
 20
10.2151951575
  0
LWPOLYLINE
  5
227
100
AcDbEntity
  8
0
100
AcDbPolyline
 62
7
  6
CONTINUOUS
 90
3
 70
0
 10
4.6711787649
 20
9.7865266944
 10
4.6788890641
 20
9.7741550257
 10
4.7324199885
 20
9.6930903574
  0
LWPOLYLINE
  5
228
100
AcDbEntity
  8
0
100
AcDbPolyline
 62
7
  6
CONTINUOUS
 90
3
 70
0
 10
4.496378934
 20
9.8588563066
 10
4.4584328497
 20
9.9260635268
 10
4.4302946732
 20
9.9753399445
  0
LINE
  5
229
100
AcDbEntity
  8
0
100
AcDbLine
 62
7
  6
CONTINUOUS
 10
6.1796320909
 20
6.9423624887
 11
6.1796314393
 21
6.6924189453
  0
LINE
  5
22A
100
AcDbEntity
  8
0
100
AcDbLine
 62
7
  6
CONTINUOUS
 10
6.1966923427
 20
6.6924189453
 11
6.1966923427
 21
6.6304189453
  0
LINE
  5
22B
100
AcDbEntity
  8
0
100
AcDbLine
 62
9
  6
CONTINUOUS
 10
6.4876923427
 20
9.6280439453
 11
6.4876923427
 21
10.0180439453
  0
LINE
  5
22C
100
AcDbEntity
  8
0
100
AcDbLine
 62
7
  6
CONTINUOUS
 10
6.5586611396
 20
6.942364164
 11
6.558661891
 21
6.6924189453
  0
LINE
  5
22D
100
AcDbEntity
  8
0
100
AcDbLine
 62
7
  6
CONTINUOUS
 10
6.5851923427
 20
8.3580439453
 11
6.5851923427
 21
8.2580439453
  0
LINE
  5
22E
100
AcDbEntity
  8
0
100
AcDbLine
 62
7
  6
CONTINUOUS
 10
6.5851923427
 20
8.0580439453
 11
6.5851923427
 21
7.9580439453
  0
LINE
  5
22F
100
AcDbEntity
  8
0
100
AcDbLine
 62
7
  6
CONTINUOUS
 10
6.5876923427
 20
8.2200431434
 11
6.5876923427
 21
8.0960447473
  0
LINE
  5
230
100
AcDbEntity
  8
0
100
AcDbLine
 62
7
  6
CONTINUOUS
 10
6.7001923427
 20
9.0182003482
 11
6.7001923427
 21
8.9682003482
  0
LINE
  5
231
100
AcDbEntity
  8
0
100
AcDbLine
 62
7
  6
CONTINUOUS
 10
6.7426923427
 20
9.1580439453
 11
6.7426923427
 21
9.3730439453
  0
LINE
  5
232
100
AcDbEntity
  8
0
100
AcDbLine
 62
7
  6
CONTINUOUS
 10
5.0636822861
 20
9.7253295034
 11
5.0195190647
 21
9.6729500683
  0
LWPOLYLINE
  5
233
100
AcDbEntity
  8
0
100
AcDbPolyline
 62
7
  6
CONTINUOUS
 90
7
 70
0
 10
5.2069615997
 20
9.6044517776
 10
5.2557182981
 20
9.6607322465
 10
5.3057963834
 20
9.7143414461
 10
5.3552468366
 20
9.7611700136
 10
5.4067869102
 20
9.8017992853
 10
5.459268162
 20
9.8333108428
 10
5.4898994034
 20
9.8468919712
  0
LWPOLYLINE
  5
234
100
AcDbEntity
  8
0
100
AcDbPolyline
 62
7
  6
CONTINUOUS
 90
7
 70
0
 10
5.0195190647
 20
9.6729500683
 10
4.9752615114
 20
9.6220920189
 10
4.9341878827
 20
9.5786581371
 10
4.8964568726
 20
9.5438839334
 10
4.8625947791
 20
9.5185314629
 10
4.8346679762
 20
9.503327531
 10
4.8273003795
 20
9.5009993333
  0
LWPOLYLINE
  5
235
100
AcDbEntity
  8
0
100
AcDbPolyline
 62
7
  6
CONTINUOUS
 90
14
 70
0
 10
3.3749903621
 20
9.5330219836
 10
3.4365234463
 20
9.5740391445
 10
3.4991337668
 20
9.631645981
 10
3.5593451811
 20
9.7010932849
 10
3.617536614
 20
9.7789737517
 10
3.6725145879
 20
9.8590877635
 10
3.7227742264
 20
9.9346606088
 10
3.7697942077
 20
10.0042482954
 10
3.814827871
 20
10.0670768897
 10
3.8570476278
 20
10.1200615519
 10
3.8951272001
 20
10.1608054731
 10
3.9277947003
 20
10.1889027574
 10
3.9535409276
 20
10.2052980829
 10
3.9736275645
 20
10.2131318162
  0
LWPOLYLINE
  5
236
100
AcDbEntity
  8
0
100
AcDbPolyline
 62
7
  6
CONTINUOUS
 90
4
 70
0
 10
3.2696863897
 20
9.4671827748
 10
3.3286761297
 20
9.4218871344
 10
3.3961729172
 20
9.3842662616
 10
3.4660572518
 20
9.3627141743
  0
LINE
  5
237
100
AcDbEntity
  8
0
100
AcDbLine
 62
7
  6
CONTINUOUS
 10
3.0976096109
 20
9.8730989454
 11
3.0897004833
 21
9.8792710334
  0
LWPOLYLINE
  5
238
100
AcDbEntity
  8
0
100
AcDbPolyline
 62
7
  6
CONTINUOUS
 90
4
 70
0
 10
3.6005927337
 20
9.3756675936
 10
3.6450775156
 20
9.3368639732
 10
3.7103013228
 20
9.2968031443
 10
3.7795523665
 20
9.2736481245
  0
LINE
  5
239
100
AcDbEntity
  8
0
100
AcDbLine
 62
7
  6
CONTINUOUS
 10
3.6121549397
 20
10.1056429741
 11
3.5950494525
 21
10.1206563682
  0
LWPOLYLINE
  5
23A
100
AcDbEntity
  8
0
100
AcDbPolyline
 62
7
  6
CONTINUOUS
 90
4
 70
0
 10
3.9623993474
 20
9.3095846424
 10
3.9699878414
 20
9.3023753195
 10
4.0385541267
 20
9.2582689037
 10
4.1096593445
 20
9.2346485822
  0
LWPOLYLINE
  5
23B
100
AcDbEntity
  8
0
100
AcDbPolyline
 62
7
  6
CONTINUOUS
 90
3
 70
0
 10
4.6645085473
 20
9.5955245977
 10
4.6458726991
 20
9.6184426896
 10
4.6062346367
 20
9.6755544905
  0
LWPOLYLINE
  5
23C
100
AcDbEntity
  8
0
100
AcDbPolyline
 62
7
  6
CONTINUOUS
 90
3
 70
0
 10
4.8357089001
 20
10.0246715011
 10
4.8618095465
 20
9.9911288225
 10
4.902251829
 20
9.9367106892
  0
LINE
  5
23D
100
AcDbEntity
  8
0
100
AcDbLine
 62
7
  6
CONTINUOUS
 10
4.6735988554
 20
10.1352232709
 11
4.6360177908
 21
10.1884555771
  0
LWPOLYLINE
  5
23E
100
AcDbEntity
  8
0
100
AcDbPolyline
 62
7
  6
CONTINUOUS
 90
3
 70
0
 10
4.8460831239
 20
9.8611750769
 10
4.8282885301
 20
9.8886607363
 10
4.7837247201
 20
9.9605358944
  0
LINE
  5
23F
100
AcDbEntity
  8
0
100
AcDbLine
 62
7
  6
CONTINUOUS
 10
4.678103113
 20
10.1282263468
 11
4.6735988554
 21
10.1352232709
  0
LINE
  5
240
100
AcDbEntity
  8
0
100
AcDbLine
 62
7
  6
CONTINUOUS
 10
6.7539432158
 20
7.9524201092
 11
6.7539432158
 21
7.9580439453
  0
LINE
  5
241
100
AcDbEntity
  8
0
100
AcDbLine
 62
7
  6
CONTINUOUS
 10
6.7597114215
 20
7.9580439453
 11
6.7597114215
 21
7.9524186738
  0
LINE
  5
242
100
AcDbEntity
  8
0
100
AcDbLine
 62
7
  6
CONTINUOUS
 10
6.776149149
 20
7.9524201092
 11
6.776149149
 21
7.9580439453
  0
LINE
  5
243
100
AcDbEntity
  8
0
100
AcDbLine
 62
7
  6
CONTINUOUS
 10
6.7925756091
 20
7.9580439453
 11
6.7925756091
 21
7.9524186737
  0
LINE
  5
244
100
AcDbEntity
  8
0
100
AcDbLine
 62
7
  6
CONTINUOUS
 10
6.8154766683
 20
7.9424189453
 11
6.8154766683
 21
7.9580439453
  0
LINE
  5
245
100
AcDbEntity
  8
0
100
AcDbLine
 62
7
  6
CONTINUOUS
 10
6.822948569
 20
7.9524201091
 11
6.822948569
 21
7.9580439453
  0
LINE
  5
246
100
AcDbEntity
  8
0
100
AcDbLine
 62
7
  6
CONTINUOUS
 10
6.8475325038
 20
7.9580439453
 11
6.8475325038
 21
7.9524186738
  0
LINE
  5
247
100
AcDbEntity
  8
0
100
AcDbLine
 62
7
  6
CONTINUOUS
 10
6.8663420556
 20
7.9424189453
 11
6.8663420556
 21
7.9580439453
  0
LINE
  5
248
100
AcDbEntity
  8
0
100
AcDbLine
 62
7
  6
CONTINUOUS
 10
6.8841220533
 20
7.9580439453
 11
6.8841220533
 21
7.9424189453
  0
LINE
  5
249
100
AcDbEntity
  8
0
100
AcDbLine
 62
7
  6
CONTINUOUS
 10
6.8872166885
 20
7.9524201091
 11
6.8872166885
 21
7.9580439453
  0
LINE
  5
24A
100
AcDbEntity
  8
0
100
AcDbLine
 62
7
  6
CONTINUOUS
 10
6.9162154168
 20
7.9580439453
 11
6.9162154168
 21
7.9524186738
  0
LINE
  5
24B
100
AcDbEntity
  8
0
100
AcDbLine
 62
7
  6
CONTINUOUS
 10
6.9280698774
 20
7.9424189453
 11
6.9280698774
 21
7.9580439453
  0
LINE
  5
24C
100
AcDbEntity
  8
0
100
AcDbLine
 62
7
  6
CONTINUOUS
 10
6.9473148081
 20
7.9580439453
 11
6.9473148081
 21
7.9424189453
  0
LINE
  5
24D
100
AcDbEntity
  8
0
100
AcDbLine
 62
7
  6
CONTINUOUS
 10
6.9591692687
 20
7.9524201091
 11
6.9591692687
 21
7.9580439453
  0
LINE
  5
24E
100
AcDbEntity
  8
0
100
AcDbLine
 62
7
  6
CONTINUOUS
 10
6.988167997
 20
7.9580439453
 11
6.988167997
 21
7.9524186738
  0
LINE
  5
24F
100
AcDbEntity
  8
0
100
AcDbLine
 62
7
  6
CONTINUOUS
 10
6.9912626322
 20
7.9424189453
 11
6.9912626322
 21
7.9580439453
  0
LINE
  5
250
100
AcDbEntity
  8
0
100
AcDbLine
 62
7
  6
CONTINUOUS
 10
7.0090426298
 20
7.9580439453
 11
7.0090426298
 21
7.9424189453
  0
LINE
  5
251
100
AcDbEntity
  8
0
100
AcDbLine
 62
7
  6
CONTINUOUS
 10
7.0278521816
 20
7.9524201091
 11
7.0278521816
 21
7.9580439453
  0
LINE
  5
252
100
AcDbEntity
  8
0
100
AcDbLine
 62
7
  6
CONTINUOUS
 10
7.0524361165
 20
7.9580439453
 11
7.0524361165
 21
7.9524186738
  0
LINE
  5
253
100
AcDbEntity
  8
0
100
AcDbLine
 62
7
  6
CONTINUOUS
 10
7.0599080171
 20
7.9580439453
 11
7.0599080171
 21
7.9424189453
  0
LINE
  5
254
100
AcDbEntity
  8
0
100
AcDbLine
 62
7
  6
CONTINUOUS
 10
7.0828090764
 20
7.9524201091
 11
7.0828090764
 21
7.9580439453
  0
LINE
  5
255
100
AcDbEntity
  8
0
100
AcDbLine
 62
7
  6
CONTINUOUS
 10
7.0992355365
 20
7.9580439453
 11
7.0992355365
 21
7.9524186737
  0
LINE
  5
256
100
AcDbEntity
  8
0
100
AcDbLine
 62
7
  6
CONTINUOUS
 10
7.115673264
 20
7.9524201091
 11
7.115673264
 21
7.9580439453
  0
LINE
  5
257
100
AcDbEntity
  8
0
100
AcDbLine
 62
7
  6
CONTINUOUS
 10
7.1214414697
 20
7.9580439453
 11
7.1214414697
 21
7.9524186737
  0
LINE
  5
258
100
AcDbEntity
  8
0
100
AcDbLine
 62
7
  6
CONTINUOUS
 10
7.1326923427
 20
9.1580439453
 11
7.1326923427
 21
9.3730439453
  0
LINE
  5
259
100
AcDbEntity
  8
0
100
AcDbLine
 62
7
  6
CONTINUOUS
 10
7.1751923427
 20
9.0182003482
 11
7.1751923427
 21
8.9682003482
  0
LINE
  5
25A
100
AcDbEntity
  8
0
100
AcDbLine
 62
7
  6
CONTINUOUS
 10
7.2901923427
 20
8.3580439453
 11
7.2901923427
 21
7.9580439453
  0
LINE
  5
25B
100
AcDbEntity
  8
0
100
AcDbLine
 62
7
  6
CONTINUOUS
 10
7.3167216946
 20
6.9423641641
 11
7.3167227945
 21
6.6924189453
  0
LWPOLYLINE
  5
25C
100
AcDbEntity
  8
0
100
AcDbPolyline
 62
7
  6
CONTINUOUS
 90
14
 70
0
 10
5.0901666365
 20
10.1110581133
 10
5.0292359234
 20
10.0700559293
 10
4.9670736521
 20
10.0125878166
 10
4.9073477427
 20
9.9435270674
 10
4.8494762704
 20
9.8661172322
 10
4.7946348654
 20
9.7862401189
 10
4.7442863959
 20
9.7106217538
 10
4.6972398824
 20
9.6411153695
 10
4.652507396
 20
9.5788084526
 10
4.6107727159
 20
9.526447863
 10
4.5731884108
 20
9.4861329961
 10
4.5408690836
 20
9.4581637356
 10
4.5151575247
 20
9.4416040006
 10
4.4946830558
 20
9.4333780803
  0
LINE
  5
25D
100
AcDbEntity
  8
0
100
AcDbLine
 62
7
  6
CONTINUOUS
 10
3.2856199723
 20
9.6977912957
 11
3.285609387
 21
9.6977855881
  0
LINE
  5
25E
100
AcDbEntity
  8
0
100
AcDbLine
 62
7
  6
CONTINUOUS
 10
3.3749903617
 20
9.5330219834
 11
3.3749941212
 21
9.5330240023
  0
LINE
  5
25F
100
AcDbEntity
  8
0
100
AcDbLine
 62
7
  6
CONTINUOUS
 10
2.7057682063
 20
10.007660518
 11
2.660817928
 21
9.9882634544
  0
LWPOLYLINE
  5
260
100
AcDbEntity
  8
0
100
AcDbPolyline
 62
7
  6
CONTINUOUS
 90
5
 70
0
 10
2.8989179193
 20
9.5938115147
 10
2.9219419939
 20
9.5807248014
 10
2.9989929007
 20
9.5413743167
 10
3.0790015492
 20
9.5101144652
 10
3.1570958877
 20
9.4925044552
  0
LWPOLYLINE
  5
261
100
AcDbEntity
  8
0
100
AcDbPolyline
 62
7
  6
CONTINUOUS
 90
3
 70
0
 10
3.4620180375
 20
9.9895433092
 10
3.4690867931
 20
9.9838202203
 10
3.5050277508
 20
9.9462305046
  0
LINE
  5
262
100
AcDbEntity
  8
0
100
AcDbLine
 62
7
  6
CONTINUOUS
 10
4.8555773678
 20
9.5407821632
 11
4.872529389
 21
9.5259694822
  0
LWPOLYLINE
  5
263
100
AcDbEntity
  8
0
100
AcDbPolyline
 62
7
  6
CONTINUOUS
 90
4
 70
0
 10
4.5055861108
 20
10.3362683607
 10
4.4993896965
 20
10.342200364
 10
4.4310282146
 20
10.3868137886
 10
4.3597350328
 20
10.4110206122
  0
LINE
  5
264
100
AcDbEntity
  8
0
100
AcDbLine
 62
7
  6
CONTINUOUS
 10
7.5788557824
 20
7.0589189453
 11
7.6957488268
 21
6.942362624
  0
LINE
  5
265
100
AcDbEntity
  8
0
100
AcDbLine
 62
7
  6
CONTINUOUS
 10
6.5876923427
 20
8.0960439453
 11
6.5914886916
 21
8.0922475965
  0
LINE
  5
266
100
AcDbEntity
  8
0
100
AcDbLine
 62
7
  6
CONTINUOUS
 10
5.0668418782
 20
9.729662912
 11
5.0668501724
 21
9.7296540527
  0
LWPOLYLINE
  5
267
100
AcDbEntity
  8
0
100
AcDbPolyline
 62
7
  6
CONTINUOUS
 90
3
 70
0
 10
5.1947440186
 20
9.8677526168
 10
5.1668192269
 20
9.899580261
 10
5.1473737271
 20
9.9239716547
  0
LINE
  5
268
100
AcDbEntity
  8
0
100
AcDbLine
 62
7
  6
CONTINUOUS
 10
5.0206532719
 20
9.7828701996
 11
5.0668501724
 21
9.7296540527
  0
LINE
  5
269
100
AcDbEntity
  8
0
100
AcDbLine
 62
7
  6
CONTINUOUS
 10
7.4781923427
 20
7.6080353841
 11
7.5523263369
 21
7.5021177569
  0
LINE
  5
26A
100
AcDbEntity
  8
0
100
AcDbLine
 62
7
  6
CONTINUOUS
 10
7.6786923427
 20
6.6924189453
 11
7.6786923427
 21
6.6304189453
  0
LINE
  5
26B
100
AcDbEntity
  8
0
100
AcDbLine
 62
7
  6
CONTINUOUS
 10
7.6957524105
 20
6.942363704
 11
7.6957532462
 21
6.6924189453
  0
LWPOLYLINE
  5
26C
100
AcDbEntity
  8
0
100
AcDbPolyline
 62
7
  6
CONTINUOUS
 90
4
 70
0
 10
5.4898774652
 20
9.8468857858
 10
5.426086763
 20
9.8028158247
 10
5.3573922353
 20
9.7519720795
 10
5.3039596672
 20
9.7123752191
  0
LINE
  5
26D
100
AcDbEntity
  8
0
100
AcDbLine
 62
7
  6
CONTINUOUS
 10
5.1805446564
 20
9.9468315872
 11
5.1805374737
 21
9.9468276573
  0
LINE
  5
26E
100
AcDbEntity
  8
0
100
AcDbLine
 62
7
  6
CONTINUOUS
 10
5.090159644
 20
10.1110543022
 11
5.0901666365
 21
10.1110581133
  0
LWPOLYLINE
  5
26F
100
AcDbEntity
  8
0
100
AcDbPolyline
 62
7
  6
CONTINUOUS
 90
3
 70
0
 10
5.1805374735
 20
9.9468276572
 10
5.2084786626
 20
9.9594820054
 10
5.2388947607
 20
9.9669933691
  0
LWPOLYLINE
  5
270
100
AcDbEntity
  8
0
100
AcDbPolyline
 62
7
  6
CONTINUOUS
 90
3
 70
0
 10
3.2856199723
 20
9.6977912957
 10
3.2587473695
 20
9.6857474313
 10
3.2289907651
 20
9.6783914281
  0
LWPOLYLINE
  5
271
100
AcDbEntity
  8
0
100
AcDbPolyline
 62
7
  6
CONTINUOUS
 90
8
 70
0
 10
3.3127231338
 20
10.219167214
 10
3.2393312685
 20
10.1971225929
 10
3.1597439008
 20
10.1573826956
 10
3.0828192651
 20
10.1069939678
 10
3.0076581348
 20
10.0517181609
 10
2.9317798453
 20
9.995482028
 10
2.8591207799
 20
9.9457882353
 10
2.812781113
 20
9.9180044418
  0
LINE
  5
272
100
AcDbEntity
  8
0
100
AcDbLine
 62
7
  6
CONTINUOUS
 10
5.7576923427
 20
6.2554189453
 11
8.1176923427
 21
6.2554189453
  0
LINE
  5
273
100
AcDbEntity
  8
0
100
AcDbLine
 62
7
  6
CONTINUOUS
 10
9.7826923427
 20
6.2554189453
 11
12.0926923427
 21
6.2554189453
  0
LINE
  5
274
100
AcDbEntity
  8
0
100
AcDbLine
 62
7
  6
CONTINUOUS
 10
13.7576923427
 20
6.2554189453
 11
16.1176923427
 21
6.2554189453
  0
LINE
  5
275
100
AcDbEntity
  8
0
100
AcDbLine
 62
7
  6
CONTINUOUS
 10
9.7626923427
 20
6.2754189453
 11
12.1126923427
 21
6.2754189453
  0
LWPOLYLINE
  5
276
100
AcDbEntity
  8
0
100
AcDbPolyline
 62
7
  6
CONTINUOUS
 90
3
 70
0
 10
4.6841053465
 20
9.3349955683
 10
4.6842714193
 20
9.3348920792
 10
4.7518997219
 20
9.312486307
  0
LWPOLYLINE
  5
277
100
AcDbEntity
  8
0
100
AcDbPolyline
 62
7
  6
CONTINUOUS
 90
3
 70
0
 10
4.3250121962
 20
9.2970384956
 10
4.3638072138
 20
9.2718559252
 10
4.4323627421
 20
9.2483031095
  0
LINE
  5
278
100
AcDbEntity
  8
0
100
AcDbLine
 62
7
  6
CONTINUOUS
 10
5.3701415197
 20
9.7729115592
 11
5.3777164946
 21
9.7670149293
  0
LWPOLYLINE
  5
279
100
AcDbEntity
  8
0
100
AcDbPolyline
 62
7
  6
CONTINUOUS
 90
3
 70
0
 10
5.0056130005
 20
9.6569700773
 10
4.9997683306
 20
9.6616312698
 10
4.9627419223
 20
9.7000162124
  0
LINE
  5
27A
100
AcDbEntity
  8
0
100
AcDbLine
 62
7
  6
CONTINUOUS
 10
5.1956703735
 20
10.1800968441
 11
5.195708872
 21
10.1800641893
  0
LWPOLYLINE
  5
27B
100
AcDbEntity
  8
0
100
AcDbPolyline
 62
7
  6
CONTINUOUS
 90
4
 70
0
 10
4.8671922589
 20
10.2699202314
 10
4.8230464455
 20
10.3083988072
 10
4.7582474618
 20
10.348395193
 10
4.6892712324
 20
10.3718430137
  0
LINE
  5
27C
100
AcDbEntity
  8
0
100
AcDbLine
 62
7
  6
CONTINUOUS
 10
5.225371807
 20
10.1535455345
 11
5.1956703732
 21
10.1800968444
  0
LINE
  5
27D
100
AcDbEntity
  8
0
100
AcDbLine
 62
7
  6
CONTINUOUS
 10
5.1759831053
 20
9.9438826921
 11
5.1831004157
 21
9.9371249619
  0
LINE
  5
27E
100
AcDbEntity
  8
0
100
AcDbLine
 62
7
  6
CONTINUOUS
 10
5.1831004157
 20
9.9371249619
 11
5.2266455163
 21
9.8956959795
  0
LINE
  5
27F
100
AcDbEntity
  8
0
100
AcDbLine
 62
7
  6
CONTINUOUS
 10
7.2381923427
 20
8.4180653372
 11
7.2901923427
 21
8.3580439453
  0
LINE
  5
280
100
AcDbEntity
  8
0
100
AcDbLine
 62
7
  6
CONTINUOUS
 10
6.3971923427
 20
7.6080353841
 11
6.3230583485
 21
7.5021177569
  0
LINE
  5
281
100
AcDbEntity
  8
0
100
AcDbLine
 62
7
  6
CONTINUOUS
 10
6.6371923427
 20
8.4180653372
 11
6.5851923427
 21
8.3580439453
  0
LINE
  5
282
100
AcDbEntity
  8
0
100
AcDbLine
 62
9
  6
CONTINUOUS
 10
12.1126923427
 20
6.3604189453
 11
9.7626923427
 21
6.3604189453
  0
LINE
  5
283
100
AcDbEntity
  8
0
100
AcDbLine
 62
7
  6
CONTINUOUS
 10
12.0826923427
 20
6.3904189453
 11
9.7926923427
 21
6.3904189453
  0
LINE
  5
284
100
AcDbEntity
  8
0
100
AcDbLine
 62
7
  6
CONTINUOUS
 10
5.9376923427
 20
6.4424189453
 11
7.9376923427
 21
6.4424189453
  0
LINE
  5
285
100
AcDbEntity
  8
0
100
AcDbLine
 62
7
  6
CONTINUOUS
 10
13.9376923427
 20
6.4424189453
 11
15.9376923427
 21
6.4424189453
  0
LINE
  5
286
100
AcDbEntity
  8
0
100
AcDbLine
 62
7
  6
CONTINUOUS
 10
15.7506950166
 20
6.6304189453
 11
14.1246896689
 21
6.6304189453
  0
LINE
  5
287
100
AcDbEntity
  8
0
100
AcDbLine
 62
7
  6
CONTINUOUS
 10
11.8076923427
 20
6.6304189453
 11
10.0676923427
 21
6.6304189453
  0
LINE
  5
288
100
AcDbEntity
  8
0
100
AcDbLine
 62
7
  6
CONTINUOUS
 10
7.7506950166
 20
6.6304189453
 11
6.1246896689
 21
6.6304189453
  0
LINE
  5
289
100
AcDbEntity
  8
0
100
AcDbLine
 62
7
  6
CONTINUOUS
 10
6.1796314393
 20
6.6924189453
 11
6.1966923427
 21
6.6924189453
  0
LINE
  5
28A
100
AcDbEntity
  8
0
100
AcDbLine
 62
7
  6
CONTINUOUS
 10
6.1992451276
 20
6.6924189453
 11
7.6761458868
 21
6.6924189453
  0
LINE
  5
28B
100
AcDbEntity
  8
0
100
AcDbLine
 62
7
  6
CONTINUOUS
 10
7.6786923427
 20
6.6924189453
 11
7.6957532462
 21
6.6924189453
  0
LINE
  5
28C
100
AcDbEntity
  8
0
100
AcDbLine
 62
7
  6
CONTINUOUS
 10
14.1796314393
 20
6.6924189453
 11
14.1966923427
 21
6.6924189453
  0
LINE
  5
28D
100
AcDbEntity
  8
0
100
AcDbLine
 62
7
  6
CONTINUOUS
 10
14.1992451276
 20
6.6924189453
 11
15.6761458868
 21
6.6924189453
  0
LINE
  5
28E
100
AcDbEntity
  8
0
100
AcDbLine
 62
7
  6
CONTINUOUS
 10
15.6786923427
 20
6.6924189453
 11
15.6957532462
 21
6.6924189453
  0
LINE
  5
28F
100
AcDbEntity
  8
0
100
AcDbLine
 62
7
  6
CONTINUOUS
 10
3.1151236882
 20
9.8981381598
 11
3.1230435757
 21
9.8949048857
  0
LWPOLYLINE
  5
290
100
AcDbEntity
  8
0
100
AcDbPolyline
 62
7
  6
CONTINUOUS
 90
3
 70
0
 10
4.1427653217
 20
10.3491262598
 10
4.1048151202
 20
10.3739323005
 10
4.0366172667
 20
10.3977479415
  0
LWPOLYLINE
  5
291
100
AcDbEntity
  8
0
100
AcDbPolyline
 62
7
  6
CONTINUOUS
 90
4
 70
0
 10
5.195708872
 20
10.1800641893
 10
5.1374440123
 20
10.2244884175
 10
5.0706977248
 20
10.2614229542
 10
5.0019112798
 20
10.2825708563
  0
LINE
  5
292
100
AcDbEntity
  8
0
100
AcDbLine
 62
7
  6
CONTINUOUS
 10
9.7826923427
 20
6.2554189453
 11
9.7626923427
 21
6.2754189453
  0
LINE
  5
293
100
AcDbEntity
  8
0
100
AcDbLine
 62
7
  6
CONTINUOUS
 10
6.5876923427
 20
8.2200439453
 11
6.5914904198
 21
8.2238420224
  0
LWPOLYLINE
  5
294
100
AcDbEntity
  8
0
100
AcDbPolyline
 62
7
  6
CONTINUOUS
 90
8
 70
0
 10
5.1521354905
 20
9.4272645388
 10
5.2251835165
 20
9.4485518459
 10
5.3042794596
 20
9.487314284
 10
5.3809052479
 20
9.5369247089
 10
5.4558419247
 20
9.5917018207
 10
5.5312840439
 20
9.6475612498
 10
5.6037051733
 20
9.6973036135
 10
5.6541744673
 20
9.7276950222
  0
LINE
  5
295
100
AcDbEntity
  8
0
100
AcDbLine
 62
7
  6
CONTINUOUS
 10
11.4686923427
 20
6.9654189453
 11
10.4066923427
 21
6.9654189453
  0
LINE
  5
296
100
AcDbEntity
  8
0
100
AcDbLine
 62
9
  6
CONTINUOUS
 10
15.5788557824
 20
7.0589189453
 11
14.2965289031
 21
7.0589189453
  0
LINE
  5
297
100
AcDbEntity
  8
0
100
AcDbLine
 62
9
  6
CONTINUOUS
 10
7.5788557824
 20
7.0589189453
 11
6.2965289031
 21
7.0589189453
  0
LINE
  5
298
100
AcDbEntity
  8
0
100
AcDbLine
 62
7
  6
CONTINUOUS
 10
10.4846923427
 20
7.0928769312
 11
11.3906923427
 21
7.0928769312
  0
LINE
  5
299
100
AcDbEntity
  8
0
100
AcDbLine
 62
9
  6
CONTINUOUS
 10
6.3191923427
 20
7.2739189453
 11
7.5561923427
 21
7.2739189453
  0
LINE
  5
29A
100
AcDbEntity
  8
0
100
AcDbLine
 62
9
  6
CONTINUOUS
 10
14.3191923427
 20
7.2739189453
 11
15.5561923427
 21
7.2739189453
  0
LINE
  5
29B
100
AcDbEntity
  8
0
100
AcDbLine
 62
9
  6
CONTINUOUS
 10
6.3230583485
 20
7.5021177569
 11
7.5523263369
 21
7.5021177569
  0
LINE
  5
29C
100
AcDbEntity
  8
0
100
AcDbLine
 62
9
  6
CONTINUOUS
 10
14.3230583485
 20
7.5021177569
 11
15.5523263369
 21
7.5021177569
  0
LWPOLYLINE
  5
29D
100
AcDbEntity
  8
0
100
AcDbPolyline
 62
7
  6
CONTINUOUS
 90
4
 70
0
 10
5.5684534526
 20
10.0518082093
 10
5.5002908518
 20
10.0888511931
 10
5.4113158876
 20
10.127667023
 10
5.3221423667
 20
10.1511616287
  0
LINE
  5
29E
100
AcDbEntity
  8
0
100
AcDbLine
 62
7
  6
CONTINUOUS
 10
9.7626923427
 20
6.3604189453
 11
9.7626923427
 21
6.2754189453
  0
LINE
  5
29F
100
AcDbEntity
  8
0
100
AcDbLine
 62
7
  6
CONTINUOUS
 10
6.2965289031
 20
7.0589189453
 11
6.179634882
 21
6.9423616501
  0
LINE
  5
2A0
100
AcDbEntity
  8
0
100
AcDbLine
 62
7
  6
CONTINUOUS
 10
19.1604760487
 20
9.6102473684
 11
19.2327436643
 21
9.6287091269
  0
LINE
  5
2A1
100
AcDbEntity
  8
0
100
AcDbLine
 62
9
  6
CONTINUOUS
 10
15.4781923427
 20
7.6080353841
 11
14.3971923427
 21
7.6080353841
  0
LINE
  5
2A2
100
AcDbEntity
  8
0
100
AcDbLine
 62
9
  6
CONTINUOUS
 10
7.4781923427
 20
7.6080353841
 11
6.3971923427
 21
7.6080353841
  0
LINE
  5
2A3
100
AcDbEntity
  8
0
100
AcDbLine
 62
9
  6
CONTINUOUS
 10
15.3674320701
 20
7.9140181899
 11
14.5079526153
 21
7.9140181899
  0
LINE
  5
2A4
100
AcDbEntity
  8
0
100
AcDbLine
 62
9
  6
CONTINUOUS
 10
7.3674320701
 20
7.9140181899
 11
6.5079526153
 21
7.9140181899
  0
LINE
  5
2A5
100
AcDbEntity
  8
0
100
AcDbLine
 62
7
  6
CONTINUOUS
 10
15.3365412107
 20
7.9424189453
 11
14.5388434747
 21
7.9424189453
  0
LINE
  5
2A6
100
AcDbEntity
  8
0
100
AcDbLine
 62
7
  6
CONTINUOUS
 10
7.3365412107
 20
7.9424189453
 11
6.5388434747
 21
7.9424189453
  0
LINE
  5
2A7
100
AcDbEntity
  8
0
100
AcDbLine
 62
7
  6
CONTINUOUS
 10
6.7539432158
 20
7.9524189453
 11
6.7597114215
 21
7.9524189453
  0
LINE
  5
2A8
100
AcDbEntity
  8
0
100
AcDbLine
 62
7
  6
CONTINUOUS
 10
6.776149149
 20
7.9524189453
 11
6.7925756091
 21
7.9524189453
  0
LINE
  5
2A9
100
AcDbEntity
  8
0
100
AcDbLine
 62
7
  6
CONTINUOUS
 10
6.822948569
 20
7.9524189453
 11
6.8475325038
 21
7.9524189453
  0
LINE
  5
2AA
100
AcDbEntity
  8
0
100
AcDbLine
 62
7
  6
CONTINUOUS
 10
6.8872166885
 20
7.9524189453
 11
6.9162154168
 21
7.9524189453
  0
LINE
  5
2AB
100
AcDbEntity
  8
0
100
AcDbLine
 62
7
  6
CONTINUOUS
 10
6.9591692687
 20
7.9524189453
 11
6.988167997
 21
7.9524189453
  0
LINE
  5
2AC
100
AcDbEntity
  8
0
100
AcDbLine
 62
7
  6
CONTINUOUS
 10
7.0278521816
 20
7.9524189453
 11
7.0524361165
 21
7.9524189453
  0
LINE
  5
2AD
100
AcDbEntity
  8
0
100
AcDbLine
 62
7
  6
CONTINUOUS
 10
7.0828090764
 20
7.9524189453
 11
7.0992355365
 21
7.9524189453
  0
LINE
  5
2AE
100
AcDbEntity
  8
0
100
AcDbLine
 62
7
  6
CONTINUOUS
 10
7.115673264
 20
7.9524189453
 11
7.1214414697
 21
7.9524189453
  0
LINE
  5
2AF
100
AcDbEntity
  8
0
100
AcDbLine
 62
7
  6
CONTINUOUS
 10
14.7539432158
 20
7.9524189453
 11
14.7597114215
 21
7.9524189453
  0
LINE
  5
2B0
100
AcDbEntity
  8
0
100
AcDbLine
 62
7
  6
CONTINUOUS
 10
14.776149149
 20
7.9524189453
 11
14.7925756091
 21
7.9524189453
  0
LINE
  5
2B1
100
AcDbEntity
  8
0
100
AcDbLine
 62
7
  6
CONTINUOUS
 10
14.822948569
 20
7.9524189453
 11
14.8475325038
 21
7.9524189453
  0
LINE
  5
2B2
100
AcDbEntity
  8
0
100
AcDbLine
 62
7
  6
CONTINUOUS
 10
14.8872166885
 20
7.9524189453
 11
14.9162154168
 21
7.9524189453
  0
LINE
  5
2B3
100
AcDbEntity
  8
0
100
AcDbLine
 62
7
  6
CONTINUOUS
 10
14.9591692687
 20
7.9524189453
 11
14.988167997
 21
7.9524189453
  0
LINE
  5
2B4
100
AcDbEntity
  8
0
100
AcDbLine
 62
7
  6
CONTINUOUS
 10
15.0278521816
 20
7.9524189453
 11
15.0524361165
 21
7.9524189453
  0
LINE
  5
2B5
100
AcDbEntity
  8
0
100
AcDbLine
 62
7
  6
CONTINUOUS
 10
15.0828090764
 20
7.9524189453
 11
15.0992355365
 21
7.9524189453
  0
LINE
  5
2B6
100
AcDbEntity
  8
0
100
AcDbLine
 62
7
  6
CONTINUOUS
 10
15.115673264
 20
7.9524189453
 11
15.1214414697
 21
7.9524189453
  0
LINE
  5
2B7
100
AcDbEntity
  8
0
100
AcDbLine
 62
7
  6
CONTINUOUS
 10
6.5851923427
 20
7.9580439453
 11
7.2901923427
 21
7.9580439453
  0
LINE
  5
2B8
100
AcDbEntity
  8
0
100
AcDbLine
 62
7
  6
CONTINUOUS
 10
14.5851923427
 20
7.9580439453
 11
15.2901923427
 21
7.9580439453
  0
LWPOLYLINE
  5
2B9
100
AcDbEntity
  8
0
100
AcDbPolyline
 62
7
  6
CONTINUOUS
 90
3
 70
0
 10
2.6452545052
 20
9.6280414764
 10
2.7149086368
 20
9.6102473684
 10
2.8081020936
 20
9.5946643103
  0
LWPOLYLINE
  5
2BA
100
AcDbEntity
  8
0
100
AcDbPolyline
 62
7
  6
CONTINUOUS
 90
3
 70
0
 10
5.0478821255
 20
9.4281393788
 10
5.0515447816
 20
9.4269840121
 10
5.1011989508
 20
9.4224716379
  0
LWPOLYLINE
  5
2BB
100
AcDbEntity
  8
0
100
AcDbPolyline
 62
7
  6
CONTINUOUS
 90
3
 70
0
 10
3.4198497651
 20
10.2186533635
 10
3.4163136371
 20
10.2197728854
 10
3.3660907644
 20
10.2244087888
  0
LINE
  5
2BC
100
AcDbEntity
  8
0
100
AcDbLine
 62
7
  6
CONTINUOUS
 10
3.7837125159
 20
10.311473163
 11
3.7170716845
 21
10.3339188765
  0
LINE
  5
2BD
100
AcDbEntity
  8
0
100
AcDbLine
 62
7
  6
CONTINUOUS
 10
5.352685907
 20
9.7484843972
 11
5.3450832748
 21
9.7515453284
  0
LINE
  5
2BE
100
AcDbEntity
  8
0
100
AcDbLine
 62
7
  6
CONTINUOUS
 10
17.4131417564
 20
9.4336191457
 11
17.3959063632
 21
9.431234874
  0
LINE
  5
2BF
100
AcDbEntity
  8
0
100
AcDbLine
 62
7
  6
CONTINUOUS
 10
17.0949123873
 20
9.4980319216
 11
17.0748694996
 21
9.4953265592
  0
LINE
  5
2C0
100
AcDbEntity
  8
0
100
AcDbLine
 62
7
  6
CONTINUOUS
 10
17.7376091842
 20
9.4201240585
 11
17.7228698579
 21
9.4183483983
  0
LWPOLYLINE
  5
2C1
100
AcDbEntity
  8
0
100
AcDbPolyline
 62
7
  6
CONTINUOUS
 90
17
 70
0
 10
17.3961130518
 20
9.2437378144
 10
17.4430219434
 20
9.2483031095
 10
17.5115774717
 20
9.2718559252
 10
17.5779208586
 20
9.3149206566
 10
17.6402830984
 20
9.3750923252
 10
17.6998380103
 20
9.4494566696
 10
17.7570892916
 20
9.5344544791
 10
17.8121862874
 20
9.6256459893
 10
17.8650860066
 20
9.7182625374
 10
17.915479605
 20
9.8075517426
 10
17.9636536285
 20
9.8905014786
 10
18.0097351602
 20
9.9646679057
 10
18.0534658591
 20
10.0277472675
 10
18.094273478
 20
10.0779313948
 10
18.1313276655
 20
10.1145523091
 10
18.1631241245
 20
10.1375908222
 10
18.1881272232
 20
10.1485859741
  0
LWPOLYLINE
  5
2C2
100
AcDbEntity
  8
0
100
AcDbPolyline
 62
7
  6
CONTINUOUS
 90
17
 70
0
 10
17.0751682711
 20
9.3078275817
 10
17.1234849636
 20
9.312486307
 10
17.1911132662
 20
9.3348920792
 10
17.257759857
 20
9.3764232108
 10
17.3222271871
 20
9.4366831419
 10
17.383765529
 20
9.5120415927
 10
17.4422037191
 20
9.5978073791
 10
17.4982105581
 20
9.6898315643
 10
17.5519562444
 20
9.7837067843
 10
17.6026619452
 20
9.8735773837
 10
17.650322162
 20
9.9558738001
 10
17.6957847065
 20
10.0295066704
 10
17.739565852
 20
10.0932209783
 10
17.7809192977
 20
10.1445658183
 10
17.8176476244
 20
10.1809972753
 10
17.8475274751
 20
10.2026596099
 10
17.8698191278
 20
10.2126453256
  0
LWPOLYLINE
  5
2C3
100
AcDbEntity
  8
0
100
AcDbPolyline
 62
7
  6
CONTINUOUS
 90
8
 70
0
 10
18.0480575639
 20
9.2690906799
 10
18.095832319
 20
9.2736481245
 10
18.1650833626
 20
9.2968031443
 10
18.2303071699
 20
9.3368639732
 10
18.2888873471
 20
9.3879628627
 10
18.3422596674
 20
9.4455305683
 10
18.3923403833
 20
9.5069344762
 10
18.4404190806
 20
9.5702969236
  0
LWPOLYLINE
  5
2C4
100
AcDbEntity
  8
0
100
AcDbPolyline
 62
7
  6
CONTINUOUS
 90
5
 70
0
 10
18.3613387074
 20
9.3584136113
 10
18.4093274336
 20
9.3627141743
 10
18.4792117683
 20
9.3842662616
 10
18.5467085557
 20
9.4218871344
 10
18.6056982958
 20
9.4671827748
  0
LWPOLYLINE
  5
2C5
100
AcDbEntity
  8
0
100
AcDbPolyline
 62
7
  6
CONTINUOUS
 90
6
 70
0
 10
17.7229714551
 20
9.2308505832
 10
17.765725341
 20
9.2346485822
 10
17.8368305588
 20
9.2582689037
 10
17.905396844
 20
9.3023753195
 10
17.9671089941
 20
9.3610039249
 10
18.0246088843
 20
9.4305612257
  0
LINE
  5
2C6
100
AcDbEntity
  8
0
100
AcDbLine
 62
7
  6
CONTINUOUS
 10
10.4846923427
 20
8.2662498472
 11
11.3906923427
 21
8.2662498472
  0
LINE
  5
2C7
100
AcDbEntity
  8
0
100
AcDbLine
 62
7
  6
CONTINUOUS
 10
11.3906923427
 20
8.2967103312
 11
10.4846923427
 21
8.2967103312
  0
LINE
  5
2C8
100
AcDbEntity
  8
0
100
AcDbLine
 62
7
  6
CONTINUOUS
 10
15.2901923427
 20
8.3580439453
 11
14.5851923427
 21
8.3580439453
  0
LINE
  5
2C9
100
AcDbEntity
  8
0
100
AcDbLine
 62
7
  6
CONTINUOUS
 10
7.2901923427
 20
8.3580439453
 11
6.5851923427
 21
8.3580439453
  0
LINE
  5
2CA
100
AcDbEntity
  8
0
100
AcDbLine
 62
7
  6
CONTINUOUS
 10
15.2381923427
 20
8.4180653372
 11
14.6371923427
 21
8.4180653372
  0
LINE
  5
2CB
100
AcDbEntity
  8
0
100
AcDbLine
 62
7
  6
CONTINUOUS
 10
7.2381923427
 20
8.4180653372
 11
6.6371923427
 21
8.4180653372
  0
LINE
  5
2CC
100
AcDbEntity
  8
0
100
AcDbLine
 62
9
  6
CONTINUOUS
 10
6.6224074516
 20
8.6889921944
 11
7.2529772339
 21
8.6889921944
  0
LINE
  5
2CD
100
AcDbEntity
  8
0
100
AcDbLine
 62
9
  6
CONTINUOUS
 10
14.6224074516
 20
8.6889921944
 11
15.2529772339
 21
8.6889921944
  0
LINE
  5
2CE
100
AcDbEntity
  8
0
100
AcDbLine
 62
7
  6
CONTINUOUS
 10
4.1096593445
 20
9.2346485822
 11
4.1524132303
 21
9.2308505832
  0
LINE
  5
2CF
100
AcDbEntity
  8
0
100
AcDbLine
 62
7
  6
CONTINUOUS
 10
3.4660572518
 20
9.3627141743
 11
3.5140459781
 21
9.3584136113
  0
LINE
  5
2D0
100
AcDbEntity
  8
0
100
AcDbLine
 62
7
  6
CONTINUOUS
 10
3.7795523665
 20
9.2736481245
 11
3.8273271216
 21
9.2690906799
  0
LINE
  5
2D1
100
AcDbEntity
  8
0
100
AcDbLine
 62
7
  6
CONTINUOUS
 10
4.7518997219
 20
9.312486307
 11
4.8002164143
 21
9.3078275817
  0
LINE
  5
2D2
100
AcDbEntity
  8
0
100
AcDbLine
 62
7
  6
CONTINUOUS
 10
4.4323627421
 20
9.2483031095
 11
4.4792716337
 21
9.2437378144
  0
LWPOLYLINE
  5
2D3
100
AcDbEntity
  8
0
100
AcDbPolyline
 62
7
  6
CONTINUOUS
 90
4
 70
0
 10
4.1513312931
 20
9.4184909798
 10
4.1377755013
 20
9.4201240585
 10
4.1183935822
 20
9.4277827409
 10
4.1026379099
 20
9.4379848331
  0
LWPOLYLINE
  5
2D4
100
AcDbEntity
  8
0
100
AcDbPolyline
 62
7
  6
CONTINUOUS
 90
3
 70
0
 10
4.4782734217
 20
9.4314015549
 10
4.4622429291
 20
9.4336191457
 10
4.4553981052
 20
9.4366556931
  0
LINE
  5
2D5
100
AcDbEntity
  8
0
100
AcDbLine
 62
7
  6
CONTINUOUS
 10
10.5897052797
 20
9.5647382139
 11
10.5207078448
 21
10.2621283736
  0
LINE
  5
2D6
100
AcDbEntity
  8
0
100
AcDbLine
 62
7
  6
CONTINUOUS
 10
10.4846923427
 20
8.9145880434
 11
10.4846923427
 21
8.8841275594
  0
LINE
  5
2D7
100
AcDbEntity
  8
0
100
AcDbLine
 62
7
  6
CONTINUOUS
 10
10.4846923427
 20
8.2967103312
 11
10.4846923427
 21
8.2662498472
  0
LINE
  5
2D8
100
AcDbEntity
  8
0
100
AcDbLine
 62
7
  6
CONTINUOUS
 10
10.6251923427
 20
11.462261923
 11
10.6251923427
 21
10.4083507185
  0
LINE
  5
2D9
100
AcDbEntity
  8
0
100
AcDbLine
 62
7
  6
CONTINUOUS
 10
10.6876923427
 20
11.892920059
 11
10.6876923427
 21
11.829920059
  0
LINE
  5
2DA
100
AcDbEntity
  8
0
100
AcDbLine
 62
7
  6
CONTINUOUS
 10
17.8698191278
 20
10.2126453256
 11
17.8872499934
 21
10.2150686119
  0
LINE
  5
2DB
100
AcDbEntity
  8
0
100
AcDbLine
 62
7
  6
CONTINUOUS
 10
18.1881272232
 20
10.1485859741
 11
18.2081423083
 21
10.1512933106
  0
LINE
  5
2DC
100
AcDbEntity
  8
0
100
AcDbLine
 62
7
  6
CONTINUOUS
 10
18.0615558322
 20
9.4578427813
 11
18.0480603331
 21
9.4565639963
  0
LWPOLYLINE
  5
2DD
100
AcDbEntity
  8
0
100
AcDbPolyline
 62
7
  6
CONTINUOUS
 90
17
 70
0
 10
16.7741857347
 20
9.4224716379
 10
16.8238399039
 20
9.4269840121
 10
16.8930814385
 20
9.4488259114
 10
16.9597853797
 20
9.4883349764
 10
17.0231075558
 20
9.5436659123
 10
17.0834799754
 20
9.6122836103
 10
17.1412332658
 20
9.6904683609
 10
17.1964956214
 20
9.7741550257
 10
17.2486752136
 20
9.8578805214
 10
17.2973374803
 20
9.9369234749
 10
17.3434199365
 20
10.0097005373
 10
17.3876682276
 20
10.0749198104
 10
17.4295571377
 20
10.1300301368
 10
17.4676017607
 20
10.1724819171
 10
17.500325445
 20
10.2014889971
 10
17.5260809739
 20
10.2182113615
 10
17.5452341995
 20
10.225817805
  0
LWPOLYLINE
  5
2DE
100
AcDbEntity
  8
0
100
AcDbPolyline
 62
7
  6
CONTINUOUS
 90
6
 70
0
 10
16.4444066201
 20
9.5464338741
 10
16.509307303
 20
9.5514562539
 10
16.592072397
 20
9.5735629711
 10
16.6701077959
 20
9.6124843193
 10
16.7437263921
 20
9.6670540384
 10
16.8085428069
 20
9.7296629117
  0
LWPOLYLINE
  5
2DF
100
AcDbEntity
  8
0
100
AcDbPolyline
 62
7
  6
CONTINUOUS
 90
4
 70
0
 10
16.1176923427
 20
9.6283819556
 10
16.194421337
 20
9.633711027
 10
16.2980878599
 20
9.6582136857
 10
16.3905809937
 20
9.6979756603
  0
LWPOLYLINE
  5
2E0
100
AcDbEntity
  8
0
100
AcDbPolyline
 62
7
  6
CONTINUOUS
 90
8
 70
0
 10
18.6694429532
 20
9.4892743948
 10
18.7182887978
 20
9.4925044552
 10
18.7963831363
 20
9.5101144652
 10
18.8763917848
 20
9.5413743167
 10
18.9534426916
 20
9.5807248014
 10
19.03017564
 20
9.6243392404
 10
19.1108503737
 20
9.6698440131
 10
19.1766968711
 20
9.7037555555
  0
LWPOLYLINE
  5
2E1
100
AcDbEntity
  8
0
100
AcDbPolyline
 62
7
  6
CONTINUOUS
 90
3
 70
0
 10
19.0069535339
 20
9.5914644304
 10
19.0672825919
 20
9.5946643103
 10
19.1604760487
 20
9.6102473684
  0
LINE
  5
2E2
100
AcDbEntity
  8
0
100
AcDbLine
 62
7
  6
CONTINUOUS
 10
4.4782862591
 20
9.2437369686
 11
4.4792716337
 21
9.2437378144
  0
LINE
  5
2E3
100
AcDbEntity
  8
0
100
AcDbLine
 62
7
  6
CONTINUOUS
 10
4.1514460518
 20
9.2308498413
 11
4.1524132303
 21
9.2308505832
  0
LINE
  5
2E4
100
AcDbEntity
  8
0
100
AcDbLine
 62
7
  6
CONTINUOUS
 10
3.8264399777
 20
9.2690900868
 11
3.8273271216
 21
9.2690906799
  0
LINE
  5
2E5
100
AcDbEntity
  8
0
100
AcDbLine
 62
7
  6
CONTINUOUS
 10
17.0760848783
 20
9.3078281987
 11
17.0751682711
 21
9.3078275817
  0
LINE
  5
2E6
100
AcDbEntity
  8
0
100
AcDbLine
 62
7
  6
CONTINUOUS
 10
10.4846923427
 20
8.8841275594
 11
11.3906923427
 21
8.8841275594
  0
LINE
  5
2E7
100
AcDbEntity
  8
0
100
AcDbLine
 62
7
  6
CONTINUOUS
 10
11.3906923427
 20
8.9145880434
 11
10.4846923427
 21
8.9145880434
  0
LINE
  5
2E8
100
AcDbEntity
  8
0
100
AcDbLine
 62
9
  6
CONTINUOUS
 10
6.7001923427
 20
8.9682003482
 11
7.1751923427
 21
8.9682003482
  0
LINE
  5
2E9
100
AcDbEntity
  8
0
100
AcDbLine
 62
9
  6
CONTINUOUS
 10
14.7001923427
 20
8.9682003482
 11
15.1751923427
 21
8.9682003482
  0
LINE
  5
2EA
100
AcDbEntity
  8
0
100
AcDbLine
 62
9
  6
CONTINUOUS
 10
15.1751923427
 20
9.0182003482
 11
14.7001923427
 21
9.0182003482
  0
LINE
  5
2EB
100
AcDbEntity
  8
0
100
AcDbLine
 62
9
  6
CONTINUOUS
 10
7.1751923427
 20
9.0182003482
 11
6.7001923427
 21
9.0182003482
  0
LINE
  5
2EC
100
AcDbEntity
  8
0
100
AcDbLine
 62
9
  6
CONTINUOUS
 10
15.1939423427
 20
9.0381612475
 11
14.6814423427
 21
9.0381612475
  0
LINE
  5
2ED
100
AcDbEntity
  8
0
100
AcDbLine
 62
9
  6
CONTINUOUS
 10
6.6814423427
 20
9.0381612475
 11
7.1939423427
 21
9.0381612475
  0
LINE
  5
2EE
100
AcDbEntity
  8
0
100
AcDbLine
 62
7
  6
CONTINUOUS
 10
15.1901923427
 20
9.1580439453
 11
14.6851923427
 21
9.1580439453
  0
LINE
  5
2EF
100
AcDbEntity
  8
0
100
AcDbLine
 62
7
  6
CONTINUOUS
 10
7.1901923427
 20
9.1580439453
 11
6.6851923427
 21
9.1580439453
  0
LINE
  5
2F0
100
AcDbEntity
  8
0
100
AcDbLine
 62
7
  6
CONTINUOUS
 10
18.0489447078
 20
9.2690900868
 11
18.0480575639
 21
9.2690906799
  0
LINE
  5
2F1
100
AcDbEntity
  8
0
100
AcDbLine
 62
7
  6
CONTINUOUS
 10
4.7992998071
 20
9.3078281987
 11
4.8002164143
 21
9.3078275817
  0
LINE
  5
2F2
100
AcDbEntity
  8
0
100
AcDbLine
 62
7
  6
CONTINUOUS
 10
17.7239386337
 20
9.2308498413
 11
17.7229714551
 21
9.2308505832
  0
LINE
  5
2F3
100
AcDbEntity
  8
0
100
AcDbLine
 62
7
  6
CONTINUOUS
 10
17.3970984263
 20
9.2437369686
 11
17.3961130518
 21
9.2437378144
  0
LINE
  5
2F4
100
AcDbEntity
  8
0
100
AcDbLine
 62
7
  6
CONTINUOUS
 10
2.8081020936
 20
9.5946643103
 11
2.8684311516
 21
9.5914644304
  0
LINE
  5
2F5
100
AcDbEntity
  8
0
100
AcDbLine
 62
7
  6
CONTINUOUS
 10
3.1570958877
 20
9.4925044552
 11
3.2059417323
 21
9.4892743948
  0
LINE
  5
2F6
100
AcDbEntity
  8
0
100
AcDbLine
 62
7
  6
CONTINUOUS
 10
5.7401005858
 20
9.6296037588
 11
5.7576923427
 21
9.6283819556
  0
LINE
  5
2F7
100
AcDbEntity
  8
0
100
AcDbLine
 62
7
  6
CONTINUOUS
 10
5.3974622404
 20
9.5490275171
 11
5.4309780654
 21
9.5464338741
  0
LWPOLYLINE
  5
2F8
100
AcDbEntity
  8
0
100
AcDbPolyline
 62
7
  6
CONTINUOUS
 90
5
 70
0
 10
3.5129912041
 20
9.5459850619
 10
3.4987032
 20
9.5472066136
 10
3.4783390344
 20
9.5529620523
 10
3.4538356964
 20
9.5647006244
 10
3.4377012971
 20
9.5751228677
  0
LWPOLYLINE
  5
2F9
100
AcDbEntity
  8
0
100
AcDbPolyline
 62
7
  6
CONTINUOUS
 90
3
 70
0
 10
3.2059707816
 20
9.6767669658
 10
3.1712375171
 20
9.6798342233
 10
3.1555976044
 20
9.6839119325
  0
LWPOLYLINE
  5
2FA
100
AcDbEntity
  8
0
100
AcDbPolyline
 62
7
  6
CONTINUOUS
 90
5
 70
0
 10
3.8261516521
 20
9.4566751171
 10
3.8138288533
 20
9.4578427813
 10
3.7938904743
 20
9.4645085339
 10
3.7664389849
 20
9.4804572518
 10
3.7609793696
 20
9.4848464936
  0
LWPOLYLINE
  5
2FB
100
AcDbEntity
  8
0
100
AcDbPolyline
 62
7
  6
CONTINUOUS
 90
3
 70
0
 10
3.9893727937
 20
10.2148964877
 10
4.0055655577
 20
10.2126453256
 10
4.0124024799
 20
10.2095826742
  0
LWPOLYLINE
  5
2FC
100
AcDbEntity
  8
0
100
AcDbPolyline
 62
7
  6
CONTINUOUS
 90
3
 70
0
 10
5.7576923427
 20
10.0340658112
 10
5.7461561127
 20
10.0368694993
 10
5.6580798541
 20
10.0511059027
  0
LINE
  5
2FD
100
AcDbEntity
  8
0
100
AcDbLine
 62
7
  6
CONTINUOUS
 10
11.1876923427
 20
11.892920059
 11
11.1876923427
 21
11.829920059
  0
LINE
  5
2FE
100
AcDbEntity
  8
0
100
AcDbLine
 62
7
  6
CONTINUOUS
 10
11.2501923427
 20
11.4622594372
 11
11.2501923427
 21
10.4083532129
  0
LINE
  5
2FF
100
AcDbEntity
  8
0
100
AcDbLine
 62
7
  6
CONTINUOUS
 10
11.3906923427
 20
8.9145880434
 11
11.3906923427
 21
8.8841275594
  0
LINE
  5
300
100
AcDbEntity
  8
0
100
AcDbLine
 62
7
  6
CONTINUOUS
 10
11.3906923427
 20
8.2967103312
 11
11.3906923427
 21
8.2662498472
  0
LINE
  5
301
100
AcDbEntity
  8
0
100
AcDbLine
 62
7
  6
CONTINUOUS
 10
11.2856794058
 20
9.5647382139
 11
11.3546768407
 21
10.2621283736
  0
LINE
  5
302
100
AcDbEntity
  8
0
100
AcDbLine
 62
7
  6
CONTINUOUS
 10
17.5452341995
 20
10.225817805
 11
17.5601276892
 21
10.2276128632
  0
LWPOLYLINE
  5
303
100
AcDbEntity
  8
0
100
AcDbPolyline
 62
7
  6
CONTINUOUS
 90
17
 70
0
 10
4.4782862591
 20
9.2437369686
 10
4.5279129275
 20
9.2488470726
 10
4.5959900294
 20
9.2725515838
 10
4.6584135397
 20
9.3120117681
 10
4.7127538083
 20
9.3606243817
 10
4.7618617523
 20
9.4150794146
 10
4.8077393699
 20
9.4736675253
 10
4.8519270281
 20
9.5354091541
 10
4.8954258895
 20
9.5994360111
 10
4.9377830491
 20
9.6630005523
 10
4.9780293135
 20
9.7226884248
 10
5.0161995434
 20
9.7769736632
 10
5.0531967535
 20
9.8259563072
 10
5.0891261748
 20
9.8687700152
 10
5.1232444806
 20
9.903763423
 10
5.1547861071
 20
9.9301795191
 10
5.1805446564
 20
9.9468315872
  0
LWPOLYLINE
  5
304
100
AcDbEntity
  8
0
100
AcDbPolyline
 62
7
  6
CONTINUOUS
 90
17
 70
0
 10
17.8870277711
 20
10.4025611423
 10
17.8387674188
 20
10.3977479415
 10
17.7705695653
 20
10.3739323005
 10
17.7044751885
 20
10.3307299
 10
17.6417015488
 20
10.2699357869
 10
17.581694539
 20
10.1945978844
 10
17.5243675676
 20
10.1090953854
 10
17.4695147178
 20
10.0181132208
 10
17.4169518358
 20
9.9260635268
 10
17.3667971713
 20
9.8372333975
 10
17.3188432616
 20
9.7547431347
 10
17.273000074
 20
9.6811017313
 10
17.2295119864
 20
9.6184426896
 10
17.1889797791
 20
9.5685967773
 10
17.1521048823
 20
9.5321714046
 10
17.1202144116
 20
9.5091024377
 10
17.0949123873
 20
9.4980319216
  0
LWPOLYLINE
  5
305
100
AcDbEntity
  8
0
100
AcDbPolyline
 62
7
  6
CONTINUOUS
 90
8
 70
0
 10
17.2352156645
 20
10.3766879982
 10
17.1861134531
 20
10.3718430137
 10
17.1171372236
 20
10.348395193
 10
17.0523382399
 20
10.3083988072
 10
16.9942156633
 20
10.2577377411
 10
16.941253939
 20
10.2006674186
 10
16.8915547852
 20
10.1398272865
 10
16.8437705844
 20
10.0769912812
  0
LWPOLYLINE
  5
306
100
AcDbEntity
  8
0
100
AcDbPolyline
 62
7
  6
CONTINUOUS
 90
17
 70
0
 10
18.2078660824
 20
10.338790085
 10
18.1583130009
 20
10.3339188765
 10
18.0909935071
 20
10.3112445784
 10
18.0245315753
 20
10.2694077969
 10
17.9598983395
 20
10.2086023209
 10
17.8981678508
 20
10.1327307913
 10
17.8396195476
 20
10.0465000892
 10
17.7836197357
 20
9.9542389662
 10
17.7300076353
 20
9.8605017942
 10
17.6794017131
 20
9.7707864417
 10
17.6317365591
 20
9.6885350111
 10
17.5862909185
 20
9.6150816586
 10
17.542675548
 20
9.5518394295
 10
17.5016438457
 20
9.5010956892
 10
17.4651531115
 20
9.4649818345
 10
17.4354495091
 20
9.4435154629
 10
17.4131417564
 20
9.4336191457
  0
LWPOLYLINE
  5
307
100
AcDbEntity
  8
0
100
AcDbPolyline
 62
7
  6
CONTINUOUS
 90
17
 70
0
 10
4.1514460518
 20
9.2308498413
 10
4.1983686162
 20
9.2354578116
 10
4.2668354474
 20
9.2590399251
 10
4.3334669764
 20
9.3025607974
 10
4.3961884246
 20
9.3630150242
 10
4.4562482547
 20
9.4377130468
 10
4.5138198046
 20
9.5223717323
 10
4.5689436179
 20
9.6119705266
 10
4.6215165473
 20
9.701611286
 10
4.6711680798
 20
9.7865090883
 10
4.7183182008
 20
9.8641999111
 10
4.7633926407
 20
9.9330152884
 10
4.8063708232
 20
9.9911886609
 10
4.8468390358
 20
10.0373740568
 10
4.8834248907
 20
10.0701126819
 10
4.913042536
 20
10.0889679002
 10
4.9357138958
 20
10.0974624891
  0
LINE
  5
308
100
AcDbEntity
  8
0
100
AcDbLine
 62
7
  6
CONTINUOUS
 10
17.2215059635
 20
10.1878570317
 11
17.2352029842
 21
10.1891933849
  0
LWPOLYLINE
  5
309
100
AcDbEntity
  8
0
100
AcDbPolyline
 62
7
  6
CONTINUOUS
 90
8
 70
0
 10
4.7992998071
 20
9.3078281987
 10
4.8482482566
 20
9.3125366158
 10
4.9160775857
 20
9.3345307303
 10
4.9824449477
 20
9.3733767062
 10
5.0458674898
 20
9.426082597
 10
5.1060774725
 20
9.4875521708
 10
5.1616789559
 20
9.5509122605
 10
5.2069661009
 20
9.6044570937
  0
LWPOLYLINE
  5
30A
100
AcDbEntity
  8
0
100
AcDbPolyline
 62
7
  6
CONTINUOUS
 90
17
 70
0
 10
18.5092939211
 20
10.2244087888
 10
18.4590710484
 20
10.2197728854
 10
18.3898979693
 20
10.1978730071
 10
18.3229366857
 20
10.1580474343
 10
18.2596957904
 20
10.1025412404
 10
18.1995890533
 20
10.034089488
 10
18.1422247223
 20
9.956326506
 10
18.0873839462
 20
9.8732894848
 10
18.0354599293
 20
9.7899316987
 10
17.9867607238
 20
9.7107489688
 10
17.9404760654
 20
9.6375477119
 10
17.895976608
 20
9.5718232603
 10
17.853879052
 20
9.5163537475
 10
17.8156349819
 20
9.4736310005
 10
17.7827960952
 20
9.4444919552
 10
17.7569911033
 20
9.4277827409
 10
17.7376091842
 20
9.4201240585
  0
LWPOLYLINE
  5
30B
100
AcDbEntity
  8
0
100
AcDbPolyline
 62
7
  6
CONTINUOUS
 90
6
 70
0
 10
17.5600140715
 20
10.4150907897
 10
17.5156496527
 20
10.4110206122
 10
17.4443564709
 20
10.3868137886
 10
17.3759949889
 20
10.342200364
 10
17.3143867904
 20
10.283221087
 10
17.2569548249
 20
10.213368285
  0
LWPOLYLINE
  5
30C
100
AcDbEntity
  8
0
100
AcDbPolyline
 62
7
  6
CONTINUOUS
 90
5
 70
0
 10
16.9220358571
 20
10.2869960067
 10
16.8734734057
 20
10.2825708563
 10
16.8046869607
 20
10.2614229542
 10
16.7379406732
 20
10.2244884175
 10
16.6796758135
 20
10.1800641893
  0
LWPOLYLINE
  5
30D
100
AcDbEntity
  8
0
100
AcDbPolyline
 62
7
  6
CONTINUOUS
 90
7
 70
0
 10
16.613807748
 20
10.1560777043
 10
16.5532423187
 20
10.1511616287
 10
16.4640687979
 20
10.127667023
 10
16.3750938337
 20
10.0888511931
 10
16.2890550587
 20
10.0420933976
 10
16.2005793274
 20
9.9916291992
 10
16.1176923427
 20
9.9481512008
  0
LWPOLYLINE
  5
30E
100
AcDbEntity
  8
0
100
AcDbPolyline
 62
7
  6
CONTINUOUS
 90
3
 70
0
 10
18.8386589815
 20
10.1002513631
 10
18.7731947025
 20
10.0951356964
 10
18.6914421911
 20
10.0732233549
  0
LWPOLYLINE
  5
30F
100
AcDbEntity
  8
0
100
AcDbPolyline
 62
7
  6
CONTINUOUS
 90
4
 70
0
 10
19.1818239511
 20
10.0192181201
 10
19.0878467114
 20
10.0126081954
 10
18.9846530924
 20
9.9880355511
 10
18.8921254538
 20
9.9481027988
  0
LWPOLYLINE
  5
310
100
AcDbEntity
  8
0
100
AcDbPolyline
 62
7
  6
CONTINUOUS
 90
6
 70
0
 10
5.4299396138
 20
9.5464333492
 10
5.4882852563
 20
9.5502053034
 10
5.5765688197
 20
9.5685598379
 10
5.666877169
 20
9.5991812506
 10
5.7565006833
 20
9.6364175913
 10
5.7576923427
 20
9.6369304118
  0
LWPOLYLINE
  5
311
100
AcDbEntity
  8
0
100
AcDbPolyline
 62
7
  6
CONTINUOUS
 90
4
 70
0
 10
16.2760316277
 20
10.0541482237
 10
16.2173048314
 20
10.0511059027
 10
16.1292285727
 20
10.0368694993
 10
16.1176923427
 20
10.0340658112
  0
LINE
  5
312
100
AcDbEntity
  8
0
100
AcDbLine
 62
9
  6
CONTINUOUS
 10
5.1353214006
 20
9.4267832401
 11
5.1520824781
 21
9.4272546871
  0
LWPOLYLINE
  5
313
100
AcDbEntity
  8
0
100
AcDbPolyline
 62
7
  6
CONTINUOUS
 90
3
 70
0
 10
5.1007852888
 20
9.4224711912
 10
5.1092446286
 20
9.422600639
 10
5.1329429037
 20
9.4243584105
  0
LINE
  5
314
100
AcDbEntity
  8
0
100
AcDbLine
 62
7
  6
CONTINUOUS
 10
5.1007852888
 20
9.4224711912
 11
5.1011989511
 21
9.4224716379
  0
LINE
  5
315
100
AcDbEntity
  8
0
100
AcDbLine
 62
7
  6
CONTINUOUS
 10
4.4782501838
 20
9.4312335732
 11
4.4794783223
 21
9.431234874
  0
LINE
  5
316
100
AcDbEntity
  8
0
100
AcDbLine
 62
7
  6
CONTINUOUS
 10
19.0080499158
 20
9.5914651494
 11
19.0069535339
 21
9.5914644304
  0
LINE
  5
317
100
AcDbEntity
  8
0
100
AcDbLine
 62
7
  6
CONTINUOUS
 10
4.1513140442
 20
9.4183478012
 11
4.1525148276
 21
9.4183483983
  0
LINE
  5
318
100
AcDbEntity
  8
0
100
AcDbLine
 62
7
  6
CONTINUOUS
 10
5.4299396138
 20
9.5464333492
 11
5.4309780654
 21
9.5464338741
  0
LINE
  5
319
100
AcDbEntity
  8
0
100
AcDbLine
 62
7
  6
CONTINUOUS
 10
18.362238511
 20
9.3584138727
 11
18.3613387074
 21
9.3584136113
  0
LINE
  5
31A
100
AcDbEntity
  8
0
100
AcDbLine
 62
7
  6
CONTINUOUS
 10
18.0492435354
 20
9.4565642855
 11
18.0480603331
 21
9.4565639963
  0
LINE
  5
31B
100
AcDbEntity
  8
0
100
AcDbLine
 62
7
  6
CONTINUOUS
 10
3.2051784331
 20
9.4892742458
 11
3.2059417323
 21
9.4892743948
  0
LINE
  5
31C
100
AcDbEntity
  8
0
100
AcDbLine
 62
9
  6
CONTINUOUS
 10
15.1326923427
 20
9.3730439453
 11
14.7426923427
 21
9.3730439453
  0
LINE
  5
31D
100
AcDbEntity
  8
0
100
AcDbLine
 62
9
  6
CONTINUOUS
 10
7.1326923427
 20
9.3730439453
 11
6.7426923427
 21
9.3730439453
  0
LINE
  5
31E
100
AcDbEntity
  8
0
100
AcDbLine
 62
7
  6
CONTINUOUS
 10
6.4876923427
 20
9.6280439453
 11
6.0216923427
 21
9.6280439453
  0
LINE
  5
31F
100
AcDbEntity
  8
0
100
AcDbLine
 62
7
  6
CONTINUOUS
 10
15.3876923427
 20
9.6280439453
 11
15.8536923427
 21
9.6280439453
  0
LINE
  5
320
100
AcDbEntity
  8
0
100
AcDbLine
 62
7
  6
CONTINUOUS
 10
3.2050859911
 20
9.6767669622
 11
3.2059707816
 21
9.6767669658
  0
LINE
  5
321
100
AcDbEntity
  8
0
100
AcDbLine
 62
7
  6
CONTINUOUS
 10
18.6702062524
 20
9.4892742458
 11
18.6694429532
 21
9.4892743948
  0
LINE
  5
322
100
AcDbEntity
  8
0
100
AcDbLine
 62
7
  6
CONTINUOUS
 10
17.0760485555
 20
9.4953264159
 11
17.0748694996
 21
9.4953265592
  0
LINE
  5
323
100
AcDbEntity
  8
0
100
AcDbLine
 62
7
  6
CONTINUOUS
 10
3.5131461745
 20
9.3584138727
 11
3.5140459781
 21
9.3584136113
  0
LINE
  5
324
100
AcDbEntity
  8
0
100
AcDbLine
 62
7
  6
CONTINUOUS
 10
3.8261411501
 20
9.4565642855
 11
3.8273243524
 21
9.4565639963
  0
LINE
  5
325
100
AcDbEntity
  8
0
100
AcDbLine
 62
7
  6
CONTINUOUS
 10
16.7746026519
 20
9.6099624992
 11
16.7742162067
 21
9.6099626155
  0
LINE
  5
326
100
AcDbEntity
  8
0
100
AcDbLine
 62
7
  6
CONTINUOUS
 10
17.7240706413
 20
9.4183478012
 11
17.7228698579
 21
9.4183483983
  0
LINE
  5
327
100
AcDbEntity
  8
0
100
AcDbLine
 62
7
  6
CONTINUOUS
 10
16.4454450717
 20
9.5464333492
 11
16.4444066201
 21
9.5464338741
  0
LINE
  5
328
100
AcDbEntity
  8
0
100
AcDbLine
 62
7
  6
CONTINUOUS
 10
2.8673347697
 20
9.5914651494
 11
2.8684311516
 21
9.5914644304
  0
LINE
  5
329
100
AcDbEntity
  8
0
100
AcDbLine
 62
7
  6
CONTINUOUS
 10
3.5129840218
 20
9.5459010539
 11
3.5139827003
 21
9.545900294
  0
LINE
  5
32A
100
AcDbEntity
  8
0
100
AcDbLine
 62
7
  6
CONTINUOUS
 10
16.7745993967
 20
9.4224711912
 11
16.7741857344
 21
9.4224716379
  0
LINE
  5
32B
100
AcDbEntity
  8
0
100
AcDbLine
 62
7
  6
CONTINUOUS
 10
17.3971345017
 20
9.4312335732
 11
17.3959063632
 21
9.431234874
  0
LWPOLYLINE
  5
32C
100
AcDbEntity
  8
0
100
AcDbPolyline
 62
7
  6
CONTINUOUS
 90
4
 70
0
 10
16.7746026519
 20
9.6099624992
 10
16.7712748973
 20
9.6100175554
 10
16.7630168205
 20
9.61064744
 10
16.756703975
 20
9.6116019454
  0
LINE
  5
32D
100
AcDbEntity
  8
0
100
AcDbLine
 62
9
  6
CONTINUOUS
 10
16.7400632866
 20
9.6120512201
 11
16.756703975
 21
9.6116019454
  0
LINE
  5
32E
100
AcDbEntity
  8
0
100
AcDbLine
 62
7
  6
CONTINUOUS
 10
5.6580798541
 20
10.0511059027
 11
5.5993530577
 21
10.0541482237
  0
LINE
  5
32F
100
AcDbEntity
  8
0
100
AcDbLine
 62
7
  6
CONTINUOUS
 10
16.3870994292
 20
9.5502053034
 11
16.4454450717
 21
9.5464333492
  0
LINE
  5
330
100
AcDbEntity
  8
0
100
AcDbLine
 62
7
  6
CONTINUOUS
 10
2.7276381832
 20
10.0168212698
 11
2.6935607343
 21
10.0192181201
  0
LINE
  5
331
100
AcDbEntity
  8
0
100
AcDbLine
 62
7
  6
CONTINUOUS
 10
3.0701043263
 20
10.0976430108
 11
3.036725704
 21
10.1002513631
  0
LINE
  5
332
100
AcDbEntity
  8
0
100
AcDbLine
 62
7
  6
CONTINUOUS
 10
5.3221423667
 20
10.1511616287
 11
5.2615769375
 21
10.1560777043
  0
LWPOLYLINE
  5
333
100
AcDbEntity
  8
0
100
AcDbPolyline
 62
7
  6
CONTINUOUS
 90
5
 70
0
 10
4.9534013862
 20
10.0995106112
 10
4.96889821
 20
10.0981553516
 10
4.9892181412
 20
10.0924084284
 10
5.0133576025
 20
10.0809082408
 10
5.0297246128
 20
10.0703847837
  0
LWPOLYLINE
  5
334
100
AcDbEntity
  8
0
100
AcDbPolyline
 62
7
  6
CONTINUOUS
 90
3
 70
0
 10
5.2617317688
 20
9.968582728
 10
5.2969436167
 20
9.9654336215
 10
5.3116334724
 20
9.9615964513
  0
LINE
  5
335
100
AcDbEntity
  8
0
100
AcDbLine
 62
7
  6
CONTINUOUS
 10
5.0019112798
 20
10.2825708563
 11
4.9533488283
 21
10.2869960067
  0
LINE
  5
336
100
AcDbEntity
  8
0
100
AcDbLine
 62
7
  6
CONTINUOUS
 10
4.3597350328
 20
10.4110206122
 11
4.315370614
 21
10.4150907897
  0
LINE
  5
337
100
AcDbEntity
  8
0
100
AcDbLine
 62
7
  6
CONTINUOUS
 10
17.0271364289
 20
9.3125366158
 11
17.0760848783
 21
9.3078281987
  0
LWPOLYLINE
  5
338
100
AcDbEntity
  8
0
100
AcDbPolyline
 62
7
  6
CONTINUOUS
 90
5
 70
0
 10
4.6413966675
 20
10.1890748464
 10
4.653878722
 20
10.1878570317
 10
4.6738630683
 20
10.1810915425
 10
4.7014080732
 20
10.1650325682
 10
4.7065831091
 20
10.1608725491
  0
LINE
  5
339
100
AcDbEntity
  8
0
100
AcDbLine
 62
7
  6
CONTINUOUS
 10
17.6770160693
 20
9.2354578116
 11
17.7239386337
 21
9.2308498413
  0
LINE
  5
33A
100
AcDbEntity
  8
0
100
AcDbLine
 62
7
  6
CONTINUOUS
 10
3.7170716845
 20
10.3339188765
 11
3.667518603
 21
10.338790085
  0
LINE
  5
33B
100
AcDbEntity
  8
0
100
AcDbLine
 62
7
  6
CONTINUOUS
 10
4.6892712324
 20
10.3718430137
 11
4.640169021
 21
10.3766879982
  0
LINE
  5
33C
100
AcDbEntity
  8
0
100
AcDbLine
 62
7
  6
CONTINUOUS
 10
4.0366172667
 20
10.3977479415
 11
3.9883569144
 21
10.4025611423
  0
LINE
  5
33D
100
AcDbEntity
  8
0
100
AcDbLine
 62
7
  6
CONTINUOUS
 10
17.3474717579
 20
9.2488470726
 11
17.3970984263
 21
9.2437369686
  0
LWPOLYLINE
  5
33E
100
AcDbEntity
  8
0
100
AcDbPolyline
 62
7
  6
CONTINUOUS
 90
4
 70
0
 10
4.3164213098
 20
10.2274725328
 10
4.330150486
 20
10.225817805
 10
4.3493037116
 20
10.2182113615
 10
4.3651101601
 20
10.2079486644
  0
LINE
  5
33F
100
AcDbEntity
  8
0
100
AcDbLine
 62
7
  6
CONTINUOUS
 10
12.1126923427
 20
6.3604189453
 11
12.1126923427
 21
6.2754189453
  0
LINE
  5
340
100
AcDbEntity
  8
0
100
AcDbLine
 62
7
  6
CONTINUOUS
 10
5.1520824781
 20
9.4272546871
 11
5.1521354909
 21
9.4272645388
  0
LINE
  5
341
100
AcDbEntity
  8
0
100
AcDbLine
 62
7
  6
CONTINUOUS
 10
5.1329429037
 20
9.4243584105
 11
5.1520824781
 21
9.4272546871
  0
LINE
  5
342
100
AcDbEntity
  8
0
100
AcDbLine
 62
7
  6
CONTINUOUS
 10
3.8456397096
 20
9.4593222578
 11
3.8261411501
 21
9.4565642855
  0
LINE
  5
343
100
AcDbEntity
  8
0
100
AcDbLine
 62
7
  6
CONTINUOUS
 10
4.1678019119
 20
9.4205930793
 11
4.1513140442
 21
9.4183478012
  0
LINE
  5
344
100
AcDbEntity
  8
0
100
AcDbLine
 62
7
  6
CONTINUOUS
 10
4.4946830558
 20
9.4333780803
 11
4.4782501838
 21
9.4312335732
  0
LINE
  5
345
100
AcDbEntity
  8
0
100
AcDbLine
 62
9
  6
CONTINUOUS
 10
5.1011989511
 20
9.4224716379
 11
5.1353214006
 21
9.4267832401
  0
LINE
  5
346
100
AcDbEntity
  8
0
100
AcDbLine
 62
7
  6
CONTINUOUS
 10
3.5319871465
 20
9.5480067423
 11
3.5129840218
 21
9.5459010539
  0
LWPOLYLINE
  5
347
100
AcDbEntity
  8
0
100
AcDbPolyline
 62
7
  6
CONTINUOUS
 90
17
 70
0
 10
3.5131461745
 20
9.3584138727
 10
3.5658601485
 20
9.3636835411
 10
3.6366779532
 20
9.388118356
 10
3.7048117131
 20
9.4317896004
 10
3.7697142534
 20
9.4930976087
 10
3.8309512138
 20
9.5679832661
 10
3.8891681201
 20
9.6524061482
 10
3.944649585
 20
9.7418413079
 10
3.9972789212
 20
9.8312873623
 10
4.0469942907
 20
9.9165784197
 10
4.0941415169
 20
9.994923173
 10
4.1389438136
 20
10.0641795899
 10
4.1811381236
 20
10.1223699901
 10
4.219559146
 20
10.1672999695
 10
4.2529828708
 20
10.1984872687
 10
4.2796806331
 20
10.2168426882
 10
4.3000448691
 20
10.2254374385
  0
LWPOLYLINE
  5
348
100
AcDbEntity
  8
0
100
AcDbPolyline
 62
7
  6
CONTINUOUS
 90
17
 70
0
 10
3.8264399777
 20
9.2690900868
 10
3.8751511793
 20
9.2738982103
 10
3.9430551343
 20
9.2970894981
 10
4.0097526158
 20
9.3401718736
 10
4.0741809347
 20
9.4021796937
 10
4.1357513304
 20
9.4796488057
 10
4.1937279594
 20
9.5665713295
 10
4.2486885136
 20
9.6584304569
 10
4.3008915764
 20
9.7507345069
 10
4.350484968
 20
9.8395494516
 10
4.3981338368
 20
9.9227148667
 10
4.4439825199
 20
9.9977374963
 10
4.4878813221
 20
10.0623094318
 10
4.5292522343
 20
10.1144243339
 10
4.5667431769
 20
10.1522456468
 10
4.5985664601
 20
10.1757822026
 10
4.6225638931
 20
10.186616223
  0
LWPOLYLINE
  5
349
100
AcDbEntity
  8
0
100
AcDbPolyline
 62
7
  6
CONTINUOUS
 90
8
 70
0
 10
2.8673347697
 20
9.5914651494
 10
2.9440790431
 20
9.5971666106
 10
3.0349837292
 20
9.6201572002
 10
3.1191520859
 20
9.6592053006
 10
3.198460393
 20
9.7129688695
 10
3.2749241191
 20
9.7800114338
 10
3.3459939116
 20
9.8541902884
 10
3.4020093012
 20
9.9187881477
  0
LWPOLYLINE
  5
34A
100
AcDbEntity
  8
0
100
AcDbPolyline
 62
7
  6
CONTINUOUS
 90
8
 70
0
 10
5.6003999826
 20
10.0541474167
 10
5.5246499688
 20
10.0486008051
 10
5.433517095
 20
10.0258295844
 10
5.3489371248
 20
9.9868078362
 10
5.2689378289
 20
9.9327409309
 10
5.1917835421
 20
9.8651594575
 10
5.12019871
 20
9.7904476505
 10
5.0636822864
 20
9.7253295038
  0
LWPOLYLINE
  5
34B
100
AcDbEntity
  8
0
100
AcDbPolyline
 62
7
  6
CONTINUOUS
 90
4
 70
0
 10
3.2051784331
 20
9.4892742458
 10
3.25324793
 20
9.4925749426
 10
3.3187017118
 20
9.5083049585
 10
3.3749941212
 20
9.5330240023
  0
LWPOLYLINE
  5
34C
100
AcDbEntity
  8
0
100
AcDbPolyline
 62
7
  6
CONTINUOUS
 90
4
 70
0
 10
5.2625329696
 20
10.1560779284
 10
5.2146982396
 20
10.1528181709
 10
5.1480511371
 20
10.13675743
 10
5.0901596443
 20
10.1110543024
  0
LINE
  5
34D
100
AcDbEntity
  8
0
100
AcDbLine
 62
7
  6
CONTINUOUS
 10
3.2289907651
 20
9.6783914281
 11
3.2050859911
 21
9.6767669622
  0
LINE
  5
34E
100
AcDbEntity
  8
0
100
AcDbLine
 62
7
  6
CONTINUOUS
 10
5.2388947607
 20
9.9669933691
 11
5.2626198234
 21
9.9685825921
  0
LINE
  5
34F
100
AcDbEntity
  8
0
100
AcDbLine
 62
7
  6
CONTINUOUS
 10
2.6638206107
 20
10.0185619605
 11
2.6459442569
 21
10.0175827866
  0
LINE
  5
350
100
AcDbEntity
  8
0
100
AcDbLine
 62
9
  6
CONTINUOUS
 10
3.3127774334
 20
10.2191777841
 11
3.3303360882
 21
10.2196916175
  0
LINE
  5
351
100
AcDbEntity
  8
0
100
AcDbLine
 62
7
  6
CONTINUOUS
 10
2.6910230387
 20
10.0192102851
 11
2.6638206107
 21
10.0185619605
  0
LWPOLYLINE
  5
352
100
AcDbEntity
  8
0
100
AcDbPolyline
 62
7
  6
CONTINUOUS
 90
3
 70
0
 10
3.3664748035
 20
10.2244090127
 10
3.3582357417
 20
10.2242893546
 10
3.3334086169
 20
10.2224231984
  0
LINE
  5
353
100
AcDbEntity
  8
0
100
AcDbLine
 62
7
  6
CONTINUOUS
 10
2.6945186061
 20
10.0192195047
 11
2.6910230387
 21
10.0192102851
  0
LINE
  5
354
100
AcDbEntity
  8
0
100
AcDbLine
 62
9
  6
CONTINUOUS
 10
2.6935607343
 20
10.0192181201
 11
2.6945186061
 21
10.0192195047
  0
LINE
  5
355
100
AcDbEntity
  8
0
100
AcDbLine
 62
7
  6
CONTINUOUS
 10
16.9220358571
 20
10.2869960067
 11
16.9211051979
 21
10.2869950243
  0
LINE
  5
356
100
AcDbEntity
  8
0
100
AcDbLine
 62
7
  6
CONTINUOUS
 10
3.988134692
 20
10.2150686119
 11
3.9893968853
 21
10.2150697805
  0
LINE
  5
357
100
AcDbEntity
  8
0
100
AcDbLine
 62
7
  6
CONTINUOUS
 10
16.2760316277
 20
10.0541482237
 11
16.2749847029
 21
10.0541474167
  0
LINE
  5
358
100
AcDbEntity
  8
0
100
AcDbLine
 62
7
  6
CONTINUOUS
 10
17.2352029842
 20
10.1891933849
 11
17.233976537
 21
10.1891925217
  0
LINE
  5
359
100
AcDbEntity
  8
0
100
AcDbLine
 62
7
  6
CONTINUOUS
 10
3.667518603
 20
10.338790085
 11
3.6684383369
 21
10.3387907039
  0
LINE
  5
35A
100
AcDbEntity
  8
0
100
AcDbLine
 62
7
  6
CONTINUOUS
 10
3.3660907644
 20
10.2244087888
 11
3.3664748037
 21
10.2244090127
  0
LINE
  5
35B
100
AcDbEntity
  8
0
100
AcDbLine
 62
7
  6
CONTINUOUS
 10
3.9883569144
 20
10.4025611423
 11
3.9893506154
 21
10.4025617144
  0
LINE
  5
35C
100
AcDbEntity
  8
0
100
AcDbLine
 62
7
  6
CONTINUOUS
 10
4.315370614
 20
10.4150907897
 11
4.3162840219
 21
10.4150913484
  0
LINE
  5
35D
100
AcDbEntity
  8
0
100
AcDbLine
 62
7
  6
CONTINUOUS
 10
3.036725704
 20
10.1002513631
 11
3.0377862146
 21
10.1002517967
  0
LINE
  5
35E
100
AcDbEntity
  8
0
100
AcDbLine
 62
7
  6
CONTINUOUS
 10
4.3152569963
 20
10.2276128632
 11
4.3164382826
 21
10.2276133553
  0
LINE
  5
35F
100
AcDbEntity
  8
0
100
AcDbLine
 62
7
  6
CONTINUOUS
 10
4.640169021
 20
10.3766879982
 11
4.6410612501
 21
10.3766882693
  0
LINE
  5
360
100
AcDbEntity
  8
0
100
AcDbLine
 62
7
  6
CONTINUOUS
 10
5.2615769375
 20
10.1560777043
 11
5.2625329696
 21
10.1560779284
  0
LINE
  5
361
100
AcDbEntity
  8
0
100
AcDbLine
 62
7
  6
CONTINUOUS
 10
6.4876923427
 20
10.0180439453
 11
6.0216923427
 21
10.0180439453
  0
LINE
  5
362
100
AcDbEntity
  8
0
100
AcDbLine
 62
7
  6
CONTINUOUS
 10
15.3876923427
 20
10.0180439453
 11
15.8536923427
 21
10.0180439453
  0
LINE
  5
363
100
AcDbEntity
  8
0
100
AcDbLine
 62
7
  6
CONTINUOUS
 10
18.5093197366
 20
10.0369244719
 11
18.5089181994
 21
10.0369244338
  0
LINE
  5
364
100
AcDbEntity
  8
0
100
AcDbLine
 62
7
  6
CONTINUOUS
 10
10.4846923427
 20
10.0879609594
 11
10.5379393824
 21
10.0879609594
  0
LINE
  5
365
100
AcDbEntity
  8
0
100
AcDbLine
 62
7
  6
CONTINUOUS
 10
11.337445303
 20
10.0879609594
 11
11.3906923427
 21
10.0879609594
  0
LINE
  5
366
100
AcDbEntity
  8
0
100
AcDbLine
 62
7
  6
CONTINUOUS
 10
11.374192924
 20
10.2154189453
 11
11.3500555671
 21
10.2154189453
  0
LINE
  5
367
100
AcDbEntity
  8
0
100
AcDbLine
 62
7
  6
CONTINUOUS
 10
10.5253291184
 20
10.2154189453
 11
10.5011886572
 21
10.2154189453
  0
LINE
  5
368
100
AcDbEntity
  8
0
100
AcDbLine
 62
7
  6
CONTINUOUS
 10
5.2617317688
 20
9.968582728
 11
5.2626198234
 21
9.9685825921
  0
LINE
  5
369
100
AcDbEntity
  8
0
100
AcDbLine
 62
7
  6
CONTINUOUS
 10
16.613807748
 20
10.1560777043
 11
16.6128517159
 21
10.1560779284
  0
LINE
  5
36A
100
AcDbEntity
  8
0
100
AcDbLine
 62
7
  6
CONTINUOUS
 10
17.2352156645
 20
10.3766879982
 11
17.2343234354
 21
10.3766882693
  0
LINE
  5
36B
100
AcDbEntity
  8
0
100
AcDbLine
 62
7
  6
CONTINUOUS
 10
18.8386589815
 20
10.1002513631
 11
18.8375984708
 21
10.1002517967
  0
LINE
  5
36C
100
AcDbEntity
  8
0
100
AcDbLine
 62
7
  6
CONTINUOUS
 10
17.5601276892
 20
10.2276128632
 11
17.5589464029
 21
10.2276133553
  0
LINE
  5
36D
100
AcDbEntity
  8
0
100
AcDbLine
 62
7
  6
CONTINUOUS
 10
4.6401817013
 20
10.1891933849
 11
4.6414081485
 21
10.1891925217
  0
LINE
  5
36E
100
AcDbEntity
  8
0
100
AcDbLine
 62
7
  6
CONTINUOUS
 10
18.5092939211
 20
10.2244087888
 11
18.5089098818
 21
10.2244090127
  0
LINE
  5
36F
100
AcDbEntity
  8
0
100
AcDbLine
 62
7
  6
CONTINUOUS
 10
18.2078660824
 20
10.338790085
 11
18.2069463485
 21
10.3387907039
  0
LINE
  5
370
100
AcDbEntity
  8
0
100
AcDbLine
 62
7
  6
CONTINUOUS
 10
17.8870277711
 20
10.4025611423
 11
17.8860340701
 21
10.4025617144
  0
LINE
  5
371
100
AcDbEntity
  8
0
100
AcDbLine
 62
7
  6
CONTINUOUS
 10
17.5600140715
 20
10.4150907897
 11
17.5591006636
 21
10.4150913484
  0
LINE
  5
372
100
AcDbEntity
  8
0
100
AcDbLine
 62
7
  6
CONTINUOUS
 10
5.5993530577
 20
10.0541482237
 11
5.6003999826
 21
10.0541474167
  0
LINE
  5
373
100
AcDbEntity
  8
0
100
AcDbLine
 62
7
  6
CONTINUOUS
 10
17.8872499934
 20
10.2150686119
 11
17.8859878002
 21
10.2150697805
  0
LINE
  5
374
100
AcDbEntity
  8
0
100
AcDbLine
 62
7
  6
CONTINUOUS
 10
4.9533488283
 20
10.2869960067
 11
4.9542794876
 21
10.2869950243
  0
LINE
  5
375
100
AcDbEntity
  8
0
100
AcDbLine
 62
7
  6
CONTINUOUS
 10
18.2081423083
 20
10.1512933106
 11
18.2069715929
 21
10.1512946982
  0
LINE
  5
376
100
AcDbEntity
  8
0
100
AcDbLine
 62
7
  6
CONTINUOUS
 10
4.9534013862
 20
10.0995106112
 11
4.9544936209
 21
10.0995090941
  0
LINE
  5
377
100
AcDbEntity
  8
0
100
AcDbLine
 62
7
  6
CONTINUOUS
 10
19.1843616468
 20
10.0192102851
 11
19.1808660793
 21
10.0192195047
  0
LWPOLYLINE
  5
378
100
AcDbEntity
  8
0
100
AcDbPolyline
 62
7
  6
CONTINUOUS
 90
4
 70
0
 10
18.5089181989
 20
10.0369244338
 10
18.5121495978
 20
10.0368739011
 10
18.5207788225
 20
10.0362090833
 10
18.5276045669
 20
10.0351362841
  0
LINE
  5
379
100
AcDbEntity
  8
0
100
AcDbLine
 62
9
  6
CONTINUOUS
 10
18.5276045671
 20
10.0351362841
 11
18.5450485961
 21
10.0346445772
  0
LWPOLYLINE
  5
37A
100
AcDbEntity
  8
0
100
AcDbPolyline
 62
7
  6
CONTINUOUS
 90
3
 70
0
 10
19.2324478751
 20
10.0174180543
 10
19.2115640748
 20
10.0185619605
 10
19.1843616468
 20
10.0192102851
  0
LINE
  5
37B
100
AcDbEntity
  8
0
100
AcDbLine
 62
7
  6
CONTINUOUS
 10
16.6500128785
 20
10.1535455345
 11
16.6128517159
 21
10.1560779284
  0
LINE
  5
37C
100
AcDbEntity
  8
0
100
AcDbLine
 62
7
  6
CONTINUOUS
 10
18.6331165493
 20
9.4918210139
 11
18.6702062524
 21
9.4892742458
  0
LINE
  5
37D
100
AcDbEntity
  8
0
100
AcDbLine
 62
7
  6
CONTINUOUS
 10
16.3069312329
 20
10.0518082093
 11
16.2749847029
 21
10.0541474167
  0
LINE
  5
37E
100
AcDbEntity
  8
0
100
AcDbLine
 62
7
  6
CONTINUOUS
 10
18.9764667662
 20
9.5938115147
 11
19.0080499158
 21
9.5914651494
  0
LWPOLYLINE
  5
37F
100
AcDbEntity
  8
0
100
AcDbPolyline
 62
7
  6
CONTINUOUS
 90
5
 70
0
 10
17.0748794913
 20
9.4954345661
 10
17.0618919665
 20
9.496636043
 10
17.0407167093
 20
9.503327531
 10
17.0127899064
 20
9.5185314629
 10
17.0028552965
 20
9.5259694822
  0
LINE
  5
380
100
AcDbEntity
  8
0
100
AcDbLine
 62
7
  6
CONTINUOUS
 10
18.0002335062
 20
9.2738982103
 11
18.0489447078
 21
9.2690900868
  0
LINE
  5
381
100
AcDbEntity
  8
0
100
AcDbLine
 62
7
  6
CONTINUOUS
 10
18.3095245369
 20
9.3636835411
 11
18.362238511
 21
9.3584138727
  0
LWPOLYLINE
  5
382
100
AcDbEntity
  8
0
100
AcDbPolyline
 62
7
  6
CONTINUOUS
 90
4
 70
0
 10
17.3959267619
 20
9.4313911845
 10
17.3807016297
 20
9.4333780803
 10
17.3602271608
 20
9.4416040006
 10
17.3379579436
 20
9.4559466678
  0
LWPOLYLINE
  5
383
100
AcDbEntity
  8
0
100
AcDbPolyline
 62
7
  6
CONTINUOUS
 90
4
 70
0
 10
17.7228916404
 20
9.4185083547
 10
17.7075827736
 20
9.4205930793
 10
17.6871418526
 20
9.4293469698
 10
17.6849497454
 20
9.4308661617
  0
LINE
  5
384
100
AcDbEntity
  8
0
100
AcDbLine
 62
7
  6
CONTINUOUS
 10
18.0480835808
 20
9.4567283552
 11
18.0435812947
 21
9.4573651807
  0
LWPOLYLINE
  5
385
100
AcDbEntity
  8
0
100
AcDbPolyline
 62
7
  6
CONTINUOUS
 90
4
 70
0
 10
16.7233022074
 20
9.4272546871
 10
16.7424417817
 20
9.4243584105
 10
16.7661400569
 20
9.422600639
 10
16.7745993967
 20
9.4224711912
  0
LINE
  5
386
100
AcDbEntity
  8
0
100
AcDbLine
 62
7
  6
CONTINUOUS
 10
16.7233022074
 20
9.4272546871
 11
16.7232491946
 21
9.4272645388
  0
LINE
  5
387
100
AcDbEntity
  8
0
100
AcDbLine
 62
7
  6
CONTINUOUS
 10
4.6225638931
 20
10.186616223
 11
4.6414081485
 21
10.1891925217
  0
LINE
  5
388
100
AcDbEntity
  8
0
100
AcDbLine
 62
7
  6
CONTINUOUS
 10
4.3000448691
 20
10.2254374385
 11
4.3164382826
 21
10.2276133553
  0
LINE
  5
389
100
AcDbEntity
  8
0
100
AcDbLine
 62
7
  6
CONTINUOUS
 10
3.9736275645
 20
10.2131318162
 11
3.9893968853
 21
10.2150697805
  0
LINE
  5
38A
100
AcDbEntity
  8
0
100
AcDbLine
 62
7
  6
CONTINUOUS
 10
4.9357138958
 20
10.0974624891
 11
4.9544936209
 21
10.0995090941
  0
LWPOLYLINE
  5
38B
100
AcDbEntity
  8
0
100
AcDbPolyline
 62
7
  6
CONTINUOUS
 90
17
 70
0
 10
3.9893506154
 20
10.4025617144
 10
3.9383698359
 20
10.3972022135
 10
3.8695366067
 20
10.3727615779
 10
3.8073093888
 20
10.3327765763
 10
3.7530672422
 20
10.2838064067
 10
3.7039243324
 20
10.2289891986
 10
3.6579687973
 20
10.1700224193
 10
3.6137208926
 20
10.107954657
 10
3.5702369432
 20
10.0437630064
 10
3.5279890218
 20
9.980278234
 10
3.4879018206
 20
9.920835611
 10
3.4498096636
 20
9.8667166531
 10
3.4128567908
 20
9.8178607498
 10
3.3769776625
 20
9.7752625848
 10
3.3428931181
 20
9.7405096875
 10
3.3114012436
 20
9.71429841
 10
3.2856093868
 20
9.697785588
  0
LWPOLYLINE
  5
38C
100
AcDbEntity
  8
0
100
AcDbPolyline
 62
7
  6
CONTINUOUS
 90
17
 70
0
 10
4.9542794876
 20
10.2869950243
 10
4.9034919551
 20
10.2821143806
 10
4.8334363284
 20
10.2585806089
 10
4.7651325497
 20
10.215649311
 10
4.6995947174
 20
10.1543344598
 10
4.6381289149
 20
10.0796654828
 10
4.5799283844
 20
9.9956920641
 10
4.5244517562
 20
9.9065210643
 10
4.4716533036
 20
9.8168747354
 10
4.4217738332
 20
9.7313177183
 10
4.3744972388
 20
9.6527136046
 10
4.3295896825
 20
9.5831540558
 10
4.2872883844
 20
9.5246649448
 10
4.2487236119
 20
9.4794676117
 10
4.2151367125
 20
9.4479851857
 10
4.1882428329
 20
9.4293469698
 10
4.1678019119
 20
9.4205930793
  0
LWPOLYLINE
  5
38D
100
AcDbEntity
  8
0
100
AcDbPolyline
 62
7
  6
CONTINUOUS
 90
17
 70
0
 10
4.6410612501
 20
10.3766882693
 10
4.5940330753
 20
10.3722037552
 10
4.5266337942
 20
10.3496410347
 10
4.4601891664
 20
10.3074253509
 10
4.3955049342
 20
10.245923652
 10
4.3336290699
 20
10.1686164421
 10
4.2755100326
 20
10.0818716005
 10
4.2204866419
 20
9.9901086392
 10
4.1680943512
 20
9.8975782342
 10
4.1181881113
 20
9.8081898337
 10
4.0705170527
 20
9.7248914783
 10
4.0248537547
 20
9.6500223029
 10
3.9812211562
 20
9.585549039
 10
3.940071706
 20
9.533324583
 10
3.9024834255
 20
9.4949343234
 10
3.8702033162
 20
9.470625257
 10
3.8456397096
 20
9.4593222578
  0
LWPOLYLINE
  5
38E
100
AcDbEntity
  8
0
100
AcDbPolyline
 62
7
  6
CONTINUOUS
 90
17
 70
0
 10
4.3162840219
 20
10.4150913484
 10
4.2707487331
 20
10.4107701227
 10
4.2014699328
 20
10.3873002938
 10
4.13417673
 20
10.343541329
 10
4.0713988772
 20
10.2830174059
 10
4.011626122
 20
10.2086163163
 10
3.9543878156
 20
10.1245437674
 10
3.8995326348
 20
10.0354251794
 10
3.8470761629
 20
9.9459780134
 10
3.7973016893
 20
9.8608219948
 10
3.7500494066
 20
9.7828423851
 10
3.7049513224
 20
9.7137926487
 10
3.6618965267
 20
9.6552771407
 10
3.621189275
 20
9.6086417513
 10
3.5841565394
 20
9.5754465661
 10
3.5544007705
 20
9.5564394794
 10
3.5319871465
 20
9.5480067423
  0
LWPOLYLINE
  5
38F
100
AcDbEntity
  8
0
100
AcDbPolyline
 62
7
  6
CONTINUOUS
 90
8
 70
0
 10
3.6684383369
 20
10.3387907039
 10
3.6204148592
 20
10.3342557252
 10
3.5519844432
 20
10.3123249714
 10
3.4850251874
 20
10.2731536265
 10
3.4211493712
 20
10.2199841624
 10
3.3605047717
 20
10.1578839909
 10
3.3045259288
 20
10.0939154964
 10
3.2586571946
 20
10.0395848649
  0
LWPOLYLINE
  5
390
100
AcDbEntity
  8
0
100
AcDbPolyline
 62
7
  6
CONTINUOUS
 90
5
 70
0
 10
3.0377862146
 20
10.1002517967
 10
2.9796650411
 20
10.0965116574
 10
2.8890268406
 20
10.077492368
 10
2.7969750453
 20
10.0458646378
 10
2.7057682063
 20
10.007660518
  0
LINE
  5
391
100
AcDbEntity
  8
0
100
AcDbLine
 62
7
  6
CONTINUOUS
 10
18.8957196444
 20
10.0965116574
 11
18.8375984708
 21
10.1002517967
  0
LWPOLYLINE
  5
392
100
AcDbEntity
  8
0
100
AcDbPolyline
 62
7
  6
CONTINUOUS
 90
5
 70
0
 10
18.2081326505
 20
10.1511881095
 10
18.2211075805
 20
10.1499969704
 10
18.2426102752
 20
10.1432442742
 10
18.2708776855
 20
10.1277831088
 10
18.280335233
 20
10.1206563682
  0
LINE
  5
393
100
AcDbEntity
  8
0
100
AcDbLine
 62
7
  6
CONTINUOUS
 10
18.2549698263
 20
10.3342557252
 11
18.2069463485
 21
10.3387907039
  0
LINE
  5
394
100
AcDbEntity
  8
0
100
AcDbLine
 62
7
  6
CONTINUOUS
 10
17.6046359524
 20
10.4107701227
 11
17.5591006636
 21
10.4150913484
  0
LINE
  5
395
100
AcDbEntity
  8
0
100
AcDbLine
 62
7
  6
CONTINUOUS
 10
17.2813516102
 20
10.3722037552
 11
17.2343234354
 21
10.3766882693
  0
LINE
  5
396
100
AcDbEntity
  8
0
100
AcDbLine
 62
7
  6
CONTINUOUS
 10
16.9718927304
 20
10.2821143806
 11
16.9211051979
 21
10.2869950243
  0
LINE
  5
397
100
AcDbEntity
  8
0
100
AcDbLine
 62
7
  6
CONTINUOUS
 10
17.9370148496
 20
10.3972022135
 11
17.8860340701
 21
10.4025617144
  0
LWPOLYLINE
  5
398
100
AcDbEntity
  8
0
100
AcDbPolyline
 62
7
  6
CONTINUOUS
 90
4
 70
0
 10
17.8872313555
 20
10.2149169543
 10
17.9017571209
 20
10.2131318162
 10
17.9218437578
 20
10.2052980829
 10
17.9451398587
 20
10.1904630102
  0
LWPOLYLINE
  5
399
100
AcDbEntity
  8
0
100
AcDbPolyline
 62
7
  6
CONTINUOUS
 90
4
 70
0
 10
17.5601073023
 20
10.2274592678
 10
17.5753398164
 20
10.2254374385
 10
17.5957040523
 20
10.2168426882
 10
17.5981003682
 20
10.2151951575
  0
LINE
  5
39A
100
AcDbEntity
  8
0
100
AcDbLine
 62
7
  6
CONTINUOUS
 10
17.2351803653
 20
10.1890279399
 11
17.2393668947
 21
10.1884555771
  0
LINE
  5
39B
100
AcDbEntity
  8
0
100
AcDbLine
 62
7
  6
CONTINUOUS
 10
16.756703975
 20
9.6116019454
 11
16.7567740701
 21
9.6115890697
  0
LWPOLYLINE
  5
39C
100
AcDbEntity
  8
0
100
AcDbPolyline
 62
7
  6
CONTINUOUS
 90
3
 70
0
 10
16.7567740699
 20
9.6115890697
 10
16.7262188995
 20
9.6200504523
 10
16.6976123783
 20
9.6328720666
  0
LINE
  5
39D
100
AcDbEntity
  8
0
100
AcDbLine
 62
7
  6
CONTINUOUS
 10
15.5788557824
 20
7.0589189453
 11
15.6957488268
 21
6.942362624
  0
LWPOLYLINE
  5
39E
100
AcDbEntity
  8
0
100
AcDbPolyline
 62
7
  6
CONTINUOUS
 90
7
 70
0
 10
16.3905809937
 20
9.6979756603
 10
16.4783568373
 20
9.7519822849
 10
16.5618514356
 20
9.8169774496
 10
16.6327408977
 20
9.8804751601
 10
16.6922842698
 20
9.9371249619
 10
16.7476585978
 20
9.9897016722
 10
16.8003785803
 20
10.0367548603
  0
LINE
  5
39F
100
AcDbEntity
  8
0
100
AcDbLine
 62
7
  6
CONTINUOUS
 10
5.4898996336
 20
9.8468921226
 11
5.4898778953
 21
9.8468860679
  0
LINE
  5
3A0
100
AcDbEntity
  8
0
100
AcDbLine
 62
7
  6
CONTINUOUS
 10
5.7576923427
 20
9.9684395346
 11
5.7005162454
 21
9.953147539
  0
LINE
  5
3A1
100
AcDbEntity
  8
0
100
AcDbLine
 62
7
  6
CONTINUOUS
 10
2.6702282546
 20
9.6671094755
 11
2.7684711408
 21
9.6932148034
  0
LINE
  5
3A2
100
AcDbEntity
  8
0
100
AcDbLine
 62
7
  6
CONTINUOUS
 10
3.3127231338
 20
10.219167214
 11
3.3127774334
 21
10.2191777841
  0
LINE
  5
3A3
100
AcDbEntity
  8
0
100
AcDbLine
 62
7
  6
CONTINUOUS
 10
3.3334086169
 20
10.2224231984
 11
3.3127774331
 21
10.2191777841
  0
LINE
  5
3A4
100
AcDbEntity
  8
0
100
AcDbLine
 62
9
  6
CONTINUOUS
 10
3.3303360897
 20
10.2196916179
 11
3.3660907644
 21
10.2244087888
  0
LWPOLYLINE
  5
3A5
100
AcDbEntity
  8
0
100
AcDbPolyline
 62
7
  6
CONTINUOUS
 90
4
 70
0
 10
18.5626072524
 20
10.2191777841
 10
18.5419760685
 20
10.2224231984
 10
18.5171489438
 20
10.2242893546
 10
18.508909882
 20
10.2244090127
  0
LINE
  5
3A6
100
AcDbEntity
  8
0
100
AcDbLine
 62
7
  6
CONTINUOUS
 10
18.5275352505
 20
10.0351496342
 11
18.5276045671
 21
10.0351362841
  0
LINE
  5
3A7
100
AcDbEntity
  8
0
100
AcDbLine
 62
7
  6
CONTINUOUS
 10
18.5626615517
 20
10.219167214
 11
18.562607252
 21
10.2191777841
  0
LINE
  5
3A8
100
AcDbEntity
  8
0
100
AcDbLine
 62
7
  6
CONTINUOUS
 10
18.2747919518
 20
9.3756675936
 11
18.3095245369
 21
9.3636835411
  0
LWPOLYLINE
  5
3A9
100
AcDbEntity
  8
0
100
AcDbPolyline
 62
7
  6
CONTINUOUS
 90
4
 70
0
 10
16.1352840996
 20
9.6296037588
 10
16.2085075165
 20
9.5991812506
 10
16.2988158658
 20
9.5685598379
 10
16.3870994292
 20
9.5502053034
  0
LINE
  5
3AA
100
AcDbEntity
  8
0
100
AcDbLine
 62
7
  6
CONTINUOUS
 10
15.2876923427
 20
8.2200439453
 11
15.2838619887
 21
8.2238742994
  0
LINE
  5
3AB
100
AcDbEntity
  8
0
100
AcDbLine
 62
7
  6
CONTINUOUS
 10
12.0926923427
 20
6.2554189453
 11
12.1126923427
 21
6.2754189453
  0
LINE
  5
3AC
100
AcDbEntity
  8
0
100
AcDbLine
 62
7
  6
CONTINUOUS
 10
16.679714312
 20
10.1800968441
 11
16.6796758135
 21
10.1800641893
  0
LWPOLYLINE
  5
3AD
100
AcDbEntity
  8
0
100
AcDbPolyline
 62
7
  6
CONTINUOUS
 90
3
 70
0
 10
16.8003914524
 20
10.0367657305
 10
16.8325649543
 20
10.0619650469
 10
16.832705133
 20
10.0620551774
  0
LWPOLYLINE
  5
3AE
100
AcDbEntity
  8
0
100
AcDbPolyline
 62
7
  6
CONTINUOUS
 90
4
 70
0
 10
18.6914421911
 20
10.0732233549
 10
18.614143339
 20
10.0347574638
 10
18.5409581871
 20
9.9807304329
 10
18.4766952518
 20
9.9188737012
  0
LINE
  5
3AF
100
AcDbEntity
  8
0
100
AcDbLine
 62
7
  6
CONTINUOUS
 10
10.6876923427
 20
11.829920059
 11
11.1876923427
 21
11.829920059
  0
LINE
  5
3B0
100
AcDbEntity
  8
0
100
AcDbLine
 62
7
  6
CONTINUOUS
 10
10.5916923427
 20
11.892920059
 11
11.2836923427
 21
11.892920059
  0
LINE
  5
3B1
100
AcDbEntity
  8
0
100
AcDbLine
 62
7
  6
CONTINUOUS
 10
11.2836923427
 20
12.127920059
 11
10.5916923427
 21
12.127920059
  0
LINE
  5
3B2
100
AcDbEntity
  8
0
100
AcDbLine
 62
7
  6
CONTINUOUS
 10
11.0656713412
 20
12.279920059
 11
10.8097133443
 21
12.279920059
  0
LWPOLYLINE
  5
3B3
100
AcDbEntity
  8
0
100
AcDbPolyline
 62
7
  6
CONTINUOUS
 90
3
 70
0
 10
18.5275352505
 20
10.0351496342
 10
18.5581686539
 20
10.0264129739
 10
18.5857967623
 20
10.0138313424
  0
LINE
  5
3B4
100
AcDbEntity
  8
0
100
AcDbLine
 62
7
  6
CONTINUOUS
 10
17.0081924265
 20
10.2699202314
 11
16.9718927304
 21
10.2821143806
  0
LINE
  5
3B5
100
AcDbEntity
  8
0
100
AcDbLine
 62
7
  6
CONTINUOUS
 10
15.2381923427
 20
8.4180653372
 11
15.2901923427
 21
8.3580439453
  0
LINE
  5
3B6
100
AcDbEntity
  8
0
100
AcDbLine
 62
7
  6
CONTINUOUS
 10
15.4781923427
 20
7.6080353841
 11
15.5523263369
 21
7.5021177569
  0
LINE
  5
3B7
100
AcDbEntity
  8
0
100
AcDbLine
 62
7
  6
CONTINUOUS
 10
14.1796320909
 20
6.9423624887
 11
14.1796314393
 21
6.6924189453
  0
LINE
  5
3B8
100
AcDbEntity
  8
0
100
AcDbLine
 62
7
  6
CONTINUOUS
 10
14.1966923427
 20
6.6924189453
 11
14.1966923427
 21
6.6304189453
  0
LINE
  5
3B9
100
AcDbEntity
  8
0
100
AcDbLine
 62
7
  6
CONTINUOUS
 10
14.5586611396
 20
6.942364164
 11
14.558661891
 21
6.6924189453
  0
LINE
  5
3BA
100
AcDbEntity
  8
0
100
AcDbLine
 62
7
  6
CONTINUOUS
 10
14.5851923427
 20
8.3580439453
 11
14.5851923427
 21
7.9580439453
  0
LINE
  5
3BB
100
AcDbEntity
  8
0
100
AcDbLine
 62
7
  6
CONTINUOUS
 10
14.6371923427
 20
8.4180653372
 11
14.5851923427
 21
8.3580439453
  0
LWPOLYLINE
  5
3BC
100
AcDbEntity
  8
0
100
AcDbPolyline
 62
7
  6
CONTINUOUS
 90
7
 70
0
 10
16.6715779906
 20
9.8574234251
 10
16.6308958034
 20
9.8172537397
 10
16.5880985233
 20
9.7829084765
 10
16.547397741
 20
9.7584285617
 10
16.5094771257
 20
9.7431611659
 10
16.4724598771
 20
9.7354786232
 10
16.4494549655
 20
9.734199573
  0
LWPOLYLINE
  5
3BD
100
AcDbEntity
  8
0
100
AcDbPolyline
 62
7
  6
CONTINUOUS
 90
7
 70
0
 10
16.6797143123
 20
10.1800968444
 10
16.6194713475
 20
10.1262432279
 10
16.5504646305
 20
10.0607018567
 10
16.4829858232
 20
9.9973694982
 10
16.42198136
 20
9.9444064289
 10
16.3632802199
 20
9.9000894457
 10
16.3209743445
 20
9.8734387862
  0
LINE
  5
3BE
100
AcDbEntity
  8
0
100
AcDbLine
 62
7
  6
CONTINUOUS
 10
16.8003785806
 20
10.0367548605
 11
16.8003914524
 21
10.0367657305
  0
LWPOLYLINE
  5
3BF
100
AcDbEntity
  8
0
100
AcDbPolyline
 62
7
  6
CONTINUOUS
 90
7
 70
0
 10
18.8921254538
 20
9.9481027988
 10
18.8044260343
 20
9.8938966965
 10
18.7215051161
 20
9.8291872589
 10
18.6510282657
 20
9.7659115236
 10
18.5918163766
 20
9.7094299182
 10
18.5366932434
 20
9.6569199078
 10
18.484468265
 20
9.6100392003
  0
LINE
  5
3C0
100
AcDbEntity
  8
0
100
AcDbLine
 62
7
  6
CONTINUOUS
 10
19.1928820952
 20
9.7116879854
 11
19.1766969299
 21
9.703755584
  0
LWPOLYLINE
  5
3C1
100
AcDbEntity
  8
0
100
AcDbPolyline
 62
7
  6
CONTINUOUS
 90
3
 70
0
 10
16.6994015802
 20
9.9438826921
 10
16.7205985784
 20
9.9301795191
 10
16.7280109584
 20
9.9239716547
  0
LWPOLYLINE
  5
3C2
100
AcDbEntity
  8
0
100
AcDbPolyline
 62
7
  6
CONTINUOUS
 90
3
 70
0
 10
17.5503724893
 20
9.2970384956
 10
17.608549238
 20
9.2590399251
 10
17.6770160693
 20
9.2354578116
  0
LWPOLYLINE
  5
3C3
100
AcDbEntity
  8
0
100
AcDbPolyline
 62
7
  6
CONTINUOUS
 90
5
 70
0
 10
16.477922445
 20
9.5490275171
 10
16.4944794376
 20
9.5369247089
 10
16.5711052258
 20
9.487314284
 10
16.650201169
 20
9.4485518459
 10
16.723249195
 20
9.4272645388
  0
LINE
  5
3C4
100
AcDbEntity
  8
0
100
AcDbLine
 62
7
  6
CONTINUOUS
 10
16.5226987784
 20
9.7484843972
 11
16.4976681909
 21
9.7670149293
  0
LINE
  5
3C5
100
AcDbEntity
  8
0
100
AcDbLine
 62
7
  6
CONTINUOUS
 10
14.7001923427
 20
9.0182003482
 11
14.7001923427
 21
8.9682003482
  0
LINE
  5
3C6
100
AcDbEntity
  8
0
100
AcDbLine
 62
7
  6
CONTINUOUS
 10
14.7426923427
 20
9.1580439453
 11
14.7426923427
 21
9.3730439453
  0
LINE
  5
3C7
100
AcDbEntity
  8
0
100
AcDbLine
 62
7
  6
CONTINUOUS
 10
14.7539432158
 20
7.9524201092
 11
14.7539432158
 21
7.9580439453
  0
LINE
  5
3C8
100
AcDbEntity
  8
0
100
AcDbLine
 62
7
  6
CONTINUOUS
 10
14.7597114215
 20
7.9580439453
 11
14.7597114215
 21
7.9524186738
  0
LINE
  5
3C9
100
AcDbEntity
  8
0
100
AcDbLine
 62
7
  6
CONTINUOUS
 10
14.776149149
 20
7.9524201092
 11
14.776149149
 21
7.9580439453
  0
LINE
  5
3CA
100
AcDbEntity
  8
0
100
AcDbLine
 62
7
  6
CONTINUOUS
 10
14.7925756091
 20
7.9580439453
 11
14.7925756091
 21
7.9524186737
  0
LINE
  5
3CB
100
AcDbEntity
  8
0
100
AcDbLine
 62
7
  6
CONTINUOUS
 10
14.8154766683
 20
7.9424189453
 11
14.8154766683
 21
7.9580439453
  0
LINE
  5
3CC
100
AcDbEntity
  8
0
100
AcDbLine
 62
7
  6
CONTINUOUS
 10
14.822948569
 20
7.9524201091
 11
14.822948569
 21
7.9580439453
  0
LINE
  5
3CD
100
AcDbEntity
  8
0
100
AcDbLine
 62
7
  6
CONTINUOUS
 10
14.8475325038
 20
7.9580439453
 11
14.8475325038
 21
7.9524186738
  0
LINE
  5
3CE
100
AcDbEntity
  8
0
100
AcDbLine
 62
7
  6
CONTINUOUS
 10
14.8663420556
 20
7.9424189453
 11
14.8663420556
 21
7.9580439453
  0
LINE
  5
3CF
100
AcDbEntity
  8
0
100
AcDbLine
 62
7
  6
CONTINUOUS
 10
14.8841220533
 20
7.9580439453
 11
14.8841220533
 21
7.9424189453
  0
LINE
  5
3D0
100
AcDbEntity
  8
0
100
AcDbLine
 62
7
  6
CONTINUOUS
 10
14.8872166885
 20
7.9524201091
 11
14.8872166885
 21
7.9580439453
  0
LINE
  5
3D1
100
AcDbEntity
  8
0
100
AcDbLine
 62
7
  6
CONTINUOUS
 10
14.9162154168
 20
7.9580439453
 11
14.9162154168
 21
7.9524186738
  0
LINE
  5
3D2
100
AcDbEntity
  8
0
100
AcDbLine
 62
7
  6
CONTINUOUS
 10
14.9280698774
 20
7.9424189453
 11
14.9280698774
 21
7.9580439453
  0
LINE
  5
3D3
100
AcDbEntity
  8
0
100
AcDbLine
 62
7
  6
CONTINUOUS
 10
14.9473148081
 20
7.9580439453
 11
14.9473148081
 21
7.9424189453
  0
LINE
  5
3D4
100
AcDbEntity
  8
0
100
AcDbLine
 62
7
  6
CONTINUOUS
 10
14.9591692687
 20
7.9524201091
 11
14.9591692687
 21
7.9580439453
  0
LINE
  5
3D5
100
AcDbEntity
  8
0
100
AcDbLine
 62
7
  6
CONTINUOUS
 10
14.988167997
 20
7.9580439453
 11
14.988167997
 21
7.9524186738
  0
LINE
  5
3D6
100
AcDbEntity
  8
0
100
AcDbLine
 62
7
  6
CONTINUOUS
 10
14.9912626322
 20
7.9424189453
 11
14.9912626322
 21
7.9580439453
  0
LINE
  5
3D7
100
AcDbEntity
  8
0
100
AcDbLine
 62
7
  6
CONTINUOUS
 10
15.0090426298
 20
7.9580439453
 11
15.0090426298
 21
7.9424189453
  0
LINE
  5
3D8
100
AcDbEntity
  8
0
100
AcDbLine
 62
7
  6
CONTINUOUS
 10
15.0278521816
 20
7.9524201091
 11
15.0278521816
 21
7.9580439453
  0
LINE
  5
3D9
100
AcDbEntity
  8
0
100
AcDbLine
 62
7
  6
CONTINUOUS
 10
15.0524361165
 20
7.9580439453
 11
15.0524361165
 21
7.9524186738
  0
LINE
  5
3DA
100
AcDbEntity
  8
0
100
AcDbLine
 62
7
  6
CONTINUOUS
 10
15.0599080171
 20
7.9580439453
 11
15.0599080171
 21
7.9424189453
  0
LINE
  5
3DB
100
AcDbEntity
  8
0
100
AcDbLine
 62
7
  6
CONTINUOUS
 10
15.0828090764
 20
7.9524201091
 11
15.0828090764
 21
7.9580439453
  0
LINE
  5
3DC
100
AcDbEntity
  8
0
100
AcDbLine
 62
7
  6
CONTINUOUS
 10
15.0992355365
 20
7.9580439453
 11
15.0992355365
 21
7.9524186737
  0
LINE
  5
3DD
100
AcDbEntity
  8
0
100
AcDbLine
 62
7
  6
CONTINUOUS
 10
15.115673264
 20
7.9524201091
 11
15.115673264
 21
7.9580439453
  0
LINE
  5
3DE
100
AcDbEntity
  8
0
100
AcDbLine
 62
7
  6
CONTINUOUS
 10
15.1214414697
 20
7.9580439453
 11
15.1214414697
 21
7.9524186737
  0
LINE
  5
3DF
100
AcDbEntity
  8
0
100
AcDbLine
 62
7
  6
CONTINUOUS
 10
15.1326923427
 20
9.1580439453
 11
15.1326923427
 21
9.3730439453
  0
LINE
  5
3E0
100
AcDbEntity
  8
0
100
AcDbLine
 62
7
  6
CONTINUOUS
 10
15.1751923427
 20
9.0182003482
 11
15.1751923427
 21
8.9682003482
  0
LINE
  5
3E1
100
AcDbEntity
  8
0
100
AcDbLine
 62
7
  6
CONTINUOUS
 10
15.2846023428
 20
8.2007318284
 11
15.2846023428
 21
8.108928337
  0
LINE
  5
3E2
100
AcDbEntity
  8
0
100
AcDbLine
 62
7
  6
CONTINUOUS
 10
15.2876923427
 20
8.0960447473
 11
15.2876923427
 21
8.2200431434
  0
LINE
  5
3E3
100
AcDbEntity
  8
0
100
AcDbLine
 62
7
  6
CONTINUOUS
 10
15.2901923427
 20
8.3580439453
 11
15.2901923427
 21
8.2580439453
  0
LINE
  5
3E4
100
AcDbEntity
  8
0
100
AcDbLine
 62
7
  6
CONTINUOUS
 10
15.2901923427
 20
8.0580439453
 11
15.2901923427
 21
7.9580439453
  0
LINE
  5
3E5
100
AcDbEntity
  8
0
100
AcDbLine
 62
7
  6
CONTINUOUS
 10
14.3971923427
 20
7.6080353841
 11
14.3230583485
 21
7.5021177569
  0
LWPOLYLINE
  5
3E6
100
AcDbEntity
  8
0
100
AcDbPolyline
 62
7
  6
CONTINUOUS
 90
3
 70
0
 10
16.8437705844
 20
10.0769912812
 10
16.7970832098
 20
10.0139728419
 10
16.7517403089
 20
9.9537364813
  0
LWPOLYLINE
  5
3E7
100
AcDbEntity
  8
0
100
AcDbPolyline
 62
7
  6
CONTINUOUS
 90
3
 70
0
 10
16.7517403089
 20
9.9537364813
 10
16.7085654586
 20
9.899580261
 10
16.6715796015
 20
9.8574251498
  0
LWPOLYLINE
  5
3E8
100
AcDbEntity
  8
0
100
AcDbPolyline
 62
7
  6
CONTINUOUS
 90
11
 70
0
 10
16.808534513
 20
9.7296540527
 10
16.864434167
 20
9.7940472081
 10
16.9176245052
 20
9.8620692296
 10
16.9667657044
 20
9.9281432071
 10
17.013575139
 20
9.9911288225
 10
17.058562893
 20
10.0489438569
 10
17.1009904712
 20
10.0985564101
 10
17.1397924015
 20
10.1375531507
 10
17.1739766123
 20
10.1650325682
 10
17.2015216172
 20
10.1810915425
 10
17.2215059635
 20
10.1878570317
  0
LINE
  5
3E9
100
AcDbEntity
  8
0
100
AcDbLine
 62
7
  6
CONTINUOUS
 10
16.6715779903
 20
9.8574234248
 11
16.6715796015
 21
9.8574251498
  0
LINE
  5
3EA
100
AcDbEntity
  8
0
100
AcDbLine
 62
7
  6
CONTINUOUS
 10
16.8085428072
 20
9.729662912
 11
16.808534513
 21
9.7296540527
  0
LINE
  5
3EB
100
AcDbEntity
  8
0
100
AcDbLine
 62
7
  6
CONTINUOUS
 10
15.2876923427
 20
8.0960439453
 11
15.2838666904
 21
8.092218293
  0
LINE
  5
3EC
100
AcDbEntity
  8
0
100
AcDbLine
 62
7
  6
CONTINUOUS
 10
14.2965289031
 20
7.0589189453
 11
14.179634882
 21
6.9423616501
  0
LWPOLYLINE
  5
3ED
100
AcDbEntity
  8
0
100
AcDbPolyline
 62
7
  6
CONTINUOUS
 90
4
 70
0
 10
19.1477465023
 20
10.0168212698
 10
19.0784096402
 20
10.0458646378
 10
18.9863578449
 20
10.077492368
 10
18.8957196444
 20
10.0965116574
  0
LWPOLYLINE
  5
3EE
100
AcDbEntity
  8
0
100
AcDbPolyline
 62
7
  6
CONTINUOUS
 90
3
 70
0
 10
17.3697985747
 20
10.3362683607
 10
17.3487508913
 20
10.3496410347
 10
17.2813516102
 20
10.3722037552
  0
LWPOLYLINE
  5
3EF
100
AcDbEntity
  8
0
100
AcDbPolyline
 62
7
  6
CONTINUOUS
 90
3
 70
0
 10
17.912985338
 20
9.3095846424
 10
17.9323295512
 20
9.2970894981
 10
18.0002335062
 20
9.2738982103
  0
LWPOLYLINE
  5
3F0
100
AcDbEntity
  8
0
100
AcDbPolyline
 62
7
  6
CONTINUOUS
 90
3
 70
0
 10
16.5052431658
 20
9.7729115592
 10
16.5201378488
 20
9.7611700136
 10
16.5303014107
 20
9.7515453284
  0
LINE
  5
3F1
100
AcDbEntity
  8
0
100
AcDbLine
 62
7
  6
CONTINUOUS
 10
16.680632199
 20
9.867760034
 11
16.6487391692
 21
9.8956959795
  0
LWPOLYLINE
  5
3F2
100
AcDbEntity
  8
0
100
AcDbPolyline
 62
7
  6
CONTINUOUS
 90
4
 70
0
 10
17.191279339
 20
9.3349955683
 10
17.2169711458
 20
9.3120117681
 10
17.2793946561
 20
9.2725515838
 10
17.3474717579
 20
9.2488470726
  0
LWPOLYLINE
  5
3F3
100
AcDbEntity
  8
0
100
AcDbPolyline
 62
7
  6
CONTINUOUS
 90
5
 70
0
 10
16.82750256
 20
9.4281393788
 10
16.8295171957
 20
9.426082597
 10
16.8929397378
 20
9.3733767062
 10
16.9593070998
 20
9.3345307303
 10
17.0271364289
 20
9.3125366158
  0
LINE
  5
3F4
100
AcDbEntity
  8
0
100
AcDbLine
 62
7
  6
CONTINUOUS
 10
15.3167216946
 20
6.9423641641
 11
15.3167227945
 21
6.6924189453
  0
LINE
  5
3F5
100
AcDbEntity
  8
0
100
AcDbLine
 62
9
  6
CONTINUOUS
 10
15.3876923427
 20
10.0180439453
 11
15.3876923427
 21
9.6280439453
  0
LINE
  5
3F6
100
AcDbEntity
  8
0
100
AcDbLine
 62
7
  6
CONTINUOUS
 10
15.6786923427
 20
6.6924189453
 11
15.6786923427
 21
6.6304189453
  0
LINE
  5
3F7
100
AcDbEntity
  8
0
100
AcDbLine
 62
7
  6
CONTINUOUS
 10
15.6957524105
 20
6.942363704
 11
15.6957532462
 21
6.6924189453
  0
LINE
  5
3F8
100
AcDbEntity
  8
0
100
AcDbLine
 62
7
  6
CONTINUOUS
 10
15.8536923427
 20
10.0383293266
 11
15.8536923427
 21
9.607758564
  0
LINE
  5
3F9
100
AcDbEntity
  8
0
100
AcDbLine
 62
9
  6
CONTINUOUS
 10
15.8631220131
 20
10.0483130649
 11
15.8631220131
 21
9.5977748258
  0
LWPOLYLINE
  5
3FA
100
AcDbEntity
  8
0
100
AcDbPolyline
 62
7
  6
CONTINUOUS
 90
13
 70
0
 10
17.2569548249
 20
10.213368285
 10
17.2017858301
 20
10.1352232709
 10
17.1479689124
 20
10.0516239467
 10
17.0960421557
 20
9.9676037511
 10
17.0470961554
 20
9.8886607363
 10
17.0008897507
 20
9.8172899866
 10
16.9566585633
 20
9.754517929
 10
16.9146472233
 20
9.7020942181
 10
16.8756163549
 20
9.6616312698
 10
16.8402752088
 20
9.6334462931
 10
16.8112175058
 20
9.6174864672
 10
16.7891695273
 20
9.6111132841
 10
16.7742162061
 20
9.6099626155
  0
LINE
  5
3FB
100
AcDbEntity
  8
0
100
AcDbLine
 62
7
  6
CONTINUOUS
 10
18.6056982955
 20
9.4671827745
 11
18.6056625214
 21
9.4671522084
  0
LINE
  5
3FC
100
AcDbEntity
  8
0
100
AcDbLine
 62
7
  6
CONTINUOUS
 10
18.4844550347
 20
9.6100279448
 11
18.484468265
 21
9.6100392003
  0
LWPOLYLINE
  5
3FD
100
AcDbEntity
  8
0
100
AcDbPolyline
 62
7
  6
CONTINUOUS
 90
3
 70
0
 10
18.4844550345
 20
9.6100279446
 10
18.4514528032
 20
9.584017416
 10
18.4497611267
 20
9.5829246537
  0
LWPOLYLINE
  5
3FE
100
AcDbEntity
  8
0
100
AcDbPolyline
 62
7
  6
CONTINUOUS
 90
3
 70
0
 10
18.5836854978
 20
9.7016844852
 10
18.5639834419
 20
9.71429841
 10
18.5549115279
 20
9.7218491341
  0
LWPOLYLINE
  5
3FF
100
AcDbEntity
  8
0
100
AcDbPolyline
 62
7
  6
CONTINUOUS
 90
3
 70
0
 10
17.7326193638
 20
10.3491262598
 10
17.6739147527
 20
10.3873002938
 10
17.6046359524
 20
10.4107701227
  0
LWPOLYLINE
  5
400
100
AcDbEntity
  8
0
100
AcDbPolyline
 62
7
  6
CONTINUOUS
 90
3
 70
0
 10
16.869771685
 20
9.6569700773
 10
16.8558656208
 20
9.6729500683
 10
16.8117023994
 20
9.7253295034
  0
LINE
  5
401
100
AcDbEntity
  8
0
100
AcDbLine
 62
7
  6
CONTINUOUS
 10
16.8117023991
 20
9.7253295038
 11
16.8082006121
 21
9.729364258
  0
LINE
  5
402
100
AcDbEntity
  8
0
100
AcDbLine
 62
9
  6
CONTINUOUS
 10
15.9992349606
 20
10.1349350604
 11
15.9992349606
 21
9.5111528302
  0
LINE
  5
403
100
AcDbEntity
  8
0
100
AcDbLine
 62
7
  6
CONTINUOUS
 10
16.1176923427
 20
9.5410439453
 11
16.1176923427
 21
10.1050439453
  0
LWPOLYLINE
  5
404
100
AcDbEntity
  8
0
100
AcDbPolyline
 62
7
  6
CONTINUOUS
 90
11
 70
0
 10
18.4767021882
 20
9.9188810822
 10
18.4202789147
 20
9.8540114635
 10
18.3665528863
 20
9.7853070458
 10
18.3167923133
 20
9.7183540425
 10
18.2695214932
 20
9.6546543446
 10
18.2243246943
 20
9.5965169995
 10
18.1818504242
 20
9.5468734118
 10
18.143046135
 20
9.5078721967
 10
18.1089457006
 20
9.4804572518
 10
18.0814942112
 20
9.4645085339
 10
18.0615558322
 20
9.4578427813
  0
LINE
  5
405
100
AcDbEntity
  8
0
100
AcDbLine
 62
7
  6
CONTINUOUS
 10
18.4767021885
 20
9.9188810825
 11
18.4766952518
 21
9.9188737012
  0
LWPOLYLINE
  5
406
100
AcDbEntity
  8
0
100
AcDbPolyline
 62
7
  6
CONTINUOUS
 90
7
 70
0
 10
18.6134079929
 20
9.790846938
 10
18.6531722006
 20
9.8300047772
 10
18.6952412565
 20
9.8637538514
 10
18.7352135541
 20
9.8879126043
 10
18.7725937412
 20
9.9031729714
 10
18.8093335401
 20
9.9110520791
 10
18.8345771391
 20
9.9125327819
  0
LWPOLYLINE
  5
407
100
AcDbEntity
  8
0
100
AcDbPolyline
 62
7
  6
CONTINUOUS
 90
7
 70
0
 10
18.6056625214
 20
9.4671522084
 10
18.6644437488
 20
9.5199700561
 10
18.7330590512
 20
9.5853324727
 10
18.8003516266
 20
9.648664303
 10
18.8611099773
 20
9.7015758994
 10
18.9193870488
 20
9.7457437777
 10
18.9630880607
 20
9.7733497193
  0
LWPOLYLINE
  5
408
100
AcDbEntity
  8
0
100
AcDbPolyline
 62
7
  6
CONTINUOUS
 90
5
 70
0
 10
18.8052803591
 20
10.0976430108
 10
18.7925654203
 20
10.1069939678
 10
18.7156407846
 20
10.1573826956
 10
18.636053417
 20
10.1971225929
 10
18.5626615517
 20
10.219167214
  0
LWPOLYLINE
  5
409
100
AcDbEntity
  8
0
100
AcDbPolyline
 62
7
  6
CONTINUOUS
 90
3
 70
0
 10
18.7602609972
 20
9.8981381598
 10
18.7675388924
 20
9.8927228715
 10
18.7856842021
 20
9.8792710334
  0
LWPOLYLINE
  5
40A
100
AcDbEntity
  8
0
100
AcDbPolyline
 62
7
  6
CONTINUOUS
 90
3
 70
0
 10
18.7777750746
 20
9.8730989454
 10
18.7628380144
 20
9.8849355073
 10
18.7523411098
 20
9.8949048857
  0
LINE
  5
40B
100
AcDbEntity
  8
0
100
AcDbLine
 62
7
  6
CONTINUOUS
 10
18.6023919284
 20
9.7783180366
 11
18.6345112775
 21
9.7501561403
  0
LWPOLYLINE
  5
40C
100
AcDbEntity
  8
0
100
AcDbPolyline
 62
7
  6
CONTINUOUS
 90
4
 70
0
 10
18.0916721696
 20
10.311473163
 10
18.0680752966
 20
10.3327765763
 10
18.0058480788
 20
10.3727615779
 10
17.9370148496
 20
10.3972022135
  0
LWPOLYLINE
  5
40D
100
AcDbEntity
  8
0
100
AcDbPolyline
 62
7
  6
CONTINUOUS
 90
3
 70
0
 10
17.0396757854
 20
10.0246715011
 10
17.0690138622
 20
9.9911886609
 10
17.0916599653
 20
9.9605358944
  0
LWPOLYLINE
  5
40E
100
AcDbEntity
  8
0
100
AcDbPolyline
 62
7
  6
CONTINUOUS
 90
3
 70
0
 10
17.1972815725
 20
10.1282263468
 10
17.1757899681
 20
10.1543344598
 10
17.1688015764
 20
10.1608725491
  0
LWPOLYLINE
  5
40F
100
AcDbEntity
  8
0
100
AcDbPolyline
 62
7
  6
CONTINUOUS
 90
4
 70
0
 10
17.3829792167
 20
10.0680084953
 10
17.3875033633
 20
10.0623094318
 10
17.4314021656
 20
9.9977374963
 10
17.4450900123
 20
9.9753399445
  0
LWPOLYLINE
  5
410
100
AcDbEntity
  8
0
100
AcDbPolyline
 62
7
  6
CONTINUOUS
 90
4
 70
0
 10
16.8547314136
 20
9.7828701996
 10
16.8591851421
 20
9.7769736632
 10
16.897355372
 20
9.7226884248
 10
16.9126427631
 20
9.7000162124
  0
LWPOLYLINE
  5
411
100
AcDbEntity
  8
0
100
AcDbPolyline
 62
7
  6
CONTINUOUS
 90
4
 70
0
 10
17.5552529877
 20
9.5700767002
 10
17.545795003
 20
9.5831540558
 10
17.5008874467
 20
9.6527136046
 10
17.4883285556
 20
9.673594561
  0
LWPOLYLINE
  5
412
100
AcDbEntity
  8
0
100
AcDbPolyline
 62
7
  6
CONTINUOUS
 90
3
 70
0
 10
17.2108761382
 20
9.5955245977
 10
17.1781448031
 20
9.6411153695
 10
17.142964697
 20
9.6930903574
  0
LWPOLYLINE
  5
413
100
AcDbEntity
  8
0
100
AcDbPolyline
 62
7
  6
CONTINUOUS
 90
3
 70
0
 10
17.0293015616
 20
9.8611750769
 10
17.0259084151
 20
9.8661172322
 10
16.9731328565
 20
9.9367106892
  0
LWPOLYLINE
  5
414
100
AcDbEntity
  8
0
100
AcDbPolyline
 62
7
  6
CONTINUOUS
 90
3
 70
0
 10
17.3754853038
 20
9.5019018177
 10
17.4191364307
 20
9.4377130468
 10
17.4199865802
 20
9.4366556931
  0
LWPOLYLINE
  5
415
100
AcDbEntity
  8
0
100
AcDbPolyline
 62
7
  6
CONTINUOUS
 90
3
 70
0
 10
17.0198073176
 20
9.5407821632
 10
17.0234576573
 20
9.5354091541
 10
17.048084306
 20
9.5009993333
  0
LWPOLYLINE
  5
416
100
AcDbEntity
  8
0
100
AcDbPolyline
 62
7
  6
CONTINUOUS
 90
13
 70
0
 10
18.0246088843
 20
9.4305612257
 10
18.0798635405
 20
9.5086242281
 10
18.1338278472
 20
9.5923530865
 10
18.1858714298
 20
9.6765779559
 10
18.2347447149
 20
9.7555320266
 10
18.2808241146
 20
9.8269023933
 10
18.3250706426
 20
9.889991466
 10
18.3671716284
 20
9.9428990753
 10
18.4062978924
 20
9.9838202203
 10
18.4416598138
 20
10.0124503542
 10
18.4708130651
 20
10.0288221699
 10
18.4932760648
 20
10.0355917507
 10
18.5093197366
 20
10.0369244719
  0
LWPOLYLINE
  5
417
100
AcDbEntity
  8
0
100
AcDbPolyline
 62
7
  6
CONTINUOUS
 90
3
 70
0
 10
18.4404190806
 20
9.5702969236
 10
18.4873139076
 20
9.6336850943
 10
18.53280552
 20
9.6941304896
  0
LWPOLYLINE
  5
418
100
AcDbEntity
  8
0
100
AcDbPolyline
 62
7
  6
CONTINUOUS
 90
3
 70
0
 10
18.53280552
 20
9.6941304896
 10
18.5760823759
 20
9.748395185
 10
18.613406772
 20
9.7908456359
  0
LWPOLYLINE
  5
419
100
AcDbEntity
  8
0
100
AcDbPolyline
 62
7
  6
CONTINUOUS
 90
5
 70
0
 10
18.4555349204
 20
10.2186533635
 10
18.4542353142
 20
10.2199841624
 10
18.3903594981
 20
10.2731536265
 10
18.3234002423
 20
10.3123249714
 10
18.2549698263
 20
10.3342557252
  0
LWPOLYLINE
  5
41A
100
AcDbEntity
  8
0
100
AcDbPolyline
 62
7
  6
CONTINUOUS
 90
3
 70
0
 10
18.2433816689
 20
9.6210302822
 10
18.2134881588
 20
9.6552771407
 10
18.1913286427
 20
9.6853940027
  0
LINE
  5
41B
100
AcDbEntity
  8
0
100
AcDbLine
 62
7
  6
CONTINUOUS
 10
18.4733753843
 20
9.9187881477
 11
18.4747572545
 21
9.9171945524
  0
LWPOLYLINE
  5
41C
100
AcDbEntity
  8
0
100
AcDbPolyline
 62
7
  6
CONTINUOUS
 90
3
 70
0
 10
18.413366648
 20
9.9895433092
 10
18.4290749474
 20
9.9714267334
 10
18.4733690852
 20
9.9187955866
  0
LINE
  5
41D
100
AcDbEntity
  8
0
100
AcDbLine
 62
7
  6
CONTINUOUS
 10
18.4733690855
 20
9.9187955863
 11
18.4733753843
 21
9.9187881477
  0
LWPOLYLINE
  5
41E
100
AcDbEntity
  8
0
100
AcDbPolyline
 62
7
  6
CONTINUOUS
 90
3
 70
0
 10
18.0856420684
 20
9.5175899606
 10
18.105670432
 20
9.4930976087
 10
18.1144053159
 20
9.4848464936
  0
LWPOLYLINE
  5
41F
100
AcDbEntity
  8
0
100
AcDbPolyline
 62
7
  6
CONTINUOUS
 90
4
 70
0
 10
17.9001369342
 20
9.5779679456
 10
17.8941635292
 20
9.585549039
 10
17.8505309307
 20
9.6500223029
 10
17.8379196007
 20
9.670699738
  0
LWPOLYLINE
  5
420
100
AcDbEntity
  8
0
100
AcDbPolyline
 62
7
  6
CONTINUOUS
 90
4
 70
0
 10
17.7277993026
 20
10.0760972246
 10
17.7364408719
 20
10.0641795899
 10
17.7812431686
 20
9.994923173
 10
17.7947205219
 20
9.9725277955
  0
LWPOLYLINE
  5
421
100
AcDbEntity
  8
0
100
AcDbPolyline
 62
7
  6
CONTINUOUS
 90
3
 70
0
 10
17.5530112122
 20
10.1518170422
 10
17.5417556156
 20
10.1686164421
 10
17.5102745254
 20
10.2079486644
  0
LWPOLYLINE
  5
422
100
AcDbEntity
  8
0
100
AcDbPolyline
 62
7
  6
CONTINUOUS
 90
3
 70
0
 10
17.729951501
 20
9.494164503
 10
17.7396333551
 20
9.4796488057
 10
17.7727467756
 20
9.4379848331
  0
LWPOLYLINE
  5
423
100
AcDbEntity
  8
0
100
AcDbPolyline
 62
7
  6
CONTINUOUS
 90
4
 70
0
 10
17.2042059206
 20
9.7865266944
 10
17.2042166057
 20
9.7865090883
 10
17.2538681382
 20
9.701611286
 10
17.2691500488
 20
9.6755544905
  0
LWPOLYLINE
  5
424
100
AcDbEntity
  8
0
100
AcDbPolyline
 62
7
  6
CONTINUOUS
 90
3
 70
0
 10
17.3790057514
 20
9.8588563066
 10
17.3509329293
 20
9.9065210643
 10
17.3148307778
 20
9.9645502749
  0
LWPOLYLINE
  5
425
100
AcDbEntity
  8
0
100
AcDbPolyline
 62
7
  6
CONTINUOUS
 90
3
 70
0
 10
17.5540296689
 20
9.7873817143
 10
17.5744931091
 20
9.7507345069
 10
17.6202083416
 20
9.6699020638
  0
LWPOLYLINE
  5
426
100
AcDbEntity
  8
0
100
AcDbPolyline
 62
7
  6
CONTINUOUS
 90
4
 70
0
 10
18.4282517146
 20
9.8631777606
 10
18.4255750219
 20
9.8667166531
 10
18.3874828648
 20
9.920835611
 10
18.3703569347
 20
9.9462305046
  0
LWPOLYLINE
  5
427
100
AcDbEntity
  8
0
100
AcDbPolyline
 62
7
  6
CONTINUOUS
 90
3
 70
0
 10
18.0722178724
 20
10.0508079961
 10
18.1055904777
 20
10.0042482954
 10
18.1401221179
 20
9.9531428529
  0
LWPOLYLINE
  5
428
100
AcDbEntity
  8
0
100
AcDbPolyline
 62
7
  6
CONTINUOUS
 90
3
 70
0
 10
18.2537423448
 20
9.7849566247
 10
18.2578480715
 20
9.7789737517
 10
18.3099907581
 20
9.7091886206
  0
LWPOLYLINE
  5
429
100
AcDbEntity
  8
0
100
AcDbPolyline
 62
7
  6
CONTINUOUS
 90
3
 70
0
 10
17.9075620728
 20
10.1442770144
 10
17.8637585635
 20
10.2086163163
 10
17.8629822056
 20
10.2095826742
  0
LWPOLYLINE
  5
42A
100
AcDbEntity
  8
0
100
AcDbPolyline
 62
7
  6
CONTINUOUS
 90
3
 70
0
 10
18.2632297458
 20
10.1056429741
 10
18.2616637928
 20
10.107954657
 10
18.2347451031
 20
10.1457142491
  0
LWPOLYLINE
  5
42B
100
AcDbEntity
  8
0
100
AcDbPolyline
 62
7
  6
CONTINUOUS
 90
4
 70
0
 10
18.078839853
 20
9.8595729673
 10
18.0780829962
 20
9.8608219948
 10
18.0283085226
 20
9.9459780134
 10
18.0138591766
 20
9.9706165947
  0
LWPOLYLINE
  5
42C
100
AcDbEntity
  8
0
100
AcDbPolyline
 62
7
  6
CONTINUOUS
 90
3
 70
0
 10
17.9040193346
 20
9.7872460198
 10
17.9307351005
 20
9.7418413079
 10
17.9682169672
 20
9.6814211885
  0
LWPOLYLINE
  5
42D
100
AcDbEntity
  8
0
100
AcDbPolyline
 62
7
  6
CONTINUOUS
 90
3
 70
0
 10
17.7289938373
 20
9.8587045097
 10
17.7072903343
 20
9.8975782342
 10
17.6628205433
 20
9.9761166549
  0
ARC
  5
42E
100
AcDbEntity
  8
0
100
AcDbCircle
 62
7
  6
CONTINUOUS
 10
3.5785191824
 20
8.9315245323
 40
3.6092585315
100
AcDbArc
 50
344.0947199168
 51
344.2597790308
  0
ARC
  5
42F
100
AcDbEntity
  8
0
100
AcDbCircle
 62
9
  6
CONTINUOUS
 10
1.5264089862
 20
7.0035033776
 40
3.1625555866
100
AcDbArc
 50
57.7247552519
 51
57.8567041013
  0
ARC
  5
430
100
AcDbEntity
  8
0
100
AcDbCircle
 62
9
  6
CONTINUOUS
 10
2.0384725053
 20
7.8223803041
 40
2.1967587818
100
AcDbArc
 50
57.8216428747
 51
58.7217057188
  0
ARC
  5
431
100
AcDbEntity
  8
0
100
AcDbCircle
 62
7
  6
CONTINUOUS
 10
5.8851534407
 20
7.9664222739
 40
0.625
100
AcDbArc
 50
325.0110095298
 51
355.1903006332
  0
ARC
  5
432
100
AcDbEntity
  8
0
100
AcDbCircle
 62
7
  6
CONTINUOUS
 10
6.1281611492
 20
8.1544754399
 40
0.4685491853
100
AcDbArc
 50
7.0852696826
 51
8.7431646655
  0
ARC
  5
433
100
AcDbEntity
  8
0
100
AcDbCircle
 62
7
  6
CONTINUOUS
 10
6.8286923427
 20
8.5643826294
 40
0.241
100
AcDbArc
 50
148.8652784312
 51
217.3819608306
  0
ARC
  5
434
100
AcDbEntity
  8
0
100
AcDbCircle
 62
7
  6
CONTINUOUS
 10
7.0466923427
 20
8.5643826294
 40
0.241
100
AcDbArc
 50
322.6180391694
 51
31.1347215688
  0
ARC
  5
435
100
AcDbEntity
  8
0
100
AcDbCircle
 62
7
  6
CONTINUOUS
 10
6.4901674638
 20
7.3851545421
 40
0.2039751211
100
AcDbArc
 50
145.0110095298
 51
213.0478355064
  0
ARC
  5
436
100
AcDbEntity
  8
0
100
AcDbCircle
 62
7
  6
CONTINUOUS
 10
7.3852172217
 20
7.3851545421
 40
0.2039751211
100
AcDbArc
 50
326.9521644936
 51
34.9889904702
  0
ARC
  5
437
100
AcDbEntity
  8
0
100
AcDbCircle
 62
7
  6
CONTINUOUS
 10
5.9448284538
 20
6.2554189453
 40
0.1871361111
100
AcDbArc
 50
92.1854050713
 51
180.0
  0
ARC
  5
438
100
AcDbEntity
  8
0
100
AcDbCircle
 62
7
  6
CONTINUOUS
 10
6.1246896689
 20
6.4434189453
 40
0.187
100
AcDbArc
 50
90.0
 51
180.3063960032
  0
ARC
  5
439
100
AcDbEntity
  8
0
100
AcDbCircle
 62
7
  6
CONTINUOUS
 10
6.1754178091
 20
7.1803799208
 40
0.1715245336
100
AcDbArc
 50
314.9173576842
 51
33.0478355064
  0
ARC
  5
43A
100
AcDbEntity
  8
0
100
AcDbCircle
 62
7
  6
CONTINUOUS
 10
6.5388434542
 20
7.9114189453
 40
0.031
100
AcDbArc
 50
89.9999620817
 51
175.1902968487
  0
ARC
  5
43B
100
AcDbEntity
  8
0
100
AcDbCircle
 62
7
  6
CONTINUOUS
 10
7.3365412312
 20
7.9114189453
 40
0.031
100
AcDbArc
 50
4.8097031513
 51
90.0000379183
  0
ARC
  5
43C
100
AcDbEntity
  8
0
100
AcDbCircle
 62
9
  6
CONTINUOUS
 10
-4.2273088706
 20
15.4878960855
 40
11.0335895035
100
AcDbArc
 50
327.8378864109
 51
328.0550724176
  0
ARC
  5
43D
100
AcDbEntity
  8
0
100
AcDbCircle
 62
9
  6
CONTINUOUS
 10
2.9418651525
 20
9.2976449621
 40
0.6444829398
100
AcDbArc
 50
52.9319078425
 51
54.576282086
  0
ARC
  5
43E
100
AcDbEntity
  8
0
100
AcDbCircle
 62
9
  6
CONTINUOUS
 10
2.5019908957
 20
10.111463368
 40
0.4607781303
100
AcDbArc
 50
288.3968609535
 51
295.671006594
  0
ARC
  5
43F
100
AcDbEntity
  8
0
100
AcDbCircle
 62
9
  6
CONTINUOUS
 10
3.048381448
 20
9.4703044733
 40
0.441889534
100
AcDbArc
 50
79.0339619262
 51
80.0416182291
  0
ARC
  5
440
100
AcDbEntity
  8
0
100
AcDbCircle
 62
7
  6
CONTINUOUS
 10
2.3183497808
 20
9.9021730493
 40
0.4310528767
100
AcDbArc
 50
326.179814927
 51
327.4077967118
  0
ARC
  5
441
100
AcDbEntity
  8
0
100
AcDbCircle
 62
9
  6
CONTINUOUS
 10
2.6983725087
 20
9.5979566655
 40
0.4214152017
100
AcDbArc
 50
96.2035938248
 51
96.8775817777
  0
ARC
  5
442
100
AcDbEntity
  8
0
100
AcDbCircle
 62
9
  6
CONTINUOUS
 10
2.868073219
 20
9.8775039772
 40
0.2860397707
100
AcDbArc
 50
270.0716964306
 51
270.4757624763
  0
ARC
  5
443
100
AcDbEntity
  8
0
100
AcDbCircle
 62
9
  6
CONTINUOUS
 10
3.513686888
 20
9.7865646157
 40
0.2406645881
100
AcDbArc
 50
267.8041085843
 51
269.8326661902
  0
ARC
  5
444
100
AcDbEntity
  8
0
100
AcDbCircle
 62
9
  6
CONTINUOUS
 10
3.0373560875
 20
9.8627499752
 40
0.2375022245
100
AcDbArc
 50
90.1520758701
 51
90.7125385453
  0
ARC
  5
445
100
AcDbEntity
  8
0
100
AcDbCircle
 62
7
  6
CONTINUOUS
 10
2.5069380513
 20
9.8313826835
 40
0.2335725191
100
AcDbArc
 50
44.2898792826
 51
45.5192166607
  0
ARC
  5
446
100
AcDbEntity
  8
0
100
AcDbCircle
 62
7
  6
CONTINUOUS
 10
2.5233287443
 20
9.8230439453
 40
0.23
100
AcDbArc
 50
55.6740088139
 51
303.3274536237
  0
ARC
  5
447
100
AcDbEntity
  8
0
100
AcDbCircle
 62
9
  6
CONTINUOUS
 10
3.382273089
 20
10.0127645586
 40
0.2133454002
100
AcDbArc
 50
104.0897154175
 51
108.3508000618
  0
ARC
  5
448
100
AcDbEntity
  8
0
100
AcDbCircle
 62
9
  6
CONTINUOUS
 10
3.8267840178
 20
9.6551974943
 40
0.198634249
100
AcDbArc
 50
268.5110092937
 51
269.8145653497
  0
ARC
  5
449
100
AcDbEntity
  8
0
100
AcDbCircle
 62
9
  6
CONTINUOUS
 10
3.2055533832
 20
9.6839662713
 40
0.1946922638
100
AcDbArc
 50
270.1142869112
 51
275.9395685573
  0
ARC
  5
44A
100
AcDbEntity
  8
0
100
AcDbCircle
 62
9
  6
CONTINUOUS
 10
3.9889427184
 20
10.0290324394
 40
0.1860378954
100
AcDbArc
 50
87.5124432628
 51
89.8601259661
  0
ARC
  5
44B
100
AcDbEntity
  8
0
100
AcDbCircle
 62
9
  6
CONTINUOUS
 10
3.9889485545
 20
10.0292957616
 40
0.1857745682
100
AcDbArc
 50
82.2253732981
 51
87.5107166891
  0
ARC
  5
44C
100
AcDbEntity
  8
0
100
AcDbCircle
 62
9
  6
CONTINUOUS
 10
4.4786823071
 20
9.6156134616
 40
0.1843803948
100
AcDbArc
 50
262.1404842883
 51
269.8657185707
  0
ARC
  5
44D
100
AcDbEntity
  8
0
100
AcDbCircle
 62
9
  6
CONTINUOUS
 10
4.3159234374
 20
10.0440219967
 40
0.1835920805
100
AcDbArc
 50
87.7178110193
 51
89.8393258735
  0
ARC
  5
44E
100
AcDbEntity
  8
0
100
AcDbCircle
 62
9
  6
CONTINUOUS
 10
3.5136355358
 20
9.4929953909
 40
0.1345824055
100
AcDbArc
 50
270.1747379109
 51
270.6826038976
  0
ARC
  5
44F
100
AcDbEntity
  8
0
100
AcDbCircle
 62
9
  6
CONTINUOUS
 10
3.6681998158
 20
10.2069592583
 40
0.1318325867
100
AcDbArc
 50
90.2960632848
 51
98.202339534
  0
ARC
  5
450
100
AcDbEntity
  8
0
100
AcDbCircle
 62
9
  6
CONTINUOUS
 10
3.8267879647
 20
9.3964210856
 40
0.1273315472
100
AcDbArc
 50
270.2426068653
 51
277.4010674157
  0
ARC
  5
451
100
AcDbEntity
  8
0
100
AcDbCircle
 62
9
  6
CONTINUOUS
 10
4.6406533928
 20
10.2505389236
 40
0.1261500046
100
AcDbArc
 50
90.2199962688
 51
90.9296849618
  0
ARC
  5
452
100
AcDbEntity
  8
0
100
AcDbCircle
 62
9
  6
CONTINUOUS
 10
3.9890298951
 20
10.2777101849
 40
0.1248552718
100
AcDbArc
 50
93.5676759198
 51
95.4950214433
  0
ARC
  5
453
100
AcDbEntity
  8
0
100
AcDbCircle
 62
9
  6
CONTINUOUS
 10
3.9889370006
 20
10.279170308
 40
0.1233921979
100
AcDbArc
 50
90.2693575085
 51
93.5668147251
  0
ARC
  5
454
100
AcDbEntity
  8
0
100
AcDbCircle
 62
9
  6
CONTINUOUS
 10
4.4786680463
 20
9.3658945965
 40
0.1221582733
100
AcDbArc
 50
270.283101148
 51
273.6984510537
  0
ARC
  5
455
100
AcDbEntity
  8
0
100
AcDbCircle
 62
7
  6
CONTINUOUS
 10
5.2982968117
 20
9.9141013018
 40
2.6741447738
100
AcDbArc
 50
312.4968234306
 51
312.8132015257
  0
ARC
  5
456
100
AcDbEntity
  8
0
100
AcDbCircle
 62
7
  6
CONTINUOUS
 10
5.2688352155
 20
9.8600300424
 40
2.6323899456
100
AcDbArc
 50
313.2417776649
 51
313.5587264971
  0
ARC
  5
457
100
AcDbEntity
  8
0
100
AcDbCircle
 62
7
  6
CONTINUOUS
 10
5.2942385588
 20
9.6756120808
 40
2.5115863504
100
AcDbArc
 50
316.3635086699
 51
316.6780103302
  0
ARC
  5
458
100
AcDbEntity
  8
0
100
AcDbCircle
 62
7
  6
CONTINUOUS
 10
5.1233524934
 20
9.26227568
 40
2.3706199985
100
AcDbArc
 50
326.1681412859
 51
326.4587129579
  0
ARC
  5
459
100
AcDbEntity
  8
0
100
AcDbCircle
 62
7
  6
CONTINUOUS
 10
4.890479502
 20
9.0782822954
 40
2.3552161289
100
AcDbArc
 50
331.1657520572
 51
331.4432322255
  0
ARC
  5
45A
100
AcDbEntity
  8
0
100
AcDbCircle
 62
7
  6
CONTINUOUS
 10
5.2648931191
 20
9.4748350773
 40
2.3293286569
100
AcDbArc
 50
318.861560605
 51
319.1875332688
  0
ARC
  5
45B
100
AcDbEntity
  8
0
100
AcDbCircle
 62
9
  6
CONTINUOUS
 10
5.5293182472
 20
10.3556094417
 40
0.6521837203
100
AcDbArc
 50
232.834497715
 51
234.688671509
  0
ARC
  5
45C
100
AcDbEntity
  8
0
100
AcDbCircle
 62
7
  6
CONTINUOUS
 10
6.4876923427
 20
9.3730439453
 40
0.645
100
AcDbArc
 50
0.0
 51
90.0
  0
ARC
  5
45D
100
AcDbEntity
  8
0
100
AcDbCircle
 62
7
  6
CONTINUOUS
 10
6.1601923427
 20
8.9682003482
 40
0.54
100
AcDbArc
 50
328.8652784311
 51
360.0
  0
ARC
  5
45E
100
AcDbEntity
  8
0
100
AcDbCircle
 62
9
  6
CONTINUOUS
 10
5.4188345098
 20
10.1760378927
 40
0.441503892
100
AcDbArc
 50
259.1407944271
 51
260.1225509456
  0
ARC
  5
45F
100
AcDbEntity
  8
0
100
AcDbCircle
 62
9
  6
CONTINUOUS
 10
5.5996543584
 20
9.7687597429
 40
0.2853886399
100
AcDbArc
 50
90.0604903606
 51
90.3870399726
  0
ARC
  5
460
100
AcDbEntity
  8
0
100
AcDbCircle
 62
7
  6
CONTINUOUS
 10
6.4876923427
 20
9.3730439453
 40
0.255
100
AcDbArc
 50
0.0
 51
90.0
  0
ARC
  5
461
100
AcDbEntity
  8
0
100
AcDbCircle
 62
9
  6
CONTINUOUS
 10
4.9536109438
 20
9.8609279756
 40
0.2385827513
100
AcDbArc
 50
89.012212773
 51
89.7880241224
  0
ARC
  5
462
100
AcDbEntity
  8
0
100
AcDbCircle
 62
9
  6
CONTINUOUS
 10
5.4303344972
 20
9.7839660829
 40
0.2375330806
100
AcDbArc
 50
270.155236436
 51
270.8817202885
  0
ARC
  5
463
100
AcDbEntity
  8
0
100
AcDbCircle
 62
9
  6
CONTINUOUS
 10
5.0874482053
 20
9.6272924764
 40
0.2061450864
100
AcDbArc
 50
283.4284315547
 51
287.6729159239
  0
ARC
  5
464
100
AcDbEntity
  8
0
100
AcDbCircle
 62
9
  6
CONTINUOUS
 10
5.2619935628
 20
9.9630548136
 40
0.1930233403
100
AcDbArc
 50
90.1236684052
 51
97.1948042174
  0
ARC
  5
465
100
AcDbEntity
  8
0
100
AcDbCircle
 62
7
  6
CONTINUOUS
 10
6.0216923427
 20
10.2133814453
 40
0.1653375
100
AcDbArc
 50
208.3243361106
 51
266.7304837434
  0
ARC
  5
466
100
AcDbEntity
  8
0
100
AcDbCircle
 62
7
  6
CONTINUOUS
 10
6.0216923427
 20
9.4327064453
 40
0.1653375
100
AcDbArc
 50
93.2695162566
 51
151.6756638894
  0
ARC
  5
467
100
AcDbEntity
  8
0
100
AcDbCircle
 62
9
  6
CONTINUOUS
 10
4.9536698023
 20
10.1531169424
 40
0.1338794491
100
AcDbArc
 50
90.1373658864
 51
95.8454931063
  0
ARC
  5
468
100
AcDbEntity
  8
0
100
AcDbCircle
 62
9
  6
CONTINUOUS
 10
4.7998440518
 20
9.4353082518
 40
0.127481214
100
AcDbArc
 50
270.1673566766
 51
270.6285891262
  0
ARC
  5
469
100
AcDbEntity
  8
0
100
AcDbCircle
 62
7
  6
CONTINUOUS
 10
5.8206923427
 20
9.5410439453
 40
0.063
100
AcDbArc
 50
180.0
 51
331.6756638894
  0
ARC
  5
46A
100
AcDbEntity
  8
0
100
AcDbCircle
 62
7
  6
CONTINUOUS
 10
5.8206923427
 20
10.1050439453
 40
0.063
100
AcDbArc
 50
28.3243361106
 51
180.0
  0
ARC
  5
46B
100
AcDbEntity
  8
0
100
AcDbCircle
 62
7
  6
CONTINUOUS
 10
6.6851923427
 20
9.0980439453
 40
0.06
100
AcDbArc
 50
90.0
 51
266.4166783015
  0
ARC
  5
46C
100
AcDbEntity
  8
0
100
AcDbCircle
 62
7
  6
CONTINUOUS
 10
7.1901923427
 20
9.0980439453
 40
0.06
100
AcDbArc
 50
273.5833216985
 51
90.0
  0
ARC
  5
46D
100
AcDbEntity
  8
0
100
AcDbCircle
 62
7
  6
CONTINUOUS
 10
7.1951923427
 20
9.0182003482
 40
0.02
100
AcDbArc
 50
93.5833216985
 51
180.0
  0
ARC
  5
46E
100
AcDbEntity
  8
0
100
AcDbCircle
 62
7
  6
CONTINUOUS
 10
6.6801923427
 20
9.0182003482
 40
0.02
100
AcDbArc
 50
0.0
 51
86.4166783015
  0
ARC
  5
46F
100
AcDbEntity
  8
0
100
AcDbCircle
 62
7
  6
CONTINUOUS
 10
6.0116923427
 20
9.6077585487
 40
0.01
100
AcDbArc
 50
273.2695221121
 51
0.000087796
  0
ARC
  5
470
100
AcDbEntity
  8
0
100
AcDbCircle
 62
7
  6
CONTINUOUS
 10
6.0116923427
 20
10.0383293419
 40
0.01
100
AcDbArc
 50
359.999912204
 51
86.7304778879
  0
ARC
  5
471
100
AcDbEntity
  8
0
100
AcDbCircle
 62
9
  6
CONTINUOUS
 10
6.453976347
 20
11.8721027379
 40
2.2513086214
100
AcDbArc
 50
238.1206239936
 51
238.823983827
  0
ARC
  5
472
100
AcDbEntity
  8
0
100
AcDbCircle
 62
9
  6
CONTINUOUS
 10
6.9186272402
 20
12.6182726854
 40
3.1303261986
100
AcDbArc
 50
237.85000949
 51
237.9792168296
  0
ARC
  5
473
100
AcDbEntity
  8
0
100
AcDbCircle
 62
9
  6
CONTINUOUS
 10
6.7199289492
 20
12.3005425875
 40
2.755581698
100
AcDbArc
 50
237.9949774843
 51
238.1296957061
  0
ARC
  5
474
100
AcDbEntity
  8
0
100
AcDbCircle
 62
7
  6
CONTINUOUS
 10
9.4515294197
 20
7.7165498653
 40
5.8455155695
100
AcDbArc
 50
4.353916256
 51
4.4712222856
  0
ARC
  5
475
100
AcDbEntity
  8
0
100
AcDbCircle
 62
7
  6
CONTINUOUS
 10
11.5785191786
 20
8.9315245333
 40
3.6092585354
100
AcDbArc
 50
344.0947199169
 51
344.2597790307
  0
ARC
  5
476
100
AcDbEntity
  8
0
100
AcDbCircle
 62
7
  6
CONTINUOUS
 10
10.140394522
 20
8.887000296
 40
3.4465762398
100
AcDbArc
 50
195.7334188019
 51
195.9062946484
  0
ARC
  5
477
100
AcDbEntity
  8
0
100
AcDbCircle
 62
7
  6
CONTINUOUS
 10
8.4526923427
 20
7.6795633892
 40
2.115
100
AcDbArc
 50
343.8953203472
 51
16.1046796528
  0
ARC
  5
478
100
AcDbEntity
  8
0
100
AcDbCircle
 62
7
  6
CONTINUOUS
 10
10.7969627253
 20
8.5189925296
 40
1.7758498672
100
AcDbArc
 50
94.792199995
 51
94.9513970386
  0
ARC
  5
479
100
AcDbEntity
  8
0
100
AcDbCircle
 62
7
  6
CONTINUOUS
 10
10.7841868877
 20
8.665851708
 40
1.6284360372
100
AcDbArc
 50
94.9495445938
 51
95.4266803878
  0
ARC
  5
47A
100
AcDbEntity
  8
0
100
AcDbCircle
 62
7
  6
CONTINUOUS
 10
11.0955060091
 20
8.7143186103
 40
1.5797788468
100
AcDbArc
 50
84.4524087661
 51
85.1700800184
  0
ARC
  5
47B
100
AcDbEntity
  8
0
100
AcDbCircle
 62
7
  6
CONTINUOUS
 10
10.7695972494
 20
8.8217864705
 40
1.4718204161
100
AcDbArc
 50
95.4353535929
 51
95.5561035749
  0
ARC
  5
47C
100
AcDbEntity
  8
0
100
AcDbCircle
 62
7
  6
CONTINUOUS
 10
10.7620979818
 20
8.898633213
 40
1.3946086094
100
AcDbArc
 50
95.6085091774
 51
95.7429837169
  0
ARC
  5
47D
100
AcDbEntity
  8
0
100
AcDbCircle
 62
7
  6
CONTINUOUS
 10
7.9902312448
 20
7.9664222739
 40
0.625
100
AcDbArc
 50
184.8096993668
 51
214.9889904702
  0
ARC
  5
47E
100
AcDbEntity
  8
0
100
AcDbCircle
 62
7
  6
CONTINUOUS
 10
10.8451923427
 20
8.5904189453
 40
0.465
100
AcDbArc
 50
140.8294108274
 51
219.1705891726
  0
ARC
  5
47F
100
AcDbEntity
  8
0
100
AcDbCircle
 62
7
  6
CONTINUOUS
 10
11.0301923427
 20
8.5904189453
 40
0.465
100
AcDbArc
 50
320.8294108274
 51
39.1705891726
  0
ARC
  5
480
100
AcDbEntity
  8
0
100
AcDbCircle
 62
7
  6
CONTINUOUS
 10
11.3886234438
 20
6.6041863728
 40
0.37
100
AcDbArc
 50
4.0656154981
 51
77.5021822312
  0
ARC
  5
481
100
AcDbEntity
  8
0
100
AcDbCircle
 62
7
  6
CONTINUOUS
 10
10.4867612416
 20
6.6041863728
 40
0.37
100
AcDbArc
 50
102.4978177688
 51
175.9343845019
  0
ARC
  5
482
100
AcDbEntity
  8
0
100
AcDbCircle
 62
7
  6
CONTINUOUS
 10
12.0576530227
 20
6.634852734
 40
0.25
100
AcDbArc
 50
181.0162027966
 51
257.8868646161
  0
ARC
  5
483
100
AcDbEntity
  8
0
100
AcDbCircle
 62
7
  6
CONTINUOUS
 10
9.8177316628
 20
6.634852734
 40
0.25
100
AcDbArc
 50
282.1131353839
 51
358.9837972034
  0
ARC
  5
484
100
AcDbEntity
  8
0
100
AcDbCircle
 62
7
  6
CONTINUOUS
 10
7.9305562316
 20
6.2554189453
 40
0.1871361111
100
AcDbArc
 50
0.0
 51
87.8145949287
  0
ARC
  5
485
100
AcDbEntity
  8
0
100
AcDbCircle
 62
7
  6
CONTINUOUS
 10
7.7506950166
 20
6.4434189453
 40
0.187
100
AcDbArc
 50
359.6936039968
 51
90.0
  0
ARC
  5
486
100
AcDbEntity
  8
0
100
AcDbCircle
 62
7
  6
CONTINUOUS
 10
7.6999668764
 20
7.1803799208
 40
0.1715245336
100
AcDbArc
 50
146.9521644936
 51
225.0826423158
  0
ARC
  5
487
100
AcDbEntity
  8
0
100
AcDbCircle
 62
7
  6
CONTINUOUS
 10
11.3726923427
 20
7.0304189453
 40
0.065
100
AcDbArc
 50
270.0
 51
73.9233501684
  0
ARC
  5
488
100
AcDbEntity
  8
0
100
AcDbCircle
 62
7
  6
CONTINUOUS
 10
10.5026923427
 20
7.0304189453
 40
0.065
100
AcDbArc
 50
106.0766498316
 51
270.0
  0
ARC
  5
489
100
AcDbEntity
  8
0
100
AcDbCircle
 62
7
  6
CONTINUOUS
 10
9.7926923427
 20
6.3604189453
 40
0.03
100
AcDbArc
 50
90.0
 51
180.0
  0
ARC
  5
48A
100
AcDbEntity
  8
0
100
AcDbCircle
 62
7
  6
CONTINUOUS
 10
12.0826923427
 20
6.3604189453
 40
0.03
100
AcDbArc
 50
0.0
 51
90.0
  0
ARC
  5
48B
100
AcDbEntity
  8
0
100
AcDbCircle
 62
9
  6
CONTINUOUS
 10
15.5125800619
 20
2.4003770838
 40
14.3548304497
100
AcDbArc
 50
147.8855228338
 51
148.0652672629
  0
ARC
  5
48C
100
AcDbEntity
  8
0
100
AcDbCircle
 62
7
  6
CONTINUOUS
 10
18.1403945245
 20
8.8870002967
 40
3.4465762424
100
AcDbArc
 50
195.733418802
 51
195.9062946483
  0
ARC
  5
48D
100
AcDbEntity
  8
0
100
AcDbCircle
 62
7
  6
CONTINUOUS
 10
13.4226923427
 20
7.6795633892
 40
2.115
100
AcDbArc
 50
163.8953203472
 51
196.1046796528
  0
ARC
  5
48E
100
AcDbEntity
  8
0
100
AcDbCircle
 62
7
  6
CONTINUOUS
 10
15.9902312448
 20
7.9664222739
 40
0.625
100
AcDbArc
 50
184.8096993668
 51
214.9889904702
  0
ARC
  5
48F
100
AcDbEntity
  8
0
100
AcDbCircle
 62
7
  6
CONTINUOUS
 10
13.8851534407
 20
7.9664222739
 40
0.625
100
AcDbArc
 50
325.0110095298
 51
355.1903006332
  0
ARC
  5
490
100
AcDbEntity
  8
0
100
AcDbCircle
 62
7
  6
CONTINUOUS
 10
15.7887822773
 20
8.1476820386
 40
0.5106580787
100
AcDbArc
 50
167.5189308262
 51
171.2127422799
  0
ARC
  5
491
100
AcDbEntity
  8
0
100
AcDbCircle
 62
7
  6
CONTINUOUS
 10
15.7529626352
 20
8.1536725146
 40
0.4743439442
100
AcDbArc
 50
171.2668724959
 51
171.6488058635
  0
ARC
  5
492
100
AcDbEntity
  8
0
100
AcDbCircle
 62
7
  6
CONTINUOUS
 10
15.7483406433
 20
8.154356502
 40
0.4696716195
100
AcDbArc
 50
171.6494689156
 51
172.8808110028
  0
ARC
  5
493
100
AcDbEntity
  8
0
100
AcDbCircle
 62
7
  6
CONTINUOUS
 10
15.7161278654
 20
8.1578916081
 40
0.4372682651
100
AcDbArc
 50
172.8173396023
 51
179.9800390994
  0
ARC
  5
494
100
AcDbEntity
  8
0
100
AcDbCircle
 62
7
  6
CONTINUOUS
 10
15.7113819079
 20
8.1580581184
 40
0.4325210817
100
AcDbArc
 50
182.3878384812
 51
183.0778178245
  0
ARC
  5
495
100
AcDbEntity
  8
0
100
AcDbCircle
 62
7
  6
CONTINUOUS
 10
15.7106453941
 20
8.158086599
 40
0.4317863981
100
AcDbArc
 50
180.0056599209
 51
182.395686276
  0
ARC
  5
496
100
AcDbEntity
  8
0
100
AcDbCircle
 62
7
  6
CONTINUOUS
 10
14.9164417999
 20
8.1833480805
 40
0.3685042295
100
AcDbArc
 50
4.5350084109
 51
4.7388196178
  0
ARC
  5
497
100
AcDbEntity
  8
0
100
AcDbCircle
 62
7
  6
CONTINUOUS
 10
15.0466923427
 20
8.5643826294
 40
0.241
100
AcDbArc
 50
322.6180391694
 51
31.1347215688
  0
ARC
  5
498
100
AcDbEntity
  8
0
100
AcDbCircle
 62
7
  6
CONTINUOUS
 10
14.8286923427
 20
8.5643826294
 40
0.241
100
AcDbArc
 50
148.8652784312
 51
217.3819608306
  0
ARC
  5
499
100
AcDbEntity
  8
0
100
AcDbCircle
 62
7
  6
CONTINUOUS
 10
14.4901674638
 20
7.3851545421
 40
0.2039751211
100
AcDbArc
 50
145.0110095298
 51
213.0478355064
  0
ARC
  5
49A
100
AcDbEntity
  8
0
100
AcDbCircle
 62
7
  6
CONTINUOUS
 10
15.3852172217
 20
7.3851545421
 40
0.2039751211
100
AcDbArc
 50
326.9521644936
 51
34.9889904702
  0
ARC
  5
49B
100
AcDbEntity
  8
0
100
AcDbCircle
 62
7
  6
CONTINUOUS
 10
15.9305562316
 20
6.2554189453
 40
0.1871361111
100
AcDbArc
 50
0.0
 51
87.8145949287
  0
ARC
  5
49C
100
AcDbEntity
  8
0
100
AcDbCircle
 62
7
  6
CONTINUOUS
 10
13.9448284538
 20
6.2554189453
 40
0.1871361111
100
AcDbArc
 50
92.1854050713
 51
180.0
  0
ARC
  5
49D
100
AcDbEntity
  8
0
100
AcDbCircle
 62
7
  6
CONTINUOUS
 10
14.1246896689
 20
6.4434189453
 40
0.187
100
AcDbArc
 50
90.0
 51
180.3063960032
  0
ARC
  5
49E
100
AcDbEntity
  8
0
100
AcDbCircle
 62
7
  6
CONTINUOUS
 10
15.7506950166
 20
6.4434189453
 40
0.187
100
AcDbArc
 50
359.6936039968
 51
90.0
  0
ARC
  5
49F
100
AcDbEntity
  8
0
100
AcDbCircle
 62
7
  6
CONTINUOUS
 10
15.6999668764
 20
7.1803799208
 40
0.1715245336
100
AcDbArc
 50
146.9521644936
 51
225.0826423158
  0
ARC
  5
4A0
100
AcDbEntity
  8
0
100
AcDbCircle
 62
7
  6
CONTINUOUS
 10
14.1754178091
 20
7.1803799208
 40
0.1715245336
100
AcDbArc
 50
314.9173576842
 51
33.0478355064
  0
ARC
  5
4A1
100
AcDbEntity
  8
0
100
AcDbCircle
 62
7
  6
CONTINUOUS
 10
15.1279770778
 20
8.190861861
 40
0.1567541028
100
AcDbArc
 50
7.9289079212
 51
8.2631419612
  0
ARC
  5
4A2
100
AcDbEntity
  8
0
100
AcDbCircle
 62
7
  6
CONTINUOUS
 10
15.1656274153
 20
8.1964308163
 40
0.1186943083
100
AcDbArc
 50
8.2148466518
 51
9.3130011143
  0
ARC
  5
4A3
100
AcDbEntity
  8
0
100
AcDbCircle
 62
7
  6
CONTINUOUS
 10
14.5388434542
 20
7.9114189453
 40
0.031
100
AcDbArc
 50
89.9999620817
 51
175.1902968487
  0
ARC
  5
4A4
100
AcDbEntity
  8
0
100
AcDbCircle
 62
7
  6
CONTINUOUS
 10
15.3365412312
 20
7.9114189453
 40
0.031
100
AcDbArc
 50
4.8097031513
 51
90.0000379183
  0
ARC
  5
4A5
100
AcDbEntity
  8
0
100
AcDbCircle
 62
7
  6
CONTINUOUS
 10
13.2982968117
 20
9.9141013018
 40
2.6741447738
100
AcDbArc
 50
312.4968234306
 51
312.8132015257
  0
ARC
  5
4A6
100
AcDbEntity
  8
0
100
AcDbCircle
 62
7
  6
CONTINUOUS
 10
8.5667238148
 20
9.9032279255
 40
2.6591258951
100
AcDbArc
 50
227.191411941
 51
227.5095581503
  0
ARC
  5
4A7
100
AcDbEntity
  8
0
100
AcDbCircle
 62
7
  6
CONTINUOUS
 10
13.2688352156
 20
9.8600300423
 40
2.6323899455
100
AcDbArc
 50
313.2417776649
 51
313.5587264971
  0
ARC
  5
4A8
100
AcDbEntity
  8
0
100
AcDbCircle
 62
7
  6
CONTINUOUS
 10
8.5962030015
 20
9.8494544808
 40
2.6175974908
100
AcDbArc
 50
226.4458953696
 51
226.7646156927
  0
ARC
  5
4A9
100
AcDbEntity
  8
0
100
AcDbCircle
 62
7
  6
CONTINUOUS
 10
13.2942385591
 20
9.6756120805
 40
2.5115863501
100
AcDbArc
 50
316.3635086699
 51
316.6780103302
  0
ARC
  5
4AA
100
AcDbEntity
  8
0
100
AcDbCircle
 62
7
  6
CONTINUOUS
 10
9.08062052
 20
9.1309023478
 40
2.4644417666
100
AcDbArc
 50
208.5675793401
 51
208.8327298648
  0
ARC
  5
4AB
100
AcDbEntity
  8
0
100
AcDbCircle
 62
7
  6
CONTINUOUS
 10
8.6900474288
 20
9.5442388181
 40
2.4349030003
100
AcDbArc
 50
220.8250079253
 51
221.1368216932
  0
ARC
  5
4AC
100
AcDbEntity
  8
0
100
AcDbCircle
 62
7
  6
CONTINUOUS
 10
8.502663953
 20
9.6008716337
 40
2.403209655
100
AcDbArc
 50
223.3093776676
 51
223.6380860442
  0
ARC
  5
4AD
100
AcDbEntity
  8
0
100
AcDbCircle
 62
7
  6
CONTINUOUS
 10
13.1233524936
 20
9.2622756798
 40
2.3706199981
100
AcDbArc
 50
326.1681412859
 51
326.4587129579
  0
ARC
  5
4AE
100
AcDbEntity
  8
0
100
AcDbCircle
 62
7
  6
CONTINUOUS
 10
12.8904795017
 20
9.0782822956
 40
2.3552161291
100
AcDbArc
 50
331.1657520572
 51
331.4432322254
  0
ARC
  5
4AF
100
AcDbEntity
  8
0
100
AcDbCircle
 62
7
  6
CONTINUOUS
 10
13.2648931199
 20
9.4748350766
 40
2.3293286558
100
AcDbArc
 50
318.861560605
 51
319.1875332689
  0
ARC
  5
4B0
100
AcDbEntity
  8
0
100
AcDbCircle
 62
7
  6
CONTINUOUS
 10
8.6654485622
 20
9.2043195186
 40
2.2664298807
100
AcDbArc
 50
213.5295006124
 51
213.8334618228
  0
ARC
  5
4B1
100
AcDbEntity
  8
0
100
AcDbCircle
 62
7
  6
CONTINUOUS
 10
8.4526923427
 20
9.5012745014
 40
2.115
100
AcDbArc
 50
343.8953203472
 51
16.1046796528
  0
ARC
  5
4B2
100
AcDbEntity
  8
0
100
AcDbCircle
 62
7
  6
CONTINUOUS
 10
13.4226923427
 20
9.5012745014
 40
2.115
100
AcDbArc
 50
163.8953203472
 51
196.1046796528
  0
ARC
  5
4B3
100
AcDbEntity
  8
0
100
AcDbCircle
 62
7
  6
CONTINUOUS
 10
7.7151923427
 20
8.9682003482
 40
0.54
100
AcDbArc
 50
180.0
 51
211.1347215689
  0
ARC
  5
4B4
100
AcDbEntity
  8
0
100
AcDbCircle
 62
7
  6
CONTINUOUS
 10
11.3094975773
 20
10.3657208529
 40
0.1168681221
100
AcDbArc
 50
292.5085867459
 51
293.5890509558
  0
ARC
  5
4B5
100
AcDbEntity
  8
0
100
AcDbCircle
 62
7
  6
CONTINUOUS
 10
10.5654202208
 20
10.3643250751
 40
0.1154008696
100
AcDbArc
 50
246.4855553092
 51
247.4618724754
  0
ARC
  5
4B6
100
AcDbEntity
  8
0
100
AcDbCircle
 62
7
  6
CONTINUOUS
 10
11.3726923427
 20
10.1504189453
 40
0.065
100
AcDbArc
 50
286.0766498315
 51
88.6848408374
  0
ARC
  5
4B7
100
AcDbEntity
  8
0
100
AcDbCircle
 62
7
  6
CONTINUOUS
 10
10.5026923427
 20
10.1504189453
 40
0.065
100
AcDbArc
 50
91.3178798785
 51
253.9233501685
  0
ARC
  5
4B8
100
AcDbEntity
  8
0
100
AcDbCircle
 62
7
  6
CONTINUOUS
 10
10.937691945
 20
10.7753900128
 40
0.7099998256
100
AcDbArc
 50
307.936602714
 51
63.877735201
  0
ARC
  5
4B9
100
AcDbEntity
  8
0
100
AcDbCircle
 62
7
  6
CONTINUOUS
 10
10.937692512
 20
10.7753901054
 40
0.7099996978
100
AcDbArc
 50
116.12021164
 51
232.0634162102
  0
ARC
  5
4BA
100
AcDbEntity
  8
0
100
AcDbCircle
 62
7
  6
CONTINUOUS
 10
10.9376923427
 20
10.7753901499
 40
0.4695
100
AcDbArc
 50
311.9013064677
 51
48.0986935323
  0
ARC
  5
4BB
100
AcDbEntity
  8
0
100
AcDbCircle
 62
7
  6
CONTINUOUS
 10
10.9376923427
 20
10.7753901499
 40
0.4695
100
AcDbArc
 50
131.9013064677
 51
228.0986935323
  0
ARC
  5
4BC
100
AcDbEntity
  8
0
100
AcDbCircle
 62
9
  6
CONTINUOUS
 10
10.9376923427
 20
10.7753901499
 40
0.407
100
AcDbArc
 50
140.3631082105
 51
219.6360890738
  0
ARC
  5
4BD
100
AcDbEntity
  8
0
100
AcDbCircle
 62
9
  6
CONTINUOUS
 10
10.9376923427
 20
10.7753901499
 40
0.407
100
AcDbArc
 50
320.3631082105
 51
39.6360890738
  0
ARC
  5
4BE
100
AcDbEntity
  8
0
100
AcDbCircle
 62
7
  6
CONTINUOUS
 10
10.9376923427
 20
10.7753901499
 40
0.34
100
AcDbArc
 50
337.2247497853
 51
22.7898993662
  0
ARC
  5
4BF
100
AcDbEntity
  8
0
100
AcDbCircle
 62
7
  6
CONTINUOUS
 10
10.9376923427
 20
10.7753901499
 40
0.34
100
AcDbArc
 50
157.2247497853
 51
202.7898993662
  0
ARC
  5
4C0
100
AcDbEntity
  8
0
100
AcDbCircle
 62
7
  6
CONTINUOUS
 10
10.9376923427
 20
10.7753901499
 40
0.325
100
AcDbArc
 50
164.8422424305
 51
195.1577575695
  0
ARC
  5
4C1
100
AcDbEntity
  8
0
100
AcDbCircle
 62
7
  6
CONTINUOUS
 10
10.9376923427
 20
10.7753901499
 40
0.325
100
AcDbArc
 50
344.8422424305
 51
15.1577575695
  0
ARC
  5
4C2
100
AcDbEntity
  8
0
100
AcDbCircle
 62
7
  6
CONTINUOUS
 10
10.9376923427
 20
10.7753901499
 40
0.317
100
AcDbArc
 50
170.5669688473
 51
189.3152186646
  0
ARC
  5
4C3
100
AcDbEntity
  8
0
100
AcDbCircle
 62
7
  6
CONTINUOUS
 10
10.9376923427
 20
10.7753901499
 40
0.317
100
AcDbArc
 50
350.5669688473
 51
9.3152186646
  0
ARC
  5
4C4
100
AcDbEntity
  8
0
100
AcDbCircle
 62
7
  6
CONTINUOUS
 10
10.9376923427
 20
11.4633901499
 40
0.3125
100
AcDbArc
 50
0.0
 51
180.0
  0
ARC
  5
4C5
100
AcDbEntity
  8
0
100
AcDbCircle
 62
7
  6
CONTINUOUS
 10
10.4775944406
 20
11.642420059
 40
0.2815979021
100
AcDbArc
 50
14.3526341955
 51
41.7470327955
  0
ARC
  5
4C6
100
AcDbEntity
  8
0
100
AcDbCircle
 62
7
  6
CONTINUOUS
 10
11.3977902448
 20
11.642420059
 40
0.2815979021
100
AcDbArc
 50
138.2529672045
 51
165.6473658045
  0
ARC
  5
4C7
100
AcDbEntity
  8
0
100
AcDbCircle
 62
7
  6
CONTINUOUS
 10
11.0656713412
 20
12.091920059
 40
0.188
100
AcDbArc
 50
11.039714414
 51
90.0
  0
ARC
  5
4C8
100
AcDbEntity
  8
0
100
AcDbCircle
 62
7
  6
CONTINUOUS
 10
10.8097133443
 20
12.091920059
 40
0.188
100
AcDbArc
 50
90.0
 51
168.960285586
  0
ARC
  5
4C9
100
AcDbEntity
  8
0
100
AcDbCircle
 62
7
  6
CONTINUOUS
 10
11.2836923427
 20
12.010420059
 40
0.1175
100
AcDbArc
 50
270.0
 51
90.0
  0
ARC
  5
4CA
100
AcDbEntity
  8
0
100
AcDbCircle
 62
7
  6
CONTINUOUS
 10
10.5916923427
 20
12.010420059
 40
0.1175
100
AcDbArc
 50
90.0
 51
270.0
  0
ARC
  5
4CB
100
AcDbEntity
  8
0
100
AcDbCircle
 62
7
  6
CONTINUOUS
 10
16.6900474295
 20
9.5442388187
 40
2.4349030012
100
AcDbArc
 50
220.8250079253
 51
221.1368216931
  0
ARC
  5
4CC
100
AcDbEntity
  8
0
100
AcDbCircle
 62
7
  6
CONTINUOUS
 10
16.5026639528
 20
9.6008716335
 40
2.4032096547
100
AcDbArc
 50
223.3093776676
 51
223.6380860442
  0
ARC
  5
4CD
100
AcDbEntity
  8
0
100
AcDbCircle
 62
7
  6
CONTINUOUS
 10
16.6654485627
 20
9.204319519
 40
2.2664298813
100
AcDbArc
 50
213.5295006124
 51
213.8334618227
  0
ARC
  5
4CE
100
AcDbEntity
  8
0
100
AcDbCircle
 62
7
  6
CONTINUOUS
 10
15.3876923427
 20
9.3730439453
 40
0.645
100
AcDbArc
 50
90.0
 51
180.0
  0
ARC
  5
4CF
100
AcDbEntity
  8
0
100
AcDbCircle
 62
7
  6
CONTINUOUS
 10
14.1601923427
 20
8.9682003482
 40
0.54
100
AcDbArc
 50
328.8652784311
 51
360.0
  0
ARC
  5
4D0
100
AcDbEntity
  8
0
100
AcDbCircle
 62
7
  6
CONTINUOUS
 10
15.7151923427
 20
8.9682003482
 40
0.54
100
AcDbArc
 50
180.0
 51
211.1347215689
  0
ARC
  5
4D1
100
AcDbEntity
  8
0
100
AcDbCircle
 62
9
  6
CONTINUOUS
 10
16.6177459031
 20
9.6300797818
 40
0.3383127039
100
AcDbArc
 50
68.8045053962
 51
74.1086607754
  0
ARC
  5
4D2
100
AcDbEntity
  8
0
100
AcDbCircle
 62
9
  6
CONTINUOUS
 10
16.6369085388
 20
9.6545496418
 40
0.3087016839
100
AcDbArc
 50
69.7332319087
 51
70.4787321836
  0
ARC
  5
4D3
100
AcDbEntity
  8
0
100
AcDbCircle
 62
7
  6
CONTINUOUS
 10
15.3876923427
 20
9.3730439453
 40
0.255
100
AcDbArc
 50
90.0
 51
180.0
  0
ARC
  5
4D4
100
AcDbEntity
  8
0
100
AcDbCircle
 62
7
  6
CONTINUOUS
 10
15.8536923427
 20
9.4327064453
 40
0.1653375
100
AcDbArc
 50
28.3243361106
 51
86.7304837434
  0
ARC
  5
4D5
100
AcDbEntity
  8
0
100
AcDbCircle
 62
7
  6
CONTINUOUS
 10
16.0546923427
 20
9.5410439453
 40
0.063
100
AcDbArc
 50
208.3243361106
 51
360.0
  0
ARC
  5
4D6
100
AcDbEntity
  8
0
100
AcDbCircle
 62
7
  6
CONTINUOUS
 10
15.1901923427
 20
9.0980439453
 40
0.06
100
AcDbArc
 50
273.5833216985
 51
90.0
  0
ARC
  5
4D7
100
AcDbEntity
  8
0
100
AcDbCircle
 62
7
  6
CONTINUOUS
 10
14.6851923427
 20
9.0980439453
 40
0.06
100
AcDbArc
 50
90.0
 51
266.4166783015
  0
ARC
  5
4D8
100
AcDbEntity
  8
0
100
AcDbCircle
 62
7
  6
CONTINUOUS
 10
14.6801923427
 20
9.0182003482
 40
0.02
100
AcDbArc
 50
0.0
 51
86.4166783015
  0
ARC
  5
4D9
100
AcDbEntity
  8
0
100
AcDbCircle
 62
7
  6
CONTINUOUS
 10
15.1951923427
 20
9.0182003482
 40
0.02
100
AcDbArc
 50
93.5833216985
 51
180.0
  0
ARC
  5
4DA
100
AcDbEntity
  8
0
100
AcDbCircle
 62
7
  6
CONTINUOUS
 10
15.8636923427
 20
9.6077585487
 40
0.01
100
AcDbArc
 50
179.999912204
 51
266.7304778879
  0
ARC
  5
4DB
100
AcDbEntity
  8
0
100
AcDbCircle
 62
7
  6
CONTINUOUS
 10
16.5667238151
 20
9.9032279258
 40
2.6591258956
100
AcDbArc
 50
227.191411941
 51
227.5095581502
  0
ARC
  5
4DC
100
AcDbEntity
  8
0
100
AcDbCircle
 62
7
  6
CONTINUOUS
 10
16.5962030019
 20
9.8494544812
 40
2.6175974914
100
AcDbArc
 50
226.4458953697
 51
226.7646156927
  0
ARC
  5
4DD
100
AcDbEntity
  8
0
100
AcDbCircle
 62
9
  6
CONTINUOUS
 10
16.1027515439
 20
9.9689328718
 40
0.3416911313
100
AcDbArc
 50
272.5178343103
 51
276.8031205988
  0
ARC
  5
4DE
100
AcDbEntity
  8
0
100
AcDbCircle
 62
9
  6
CONTINUOUS
 10
16.4451865072
 20
9.7762259331
 40
0.2297927294
100
AcDbArc
 50
270.0644696589
 51
276.3405827614
  0
ARC
  5
4DF
100
AcDbEntity
  8
0
100
AcDbCircle
 62
7
  6
CONTINUOUS
 10
15.8536923427
 20
10.2133814453
 40
0.1653375
100
AcDbArc
 50
273.2695162566
 51
331.6756638894
  0
ARC
  5
4E0
100
AcDbEntity
  8
0
100
AcDbCircle
 62
9
  6
CONTINUOUS
 10
16.6866443844
 20
10.0602954131
 40
0.1257391961
100
AcDbArc
 50
345.4203150046
 51
347.6348228351
  0
ARC
  5
4E1
100
AcDbEntity
  8
0
100
AcDbCircle
 62
9
  6
CONTINUOUS
 10
16.6904738005
 20
10.0594349151
 40
0.1218143457
100
AcDbArc
 50
347.6444646248
 51
348.7773028662
  0
ARC
  5
4E2
100
AcDbEntity
  8
0
100
AcDbCircle
 62
9
  6
CONTINUOUS
 10
16.6967568807
 20
10.0582216701
 40
0.115415289
100
AcDbArc
 50
348.7610268537
 51
353.4418842005
  0
ARC
  5
4E3
100
AcDbEntity
  8
0
100
AcDbCircle
 62
7
  6
CONTINUOUS
 10
16.0546923427
 20
10.1050439453
 40
0.063
100
AcDbArc
 50
0.0
 51
151.6756638894
  0
ARC
  5
4E4
100
AcDbEntity
  8
0
100
AcDbCircle
 62
7
  6
CONTINUOUS
 10
15.8636923427
 20
10.0383293419
 40
0.01
100
AcDbArc
 50
93.2695221121
 51
180.000087796
  0
ARC
  5
4E5
100
AcDbEntity
  8
0
100
AcDbCircle
 62
7
  6
CONTINUOUS
 10
17.0806205198
 20
9.1309023477
 40
2.4644417664
100
AcDbArc
 50
208.56757934
 51
208.8327298648
  0
ARC
  5
4E6
100
AcDbEntity
  8
0
100
AcDbCircle
 62
9
  6
CONTINUOUS
 10
19.1805631323
 20
9.6740664774
 40
0.3451531602
100
AcDbArc
 50
89.9497104721
 51
96.1838693017
  0
ARC
  5
4E7
100
AcDbEntity
  8
0
100
AcDbCircle
 62
9
  6
CONTINUOUS
 10
18.669861647
 20
9.6874115578
 40
0.1981376117
100
AcDbArc
 50
270.0996501631
 51
270.6364576093
  0
ARC
  5
4E8
100
AcDbEntity
  8
0
100
AcDbCircle
 62
9
  6
CONTINUOUS
 10
18.0486020901
 20
9.6544861281
 40
0.1979228733
100
AcDbArc
 50
268.402671654
 51
269.8431690728
  0
ARC
  5
4E9
100
AcDbEntity
  8
0
100
AcDbCircle
 62
9
  6
CONTINUOUS
 10
17.7235657833
 20
9.6007774145
 40
0.1824303435
100
AcDbArc
 50
267.5613483517
 51
269.7814306243
  0
ARC
  5
4EA
100
AcDbEntity
  8
0
100
AcDbCircle
 62
9
  6
CONTINUOUS
 10
16.7745188009
 20
9.5602605121
 40
0.1377893444
100
AcDbArc
 50
270.0335134604
 51
276.5165140827
  0
ARC
  5
4EB
100
AcDbEntity
  8
0
100
AcDbCircle
 62
9
  6
CONTINUOUS
 10
18.3617490244
 20
9.4932135602
 40
0.1348005762
100
AcDbArc
 50
270.2080523497
 51
270.6401412646
  0
ARC
  5
4EC
100
AcDbEntity
  8
0
100
AcDbCircle
 62
9
  6
CONTINUOUS
 10
18.6011104459
 20
9.5839491011
 40
0.1284443783
100
AcDbArc
 50
162.3495172418
 51
167.0504678859
  0
ARC
  5
4ED
100
AcDbEntity
  8
0
100
AcDbCircle
 62
9
  6
CONTINUOUS
 10
17.0755404962
 20
9.4353963611
 40
0.1275693239
100
AcDbArc
 50
270.2445015119
 51
270.6241508237
  0
ARC
  5
4EE
100
AcDbEntity
  8
0
100
AcDbCircle
 62
9
  6
CONTINUOUS
 10
18.0485855047
 20
9.3959424135
 40
0.1268528352
100
AcDbArc
 50
270.1622419131
 51
271.1184221927
  0
ARC
  5
4EF
100
AcDbEntity
  8
0
100
AcDbCircle
 62
9
  6
CONTINUOUS
 10
18.5964805525
 20
9.5850428338
 40
0.1236871389
100
AcDbArc
 50
167.0636196912
 51
167.8703594651
  0
ARC
  5
4F0
100
AcDbEntity
  8
0
100
AcDbCircle
 62
9
  6
CONTINUOUS
 10
17.723547932
 20
9.3518539083
 40
0.1210046978
100
AcDbArc
 50
270.1849977569
 51
271.5140892039
  0
ARC
  5
4F1
100
AcDbEntity
  8
0
100
AcDbCircle
 62
9
  6
CONTINUOUS
 10
18.5896357627
 20
9.586413479
 40
0.1167071967
100
AcDbArc
 50
167.8221436048
 51
172.2478731235
  0
ARC
  5
4F2
100
AcDbEntity
  8
0
100
AcDbCircle
 62
9
  6
CONTINUOUS
 10
19.0159027089
 20
10.4173145255
 40
0.6455991442
100
AcDbArc
 50
239.7582779762
 51
243.9720301451
  0
ARC
  5
4F3
100
AcDbEntity
  8
0
100
AcDbCircle
 62
9
  6
CONTINUOUS
 10
18.6651539615
 20
10.0133404417
 40
0.3363542904
100
AcDbArc
 50
249.0790279577
 51
254.0315379914
  0
ARC
  5
4F4
100
AcDbEntity
  8
0
100
AcDbCircle
 62
9
  6
CONTINUOUS
 10
18.6453569158
 20
9.9862862652
 40
0.3041428103
100
AcDbArc
 50
249.5206283761
 51
250.7429602563
  0
ARC
  5
4F5
100
AcDbEntity
  8
0
100
AcDbCircle
 62
9
  6
CONTINUOUS
 10
18.5079044872
 20
9.7384425981
 40
0.2985218539
100
AcDbArc
 50
82.8523462653
 51
86.231032176
  0
ARC
  5
4F6
100
AcDbEntity
  8
0
100
AcDbCircle
 62
9
  6
CONTINUOUS
 10
16.7754703807
 20
9.9072372011
 40
0.29730191
100
AcDbArc
 50
263.1601395836
 51
266.3947332841
  0
ARC
  5
4F7
100
AcDbEntity
  8
0
100
AcDbCircle
 62
9
  6
CONTINUOUS
 10
16.7748077147
 20
9.8971877321
 40
0.2872306609
100
AcDbArc
 50
266.4006021245
 51
267.6666493691
  0
ARC
  5
4F8
100
AcDbEntity
  8
0
100
AcDbCircle
 62
9
  6
CONTINUOUS
 10
18.5088418226
 20
9.7509532731
 40
0.2859766447
100
AcDbArc
 50
86.2536594604
 51
87.5952037255
  0
ARC
  5
4F9
100
AcDbEntity
  8
0
100
AcDbCircle
 62
9
  6
CONTINUOUS
 10
16.7745403383
 20
9.8905196391
 40
0.2805572109
100
AcDbArc
 50
267.6657659119
 51
269.9338053912
  0
ARC
  5
4FA
100
AcDbEntity
  8
0
100
AcDbCircle
 62
9
  6
CONTINUOUS
 10
18.5091009
 20
9.7572101051
 40
0.2797144524
100
AcDbArc
 50
87.5944493044
 51
89.9551742335
  0
ARC
  5
4FB
100
AcDbEntity
  8
0
100
AcDbCircle
 62
9
  6
CONTINUOUS
 10
18.837985259
 20
9.8682402377
 40
0.2320118814
100
AcDbArc
 50
90.0955181283
 51
95.6034710127
  0
ARC
  5
4FC
100
AcDbEntity
  8
0
100
AcDbCircle
 62
7
  6
CONTINUOUS
 10
19.3520559412
 20
9.8230439453
 40
0.23
100
AcDbArc
 50
237.9841951077
 51
122.2228377355
  0
ARC
  5
4FD
100
AcDbEntity
  8
0
100
AcDbCircle
 62
9
  6
CONTINUOUS
 10
18.2073026441
 20
9.9408904452
 40
0.2104045409
100
AcDbArc
 50
88.8816514506
 51
89.7713483727
  0
ARC
  5
4FE
100
AcDbEntity
  8
0
100
AcDbCircle
 62
9
  6
CONTINUOUS
 10
17.2347300366
 20
9.9922705175
 40
0.1969234353
100
AcDbArc
 50
88.5872608407
 51
89.8623935813
  0
ARC
  5
4FF
100
AcDbEntity
  8
0
100
AcDbCircle
 62
9
  6
CONTINUOUS
 10
18.5090259659
 20
10.08687074
 40
0.1375383217
100
AcDbArc
 50
90.0483583875
 51
95.7226303469
  0
ARC
  5
500
100
AcDbEntity
  8
0
100
AcDbCircle
 62
9
  6
CONTINUOUS
 10
16.9217134533
 20
10.1525014458
 40
0.1344949539
100
AcDbArc
 50
90.2591218844
 51
90.933247568
  0
ARC
  5
501
100
AcDbEntity
  8
0
100
AcDbCircle
 62
9
  6
CONTINUOUS
 10
18.2073180999
 20
10.2108613949
 40
0.1279298491
100
AcDbArc
 50
90.1664960434
 51
91.7882979426
  0
ARC
  5
502
100
AcDbEntity
  8
0
100
AcDbCircle
 62
9
  6
CONTINUOUS
 10
17.2347438831
 20
10.2496962575
 40
0.1269927078
100
AcDbArc
 50
90.1896953118
 51
96.5749619777
  0
ARC
  5
503
100
AcDbEntity
  8
0
100
AcDbCircle
 62
9
  6
CONTINUOUS
 10
17.8864599348
 20
10.2799905572
 40
0.1225718971
100
AcDbArc
 50
90.199069258
 51
90.9133923335
  0
ARC
  5
504
100
AcDbEntity
  8
0
100
AcDbCircle
 62
9
  6
CONTINUOUS
 10
17.5594826613
 20
10.2930813821
 40
0.1220105643
100
AcDbArc
 50
90.1793852479
 51
90.5698611688
  0
LINE
  5
505
100
AcDbEntity
  8
0
100
AcDbLine
 62
7
  6
CONTINUOUS
 10
15.28323261
 20
8.2124851926
 11
15.2846022795
 21
8.2007269991
  0
SPLINE
  5
506
100
AcDbEntity
  8
0
100
AcDbSpline
 62
7
  6
CONTINUOUS
 70
0
 71
3
 72
14
 73
10
 74
0
 42
0.0000001
 43
0.0000001
 44
0.0000000001
 40
0.0
 40
0.0
 40
0.0
 40
0.0
 40
0.1019261321
 40
0.2110323484
 40
0.3270313039
 40
0.4496255538
 40
0.5785231441
 40
0.7134278789
 40
1.0
 40
1.0
 40
1.0
 40
1.0
 10
15.2846023428
 20
8.108928337
 30
0.0
 10
15.2844041447
 20
8.1094981731
 30
0.0
 10
15.2840112259
 20
8.1106840905
 30
0.0
 10
15.283446284
 20
8.1125357255
 30
0.0
 10
15.2828854993
 20
8.1145160801
 30
0.0
 10
15.2823291245
 20
8.1166190664
 30
0.0
 10
15.2817770766
 20
8.1188386766
 30
0.0
 10
15.2810315949
 20
8.1220100756
 30
0.0
 10
15.2805021812
 20
8.1244482829
 30
0.0
 10
15.2801556703
 20
8.1261087894
 30
0.0
  0
LINE
  5
507
100
AcDbEntity
  8
0
100
AcDbLine
 62
7
  6
CONTINUOUS
 10
15.2846023428
 20
8.2007318284
 11
15.2837923194
 21
8.2124850502
  0
LINE
  5
508
100
AcDbEntity
  8
0
100
AcDbLine
 62
7
  6
CONTINUOUS
 10
15.2836863502
 20
8.2137915938
 11
15.2831979077
 21
8.2190243327
  0
LINE
  5
509
100
AcDbEntity
  8
0
100
AcDbLine
 62
7
  6
CONTINUOUS
 10
15.2801756253
 20
8.1603242265
 11
15.2805445548
 21
8.1554977677
  0
SPLINE
  5
50A
100
AcDbEntity
  8
0
100
AcDbSpline
 62
7
  6
CONTINUOUS
 70
0
 71
3
 72
14
 73
10
 74
0
 42
0.0000001
 43
0.0000001
 44
0.0000000001
 40
0.0
 40
0.0
 40
0.0
 40
0.0
 40
0.2815413275
 40
0.4178283517
 40
0.5491769676
 40
0.6742674641
 40
0.7918979662
 40
0.9008727071
 40
1.0
 40
1.0
 40
1.0
 40
1.0
 10
15.2805445548
 20
8.1554977677
 30
0.0
 10
15.2808790907
 20
8.1511233358
 30
0.0
 10
15.2813771995
 20
8.1446314687
 30
0.0
 10
15.2820569031
 20
8.1361007756
 30
0.0
 10
15.2825611363
 20
8.1300017943
 30
0.0
 10
15.2830651996
 20
8.1241945532
 30
0.0
 10
15.2835686837
 20
8.1187372838
 30
0.0
 10
15.2840713835
 20
8.113686362
 30
0.0
 10
15.2844236822
 20
8.110462652
 30
0.0
 10
15.2846023428
 20
8.1089283371
 30
0.0
  0
SPLINE
  5
50B
100
AcDbEntity
  8
0
100
AcDbSpline
 62
7
  6
CONTINUOUS
 70
0
 71
3
 72
22
 73
18
 74
0
 42
0.0000001
 43
0.0000001
 44
0.0000000001
 40
0.0
 40
0.0
 40
0.0
 40
0.0
 40
0.1564025136
 40
0.3096154195
 40
0.3840444997
 40
0.4565179136
 40
0.5266607859
 40
0.594119297
 40
0.658550284
 40
0.7196302291
 40
0.777048109
 40
0.8305195445
 40
0.8797759521
 40
0.9245799791
 40
0.9647140892
 40
0.9829735912
 40
1.0
 40
1.0
 40
1.0
 40
1.0
 10
10.9376923427
 20
9.5361845533
 30
0.0
 10
10.9251808324
 20
9.5361845533
 30
0.0
 10
10.9004127076
 20
9.5363381769
 30
0.0
 10
10.8696953714
 20
9.5369169964
 30
0.0
 10
10.8456974348
 20
9.5376147019
 30
0.0
 10
10.8283459575
 20
9.5382424601
 30
0.0
 10
10.8115567799
 20
9.5389766912
 30
0.0
 10
10.7954165548
 20
9.5398132153
 30
0.0
 10
10.7800079593
 20
9.5407479495
 30
0.0
 10
10.7654103323
 20
9.5417755657
 30
0.0
 10
10.7516985359
 20
9.5428909787
 30
0.0
 10
10.738943234
 20
9.5440877516
 30
0.0
 10
10.7272095826
 20
9.5453597509
 30
0.0
 10
10.7165579713
 20
9.546699557
 30
0.0
 10
10.7083896251
 20
9.5479011704
 30
0.0
 10
10.7024397619
 20
9.5489019735
 30
0.0
 10
10.6996635251
 20
9.549412984
 30
0.0
 10
10.698326322
 20
9.5496718937
 30
0.0
  0
SPLINE
  5
50C
100
AcDbEntity
  8
0
100
AcDbSpline
 62
7
  6
CONTINUOUS
 70
0
 71
3
 72
22
 73
18
 74
0
 42
0.0000001
 43
0.0000001
 44
0.0000000001
 40
0.0
 40
0.0
 40
0.0
 40
0.0
 40
0.0170250017
 40
0.0352831689
 40
0.0754149289
 40
0.1202170077
 40
0.1694718273
 40
0.2229420377
 40
0.2803590678
 40
0.3414385784
 40
0.405869539
 40
0.4733284905
 40
0.5434722107
 40
0.6159468155
 40
0.6903772841
 40
0.8435938112
 40
1.0
 40
1.0
 40
1.0
 40
1.0
 10
11.177063999
 20
9.5496729853
 30
0.0
 10
11.1757268811
 20
9.5494140565
 30
0.0
 10
11.1729508055
 20
9.548903009
 30
0.0
 10
11.1670012217
 20
9.5479021295
 30
0.0
 10
11.1588331441
 20
9.5467004281
 30
0.0
 10
11.1481817606
 20
9.5453605256
 30
0.0
 10
11.1364482184
 20
9.5440884319
 30
0.0
 10
11.1236929116
 20
9.5428915677
 30
0.0
 10
11.1099809936
 20
9.5417760669
 30
0.0
 10
11.0953831267
 20
9.5407483669
 30
0.0
 10
11.0799741678
 20
9.5398135526
 30
0.0
 10
11.0638334583
 20
9.5389769551
 30
0.0
 10
11.0470436828
 20
9.5382426562
 30
0.0
 10
11.0296915177
 20
9.5376148402
 30
0.0
 10
11.0056925124
 20
9.5369170653
 30
0.0
 10
10.9749737473
 20
9.5363381923
 30
0.0
 10
10.9502044463
 20
9.5361845533
 30
0.0
 10
10.9376923427
 20
9.5361845533
 30
0.0
  0
SPLINE
  5
50D
100
AcDbEntity
  8
0
100
AcDbSpline
 62
7
  6
CONTINUOUS
 70
0
 71
3
 72
39
 73
35
 74
0
 42
0.0000001
 43
0.0000001
 44
0.0000000001
 40
0.0
 40
0.0
 40
0.0
 40
0.0
 40
0.007721827
 40
0.0161196311
 40
0.0251853939
 40
0.0349081493
 40
0.056274039
 40
0.0801107559
 40
0.0929159925
 40
0.1062897095
 40
0.1346704656
 40
0.165095487
 40
0.1973981451
 40
0.2313972127
 40
0.2669043784
 40
0.3416377059
 40
0.4199252096
 40
0.5000104719
 40
0.580095357
 40
0.658381766
 40
0.7331133207
 40
0.7686193294
 40
0.8026170578
 40
0.834918179
 40
0.865341511
 40
0.893720427
 40
0.9070931917
 40
0.9198974795
 40
0.9437322036
 40
0.9650960771
 40
0.9748178122
 40
0.9838825049
 40
0.9922792371
 40
1.0
 40
1.0
 40
1.0
 40
1.0
 10
10.710562469
 20
9.5514689364
 30
0.0
 10
10.7117061297
 20
9.5512091097
 30
0.0
 10
10.7141004389
 20
9.550696733
 30
0.0
 10
10.7178565413
 20
9.5499719029
 30
0.0
 10
10.7219239298
 20
9.5492595963
 30
0.0
 10
10.7279464543
 20
9.5482974008
 30
0.0
 10
10.7362096398
 20
9.5471461211
 30
0.0
 10
10.7449590691
 20
9.5461079709
 30
0.0
 10
10.7525130844
 20
9.5453054236
 30
0.0
 10
10.760759923
 20
9.5444936399
 30
0.0
 10
10.7716812619
 20
9.5435376975
 30
0.0
 10
10.7854801424
 20
9.5424980992
 30
0.0
 10
10.8001408732
 20
9.5415512335
 30
0.0
 10
10.8155806696
 20
9.5407021411
 30
0.0
 10
10.8374648753
 20
9.5396904143
 30
0.0
 10
10.8660835137
 20
9.5387175101
 30
0.0
 10
10.9014821825
 20
9.5380168756
 30
0.0
 10
10.9376998181
 20
9.53778158
 30
0.0
 10
10.9739172861
 20
9.5380170689
 30
0.0
 10
11.0093154583
 20
9.5387178924
 30
0.0
 10
11.03793348
 20
9.5396909513
 30
0.0
 10
11.059817031
 20
9.5407027994
 30
0.0
 10
11.0752562094
 20
9.5415519733
 30
0.0
 10
11.0899162404
 20
9.5424989171
 30
0.0
 10
11.103714344
 20
9.5435385846
 30
0.0
 10
11.1146349947
 20
9.5444945847
 30
0.0
 10
11.1228812578
 20
9.5453064138
 30
0.0
 10
11.1304346748
 20
9.5461089944
 30
0.0
 10
11.1391833408
 20
9.5471471888
 30
0.0
 10
11.1474457487
 20
9.5482985156
 30
0.0
 10
11.153467636
 20
9.5492607457
 30
0.0
 10
11.1575345324
 20
9.5499730795
 30
0.0
 10
11.1612901343
 20
9.5506979329
 30
0.0
 10
11.1636841083
 20
9.5512103262
 30
0.0
 10
11.1648276013
 20
9.5514701618
 30
0.0
  0
SPLINE
  5
50E
100
AcDbEntity
  8
0
100
AcDbSpline
 62
7
  6
CONTINUOUS
 70
0
 71
3
 72
17
 73
13
 74
0
 42
0.0000001
 43
0.0000001
 44
0.0000000001
 40
0.0
 40
0.0
 40
0.0
 40
0.0
 40
0.0559507872
 40
0.1144799228
 40
0.2379011753
 40
0.3674068674
 40
0.4999922419
 40
0.6325786049
 40
0.7620872866
 40
0.8855134738
 40
0.9440457113
 40
1.0
 40
1.0
 40
1.0
 40
1.0
 10
11.0686607911
 20
9.5586617132
 30
0.0
 10
11.0637825409
 20
9.5583629553
 30
0.0
 10
11.053798093
 20
9.5578021625
 30
0.0
 10
11.0330399099
 20
9.556823145
 30
0.0
 10
11.0058488021
 20
9.5558817227
 30
0.0
 10
10.9721794858
 20
9.5552036199
 30
0.0
 10
10.937703511
 20
9.5549756698
 30
0.0
 10
10.903227273
 20
9.5552033264
 30
0.0
 10
10.8695571724
 20
9.5558811436
 30
0.0
 10
10.8423650929
 20
9.5568223317
 30
0.0
 10
10.8216058923
 20
9.5578011685
 30
0.0
 10
10.8116208617
 20
9.5583618725
 30
0.0
 10
10.8067423024
 20
9.5586605861
 30
0.0
  0
SPLINE
  5
50F
100
AcDbEntity
  8
0
100
AcDbSpline
 62
7
  6
CONTINUOUS
 70
0
 71
3
 72
35
 73
31
 74
0
 42
0.0000001
 43
0.0000001
 44
0.0000000001
 40
0.0
 40
0.0
 40
0.0
 40
0.0
 40
0.0967747775
 40
0.1926711662
 40
0.286695896
 40
0.3779826579
 40
0.4656660085
 40
0.5489018166
 40
0.626903442
 40
0.6989360206
 40
0.7643178283
 40
0.7943249599
 40
0.8224470035
 40
0.8486225989
 40
0.8727958093
 40
0.8949127497
 40
0.9149301075
 40
0.9328149059
 40
0.9485396952
 40
0.9620921184
 40
0.9680574728
 40
0.9734864437
 40
0.9783853864
 40
0.9827643151
 40
0.9866394606
 40
0.9900366583
 40
0.9929951181
 40
0.9955748959
 40
0.9978668781
 40
1.0
 40
1.0
 40
1.0
 40
1.0
 10
10.9376923427
 20
9.5615502604
 30
0.0
 10
10.9285459679
 20
9.5615502604
 30
0.0
 10
10.9103361397
 20
9.5614725247
 30
0.0
 10
10.8832418595
 20
9.5611241617
 30
0.0
 10
10.856670249
 20
9.5605469636
 30
0.0
 10
10.8308809826
 20
9.5597469049
 30
0.0
 10
10.8061197182
 20
9.5587322528
 30
0.0
 10
10.7826248403
 20
9.5575127388
 30
0.0
 10
10.7606226411
 20
9.5561008767
 30
0.0
 10
10.7403246818
 20
9.5545111426
 30
0.0
 10
10.7245714479
 20
9.5530121583
 30
0.0
 10
10.7129696026
 20
9.5517208269
 30
0.0
 10
10.7050614902
 20
9.550745546
 30
0.0
 10
10.6977135153
 20
9.5497382664
 30
0.0
 10
10.6909431992
 20
9.5487017024
 30
0.0
 10
10.6847667814
 20
9.5476383342
 30
0.0
 10
10.6791988854
 20
9.5465509845
 30
0.0
 10
10.6742521988
 20
9.5454431017
 30
0.0
 10
10.669938262
 20
9.544317491
 30
0.0
 10
10.6667550985
 20
9.5433302148
 30
0.0
 10
10.6645398929
 20
9.5425214519
 30
0.0
 10
10.6631142948
 20
9.5419380226
 30
0.0
 10
10.6618531922
 20
9.5413520717
 30
0.0
 10
10.6607571221
 20
9.5407637713
 30
0.0
 10
10.659826269
 20
9.540173169
 30
0.0
 10
10.6590603328
 20
9.5395800332
 30
0.0
 10
10.6584588963
 20
9.5389833211
 30
0.0
 10
10.6580223594
 20
9.5383803824
 30
0.0
 10
10.6577542124
 20
9.5377684316
 30
0.0
 10
10.6576925796
 20
9.537348258
 30
0.0
 10
10.6576925688
 20
9.5371466524
 30
0.0
  0
SPLINE
  5
510
100
AcDbEntity
  8
0
100
AcDbSpline
 62
7
  6
CONTINUOUS
 70
0
 71
3
 72
35
 73
31
 74
0
 42
0.0000001
 43
0.0000001
 44
0.0000000001
 40
0.0
 40
0.0
 40
0.0
 40
0.0
 40
0.0021331139
 40
0.0044251101
 40
0.0070049511
 40
0.0099634974
 40
0.0133607513
 40
0.0172358579
 40
0.0216146494
 40
0.0265135603
 40
0.0319425847
 40
0.0379080251
 40
0.051460493
 40
0.0671850093
 40
0.0850697659
 40
0.105087065
 40
0.1272036542
 40
0.1513766036
 40
0.1775519721
 40
0.2056736195
 40
0.235680333
 40
0.3010613602
 40
0.373093097
 40
0.4510940658
 40
0.5343294405
 40
0.6220127547
 40
0.7132996694
 40
0.8073253607
 40
0.9032238791
 40
1.0
 40
1.0
 40
1.0
 40
1.0
 10
11.2176921167
 20
9.5371466524
 30
0.0
 10
11.2176921274
 20
9.5373482572
 30
0.0
 10
11.2176305196
 20
9.5377684392
 30
0.0
 10
11.2173623596
 20
9.5383803942
 30
0.0
 10
11.2169257925
 20
9.5389833303
 30
0.0
 10
11.2163243256
 20
9.5395800388
 30
0.0
 10
11.2155583757
 20
9.540173172
 30
0.0
 10
11.2146275382
 20
9.5407637765
 30
0.0
 10
11.2135314998
 20
9.5413520948
 30
0.0
 10
11.2122704058
 20
9.5419380399
 30
0.0
 10
11.210844795
 20
9.5425214654
 30
0.0
 10
11.2086295671
 20
9.5433302184
 30
0.0
 10
11.2054464147
 20
9.5443174834
 30
0.0
 10
11.2011325102
 20
9.5454431181
 30
0.0
 10
11.1961858537
 20
9.5465509773
 30
0.0
 10
11.1906179981
 20
9.5476383116
 30
0.0
 10
11.1844416455
 20
9.5487016873
 30
0.0
 10
11.177671407
 20
9.549738238
 30
0.0
 10
11.170323514
 20
9.5507455029
 30
0.0
 10
11.1624155001
 20
9.5517207815
 30
0.0
 10
11.1508138046
 20
9.5530121042
 30
0.0
 10
11.1350607622
 20
9.5545110749
 30
0.0
 10
11.1147630176
 20
9.5561008096
 30
0.0
 10
11.0927609998
 20
9.5575126697
 30
0.0
 10
11.0692662276
 20
9.5587321951
 30
0.0
 10
11.0445049919
 20
9.5597468574
 30
0.0
 10
11.0187156224
 20
9.5605469318
 30
0.0
 10
10.9921437039
 20
9.5611241503
 30
0.0
 10
10.9650490028
 20
9.5614725161
 30
0.0
 10
10.9468388452
 20
9.5615502604
 30
0.0
 10
10.9376923427
 20
9.5615502604
 30
0.0
  0
SPLINE
  5
511
100
AcDbEntity
  8
0
100
AcDbSpline
 62
7
  6
CONTINUOUS
 70
0
 71
3
 72
45
 73
41
 74
0
 42
0.0000001
 43
0.0000001
 44
0.0000000001
 40
0.0
 40
0.0
 40
0.0
 40
0.0
 40
0.0085623629
 40
0.01684751
 40
0.0249041026
 40
0.0327668878
 40
0.0404184962
 40
0.0478012924
 40
0.0548438838
 40
0.0614878207
 40
0.0677537253
 40
0.0736725461
 40
0.0792643343
 40
0.0845431168
 40
0.0895442574
 40
0.0943120829
 40
0.1033104081
 40
0.1118247144
 40
0.1200596758
 40
0.128197026
 40
0.1363736845
 40
0.1446750475
 40
0.153180147
 40
0.1710095112
 40
0.1901544896
 40
0.2107848265
 40
0.2329941993
 40
0.2568224112
 40
0.282282746
 40
0.3093600731
 40
0.3380261197
 40
0.3682385232
 40
0.4330811795
 40
0.5033669297
 40
0.5784718428
 40
0.6576944252
 40
0.7402731081
 40
0.8254058593
 40
0.9122865563
 40
1.0
 40
1.0
 40
1.0
 40
1.0
 10
10.5897052797
 20
9.5647382139
 30
0.0
 10
10.5898082831
 20
9.5636971086
 30
0.0
 10
10.5901046036
 20
9.5616565046
 30
0.0
 10
10.5908190109
 20
9.5586945023
 30
0.0
 10
10.5917711148
 20
9.555890264
 30
0.0
 10
10.5929358325
 20
9.553252429
 30
0.0
 10
10.5942732929
 20
9.5507918557
 30
0.0
 10
10.595738564
 20
9.5485241824
 30
0.0
 10
10.5972882227
 20
9.5464657971
 30
0.0
 10
10.5988887446
 20
9.5446243332
 30
0.0
 10
10.6005113682
 20
9.5429912586
 30
0.0
 10
10.6021341409
 20
9.5415457401
 30
0.0
 10
10.603737883
 20
9.5402652828
 30
0.0
 10
10.6053058241
 20
9.5391231038
 30
0.0
 10
10.6068365258
 20
9.5381036136
 30
0.0
 10
10.6087950682
 20
9.5369099578
 30
0.0
 10
10.6111952897
 20
9.5356212504
 30
0.0
 10
10.6140427144
 20
9.5342808847
 30
0.0
 10
10.6168541944
 20
9.5331198212
 30
0.0
 10
10.6196698667
 20
9.5320842413
 30
0.0
 10
10.6225239392
 20
9.5311341623
 30
0.0
 10
10.625446777
 20
9.5302525518
 30
0.0
 10
10.629526464
 20
9.5291263891
 30
0.0
 10
10.6349274993
 20
9.5278137471
 30
0.0
 10
10.6418169431
 20
9.5263692622
 30
0.0
 10
10.6492667569
 20
9.5250020427
 30
0.0
 10
10.6573078923
 20
9.5236975357
 30
0.0
 10
10.6659543996
 20
9.5224481348
 30
0.0
 10
10.6752081887
 20
9.5212500988
 30
0.0
 10
10.6850636309
 20
9.5201021574
 30
0.0
 10
10.695508764
 20
9.5190043629
 30
0.0
 10
10.7105580162
 20
9.5175746572
 30
0.0
 10
10.7306948724
 20
9.5159398999
 30
0.0
 10
10.7563265636
 20
9.5142399283
 30
0.0
 10
10.7837322973
 20
9.5127735973
 30
0.0
 10
10.8126534154
 20
9.511554026
 30
0.0
 10
10.8428101065
 20
9.5105927871
 30
0.0
 10
10.8739100479
 20
9.5098992783
 30
0.0
 10
10.9056422959
 20
9.5094806507
 30
0.0
 10
10.9269751173
 20
9.5093872905
 30
0.0
 10
10.9376923427
 20
9.5093872905
 30
0.0
  0
SPLINE
  5
512
100
AcDbEntity
  8
0
100
AcDbSpline
 62
7
  6
CONTINUOUS
 70
0
 71
3
 72
44
 73
40
 74
0
 42
0.0000001
 43
0.0000001
 44
0.0000000001
 40
0.0
 40
0.0
 40
0.0
 40
0.0
 40
0.0877192247
 40
0.1746045078
 40
0.2597420461
 40
0.3423253278
 40
0.4215520501
 40
0.4966596069
 40
0.5669441303
 40
0.6317841841
 40
0.6619962606
 40
0.6906613747
 40
0.7177390956
 40
0.7431981328
 40
0.7670273686
 40
0.7892350972
 40
0.8098671564
 40
0.8290111857
 40
0.8380768386
 40
0.846839882
 40
0.8636506279
 40
0.8718214047
 40
0.8799642307
 40
0.8840635242
 40
0.8882031697
 40
0.8967073424
 40
0.9057163693
 40
0.9104915424
 40
0.9154930082
 40
0.9263342565
 40
0.9385317353
 40
0.9451695145
 40
0.9521855787
 40
0.9595620347
 40
0.9672279278
 40
0.975120164
 40
0.9832035298
 40
0.9914884176
 40
1.0
 40
1.0
 40
1.0
 40
1.0
 10
10.9376923427
 20
9.5093872905
 30
0.0
 10
10.9484101774
 20
9.5093872905
 30
0.0
 10
10.9697440724
 20
9.509480655
 30
0.0
 10
11.0014778841
 20
9.5098993331
 30
0.0
 10
11.0325792497
 20
9.5105929125
 30
0.0
 10
11.0627373184
 20
9.5115542321
 30
0.0
 10
11.0916595604
 20
9.5127739438
 30
0.0
 10
11.1190657191
 20
9.5142403831
 30
0.0
 10
11.144697029
 20
9.5159404047
 30
0.0
 10
11.1648331857
 20
9.5175752433
 30
0.0
 10
11.1798818257
 20
9.5190049517
 30
0.0
 10
11.1903267547
 20
9.520102773
 30
0.0
 10
11.2001818685
 20
9.5212508048
 30
0.0
 10
11.2094355988
 20
9.5224487771
 30
0.0
 10
11.2180817445
 20
9.5236984353
 30
0.0
 10
11.2261229955
 20
9.525002743
 30
0.0
 10
11.2335724856
 20
9.5263703967
 30
0.0
 10
11.2394140588
 20
9.5275949681
 30
0.0
 10
11.2438117131
 20
9.5286294548
 30
0.0
 10
11.2479138988
 20
9.5296715427
 30
0.0
 10
11.2518786539
 20
9.5308097472
 30
0.0
 10
11.2557205525
 20
9.5320841782
 30
0.0
 10
11.2580609364
 20
9.5329480562
 30
0.0
 10
11.2599179388
 20
9.5336952798
 30
0.0
 10
11.2618003308
 20
9.5344965717
 30
0.0
 10
11.2641972339
 20
9.5356195024
 30
0.0
 10
11.2665924718
 20
9.5369192536
 30
0.0
 10
11.2685554528
 20
9.5381096683
 30
0.0
 10
11.2706562149
 20
9.5395012557
 30
0.0
 10
11.2733777236
 20
9.5415908827
 30
0.0
 10
11.2760204137
 20
9.5440865036
 30
0.0
 10
11.2781007134
 20
9.546466294
 30
0.0
 10
11.2796513027
 20
9.5485182002
 30
0.0
 10
11.2811137396
 20
9.5507851042
 30
0.0
 10
11.2824498981
 20
9.553251557
 30
0.0
 10
11.283615094
 20
9.5558985523
 30
0.0
 10
11.284567167
 20
9.5587099578
 30
0.0
 10
11.2852806903
 20
9.5616690172
 30
0.0
 10
11.2855770142
 20
9.5637032924
 30
0.0
 10
11.2856794058
 20
9.5647382139
 30
0.0
  0
SPLINE
  5
513
100
AcDbEntity
  8
0
100
AcDbSpline
 62
7
  6
CONTINUOUS
 70
0
 71
3
 72
65
 73
61
 74
0
 42
0.0000001
 43
0.0000001
 44
0.0000000001
 40
0.0
 40
0.0
 40
0.0
 40
0.0
 40
0.0845908554
 40
0.1679618934
 40
0.2488869924
 40
0.3262261402
 40
0.3988980374
 40
0.4331776483
 40
0.4659404604
 40
0.4970888907
 40
0.5265468073
 40
0.5542510672
 40
0.580167634
 40
0.6042913369
 40
0.6266659496
 40
0.6474104083
 40
0.6667577513
 40
0.6760313355
 40
0.6851464897
 40
0.6896786757
 40
0.69421339
 40
0.7033846876
 40
0.7080751975
 40
0.7128724133
 40
0.7178113705
 40
0.7229342319
 40
0.7282853199
 40
0.7339093637
 40
0.7398418036
 40
0.7461173934
 40
0.7527755654
 40
0.759829606
 40
0.7672639378
 40
0.7750700227
 40
0.7832191597
 40
0.7916612989
 40
0.8092421066
 40
0.8183059675
 40
0.8274968353
 40
0.8367795511
 40
0.8461222799
 40
0.8554977343
 40
0.8648787506
 40
0.8742386097
 40
0.8835509975
 40
0.8927857402
 40
0.9019100677
 40
0.9108890539
 40
0.9196797576
 40
0.9282324984
 40
0.9365068679
 40
0.9444660986
 40
0.9520620719
 40
0.9592596979
 40
0.9660729022
 40
0.9725155069
 40
0.9785938744
 40
0.9843341247
 40
0.9897848942
 40
1.0
 40
1.0
 40
1.0
 40
1.0
 10
10.9376923427
 20
10.4210937221
 30
0.0
 10
10.9210843558
 20
10.4210937221
 30
0.0
 10
10.8881075928
 20
10.4209181504
 30
0.0
 10
10.8392482473
 20
10.4201304207
 30
0.0
 10
10.791823956
 20
10.4188298717
 30
0.0
 10
10.7465179106
 20
10.417035192
 30
0.0
 10
10.7103851822
 20
10.415113014
 30
0.0
 10
10.683012653
 20
10.4133255023
 30
0.0
 10
10.6637868644
 20
10.4119023625
 30
0.0
 10
10.6455189441
 20
10.4103736692
 30
0.0
 10
10.6282572147
 20
10.4087419969
 30
0.0
 10
10.6120380132
 20
10.407008529
 30
0.0
 10
10.5968844721
 20
10.4051720224
 30
0.0
 10
10.5827999743
 20
10.4032267122
 30
0.0
 10
10.5697597447
 20
10.4011593796
 30
0.0
 10
10.5576964942
 20
10.398940387
 30
0.0
 10
10.5482219038
 20
10.3968873556
 30
0.0
 10
10.5410332691
 20
10.3950921516
 30
0.0
 10
10.5366949174
 20
10.393894072
 30
0.0
 10
10.5332753802
 20
10.392869018
 30
0.0
 10
10.5298612762
 20
10.3917890263
 30
0.0
 10
10.5264464521
 20
10.3906090603
 30
0.0
 10
10.5230236348
 20
10.3893027318
 30
0.0
 10
10.5204000984
 20
10.3882344419
 30
0.0
 10
10.5177266338
 20
10.3870659052
 30
0.0
 10
10.5149906432
 20
10.385771893
 30
0.0
 10
10.5121786106
 20
10.3843278455
 30
0.0
 10
10.5092781028
 20
10.3827119798
 30
0.0
 10
10.5062885069
 20
10.3808879869
 30
0.0
 10
10.5032158679
 20
10.3788169716
 30
0.0
 10
10.5000709367
 20
10.3764670228
 30
0.0
 10
10.4968784771
 20
10.3738094216
 30
0.0
 10
10.4936810133
 20
10.3708161709
 30
0.0
 10
10.4905320426
 20
10.3674693471
 30
0.0
 10
10.4874875899
 20
10.3637661179
 30
0.0
 10
10.4835968029
 20
10.3582951394
 30
0.0
 10
10.4802508644
 20
10.3522364177
 30
0.0
 10
10.4775863189
 20
10.3457185449
 30
0.0
 10
10.4759527305
 20
10.3405580723
 30
0.0
 10
10.4747302436
 20
10.335229237
 30
0.0
 10
10.4739493846
 20
10.3297808946
 30
0.0
 10
10.473626934
 20
10.3242671471
 30
0.0
 10
10.4737617393
 20
10.3187422126
 30
0.0
 10
10.4743594805
 20
10.3132603996
 30
0.0
 10
10.4754054269
 20
10.3078758274
 30
0.0
 10
10.4768739555
 20
10.3026389069
 30
0.0
 10
10.478745695
 20
10.2976021009
 30
0.0
 10
10.480975826
 20
10.2928101129
 30
0.0
 10
10.4835102518
 20
10.2883005491
 30
0.0
 10
10.4863026569
 20
10.2841115792
 30
0.0
 10
10.4892935891
 20
10.2802677105
 30
0.0
 10
10.4924118267
 20
10.2767753822
 30
0.0
 10
10.4955945993
 20
10.2736367676
 30
0.0
 10
10.4987913763
 20
10.2708444831
 30
0.0
 10
10.5019612968
 20
10.26837607
 30
0.0
 10
10.5050730613
 20
10.2661995953
 30
0.0
 10
10.5081001133
 20
10.264276432
 30
0.0
 10
10.5110335526
 20
10.2625743919
 30
0.0
 10
10.5147480543
 20
10.2606065703
 30
0.0
 10
10.5175385317
 20
10.2593073293
 30
0.0
 10
10.5193775525
 20
10.2585071494
 30
0.0
  0
SPLINE
  5
514
100
AcDbEntity
  8
0
100
AcDbSpline
 62
7
  6
CONTINUOUS
 70
0
 71
3
 72
65
 73
61
 74
0
 42
0.0000001
 43
0.0000001
 44
0.0000000001
 40
0.0
 40
0.0
 40
0.0
 40
0.0
 40
0.0050221453
 40
0.0102495937
 40
0.0157274359
 40
0.0215013028
 40
0.0276025203
 40
0.0340581074
 40
0.0409013829
 40
0.0481455961
 40
0.055764181
 40
0.0637359456
 40
0.072031145
 40
0.0805992951
 40
0.0893971343
 40
0.0983817479
 40
0.1075098212
 40
0.116745199
 40
0.135398805
 40
0.144777819
 40
0.1541508806
 40
0.1634899422
 40
0.1727675855
 40
0.1819529323
 40
0.1910097214
 40
0.1999001219
 40
0.208584225
 40
0.2170123405
 40
0.2251308095
 40
0.2403260924
 40
0.2473528323
 40
0.2539740774
 40
0.2602254578
 40
0.2661410937
 40
0.2717490332
 40
0.2770838386
 40
0.2821912387
 40
0.287115952
 40
0.2919008114
 40
0.2965840807
 40
0.3011926693
 40
0.3057506501
 40
0.3148086927
 40
0.333203884
 40
0.3427272186
 40
0.3525630856
 40
0.3733203983
 40
0.3957137119
 40
0.4198522383
 40
0.4457837101
 40
0.473501264
 40
0.50297084
 40
0.5341284226
 40
0.5668981904
 40
0.6011803966
 40
0.6738496785
 40
0.751177618
 40
0.8320844035
 40
0.915434513
 40
1.0
 40
1.0
 40
1.0
 40
1.0
 10
11.3562651508
 20
10.2586183224
 30
0.0
 10
11.3571682073
 20
10.2590129941
 30
0.0
 10
11.3590003136
 20
10.2598438098
 30
0.0
 10
11.3617703837
 20
10.2612059603
 30
0.0
 10
11.3646218844
 20
10.2627326855
 30
0.0
 10
11.3675651751
 20
10.2644469267
 30
0.0
 10
11.3705971567
 20
10.2663847759
 30
0.0
 10
11.3737054281
 20
10.2685856915
 30
0.0
 10
11.3768727955
 20
10.2710826024
 30
0.0
 10
11.3800700583
 20
10.2739005889
 30
0.0
 10
11.3832502523
 20
10.2770616106
 30
0.0
 10
11.3863543717
 20
10.2805784617
 30
0.0
 10
11.3893215362
 20
10.2844497391
 30
0.0
 10
11.3920941643
 20
10.2886588787
 30
0.0
 10
11.3946039457
 20
10.2931859173
 30
0.0
 10
11.3968000652
 20
10.2979942319
 30
0.0
 10
11.3986402385
 20
10.303042272
 30
0.0
 10
11.4005608793
 20
10.3100541895
 30
0.0
 10
11.4016167402
 20
10.3173318409
 30
0.0
 10
11.4017489652
 20
10.3246775795
 30
0.0
 10
11.401391902
 20
10.3301852416
 30
0.0
 10
11.4005808618
 20
10.3356241096
 30
0.0
 10
11.3993259485
 20
10.3409400389
 30
0.0
 10
11.3976623275
 20
10.3460838918
 30
0.0
 10
11.3956208711
 20
10.3510076911
 30
0.0
 10
11.3932355999
 20
10.3556637177
 30
0.0
 10
11.3905696425
 20
10.3600199312
 30
0.0
 10
11.3876831313
 20
10.3640482415
 30
0.0
 10
11.3836995995
 20
10.3688423024
 30
0.0
 10
11.3794484489
 20
10.3730370032
 30
0.0
 10
11.3750871696
 20
10.3766476896
 30
0.0
 10
11.3719506399
 20
10.3789770543
 30
0.0
 10
11.3688839256
 20
10.3810261996
 30
0.0
 10
11.3658985057
 20
10.3828321019
 30
0.0
 10
11.3630041329
 20
10.3844357044
 30
0.0
 10
11.3601991344
 20
10.3858695117
 30
0.0
 10
11.3574702396
 20
10.3871539519
 30
0.0
 10
11.3548033839
 20
10.3883134829
 30
0.0
 10
11.3521844828
 20
10.3893718476
 30
0.0
 10
11.3496016946
 20
10.3903521613
 30
0.0
 10
11.3470413412
 20
10.3912644876
 30
0.0
 10
11.343649826
 20
10.3923999881
 30
0.0
 10
11.3376411908
 20
10.3942358629
 30
0.0
 10
11.3306156307
 20
10.3960641716
 30
0.0
 10
11.3233903992
 20
10.3977042496
 30
0.0
 10
11.3156834248
 20
10.3993114586
 30
0.0
 10
11.3054546166
 20
10.4011876577
 30
0.0
 10
11.292411445
 20
10.4032526988
 30
0.0
 10
11.2783238145
 20
10.4051945102
 30
0.0
 10
11.2631690021
 20
10.4070288143
 30
0.0
 10
11.2469496387
 20
10.408759729
 30
0.0
 10
11.2296894705
 20
10.4103893537
 30
0.0
 10
11.2114248513
 20
10.4119158843
 30
0.0
 10
11.1922046462
 20
10.4133370937
 30
0.0
 10
11.1648439581
 20
10.415122003
 30
0.0
 10
11.1287309175
 20
10.4170413218
 30
0.0
 10
11.0834531566
 20
10.4188332987
 30
0.0
 10
11.0360618091
 20
10.420131907
 30
0.0
 10
10.987238904
 20
10.4209184035
 30
0.0
 10
10.9542872711
 20
10.4210937221
 30
0.0
 10
10.9376923427
 20
10.4210937221
 30
0.0
  0
SPLINE
  5
515
100
AcDbEntity
  8
0
100
AcDbSpline
 62
9
  6
CONTINUOUS
 70
0
 71
3
 72
67
 73
63
 74
0
 42
0.0000001
 43
0.0000001
 44
0.0000000001
 40
0.0
 40
0.0
 40
0.0
 40
0.0
 40
0.0483874691
 40
0.0963357926
 40
0.1433482346
 40
0.1889916168
 40
0.2328332561
 40
0.2744511306
 40
0.3134520141
 40
0.349468402
 40
0.366249199
 40
0.3821595928
 40
0.3971630834
 40
0.4112240381
 40
0.4243117605
 40
0.4363982923
 40
0.4474566946
 40
0.4574652874
 40
0.4664075944
 40
0.4742699049
 40
0.477793893
 40
0.4810466569
 40
0.484029284
 40
0.48674372
 40
0.4891931445
 40
0.4913825658
 40
0.493320094
 40
0.4950186472
 40
0.4964978343
 40
0.4977876878
 40
0.4989336559
 40
0.5000002098
 40
0.50106677
 40
0.5022127872
 40
0.5035027389
 40
0.5049820503
 40
0.5066807178
 40
0.5086183097
 40
0.5108077404
 40
0.5132572337
 40
0.5159717856
 40
0.5189545451
 40
0.5222074254
 40
0.525731481
 40
0.5335937832
 40
0.5425362042
 40
0.5525448863
 40
0.5636031923
 40
0.5756896719
 40
0.5887773472
 40
0.6028381339
 40
0.6178414336
 40
0.6337516479
 40
0.6505322179
 40
0.6865480878
 40
0.7255484756
 40
0.7671659083
 40
0.8110072539
 40
0.8566504162
 40
0.9036630281
 40
0.9516121336
 40
1.0
 40
1.0
 40
1.0
 40
1.0
 10
10.9376923427
 20
9.5095052549
 30
0.0
 10
10.927332419
 20
9.5095052549
 30
0.0
 10
10.9067064848
 20
9.5095933056
 30
0.0
 10
10.8760173019
 20
9.5099878904
 30
0.0
 10
10.8459201537
 20
9.5106416758
 30
0.0
 10
10.8167091831
 20
9.5115478856
 30
0.0
 10
10.7886626402
 20
9.5126971783
 30
0.0
 10
10.7620504623
 20
9.5140784539
 30
0.0
 10
10.737129082
 20
9.5156778097
 30
0.0
 10
10.7175338869
 20
9.5172120504
 30
0.0
 10
10.7028841261
 20
9.5185497378
 30
0.0
 10
10.6927238146
 20
9.5195735474
 30
0.0
 10
10.6831534685
 20
9.5206389361
 30
0.0
 10
10.6741961611
 20
9.5217435776
 30
0.0
 10
10.6658733137
 20
9.522884517
 30
0.0
 10
10.6582047605
 20
9.5240586077
 30
0.0
 10
10.6512089312
 20
9.5252630804
 30
0.0
 10
10.6449022832
 20
9.5264946481
 30
0.0
 10
10.6392995342
 20
9.5277496971
 30
0.0
 10
10.6350866419
 20
9.5288483685
 30
0.0
 10
10.632083819
 20
9.5297476419
 30
0.0
 10
10.6300988961
 20
9.5304014194
 30
0.0
 10
10.6282986247
 20
9.5310588993
 30
0.0
 10
10.6266839021
 20
9.531719698
 30
0.0
 10
10.6252555141
 20
9.5323834038
 30
0.0
 10
10.6240140506
 20
9.5330497559
 30
0.0
 10
10.6229597273
 20
9.5337187246
 30
0.0
 10
10.6220922045
 20
9.5343905451
 30
0.0
 10
10.6214110094
 20
9.5350664724
 30
0.0
 10
10.620916593
 20
9.5357492835
 30
0.0
 10
10.6206129124
 20
9.5364428354
 30
0.0
 10
10.6205094846
 20
9.5371468008
 30
0.0
 10
10.6206129374
 20
9.5378507778
 30
0.0
 10
10.6209167197
 20
9.5385443251
 30
0.0
 10
10.6214112483
 20
9.5392271247
 30
0.0
 10
10.6220925548
 20
9.5399030409
 30
0.0
 10
10.6229601647
 20
9.5405748523
 30
0.0
 10
10.6240145357
 20
9.5412438189
 30
0.0
 10
10.6252560241
 20
9.5419101888
 30
0.0
 10
10.6266844644
 20
9.542573882
 30
0.0
 10
10.6282992645
 20
9.5432346706
 30
0.0
 10
10.630099623
 20
9.5438921394
 30
0.0
 10
10.6320846205
 20
9.5445459064
 30
0.0
 10
10.6350874873
 20
9.5454451635
 30
0.0
 10
10.6393004143
 20
9.5465438481
 30
0.0
 10
10.6449032159
 20
9.5477988562
 30
0.0
 10
10.6512098927
 20
9.5490303929
 30
0.0
 10
10.6582057092
 20
9.5502348655
 30
0.0
 10
10.6658742246
 20
9.5514089273
 30
0.0
 10
10.6741970183
 20
9.5525498357
 30
0.0
 10
10.6831542397
 20
9.5536544641
 30
0.0
 10
10.692724472
 20
9.554719833
 30
0.0
 10
10.7028846574
 20
9.5557436182
 30
0.0
 10
10.7175342216
 20
9.5570812826
 30
0.0
 10
10.737129152
 20
9.558615501
 30
0.0
 10
10.7620502213
 20
9.5602148346
 30
0.0
 10
10.7886621356
 20
9.5615961029
 30
0.0
 10
10.816708474
 20
9.5627453922
 30
0.0
 10
10.8459193708
 20
9.563651607
 30
0.0
 10
10.8760166754
 20
9.5643054075
 30
0.0
 10
10.9067061473
 20
9.5646999903
 30
0.0
 10
10.927332334
 20
9.56478805
 30
0.0
 10
10.9376923427
 20
9.56478805
 30
0.0
  0
SPLINE
  5
516
100
AcDbEntity
  8
0
100
AcDbSpline
 62
7
  6
CONTINUOUS
 70
0
 71
3
 72
35
 73
31
 74
0
 42
0.0000001
 43
0.0000001
 44
0.0000000001
 40
0.0
 40
0.0
 40
0.0
 40
0.0
 40
0.0967747775
 40
0.1926711662
 40
0.286695896
 40
0.3779826579
 40
0.4656660085
 40
0.5489018166
 40
0.626903442
 40
0.6989360206
 40
0.7643178283
 40
0.7943249599
 40
0.8224470035
 40
0.8486225989
 40
0.8727958093
 40
0.8949127497
 40
0.9149301075
 40
0.9328149059
 40
0.9485396952
 40
0.9620921184
 40
0.9680574728
 40
0.9734864437
 40
0.9783853864
 40
0.9827643151
 40
0.9866394606
 40
0.9900366583
 40
0.9929951181
 40
0.9955748959
 40
0.9978668781
 40
1.0
 40
1.0
 40
1.0
 40
1.0
 10
10.9376923427
 20
9.5127430445
 30
0.0
 10
10.9468387176
 20
9.5127430445
 30
0.0
 10
10.9650485458
 20
9.5128207802
 30
0.0
 10
10.992142826
 20
9.5131691432
 30
0.0
 10
11.0187144365
 20
9.5137463412
 30
0.0
 10
11.0445037029
 20
9.5145464
 30
0.0
 10
11.0692649673
 20
9.5155610521
 30
0.0
 10
11.0927598452
 20
9.5167805661
 30
0.0
 10
11.1147620444
 20
9.5181924281
 30
0.0
 10
11.1350600037
 20
9.5197821622
 30
0.0
 10
11.1508132375
 20
9.5212811465
 30
0.0
 10
11.1624150829
 20
9.522572478
 30
0.0
 10
11.1703231952
 20
9.5235477588
 30
0.0
 10
11.1776711701
 20
9.5245550385
 30
0.0
 10
11.1844414862
 20
9.5255916025
 30
0.0
 10
11.1906179041
 20
9.5266549706
 30
0.0
 10
11.1961858001
 20
9.5277423204
 30
0.0
 10
11.2011324867
 20
9.5288502032
 30
0.0
 10
11.2054464235
 20
9.5299758139
 30
0.0
 10
11.208629587
 20
9.5309630901
 30
0.0
 10
11.2108447925
 20
9.5317718529
 30
0.0
 10
11.2122703907
 20
9.5323552822
 30
0.0
 10
11.2135314933
 20
9.5329412331
 30
0.0
 10
11.2146275634
 20
9.5335295336
 30
0.0
 10
11.2155584165
 20
9.5341201358
 30
0.0
 10
11.2163243526
 20
9.5347132717
 30
0.0
 10
11.2169257892
 20
9.5353099838
 30
0.0
 10
11.217362326
 20
9.5359129225
 30
0.0
 10
11.2176304731
 20
9.5365248732
 30
0.0
 10
11.2176921059
 20
9.5369450469
 30
0.0
 10
11.2176921167
 20
9.5371466524
 30
0.0
  0
SPLINE
  5
517
100
AcDbEntity
  8
0
100
AcDbSpline
 62
9
  6
CONTINUOUS
 70
0
 71
3
 72
67
 73
63
 74
0
 42
0.0000001
 43
0.0000001
 44
0.0000000001
 40
0.0
 40
0.0
 40
0.0
 40
0.0
 40
0.0483874691
 40
0.0963357926
 40
0.1433482346
 40
0.1889916168
 40
0.2328332561
 40
0.2744511306
 40
0.3134520141
 40
0.349468402
 40
0.366249199
 40
0.3821595928
 40
0.3971630834
 40
0.4112240381
 40
0.4243117605
 40
0.4363982923
 40
0.4474566946
 40
0.4574652874
 40
0.4664075944
 40
0.4742699049
 40
0.477793893
 40
0.4810466569
 40
0.484029284
 40
0.48674372
 40
0.4891931445
 40
0.4913825658
 40
0.493320094
 40
0.4950186472
 40
0.4964978343
 40
0.4977876878
 40
0.4989336559
 40
0.5000002098
 40
0.50106677
 40
0.5022127872
 40
0.5035027389
 40
0.5049820503
 40
0.5066807178
 40
0.5086183097
 40
0.5108077404
 40
0.5132572337
 40
0.5159717856
 40
0.5189545451
 40
0.5222074254
 40
0.525731481
 40
0.5335937832
 40
0.5425362042
 40
0.5525448863
 40
0.5636031923
 40
0.5756896719
 40
0.5887773472
 40
0.6028381339
 40
0.6178414336
 40
0.6337516479
 40
0.6505322179
 40
0.6865480878
 40
0.7255484756
 40
0.7671659083
 40
0.8110072539
 40
0.8566504162
 40
0.9036630281
 40
0.9516121336
 40
1.0
 40
1.0
 40
1.0
 40
1.0
 10
10.9376923427
 20
9.56478805
 30
0.0
 10
10.9480522664
 20
9.56478805
 30
0.0
 10
10.9686782007
 20
9.5646999993
 30
0.0
 10
10.9993673836
 20
9.5643054144
 30
0.0
 10
11.0294645318
 20
9.5636516291
 30
0.0
 10
11.0586755024
 20
9.5627454192
 30
0.0
 10
11.0867220453
 20
9.5615961266
 30
0.0
 10
11.1133342232
 20
9.5602148509
 30
0.0
 10
11.1382556035
 20
9.5586154951
 30
0.0
 10
11.1578507985
 20
9.5570812545
 30
0.0
 10
11.1725005594
 20
9.5557435671
 30
0.0
 10
11.1826608709
 20
9.5547197575
 30
0.0
 10
11.192231217
 20
9.5536543688
 30
0.0
 10
11.2011885244
 20
9.5525497272
 30
0.0
 10
11.2095113717
 20
9.5514087879
 30
0.0
 10
11.217179925
 20
9.5502346972
 30
0.0
 10
11.2241757543
 20
9.5490302245
 30
0.0
 10
11.2304824023
 20
9.5477986568
 30
0.0
 10
11.2360851513
 20
9.5465436077
 30
0.0
 10
11.2402980436
 20
9.5454449364
 30
0.0
 10
11.2433008664
 20
9.5445456629
 30
0.0
 10
11.2452857893
 20
9.5438918855
 30
0.0
 10
11.2470860607
 20
9.5432344056
 30
0.0
 10
11.2487007834
 20
9.5425736068
 30
0.0
 10
11.2501291714
 20
9.5419099011
 30
0.0
 10
11.2513706348
 20
9.541243549
 30
0.0
 10
11.2524249582
 20
9.5405745803
 30
0.0
 10
11.253292481
 20
9.5399027598
 30
0.0
 10
11.2539736761
 20
9.5392268325
 30
0.0
 10
11.2544680925
 20
9.5385440214
 30
0.0
 10
11.2547717731
 20
9.5378504695
 30
0.0
 10
11.2548752009
 20
9.5371465041
 30
0.0
 10
11.254771748
 20
9.5364425271
 30
0.0
 10
11.2544679658
 20
9.5357489797
 30
0.0
 10
11.2539734371
 20
9.5350661802
 30
0.0
 10
11.2532921307
 20
9.5343902639
 30
0.0
 10
11.2524245208
 20
9.5337184525
 30
0.0
 10
11.2513701498
 20
9.533049486
 30
0.0
 10
11.2501286613
 20
9.5323831161
 30
0.0
 10
11.248700221
 20
9.5317194229
 30
0.0
 10
11.247085421
 20
9.5310586342
 30
0.0
 10
11.2452850624
 20
9.5304011655
 30
0.0
 10
11.2433000649
 20
9.5297473985
 30
0.0
 10
11.2402971981
 20
9.5288481414
 30
0.0
 10
11.2360842711
 20
9.5277494567
 30
0.0
 10
11.2304814696
 20
9.5264944486
 30
0.0
 10
11.2241747927
 20
9.5252629119
 30
0.0
 10
11.2171789763
 20
9.5240584394
 30
0.0
 10
11.2095104608
 20
9.5228843776
 30
0.0
 10
11.2011876671
 20
9.5217434691
 30
0.0
 10
11.1922304458
 20
9.5206388407
 30
0.0
 10
11.1826602134
 20
9.5195734719
 30
0.0
 10
11.172500028
 20
9.5185496866
 30
0.0
 10
11.1578504639
 20
9.5172120222
 30
0.0
 10
11.1382555335
 20
9.5156778038
 30
0.0
 10
11.1133344641
 20
9.5140784702
 30
0.0
 10
11.0867225498
 20
9.512697202
 30
0.0
 10
11.0586762115
 20
9.5115479127
 30
0.0
 10
11.0294653147
 20
9.5106416978
 30
0.0
 10
10.99936801
 20
9.5099878973
 30
0.0
 10
10.9686785382
 20
9.5095933146
 30
0.0
 10
10.9480523515
 20
9.5095052549
 30
0.0
 10
10.9376923427
 20
9.5095052549
 30
0.0
  0
SPLINE
  5
518
100
AcDbEntity
  8
0
100
AcDbSpline
 62
9
  6
CONTINUOUS
 70
0
 71
3
 72
37
 73
33
 74
0
 42
0.0000001
 43
0.0000001
 44
0.0000000001
 40
0.0
 40
0.0
 40
0.0
 40
0.0
 40
0.0972370601
 40
0.1935722888
 40
0.2880100489
 40
0.3796700953
 40
0.4676681016
 40
0.5511522871
 40
0.6293218838
 40
0.7014317019
 40
0.7349973485
 40
0.7667976842
 40
0.7967560862
 40
0.8248052506
 40
0.8508824475
 40
0.8749273477
 40
0.8968907011
 40
0.9167300298
 40
0.9344076149
 40
0.9499012175
 40
0.9568266355
 40
0.9632043396
 40
0.9690361407
 40
0.9743267152
 40
0.979084573
 40
0.9833224311
 40
0.9870593638
 40
0.9903244404
 40
0.993162674
 40
0.9956444707
 40
0.9978756751
 40
1.0
 40
1.0
 40
1.0
 40
1.0
 10
10.9376923427
 20
9.5953299368
 30
0.0
 10
10.9491227709
 20
9.5953299368
 30
0.0
 10
10.9718777373
 20
9.5952323079
 30
0.0
 10
11.0057315277
 20
9.5947945695
 30
0.0
 10
11.0389246908
 20
9.5940694483
 30
0.0
 10
11.0711300762
 20
9.593064542
 30
0.0
 10
11.1020373119
 20
9.5917900533
 30
0.0
 10
11.131345125
 20
9.5902588522
 30
0.0
 10
11.1587680572
 20
9.5884862367
 30
0.0
 10
11.1803134393
 20
9.5867857433
 30
0.0
 10
11.1964060803
 20
9.5853032702
 30
0.0
 10
11.2075543426
 20
9.584169359
 30
0.0
 10
11.2180455205
 20
9.5829892866
 30
0.0
 10
11.2278541753
 20
9.581766184
 30
0.0
 10
11.2369565328
 20
9.5805033718
 30
0.0
 10
11.245330524
 20
9.5792037836
 30
0.0
 10
11.252956004
 20
9.5778710326
 30
0.0
 10
11.259814922
 20
9.5765091051
 30
0.0
 10
11.2658908506
 20
9.5751211806
 30
0.0
 10
11.2704465395
 20
9.5739056518
 30
0.0
 10
11.2736825374
 20
9.572910731
 30
0.0
 10
11.2758130884
 20
9.5721882554
 30
0.0
 10
11.2777382129
 20
9.5714617694
 30
0.0
 10
11.2794569444
 20
9.5707316496
 30
0.0
 10
11.2809687467
 20
9.569998405
 30
0.0
 10
11.2822733724
 20
9.569262332
 30
0.0
 10
11.2833708206
 20
9.5685234469
 30
0.0
 10
11.2842613373
 20
9.5677810916
 30
0.0
 10
11.28494498
 20
9.5670333071
 30
0.0
 10
11.285420155
 20
9.566276041
 30
0.0
 10
11.2856804701
 20
9.565506465
 30
0.0
 10
11.2857035252
 20
9.5649867222
 30
0.0
 10
11.2856789614
 20
9.5647382142
 30
0.0
  0
SPLINE
  5
519
100
AcDbEntity
  8
0
100
AcDbSpline
 62
9
  6
CONTINUOUS
 70
0
 71
3
 72
37
 73
33
 74
0
 42
0.0000001
 43
0.0000001
 44
0.0000000001
 40
0.0
 40
0.0
 40
0.0
 40
0.0
 40
0.0021243249
 40
0.0043555293
 40
0.006837326
 40
0.0096755596
 40
0.0129406362
 40
0.0166775689
 40
0.020915427
 40
0.0256732848
 40
0.0309638593
 40
0.0367956604
 40
0.0431733645
 40
0.0500987825
 40
0.0655923851
 40
0.0832699702
 40
0.1031092989
 40
0.1250726523
 40
0.1491175525
 40
0.1751947494
 40
0.2032439138
 40
0.2332023158
 40
0.2650026515
 40
0.2985682981
 40
0.3706781162
 40
0.4488477129
 40
0.5323318984
 40
0.6203299047
 40
0.7119899511
 40
0.8064277112
 40
0.9027629399
 40
1.0
 40
1.0
 40
1.0
 40
1.0
 10
10.5897057241
 20
9.5647382142
 30
0.0
 10
10.5896811603
 20
9.5649867222
 30
0.0
 10
10.5897042154
 20
9.565506465
 30
0.0
 10
10.5899645305
 20
9.566276041
 30
0.0
 10
10.5904397055
 20
9.5670333071
 30
0.0
 10
10.5911233482
 20
9.5677810916
 30
0.0
 10
10.5920138649
 20
9.5685234469
 30
0.0
 10
10.5931113131
 20
9.569262332
 30
0.0
 10
10.5944159388
 20
9.569998405
 30
0.0
 10
10.595927741
 20
9.5707316496
 30
0.0
 10
10.5976464725
 20
9.5714617694
 30
0.0
 10
10.5995715971
 20
9.5721882554
 30
0.0
 10
10.6017021481
 20
9.572910731
 30
0.0
 10
10.604938146
 20
9.5739056518
 30
0.0
 10
10.6094938348
 20
9.5751211806
 30
0.0
 10
10.6155697634
 20
9.5765091051
 30
0.0
 10
10.6224286815
 20
9.5778710326
 30
0.0
 10
10.6300541615
 20
9.5792037836
 30
0.0
 10
10.6384281527
 20
9.5805033718
 30
0.0
 10
10.6475305102
 20
9.581766184
 30
0.0
 10
10.657339165
 20
9.5829892866
 30
0.0
 10
10.6678303428
 20
9.584169359
 30
0.0
 10
10.6789786051
 20
9.5853032702
 30
0.0
 10
10.6950712461
 20
9.5867857433
 30
0.0
 10
10.7166166282
 20
9.5884862367
 30
0.0
 10
10.7440395605
 20
9.5902588522
 30
0.0
 10
10.7733473736
 20
9.5917900533
 30
0.0
 10
10.8042546093
 20
9.593064542
 30
0.0
 10
10.8364599947
 20
9.5940694483
 30
0.0
 10
10.8696531578
 20
9.5947945695
 30
0.0
 10
10.9035069482
 20
9.5952323079
 30
0.0
 10
10.9262619146
 20
9.5953299368
 30
0.0
 10
10.9376923427
 20
9.5953299368
 30
0.0
  0
SPLINE
  5
51A
100
AcDbEntity
  8
0
100
AcDbSpline
 62
7
  6
CONTINUOUS
 70
0
 71
3
 72
15
 73
11
 74
0
 42
0.0000001
 43
0.0000001
 44
0.0000000001
 40
0.0
 40
0.0
 40
0.0
 40
0.0
 40
0.1377658882
 40
0.2743260857
 40
0.408357846
 40
0.5386848331
 40
0.6641216343
 40
0.7835270872
 40
0.8958230648
 40
1.0
 40
1.0
 40
1.0
 40
1.0
 10
10.9376923427
 20
10.2987856968
 30
0.0
 10
10.9244052205
 20
10.2987856968
 30
0.0
 10
10.8979471276
 20
10.2986755829
 30
0.0
 10
10.858564839
 20
10.298181686
 30
0.0
 10
10.8199055212
 20
10.2973632596
 30
0.0
 10
10.7823274574
 20
10.2962283659
 30
0.0
 10
10.7461715564
 20
10.2947877503
 30
0.0
 10
10.7117694871
 20
10.2930550985
 30
0.0
 10
10.6794365393
 20
10.2910467727
 30
0.0
 10
10.6586167848
 20
10.2894739047
 30
0.0
 10
10.6486043485
 20
10.2886344547
 30
0.0
  0
LINE
  5
51B
100
AcDbEntity
  8
0
100
AcDbLine
 62
7
  6
CONTINUOUS
 10
10.6270950219
 20
10.2866920826
 11
10.6258019019
 21
10.2865656869
  0
SPLINE
  5
51C
100
AcDbEntity
  8
0
100
AcDbSpline
 62
7
  6
CONTINUOUS
 70
0
 71
3
 72
28
 73
24
 74
0
 42
0.0000001
 43
0.0000001
 44
0.0000000001
 40
0.0
 40
0.0
 40
0.0
 40
0.0
 40
0.2193808427
 40
0.3196515344
 40
0.4133756221
 40
0.5003859987
 40
0.5805310035
 40
0.6536677685
 40
0.7196890295
 40
0.7785177764
 40
0.8301001733
 40
0.853174711
 40
0.8744470542
 40
0.893931136
 40
0.911648216
 40
0.9276300728
 40
0.9419242733
 40
0.9546046214
 40
0.9657813693
 40
0.9756174114
 40
0.9843531424
 40
0.9923314459
 40
1.0
 40
1.0
 40
1.0
 40
1.0
 10
10.6225447702
 20
10.2862419744
 30
0.0
 10
10.6147543118
 20
10.2854583856
 30
0.0
 10
10.6034121027
 20
10.2842208341
 30
0.0
 10
10.5887752783
 20
10.2823666954
 30
0.0
 10
10.5788423858
 20
10.2809780972
 30
0.0
 10
10.5696408751
 20
10.2795527462
 30
0.0
 10
10.5611892563
 20
10.2780938924
 30
0.0
 10
10.5535046347
 20
10.2766044656
 30
0.0
 10
10.5466021072
 20
10.2750880659
 30
0.0
 10
10.5404951779
 20
10.2735484448
 30
0.0
 10
10.5359226732
 20
10.272204048
 30
0.0
 10
10.5326793128
 20
10.2711060333
 30
0.0
 10
10.5305445756
 20
10.2703093067
 30
0.0
 10
10.5286166253
 20
10.2695089486
 30
0.0
 10
10.526896236
 20
10.2687053053
 30
0.0
 10
10.5253840266
 20
10.2678987312
 30
0.0
 10
10.5240803935
 20
10.267089286
 30
0.0
 10
10.5229852838
 20
10.2662768449
 30
0.0
 10
10.5220983254
 20
10.2654606295
 30
0.0
 10
10.521419559
 20
10.2646387677
 30
0.0
 10
10.5209509782
 20
10.2638078822
 30
0.0
 10
10.520698823
 20
10.2629664525
 30
0.0
 10
10.5206808838
 20
10.2624007331
 30
0.0
 10
10.5207078681
 20
10.2621283737
 30
0.0
  0
SPLINE
  5
51D
100
AcDbEntity
  8
0
100
AcDbSpline
 62
7
  6
CONTINUOUS
 70
0
 71
3
 72
28
 73
24
 74
0
 42
0.0000001
 43
0.0000001
 44
0.0000000001
 40
0.0
 40
0.0
 40
0.0
 40
0.0
 40
0.0076685541
 40
0.0156468576
 40
0.0243825886
 40
0.0342186307
 40
0.0453953786
 40
0.0580757267
 40
0.0723699272
 40
0.088351784
 40
0.106068864
 40
0.1255529458
 40
0.146825289
 40
0.1698998267
 40
0.2214822236
 40
0.2803109705
 40
0.3463322315
 40
0.4194689965
 40
0.4996140013
 40
0.5866243779
 40
0.6803484656
 40
0.7806191573
 40
1.0
 40
1.0
 40
1.0
 40
1.0
 10
11.3546768174
 20
10.2621283737
 30
0.0
 10
11.3547038017
 20
10.2624007331
 30
0.0
 10
11.3546858624
 20
10.2629664525
 30
0.0
 10
11.3544337073
 20
10.2638078822
 30
0.0
 10
11.3539651265
 20
10.2646387677
 30
0.0
 10
11.3532863601
 20
10.2654606295
 30
0.0
 10
11.3523994016
 20
10.2662768449
 30
0.0
 10
11.351304292
 20
10.267089286
 30
0.0
 10
11.3500006589
 20
10.2678987312
 30
0.0
 10
11.3484884495
 20
10.2687053053
 30
0.0
 10
11.3467680602
 20
10.2695089486
 30
0.0
 10
11.3448401099
 20
10.2703093067
 30
0.0
 10
11.3427053727
 20
10.2711060333
 30
0.0
 10
11.3394620123
 20
10.272204048
 30
0.0
 10
11.3348895075
 20
10.2735484448
 30
0.0
 10
11.3287825783
 20
10.2750880659
 30
0.0
 10
11.3218800508
 20
10.2766044656
 30
0.0
 10
11.3141954292
 20
10.2780938924
 30
0.0
 10
11.3057438104
 20
10.2795527462
 30
0.0
 10
11.2965422997
 20
10.2809780972
 30
0.0
 10
11.2866094072
 20
10.2823666954
 30
0.0
 10
11.2719725828
 20
10.2842208341
 30
0.0
 10
11.2606303737
 20
10.2854583856
 30
0.0
 10
11.2528399152
 20
10.2862419744
 30
0.0
  0
LINE
  5
51E
100
AcDbEntity
  8
0
100
AcDbLine
 62
7
  6
CONTINUOUS
 10
11.2528399152
 20
10.2862419744
 11
11.2510721409
 21
10.2864186266
  0
LINE
  5
51F
100
AcDbEntity
  8
0
100
AcDbLine
 62
7
  6
CONTINUOUS
 10
11.2510721409
 20
10.2864186266
 11
11.2505502364
 21
10.2864703423
  0
LINE
  5
520
100
AcDbEntity
  8
0
100
AcDbLine
 62
7
  6
CONTINUOUS
 10
11.2505502364
 20
10.2864703423
 11
11.2482272098
 21
10.2866981572
  0
SPLINE
  5
521
100
AcDbEntity
  8
0
100
AcDbSpline
 62
7
  6
CONTINUOUS
 70
0
 71
3
 72
15
 73
11
 74
0
 42
0.0000001
 43
0.0000001
 44
0.0000000001
 40
0.0
 40
0.0
 40
0.0
 40
0.0
 40
0.1038449652
 40
0.2159353412
 40
0.3352477646
 40
0.4606887718
 40
0.5911005639
 40
0.7252780511
 40
0.8620252674
 40
1.0
 40
1.0
 40
1.0
 40
1.0
 10
11.2285205486
 20
10.2884877044
 30
0.0
 10
11.2184806027
 20
10.2893392922
 30
0.0
 10
11.1975884657
 20
10.2909347649
 30
0.0
 10
11.1651226518
 20
10.2929711755
 30
0.0
 10
11.1305422588
 20
10.2947286413
 30
0.0
 10
11.0941690059
 20
10.2961902754
 30
0.0
 10
11.0563416392
 20
10.2973419406
 30
0.0
 10
11.0174086112
 20
10.2981725972
 30
0.0
 10
10.9777361208
 20
10.2986739272
 30
0.0
 10
10.9510799248
 20
10.2987856968
 30
0.0
 10
10.9376923427
 20
10.2987856968
 30
0.0
  0
SPLINE
  5
522
100
AcDbEntity
  8
0
100
AcDbSpline
 62
7
  6
CONTINUOUS
 70
0
 71
3
 72
35
 73
31
 74
0
 42
0.0000001
 43
0.0000001
 44
0.0000000001
 40
0.0
 40
0.0
 40
0.0
 40
0.0
 40
0.0021331139
 40
0.0044251101
 40
0.0070049511
 40
0.0099634974
 40
0.0133607513
 40
0.0172358579
 40
0.0216146494
 40
0.0265135603
 40
0.0319425847
 40
0.0379080251
 40
0.051460493
 40
0.0671850093
 40
0.0850697659
 40
0.105087065
 40
0.1272036542
 40
0.1513766036
 40
0.1775519721
 40
0.2056736195
 40
0.235680333
 40
0.3010613602
 40
0.373093097
 40
0.4510940658
 40
0.5343294405
 40
0.6220127547
 40
0.7132996694
 40
0.8073253607
 40
0.9032238791
 40
1.0
 40
1.0
 40
1.0
 40
1.0
 10
10.6576925688
 20
9.5371466524
 30
0.0
 10
10.657692558
 20
9.5369450476
 30
0.0
 10
10.6577541658
 20
9.5365248656
 30
0.0
 10
10.6580223259
 20
9.5359129107
 30
0.0
 10
10.658458893
 20
9.5353099745
 30
0.0
 10
10.6590603599
 20
9.5347132661
 30
0.0
 10
10.6598263097
 20
9.5341201329
 30
0.0
 10
10.6607571472
 20
9.5335295283
 30
0.0
 10
10.6618531857
 20
9.53294121
 30
0.0
 10
10.6631142797
 20
9.532355265
 30
0.0
 10
10.6645398905
 20
9.5317718395
 30
0.0
 10
10.6667551184
 20
9.5309630864
 30
0.0
 10
10.6699382708
 20
9.5299758215
 30
0.0
 10
10.6742521753
 20
9.5288501868
 30
0.0
 10
10.6791988318
 20
9.5277423275
 30
0.0
 10
10.6847666874
 20
9.5266549933
 30
0.0
 10
10.69094304
 20
9.5255916176
 30
0.0
 10
10.6977132784
 20
9.5245550668
 30
0.0
 10
10.7050611714
 20
9.5235478019
 30
0.0
 10
10.7129691854
 20
9.5225725234
 30
0.0
 10
10.7245708809
 20
9.5212812007
 30
0.0
 10
10.7403239233
 20
9.5197822299
 30
0.0
 10
10.7606216679
 20
9.5181924952
 30
0.0
 10
10.7826236857
 20
9.5167806352
 30
0.0
 10
10.8061184579
 20
9.5155611098
 30
0.0
 10
10.8308796936
 20
9.5145464475
 30
0.0
 10
10.8566690631
 20
9.513746373
 30
0.0
 10
10.8832409816
 20
9.5131691545
 30
0.0
 10
10.9103356827
 20
9.5128207887
 30
0.0
 10
10.9285458403
 20
9.5127430445
 30
0.0
 10
10.9376923427
 20
9.5127430445
 30
0.0
  0
LINE
  5
523
100
AcDbEntity
  8
0
100
AcDbLine
 62
7
  6
CONTINUOUS
 10
6.988167997
 20
7.9524186738
 11
6.9895977508
 21
7.9424150037
  0
LINE
  5
524
100
AcDbEntity
  8
0
100
AcDbLine
 62
7
  6
CONTINUOUS
 10
6.8857869766
 20
7.9424148056
 11
6.8872166885
 21
7.9524201091
  0
LINE
  5
525
100
AcDbEntity
  8
0
100
AcDbLine
 62
7
  6
CONTINUOUS
 10
14.8857869766
 20
7.9424148056
 11
14.8872166885
 21
7.9524201091
  0
LINE
  5
526
100
AcDbEntity
  8
0
100
AcDbLine
 62
7
  6
CONTINUOUS
 10
14.988167997
 20
7.9524186738
 11
14.9895977508
 21
7.9424150037
  0
SPLINE
  5
527
100
AcDbEntity
  8
0
100
AcDbSpline
 62
7
  6
CONTINUOUS
 70
0
 71
3
 72
29
 73
25
 74
0
 42
0.0000001
 43
0.0000001
 44
0.0000000001
 40
0.0
 40
0.0
 40
0.0
 40
0.0
 40
0.0699609748
 40
0.1378565438
 40
0.2034998419
 40
0.266778229
 40
0.3277080758
 40
0.3573640579
 40
0.3865362043
 40
0.4152931621
 40
0.443720459
 40
0.4719185631
 40
0.499999125
 40
0.5280796862
 40
0.5562777965
 40
0.5847051059
 40
0.6134620746
 40
0.6426342359
 40
0.6722902364
 40
0.7332201234
 40
0.7964985441
 40
0.8621419183
 40
0.930037439
 40
1.0
 40
1.0
 40
1.0
 40
1.0
 10
14.5586611396
 20
6.942364164
 30
0.0
 10
14.5513810449
 20
6.9496232837
 30
0.0
 10
14.5367212156
 20
6.9636176362
 30
0.0
 10
14.5140227545
 20
6.9831116868
 30
0.0
 10
14.4908876571
 20
7.0005106458
 30
0.0
 10
14.4673101241
 20
7.0154869447
 30
0.0
 10
14.4471086254
 20
7.0257465616
 30
0.0
 10
14.4307780181
 20
7.032330604
 30
0.0
 10
14.4185577021
 20
7.0363986845
 30
0.0
 10
14.4062690782
 20
7.0396043877
 30
0.0
 10
14.3939262252
 20
7.0419172294
 30
0.0
 10
14.3815459366
 20
7.0433146328
 30
0.0
 10
14.3691464365
 20
7.0437822118
 30
0.0
 10
14.3567469367
 20
7.0433145984
 30
0.0
 10
14.3443666493
 20
7.0419171607
 30
0.0
 10
14.3320237981
 20
7.0396042864
 30
0.0
 10
14.3197351768
 20
7.0363985503
 30
0.0
 10
14.3075148648
 20
7.0323304385
 30
0.0
 10
14.2911842599
 20
7.0257463592
 30
0.0
 10
14.2709827836
 20
7.0154866784
 30
0.0
 10
14.2474051995
 20
7.0005103995
 30
0.0
 10
14.2242702984
 20
6.9831111994
 30
0.0
 10
14.201571124
 20
6.9636175662
 30
0.0
 10
14.1869123487
 20
6.949621775
 30
0.0
 10
14.1796320909
 20
6.9423624887
 30
0.0
  0
SPLINE
  5
528
100
AcDbEntity
  8
0
100
AcDbSpline
 62
7
  6
CONTINUOUS
 70
0
 71
3
 72
29
 73
25
 74
0
 42
0.0000001
 43
0.0000001
 44
0.0000000001
 40
0.0
 40
0.0
 40
0.0
 40
0.0
 40
0.069961591
 40
0.137857213
 40
0.2035006061
 40
0.2667790725
 40
0.3277090014
 40
0.3573650235
 40
0.3865372093
 40
0.4152942052
 40
0.4437215386
 40
0.4719196775
 40
0.500000272
 40
0.5280808636
 40
0.556279002
 40
0.5847063372
 40
0.6134633296
 40
0.6426355128
 40
0.6722915338
 40
0.7332214578
 40
0.7964999242
 40
0.8621432988
 40
0.9300389443
 40
1.0
 40
1.0
 40
1.0
 40
1.0
 10
15.6957524105
 20
6.942363704
 30
0.0
 10
15.6884722697
 20
6.9496228736
 30
0.0
 10
15.6738128139
 20
6.9636176978
 30
0.0
 10
15.6511141314
 20
6.9831115785
 30
0.0
 10
15.6279791244
 20
7.0005105951
 30
0.0
 10
15.6044015985
 20
7.0154868671
 30
0.0
 10
15.5842001291
 20
7.0257464933
 30
0.0
 10
15.5678695403
 20
7.0323305419
 30
0.0
 10
15.5556492388
 20
7.0363986304
 30
0.0
 10
15.5433606291
 20
7.0396043435
 30
0.0
 10
15.5310177903
 20
7.0419171976
 30
0.0
 10
15.5186375156
 20
7.0433146156
 30
0.0
 10
15.5062380291
 20
7.0437822115
 30
0.0
 10
15.4938385426
 20
7.0433146169
 30
0.0
 10
15.4814582681
 20
7.0419172
 30
0.0
 10
15.4691154292
 20
7.039604348
 30
0.0
 10
15.45682682
 20
7.0363986353
 30
0.0
 10
15.4446065189
 20
7.0323305491
 30
0.0
 10
15.4282759313
 20
7.0257465015
 30
0.0
 10
15.408074457
 20
7.0154868836
 30
0.0
 10
15.384496952
 20
7.0005105918
 30
0.0
 10
15.3613618818
 20
6.9831116461
 30
0.0
 10
15.338663446
 20
6.9636176146
 30
0.0
 10
15.324003633
 20
6.9496232762
 30
0.0
 10
15.316723546
 20
6.9423641641
 30
0.0
  0
SPLINE
  5
529
100
AcDbEntity
  8
0
100
AcDbSpline
 62
7
  6
CONTINUOUS
 70
0
 71
3
 72
21
 73
17
 74
0
 42
0.0000001
 43
0.0000001
 44
0.0000000001
 40
0.0
 40
0.0
 40
0.0
 40
0.0
 40
0.0625086279
 40
0.1250165307
 40
0.249986852
 40
0.3124916656
 40
0.3749953383
 40
0.4374979807
 40
0.5000000067
 40
0.5625020297
 40
0.6250046714
 40
0.6875083423
 40
0.7500131535
 40
0.874983471
 40
0.9374913715
 40
1.0
 40
1.0
 40
1.0
 40
1.0
 10
15.3167216946
 20
6.9423641641
 30
0.0
 10
15.3019588128
 20
6.9497243459
 30
0.0
 10
15.2721676019
 20
6.9639242021
 30
0.0
 10
15.2115234699
 20
6.9899173321
 30
0.0
 10
15.1491005399
 20
7.0117058948
 30
0.0
 10
15.0851058701
 20
7.0278774022
 30
0.0
 10
15.0364036224
 20
7.0368564132
 30
0.0
 10
14.9871864762
 20
7.0423820533
 30
0.0
 10
14.9376923383
 20
7.0442488159
 30
0.0
 10
14.8881982006
 20
7.0423820525
 30
0.0
 10
14.838981056
 20
7.036856412
 30
0.0
 10
14.7902788096
 20
7.027877401
 30
0.0
 10
14.7262841419
 20
7.0117058935
 30
0.0
 10
14.6638612143
 20
6.9899173311
 30
0.0
 10
14.6032170831
 20
6.9639242027
 30
0.0
 10
14.5734258731
 20
6.9497243459
 30
0.0
 10
14.5586629911
 20
6.942364164
 30
0.0
  0
SPLINE
  5
52A
100
AcDbEntity
  8
0
100
AcDbSpline
 62
7
  6
CONTINUOUS
 70
0
 71
3
 72
29
 73
25
 74
0
 42
0.0000001
 43
0.0000001
 44
0.0000000001
 40
0.0
 40
0.0
 40
0.0
 40
0.0
 40
0.0699609748
 40
0.1378565438
 40
0.2034998419
 40
0.266778229
 40
0.3277080758
 40
0.3573640579
 40
0.3865362043
 40
0.4152931621
 40
0.443720459
 40
0.4719185631
 40
0.499999125
 40
0.5280796862
 40
0.5562777965
 40
0.5847051059
 40
0.6134620746
 40
0.6426342359
 40
0.6722902364
 40
0.7332201234
 40
0.7964985441
 40
0.8621419183
 40
0.930037439
 40
1.0
 40
1.0
 40
1.0
 40
1.0
 10
6.5586611396
 20
6.942364164
 30
0.0
 10
6.5513810449
 20
6.9496232837
 30
0.0
 10
6.5367212156
 20
6.9636176362
 30
0.0
 10
6.5140227545
 20
6.9831116868
 30
0.0
 10
6.4908876571
 20
7.0005106458
 30
0.0
 10
6.4673101241
 20
7.0154869447
 30
0.0
 10
6.4471086254
 20
7.0257465616
 30
0.0
 10
6.4307780181
 20
7.032330604
 30
0.0
 10
6.4185577021
 20
7.0363986845
 30
0.0
 10
6.4062690782
 20
7.0396043877
 30
0.0
 10
6.3939262252
 20
7.0419172294
 30
0.0
 10
6.3815459366
 20
7.0433146328
 30
0.0
 10
6.3691464365
 20
7.0437822118
 30
0.0
 10
6.3567469367
 20
7.0433145984
 30
0.0
 10
6.3443666493
 20
7.0419171607
 30
0.0
 10
6.3320237981
 20
7.0396042864
 30
0.0
 10
6.3197351768
 20
7.0363985503
 30
0.0
 10
6.3075148648
 20
7.0323304385
 30
0.0
 10
6.2911842599
 20
7.0257463592
 30
0.0
 10
6.2709827836
 20
7.0154866784
 30
0.0
 10
6.2474051995
 20
7.0005103995
 30
0.0
 10
6.2242702984
 20
6.9831111994
 30
0.0
 10
6.201571124
 20
6.9636175662
 30
0.0
 10
6.1869123487
 20
6.949621775
 30
0.0
 10
6.1796320909
 20
6.9423624887
 30
0.0
  0
SPLINE
  5
52B
100
AcDbEntity
  8
0
100
AcDbSpline
 62
7
  6
CONTINUOUS
 70
0
 71
3
 72
29
 73
25
 74
0
 42
0.0000001
 43
0.0000001
 44
0.0000000001
 40
0.0
 40
0.0
 40
0.0
 40
0.0
 40
0.069961591
 40
0.137857213
 40
0.2035006061
 40
0.2667790725
 40
0.3277090014
 40
0.3573650235
 40
0.3865372093
 40
0.4152942052
 40
0.4437215386
 40
0.4719196775
 40
0.500000272
 40
0.5280808636
 40
0.556279002
 40
0.5847063372
 40
0.6134633296
 40
0.6426355128
 40
0.6722915338
 40
0.7332214578
 40
0.7964999242
 40
0.8621432988
 40
0.9300389443
 40
1.0
 40
1.0
 40
1.0
 40
1.0
 10
7.6957524105
 20
6.942363704
 30
0.0
 10
7.6884722697
 20
6.9496228736
 30
0.0
 10
7.6738128139
 20
6.9636176978
 30
0.0
 10
7.6511141314
 20
6.9831115785
 30
0.0
 10
7.6279791244
 20
7.0005105951
 30
0.0
 10
7.6044015985
 20
7.0154868671
 30
0.0
 10
7.5842001291
 20
7.0257464933
 30
0.0
 10
7.5678695403
 20
7.0323305419
 30
0.0
 10
7.5556492388
 20
7.0363986304
 30
0.0
 10
7.5433606291
 20
7.0396043435
 30
0.0
 10
7.5310177903
 20
7.0419171976
 30
0.0
 10
7.5186375156
 20
7.0433146156
 30
0.0
 10
7.5062380291
 20
7.0437822115
 30
0.0
 10
7.4938385426
 20
7.0433146169
 30
0.0
 10
7.4814582681
 20
7.0419172
 30
0.0
 10
7.4691154292
 20
7.039604348
 30
0.0
 10
7.45682682
 20
7.0363986353
 30
0.0
 10
7.4446065189
 20
7.0323305491
 30
0.0
 10
7.4282759313
 20
7.0257465015
 30
0.0
 10
7.408074457
 20
7.0154868836
 30
0.0
 10
7.384496952
 20
7.0005105918
 30
0.0
 10
7.3613618818
 20
6.9831116461
 30
0.0
 10
7.338663446
 20
6.9636176146
 30
0.0
 10
7.324003633
 20
6.9496232762
 30
0.0
 10
7.316723546
 20
6.9423641641
 30
0.0
  0
SPLINE
  5
52C
100
AcDbEntity
  8
0
100
AcDbSpline
 62
7
  6
CONTINUOUS
 70
0
 71
3
 72
21
 73
17
 74
0
 42
0.0000001
 43
0.0000001
 44
0.0000000001
 40
0.0
 40
0.0
 40
0.0
 40
0.0
 40
0.0625086279
 40
0.1250165307
 40
0.249986852
 40
0.3124916656
 40
0.3749953383
 40
0.4374979807
 40
0.5000000067
 40
0.5625020297
 40
0.6250046714
 40
0.6875083423
 40
0.7500131535
 40
0.874983471
 40
0.9374913715
 40
1.0
 40
1.0
 40
1.0
 40
1.0
 10
7.3167216946
 20
6.9423641641
 30
0.0
 10
7.3019588128
 20
6.9497243459
 30
0.0
 10
7.2721676019
 20
6.9639242021
 30
0.0
 10
7.2115234699
 20
6.9899173321
 30
0.0
 10
7.1491005399
 20
7.0117058948
 30
0.0
 10
7.0851058701
 20
7.0278774022
 30
0.0
 10
7.0364036224
 20
7.0368564132
 30
0.0
 10
6.9871864762
 20
7.0423820533
 30
0.0
 10
6.9376923383
 20
7.0442488159
 30
0.0
 10
6.8881982006
 20
7.0423820525
 30
0.0
 10
6.838981056
 20
7.036856412
 30
0.0
 10
6.7902788096
 20
7.027877401
 30
0.0
 10
6.7262841419
 20
7.0117058935
 30
0.0
 10
6.6638612143
 20
6.9899173311
 30
0.0
 10
6.6032170831
 20
6.9639242027
 30
0.0
 10
6.5734258731
 20
6.9497243459
 30
0.0
 10
6.5586629911
 20
6.942364164
 30
0.0
  0
SPLINE
  5
52D
100
AcDbEntity
  8
0
100
AcDbSpline
 62
7
  6
CONTINUOUS
 70
0
 71
3
 72
11
 73
7
 74
0
 42
0.0000001
 43
0.0000001
 44
0.0000000001
 40
0.0
 40
0.0
 40
0.0
 40
0.0
 40
0.3774270665
 40
0.6970664943
 40
0.9189039256
 40
1.0
 40
1.0
 40
1.0
 40
1.0
 10
15.2794847239
 20
8.1348350998
 30
0.0
 10
15.28000922
 20
8.1250848624
 30
0.0
 10
15.2815886761
 20
8.1071045146
 30
0.0
 10
15.2850620615
 20
8.0835768434
 30
0.0
 10
15.288092963
 20
8.0677549074
 30
0.0
 10
15.2897395624
 20
8.0600924895
 30
0.0
 10
15.2901923427
 20
8.0580439453
 30
0.0
  0
SPLINE
  5
52E
100
AcDbEntity
  8
0
100
AcDbSpline
 62
7
  6
CONTINUOUS
 70
0
 71
3
 72
15
 73
11
 74
0
 42
0.0000001
 43
0.0000001
 44
0.0000000001
 40
0.0
 40
0.0
 40
0.0
 40
0.0
 40
0.2141933758
 40
0.4084984964
 40
0.5798925798
 40
0.7256379937
 40
0.8431797344
 40
0.9296927244
 40
0.9823621991
 40
1.0
 40
1.0
 40
1.0
 40
1.0
 10
6.5912656298
 20
8.2256974811
 30
0.0
 10
6.5909089206
 20
8.2280204796
 30
0.0
 10
6.590196389
 20
8.2324459006
 30
0.0
 10
6.5890992697
 20
8.2387136151
 30
0.0
 10
6.5880627962
 20
8.2442290083
 30
0.0
 10
6.587131095
 20
8.2489067064
 30
0.0
 10
6.5863536094
 20
8.2526653257
 30
0.0
 10
6.5857676601
 20
8.2554206127
 30
0.0
 10
6.5854021473
 20
8.2571020558
 30
0.0
 10
6.5852346356
 20
8.2578550928
 30
0.0
 10
6.5851923427
 20
8.2580439453
 30
0.0
  0
SPLINE
  5
52F
100
AcDbEntity
  8
0
100
AcDbSpline
 62
7
  6
CONTINUOUS
 70
0
 71
3
 72
15
 73
11
 74
0
 42
0.0000001
 43
0.0000001
 44
0.0000000001
 40
0.0
 40
0.0
 40
0.0
 40
0.0
 40
0.0211179845
 40
0.0823676202
 40
0.1793761286
 40
0.3063173497
 40
0.4569794469
 40
0.6259895483
 40
0.8085985175
 40
1.0
 40
1.0
 40
1.0
 40
1.0
 10
6.5851923427
 20
8.0580439453
 30
0.0
 10
6.5853174058
 20
8.0586139313
 30
0.0
 10
6.5858032068
 20
8.0608375275
 30
0.0
 10
6.5868395779
 20
8.0656846863
 30
0.0
 10
6.5883799005
 20
8.0734139053
 30
0.0
 10
6.5902181754
 20
8.0836016507
 30
0.0
 10
6.5921281788
 20
8.0957954888
 30
0.0
 10
6.5938869303
 20
8.1095652137
 30
0.0
 10
6.5953103108
 20
8.1245053457
 30
0.0
 10
6.5959319598
 20
8.1348242805
 30
0.0
 10
6.5961520734
 20
8.1401086407
 30
0.0
  0
LINE
  5
530
100
AcDbEntity
  8
0
100
AcDbLine
 62
7
  6
CONTINUOUS
 10
6.5961520734
 20
8.1401086407
 11
6.5972445346
 21
8.1469307348
  0
SPLINE
  5
531
100
AcDbEntity
  8
0
100
AcDbSpline
 62
7
  6
CONTINUOUS
 70
0
 71
3
 72
11
 73
7
 74
0
 42
0.0000001
 43
0.0000001
 44
0.0000000001
 40
0.0
 40
0.0
 40
0.0
 40
0.0
 40
0.2276132357
 40
0.4756200435
 40
0.7361630701
 40
1.0
 40
1.0
 40
1.0
 40
1.0
 10
6.593132344
 20
8.2122692724
 30
0.0
 10
6.5939031113
 20
8.2073553187
 30
0.0
 10
6.5953005742
 20
8.1970527291
 30
0.0
 10
6.5967897296
 20
8.1810286189
 30
0.0
 10
6.597507601
 20
8.1641579871
 30
0.0
 10
6.5974316473
 20
8.1526933296
 30
0.0
 10
6.5972445346
 20
8.1469307348
 30
0.0
  0
SPLINE
  5
532
100
AcDbEntity
  8
0
100
AcDbSpline
 62
9
  6
CONTINUOUS
 70
0
 71
3
 72
9
 73
5
 74
0
 42
0.0000001
 43
0.0000001
 44
0.0000000001
 40
0.0
 40
0.0
 40
0.0
 40
0.0
 40
0.4984314405
 40
1.0
 40
1.0
 40
1.0
 40
1.0
 10
16.6128517159
 20
10.1560779284
 30
0.0
 10
16.6075124754
 20
10.1560662635
 30
0.0
 10
16.5967973063
 20
10.1556079483
 30
0.0
 10
16.5861515647
 20
10.1543201061
 30
0.0
 10
16.5808446225
 20
10.1534810757
 30
0.0
  0
SPLINE
  5
533
100
AcDbEntity
  8
0
100
AcDbSpline
 62
9
  6
CONTINUOUS
 70
0
 71
3
 72
23
 73
19
 74
0
 42
0.0000001
 43
0.0000001
 44
0.0000000001
 40
0.0
 40
0.0
 40
0.0
 40
0.0
 40
0.0515509633
 40
0.1046316765
 40
0.159603447
 40
0.2166453794
 40
0.2757922673
 40
0.3369532256
 40
0.3999403331
 40
0.4645003205
 40
0.5303411111
 40
0.5971457786
 40
0.6645759761
 40
0.7322874034
 40
0.7999712912
 40
0.8673339677
 40
0.9340888815
 40
1.0
 40
1.0
 40
1.0
 40
1.0
 10
16.5808446225
 20
10.1534810757
 30
0.0
 10
16.5720034861
 20
10.1520832873
 30
0.0
 10
16.5542182212
 20
10.1481518655
 30
0.0
 10
16.5279120089
 20
10.1393041194
 30
0.0
 10
16.501651456
 20
10.1277262878
 30
0.0
 10
16.4754266896
 20
10.1136949316
 30
0.0
 10
16.4492281605
 20
10.0974804145
 30
0.0
 10
16.4230466147
 20
10.0793663595
 30
0.0
 10
16.3968738727
 20
10.0596420045
 30
0.0
 10
16.370704335
 20
10.0385955924
 30
0.0
 10
16.3445358264
 20
10.0165085579
 30
0.0
 10
16.3183687012
 20
9.9936567875
 30
0.0
 10
16.2922015441
 20
9.9703153581
 30
0.0
 10
16.2660254531
 20
9.9467555682
 30
0.0
 10
16.2398468055
 20
9.9232161187
 30
0.0
 10
16.2136685119
 20
9.8999248718
 30
0.0
 10
16.1874812084
 20
9.8771089591
 30
0.0
 10
16.1698882377
 20
9.862237169
 30
0.0
 10
16.1610784813
 20
9.8549322886
 30
0.0
  0
SPLINE
  5
534
100
AcDbEntity
  8
0
100
AcDbSpline
 62
9
  6
CONTINUOUS
 70
0
 71
3
 72
9
 73
5
 74
0
 42
0.0000001
 43
0.0000001
 44
0.0000000001
 40
0.0
 40
0.0
 40
0.0
 40
0.0
 40
0.2527376111
 40
1.0
 40
1.0
 40
1.0
 40
1.0
 10
16.1610784813
 20
9.8549322886
 30
0.0
 10
16.1574970065
 20
9.8519625987
 30
0.0
 10
16.1432807785
 20
9.8402676919
 30
0.0
 10
16.1288666776
 20
9.8288117634
 30
0.0
 10
16.1179582207
 20
9.8204312388
 30
0.0
  0
SPLINE
  5
535
100
AcDbEntity
  8
0
100
AcDbSpline
 62
9
  6
CONTINUOUS
 70
0
 71
3
 72
24
 73
20
 74
0
 42
0.0000001
 43
0.0000001
 44
0.0000000001
 40
0.0
 40
0.0
 40
0.0
 40
0.0
 40
0.0204251364
 40
0.0410687605
 40
0.0836808619
 40
0.1291859045
 40
0.1785588989
 40
0.2324989431
 40
0.2911543761
 40
0.3541765739
 40
0.4210028214
 40
0.49095719
 40
0.5633144078
 40
0.6373278994
 40
0.7121311616
 40
0.7867659418
 40
0.8602533957
 40
0.931631846
 40
1.0
 40
1.0
 40
1.0
 40
1.0
 10
16.8003914524
 20
10.0367657305
 30
0.0
 10
16.8012645696
 20
10.0375035115
 30
0.0
 10
16.8029308823
 20
10.0390964955
 30
0.0
 10
16.8059112376
 20
10.0427207349
 30
0.0
 10
16.8089235365
 20
10.0480730941
 30
0.0
 10
16.8112392813
 20
10.0554599063
 30
0.0
 10
16.8122587193
 20
10.0637670671
 30
0.0
 10
16.8119169961
 20
10.0728569868
 30
0.0
 10
16.8102717889
 20
10.0825694293
 30
0.0
 10
16.8073997986
 20
10.0927386016
 30
0.0
 10
16.8033640235
 20
10.1031825215
 30
0.0
 10
16.7982297146
 20
10.1137151694
 30
0.0
 10
16.7920633413
 20
10.1241487523
 30
0.0
 10
16.7849322284
 20
10.1342812484
 30
0.0
 10
16.7769889094
 20
10.1439540059
 30
0.0
 10
16.7683964093
 20
10.1530138777
 30
0.0
 10
16.7593159051
 20
10.161304032
 30
0.0
 10
16.7499105255
 20
10.1686675982
 30
0.0
 10
16.743361734
 20
10.1729661581
 30
0.0
 10
16.7400632866
 20
10.1749052711
 30
0.0
  0
SPLINE
  5
536
100
AcDbEntity
  8
0
100
AcDbSpline
 62
7
  6
CONTINUOUS
 70
0
 71
3
 72
16
 73
12
 74
0
 42
0.0000001
 43
0.0000001
 44
0.0000000001
 40
0.0
 40
0.0
 40
0.0
 40
0.0
 40
0.0625704937
 40
0.1254477655
 40
0.2517070765
 40
0.3781446629
 40
0.5043026817
 40
0.6298208782
 40
0.7544171992
 40
0.8778659527
 40
1.0
 40
1.0
 40
1.0
 40
1.0
 10
16.3209743401
 20
9.8734387977
 30
0.0
 10
16.3167029538
 20
9.8709977438
 30
0.0
 10
16.3081818193
 20
9.8660290494
 30
0.0
 10
16.2912047878
 20
9.8558570674
 30
0.0
 10
16.2700721909
 20
9.8428531616
 30
0.0
 10
16.2447767141
 20
9.8271223127
 30
0.0
 10
16.2194732085
 20
9.8115143826
 30
0.0
 10
16.1941421833
 20
9.7962286412
 30
0.0
 10
16.1687748482
 20
9.7814199347
 30
0.0
 10
16.1433547328
 20
9.7672390394
 30
0.0
 10
16.126264691
 20
9.7582453494
 30
0.0
 10
16.1177036272
 20
9.7538950101
 30
0.0
  0
SPLINE
  5
537
100
AcDbEntity
  8
0
100
AcDbSpline
 62
9
  6
CONTINUOUS
 70
0
 71
3
 72
10
 73
6
 74
0
 42
0.0000001
 43
0.0000001
 44
0.0000000001
 40
0.0
 40
0.0
 40
0.0
 40
0.0
 40
0.2387135686
 40
0.6107297844
 40
1.0
 40
1.0
 40
1.0
 40
1.0
 10
18.2203184174
 20
9.5907624323
 30
0.0
 10
18.2153194349
 20
9.5939501325
 30
0.0
 10
18.2027211362
 20
9.6024084569
 30
0.0
 10
18.1828805206
 20
9.6173750624
 30
0.0
 10
18.1684486749
 20
9.6296060683
 30
0.0
 10
18.1612224727
 20
9.6360291216
 30
0.0
  0
SPLINE
  5
538
100
AcDbEntity
  8
0
100
AcDbSpline
 62
9
  6
CONTINUOUS
 70
0
 71
3
 72
9
 73
5
 74
0
 42
0.0000001
 43
0.0000001
 44
0.0000000001
 40
0.0
 40
0.0
 40
0.0
 40
0.0
 40
0.4953187724
 40
1.0
 40
1.0
 40
1.0
 40
1.0
 10
18.0301822606
 20
9.781097102
 30
0.0
 10
18.0177593667
 20
9.7969858807
 30
0.0
 10
17.9930811234
 20
9.8293783914
 30
0.0
 10
17.9688586603
 20
9.8621093253
 30
0.0
 10
17.956665727
 20
9.8786513072
 30
0.0
  0
SPLINE
  5
539
100
AcDbEntity
  8
0
100
AcDbSpline
 62
9
  6
CONTINUOUS
 70
0
 71
3
 72
11
 73
7
 74
0
 42
0.0000001
 43
0.0000001
 44
0.0000000001
 40
0.0
 40
0.0
 40
0.0
 40
0.0
 40
0.2602279853
 40
0.5140746096
 40
0.7608670599
 40
1.0
 40
1.0
 40
1.0
 40
1.0
 10
17.8348040594
 20
10.0392604942
 30
0.0
 10
17.8287664695
 20
10.0466502254
 30
0.0
 10
17.8167126063
 20
10.0611457155
 30
0.0
 10
17.7984247763
 20
10.0822207811
 30
0.0
 10
17.7801370748
 20
10.1022613702
 30
0.0
 10
17.7677400274
 20
10.1150660028
 30
0.0
 10
17.7615300019
 20
10.1212572198
 30
0.0
  0
SPLINE
  5
53A
100
AcDbEntity
  8
0
100
AcDbSpline
 62
9
  6
CONTINUOUS
 70
0
 71
3
 72
9
 73
5
 74
0
 42
0.0000001
 43
0.0000001
 44
0.0000000001
 40
0.0
 40
0.0
 40
0.0
 40
0.0
 40
0.503498097
 40
1.0
 40
1.0
 40
1.0
 40
1.0
 10
17.6034938169
 20
10.2223528368
 30
0.0
 10
17.5963503612
 20
10.2240567766
 30
0.0
 10
17.5819643549
 20
10.2266660386
 30
0.0
 10
17.5673694632
 20
10.2275865508
 30
0.0
 10
17.5601276892
 20
10.2276128632
 30
0.0
  0
SPLINE
  5
53B
100
AcDbEntity
  8
0
100
AcDbSpline
 62
9
  6
CONTINUOUS
 70
0
 71
3
 72
53
 73
49
 74
0
 42
0.0000001
 43
0.0000001
 44
0.0000000001
 40
0.0
 40
0.0
 40
0.0
 40
0.0
 40
0.009360913
 40
0.0188721873
 40
0.0286005744
 40
0.0386089552
 40
0.0596811627
 40
0.0708567664
 40
0.0825022388
 40
0.0946407064
 40
0.1072890631
 40
0.1204589327
 40
0.1341575098
 40
0.1483882757
 40
0.1631516024
 40
0.1942618969
 40
0.2105926061
 40
0.2274137983
 40
0.2624329544
 40
0.2991205667
 40
0.3372598697
 40
0.37662043
 40
0.4169314696
 40
0.4578919539
 40
0.4991962335
 40
0.5405366719
 40
0.5816071391
 40
0.6221060861
 40
0.6617357068
 40
0.7002039251
 40
0.7372275153
 40
0.7725554225
 40
0.8059960235
 40
0.8219573957
 40
0.8373880057
 40
0.8522725524
 40
0.8665986759
 40
0.8935419306
 40
0.9061734148
 40
0.9182644702
 40
0.9298385604
 40
0.9409258091
 40
0.9515640603
 40
0.9617999305
 40
0.9716897198
 40
0.9812999921
 40
0.9907077369
 40
1.0
 40
1.0
 40
1.0
 40
1.0
 10
18.4953116398
 20
10.223723607
 30
0.0
 10
18.4912875185
 20
10.2233210485
 30
0.0
 10
18.4832060245
 20
10.2221537189
 30
0.0
 10
18.4711580492
 20
10.2193498981
 30
0.0
 10
18.4591137067
 20
10.215481776
 30
0.0
 10
18.4427858387
 20
10.2087916377
 30
0.0
 10
18.4267142509
 20
10.1999873747
 30
0.0
 10
18.4110028807
 20
10.189357079
 30
0.0
 10
18.3989915077
 20
10.1801863237
 30
0.0
 10
18.3869849274
 20
10.1699994411
 30
0.0
 10
18.3749805353
 20
10.1588200309
 30
0.0
 10
18.362978021
 20
10.1466726189
 30
0.0
 10
18.3509766999
 20
10.1335813776
 30
0.0
 10
18.3389760365
 20
10.1195704877
 30
0.0
 10
18.3226906957
 20
10.0993408518
 30
0.0
 10
18.3067241783
 20
10.077707043
 30
0.0
 10
18.2909837237
 20
10.0548357822
 30
0.0
 10
18.2747715601
 20
10.0302451792
 30
0.0
 10
18.2545779236
 20
9.9977555376
 30
0.0
 10
18.2306527641
 20
9.9567656718
 30
0.0
 10
18.2067213883
 20
9.9136228766
 30
0.0
 10
18.1827956991
 20
9.86869683
 30
0.0
 10
18.1588727651
 20
9.8223940344
 30
0.0
 10
18.1349461028
 20
9.7751505669
 30
0.0
 10
18.1110179899
 20
9.7274101483
 30
0.0
 10
18.0870891757
 20
9.6796169699
 30
0.0
 10
18.0631606447
 20
9.6322128272
 30
0.0
 10
18.0392348853
 20
9.5856361727
 30
0.0
 10
18.0153132574
 20
9.5403239836
 30
0.0
 10
17.9913977919
 20
9.496712101
 30
0.0
 10
17.9674840701
 20
9.455228779
 30
0.0
 10
17.9435611318
 20
9.4162761949
 30
0.0
 10
17.9233280186
 20
9.3857574509
 30
0.0
 10
17.9070808871
 20
9.362938428
 30
0.0
 10
17.8950852912
 20
9.3469413034
 30
0.0
 10
17.883089427
 20
9.3318352351
 30
0.0
 10
17.867414268
 20
9.3133165034
 30
0.0
 10
17.8514481111
 20
9.2963235715
 30
0.0
 10
17.8350876336
 20
9.2811281518
 30
0.0
 10
17.8230785813
 20
9.2710329976
 30
0.0
 10
17.8110655768
 20
9.262012902
 30
0.0
 10
17.7990470864
 20
9.254087542
 30
0.0
 10
17.7870217287
 20
9.247277192
 30
0.0
 10
17.7749880279
 20
9.2416026353
 30
0.0
 10
17.7629449406
 20
9.2370856691
 30
0.0
 10
17.7508915944
 20
9.2337477845
 30
0.0
 10
17.7388295071
 20
9.2316144308
 30
0.0
 10
17.7307583567
 20
9.2309975356
 30
0.0
 10
17.7267452109
 20
9.2308914583
 30
0.0
  0
SPLINE
  5
53C
100
AcDbEntity
  8
0
100
AcDbSpline
 62
9
  6
CONTINUOUS
 70
0
 71
3
 72
36
 73
32
 74
0
 42
0.0000001
 43
0.0000001
 44
0.0000000001
 40
0.0
 40
0.0
 40
0.0
 40
0.0
 40
0.033829531
 40
0.0684623135
 40
0.1037778153
 40
0.1396493595
 40
0.1759457315
 40
0.2125342321
 40
0.2860949165
 40
0.3228251592
 40
0.3593609633
 40
0.4314163191
 40
0.4667565566
 40
0.5015246016
 40
0.5356395225
 40
0.5690356787
 40
0.601668025
 40
0.6334973883
 40
0.6644900403
 40
0.6946232653
 40
0.7239007378
 40
0.7523372502
 40
0.7799537922
 40
0.806778389
 40
0.8328490376
 40
0.8582249761
 40
0.9071559226
 40
0.9308770946
 40
0.9542016963
 40
0.9772151134
 40
1.0
 40
1.0
 40
1.0
 40
1.0
 10
16.7400632852
 20
10.1749052695
 30
0.0
 10
16.7337645071
 20
10.1680210112
 30
0.0
 10
16.7211936189
 20
10.1539271747
 30
0.0
 10
16.7025793364
 20
10.1321797901
 30
0.0
 10
16.6839645016
 20
10.1096971445
 30
0.0
 10
16.6653492019
 20
10.0866228841
 30
0.0
 10
16.6467332983
 20
10.063100029
 30
0.0
 10
16.6218638774
 20
10.0312702037
 30
0.0
 10
16.5970910929
 20
9.9992138545
 30
0.0
 10
16.5722527414
 20
9.9672266507
 30
0.0
 10
16.5475380572
 20
9.9356697083
 30
0.0
 10
16.5227471445
 20
9.9046586301
 30
0.0
 10
16.4977508552
 20
9.874445145
 30
0.0
 10
16.4791244945
 20
9.8525470428
 30
0.0
 10
16.4604953297
 20
9.8313597385
 30
0.0
 10
16.4418610052
 20
9.8109675665
 30
0.0
 10
16.4232265521
 20
9.7914373668
 30
0.0
 10
16.4045914878
 20
9.772834044
 30
0.0
 10
16.3859548076
 20
9.7552205829
 30
0.0
 10
16.3673097018
 20
9.7386570356
 30
0.0
 10
16.3486617164
 20
9.7231779283
 30
0.0
 10
16.3300117683
 20
9.7088113477
 30
0.0
 10
16.311359069
 20
9.6955849088
 30
0.0
 10
16.2927032752
 20
9.6835251593
 30
0.0
 10
16.2740370516
 20
9.6726597536
 30
0.0
 10
16.2494457416
 20
9.6599224458
 30
0.0
 10
16.2245008434
 20
9.6493304563
 30
0.0
 10
16.199339012
 20
9.6410664483
 30
0.0
 10
16.1806550352
 20
9.6360906584
 30
0.0
 10
16.16197226
 20
9.6322402865
 30
0.0
 10
16.1494679238
 20
9.630392521
 30
0.0
 10
16.1432276089
 20
9.629647568
 30
0.0
  0
SPLINE
  5
53D
100
AcDbEntity
  8
0
100
AcDbSpline
 62
9
  6
CONTINUOUS
 70
0
 71
3
 72
19
 73
15
 74
0
 42
0.0000001
 43
0.0000001
 44
0.0000000001
 40
0.0
 40
0.0
 40
0.0
 40
0.0
 40
0.1527998092
 40
0.2971229711
 40
0.4327475392
 40
0.5597348804
 40
0.6201348239
 40
0.6785889071
 40
0.7352401742
 40
0.7902863615
 40
0.8439837305
 40
0.8966206594
 40
0.9485129465
 40
1.0
 40
1.0
 40
1.0
 40
1.0
 10
18.5450485958
 20
9.4726126246
 30
0.0
 10
18.5376729082
 20
9.4641101834
 30
0.0
 10
18.5229715031
 20
9.4478821285
 30
0.0
 10
18.5003056336
 20
9.4254397275
 30
0.0
 10
18.4776254113
 20
9.4058001569
 30
0.0
 10
18.4583866598
 20
9.3917343671
 30
0.0
 10
18.4429761777
 20
9.3822073855
 30
0.0
 10
18.4316060664
 20
9.3760379318
 30
0.0
 10
18.4202295182
 20
9.3707560473
 30
0.0
 10
18.4088448619
 20
9.3663884213
 30
0.0
 10
18.3974552105
 20
9.3629447067
 30
0.0
 10
18.3860604731
 20
9.3604355492
 30
0.0
 10
18.3746624949
 20
9.3588710341
 30
0.0
 10
18.3670475414
 20
9.3584637684
 30
0.0
 10
18.3632550623
 20
9.3584213972
 30
0.0
  0
SPLINE
  5
53E
100
AcDbEntity
  8
0
100
AcDbSpline
 62
7
  6
CONTINUOUS
 70
0
 71
3
 72
17
 73
13
 74
0
 42
0.0000001
 43
0.0000001
 44
0.0000000001
 40
0.0
 40
0.0
 40
0.0
 40
0.0
 40
0.1211883383
 40
0.2439869403
 40
0.3682564752
 40
0.4937576867
 40
0.6201710721
 40
0.7470839304
 40
0.8105634838
 40
0.8739497694
 40
0.9371402056
 40
1.0
 40
1.0
 40
1.0
 40
1.0
 10
19.1928820952
 20
9.9057464594
 30
0.0
 10
19.1831756798
 20
9.90119866
 30
0.0
 10
19.163798976
 20
9.8916870749
 30
0.0
 10
19.135019945
 20
9.8764234182
 30
0.0
 10
19.1063315665
 20
9.8602024892
 30
0.0
 10
19.0777085601
 20
9.8432340111
 30
0.0
 10
19.0491229398
 20
9.8257521163
 30
0.0
 10
19.025321086
 20
9.8109649755
 30
0.0
 10
19.0062340528
 20
9.7991526437
 30
0.0
 10
18.9919004059
 20
9.7903698777
 30
0.0
 10
18.9775430704
 20
9.7817315485
 30
0.0
 10
18.9679161868
 20
9.7761068205
 30
0.0
 10
18.9630880609
 20
9.7733497186
 30
0.0
  0
SPLINE
  5
53F
100
AcDbEntity
  8
0
100
AcDbSpline
 62
9
  6
CONTINUOUS
 70
0
 71
3
 72
10
 73
6
 74
0
 42
0.0000001
 43
0.0000001
 44
0.0000000001
 40
0.0
 40
0.0
 40
0.0
 40
0.0
 40
0.4832636055
 40
0.7376531117
 40
1.0
 40
1.0
 40
1.0
 40
1.0
 10
17.8704942555
 20
9.5374819285
 30
0.0
 10
17.8586649081
 20
9.5479834434
 30
0.0
 10
17.841305088
 20
9.5648072182
 30
0.0
 10
17.8189083247
 20
9.5886786837
 30
0.0
 10
17.8076839065
 20
9.6013351636
 30
0.0
 10
17.8020633554
 20
9.6078273469
 30
0.0
  0
LINE
  5
540
100
AcDbEntity
  8
0
100
AcDbLine
 62
9
  6
CONTINUOUS
 10
17.678854328
 20
9.7696207004
 11
17.604230976
 21
9.8763272898
  0
SPLINE
  5
541
100
AcDbEntity
  8
0
100
AcDbSpline
 62
9
  6
CONTINUOUS
 70
0
 71
3
 72
11
 73
7
 74
0
 42
0.0000001
 43
0.0000001
 44
0.0000000001
 40
0.0
 40
0.0
 40
0.0
 40
0.0
 40
0.2623449487
 40
0.5167004976
 40
0.7626846193
 40
1.0
 40
1.0
 40
1.0
 40
1.0
 10
17.4810067033
 20
10.0380956248
 30
0.0
 10
17.4753547611
 20
10.0446170033
 30
0.0
 10
17.4640673815
 20
10.057327619
 30
0.0
 10
17.446884171
 20
10.0756128563
 30
0.0
 10
17.4297001503
 20
10.0927510171
 30
0.0
 10
17.4180295609
 20
10.1035540916
 30
0.0
 10
17.4121864397
 20
10.1087307874
 30
0.0
  0
SPLINE
  5
542
100
AcDbEntity
  8
0
100
AcDbSpline
 62
7
  6
CONTINUOUS
 70
0
 71
3
 72
15
 73
11
 74
0
 42
0.0000001
 43
0.0000001
 44
0.0000000001
 40
0.0
 40
0.0
 40
0.0
 40
0.0
 40
0.1064284465
 40
0.2170655979
 40
0.3326144883
 40
0.4536478216
 40
0.5806544127
 40
0.7141381773
 40
0.8541084294
 40
1.0
 40
1.0
 40
1.0
 40
1.0
 10
19.1928820952
 20
9.9057464594
 30
0.0
 10
19.1946361273
 20
9.9052532431
 30
0.0
 10
19.1981456405
 20
9.9039903551
 30
0.0
 10
19.203216792
 20
9.9013684604
 30
0.0
 10
19.2081335124
 20
9.898002077
 30
0.0
 10
19.2128376371
 20
9.8939053407
 30
0.0
 10
19.2172639189
 20
9.8890843083
 30
0.0
 10
19.2213380941
 20
9.8835543248
 30
0.0
 10
19.2249852821
 20
9.8773570316
 30
0.0
 10
19.2270390891
 20
9.8729043933
 30
0.0
 10
19.2279735708
 20
9.8705881292
 30
0.0
  0
SPLINE
  5
543
100
AcDbEntity
  8
0
100
AcDbSpline
 62
9
  6
CONTINUOUS
 70
0
 71
3
 72
34
 73
30
 74
0
 42
0.0000001
 43
0.0000001
 44
0.0000000001
 40
0.0
 40
0.0
 40
0.0
 40
0.0
 40
0.0266018022
 40
0.0533703407
 40
0.0804319707
 40
0.1079041191
 40
0.1358997582
 40
0.164531743
 40
0.2240108846
 40
0.2866556036
 40
0.3521018012
 40
0.3857080564
 40
0.4197750812
 40
0.4542228175
 40
0.4889697368
 40
0.5239100036
 40
0.5589209811
 40
0.6285841918
 40
0.6630085241
 40
0.6969800868
 40
0.7303907728
 40
0.7631579398
 40
0.7952450176
 40
0.8266322762
 40
0.8871757514
 40
0.9163810604
 40
0.9448779391
 40
0.97271968
 40
1.0
 40
1.0
 40
1.0
 40
1.0
 10
16.7232491946
 20
9.4272645388
 30
0.0
 10
16.7211304313
 20
9.4276593615
 30
0.0
 10
16.7169224262
 20
9.4287037481
 30
0.0
 10
16.7108093253
 20
9.4309997889
 30
0.0
 10
16.7049329817
 20
9.434007004
 30
0.0
 10
16.699345481
 20
9.4377040574
 30
0.0
 10
16.6940971312
 20
9.4420705313
 30
0.0
 10
16.6875405398
 20
9.4488385464
 30
0.0
 10
16.6804965618
 20
9.4589228738
 30
0.0
 10
16.6741205657
 20
9.4727892383
 30
0.0
 10
16.6705755541
 20
9.4854587725
 30
0.0
 10
16.668832049
 20
9.4961096541
 30
0.0
 10
16.6680991211
 20
9.5043588121
 30
0.0
 10
16.6679770503
 20
9.5127316295
 30
0.0
 10
16.6684750172
 20
9.5211609733
 30
0.0
 10
16.6695671312
 20
9.5295800655
 30
0.0
 10
16.6717843183
 20
9.5406783802
 30
0.0
 10
16.6750995877
 20
9.5514925176
 30
0.0
 10
16.6794639613
 20
9.5617988761
 30
0.0
 10
16.683216322
 20
9.5691527149
 30
0.0
 10
16.6874378206
 20
9.5760915048
 30
0.0
 10
16.6921133299
 20
9.5825460309
 30
0.0
 10
16.6972011008
 20
9.5884677966
 30
0.0
 10
16.7043695446
 20
9.595519642
 30
0.0
 10
16.7122353279
 20
9.6014944496
 30
0.0
 10
16.7206190195
 20
9.6061555319
 30
0.0
 10
16.7269924335
 20
9.6089107823
 30
0.0
 10
16.7334723338
 20
9.6109302423
 30
0.0
 10
16.7378710288
 20
9.611770088
 30
0.0
 10
16.7400632849
 20
9.6120512204
 30
0.0
  0
SPLINE
  5
544
100
AcDbEntity
  8
0
100
AcDbSpline
 62
9
  6
CONTINUOUS
 70
0
 71
3
 72
11
 73
7
 74
0
 42
0.0000001
 43
0.0000001
 44
0.0000000001
 40
0.0
 40
0.0
 40
0.0
 40
0.0
 40
0.2421664318
 40
0.4897215479
 40
0.7424647889
 40
1.0
 40
1.0
 40
1.0
 40
1.0
 10
19.2279735708
 20
9.8705881292
 30
0.0
 10
19.2192610374
 20
9.8648576376
 30
0.0
 10
19.2018462732
 20
9.8529563565
 30
0.0
 10
19.1760197051
 20
9.834102384
 30
0.0
 10
19.1502018361
 20
9.8141363536
 30
0.0
 10
19.1331442265
 20
9.8002813084
 30
0.0
 10
19.1246024112
 20
9.7932084657
 30
0.0
  0
SPLINE
  5
545
100
AcDbEntity
  8
0
100
AcDbSpline
 62
9
  6
CONTINUOUS
 70
0
 71
3
 72
23
 73
19
 74
0
 42
0.0000001
 43
0.0000001
 44
0.0000000001
 40
0.0
 40
0.0
 40
0.0
 40
0.0
 40
0.0667072232
 40
0.1343324547
 40
0.2026096915
 40
0.2711979841
 40
0.339738021
 40
0.4078619317
 40
0.475167247
 40
0.5412593437
 40
0.6057747346
 40
0.6683924879
 40
0.7288632165
 40
0.787041391
 40
0.8429354799
 40
0.8967390399
 40
0.9488666578
 40
1.0
 40
1.0
 40
1.0
 40
1.0
 10
19.1246024112
 20
9.7932084657
 30
0.0
 10
19.1150981146
 20
9.7853386637
 30
0.0
 10
19.0961254357
 20
9.7692888956
 30
0.0
 10
19.0678983758
 20
9.7446315953
 30
0.0
 10
19.0396870841
 20
9.7194316998
 30
0.0
 10
19.0114773976
 20
9.693977386
 30
0.0
 10
18.9832689083
 20
9.6685640026
 30
0.0
 10
18.9550705507
 20
9.6434943677
 30
0.0
 10
18.9268729967
 20
9.6191087239
 30
0.0
 10
18.8986732708
 20
9.5957557102
 30
0.0
 10
18.8704705692
 20
9.5737858156
 30
0.0
 10
18.8422583562
 20
9.5535572589
 30
0.0
 10
18.8140290953
 20
9.5354281244
 30
0.0
 10
18.7857663723
 20
9.5197603696
 30
0.0
 10
18.7574573585
 20
9.5069001742
 30
0.0
 10
18.7290831322
 20
9.497184828
 30
0.0
 10
18.7006285031
 20
9.4909779421
 30
0.0
 10
18.6815206983
 20
9.4893912077
 30
0.0
 10
18.6720625699
 20
9.4892861704
 30
0.0
  0
SPLINE
  5
546
100
AcDbEntity
  8
0
100
AcDbSpline
 62
7
  6
CONTINUOUS
 70
0
 71
3
 72
14
 73
10
 74
0
 42
0.0000001
 43
0.0000001
 44
0.0000000001
 40
0.0
 40
0.0
 40
0.0
 40
0.0
 40
0.2684715847
 40
0.4014836722
 40
0.531922231
 40
0.6584592416
 40
0.7797788547
 40
0.8942678396
 40
1.0
 40
1.0
 40
1.0
 40
1.0
 10
19.1928820952
 20
9.7116879854
 30
0.0
 10
19.1963450773
 20
9.70721345
 30
0.0
 10
19.201433175
 20
9.7004510061
 30
0.0
 10
19.2079725729
 20
9.6913452568
 30
0.0
 10
19.2126561829
 20
9.6845906979
 30
0.0
 10
19.2170664161
 20
9.6779482243
 30
0.0
 10
19.2211327276
 20
9.6714832339
 30
0.0
 10
19.2247784717
 20
9.6652754311
 30
0.0
 10
19.2269736668
 20
9.6611840177
 30
0.0
 10
19.2279735708
 20
9.6591926401
 30
0.0
  0
SPLINE
  5
547
100
AcDbEntity
  8
0
100
AcDbSpline
 62
9
  6
CONTINUOUS
 70
0
 71
3
 72
15
 73
11
 74
0
 42
0.0000001
 43
0.0000001
 44
0.0000000001
 40
0.0
 40
0.0
 40
0.0
 40
0.0
 40
0.1328059111
 40
0.2634740133
 40
0.3917664909
 40
0.5175730306
 40
0.6409419846
 40
0.7621120731
 40
0.8815570083
 40
1.0
 40
1.0
 40
1.0
 40
1.0
 10
19.2279735708
 20
9.6591926401
 30
0.0
 10
19.2189135259
 20
9.6544063169
 30
0.0
 10
19.2008175927
 20
9.6451375409
 30
0.0
 10
19.1734687752
 20
9.6322496422
 30
0.0
 10
19.1461075433
 20
9.6207055754
 30
0.0
 10
19.1187296248
 20
9.6107323646
 30
0.0
 10
19.0913304947
 20
9.6025549155
 30
0.0
 10
19.0639021317
 20
9.5964036577
 30
0.0
 10
19.0364446174
 20
9.5925012072
 30
0.0
 10
19.0180859089
 20
9.5915207786
 30
0.0
 10
19.0089476018
 20
9.5914688512
 30
0.0
  0
LINE
  5
548
100
AcDbEntity
  8
0
100
AcDbLine
 62
9
  6
CONTINUOUS
 10
19.0089476018
 20
9.5914688512
 11
19.0080499158
 21
9.5914651494
  0
SPLINE
  5
549
100
AcDbEntity
  8
0
100
AcDbSpline
 62
9
  6
CONTINUOUS
 70
0
 71
3
 72
32
 73
28
 74
0
 42
0.0000001
 43
0.0000001
 44
0.0000000001
 40
0.0
 40
0.0
 40
0.0
 40
0.0
 40
0.0189254672
 40
0.03834866
 40
0.0584897125
 40
0.0795208111
 40
0.1015711529
 40
0.1247343039
 40
0.1490739207
 40
0.1746291793
 40
0.201419507
 40
0.2294485117
 40
0.258701909
 40
0.2891292791
 40
0.320662406
 40
0.353224822
 40
0.3867336054
 40
0.4211007609
 40
0.492037616
 40
0.565230861
 40
0.639763907
 40
0.7146920202
 40
0.7890664663
 40
0.8619756526
 40
0.9325602578
 40
0.9667228638
 40
1.0
 40
1.0
 40
1.0
 40
1.0
 10
17.220202832
 20
10.3758537213
 30
0.0
 10
17.2151594093
 20
10.3752742742
 30
0.0
 10
17.205000608
 20
10.3734940301
 30
0.0
 10
17.1899197076
 20
10.3690618939
 30
0.0
 10
17.1748634453
 20
10.3628661718
 30
0.0
 10
17.1598291394
 20
10.3549732023
 30
0.0
 10
17.1448109262
 20
10.3454426672
 30
0.0
 10
17.1298046636
 20
10.334333342
 30
0.0
 10
17.1148066181
 20
10.3217021776
 30
0.0
 10
17.0998139879
 20
10.3076053831
 30
0.0
 10
17.0848247427
 20
10.2920987431
 30
0.0
 10
17.0698382981
 20
10.2752390036
 30
0.0
 10
17.0548601274
 20
10.2570894404
 30
0.0
 10
17.039883147
 20
10.2377372232
 30
0.0
 10
17.0249055612
 20
10.2172755966
 30
0.0
 10
17.0099272131
 20
10.1957994686
 30
0.0
 10
16.994947913
 20
10.1734039909
 30
0.0
 10
16.9747614522
 20
10.142113688
 30
0.0
 10
16.949656369
 20
10.1013368262
 30
0.0
 10
16.9198453796
 20
10.0508209165
 30
0.0
 10
16.8900279435
 20
9.9990708272
 30
0.0
 10
16.8602091627
 20
9.9469567898
 30
0.0
 10
16.8303866827
 20
9.8953464572
 30
0.0
 10
16.8005636493
 20
9.8450852268
 30
0.0
 10
16.7754550998
 20
9.8045751782
 30
0.0
 10
16.7552644514
 20
9.7735395906
 30
0.0
 10
16.7451369722
 20
9.7585484073
 30
0.0
 10
16.7400632849
 20
9.7512042371
 30
0.0
  0
SPLINE
  5
54A
100
AcDbEntity
  8
0
100
AcDbSpline
 62
9
  6
CONTINUOUS
 70
0
 71
3
 72
9
 73
5
 74
0
 42
0.0000001
 43
0.0000001
 44
0.0000000001
 40
0.0
 40
0.0
 40
0.0
 40
0.0
 40
0.2536497685
 40
1.0
 40
1.0
 40
1.0
 40
1.0
 10
16.5919630662
 20
9.7866708123
 30
0.0
 10
16.5885222798
 20
9.7886590252
 30
0.0
 10
16.574891694
 20
9.7963832307
 30
0.0
 10
16.5609921746
 20
9.8036356054
 30
0.0
 10
16.5504715503
 20
9.8087388632
 30
0.0
  0
SPLINE
  5
54B
100
AcDbEntity
  8
0
100
AcDbSpline
 62
9
  6
CONTINUOUS
 70
0
 71
3
 72
56
 73
52
 74
0
 42
0.0000001
 43
0.0000001
 44
0.0000000001
 40
0.0
 40
0.0
 40
0.0
 40
0.0
 40
0.0089763864
 40
0.0180673791
 40
0.0273553901
 40
0.036916299
 40
0.0468183529
 40
0.0571217225
 40
0.0678786083
 40
0.0791337265
 40
0.1032711747
 40
0.1162008279
 40
0.1297114295
 40
0.14380356
 40
0.1584737537
 40
0.1737152382
 40
0.1895185298
 40
0.2058719103
 40
0.2227618123
 40
0.2580782501
 40
0.2952512468
 40
0.3340125477
 40
0.3740806048
 40
0.4151646768
 40
0.4569534186
 40
0.4991092623
 40
0.5412907381
 40
0.5831562373
 40
0.6243685676
 40
0.6646101575
 40
0.7035751764
 40
0.7409667085
 40
0.7765073977
 40
0.7935183929
 40
0.8099959885
 40
0.8259221439
 40
0.8412808059
 40
0.8560583448
 40
0.870244103
 40
0.8838310863
 40
0.8968168379
 40
0.9092057465
 40
0.9210174619
 40
0.9322817869
 40
0.943035487
 40
0.953323329
 40
0.9631990775
 40
0.9727262653
 40
0.9819785118
 40
0.9910391376
 40
1.0
 40
1.0
 40
1.0
 40
1.0
 10
18.2033258417
 20
10.3387289365
 30
0.0
 10
18.1991150975
 20
10.3385974316
 30
0.0
 10
18.1906472171
 20
10.3379099076
 30
0.0
 10
18.1779955394
 20
10.3356200152
 30
0.0
 10
18.1653504893
 20
10.3320797586
 30
0.0
 10
18.1527148718
 20
10.327298829
 30
0.0
 10
18.1400882509
 20
10.3212873349
 30
0.0
 10
18.1274700977
 20
10.3140547695
 30
0.0
 10
18.1148589171
 20
10.3056098087
 30
0.0
 10
18.0976510434
 20
10.2924375188
 30
0.0
 10
18.0808872455
 20
10.2770915566
 30
0.0
 10
18.0644792522
 20
10.2599342151
 30
0.0
 10
18.0518928321
 20
10.245663564
 30
0.0
 10
18.0393079298
 20
10.2303219344
 30
0.0
 10
18.026723172
 20
10.21394345
 30
0.0
 10
18.0141385103
 20
10.1965638385
 30
0.0
 10
18.001553676
 20
10.1782184528
 30
0.0
 10
17.9889685284
 20
10.1589427998
 30
0.0
 10
17.9719344886
 20
10.1316428316
 30
0.0
 10
17.950737233
 20
10.0954351599
 30
0.0
 10
17.9256605841
 20
10.0496334418
 30
0.0
 10
17.9005746937
 20
10.0013113148
 30
0.0
 10
17.8754815418
 20
9.9509354229
 30
0.0
 10
17.8503874961
 20
9.8989784224
 30
0.0
 10
17.8252971195
 20
9.8459343673
 30
0.0
 10
17.8002044939
 20
9.7923225181
 30
0.0
 10
17.7751118143
 20
9.738670945
 30
0.0
 10
17.7500205772
 20
9.6855076468
 30
0.0
 10
17.7249273611
 20
9.6333531644
 30
0.0
 10
17.6998380629
 20
9.5827106141
 30
0.0
 10
17.6747556364
 20
9.5340720962
 30
0.0
 10
17.649682485
 20
9.4879229294
 30
0.0
 10
17.6284811073
 20
9.4514117159
 30
0.0
 10
17.6114530727
 20
9.423848762
 30
0.0
 10
17.5988694422
 20
9.4043661601
 30
0.0
 10
17.5862862708
 20
9.3858127634
 30
0.0
 10
17.5737033686
 20
9.3682309868
 30
0.0
 10
17.5611205388
 20
9.3516631938
 30
0.0
 10
17.5485374846
 20
9.3361516154
 30
0.0
 10
17.5359535882
 20
9.3217385791
 30
0.0
 10
17.5233681248
 20
9.3084653267
 30
0.0
 10
17.5107748844
 20
9.2963722263
 30
0.0
 10
17.4981760038
 20
9.2854825275
 30
0.0
 10
17.4855722386
 20
9.2758109396
 30
0.0
 10
17.4729618965
 20
9.2673720484
 30
0.0
 10
17.4603433647
 20
9.2601808053
 30
0.0
 10
17.4477150397
 20
9.2542529984
 30
0.0
 10
17.4350759858
 20
9.2496052054
 30
0.0
 10
17.4224256323
 20
9.2462549311
 30
0.0
 10
17.4097669787
 20
9.244219262
 30
0.0
 10
17.4013039164
 20
9.243750412
 30
0.0
 10
17.3970984263
 20
9.2437369686
 30
0.0
  0
SPLINE
  5
54C
100
AcDbEntity
  8
0
100
AcDbSpline
 62
9
  6
CONTINUOUS
 70
0
 71
3
 72
21
 73
17
 74
0
 42
0.0000001
 43
0.0000001
 44
0.0000000001
 40
0.0
 40
0.0
 40
0.0
 40
0.0
 40
0.0338414256
 40
0.0690892462
 40
0.1069463119
 40
0.1483692927
 40
0.1940769338
 40
0.2445950589
 40
0.3002565389
 40
0.3610564202
 40
0.4268177825
 40
0.4972860771
 40
0.5721560691
 40
0.6510890358
 40
0.8196594298
 40
1.0
 40
1.0
 40
1.0
 40
1.0
 10
16.808534513
 20
9.7296540527
 30
0.0
 10
16.8079476408
 20
9.7290278505
 30
0.0
 10
16.8066009177
 20
9.7278810834
 30
0.0
 10
16.8041936627
 20
9.7265938611
 30
0.0
 10
16.801405691
 20
9.7257272475
 30
0.0
 10
16.798255687
 20
9.7252837298
 30
0.0
 10
16.7947561678
 20
9.725266175
 30
0.0
 10
16.7909197994
 20
9.7256807966
 30
0.0
 10
16.7867665032
 20
9.7265325142
 30
0.0
 10
16.7823199749
 20
9.7278043126
 30
0.0
 10
16.7776099835
 20
9.7294809923
 30
0.0
 10
16.7726686232
 20
9.7315466633
 30
0.0
 10
16.7675283236
 20
9.7339853228
 30
0.0
 10
16.7602937782
 20
9.7377973803
 30
0.0
 10
16.7509957637
 20
9.7434086884
 30
0.0
 10
16.7437330812
 20
9.7484749191
 30
0.0
 10
16.7400632866
 20
9.7512042396
 30
0.0
  0
SPLINE
  5
54D
100
AcDbEntity
  8
0
100
AcDbSpline
 62
9
  6
CONTINUOUS
 70
0
 71
3
 72
21
 73
17
 74
0
 42
0.0000001
 43
0.0000001
 44
0.0000000001
 40
0.0
 40
0.0
 40
0.0
 40
0.0
 40
0.1798205928
 40
0.3478845041
 40
0.4265918023
 40
0.5012665547
 40
0.5715796521
 40
0.6372358966
 40
0.6979912391
 40
0.7536796223
 40
0.8042996786
 40
0.8501853054
 40
0.8918668108
 40
0.9300614128
 40
0.9657136607
 40
1.0
 40
1.0
 40
1.0
 40
1.0
 10
18.5450485961
 20
9.8978235739
 30
0.0
 10
18.5413956304
 20
9.9005300152
 30
0.0
 10
18.5341651742
 20
9.905549937
 30
0.0
 10
18.5249050538
 20
9.9110987802
 30
0.0
 10
18.5176985094
 20
9.9148599374
 30
0.0
 10
18.5125762416
 20
9.9172619507
 30
0.0
 10
18.5076502397
 20
9.9192919274
 30
0.0
 10
18.5029524869
 20
9.9209342877
 30
0.0
 10
18.498514623
 20
9.9221734805
 30
0.0
 10
18.4943662033
 20
9.9229947875
 30
0.0
 10
18.4905308599
 20
9.9233809375
 30
0.0
 10
18.4870286191
 20
9.9233363013
 30
0.0
 10
18.4838723547
 20
9.922867438
 30
0.0
 10
18.4810746893
 20
9.9219776141
 30
0.0
 10
18.4786541672
 20
9.9206700515
 30
0.0
 10
18.477296088
 20
9.9195125119
 30
0.0
 10
18.4767021885
 20
9.9188810825
 30
0.0
  0
SPLINE
  5
54E
100
AcDbEntity
  8
0
100
AcDbSpline
 62
9
  6
CONTINUOUS
 70
0
 71
3
 72
26
 73
22
 74
0
 42
0.0000001
 43
0.0000001
 44
0.0000000001
 40
0.0
 40
0.0
 40
0.0
 40
0.0
 40
0.014505386
 40
0.0293390939
 40
0.0448182086
 40
0.0612281591
 40
0.0977272766
 40
0.1182004994
 40
0.1402342307
 40
0.1890051854
 40
0.2439329001
 40
0.3046493916
 40
0.3706656568
 40
0.441428274
 40
0.5163351235
 40
0.5945604232
 40
0.6751092476
 40
0.7569593718
 40
0.8390776231
 40
0.9204313883
 40
1.0
 40
1.0
 40
1.0
 40
1.0
 10
18.6134079929
 20
9.790846938
 30
0.0
 10
18.6138532584
 20
9.7913218523
 30
0.0
 10
18.6146761055
 20
9.7923587206
 30
0.0
 10
18.6156594348
 20
9.7941225301
 30
0.0
 10
18.616392459
 20
9.7960953599
 30
0.0
 10
18.6170529825
 20
9.7991012403
 30
0.0
 10
18.6171318245
 20
9.8024254535
 30
0.0
 10
18.6167407646
 20
9.8059508657
 30
0.0
 10
18.6159714198
 20
9.8099788774
 30
0.0
 10
18.6143466159
 20
9.8153974488
 30
0.0
 10
18.6115328162
 20
9.8222282782
 30
0.0
 10
18.6078315256
 20
9.8295010002
 30
0.0
 10
18.6032860465
 20
9.8371169776
 30
0.0
 10
18.5979407829
 20
9.8449772729
 30
0.0
 10
18.5918437572
 20
9.852970193
 30
0.0
 10
18.5850842634
 20
9.8609936478
 30
0.0
 10
18.5777714552
 20
9.8689444359
 30
0.0
 10
18.5700152181
 20
9.8767119153
 30
0.0
 10
18.5619267703
 20
9.8841862617
 30
0.0
 10
18.553617621
 20
9.8912573543
 30
0.0
 10
18.5479179342
 20
9.8956977159
 30
0.0
 10
18.5450485972
 20
9.8978235755
 30
0.0
  0
SPLINE
  5
54F
100
AcDbEntity
  8
0
100
AcDbSpline
 62
9
  6
CONTINUOUS
 70
0
 71
3
 72
24
 73
20
 74
0
 42
0.0000001
 43
0.0000001
 44
0.0000000001
 40
0.0
 40
0.0
 40
0.0
 40
0.0
 40
0.0686074569
 40
0.1402036488
 40
0.2138818525
 40
0.288676819
 40
0.3636068197
 40
0.4377104684
 40
0.5101172342
 40
0.5800823004
 40
0.6468842986
 40
0.709850713
 40
0.7684208019
 40
0.8222445443
 40
0.8714584347
 40
0.9167675456
 40
0.9591602175
 40
0.9796897557
 40
1.0
 40
1.0
 40
1.0
 40
1.0
 10
18.5450485961
 20
9.472612625
 30
0.0
 10
18.541761335
 20
9.4745596389
 30
0.0
 10
18.5352348963
 20
9.4788673406
 30
0.0
 10
18.5258583627
 20
9.4862298946
 30
0.0
 10
18.5168035497
 20
9.4945044974
 30
0.0
 10
18.5082320507
 20
9.5035354459
 30
0.0
 10
18.5003036593
 20
9.5131671403
 30
0.0
 10
18.4931794769
 20
9.5232473274
 30
0.0
 10
18.4870117573
 20
9.5336198686
 30
0.0
 10
18.4818681639
 20
9.5440854205
 30
0.0
 10
18.4778144647
 20
9.5544585434
 30
0.0
 10
18.4749151677
 20
9.5645557653
 30
0.0
 10
18.4732330186
 20
9.574197489
 30
0.0
 10
18.472842232
 20
9.5832199413
 30
0.0
 10
18.4738052043
 20
9.5914656258
 30
0.0
 10
18.4760594533
 20
9.5987979349
 30
0.0
 10
18.4790164871
 20
9.6041127027
 30
0.0
 10
18.4819510141
 20
9.6077121912
 30
0.0
 10
18.4835938018
 20
9.6092947933
 30
0.0
 10
18.4844550347
 20
9.6100279448
 30
0.0
  0
SPLINE
  5
550
100
AcDbEntity
  8
0
100
AcDbSpline
 62
9
  6
CONTINUOUS
 70
0
 71
3
 72
23
 73
19
 74
0
 42
0.0000001
 43
0.0000001
 44
0.0000000001
 40
0.0
 40
0.0
 40
0.0
 40
0.0
 40
0.0491127897
 40
0.0988761565
 40
0.1495828903
 40
0.201524463
 40
0.2549870505
 40
0.3102478603
 40
0.3675622865
 40
0.4271353468
 40
0.4891406304
 40
0.553728063
 40
0.621026444
 40
0.6911387012
 40
0.7641022044
 40
0.8399153782
 40
0.9185591564
 40
1.0
 40
1.0
 40
1.0
 40
1.0
 10
18.8153308786
 20
10.0991434472
 30
0.0
 10
18.8096750996
 20
10.0985861962
 30
0.0
 10
18.7983261112
 20
10.0970359429
 30
0.0
 10
18.7813866561
 20
10.0934026712
 30
0.0
 10
18.7644490546
 20
10.0884294583
 30
0.0
 10
18.7475158542
 20
10.0820932445
 30
0.0
 10
18.7305875115
 20
10.0743719844
 30
0.0
 10
18.7136658155
 20
10.0652434337
 30
0.0
 10
18.696755439
 20
10.0546911629
 30
0.0
 10
18.67985138
 20
10.0427236452
 30
0.0
 10
18.6629522345
 20
10.0293481997
 30
0.0
 10
18.6460570686
 20
10.0145727211
 30
0.0
 10
18.6291653732
 20
9.9984055663
 30
0.0
 10
18.612282561
 20
9.9808587141
 30
0.0
 10
18.5954031418
 20
9.9619667363
 30
0.0
 10
18.5785244638
 20
9.9417705394
 30
0.0
 10
18.5616463365
 20
9.9203122116
 30
0.0
 10
18.5505852353
 20
9.905449745
 30
0.0
 10
18.5450485961
 20
9.8978235739
 30
0.0
  0
SPLINE
  5
551
100
AcDbEntity
  8
0
100
AcDbSpline
 62
9
  6
CONTINUOUS
 70
0
 71
3
 72
53
 73
49
 74
0
 42
0.0000001
 43
0.0000001
 44
0.0000000001
 40
0.0
 40
0.0
 40
0.0
 40
0.0
 40
0.0089758619
 40
0.0180621889
 40
0.0273528635
 40
0.0369320574
 40
0.0468723208
 40
0.0572351123
 40
0.0680713942
 40
0.0794226402
 40
0.0913220156
 40
0.1037955656
 40
0.1305318727
 40
0.1448107064
 40
0.159686077
 40
0.1751461474
 40
0.191176088
 40
0.2077586334
 40
0.2248745253
 40
0.2606192681
 40
0.298192004
 40
0.3373096132
 40
0.3776733133
 40
0.4189757402
 40
0.5031237377
 40
0.5452935283
 40
0.5870677468
 40
0.6281040671
 40
0.6680777371
 40
0.7067079219
 40
0.7437293742
 40
0.7615578955
 40
0.7788911031
 40
0.8119621357
 40
0.8276661673
 40
0.8428001465
 40
0.8573557539
 40
0.871327524
 40
0.8847134732
 40
0.8975158798
 40
0.9214007578
 40
0.9325403045
 40
0.9431924865
 40
0.963214337
 40
0.9727150381
 40
0.981960823
 40
0.9910283363
 40
1.0
 40
1.0
 40
1.0
 40
1.0
 10
17.8845060127
 20
10.4025468795
 30
0.0
 10
17.8802908196
 20
10.4024796727
 30
0.0
 10
17.8718091415
 20
10.401904611
 30
0.0
 10
17.8591280068
 20
10.3997185704
 30
0.0
 10
17.846456649
 20
10.3961980582
 30
0.0
 10
17.8337979959
 20
10.3913662282
 30
0.0
 10
17.8211505948
 20
10.3852452677
 30
0.0
 10
17.8085132307
 20
10.3778566417
 30
0.0
 10
17.7958840366
 20
10.3692208259
 30
0.0
 10
17.7832612881
 20
10.3593575287
 30
0.0
 10
17.770643109
 20
10.3482857683
 30
0.0
 10
17.7534242466
 20
10.3315483945
 30
0.0
 10
17.7366555669
 20
10.3127962156
 30
0.0
 10
17.7202094409
 20
10.2923337359
 30
0.0
 10
17.7076057434
 20
10.2755891683
 30
0.0
 10
17.6950023092
 20
10.2578274992
 30
0.0
 10
17.6823984459
 20
10.2390918678
 30
0.0
 10
17.6697941403
 20
10.2194266647
 30
0.0
 10
17.6527404764
 20
10.1916225443
 30
0.0
 10
17.6315111925
 20
10.1548250071
 30
0.0
 10
17.6063960018
 20
10.1083665354
 30
0.0
 10
17.5812710512
 20
10.0594628226
 30
0.0
 10
17.5561394567
 20
10.0086026176
 30
0.0
 10
17.5224157825
 20
9.9384031777
 30
0.0
 10
17.4890859868
 20
9.8670786342
 30
0.0
 10
17.4555996663
 20
9.7955838445
 30
0.0
 10
17.4304685883
 20
9.7425351188
 30
0.0
 10
17.4053384723
 20
9.6906288673
 30
0.0
 10
17.3802006691
 20
9.6403709228
 30
0.0
 10
17.3550686569
 20
9.5922263616
 30
0.0
 10
17.3338750589
 20
9.5537688776
 30
0.0
 10
17.3168567763
 20
9.5244454324
 30
0.0
 10
17.3003111809
 20
9.4969988635
 30
0.0
 10
17.2835426419
 20
9.4708535256
 30
0.0
 10
17.2664388687
 20
9.4461834527
 30
0.0
 10
17.2538329894
 20
9.4289857403
 30
0.0
 10
17.24122703
 20
9.4128071132
 30
0.0
 10
17.2286208237
 20
9.3976825279
 30
0.0
 10
17.2160128243
 20
9.3836455854
 30
0.0
 10
17.1995800142
 20
9.3668161589
 30
0.0
 10
17.1827802924
 20
9.3518291555
 30
0.0
 10
17.1655406234
 20
9.339037165
 30
0.0
 10
17.1490399175
 20
9.3283723862
 30
0.0
 10
17.1321319741
 20
9.3197943939
 30
0.0
 10
17.1149582339
 20
9.3136841597
 30
0.0
 10
17.1022902141
 20
9.3104163934
 30
0.0
 10
17.0896168866
 20
9.3083942428
 30
0.0
 10
17.0811436505
 20
9.3078805069
 30
0.0
 10
17.0769301435
 20
9.3078346063
 30
0.0
  0
SPLINE
  5
552
100
AcDbEntity
  8
0
100
AcDbSpline
 62
9
  6
CONTINUOUS
 70
0
 71
3
 72
23
 73
19
 74
0
 42
0.0000001
 43
0.0000001
 44
0.0000000001
 40
0.0
 40
0.0
 40
0.0
 40
0.0
 40
0.0813403191
 40
0.1599113702
 40
0.2356853563
 40
0.3086479363
 40
0.3788009075
 40
0.4461657946
 40
0.5108118744
 40
0.5728711664
 40
0.6324989353
 40
0.6898715625
 40
0.7451884322
 40
0.798680126
 40
0.8506195905
 40
0.9012930547
 40
0.9509902563
 40
1.0
 40
1.0
 40
1.0
 40
1.0
 10
16.7400632852
 20
9.7512042376
 30
0.0
 10
16.7345420195
 20
9.743570122
 30
0.0
 10
16.7235110623
 20
9.7286881548
 30
0.0
 10
16.7066810156
 20
9.7071901616
 30
0.0
 10
16.6898504932
 20
9.6869381176
 30
0.0
 10
16.6730190938
 20
9.667970969
 30
0.0
 10
16.6561865296
 20
9.6503269636
 30
0.0
 10
16.6393486966
 20
9.6340439468
 30
0.0
 10
16.6225016456
 20
9.6191497898
 30
0.0
 10
16.6056508401
 20
9.6056496688
 30
0.0
 10
16.5887953464
 20
9.593546956
 30
0.0
 10
16.5719344314
 20
9.5828444343
 30
0.0
 10
16.5550664186
 20
9.5735449797
 30
0.0
 10
16.5381878026
 20
9.5656507763
 30
0.0
 10
16.5213039465
 20
9.5591385779
 30
0.0
 10
16.5044159381
 20
9.5539826444
 30
0.0
 10
16.4875263375
 20
9.5501568682
 30
0.0
 10
16.4762063158
 20
9.5484664751
 30
0.0
 10
16.4705644276
 20
9.5478388503
 30
0.0
  0
SPLINE
  5
553
100
AcDbEntity
  8
0
100
AcDbSpline
 62
9
  6
CONTINUOUS
 70
0
 71
3
 72
26
 73
22
 74
0
 42
0.0000001
 43
0.0000001
 44
0.0000000001
 40
0.0
 40
0.0
 40
0.0
 40
0.0
 40
0.0798645532
 40
0.1614779311
 40
0.243818819
 40
0.3258545377
 40
0.4065519989
 40
0.4848888222
 40
0.5598688911
 40
0.6306614541
 40
0.6966654144
 40
0.7573296832
 40
0.812166483
 40
0.8608070253
 40
0.8827593907
 40
0.9031394611
 40
0.9394083813
 40
0.9556770614
 40
0.9710001672
 40
0.9856670646
 40
1.0
 40
1.0
 40
1.0
 40
1.0
 10
16.7400632849
 20
9.7512042371
 30
0.0
 10
16.7372032908
 20
9.7533312882
 30
0.0
 10
16.731521977
 20
9.7577695547
 30
0.0
 10
16.7232366562
 20
9.7648278
 30
0.0
 10
16.7151701034
 20
9.7722787336
 30
0.0
 10
16.7074328499
 20
9.7800132777
 30
0.0
 10
16.7001351269
 20
9.7879226271
 30
0.0
 10
16.6933859325
 20
9.7958972072
 30
0.0
 10
16.6872933088
 20
9.8038345128
 30
0.0
 10
16.6819466177
 20
9.8116341362
 30
0.0
 10
16.6773939183
 20
9.8191859077
 30
0.0
 10
16.6736792317
 20
9.8263924475
 30
0.0
 10
16.6708454681
 20
9.8331567662
 30
0.0
 10
16.6691969323
 20
9.8385206329
 30
0.0
 10
16.6684043878
 20
9.8425068232
 30
0.0
 10
16.6679898155
 20
9.8459912527
 30
0.0
 10
16.6680391529
 20
9.8492765626
 30
0.0
 10
16.6686682102
 20
9.8522475876
 30
0.0
 10
16.6693771547
 20
9.8541947082
 30
0.0
 10
16.6703355974
 20
9.8559342163
 30
0.0
 10
16.6711414071
 20
9.8569559195
 30
0.0
 10
16.6715779903
 20
9.8574234248
 30
0.0
  0
SPLINE
  5
554
100
AcDbEntity
  8
0
100
AcDbSpline
 62
9
  6
CONTINUOUS
 70
0
 71
3
 72
33
 73
29
 74
0
 42
0.0000001
 43
0.0000001
 44
0.0000000001
 40
0.0
 40
0.0
 40
0.0
 40
0.0
 40
0.0335130272
 40
0.0679556463
 40
0.1392018342
 40
0.2128534064
 40
0.2879839943
 40
0.3636350609
 40
0.4013419658
 40
0.4388010051
 40
0.5124737177
 40
0.583669379
 40
0.6180602279
 40
0.6515217487
 40
0.6839679373
 40
0.7153186298
 40
0.74550111
 40
0.7744522144
 40
0.8021218441
 40
0.8284916012
 40
0.8535758921
 40
0.8774096461
 40
0.9000525872
 40
0.9215950749
 40
0.9421644749
 40
0.9619327309
 40
0.9811253441
 40
1.0
 40
1.0
 40
1.0
 40
1.0
 10
18.5450485958
 20
9.8978235735
 30
0.0
 10
18.539825256
 20
9.8902916216
 30
0.0
 10
18.5294005578
 20
9.87490262
 30
0.0
 10
18.5086219641
 20
9.8429989251
 30
0.0
 10
18.4827912148
 20
9.801294473
 30
0.0
 10
18.4521210207
 20
9.7495162029
 30
0.0
 10
18.4214452337
 20
9.6963471795
 30
0.0
 10
18.3958609304
 20
9.6515917037
 30
0.0
 10
18.3752914192
 20
9.615837457
 30
0.0
 10
18.3548574118
 20
9.5806298468
 30
0.0
 10
18.3294542408
 20
9.5377164348
 30
0.0
 10
18.3036179828
 20
9.4960411384
 30
0.0
 10
18.282829077
 20
9.4641941593
 30
0.0
 10
18.2674183168
 20
9.4414980241
 30
0.0
 10
18.2520084403
 20
9.4198129638
 30
0.0
 10
18.2365993372
 20
9.3992364411
 30
0.0
 10
18.2211905134
 20
9.3798659222
 30
0.0
 10
18.2057818014
 20
9.3617977811
 30
0.0
 10
18.1903668751
 20
9.3451272778
 30
0.0
 10
18.174943946
 20
9.3299341166
 30
0.0
 10
18.1595161769
 20
9.31627943
 30
0.0
 10
18.1440803577
 20
9.3042231409
 30
0.0
 10
18.1286327788
 20
9.2938251405
 30
0.0
 10
18.1131684404
 20
9.2851475061
 30
0.0
 10
18.097682332
 20
9.2782525061
 30
0.0
 10
18.0821655748
 20
9.2732122241
 30
0.0
 10
18.0666303815
 20
9.2700569816
 30
0.0
 10
18.0562228134
 20
9.2692145005
 30
0.0
 10
18.0510615338
 20
9.2691137453
 30
0.0
  0
SPLINE
  5
555
100
AcDbEntity
  8
0
100
AcDbSpline
 62
9
  6
CONTINUOUS
 70
0
 71
3
 72
9
 73
5
 74
0
 42
0.0000001
 43
0.0000001
 44
0.0000000001
 40
0.0
 40
0.0
 40
0.0
 40
0.0
 40
0.2525802633
 40
1.0
 40
1.0
 40
1.0
 40
1.0
 10
18.5980492307
 20
10.0236955974
 30
0.0
 10
18.5936482306
 20
10.0248821968
 30
0.0
 10
18.5761646994
 20
10.0293513446
 30
0.0
 10
18.5584120573
 20
10.0328142615
 30
0.0
 10
18.5450485972
 20
10.0346445771
 30
0.0
  0
SPLINE
  5
556
100
AcDbEntity
  8
0
100
AcDbSpline
 62
9
  6
CONTINUOUS
 70
0
 71
3
 72
35
 73
31
 74
0
 42
0.0000001
 43
0.0000001
 44
0.0000000001
 40
0.0
 40
0.0
 40
0.0
 40
0.0
 40
0.0273054027
 40
0.0551857957
 40
0.083731228
 40
0.1129916492
 40
0.1736540387
 40
0.2050984829
 40
0.2372379448
 40
0.270049995
 40
0.3034971936
 40
0.3374969595
 40
0.371941304
 40
0.4416216091
 40
0.4766297853
 40
0.5115600075
 40
0.5462894469
 40
0.5807114712
 40
0.6147447498
 40
0.6483116533
 40
0.7136718222
 40
0.7762323612
 40
0.8063661784
 40
0.8357044779
 40
0.8642962595
 40
0.8922493004
 40
0.9196791399
 40
0.946700669
 40
0.9734322502
 40
1.0
 40
1.0
 40
1.0
 40
1.0
 10
18.5450485972
 20
10.0346445771
 30
0.0
 10
18.5472328769
 20
10.0349381359
 30
0.0
 10
18.5516151096
 20
10.0358005604
 30
0.0
 10
18.5580694107
 20
10.0378459
 30
0.0
 10
18.5644185067
 20
10.0406198825
 30
0.0
 10
18.5727722627
 20
10.0452970158
 30
0.0
 10
18.5806125749
 20
10.0512729812
 30
0.0
 10
18.5877640773
 20
10.0583142061
 30
0.0
 10
18.592842833
 20
10.0642211953
 30
0.0
 10
18.5975145343
 20
10.0706546152
 30
0.0
 10
18.6017366111
 20
10.0775675197
 30
0.0
 10
18.6054940289
 20
10.084891464
 30
0.0
 10
18.6098710624
 20
10.0951523271
 30
0.0
 10
18.61320965
 20
10.1059171413
 30
0.0
 10
18.6154610704
 20
10.1169653861
 30
0.0
 10
18.616584459
 20
10.125345583
 30
0.0
 10
18.6171197295
 20
10.1337363928
 30
0.0
 10
18.6170411517
 20
10.1420719818
 30
0.0
 10
18.6163546039
 20
10.1502857554
 30
0.0
 10
18.614676253
 20
10.1608933852
 30
0.0
 10
18.6112211525
 20
10.1735152156
 30
0.0
 10
18.6059328371
 20
10.1851966231
 30
0.0
 10
18.60069115
 20
10.1935506912
 30
0.0
 10
18.596343519
 20
10.1991896646
 30
0.0
 10
18.5915490037
 20
10.204214317
 30
0.0
 10
18.5863607132
 20
10.2085962853
 30
0.0
 10
18.5808302508
 20
10.2123152943
 30
0.0
 10
18.5750075222
 20
10.215351017
 30
0.0
 10
18.5689440015
 20
10.2176828629
 30
0.0
 10
18.5647662141
 20
10.218756411
 30
0.0
 10
18.5626615517
 20
10.219167214
 30
0.0
  0
SPLINE
  5
557
100
AcDbEntity
  8
0
100
AcDbSpline
 62
9
  6
CONTINUOUS
 70
0
 71
3
 72
17
 73
13
 74
0
 42
0.0000001
 43
0.0000001
 44
0.0000000001
 40
0.0
 40
0.0
 40
0.0
 40
0.0
 40
0.1568129806
 40
0.3044580396
 40
0.4424202226
 40
0.5704372641
 40
0.6886916042
 40
0.7980874361
 40
0.8501075859
 40
0.900792221
 40
0.9506024696
 40
1.0
 40
1.0
 40
1.0
 40
1.0
 10
16.7400632849
 20
10.1749052691
 30
0.0
 10
16.7371663826
 20
10.176608319
 30
0.0
 10
16.7313936408
 20
10.1796719585
 30
0.0
 10
16.7226164941
 20
10.1832969764
 30
0.0
 10
16.7140928318
 20
10.1857966044
 30
0.0
 10
16.7059455703
 20
10.1871433272
 30
0.0
 10
16.6982966592
 20
10.1873068923
 30
0.0
 10
16.6923309827
 20
10.1864054687
 30
0.0
 10
16.6879914511
 20
10.1850266288
 30
0.0
 10
16.6849987985
 20
10.1836953107
 30
0.0
 10
16.6822243223
 20
10.1820636995
 30
0.0
 10
16.6805222018
 20
10.1807808543
 30
0.0
 10
16.679714312
 20
10.1800968441
 30
0.0
  0
SPLINE
  5
558
100
AcDbEntity
  8
0
100
AcDbSpline
 62
7
  6
CONTINUOUS
 70
0
 71
3
 72
21
 73
17
 74
0
 42
0.0000001
 43
0.0000001
 44
0.0000000001
 40
0.0
 40
0.0
 40
0.0
 40
0.0
 40
0.0422171415
 40
0.0873336799
 40
0.1355401739
 40
0.1869075116
 40
0.2414221932
 40
0.2989835507
 40
0.4226246078
 40
0.5564814832
 40
0.6267267898
 40
0.6988659101
 40
0.7726120238
 40
0.8476864019
 40
0.9236666798
 40
1.0
 40
1.0
 40
1.0
 40
1.0
 10
19.1928820952
 20
9.7116879854
 30
0.0
 10
19.1943494738
 20
9.7126051974
 30
0.0
 10
19.1972486998
 20
9.7147257752
 30
0.0
 10
19.2013177957
 20
9.7185232694
 30
0.0
 10
19.2052299625
 20
9.7229923803
 30
0.0
 10
19.2089733965
 20
9.7280873111
 30
0.0
 10
19.2125460475
 20
9.7337604296
 30
0.0
 10
19.2171897415
 20
9.7422387678
 30
0.0
 10
19.2224585821
 20
9.7540534141
 30
0.0
 10
19.2268403047
 20
9.7667702848
 30
0.0
 10
19.2298437079
 20
9.777690757
 30
0.0
 10
19.2318195905
 20
9.7863297346
 30
0.0
 10
19.2334398085
 20
9.7952438762
 30
0.0
 10
19.234657299
 20
9.8043811972
 30
0.0
 10
19.2354389236
 20
9.8136723936
 30
0.0
 10
19.2356528376
 20
9.8199151892
 30
0.0
 10
19.235678118
 20
9.8230439453
 30
0.0
  0
SPLINE
  5
559
100
AcDbEntity
  8
0
100
AcDbSpline
 62
7
  6
CONTINUOUS
 70
0
 71
3
 72
20
 73
16
 74
0
 42
0.0000001
 43
0.0000001
 44
0.0000000001
 40
0.0
 40
0.0
 40
0.0
 40
0.0
 40
0.2189761227
 40
0.4090265294
 40
0.5692826183
 40
0.6385405217
 40
0.7007734892
 40
0.7561980528
 40
0.805111794
 40
0.8479153636
 40
0.8851626024
 40
0.9176451075
 40
0.9465214849
 40
0.9733638864
 40
1.0
 40
1.0
 40
1.0
 40
1.0
 10
19.2279735708
 20
9.6591926401
 30
0.0
 10
19.2290551544
 20
9.6570385921
 30
0.0
 10
19.2309598183
 20
9.652954855
 30
0.0
 10
19.2332204171
 20
9.6471054728
 30
0.0
 10
19.2345423726
 20
9.6426729882
 30
0.0
 10
19.2352164723
 20
9.6395316685
 30
0.0
 10
19.2355310348
 20
9.6374970711
 30
0.0
 10
19.2356883838
 20
9.6356686585
 30
0.0
 10
19.235693836
 20
9.6340467767
 30
0.0
 10
19.2355524658
 20
9.6326311395
 30
0.0
 10
19.2352683533
 20
9.6314208455
 30
0.0
 10
19.2348432636
 20
9.6304150175
 30
0.0
 10
19.2342759381
 20
9.6296154739
 30
0.0
 10
19.2335687826
 20
9.6290306379
 30
0.0
 10
19.2330206035
 20
9.628793525
 30
0.0
 10
19.2327389015
 20
9.6287122492
 30
0.0
  0
SPLINE
  5
55A
100
AcDbEntity
  8
0
100
AcDbSpline
 62
9
  6
CONTINUOUS
 70
0
 71
3
 72
9
 73
5
 74
0
 42
0.0000001
 43
0.0000001
 44
0.0000000001
 40
0.0
 40
0.0
 40
0.0
 40
0.0
 40
0.2454402377
 40
1.0
 40
1.0
 40
1.0
 40
1.0
 10
16.7400632866
 20
9.9455063871
 30
0.0
 10
16.7408164943
 20
9.9457929011
 30
0.0
 10
16.7438655913
 20
9.9470117168
 30
0.0
 10
16.7468345574
 20
9.9484285303
 30
0.0
 10
16.749022949
 20
9.9495899043
 30
0.0
  0
LINE
  5
55B
100
AcDbEntity
  8
0
100
AcDbLine
 62
9
  6
CONTINUOUS
 10
18.5336100887
 20
9.9738169064
 11
18.4662393527
 21
10.0268668146
  0
SPLINE
  5
55C
100
AcDbEntity
  8
0
100
AcDbSpline
 62
9
  6
CONTINUOUS
 70
0
 71
3
 72
11
 73
7
 74
0
 42
0.0000001
 43
0.0000001
 44
0.0000000001
 40
0.0
 40
0.0
 40
0.0
 40
0.0
 40
0.2571671743
 40
0.5085557276
 40
0.7555739872
 40
1.0
 40
1.0
 40
1.0
 40
1.0
 10
18.2942005966
 20
10.1344048273
 30
0.0
 10
18.2873893256
 20
10.1369622715
 30
0.0
 10
18.2737387779
 20
10.1415561385
 30
0.0
 10
18.2529877115
 20
10.1467838381
 30
0.0
 10
18.2322188494
 20
10.1501635213
 30
0.0
 10
18.2183230333
 20
10.1511200092
 30
0.0
 10
18.211409241
 20
10.1512549067
 30
0.0
  0
SPLINE
  5
55D
100
AcDbEntity
  8
0
100
AcDbSpline
 62
9
  6
CONTINUOUS
 70
0
 71
3
 72
11
 73
7
 74
0
 42
0.0000001
 43
0.0000001
 44
0.0000000001
 40
0.0
 40
0.0
 40
0.0
 40
0.0
 40
0.1874204953
 40
0.4054401161
 40
0.6730747543
 40
1.0
 40
1.0
 40
1.0
 40
1.0
 10
18.4733753843
 20
9.9187881477
 30
0.0
 10
18.47349532
 20
9.9186476297
 30
0.0
 10
18.4738289335
 20
9.9184039025
 30
0.0
 10
18.4744790388
 20
9.9182311819
 30
0.0
 10
18.4752841021
 20
9.9182101049
 30
0.0
 10
18.47586715
 20
9.918285188
 30
0.0
 10
18.4761844608
 20
9.9183414173
 30
0.0
  0
SPLINE
  5
55E
100
AcDbEntity
  8
0
100
AcDbSpline
 62
9
  6
CONTINUOUS
 70
0
 71
3
 72
11
 73
7
 74
0
 42
0.0000001
 43
0.0000001
 44
0.0000000001
 40
0.0
 40
0.0
 40
0.0
 40
0.0
 40
0.2675517102
 40
0.5217884269
 40
0.7649810114
 40
1.0
 40
1.0
 40
1.0
 40
1.0
 10
18.5450485972
 20
9.6991606999
 30
0.0
 10
18.5482518991
 20
9.7003614033
 30
0.0
 10
18.5546798615
 20
9.7022575967
 30
0.0
 10
18.5644214902
 20
9.7035231357
 30
0.0
 10
18.5738249347
 20
9.703148682
 30
0.0
 10
18.5798309087
 20
9.7017906593
 30
0.0
 10
18.5826825032
 20
9.7008428847
 30
0.0
  0
SPLINE
  5
55F
100
AcDbEntity
  8
0
100
AcDbSpline
 62
7
  6
CONTINUOUS
 70
0
 71
3
 72
11
 73
7
 74
0
 42
0.0000001
 43
0.0000001
 44
0.0000000001
 40
0.0
 40
0.0
 40
0.0
 40
0.0
 40
0.2386767697
 40
0.4873310295
 40
0.742269143
 40
1.0
 40
1.0
 40
1.0
 40
1.0
 10
19.2279735708
 20
9.8705881292
 30
0.0
 10
19.2294154788
 20
9.867014127
 30
0.0
 10
19.2318284636
 20
9.8594972502
 30
0.0
 10
19.2341921201
 20
9.8477284607
 30
0.0
 10
19.2354882405
 20
9.8354890197
 30
0.0
 10
19.2357117425
 20
9.827205381
 30
0.0
 10
19.235678118
 20
9.8230439453
 30
0.0
  0
SPLINE
  5
560
100
AcDbEntity
  8
0
100
AcDbSpline
 62
9
  6
CONTINUOUS
 70
0
 71
3
 72
11
 73
7
 74
0
 42
0.0000001
 43
0.0000001
 44
0.0000000001
 40
0.0
 40
0.0
 40
0.0
 40
0.0
 40
0.3170166123
 40
0.5891033929
 40
0.8164082038
 40
1.0
 40
1.0
 40
1.0
 40
1.0
 10
16.8020217703
 20
9.7234531886
 30
0.0
 10
16.8027756086
 20
9.7238069493
 30
0.0
 10
16.804189764
 20
9.7244366958
 30
0.0
 10
16.8061959274
 20
9.7251992418
 30
0.0
 10
16.8079183037
 20
9.7257069512
 30
0.0
 10
16.8089858634
 20
9.7258959573
 30
0.0
 10
16.8094667591
 20
9.7259320268
 30
0.0
  0
SPLINE
  5
561
100
AcDbEntity
  8
0
100
AcDbSpline
 62
9
  6
CONTINUOUS
 70
0
 71
3
 72
11
 73
7
 74
0
 42
0.0000001
 43
0.0000001
 44
0.0000000001
 40
0.0
 40
0.0
 40
0.0
 40
0.0
 40
0.3100843679
 40
0.5727620127
 40
0.7974956028
 40
1.0
 40
1.0
 40
1.0
 40
1.0
 10
16.8094667591
 20
9.7259320268
 30
0.0
 10
16.8097136063
 20
9.7259505416
 30
0.0
 10
16.8101723168
 20
9.7259606527
 30
0.0
 10
16.8108065269
 20
9.7258718908
 30
0.0
 10
16.8113266424
 20
9.725672297
 30
0.0
 10
16.811597473
 20
9.7254524839
 30
0.0
 10
16.8117023994
 20
9.7253295034
 30
0.0
  0
SPLINE
  5
562
100
AcDbEntity
  8
0
100
AcDbSpline
 62
9
  6
CONTINUOUS
 70
0
 71
3
 72
9
 73
5
 74
0
 42
0.0000001
 43
0.0000001
 44
0.0000000001
 40
0.0
 40
0.0
 40
0.0
 40
0.0
 40
0.4906903537
 40
1.0
 40
1.0
 40
1.0
 40
1.0
 10
18.3821706397
 20
9.8049488717
 30
0.0
 10
18.3704906338
 20
9.8157017145
 30
0.0
 10
18.3472461287
 20
9.8382248557
 30
0.0
 10
18.3248487714
 20
9.8615802898
 30
0.0
 10
18.3135951576
 20
9.8736174439
 30
0.0
  0
SPLINE
  5
563
100
AcDbEntity
  8
0
100
AcDbSpline
 62
9
  6
CONTINUOUS
 70
0
 71
3
 72
10
 73
6
 74
0
 42
0.0000001
 43
0.0000001
 44
0.0000000001
 40
0.0
 40
0.0
 40
0.0
 40
0.0
 40
0.5087040959
 40
0.7569571978
 40
1.0
 40
1.0
 40
1.0
 40
1.0
 10
18.1859054224
 20
10.0162584791
 30
0.0
 10
18.1735140901
 20
10.0299769597
 30
0.0
 10
18.1548968724
 20
10.050232956
 30
0.0
 10
18.1296480953
 20
10.0763713424
 30
0.0
 10
18.1169774879
 20
10.0889522515
 30
0.0
 10
18.1106296953
 20
10.0950932987
 30
0.0
  0
SPLINE
  5
564
100
AcDbEntity
  8
0
100
AcDbSpline
 62
9
  6
CONTINUOUS
 70
0
 71
3
 72
11
 73
7
 74
0
 42
0.0000001
 43
0.0000001
 44
0.0000000001
 40
0.0
 40
0.0
 40
0.0
 40
0.0
 40
0.2563396756
 40
0.5073703135
 40
0.7546739115
 40
1.0
 40
1.0
 40
1.0
 40
1.0
 10
17.9538988897
 20
10.2031588093
 30
0.0
 10
17.9484132073
 20
10.2050736666
 30
0.0
 10
17.9374113846
 20
10.2084674938
 30
0.0
 10
17.9206997463
 20
10.2122036641
 30
0.0
 10
17.9039804555
 20
10.2144963509
 30
0.0
 10
17.8928105873
 20
10.2150446684
 30
0.0
 10
17.8872499934
 20
10.2150686119
 30
0.0
  0
SPLINE
  5
565
100
AcDbEntity
  8
0
100
AcDbSpline
 62
9
  6
CONTINUOUS
 70
0
 71
3
 72
9
 73
5
 74
0
 42
0.0000001
 43
0.0000001
 44
0.0000000001
 40
0.0
 40
0.0
 40
0.0
 40
0.0
 40
0.2571391769
 40
1.0
 40
1.0
 40
1.0
 40
1.0
 10
18.530950325
 20
9.69220067
 30
0.0
 10
18.5321004886
 20
9.6929051302
 30
0.0
 10
18.5366309237
 20
9.6955483844
 30
0.0
 10
18.5414000092
 20
9.6977930894
 30
0.0
 10
18.5450485961
 20
9.6991607003
 30
0.0
  0
SPLINE
  5
566
100
AcDbEntity
  8
0
100
AcDbSpline
 62
9
  6
CONTINUOUS
 70
0
 71
3
 72
17
 73
13
 74
0
 42
0.0000001
 43
0.0000001
 44
0.0000000001
 40
0.0
 40
0.0
 40
0.0
 40
0.0
 40
0.0491146985
 40
0.0986536724
 40
0.1490886261
 40
0.2008904212
 40
0.309987313
 40
0.4281561905
 40
0.5562951211
 40
0.6945584545
 40
0.8426457773
 40
1.0
 40
1.0
 40
1.0
 40
1.0
 10
18.6056625214
 20
9.4671522084
 30
0.0
 10
18.6048575622
 20
9.4664656188
 30
0.0
 10
18.6031597279
 20
9.4651782519
 30
0.0
 10
18.6003879799
 20
9.4635427485
 30
0.0
 10
18.5973943899
 20
9.4622103574
 30
0.0
 10
18.59304648
 20
9.460833322
 30
0.0
 10
18.5870591204
 20
9.4599465705
 30
0.0
 10
18.5793764821
 20
9.4601419032
 30
0.0
 10
18.5711854011
 20
9.4615325028
 30
0.0
 10
18.5626100895
 20
9.4640866514
 30
0.0
 10
18.5537758494
 20
9.4677754978
 30
0.0
 10
18.5479650561
 20
9.470885235
 30
0.0
 10
18.5450485972
 20
9.4726126262
 30
0.0
  0
SPLINE
  5
567
100
AcDbEntity
  8
0
100
AcDbSpline
 62
9
  6
CONTINUOUS
 70
0
 71
3
 72
31
 73
27
 74
0
 42
0.0000001
 43
0.0000001
 44
0.0000000001
 40
0.0
 40
0.0
 40
0.0
 40
0.0
 40
0.0227717871
 40
0.0457590997
 40
0.0690437973
 40
0.0927113772
 40
0.1415105688
 40
0.1927745822
 40
0.2195028513
 40
0.2470269375
 40
0.2753768755
 40
0.3045742559
 40
0.3346340639
 40
0.3655605777
 40
0.3973314322
 40
0.4299122598
 40
0.497335727
 40
0.5674266414
 40
0.6395363334
 40
0.6761147542
 40
0.712907316
 40
0.7866452651
 40
0.859754075
 40
0.9312181405
 40
0.9660069885
 40
1.0
 40
1.0
 40
1.0
 40
1.0
 10
19.1433834188
 20
10.0172113053
 30
0.0
 10
19.1371291728
 20
10.0165304326
 30
0.0
 10
19.1245969277
 20
10.0148095864
 30
0.0
 10
19.10586734
 20
10.0111456595
 30
0.0
 10
19.0871365439
 20
10.0063567406
 30
0.0
 10
19.0619112508
 20
9.9983483662
 30
0.0
 10
19.0302674318
 20
9.9852253283
 30
0.0
 10
18.9994276292
 20
9.9684903969
 30
0.0
 10
18.9748272346
 20
9.9528359071
 30
0.0
 10
18.9561272336
 20
9.9397429101
 30
0.0
 10
18.9374303895
 20
9.9254923158
 30
0.0
 10
18.9187356842
 20
9.9101118019
 30
0.0
 10
18.9000436876
 20
9.8936315502
 30
0.0
 10
18.8813602736
 20
9.8760866699
 30
0.0
 10
18.8626786596
 20
9.857538345
 30
0.0
 10
18.8374835782
 20
9.8312551796
 30
0.0
 10
18.8060931797
 20
9.7962665184
 30
0.0
 10
18.7688957349
 20
9.7518694322
 30
0.0
 10
18.7380523988
 20
9.7132885081
 30
0.0
 10
18.7132753676
 20
9.6816418022
 30
0.0
 10
18.6883696742
 20
9.6495250002
 30
0.0
 10
18.6573953369
 20
9.6093433079
 30
0.0
 10
18.6202614032
 20
9.5618162947
 30
0.0
 10
18.5890676008
 20
9.523306547
 30
0.0
 10
18.5639627018
 20
9.4937914932
 30
0.0
 10
18.5513622907
 20
9.4795648807
 30
0.0
 10
18.5450485961
 20
9.472612625
 30
0.0
  0
SPLINE
  5
568
100
AcDbEntity
  8
0
100
AcDbSpline
 62
7
  6
CONTINUOUS
 70
0
 71
3
 72
28
 73
24
 74
0
 42
0.0000001
 43
0.0000001
 44
0.0000000001
 40
0.0
 40
0.0
 40
0.0
 40
0.0
 40
0.009159579
 40
0.0133879911
 40
0.017571533
 40
0.0263470386
 40
0.0364469676
 40
0.0483930789
 40
0.0624312006
 40
0.0786600173
 40
0.0970979849
 40
0.1177187497
 40
0.1404686809
 40
0.1920600781
 40
0.2512072646
 40
0.3171150844
 40
0.388926121
 40
0.4658855699
 40
0.5473668698
 40
0.6327485784
 40
0.7214148777
 40
0.8127503976
 40
1.0
 40
1.0
 40
1.0
 40
1.0
 10
19.2324479372
 20
10.0174176787
 30
0.0
 10
19.232819554
 20
10.0173933018
 30
0.0
 10
19.2333665739
 20
10.0172840352
 30
0.0
 10
19.2340020036
 20
10.0169492047
 30
0.0
 10
19.2345503707
 20
10.0165092304
 30
0.0
 10
19.2350971664
 20
10.0157239546
 30
0.0
 10
19.2354959093
 20
10.0145247927
 30
0.0
 10
19.2356903581
 20
10.0130647973
 30
0.0
 10
19.2356939472
 20
10.0113451653
 30
0.0
 10
19.2355158292
 20
10.009370933
 30
0.0
 10
19.2351629413
 20
10.0071496177
 30
0.0
 10
19.2346424786
 20
10.0046901997
 30
0.0
 10
19.2336933696
 20
10.0009468537
 30
0.0
 10
19.2321070897
 20
9.9957534775
 30
0.0
 10
19.2297336717
 20
9.9889737136
 30
0.0
 10
19.2268865808
 20
9.9814921763
 30
0.0
 10
19.2236453028
 20
9.9733875377
 30
0.0
 10
19.2200648548
 20
9.9647373519
 30
0.0
 10
19.2161780548
 20
9.9556174458
 30
0.0
 10
19.2120192948
 20
9.9460964968
 30
0.0
 10
19.207596908
 20
9.9362539831
 30
0.0
 10
19.2013148142
 20
9.9227076959
 30
0.0
 10
19.196341978
 20
9.9125281687
 30
0.0
 10
19.1928820952
 20
9.9057464594
 30
0.0
  0
SPLINE
  5
569
100
AcDbEntity
  8
0
100
AcDbSpline
 62
9
  6
CONTINUOUS
 70
0
 71
3
 72
51
 73
47
 74
0
 42
0.0000001
 43
0.0000001
 44
0.0000000001
 40
0.0
 40
0.0
 40
0.0
 40
0.0
 40
0.0092839934
 40
0.0186666231
 40
0.0282355615
 40
0.0380736392
 40
0.0482516201
 40
0.0588275588
 40
0.0698488029
 40
0.081353058
 40
0.093369599
 40
0.1059204759
 40
0.1190216305
 40
0.13268388
 40
0.1617038512
 40
0.1929284169
 40
0.2262186216
 40
0.2614007291
 40
0.2982775523
 40
0.3366241164
 40
0.3761628149
 40
0.4165980166
 40
0.4576280352
 40
0.4989477785
 40
0.5402528458
 40
0.5812402672
 40
0.6216089097
 40
0.6610614096
 40
0.6993093413
 40
0.7361101016
 40
0.7712585298
 40
0.8045652658
 40
0.8204756018
 40
0.8358651107
 40
0.8650320658
 40
0.8788123003
 40
0.8920621604
 40
0.9047904388
 40
0.9170099475
 40
0.9287382445
 40
0.9399984596
 40
0.9612284947
 40
0.9712967337
 40
0.9810716894
 40
0.9906169989
 40
1.0
 40
1.0
 40
1.0
 40
1.0
 10
17.5582691699
 20
10.4150859117
 30
0.0
 10
17.5542617777
 20
10.4150460527
 30
0.0
 10
17.5462028323
 20
10.4145672533
 30
0.0
 10
17.534147168
 20
10.4126546694
 30
0.0
 10
17.5220962169
 20
10.4095441482
 30
0.0
 10
17.5100572928
 20
10.4052339545
 30
0.0
 10
17.4980294145
 20
10.3997484583
 30
0.0
 10
17.4860105144
 20
10.3931141872
 30
0.0
 10
17.4739990571
 20
10.3853562106
 30
0.0
 10
17.4619934132
 20
10.3764991264
 30
0.0
 10
17.4499921416
 20
10.3665669511
 30
0.0
 10
17.4379940752
 20
10.3555833912
 30
0.0
 10
17.4259981456
 20
10.3435719182
 30
0.0
 10
17.4096767414
 20
10.3258599845
 30
0.0
 10
17.3893683343
 20
10.3012230218
 30
0.0
 10
17.3654756945
 20
10.2686564365
 30
0.0
 10
17.3415767551
 20
10.2328527114
 30
0.0
 10
17.3176715048
 20
10.1941585526
 30
0.0
 10
17.2937622386
 20
10.1529258627
 30
0.0
 10
17.2698611014
 20
10.1095306989
 30
0.0
 10
17.2459553659
 20
10.0643938539
 30
0.0
 10
17.2220452765
 20
10.0179534646
 30
0.0
 10
17.1981322592
 20
9.9706520579
 30
0.0
 10
17.1742170845
 20
9.9229316201
 30
0.0
 10
17.1503015748
 20
9.8752319073
 30
0.0
 10
17.1263876812
 20
9.8279908064
 30
0.0
 10
17.1024764704
 20
9.7816458244
 30
0.0
 10
17.0785702465
 20
9.7366319465
 30
0.0
 10
17.0546569384
 20
9.6933721222
 30
0.0
 10
17.0307408415
 20
9.6522475261
 30
0.0
 10
17.0068315608
 20
9.6136039743
 30
0.0
 10
16.9866155329
 20
9.5833004245
 30
0.0
 10
16.9703823882
 20
9.5606199837
 30
0.0
 10
16.954676138
 20
9.5397710138
 30
0.0
 10
16.9387141379
 20
9.5202699552
 30
0.0
 10
16.9224114133
 20
9.5023004194
 30
0.0
 10
16.9104150394
 20
9.4900209941
 30
0.0
 10
16.8984170913
 20
9.4787031454
 30
0.0
 10
16.8864171257
 20
9.4683674285
 30
0.0
 10
16.8744126492
 20
9.4590334152
 30
0.0
 10
16.8587132098
 20
9.4481669857
 30
0.0
 10
16.8426664725
 20
9.4390845568
 30
0.0
 10
16.8263400671
 20
9.4321325654
 30
0.0
 10
16.8143030502
 20
9.4280823468
 30
0.0
 10
16.8022622321
 20
9.425103308
 30
0.0
 10
16.7941806612
 20
9.4238206758
 30
0.0
 10
16.7901564559
 20
9.4233613989
 30
0.0
  0
SPLINE
  5
56A
100
AcDbEntity
  8
0
100
AcDbSpline
 62
9
  6
CONTINUOUS
 70
0
 71
3
 72
11
 73
7
 74
0
 42
0.0000001
 43
0.0000001
 44
0.0000000001
 40
0.0
 40
0.0
 40
0.0
 40
0.0
 40
0.2443035821
 40
0.4911481591
 40
0.7425401554
 40
1.0
 40
1.0
 40
1.0
 40
1.0
 10
17.0748694996
 20
9.4953265592
 30
0.0
 10
17.0676091231
 20
9.4953480119
 30
0.0
 10
17.0530050371
 20
9.4961645079
 30
0.0
 10
17.031172031
 20
9.4995830325
 30
0.0
 10
17.0093631222
 20
9.50505791
 30
0.0
 10
16.9950277844
 20
9.5099267845
 30
0.0
 10
16.9878749833
 20
9.5126436397
 30
0.0
  0
LINE
  5
56B
100
AcDbEntity
  8
0
100
AcDbLine
 62
9
  6
CONTINUOUS
 10
16.8165822906
 20
9.6198552778
 11
16.7495183702
 21
9.6725069494
  0
SPLINE
  5
56C
100
AcDbEntity
  8
0
100
AcDbSpline
 62
9
  6
CONTINUOUS
 70
0
 71
3
 72
9
 73
5
 74
0
 42
0.0000001
 43
0.0000001
 44
0.0000000001
 40
0.0
 40
0.0
 40
0.0
 40
0.0
 40
0.4967191881
 40
1.0
 40
1.0
 40
1.0
 40
1.0
 10
17.7158034359
 20
9.4185122884
 30
0.0
 10
17.709888103
 20
9.4187641247
 30
0.0
 10
17.697997315
 20
9.4198515371
 30
0.0
 10
17.6862647415
 20
9.4220605201
 30
0.0
 10
17.6804253124
 20
9.4234345313
 30
0.0
  0
SPLINE
  5
56D
100
AcDbEntity
  8
0
100
AcDbSpline
 62
9
  6
CONTINUOUS
 70
0
 71
3
 72
11
 73
7
 74
0
 42
0.0000001
 43
0.0000001
 44
0.0000000001
 40
0.0
 40
0.0
 40
0.0
 40
0.0
 40
0.2389577551
 40
0.485726341
 40
0.7396499675
 40
1.0
 40
1.0
 40
1.0
 40
1.0
 10
17.5218209945
 20
9.5245506727
 30
0.0
 10
17.5155684223
 20
9.5307691154
 30
0.0
 10
17.5030879469
 20
9.5436409253
 30
0.0
 10
17.4846843773
 20
9.5638036366
 30
0.0
 10
17.4662806298
 20
9.5850219351
 30
0.0
 10
17.4541504153
 20
9.5996195778
 30
0.0
 10
17.4480738819
 20
9.6070617536
 30
0.0
  0
SPLINE
  5
56E
100
AcDbEntity
  8
0
100
AcDbSpline
 62
9
  6
CONTINUOUS
 70
0
 71
3
 72
9
 73
5
 74
0
 42
0.0000001
 43
0.0000001
 44
0.0000000001
 40
0.0
 40
0.0
 40
0.0
 40
0.0
 40
0.5047485825
 40
1.0
 40
1.0
 40
1.0
 40
1.0
 10
17.3262997312
 20
9.7674942611
 30
0.0
 10
17.31411107
 20
9.7840227738
 30
0.0
 10
17.2899054845
 20
9.8167264651
 30
0.0
 10
17.2652344961
 20
9.8490844976
 30
0.0
 10
17.2528143265
 20
9.8649518449
 30
0.0
  0
SPLINE
  5
56F
100
AcDbEntity
  8
0
100
AcDbSpline
 62
9
  6
CONTINUOUS
 70
0
 71
3
 72
9
 73
5
 74
0
 42
0.0000001
 43
0.0000001
 44
0.0000000001
 40
0.0
 40
0.0
 40
0.0
 40
0.0
 40
0.5150705472
 40
1.0
 40
1.0
 40
1.0
 40
1.0
 10
17.1215442383
 20
10.0099065746
 30
0.0
 10
17.111995226
 20
10.0183673019
 30
0.0
 10
17.0929409356
 20
10.0342267037
 30
0.0
 10
17.0726888231
 20
10.0485520703
 30
0.0
 10
17.0625534397
 20
10.0549979327
 30
0.0
  0
SPLINE
  5
570
100
AcDbEntity
  8
0
100
AcDbSpline
 62
9
  6
CONTINUOUS
 70
0
 71
3
 72
9
 73
5
 74
0
 42
0.0000001
 43
0.0000001
 44
0.0000000001
 40
0.0
 40
0.0
 40
0.0
 40
0.0
 40
0.2476460055
 40
1.0
 40
1.0
 40
1.0
 40
1.0
 10
16.7400632863
 20
9.6120512202
 30
0.0
 10
16.7354889172
 20
9.6126490408
 30
0.0
 10
16.7170647289
 20
9.6154233446
 30
0.0
 10
16.6988543061
 20
9.6195278483
 30
0.0
 10
16.6853168364
 20
9.6231559352
 30
0.0
  0
SPLINE
  5
571
100
AcDbEntity
  8
0
100
AcDbSpline
 62
9
  6
CONTINUOUS
 70
0
 71
3
 72
11
 73
7
 74
0
 42
0.0000001
 43
0.0000001
 44
0.0000000001
 40
0.0
 40
0.0
 40
0.0
 40
0.0
 40
0.2451683512
 40
0.4923975875
 40
0.7434793509
 40
1.0
 40
1.0
 40
1.0
 40
1.0
 10
17.3959063632
 20
9.431234874
 30
0.0
 10
17.3902553606
 20
9.4312596272
 30
0.0
 10
17.3789017937
 20
9.4318311591
 30
0.0
 10
17.361910313
 20
9.434213296
 30
0.0
 10
17.3449279446
 20
9.4380837627
 30
0.0
 10
17.3337510056
 20
9.4415884554
 30
0.0
 10
17.3281776346
 20
9.4435627501
 30
0.0
  0
SPLINE
  5
572
100
AcDbEntity
  8
0
100
AcDbSpline
 62
9
  6
CONTINUOUS
 70
0
 71
3
 72
10
 73
6
 74
0
 42
0.0000001
 43
0.0000001
 44
0.0000000001
 40
0.0
 40
0.0
 40
0.0
 40
0.0
 40
0.2431063497
 40
0.4913792022
 40
1.0
 40
1.0
 40
1.0
 40
1.0
 10
17.1723737435
 20
9.5513039631
 30
0.0
 10
17.1660177698
 20
9.5574524362
 30
0.0
 10
17.1533307222
 20
9.5700460971
 30
0.0
 10
17.1280488646
 20
9.5962024397
 30
0.0
 10
17.1094041019
 20
9.6164668034
 30
0.0
 10
17.0969937842
 20
9.6301886745
 30
0.0
  0
SPLINE
  5
573
100
AcDbEntity
  8
0
100
AcDbSpline
 62
9
  6
CONTINUOUS
 70
0
 71
3
 72
9
 73
5
 74
0
 42
0.0000001
 43
0.0000001
 44
0.0000000001
 40
0.0
 40
0.0
 40
0.0
 40
0.0
 40
0.5094554445
 40
1.0
 40
1.0
 40
1.0
 40
1.0
 10
16.9693221109
 20
9.7725582196
 30
0.0
 10
16.9580671912
 20
9.7845755139
 30
0.0
 10
16.9356658449
 20
9.8078777905
 30
0.0
 10
16.9123987642
 20
9.8303261238
 30
0.0
 10
16.9007129263
 20
9.8410395634
 30
0.0
  0
SPLINE
  5
574
100
AcDbEntity
  8
0
100
AcDbSpline
 62
9
  6
CONTINUOUS
 70
0
 71
3
 72
18
 73
14
 74
0
 42
0.0000001
 43
0.0000001
 44
0.0000000001
 40
0.0
 40
0.0
 40
0.0
 40
0.0
 40
0.0516144155
 40
0.1036459209
 40
0.1564212281
 40
0.2102409167
 40
0.3220067968
 40
0.4408103007
 40
0.503242647
 40
0.5677845655
 40
0.703309829
 40
0.8474631977
 40
1.0
 40
1.0
 40
1.0
 40
1.0
 10
16.9195228637
 20
10.2869785589
 30
0.0
 10
16.915778383
 20
10.2869175701
 30
0.0
 10
16.9082606945
 20
10.2864804332
 30
0.0
 10
16.8970105873
 20
10.2848973719
 30
0.0
 10
16.8857635838
 20
10.2823984798
 30
0.0
 10
16.8705867974
 20
10.2778066725
 30
0.0
 10
16.8515316802
 20
10.2697147416
 30
0.0
 10
16.8331016988
 20
10.2590266635
 30
0.0
 10
16.8183905769
 20
10.248938432
 30
0.0
 10
16.8031916755
 20
10.2374500656
 30
0.0
 10
16.7842359292
 20
10.2211477529
 30
0.0
 10
16.7618633348
 20
10.199147952
 30
0.0
 10
16.7473465121
 20
10.1832386963
 30
0.0
 10
16.7400632849
 20
10.1749052691
 30
0.0
  0
LINE
  5
575
100
AcDbEntity
  8
0
100
AcDbLine
 62
9
  6
CONTINUOUS
 10
16.2749847029
 20
10.0541474167
 11
16.2740842528
 21
10.0541436651
  0
SPLINE
  5
576
100
AcDbEntity
  8
0
100
AcDbSpline
 62
9
  6
CONTINUOUS
 70
0
 71
3
 72
13
 73
9
 74
0
 42
0.0000001
 43
0.0000001
 44
0.0000000001
 40
0.0
 40
0.0
 40
0.0
 40
0.0
 40
0.1208842126
 40
0.2423207533
 40
0.3647316915
 40
0.4884531719
 40
0.7406640647
 40
1.0
 40
1.0
 40
1.0
 40
1.0
 10
16.2740842528
 20
10.0541436651
 30
0.0
 10
16.2675741407
 20
10.0541063375
 30
0.0
 10
16.2545229314
 20
10.0535874341
 30
0.0
 10
16.2349744421
 20
10.0515496269
 30
0.0
 10
16.2154323854
 20
10.0483225581
 30
0.0
 10
16.1892235435
 20
10.0424906204
 30
0.0
 10
16.1564405227
 20
10.0325242755
 30
0.0
 10
16.1307888785
 20
10.0224099045
 30
0.0
 10
16.1179582207
 20
10.016892807
 30
0.0
  0
SPLINE
  5
577
100
AcDbEntity
  8
0
100
AcDbSpline
 62
9
  6
CONTINUOUS
 70
0
 71
3
 72
11
 73
7
 74
0
 42
0.0000001
 43
0.0000001
 44
0.0000000001
 40
0.0
 40
0.0
 40
0.0
 40
0.0
 40
0.2342179806
 40
0.4768197163
 40
0.7312142512
 40
1.0
 40
1.0
 40
1.0
 40
1.0
 10
16.7001075964
 20
9.9443907479
 30
0.0
 10
16.7030810052
 20
9.9432444251
 30
0.0
 10
16.7094016261
 20
9.9415582541
 30
0.0
 10
16.7193874867
 20
9.940932329
 30
0.0
 10
16.7297841502
 20
9.9421772982
 30
0.0
 10
16.736645182
 20
9.9442061693
 30
0.0
 10
16.7400632849
 20
9.9455063877
 30
0.0
  0
SPLINE
  5
578
100
AcDbEntity
  8
0
100
AcDbSpline
 62
9
  6
CONTINUOUS
 70
0
 71
3
 72
27
 73
23
 74
0
 42
0.0000001
 43
0.0000001
 44
0.0000000001
 40
0.0
 40
0.0
 40
0.0
 40
0.0
 40
0.024316353
 40
0.0487962235
 40
0.0736248333
 40
0.0989521237
 40
0.1514700741
 40
0.2069950873
 40
0.2657728403
 40
0.2964260549
 40
0.3279096924
 40
0.3602027644
 40
0.3932409521
 40
0.4611750098
 40
0.5309347239
 40
0.6016188252
 40
0.6723303922
 40
0.7422713508
 40
0.8107122092
 40
0.8769067332
 40
0.9401704639
 40
1.0
 40
1.0
 40
1.0
 40
1.0
 10
3.285609387
 20
9.6977855881
 30
0.0
 10
3.284153819
 20
9.6970004859
 30
0.0
 10
3.2813200091
 20
9.6952563784
 30
0.0
 10
3.2773833688
 20
9.6921443014
 30
0.0
 10
3.2737795072
 20
9.6885541231
 30
0.0
 10
3.2693814982
 20
9.6831156566
 30
0.0
 10
3.2647892214
 20
9.6752228495
 30
0.0
 10
3.2608898044
 20
9.6645151363
 30
0.0
 10
3.2590177213
 20
9.6547936697
 30
0.0
 10
3.2583446688
 20
9.64659226
 30
0.0
 10
3.2582773667
 20
9.6401646024
 30
0.0
 10
3.2586588118
 20
9.6335862925
 30
0.0
 10
3.2597542928
 20
9.6245841155
 30
0.0
 10
3.2621894217
 20
9.6132023984
 30
0.0
 10
3.2666427484
 20
9.5997213531
 30
0.0
 10
3.2725554354
 20
9.5866050174
 30
0.0
 10
3.2798321793
 20
9.5741762036
 30
0.0
 10
3.2883622405
 20
9.5627606816
 30
0.0
 10
3.2978827683
 20
9.5525757081
 30
0.0
 10
3.3081530422
 20
9.5438272714
 30
0.0
 10
3.3189287869
 20
9.5367229798
 30
0.0
 10
3.3265258398
 20
9.5331140562
 30
0.0
 10
3.3303360882
 20
9.5316858492
 30
0.0
  0
SPLINE
  5
579
100
AcDbEntity
  8
0
100
AcDbSpline
 62
9
  6
CONTINUOUS
 70
0
 71
3
 72
25
 73
21
 74
0
 42
0.0000001
 43
0.0000001
 44
0.0000000001
 40
0.0
 40
0.0
 40
0.0
 40
0.0
 40
0.0059336836
 40
0.0127168304
 40
0.0209052402
 40
0.0307993028
 40
0.0425514179
 40
0.0562368126
 40
0.0718897235
 40
0.0895214442
 40
0.130698774
 40
0.17967267
 40
0.2362745207
 40
0.3002936036
 40
0.3712552842
 40
0.4484332565
 40
0.5310820499
 40
0.6184505333
 40
0.8043230133
 40
1.0
 40
1.0
 40
1.0
 40
1.0
 10
3.2586616552
 20
10.0395901366
 30
0.0
 10
3.2587725233
 20
10.0397204297
 30
0.0
 10
3.2590729194
 20
10.0399491544
 30
0.0
 10
3.2596567666
 20
10.0401282114
 30
0.0
 10
3.2603763726
 20
10.040174437
 30
0.0
 10
3.2612351815
 20
10.0400943352
 30
0.0
 10
3.2622345743
 20
10.0398900046
 30
0.0
 10
3.263373839
 20
10.0395617542
 30
0.0
 10
3.2646511748
 20
10.0391100795
 30
0.0
 10
3.2666402762
 20
10.0383006985
 30
0.0
 10
3.2694486458
 20
10.0369648655
 30
0.0
 10
3.2731752488
 20
10.0349588681
 30
0.0
 10
3.2773909987
 20
10.0324796487
 30
0.0
 10
3.2820667378
 20
10.0295376334
 30
0.0
 10
3.2871649948
 20
10.0261567618
 30
0.0
 10
3.2926388461
 20
10.0223728643
 30
0.0
 10
3.298434702
 20
10.0182246718
 30
0.0
 10
3.3066923609
 20
10.0121333545
 30
0.0
 10
3.317413432
 20
10.0038943732
 30
0.0
 10
3.3259819689
 20
9.9969936356
 30
0.0
 10
3.3303360882
 20
9.9934060581
 30
0.0
  0
SPLINE
  5
57A
100
AcDbEntity
  8
0
100
AcDbSpline
 62
7
  6
CONTINUOUS
 70
0
 71
3
 72
14
 73
10
 74
0
 42
0.0000001
 43
0.0000001
 44
0.0000000001
 40
0.0
 40
0.0
 40
0.0
 40
0.0
 40
0.0806532814
 40
0.1742333861
 40
0.2806925053
 40
0.3998403633
 40
0.5315564688
 40
0.6757054179
 40
1.0
 40
1.0
 40
1.0
 40
1.0
 10
2.6496949844
 20
9.6308680636
 30
0.0
 10
2.6506263017
 20
9.6314803883
 30
0.0
 10
2.6525541814
 20
9.6329313624
 30
0.0
 10
2.6554467644
 20
9.6355201612
 30
0.0
 10
2.6585377302
 20
9.6386706859
 30
0.0
 10
2.6618099679
 20
9.6423710701
 30
0.0
 10
2.6652555918
 20
9.6466067021
 30
0.0
 10
2.6702724306
 20
9.6532126059
 30
0.0
 10
2.6739681656
 20
9.6585314667
 30
0.0
 10
2.6764635265
 20
9.662254047
 30
0.0
  0
SPLINE
  5
57B
100
AcDbEntity
  8
0
100
AcDbSpline
 62
9
  6
CONTINUOUS
 70
0
 71
3
 72
20
 73
16
 74
0
 42
0.0000001
 43
0.0000001
 44
0.0000000001
 40
0.0
 40
0.0
 40
0.0
 40
0.0
 40
0.055346383
 40
0.1111249443
 40
0.1676369912
 40
0.2251171408
 40
0.2837252687
 40
0.3435574619
 40
0.4046555169
 40
0.4670150492
 40
0.5305893098
 40
0.595294715
 40
0.7276279417
 40
0.8629343781
 40
1.0
 40
1.0
 40
1.0
 40
1.0
 10
5.433989731
 20
9.5464611279
 30
0.0
 10
5.4407381747
 20
9.5465649341
 30
0.0
 10
5.454284973
 20
9.5473503828
 30
0.0
 10
5.4745521035
 20
9.5501657859
 30
0.0
 10
5.4948069688
 20
9.5545345319
 30
0.0
 10
5.5150461099
 20
9.5603652039
 30
0.0
 10
5.5352732389
 20
9.5675472763
 30
0.0
 10
5.555490509
 20
9.575973932
 30
0.0
 10
5.5757001566
 20
9.585538188
 30
0.0
 10
5.5959032533
 20
9.5961342253
 30
0.0
 10
5.6161012586
 20
9.6076529767
 30
0.0
 10
5.6432288299
 20
9.6242162279
 30
0.0
 10
5.6770150556
 20
9.6466230073
 30
0.0
 10
5.7172573758
 20
9.6751982423
 30
0.0
 10
5.7439942247
 20
9.6949061094
 30
0.0
 10
5.7574264647
 20
9.7048535015
 30
0.0
  0
SPLINE
  5
57C
100
AcDbEntity
  8
0
100
AcDbSpline
 62
9
  6
CONTINUOUS
 70
0
 71
3
 72
11
 73
7
 74
0
 42
0.0000001
 43
0.0000001
 44
0.0000000001
 40
0.0
 40
0.0
 40
0.0
 40
0.0
 40
0.2452574144
 40
0.4927428592
 40
0.7439496778
 40
1.0
 40
1.0
 40
1.0
 40
1.0
 10
4.95772394
 20
10.0994752717
 30
0.0
 10
4.9650686884
 20
10.0993487052
 30
0.0
 10
4.9798207552
 20
10.0984136379
 30
0.0
 10
5.0018789189
 20
10.0950958137
 30
0.0
 10
5.0239198565
 20
10.0899804261
 30
0.0
 10
5.0384486893
 20
10.0854924783
 30
0.0
 10
5.0457034627
 20
10.0830058328
 30
0.0
  0
SPLINE
  5
57D
100
AcDbEntity
  8
0
100
AcDbSpline
 62
9
  6
CONTINUOUS
 70
0
 71
3
 72
52
 73
48
 74
0
 42
0.0000001
 43
0.0000001
 44
0.0000000001
 40
0.0
 40
0.0
 40
0.0
 40
0.0
 40
0.0091144697
 40
0.0183183009
 40
0.0276907377
 40
0.0373091551
 40
0.0575458665
 40
0.0682883693
 40
0.0794990557
 40
0.0912107952
 40
0.1034497028
 40
0.1162361044
 40
0.129585414
 40
0.1580079219
 40
0.1730834785
 40
0.18871864
 40
0.2216015099
 40
0.2565101885
 40
0.2932703773
 40
0.3316588417
 40
0.3713900699
 40
0.412164187
 40
0.4536744824
 40
0.4956095415
 40
0.5376440369
 40
0.5794389933
 40
0.6206561059
 40
0.6609605621
 40
0.7000316812
 40
0.7375957295
 40
0.7734020025
 40
0.7905728101
 40
0.8072184127
 40
0.8388342171
 40
0.8537741436
 40
0.8681251452
 40
0.8818848153
 40
0.8950547243
 40
0.9076413044
 40
0.9196569353
 40
0.9420511368
 40
0.9525147408
 40
0.9625585235
 40
0.9722495606
 40
0.9816634624
 40
0.990883676
 40
1.0
 40
1.0
 40
1.0
 40
1.0
 10
3.5152388703
 20
9.3584225363
 30
0.0
 10
3.5194089479
 20
9.3584722221
 30
0.0
 10
3.5277905752
 20
9.3589632829
 30
0.0
 10
3.5403320752
 20
9.3608798034
 30
0.0
 10
3.5528711572
 20
9.3639887497
 30
0.0
 10
3.569862436
 20
9.3698333686
 30
0.0
 10
3.5865926749
 20
9.3781067056
 30
0.0
 10
3.6029330477
 20
9.3883988521
 30
0.0
 10
3.6154306451
 20
9.3974216501
 30
0.0
 10
3.6279217948
 20
9.4075726258
 30
0.0
 10
3.640409878
 20
9.4188342622
 30
0.0
 10
3.6528954041
 20
9.4311879615
 30
0.0
 10
3.6698968045
 20
9.4494750277
 30
0.0
 10
3.686497198
 20
9.4695311118
 30
0.0
 10
3.7028126844
 20
9.491117265
 30
0.0
 10
3.7197323365
 20
9.5147940815
 30
0.0
 10
3.7407981695
 20
9.5466426248
 30
0.0
 10
3.7656777469
 20
9.5875119454
 30
0.0
 10
3.7905538978
 20
9.6313030795
 30
0.0
 10
3.815420518
 20
9.6776172351
 30
0.0
 10
3.84029515
 20
9.7260000104
 30
0.0
 10
3.8651748755
 20
9.7759798365
 30
0.0
 10
3.8900587736
 20
9.8270808531
 30
0.0
 10
3.9149411563
 20
9.8788228876
 30
0.0
 10
3.9398198226
 20
9.9307110981
 30
0.0
 10
3.9646973435
 20
9.9822355382
 30
0.0
 10
3.9895716572
 20
10.0328816574
 30
0.0
 10
4.0144420782
 20
10.0821384502
 30
0.0
 10
4.0393197702
 20
10.1295131151
 30
0.0
 10
4.0641928268
 20
10.1745542849
 30
0.0
 10
4.0851956865
 20
10.2102716567
 30
0.0
 10
4.1020641465
 20
10.2372976353
 30
0.0
 10
4.118416629
 20
10.2623773188
 30
0.0
 10
4.1350079458
 20
10.2860808588
 30
0.0
 10
4.151965976
 20
10.3082003641
 30
0.0
 10
4.1644441722
 20
10.3234468313
 30
0.0
 10
4.1769231562
 20
10.3376316613
 30
0.0
 10
4.1894032365
 20
10.3507216017
 30
0.0
 10
4.2018868711
 20
10.3626852343
 30
0.0
 10
4.2181525698
 20
10.3767571354
 30
0.0
 10
4.2348100807
 20
10.388880634
 30
0.0
 10
4.2518782857
 20
10.3986108271
 30
0.0
 10
4.2644006607
 20
10.4044892257
 30
0.0
 10
4.2769323526
 20
10.4091048212
 30
0.0
 10
4.2894739514
 20
10.412450158
 30
0.0
 10
4.3020220422
 20
10.4145173411
 30
0.0
 10
4.31041299
 20
10.4150397889
 30
0.0
 10
4.3145839688
 20
10.4150848297
 30
0.0
  0
LINE
  5
57E
100
AcDbEntity
  8
0
100
AcDbLine
 62
9
  6
CONTINUOUS
 10
4.3145839688
 20
10.4150848297
 11
4.315370614
 21
10.4150907897
  0
SPLINE
  5
57F
100
AcDbEntity
  8
0
100
AcDbSpline
 62
9
  6
CONTINUOUS
 70
0
 71
3
 72
30
 73
26
 74
0
 42
0.0000001
 43
0.0000001
 44
0.0000000001
 40
0.0
 40
0.0
 40
0.0
 40
0.0
 40
0.0512105496
 40
0.0781869092
 40
0.1061354612
 40
0.1350656224
 40
0.164953193
 40
0.1957475722
 40
0.2273799075
 40
0.2597671427
 40
0.2928161424
 40
0.3604993268
 40
0.4295853134
 40
0.4992042389
 40
0.5685395823
 40
0.6368301057
 40
0.6703932346
 40
0.7034770274
 40
0.7360174638
 40
0.7679600297
 40
0.799274361
 40
0.8299388604
 40
0.8892490923
 40
0.9458761491
 40
1.0
 40
1.0
 40
1.0
 40
1.0
 10
5.1500302868
 20
9.4308763881
 30
0.0
 10
5.1630794967
 20
9.4350198177
 30
0.0
 10
5.1824368983
 20
9.4432125992
 30
0.0
 10
5.2073081355
 20
9.4568847512
 30
0.0
 10
5.226283391
 20
9.4688511097
 30
0.0
 10
5.2452448127
 20
9.4822279765
 30
0.0
 10
5.2642006164
 20
9.4968902781
 30
0.0
 10
5.2831527788
 20
9.5127069529
 30
0.0
 10
5.3021029036
 20
9.5295479797
 30
0.0
 10
5.3210521879
 20
9.5472828121
 30
0.0
 10
5.346519798
 20
9.5721459939
 30
0.0
 10
5.3781908461
 20
9.6046849732
 30
0.0
 10
5.4159096635
 20
9.6449592268
 30
0.0
 10
5.4536514027
 20
9.6858143053
 30
0.0
 10
5.4914005021
 20
9.7263731405
 30
0.0
 10
5.5230713468
 20
9.7594177615
 30
0.0
 10
5.54849758
 20
9.785011525
 30
0.0
 10
5.567458121
 20
9.8035521841
 30
0.0
 10
5.5864199113
 20
9.821466997
 30
0.0
 10
5.6053889154
 20
9.8386782105
 30
0.0
 10
5.624359745
 20
9.8551327749
 30
0.0
 10
5.6493763071
 20
9.875768245
 30
0.0
 10
5.6806198377
 20
9.8994763818
 30
0.0
 10
5.7186020289
 20
9.9245293736
 30
0.0
 10
5.7444970061
 20
9.938964669
 30
0.0
 10
5.7574264647
 20
9.945461837
 30
0.0
  0
SPLINE
  5
580
100
AcDbEntity
  8
0
100
AcDbSpline
 62
9
  6
CONTINUOUS
 70
0
 71
3
 72
13
 73
9
 74
0
 42
0.0000001
 43
0.0000001
 44
0.0000000001
 40
0.0
 40
0.0
 40
0.0
 40
0.0
 40
0.1131878145
 40
0.2277601556
 40
0.3448809579
 40
0.4655875924
 40
0.7209302764
 40
1.0
 40
1.0
 40
1.0
 40
1.0
 10
5.195708872
 20
10.1800641893
 30
0.0
 10
5.1966349259
 20
10.1792772694
 30
0.0
 10
5.1983971106
 20
10.1775703137
 30
0.0
 10
5.2007142621
 20
10.1746704898
 30
0.0
 10
5.2027037815
 20
10.1714414502
 30
0.0
 10
5.2049473384
 20
10.1666340509
 30
0.0
 10
5.2068437487
 20
10.15980631
 30
0.0
 10
5.2073176063
 20
10.1540556463
 30
0.0
 10
5.2073323572
 20
10.1510594423
 30
0.0
  0
SPLINE
  5
581
100
AcDbEntity
  8
0
100
AcDbSpline
 62
9
  6
CONTINUOUS
 70
0
 71
3
 72
11
 73
7
 74
0
 42
0.0000001
 43
0.0000001
 44
0.0000000001
 40
0.0
 40
0.0
 40
0.0
 40
0.0
 40
0.2559466402
 40
0.5072424358
 40
0.7548161611
 40
1.0
 40
1.0
 40
1.0
 40
1.0
 10
3.4216433039
 20
9.5624831138
 30
0.0
 10
3.4284773861
 20
9.5601294985
 30
0.0
 10
3.44215784
 20
9.5558463409
 30
0.0
 10
3.4628987694
 20
9.5508505295
 30
0.0
 10
3.4836577207
 20
9.5474698911
 30
0.0
 10
3.4975465465
 20
9.5463416476
 30
0.0
 10
3.5044655467
 20
9.5460767556
 30
0.0
  0
LINE
  5
582
100
AcDbEntity
  8
0
100
AcDbLine
 62
9
  6
CONTINUOUS
 10
3.2083708878
 20
9.6817046223
 11
3.209010508
 21
9.6813028394
  0
SPLINE
  5
583
100
AcDbEntity
  8
0
100
AcDbSpline
 62
9
  6
CONTINUOUS
 70
0
 71
3
 72
11
 73
7
 74
0
 42
0.0000001
 43
0.0000001
 44
0.0000000001
 40
0.0
 40
0.0
 40
0.0
 40
0.0
 40
0.2461996352
 40
0.4942004611
 40
0.7451220291
 40
1.0
 40
1.0
 40
1.0
 40
1.0
 10
4.3232342907
 20
10.2274684561
 30
0.0
 10
4.3274021827
 20
10.2273023562
 30
0.0
 10
4.3357597831
 20
10.2266832672
 30
0.0
 10
4.3482666869
 20
10.2249009108
 30
0.0
 10
4.3607707076
 20
10.2222588565
 30
0.0
 10
4.3690301758
 20
10.2199506643
 30
0.0
 10
4.3731524469
 20
10.218664582
 30
0.0
  0
SPLINE
  5
584
100
AcDbEntity
  8
0
100
AcDbSpline
 62
9
  6
CONTINUOUS
 70
0
 71
3
 72
10
 73
6
 74
0
 42
0.0000001
 43
0.0000001
 44
0.0000000001
 40
0.0
 40
0.0
 40
0.0
 40
0.0
 40
0.2406099892
 40
0.487947012
 40
1.0
 40
1.0
 40
1.0
 40
1.0
 10
4.5276374953
 20
10.1135948359
 30
0.0
 10
4.5340552794
 20
10.1071959833
 30
0.0
 10
4.5468674271
 20
10.0940147979
 30
0.0
 10
4.5724106581
 20
10.0663296789
 30
0.0
 10
4.5911075691
 20
10.0446723099
 30
0.0
 10
4.6035118245
 20
10.0299035533
 30
0.0
  0
SPLINE
  5
585
100
AcDbEntity
  8
0
100
AcDbSpline
 62
9
  6
CONTINUOUS
 70
0
 71
3
 72
9
 73
5
 74
0
 42
0.0000001
 43
0.0000001
 44
0.0000000001
 40
0.0
 40
0.0
 40
0.0
 40
0.0
 40
0.5071360863
 40
1.0
 40
1.0
 40
1.0
 40
1.0
 10
4.7265460983
 20
9.8768247192
 30
0.0
 10
4.7383927932
 20
9.8621004773
 30
0.0
 10
4.7619295944
 20
9.8332076805
 30
0.0
 10
4.7861419577
 20
9.8048712577
 30
0.0
 10
4.7983324248
 20
9.7911336932
 30
0.0
  0
SPLINE
  5
586
100
AcDbEntity
  8
0
100
AcDbSpline
 62
9
  6
CONTINUOUS
 70
0
 71
3
 72
9
 73
5
 74
0
 42
0.0000001
 43
0.0000001
 44
0.0000000001
 40
0.0
 40
0.0
 40
0.0
 40
0.0
 40
0.2583876564
 40
1.0
 40
1.0
 40
1.0
 40
1.0
 10
4.9383558734
 20
9.6629704782
 30
0.0
 10
4.9424351429
 20
9.6602702996
 30
0.0
 10
4.9584000543
 20
9.6500937835
 30
0.0
 10
4.975108656
 20
9.6410611668
 30
0.0
 10
4.9878726473
 20
9.6352111876
 30
0.0
  0
SPLINE
  5
587
100
AcDbEntity
  8
0
100
AcDbSpline
 62
9
  6
CONTINUOUS
 70
0
 71
3
 72
12
 73
8
 74
0
 42
0.0000001
 43
0.0000001
 44
0.0000000001
 40
0.0
 40
0.0
 40
0.0
 40
0.0
 40
0.2768291025
 40
0.531741825
 40
0.7702602824
 40
0.8857557905
 40
1.0
 40
1.0
 40
1.0
 40
1.0
 10
3.2583690215
 20
9.4936937246
 30
0.0
 10
3.2584790694
 20
9.4909623192
 30
0.0
 10
3.259089468
 20
9.4857172226
 30
0.0
 10
3.2613326995
 20
9.4784026694
 30
0.0
 10
3.2642746377
 20
9.4730959701
 30
0.0
 10
3.2671945738
 20
9.4694990542
 30
0.0
 10
3.2688293163
 20
9.4679163354
 30
0.0
 10
3.26968639
 20
9.4671827745
 30
0.0
  0
SPLINE
  5
588
100
AcDbEntity
  8
0
100
AcDbSpline
 62
9
  6
CONTINUOUS
 70
0
 71
3
 72
9
 73
5
 74
0
 42
0.0000001
 43
0.0000001
 44
0.0000000001
 40
0.0
 40
0.0
 40
0.0
 40
0.0
 40
0.2420963592
 40
1.0
 40
1.0
 40
1.0
 40
1.0
 10
3.479975806
 20
10.0114541767
 30
0.0
 10
3.4841393551
 20
10.0095326353
 30
0.0
 10
3.5011642235
 20
10.0012220278
 30
0.0
 10
3.517484701
 20
9.9914995162
 30
0.0
 10
3.5294381324
 20
9.9835498835
 30
0.0
  0
SPLINE
  5
589
100
AcDbEntity
  8
0
100
AcDbSpline
 62
9
  6
CONTINUOUS
 70
0
 71
3
 72
9
 73
5
 74
0
 42
0.0000001
 43
0.0000001
 44
0.0000000001
 40
0.0
 40
0.0
 40
0.0
 40
0.0
 40
0.4928282941
 40
1.0
 40
1.0
 40
1.0
 40
1.0
 10
3.669610501
 20
9.8548739571
 30
0.0
 10
3.6817698458
 20
9.8411525374
 30
0.0
 10
3.7059213001
 20
9.8128478475
 30
0.0
 10
3.7293936238
 20
9.7839847088
 30
0.0
 10
3.7412093766
 20
9.7692753513
 30
0.0
  0
SPLINE
  5
58A
100
AcDbEntity
  8
0
100
AcDbSpline
 62
9
  6
CONTINUOUS
 70
0
 71
3
 72
11
 73
7
 74
0
 42
0.0000001
 43
0.0000001
 44
0.0000000001
 40
0.0
 40
0.0
 40
0.0
 40
0.0
 40
0.2586411241
 40
0.5120548886
 40
0.7593933252
 40
1.0
 40
1.0
 40
1.0
 40
1.0
 10
3.8645035994
 20
9.615732492
 30
0.0
 10
3.8707191377
 20
9.60833021
 30
0.0
 10
3.8831251375
 20
9.5937591245
 30
0.0
 10
3.9019017738
 20
9.572476763
 30
0.0
 10
3.9206839147
 20
9.5521061466
 30
0.0
 10
3.9333917096
 20
9.5390241147
 30
0.0
 10
3.9397565618
 20
9.5326726795
 30
0.0
  0
SPLINE
  5
58B
100
AcDbEntity
  8
0
100
AcDbSpline
 62
9
  6
CONTINUOUS
 70
0
 71
3
 72
10
 73
6
 74
0
 42
0.0000001
 43
0.0000001
 44
0.0000000001
 40
0.0
 40
0.0
 40
0.0
 40
0.0
 40
0.5056815669
 40
0.7536059949
 40
1.0
 40
1.0
 40
1.0
 40
1.0
 10
4.0950454771
 20
9.4271964411
 30
0.0
 10
4.1042474334
 20
9.4243513023
 30
0.0
 10
4.1182762543
 20
9.4210154457
 30
0.0
 10
4.1372018913
 20
9.4187524836
 30
0.0
 10
4.1466209746
 20
9.4183609522
 30
0.0
 10
4.1513140442
 20
9.4183478012
 30
0.0
  0
SPLINE
  5
58C
100
AcDbEntity
  8
0
100
AcDbSpline
 62
9
  6
CONTINUOUS
 70
0
 71
3
 72
10
 73
6
 74
0
 42
0.0000001
 43
0.0000001
 44
0.0000000001
 40
0.0
 40
0.0
 40
0.0
 40
0.0
 40
0.2377998576
 40
0.4839957293
 40
1.0
 40
1.0
 40
1.0
 40
1.0
 10
4.1787514211
 20
10.1204572828
 30
0.0
 10
4.1848693576
 20
10.114600947
 30
0.0
 10
4.1970875189
 20
10.1024354609
 30
0.0
 10
4.2214695782
 20
10.0764695358
 30
0.0
 10
4.2391633805
 20
10.0558620672
 30
0.0
 10
4.2508450099
 20
10.0416754118
 30
0.0
  0
SPLINE
  5
58D
100
AcDbEntity
  8
0
100
AcDbSpline
 62
9
  6
CONTINUOUS
 70
0
 71
3
 72
9
 73
5
 74
0
 42
0.0000001
 43
0.0000001
 44
0.0000000001
 40
0.0
 40
0.0
 40
0.0
 40
0.0
 40
0.5023064282
 40
1.0
 40
1.0
 40
1.0
 40
1.0
 10
4.3726895846
 20
9.8783674984
 30
0.0
 10
4.3850591441
 20
9.8608840489
 30
0.0
 10
4.4096168957
 20
9.8260301203
 30
0.0
 10
4.434399452
 20
9.7913338008
 30
0.0
 10
4.4468842113
 20
9.7741750686
 30
0.0
  0
SPLINE
  5
58E
100
AcDbEntity
  8
0
100
AcDbSpline
 62
9
  6
CONTINUOUS
 70
0
 71
3
 72
9
 73
5
 74
0
 42
0.0000001
 43
0.0000001
 44
0.0000000001
 40
0.0
 40
0.0
 40
0.0
 40
0.0
 40
0.5165581506
 40
1.0
 40
1.0
 40
1.0
 40
1.0
 10
4.5732619664
 20
9.6181334807
 30
0.0
 10
4.5836849025
 20
9.6072299057
 30
0.0
 10
4.6044596288
 20
9.586679765
 30
0.0
 10
4.6266659955
 20
9.5676602753
 30
0.0
 10
4.6377972711
 20
9.5589779789
 30
0.0
  0
SPLINE
  5
58F
100
AcDbEntity
  8
0
100
AcDbSpline
 62
9
  6
CONTINUOUS
 70
0
 71
3
 72
13
 73
9
 74
0
 42
0.0000001
 43
0.0000001
 44
0.0000000001
 40
0.0
 40
0.0
 40
0.0
 40
0.0
 40
0.2695762286
 40
0.5233056583
 40
0.6455094338
 40
0.7652272928
 40
0.8831287968
 40
1.0
 40
1.0
 40
1.0
 40
1.0
 10
3.3303360894
 20
9.53168585
 30
0.0
 10
3.3342070582
 20
9.530234883
 30
0.0
 10
3.3419873926
 20
9.5280641819
 30
0.0
 10
3.3519296513
 20
9.5272943799
 30
0.0
 10
3.3595171696
 20
9.5279317403
 30
0.0
 10
3.3649428404
 20
9.5290017738
 30
0.0
 10
3.3701303692
 20
9.5306663022
 30
0.0
 10
3.3734113532
 20
9.5321741555
 30
0.0
 10
3.3749903617
 20
9.5330219834
 30
0.0
  0
SPLINE
  5
590
100
AcDbEntity
  8
0
100
AcDbSpline
 62
9
  6
CONTINUOUS
 70
0
 71
3
 72
51
 73
47
 74
0
 42
0.0000001
 43
0.0000001
 44
0.0000000001
 40
0.0
 40
0.0
 40
0.0
 40
0.0
 40
0.0090595068
 40
0.0182154649
 40
0.0275559165
 40
0.0371626191
 40
0.0471096011
 40
0.0574624788
 40
0.0795886489
 40
0.0914455736
 40
0.103856879
 40
0.1168349979
 40
0.1303864991
 40
0.1445131463
 40
0.1592127642
 40
0.1744799429
 40
0.190306608
 40
0.2235853731
 40
0.2588724698
 40
0.2959310971
 40
0.3345061388
 40
0.3743300631
 40
0.4151159488
 40
0.4565465365
 40
0.4982974393
 40
0.5814562788
 40
0.6222284559
 40
0.6620609431
 40
0.7006618033
 40
0.7377487581
 40
0.7730885935
 40
0.8065108078
 40
0.8224567954
 40
0.8378703419
 40
0.8527376537
 40
0.8670475488
 40
0.8939637476
 40
0.9065836959
 40
0.918665387
 40
0.9302318362
 40
0.9413113754
 40
0.9621419647
 40
0.9719958444
 40
0.9815447576
 40
0.9908544387
 40
1.0
 40
1.0
 40
1.0
 40
1.0
 10
4.1524132303
 20
9.2308505832
 30
0.0
 10
4.1565216946
 20
9.2308701484
 30
0.0
 10
4.164786315
 20
9.2313318343
 30
0.0
 10
4.1771497752
 20
9.2332800226
 30
0.0
 10
4.1895070124
 20
9.2364770043
 30
0.0
 10
4.2018546888
 20
9.2409138705
 30
0.0
 10
4.2141933559
 20
9.2465821148
 30
0.0
 10
4.2310031581
 20
9.2559767567
 30
0.0
 10
4.2474187506
 20
9.2677053418
 30
0.0
 10
4.2634529948
 20
9.2813351378
 30
0.0
 10
4.2757540299
 20
9.2929223301
 30
0.0
 10
4.2880515068
 20
9.3056036769
 30
0.0
 10
4.3003478701
 20
9.3193483293
 30
0.0
 10
4.3126432957
 20
9.3341236427
 30
0.0
 10
4.3249383346
 20
9.3498974586
 30
0.0
 10
4.3372333084
 20
9.366637455
 30
0.0
 10
4.3539061327
 20
9.3906044064
 30
0.0
 10
4.3746498152
 20
9.4227821101
 30
0.0
 10
4.3991448592
 20
9.4639548423
 30
0.0
 10
4.4236495227
 20
9.5078914021
 30
0.0
 10
4.4481619265
 20
9.5541630117
 30
0.0
 10
4.4726775648
 20
9.60233613
 30
0.0
 10
4.497189752
 20
9.6519585638
 30
0.0
 10
4.521705164
 20
9.7025516993
 30
0.0
 10
4.5543499889
 20
9.7705579323
 30
0.0
 10
4.5868704817
 20
9.838294083
 30
0.0
 10
4.6197776228
 20
9.9048741864
 30
0.0
 10
4.6442919475
 20
9.9530583592
 30
0.0
 10
4.6687988672
 20
9.9993650134
 30
0.0
 10
4.6933102188
 20
10.0433533681
 30
0.0
 10
4.7178323594
 20
10.0846281141
 30
0.0
 10
4.7385739154
 20
10.1169753316
 30
0.0
 10
4.7552270822
 20
10.1411810879
 30
0.0
 10
4.7675206428
 20
10.158164804
 30
0.0
 10
4.7798143703
 20
10.1742248411
 30
0.0
 10
4.7958793657
 20
10.1939512647
 30
0.0
 10
4.8122407067
 20
10.2121176026
 30
0.0
 10
4.829007112
 20
10.2284636297
 30
0.0
 10
4.8413134442
 20
10.2393856849
 30
0.0
 10
4.8536244511
 20
10.2492221134
 30
0.0
 10
4.8697105672
 20
10.2606337953
 30
0.0
 10
4.8861667114
 20
10.2701569884
 30
0.0
 10
4.9029202786
 20
10.2774257188
 30
0.0
 10
4.9152646433
 20
10.2816202163
 30
0.0
 10
4.9276173693
 20
10.2846385159
 30
0.0
 10
4.9359087068
 20
10.2858779399
 30
0.0
 10
4.9400346884
 20
10.2863002393
 30
0.0
  0
SPLINE
  5
591
100
AcDbEntity
  8
0
100
AcDbSpline
 62
9
  6
CONTINUOUS
 70
0
 71
3
 72
25
 73
21
 74
0
 42
0.0000001
 43
0.0000001
 44
0.0000000001
 40
0.0
 40
0.0
 40
0.0
 40
0.0
 40
0.1855693673
 40
0.3672703954
 40
0.4542326171
 40
0.5373024904
 40
0.6155093401
 40
0.6878955921
 40
0.75373319
 40
0.8125527702
 40
0.8639111026
 40
0.907389618
 40
0.926059136
 40
0.9426297322
 40
0.9570767828
 40
0.9693965084
 40
0.9796244112
 40
0.9878763113
 40
0.9944481027
 40
1.0
 40
1.0
 40
1.0
 40
1.0
 10
3.3303360894
 20
9.9934060599
 30
0.0
 10
3.3353383121
 20
9.9892844776
 30
0.0
 10
3.3451344885
 20
9.9810003577
 30
0.0
 10
3.3570031743
 20
9.9704697694
 30
0.0
 10
3.366032155
 20
9.9621384152
 30
0.0
 10
3.3723208269
 20
9.9561690102
 30
0.0
 10
3.3781503791
 20
9.9504568067
 30
0.0
 10
3.3834495375
 20
9.9450649924
 30
0.0
 10
3.3881624846
 20
9.9400487798
 30
0.0
 10
3.3922525015
 20
9.9354576075
 30
0.0
 10
3.3956881527
 20
9.9313332583
 30
0.0
 10
3.3980925606
 20
9.9281782951
 30
0.0
 10
3.399647748
 20
9.9259102411
 30
0.0
 10
3.4005702194
 20
9.9244395478
 30
0.0
 10
3.4013064589
 20
9.9231159467
 30
0.0
 10
3.4018535756
 20
9.921943771
 30
0.0
 10
3.4022095062
 20
9.9209258314
 30
0.0
 10
3.4023718692
 20
9.9200612207
 30
0.0
 10
3.4023322264
 20
9.9193395125
 30
0.0
 10
3.4021403302
 20
9.9189440623
 30
0.0
 10
3.4020156
 20
9.9187955863
 30
0.0
  0
SPLINE
  5
592
100
AcDbEntity
  8
0
100
AcDbSpline
 62
9
  6
CONTINUOUS
 70
0
 71
3
 72
25
 73
21
 74
0
 42
0.0000001
 43
0.0000001
 44
0.0000000001
 40
0.0
 40
0.0
 40
0.0
 40
0.0
 40
0.0822018517
 40
0.1630235272
 40
0.241892357
 40
0.3182681371
 40
0.3917543193
 40
0.4620591785
 40
0.5289436175
 40
0.5923249074
 40
0.6522512326
 40
0.708843488
 40
0.7623665625
 40
0.8132095937
 40
0.8377737726
 40
0.8618481063
 40
0.9088017444
 40
0.9546633098
 40
0.9773663806
 40
1.0
 40
1.0
 40
1.0
 40
1.0
 10
5.1353214003
 20
9.6499810688
 30
0.0
 10
5.1448971237
 20
9.6646321287
 30
0.0
 10
5.1639778168
 20
9.6936297773
 30
0.0
 10
5.1927701976
 20
9.7363370139
 30
0.0
 10
5.2215581601
 20
9.7775447967
 30
0.0
 10
5.2503659716
 20
9.8168204115
 30
0.0
 10
5.2791855957
 20
9.8538043434
 30
0.0
 10
5.3080024183
 20
9.888197186
 30
0.0
 10
5.3368457974
 20
9.9197136801
 30
0.0
 10
5.3657145678
 20
9.9481436713
 30
0.0
 10
5.3945947872
 20
9.9733484675
 30
0.0
 10
5.4235159425
 20
9.9951887671
 30
0.0
 10
5.4524785599
 20
10.0135866396
 30
0.0
 10
5.4769187407
 20
10.0261882746
 30
0.0
 10
5.4964297048
 20
10.0344562174
 30
0.0
 10
5.5155603372
 20
10.0414284779
 30
0.0
 10
5.5395837393
 20
10.0481198387
 30
0.0
 10
5.563897782
 20
10.0521569054
 30
0.0
 10
5.5832537875
 20
10.0537983622
 30
0.0
 10
5.5929073925
 20
10.0541093073
 30
0.0
 10
5.5977265381
 20
10.0541418714
 30
0.0
  0
SPLINE
  5
593
100
AcDbEntity
  8
0
100
AcDbSpline
 62
9
  6
CONTINUOUS
 70
0
 71
3
 72
13
 73
9
 74
0
 42
0.0000001
 43
0.0000001
 44
0.0000000001
 40
0.0
 40
0.0
 40
0.0
 40
0.0
 40
0.1161442179
 40
0.2336910233
 40
0.3532301599
 40
0.4753353889
 40
0.7293311685
 40
1.0
 40
1.0
 40
1.0
 40
1.0
 10
3.2257000327
 20
9.4903191952
 30
0.0
 10
3.2300781258
 20
9.490775991
 30
0.0
 10
3.2388586105
 20
9.4919981192
 30
0.0
 10
3.2519691708
 20
9.4947558448
 30
0.0
 10
3.2650780182
 20
9.4984673218
 30
0.0
 10
3.2827826466
 20
9.5047812799
 30
0.0
 10
3.3050151945
 20
9.5152632527
 30
0.0
 10
3.3219197368
 20
9.5258208355
 30
0.0
 10
3.3303360894
 20
9.53168585
 30
0.0
  0
SPLINE
  5
594
100
AcDbEntity
  8
0
100
AcDbSpline
 62
7
  6
CONTINUOUS
 70
0
 71
3
 72
11
 73
7
 74
0
 42
0.0000001
 43
0.0000001
 44
0.0000000001
 40
0.0
 40
0.0
 40
0.0
 40
0.0
 40
0.2471368421
 40
0.4966249654
 40
0.74779525
 40
1.0
 40
1.0
 40
1.0
 40
1.0
 10
5.6541744704
 20
9.7276950244
 30
0.0
 10
5.66282357
 20
9.7325164228
 30
0.0
 10
5.6801030683
 20
9.7423865836
 30
0.0
 10
5.7059094938
 20
9.7576114092
 30
0.0
 10
5.7317664681
 20
9.7731476439
 30
0.0
 10
5.7490278907
 20
9.7835798515
 30
0.0
 10
5.7576814926
 20
9.7887981511
 30
0.0
  0
SPLINE
  5
595
100
AcDbEntity
  8
0
100
AcDbSpline
 62
9
  6
CONTINUOUS
 70
0
 71
3
 72
31
 73
27
 74
0
 42
0.0000001
 43
0.0000001
 44
0.0000000001
 40
0.0
 40
0.0
 40
0.0
 40
0.0
 40
0.0265315421
 40
0.053655141
 40
0.1097948802
 40
0.1388682137
 40
0.1686306115
 40
0.1990793179
 40
0.2301950812
 40
0.2943197413
 40
0.3607208725
 40
0.4288975624
 40
0.4982393113
 40
0.5679775641
 40
0.6027365178
 40
0.637283709
 40
0.7052919944
 40
0.7385304504
 40
0.7711177915
 40
0.8029581389
 40
0.8339651426
 40
0.8640660668
 40
0.8932059491
 40
0.9213527469
 40
0.9485074412
 40
1.0
 40
1.0
 40
1.0
 40
1.0
 10
2.7016013902
 20
9.6961657207
 30
0.0
 10
2.7080599319
 20
9.6992594078
 30
0.0
 10
2.7209858599
 20
9.7058027078
 30
0.0
 10
2.7468516143
 20
9.720279988
 30
0.0
 10
2.7724189054
 20
9.7366405646
 30
0.0
 10
2.7976859237
 20
9.7546646922
 30
0.0
 10
2.8168520557
 20
9.7692809445
 30
0.0
 10
2.8360129282
 20
9.7847940682
 30
0.0
 10
2.8618178023
 20
9.8068225799
 30
0.0
 10
2.8939922357
 20
9.8363117087
 30
0.0
 10
2.9321689351
 20
9.8739929822
 30
0.0
 10
2.9703354827
 20
9.9136573597
 30
0.0
 10
3.0084622492
 20
9.9545954387
 30
0.0
 10
3.0402591162
 20
9.9891004849
 30
0.0
 10
3.0658106572
 20
10.0165895805
 30
0.0
 10
3.0911970654
 20
10.043593288
 30
0.0
 10
3.1166535583
 20
10.0699701908
 30
0.0
 10
3.1423673973
 20
10.0953447897
 30
0.0
 10
3.1615068499
 20
10.1134757301
 30
0.0
 10
3.1806468451
 20
10.1307200659
 30
0.0
 10
3.1997886408
 20
10.1469444858
 30
0.0
 10
3.2189339831
 20
10.1620158421
 30
0.0
 10
3.2380835054
 20
10.1758005148
 30
0.0
 10
3.2572462134
 20
10.188166747
 30
0.0
 10
3.2823566118
 20
10.2023335624
 30
0.0
 10
3.3019112862
 20
10.2108896148
 30
0.0
 10
3.3151046777
 20
10.2152606432
 30
0.0
  0
SPLINE
  5
596
100
AcDbEntity
  8
0
100
AcDbSpline
 62
9
  6
CONTINUOUS
 70
0
 71
3
 72
14
 73
10
 74
0
 42
0.0000001
 43
0.0000001
 44
0.0000000001
 40
0.0
 40
0.0
 40
0.0
 40
0.0
 40
0.1135769887
 40
0.2300023933
 40
0.3497221895
 40
0.472943008
 40
0.7296121133
 40
0.8631941426
 40
1.0
 40
1.0
 40
1.0
 40
1.0
 10
3.3303360894
 20
10.2196916178
 30
0.0
 10
3.3328715454
 20
10.2193508622
 30
0.0
 10
3.3379629476
 20
10.218297126
 30
0.0
 10
3.3454247968
 20
10.2157149514
 30
0.0
 10
3.3527222231
 20
10.2121690646
 30
0.0
 10
3.3622524216
 20
10.2061512149
 30
0.0
 10
3.371005605
 20
10.1984502682
 30
0.0
 10
3.3787246236
 20
10.1894160862
 30
0.0
 10
3.3822307181
 20
10.1844221059
 30
0.0
 10
3.3838855371
 20
10.1818226797
 30
0.0
  0
SPLINE
  5
597
100
AcDbEntity
  8
0
100
AcDbSpline
 62
7
  6
CONTINUOUS
 70
0
 71
3
 72
15
 73
11
 74
0
 42
0.0000001
 43
0.0000001
 44
0.0000000001
 40
0.0
 40
0.0
 40
0.0
 40
0.0
 40
0.1136528544
 40
0.232173549
 40
0.3547545912
 40
0.4805960548
 40
0.6089562631
 40
0.7391370243
 40
0.8700038131
 40
1.0
 40
1.0
 40
1.0
 40
1.0
 10
2.6825025903
 20
9.8407527487
 30
0.0
 10
2.6807356863
 20
9.8424707971
 30
0.0
 10
2.6772324074
 20
9.8460910563
 30
0.0
 10
2.6721922827
 20
9.8519070251
 30
0.0
 10
2.6672996076
 20
9.8581863771
 30
0.0
 10
2.6626119279
 20
9.8648824871
 30
0.0
 10
2.6581972054
 20
9.8719571471
 30
0.0
 10
2.6541286475
 20
9.8793616213
 30
0.0
 10
2.6504816649
 20
9.8870219878
 30
0.0
 10
2.6483705123
 20
9.8922751194
 30
0.0
 10
2.6474111146
 20
9.8949256995
 30
0.0
  0
SPLINE
  5
598
100
AcDbEntity
  8
0
100
AcDbSpline
 62
9
  6
CONTINUOUS
 70
0
 71
3
 72
22
 73
18
 74
0
 42
0.0000001
 43
0.0000001
 44
0.0000000001
 40
0.0
 40
0.0
 40
0.0
 40
0.0
 40
0.1352696879
 40
0.2029680713
 40
0.2704411533
 40
0.337458093
 40
0.4037923697
 40
0.469231927
 40
0.5335788661
 40
0.5966580088
 40
0.6583340592
 40
0.7185247082
 40
0.7772188615
 40
0.834487182
 40
0.8904966058
 40
0.9455331713
 40
1.0
 40
1.0
 40
1.0
 40
1.0
 10
2.6474111146
 20
9.8949256995
 30
0.0
 10
2.6635915743
 20
9.906785975
 30
0.0
 10
2.6877405318
 20
9.9247577452
 30
0.0
 10
2.7199321941
 20
9.9486829549
 30
0.0
 10
2.7440769678
 20
9.966465747
 30
0.0
 10
2.7682221973
 20
9.9839053482
 30
0.0
 10
2.7923688527
 20
10.0008239476
 30
0.0
 10
2.816516398
 20
10.0170431784
 30
0.0
 10
2.840666129
 20
10.032379136
 30
0.0
 10
2.8648215732
 20
10.0466412219
 30
0.0
 10
2.8889853677
 20
10.0596393056
 30
0.0
 10
2.9131623618
 20
10.0711819595
 30
0.0
 10
2.9373560254
 20
10.0810839756
 30
0.0
 10
2.9615707183
 20
10.0891621331
 30
0.0
 10
2.9858150008
 20
10.0952257054
 30
0.0
 10
3.0100863137
 20
10.0991018569
 30
0.0
 10
3.026325244
 20
10.1001334154
 30
0.0
 10
3.0344025519
 20
10.1002338342
 30
0.0
  0
SPLINE
  5
599
100
AcDbEntity
  8
0
100
AcDbSpline
 62
9
  6
CONTINUOUS
 70
0
 71
3
 72
9
 73
5
 74
0
 42
0.0000001
 43
0.0000001
 44
0.0000000001
 40
0.0
 40
0.0
 40
0.0
 40
0.0
 40
0.250683872
 40
1.0
 40
1.0
 40
1.0
 40
1.0
 10
2.6528336602
 20
10.0169041389
 30
0.0
 10
2.6562232677
 20
10.0172725154
 30
0.0
 10
2.6697619191
 20
10.0185763546
 30
0.0
 10
2.6833692809
 20
10.0191898973
 30
0.0
 10
2.6935607343
 20
10.0192181201
 30
0.0
  0
SPLINE
  5
59A
100
AcDbEntity
  8
0
100
AcDbSpline
 62
7
  6
CONTINUOUS
 70
0
 71
3
 72
11
 73
7
 74
0
 42
0.0000001
 43
0.0000001
 44
0.0000000001
 40
0.0
 40
0.0
 40
0.0
 40
0.0
 40
0.2101013194
 40
0.4489441061
 40
0.7133261627
 40
1.0
 40
1.0
 40
1.0
 40
1.0
 10
2.6530282975
 20
10.0129848196
 30
0.0
 10
2.6543641544
 20
10.0120730038
 30
0.0
 10
2.6571487986
 20
10.0100219802
 30
0.0
 10
2.6614011365
 20
10.0065450606
 30
0.0
 10
2.6659487683
 20
10.0025062623
 30
0.0
 10
2.6690205727
 20
9.9995793671
 30
0.0
 10
2.6705953094
 20
9.9980332867
 30
0.0
  0
SPLINE
  5
59B
100
AcDbEntity
  8
0
100
AcDbSpline
 62
9
  6
CONTINUOUS
 70
0
 71
3
 72
14
 73
10
 74
0
 42
0.0000001
 43
0.0000001
 44
0.0000000001
 40
0.0
 40
0.0
 40
0.0
 40
0.0
 40
0.2917314613
 40
0.4291879406
 40
0.5598916782
 40
0.6830322873
 40
0.7978530658
 40
0.9036847238
 40
1.0
 40
1.0
 40
1.0
 40
1.0
 10
3.3303360882
 20
9.8118906153
 30
0.0
 10
3.3260544059
 20
9.8087183649
 30
0.0
 10
3.3195834884
 20
9.8042740355
 30
0.0
 10
3.3108100903
 20
9.7990141986
 30
0.0
 10
3.3045221584
 20
9.7956102095
 30
0.0
 10
3.2984490706
 20
9.7926940224
 30
0.0
 10
3.2926431243
 20
9.7902909472
 30
0.0
 10
3.2871573372
 20
9.7884263007
 30
0.0
 10
3.2835732552
 20
9.7875142319
 30
0.0
 10
3.2818480797
 20
9.787169396
 30
0.0
  0
SPLINE
  5
59C
100
AcDbEntity
  8
0
100
AcDbSpline
 62
7
  6
CONTINUOUS
 70
0
 71
3
 72
22
 73
18
 74
0
 42
0.0000001
 43
0.0000001
 44
0.0000000001
 40
0.0
 40
0.0
 40
0.0
 40
0.0
 40
0.1764909767
 40
0.2608035982
 40
0.34174081
 40
0.4189200528
 40
0.4920619504
 40
0.5609649238
 40
0.6255053678
 40
0.6856280524
 40
0.7413750974
 40
0.7929326293
 40
0.8405536184
 40
0.8845663006
 40
0.9254013857
 40
0.9636292146
 40
1.0
 40
1.0
 40
1.0
 40
1.0
 10
2.6474111146
 20
9.8949256995
 30
0.0
 10
2.6453837893
 20
9.9005267015
 30
0.0
 10
2.6429774596
 20
9.9090324631
 30
0.0
 10
2.6409533964
 20
9.9203920679
 30
0.0
 10
2.6400306984
 20
9.928527964
 30
0.0
 10
2.6396398433
 20
9.9363282396
 30
0.0
 10
2.6397417368
 20
9.9437316435
 30
0.0
 10
2.6403017647
 20
9.9506869092
 30
0.0
 10
2.6412884731
 20
9.9571508692
 30
0.0
 10
2.6426740494
 20
9.9630871828
 30
0.0
 10
2.6444375657
 20
9.9684638573
 30
0.0
 10
2.6465286881
 20
9.9732653101
 30
0.0
 10
2.6489054125
 20
9.9774839107
 30
0.0
 10
2.6515344636
 20
9.981113438
 30
0.0
 10
2.6543944155
 20
9.9841444177
 30
0.0
 10
2.6574674254
 20
9.9865635697
 30
0.0
 10
2.6596907308
 20
9.9877773061
 30
0.0
 10
2.6608178769
 20
9.98826347
 30
0.0
  0
SPLINE
  5
59D
100
AcDbEntity
  8
0
100
AcDbSpline
 62
9
  6
CONTINUOUS
 70
0
 71
3
 72
26
 73
22
 74
0
 42
0.0000001
 43
0.0000001
 44
0.0000000001
 40
0.0
 40
0.0
 40
0.0
 40
0.0
 40
0.0798706976
 40
0.1614904527
 40
0.2438375886
 40
0.3258790614
 40
0.4065814227
 40
0.4849219434
 40
0.5599041996
 40
0.6306974118
 40
0.6967003698
 40
0.7573618442
 40
0.8121939999
 40
0.8608281538
 40
0.8827768037
 40
0.9031529356
 40
0.9394141713
 40
0.9556798372
 40
0.9710008074
 40
0.9856667057
 40
1.0
 40
1.0
 40
1.0
 40
1.0
 10
5.1353213989
 20
9.8358882774
 30
0.0
 10
5.1324610048
 20
9.8337609288
 30
0.0
 10
5.1267789069
 20
9.8293220198
 30
0.0
 10
5.1184924872
 20
9.8222627151
 30
0.0
 10
5.1104249255
 20
9.8148106451
 30
0.0
 10
5.1026867986
 20
9.8070749325
 30
0.0
 10
5.0953883837
 20
9.7991644271
 30
0.0
 10
5.0886387202
 20
9.79118875
 30
0.0
 10
5.0825458966
 20
9.7832504337
 30
0.0
 10
5.0771992677
 20
9.7754499444
 30
0.0
 10
5.0726468971
 20
9.7678974874
 30
0.0
 10
5.0689328208
 20
9.7606904772
 30
0.0
 10
5.0660999649
 20
9.7539259404
 30
0.0
 10
5.0644524555
 20
9.748562062
 30
0.0
 10
5.0636609467
 20
9.7445760393
 30
0.0
 10
5.0632474598
 20
9.7410919451
 30
0.0
 10
5.0632981136
 20
9.7378070657
 30
0.0
 10
5.0639286418
 20
9.7348367345
 30
0.0
 10
5.0646387113
 20
9.7328901696
 30
0.0
 10
5.0655983302
 20
9.7311513018
 30
0.0
 10
5.0664049152
 20
9.7301301393
 30
0.0
 10
5.0668418782
 20
9.729662912
 30
0.0
  0
SPLINE
  5
59E
100
AcDbEntity
  8
0
100
AcDbSpline
 62
9
  6
CONTINUOUS
 70
0
 71
3
 72
9
 73
5
 74
0
 42
0.0000001
 43
0.0000001
 44
0.0000000001
 40
0.0
 40
0.0
 40
0.0
 40
0.0
 40
0.4923840269
 40
1.0
 40
1.0
 40
1.0
 40
1.0
 10
3.3303360879
 20
9.8118906155
 30
0.0
 10
3.3383304433
 20
9.8063707803
 30
0.0
 10
3.3542901992
 20
9.7947573867
 30
0.0
 10
3.3697698933
 20
9.7825166524
 30
0.0
 10
3.3775253398
 20
9.7761793921
 30
0.0
  0
SPLINE
  5
59F
100
AcDbEntity
  8
0
100
AcDbSpline
 62
9
  6
CONTINUOUS
 70
0
 71
3
 72
9
 73
5
 74
0
 42
0.0000001
 43
0.0000001
 44
0.0000000001
 40
0.0
 40
0.0
 40
0.0
 40
0.0
 40
0.504767261
 40
1.0
 40
1.0
 40
1.0
 40
1.0
 10
3.5148013875
 20
9.6493759127
 30
0.0
 10
3.5271587993
 20
9.6373566188
 30
0.0
 10
3.5516904917
 20
9.6135966664
 30
0.0
 10
3.576695793
 20
9.5903273422
 30
0.0
 10
3.5892887334
 20
9.5790372353
 30
0.0
  0
SPLINE
  5
5A0
100
AcDbEntity
  8
0
100
AcDbSpline
 62
9
  6
CONTINUOUS
 70
0
 71
3
 72
11
 73
7
 74
0
 42
0.0000001
 43
0.0000001
 44
0.0000000001
 40
0.0
 40
0.0
 40
0.0
 40
0.0
 40
0.2572521459
 40
0.5086157615
 40
0.7555858553
 40
1.0
 40
1.0
 40
1.0
 40
1.0
 10
3.7488585775
 20
9.471576795
 30
0.0
 10
3.7548432516
 20
9.4693131164
 30
0.0
 10
3.7668380921
 20
9.4652503231
 30
0.0
 10
3.7850789155
 20
9.4606401389
 30
0.0
 10
3.8033353755
 20
9.4576677487
 30
0.0
 10
3.8155454159
 20
9.4567882419
 30
0.0
 10
3.8216225336
 20
9.4566303168
 30
0.0
  0
SPLINE
  5
5A1
100
AcDbEntity
  8
0
100
AcDbSpline
 62
9
  6
CONTINUOUS
 70
0
 71
3
 72
11
 73
7
 74
0
 42
0.0000001
 43
0.0000001
 44
0.0000000001
 40
0.0
 40
0.0
 40
0.0
 40
0.0
 40
0.2443345833
 40
0.4910859274
 40
0.7423994678
 40
1.0
 40
1.0
 40
1.0
 40
1.0
 10
4.6414081485
 20
10.1891925217
 30
0.0
 10
4.6479376838
 20
10.1891676298
 30
0.0
 10
4.6610675314
 20
10.1884634227
 30
0.0
 10
4.6807112703
 20
10.1854820288
 30
0.0
 10
4.7003344381
 20
10.1806025747
 30
0.0
 10
4.7132235922
 20
10.1762104014
 30
0.0
 10
4.7196527382
 20
10.1737493179
 30
0.0
  0
SPLINE
  5
5A2
100
AcDbEntity
  8
0
100
AcDbSpline
 62
9
  6
CONTINUOUS
 70
0
 71
3
 72
9
 73
5
 74
0
 42
0.0000001
 43
0.0000001
 44
0.0000000001
 40
0.0
 40
0.0
 40
0.0
 40
0.0
 40
0.495374953
 40
1.0
 40
1.0
 40
1.0
 40
1.0
 10
4.8786291135
 20
10.0665133047
 30
0.0
 10
4.8911958615
 20
10.0552497632
 30
0.0
 10
4.9161499043
 20
10.0320505165
 30
0.0
 10
4.9406477887
 20
10.0083778847
 30
0.0
 10
4.9529851614
 20
9.996406469
 30
0.0
  0
SPLINE
  5
5A3
100
AcDbEntity
  8
0
100
AcDbSpline
 62
9
  6
CONTINUOUS
 70
0
 71
3
 72
9
 73
5
 74
0
 42
0.0000001
 43
0.0000001
 44
0.0000000001
 40
0.0
 40
0.0
 40
0.0
 40
0.0
 40
0.5071920265
 40
1.0
 40
1.0
 40
1.0
 40
1.0
 10
5.0904840413
 20
9.8697635026
 30
0.0
 10
5.0978579339
 20
9.8637701621
 30
0.0
 10
5.1125801661
 20
9.8521767309
 30
0.0
 10
5.127733074
 20
9.841147825
 30
0.0
 10
5.1353213989
 20
9.8358882774
 30
0.0
  0
SPLINE
  5
5A4
100
AcDbEntity
  8
0
100
AcDbSpline
 62
7
  6
CONTINUOUS
 70
0
 71
3
 72
11
 73
7
 74
0
 42
0.0000001
 43
0.0000001
 44
0.0000000001
 40
0.0
 40
0.0
 40
0.0
 40
0.0
 40
0.251997434
 40
0.5033579049
 40
0.7530420215
 40
1.0
 40
1.0
 40
1.0
 40
1.0
 10
2.6825025903
 20
9.8407527487
 30
0.0
 10
2.6934237636
 20
9.8472799359
 30
0.0
 10
2.7151869284
 20
9.8604039251
 30
0.0
 10
2.7477229082
 20
9.8800749085
 30
0.0
 10
2.7801593759
 20
9.8994180624
 30
0.0
 10
2.8018933902
 20
9.9119279342
 30
0.0
 10
2.812781109
 20
9.9180044549
 30
0.0
  0
SPLINE
  5
5A5
100
AcDbEntity
  8
0
100
AcDbSpline
 62
7
  6
CONTINUOUS
 70
0
 71
3
 72
24
 73
20
 74
0
 42
0.0000001
 43
0.0000001
 44
0.0000000001
 40
0.0
 40
0.0
 40
0.0
 40
0.0
 40
0.0402070774
 40
0.061922507
 40
0.0847980092
 40
0.1340643513
 40
0.1878839302
 40
0.2458420511
 40
0.307419614
 40
0.3720616735
 40
0.4391931766
 40
0.5082241055
 40
0.5785638468
 40
0.6496835727
 40
0.721091387
 40
0.7923095847
 40
0.8628595247
 40
0.9322672528
 40
1.0
 40
1.0
 40
1.0
 40
1.0
 10
2.6474111146
 20
9.6742340857
 30
0.0
 10
2.646106325
 20
9.6758622083
 30
0.0
 10
2.6444538045
 20
9.6786648997
 30
0.0
 10
2.642811389
 20
9.6827490876
 30
0.0
 10
2.6413947788
 20
9.6874157116
 30
0.0
 10
2.6402168451
 20
9.6938655325
 30
0.0
 10
2.6396208867
 20
9.7022127275
 30
0.0
 10
2.6397409526
 20
9.711216522
 30
0.0
 10
2.6405168605
 20
9.7207483727
 30
0.0
 10
2.6418981861
 20
9.7306910056
 30
0.0
 10
2.6438384399
 20
9.7409327583
 30
0.0
 10
2.6462796027
 20
9.7513696025
 30
0.0
 10
2.6491327144
 20
9.7619151741
 30
0.0
 10
2.6523412917
 20
9.7724867666
 30
0.0
 10
2.655860835
 20
9.7830068523
 30
0.0
 10
2.6596582721
 20
9.7933983695
 30
0.0
 10
2.6637102796
 20
9.8035818841
 30
0.0
 10
2.6680000258
 20
9.8134708215
 30
0.0
 10
2.6710550068
 20
9.819900481
 30
0.0
 10
2.6726274609
 20
9.8230439453
 30
0.0
  0
SPLINE
  5
5A6
100
AcDbEntity
  8
0
100
AcDbSpline
 62
7
  6
CONTINUOUS
 70
0
 71
3
 72
9
 73
5
 74
0
 42
0.0000001
 43
0.0000001
 44
0.0000000001
 40
0.0
 40
0.0
 40
0.0
 40
0.0
 40
0.2579089478
 40
1.0
 40
1.0
 40
1.0
 40
1.0
 10
2.6726274609
 20
9.8230439453
 30
0.0
 10
2.6734074584
 20
9.8246032242
 30
0.0
 10
2.6764923719
 20
9.8306182645
 30
0.0
 10
2.6798410717
 20
9.8365003853
 30
0.0
 10
2.6825025903
 20
9.8407527487
 30
0.0
  0
SPLINE
  5
5A7
100
AcDbEntity
  8
0
100
AcDbSpline
 62
9
  6
CONTINUOUS
 70
0
 71
3
 72
14
 73
10
 74
0
 42
0.0000001
 43
0.0000001
 44
0.0000000001
 40
0.0
 40
0.0
 40
0.0
 40
0.0
 40
0.0904173093
 40
0.1922171446
 40
0.3049159397
 40
0.4277326996
 40
0.5597218547
 40
0.6998423449
 40
1.0
 40
1.0
 40
1.0
 40
1.0
 10
5.1883277658
 20
9.861626676
 30
0.0
 10
5.1865438846
 20
9.8614454035
 30
0.0
 10
5.1827783831
 20
9.8607839768
 30
0.0
 10
5.176956734
 20
9.859122901
 30
0.0
 10
5.1706878096
 20
9.8567712449
 30
0.0
 10
5.1640449325
 20
9.853762885
 30
0.0
 10
5.1571005322
 20
9.8501335405
 30
0.0
 10
5.1473139957
 20
9.8443812584
 30
0.0
 10
5.140097693
 20
9.8394405276
 30
0.0
 10
5.1353214006
 20
9.8358882762
 30
0.0
  0
SPLINE
  5
5A8
100
AcDbEntity
  8
0
100
AcDbSpline
 62
9
  6
CONTINUOUS
 70
0
 71
3
 72
9
 73
5
 74
0
 42
0.0000001
 43
0.0000001
 44
0.0000000001
 40
0.0
 40
0.0
 40
0.0
 40
0.0
 40
0.48365496
 40
1.0
 40
1.0
 40
1.0
 40
1.0
 10
3.8304147853
 20
10.0870065205
 30
0.0
 10
3.8415160819
 20
10.0783025923
 30
0.0
 10
3.8636599884
 20
10.059264543
 30
0.0
 10
3.884396048
 20
10.038724823
 30
0.0
 10
3.8947987664
 20
10.0278349193
 30
0.0
  0
SPLINE
  5
5A9
100
AcDbEntity
  8
0
100
AcDbSpline
 62
9
  6
CONTINUOUS
 70
0
 71
3
 72
9
 73
5
 74
0
 42
0.0000001
 43
0.0000001
 44
0.0000000001
 40
0.0
 40
0.0
 40
0.0
 40
0.0
 40
0.4976775043
 40
1.0
 40
1.0
 40
1.0
 40
1.0
 10
4.0208340674
 20
9.8720218617
 30
0.0
 10
4.0333316311
 20
9.8548406273
 30
0.0
 10
4.0581396667
 20
9.8200972717
 30
0.0
 10
4.0827211056
 20
9.7851951086
 30
0.0
 10
4.0951025515
 20
9.7676865717
 30
0.0
  0
SPLINE
  5
5AA
100
AcDbEntity
  8
0
100
AcDbSpline
 62
9
  6
CONTINUOUS
 70
0
 71
3
 72
10
 73
6
 74
0
 42
0.0000001
 43
0.0000001
 44
0.0000000001
 40
0.0
 40
0.0
 40
0.0
 40
0.0
 40
0.5160588534
 40
0.7622300116
 40
1.0
 40
1.0
 40
1.0
 40
1.0
 10
4.2166656025
 20
9.6047120948
 30
0.0
 10
4.2283900805
 20
9.5904766637
 30
0.0
 10
4.246152797
 20
9.5698040487
 30
0.0
 10
4.2706328009
 20
9.5437627382
 30
0.0
 10
4.2828990024
 20
9.5315645634
 30
0.0
 10
4.2890407497
 20
9.5256927015
 30
0.0
  0
SPLINE
  5
5AB
100
AcDbEntity
  8
0
100
AcDbSpline
 62
9
  6
CONTINUOUS
 70
0
 71
3
 72
56
 73
52
 74
0
 42
0.0000001
 43
0.0000001
 44
0.0000000001
 40
0.0
 40
0.0
 40
0.0
 40
0.0
 40
0.0089758026
 40
0.0181451428
 40
0.0275856102
 40
0.0373689539
 40
0.0475602649
 40
0.0582147173
 40
0.0693711914
 40
0.0810582147
 40
0.0932965638
 40
0.1061005592
 40
0.1194791808
 40
0.1334370048
 40
0.1479749766
 40
0.1630910432
 40
0.1787778832
 40
0.1950169879
 40
0.2290587971
 40
0.2650182299
 40
0.3026747154
 40
0.3417924115
 40
0.382095049
 40
0.4232688039
 40
0.4649934579
 40
0.5069458526
 40
0.5488034437
 40
0.5902469866
 40
0.6309596293
 40
0.6706285849
 40
0.708948423
 40
0.7456533733
 40
0.7805273378
 40
0.7972160523
 40
0.8133749526
 40
0.8289832882
 40
0.8440225284
 40
0.8584779396
 40
0.8723465549
 40
0.8856327016
 40
0.8983442872
 40
0.910493496
 40
0.9220976562
 40
0.9331802559
 40
0.9437720994
 40
0.9539125604
 40
0.9636513216
 40
0.9730526597
 40
0.9821907161
 40
0.9911452476
 40
1.0
 40
1.0
 40
1.0
 40
1.0
 10
3.8431900597
 20
9.2701503677
 30
0.0
 10
3.8473636517
 20
9.2706908816
 30
0.0
 10
3.8557525639
 20
9.2721968816
 30
0.0
 10
3.8682286459
 20
9.2756726412
 30
0.0
 10
3.880697913
 20
9.2803838007
 30
0.0
 10
3.8931583662
 20
9.2863305207
 30
0.0
 10
3.9056091991
 20
9.2935137946
 30
0.0
 10
3.9180468464
 20
9.3019274615
 30
0.0
 10
3.9304776666
 20
9.3115425168
 30
0.0
 10
3.9429036232
 20
9.3223319407
 30
0.0
 10
3.9553262348
 20
9.3342679947
 30
0.0
 10
3.9677465799
 20
9.3473233793
 30
0.0
 10
3.980165487
 20
9.3614708164
 30
0.0
 10
3.9925835324
 20
9.3766830804
 30
0.0
 10
4.0050011968
 20
9.3929328684
 30
0.0
 10
4.0174177743
 20
9.4101919919
 30
0.0
 10
4.0298306214
 20
9.4284266758
 30
0.0
 10
4.0466460044
 20
9.4543890754
 30
0.0
 10
4.0675789541
 20
9.4889956792
 30
0.0
 10
4.0923283081
 20
9.5329957843
 30
0.0
 10
4.1170863848
 20
9.5797008306
 30
0.0
 10
4.141841161
 20
9.6286984266
 30
0.0
 10
4.166592499
 20
9.6795371947
 30
0.0
 10
4.1913493389
 20
9.7317285325
 30
0.0
 10
4.2161088871
 20
9.7847729777
 30
0.0
 10
4.2408702411
 20
9.8381700141
 30
0.0
 10
4.2656320417
 20
9.8914216034
 30
0.0
 10
4.2903915668
 20
9.9440328792
 30
0.0
 10
4.3151473934
 20
9.9955102311
 30
0.0
 10
4.3398966626
 20
10.0453617993
 30
0.0
 10
4.3646483025
 20
10.0931070754
 30
0.0
 10
4.3894058128
 20
10.1383034142
 30
0.0
 10
4.41032497
 20
10.1740224238
 30
0.0
 10
4.4271237348
 20
10.2009691943
 30
0.0
 10
4.4395372749
 20
10.2199995676
 30
0.0
 10
4.4519503246
 20
10.2381003169
 30
0.0
 10
4.4643631054
 20
10.2552246973
 30
0.0
 10
4.4767801462
 20
10.2713282464
 30
0.0
 10
4.4891994919
 20
10.2863793944
 30
0.0
 10
4.5016197157
 20
10.300354432
 30
0.0
 10
4.5140415585
 20
10.3132306819
 30
0.0
 10
4.5264657882
 20
10.3249855941
 30
0.0
 10
4.5388934867
 20
10.335596448
 30
0.0
 10
4.5513259818
 20
10.3450403898
 30
0.0
 10
4.5637650113
 20
10.3532938933
 30
0.0
 10
4.5762123055
 20
10.360333933
 30
0.0
 10
4.5886728446
 20
10.3661339393
 30
0.0
 10
4.6011439157
 20
10.3706859377
 30
0.0
 10
4.6136231647
 20
10.3739925896
 30
0.0
 10
4.6261073322
 20
10.3760555263
 30
0.0
 10
4.6344554206
 20
10.3766049585
 30
0.0
 10
4.6386065646
 20
10.3766723218
 30
0.0
  0
SPLINE
  5
5AC
100
AcDbEntity
  8
0
100
AcDbSpline
 62
9
  6
CONTINUOUS
 70
0
 71
3
 72
27
 73
23
 74
0
 42
0.0000001
 43
0.0000001
 44
0.0000000001
 40
0.0
 40
0.0
 40
0.0
 40
0.0
 40
0.0599909655
 40
0.1234186265
 40
0.1897658546
 40
0.2583383102
 40
0.3283812374
 40
0.3991581256
 40
0.4698724505
 40
0.5396317091
 40
0.607538846
 40
0.6405543204
 40
0.6728186698
 40
0.7042666242
 40
0.7348754413
 40
0.7935444343
 40
0.8489443035
 40
0.9013302239
 40
0.9265900175
 40
0.9513498584
 40
0.9757583557
 40
1.0
 40
1.0
 40
1.0
 40
1.0
 10
5.1353214006
 20
10.112345911
 30
0.0
 10
5.1391183189
 20
10.1109015943
 30
0.0
 10
5.1466873126
 20
10.1072694706
 30
0.0
 10
5.1574256596
 20
10.1001529139
 30
0.0
 10
5.1676643176
 20
10.0914120081
 30
0.0
 10
5.1771613773
 20
10.0812530531
 30
0.0
 10
5.1856789613
 20
10.0698810207
 30
0.0
 10
5.1929562199
 20
10.0575101195
 30
0.0
 10
5.1988808232
 20
10.0444611459
 30
0.0
 10
5.203359003
 20
10.0310535763
 30
0.0
 10
5.2058269521
 20
10.019734566
 30
0.0
 10
5.2069564274
 20
10.0107817774
 30
0.0
 10
5.2073670042
 20
10.0042399367
 30
0.0
 10
5.2073330201
 20
9.9978474022
 30
0.0
 10
5.2067063988
 20
9.9896910744
 30
0.0
 10
5.2048976152
 20
9.980020797
 30
0.0
 10
5.2010817973
 20
9.9693621721
 30
0.0
 10
5.1965652453
 20
9.9614973096
 30
0.0
 10
5.1922302034
 20
9.9560706885
 30
0.0
 10
5.1886743155
 20
9.9524839496
 30
0.0
 10
5.1847868913
 20
9.9493685392
 30
0.0
 10
5.1819846687
 20
9.9476196457
 30
0.0
 10
5.1805446564
 20
9.9468315872
 30
0.0
  0
LINE
  5
5AD
100
AcDbEntity
  8
0
100
AcDbLine
 62
9
  6
CONTINUOUS
 10
3.3542163319
 20
10.0315859426
 11
3.3603259588
 21
10.04128804
  0
SPLINE
  5
5AE
100
AcDbEntity
  8
0
100
AcDbSpline
 62
9
  6
CONTINUOUS
 70
0
 71
3
 72
22
 73
18
 74
0
 42
0.0000001
 43
0.0000001
 44
0.0000000001
 40
0.0
 40
0.0
 40
0.0
 40
0.0
 40
0.1575905484
 40
0.2344054467
 40
0.3094300836
 40
0.3823279746
 40
0.452791283
 40
0.5205906429
 40
0.585541473
 40
0.6474934359
 40
0.7063416746
 40
0.7620420854
 40
0.8146373242
 40
0.86433085
 40
0.9114652016
 40
0.9564955467
 40
1.0
 40
1.0
 40
1.0
 40
1.0
 10
3.3603259588
 20
10.04128804
 30
0.0
 10
3.3722252868
 20
10.0601465266
 30
0.0
 10
3.3900784822
 20
10.0881025791
 30
0.0
 10
3.4143131137
 20
10.1245693468
 30
0.0
 10
3.4323332541
 20
10.1507727793
 30
0.0
 10
3.4503521527
 20
10.1758798647
 30
0.0
 10
3.4683779588
 20
10.1997134596
 30
0.0
 10
3.4864050582
 20
10.2221217085
 30
0.0
 10
3.5044323404
 20
10.2429639992
 30
0.0
 10
3.5224614587
 20
10.2621020465
 30
0.0
 10
3.5404956267
 20
10.2793973866
 30
0.0
 10
3.5585388631
 20
10.294714531
 30
0.0
 10
3.5766104542
 20
10.3079137518
 30
0.0
 10
3.5947113114
 20
10.3188968594
 30
0.0
 10
3.612842815
 20
10.3275952719
 30
0.0
 10
3.6310074401
 20
10.3339340854
 30
0.0
 10
3.6432981758
 20
10.3365673276
 30
0.0
 10
3.6493913465
 20
10.3374432512
 30
0.0
  0
SPLINE
  5
5AF
100
AcDbEntity
  8
0
100
AcDbSpline
 62
9
  6
CONTINUOUS
 70
0
 71
3
 72
24
 73
20
 74
0
 42
0.0000001
 43
0.0000001
 44
0.0000000001
 40
0.0
 40
0.0
 40
0.0
 40
0.0
 40
0.021689061
 40
0.0435160802
 40
0.0879992711
 40
0.1342649266
 40
0.1829334214
 40
0.2344664041
 40
0.289187602
 40
0.3472945176
 40
0.4088043648
 40
0.4736155234
 40
0.5415606963
 40
0.612424467
 40
0.6859558729
 40
0.761864082
 40
0.8397786138
 40
0.9192958707
 40
1.0
 40
1.0
 40
1.0
 40
1.0
 10
4.8012426137
 20
9.3078347097
 30
0.0
 10
4.8044343505
 20
9.307869728
 30
0.0
 10
4.8108382346
 20
9.3081819996
 30
0.0
 10
4.8237005767
 20
9.3097714126
 30
0.0
 10
4.8398830808
 20
9.3135838709
 30
0.0
 10
4.8591178134
 20
9.3208660412
 30
0.0
 10
4.8783088476
 20
9.3307710305
 30
0.0
 10
4.8974635239
 20
9.343195069
 30
0.0
 10
4.9165927564
 20
9.3580393583
 30
0.0
 10
4.9356900949
 20
9.3752006921
 30
0.0
 10
4.954774372
 20
9.3945184076
 30
0.0
 10
4.9738550632
 20
9.4158217504
 30
0.0
 10
4.992934766
 20
9.4389376337
 30
0.0
 10
5.0120151116
 20
9.4636919625
 30
0.0
 10
5.0310956796
 20
9.4899084847
 30
0.0
 10
5.0501694706
 20
9.51740134
 30
0.0
 10
5.0692439421
 20
9.545958288
 30
0.0
 10
5.0883201307
 20
9.5753583878
 30
0.0
 10
5.1009670885
 20
9.5952595141
 30
0.0
 10
5.1073078805
 20
9.605302344
 30
0.0
  0
LINE
  5
5B0
100
AcDbEntity
  8
0
100
AcDbLine
 62
9
  6
CONTINUOUS
 10
5.1073078805
 20
9.605302344
 11
5.1131249248
 21
9.6145330076
  0
SPLINE
  5
5B1
100
AcDbEntity
  8
0
100
AcDbSpline
 62
9
  6
CONTINUOUS
 70
0
 71
3
 72
9
 73
5
 74
0
 42
0.0000001
 43
0.0000001
 44
0.0000000001
 40
0.0
 40
0.0
 40
0.0
 40
0.0
 40
0.5008700931
 40
1.0
 40
1.0
 40
1.0
 40
1.0
 10
3.1520915112
 20
9.6799976746
 30
0.0
 10
3.1609005056
 20
9.6789778916
 30
0.0
 10
3.1785412466
 20
9.6773716781
 30
0.0
 10
3.19624898
 20
9.676776521
 30
0.0
 10
3.2050859911
 20
9.6767669622
 30
0.0
  0
LINE
  5
5B2
100
AcDbEntity
  8
0
100
AcDbLine
 62
9
  6
CONTINUOUS
 10
5.2588442533
 20
9.9642073986
 11
5.2594882806
 21
9.9638047871
  0
SPLINE
  5
5B3
100
AcDbEntity
  8
0
100
AcDbSpline
 62
9
  6
CONTINUOUS
 70
0
 71
3
 72
25
 73
21
 74
0
 42
0.0000001
 43
0.0000001
 44
0.0000000001
 40
0.0
 40
0.0
 40
0.0
 40
0.0
 40
0.1955425804
 40
0.3811761505
 40
0.4684061074
 40
0.5509144727
 40
0.6279586912
 40
0.698802413
 40
0.7627277797
 40
0.819260218
 40
0.8681980976
 40
0.9093865716
 40
0.9270475467
 40
0.9427494663
 40
0.9565078246
 40
0.9683624089
 40
0.9783957508
 40
0.9867689769
 40
0.9937885882
 40
1.0
 40
1.0
 40
1.0
 40
1.0
 10
5.1353214006
 20
9.6499810693
 30
0.0
 10
5.1396599099
 20
9.6464105558
 30
0.0
 10
5.1481987539
 20
9.6395490838
 30
0.0
 10
5.1588900115
 20
9.631370138
 30
0.0
 10
5.1671269218
 20
9.6253341203
 30
0.0
 10
5.1729094777
 20
9.621229083
 30
0.0
 10
5.1783731005
 20
9.6174897563
 30
0.0
 10
5.1834646939
 20
9.6141542342
 30
0.0
 10
5.1881375339
 20
9.6112578947
 30
0.0
 10
5.1923544091
 20
9.6088245648
 30
0.0
 10
5.1960861141
 20
9.6068641145
 30
0.0
 10
5.1989016986
 20
9.6055676481
 30
0.0
 10
5.2008984062
 20
9.6047898687
 30
0.0
 10
5.2021830405
 20
9.6043599356
 30
0.0
 10
5.2033308243
 20
9.6040529488
 30
0.0
 10
5.2043400395
 20
9.6038693906
 30
0.0
 10
5.2052099943
 20
9.6038096942
 30
0.0
 10
5.2059419337
 20
9.6038761672
 30
0.0
 10
5.2065380966
 20
9.6040755921
 30
0.0
 10
5.2068459207
 20
9.6043158582
 30
0.0
 10
5.2069616
 20
9.604451778
 30
0.0
  0
SPLINE
  5
5B4
100
AcDbEntity
  8
0
100
AcDbSpline
 62
9
  6
CONTINUOUS
 70
0
 71
3
 72
11
 73
7
 74
0
 42
0.0000001
 43
0.0000001
 44
0.0000000001
 40
0.0
 40
0.0
 40
0.0
 40
0.0
 40
0.228717014
 40
0.4714516159
 40
0.7285310489
 40
1.0
 40
1.0
 40
1.0
 40
1.0
 10
3.3303360897
 20
9.5316858502
 30
0.0
 10
3.3364100558
 20
9.5361170002
 30
0.0
 10
3.3485473358
 20
9.5457826238
 30
0.0
 10
3.3662116108
 20
9.5619760692
 30
0.0
 10
3.3838694677
 20
9.5801875194
 30
0.0
 10
3.395329742
 20
9.5932561811
 30
0.0
 10
3.4010726829
 20
9.6000865838
 30
0.0
  0
SPLINE
  5
5B5
100
AcDbEntity
  8
0
100
AcDbSpline
 62
9
  6
CONTINUOUS
 70
0
 71
3
 72
35
 73
31
 74
0
 42
0.0000001
 43
0.0000001
 44
0.0000000001
 40
0.0
 40
0.0
 40
0.0
 40
0.0
 40
0.0284921749
 40
0.0583924066
 40
0.0896527656
 40
0.1222019293
 40
0.1559256742
 40
0.19069647
 40
0.2263807269
 40
0.2628402863
 40
0.3375137201
 40
0.4134893236
 40
0.4894414192
 40
0.5640410246
 40
0.6004325567
 40
0.6360200821
 40
0.670660675
 40
0.7042164086
 40
0.7365560211
 40
0.7675618793
 40
0.7971560806
 40
0.8252840399
 40
0.851907332
 40
0.8770090111
 40
0.900600882
 40
0.9227332606
 40
0.9435166401
 40
0.9631453996
 40
0.9818716449
 40
1.0
 40
1.0
 40
1.0
 40
1.0
 10
3.4010726829
 20
9.6000865838
 30
0.0
 10
3.4072270664
 20
9.6074063381
 30
0.0
 10
3.4195063392
 20
9.6226901071
 30
0.0
 10
3.4374724907
 20
9.6468362275
 30
0.0
 10
3.4554364015
 20
9.6726604915
 30
0.0
 10
3.4733910045
 20
9.7000379402
 30
0.0
 10
3.4913474305
 20
9.7288117665
 30
0.0
 10
3.5093057509
 20
9.7588168072
 30
0.0
 10
3.5272659717
 20
9.7898854276
 30
0.0
 10
3.5514069767
 20
9.8328465594
 30
0.0
 10
3.5813825229
 20
9.8880358272
 30
0.0
 10
3.6170674411
 20
9.9552019189
 30
0.0
 10
3.6527525154
 20
10.0223398603
 30
0.0
 10
3.6827269186
 20
10.077466787
 30
0.0
 10
3.7068726585
 20
10.1203334638
 30
0.0
 10
3.7248312013
 20
10.1512887585
 30
0.0
 10
3.7427876825
 20
10.181140482
 30
0.0
 10
3.7607421008
 20
10.2097147253
 30
0.0
 10
3.7786945972
 20
10.2368399434
 30
0.0
 10
3.7966548049
 20
10.2623517374
 30
0.0
 10
3.8146170447
 20
10.2861143648
 30
0.0
 10
3.8325795331
 20
10.3080073867
 30
0.0
 10
3.8505444969
 20
10.3279131806
 30
0.0
 10
3.868515488
 20
10.3457146867
 30
0.0
 10
3.8864980702
 20
10.3612947869
 30
0.0
 10
3.9045044937
 20
10.3745368982
 30
0.0
 10
3.9225556477
 20
10.3853248468
 30
0.0
 10
3.9406465042
 20
10.3936035252
 30
0.0
 10
3.9587752559
 20
10.3993206492
 30
0.0
 10
3.9710171281
 20
10.4014091236
 30
0.0
 10
3.9770738466
 20
10.4019916871
 30
0.0
  0
SPLINE
  5
5B6
100
AcDbEntity
  8
0
100
AcDbSpline
 62
9
  6
CONTINUOUS
 70
0
 71
3
 72
25
 73
21
 74
0
 42
0.0000001
 43
0.0000001
 44
0.0000000001
 40
0.0
 40
0.0
 40
0.0
 40
0.0
 40
0.01466999
 40
0.0300319792
 40
0.0637235733
 40
0.0824927079
 40
0.1026813585
 40
0.1474373933
 40
0.1980533168
 40
0.2542867033
 40
0.3157507693
 40
0.381979457
 40
0.4524639443
 40
0.5266287842
 40
0.6036653302
 40
0.6826737154
 40
0.7627355667
 40
0.8429249059
 40
0.9223174439
 40
1.0
 40
1.0
 40
1.0
 40
1.0
 10
3.4002889602
 20
9.9167372497
 30
0.0
 10
3.4006170653
 20
9.9161815041
 30
0.0
 10
3.4012014279
 20
9.914990103
 30
0.0
 10
3.4020677827
 20
9.9123160376
 30
0.0
 10
3.4024096208
 20
9.9093193318
 30
0.0
 10
3.4023010316
 20
9.906123304
 30
0.0
 10
3.4018568863
 20
9.902462776
 30
0.0
 10
3.4006748982
 20
9.8975025083
 30
0.0
 10
3.398433153
 20
9.8912113257
 30
0.0
 10
3.3953562575
 20
9.8844679154
 30
0.0
 10
3.3914820769
 20
9.8773578344
 30
0.0
 10
3.3868481728
 20
9.8699672478
 30
0.0
 10
3.3814945044
 20
9.8623855011
 30
0.0
 10
3.375469392
 20
9.8547119366
 30
0.0
 10
3.3688621747
 20
9.8470324925
 30
0.0
 10
3.3617680948
 20
9.839441656
 30
0.0
 10
3.3542845307
 20
9.8320361902
 30
0.0
 10
3.346509041
 20
9.8249126796
 30
0.0
 10
3.3385396389
 20
9.8181678
 30
0.0
 10
3.3330820255
 20
9.8139250476
 30
0.0
 10
3.3303360894
 20
9.8118906144
 30
0.0
  0
SPLINE
  5
5B7
100
AcDbEntity
  8
0
100
AcDbSpline
 62
9
  6
CONTINUOUS
 70
0
 71
3
 72
36
 73
32
 74
0
 42
0.0000001
 43
0.0000001
 44
0.0000000001
 40
0.0
 40
0.0
 40
0.0
 40
0.0
 40
0.0181075905
 40
0.0367503153
 40
0.0562440424
 40
0.0768470045
 40
0.0987611712
 40
0.1221341013
 40
0.1470371159
 40
0.173487164
 40
0.2014691665
 40
0.2309442923
 40
0.2618559745
 40
0.2941249995
 40
0.3276333611
 40
0.3622485883
 40
0.3978311809
 40
0.4342363765
 40
0.5089162726
 40
0.5468804553
 40
0.5850386937
 40
0.6612565726
 40
0.7362111451
 40
0.7728023771
 40
0.8086100913
 40
0.8435009773
 40
0.8773461667
 40
0.9100226491
 40
0.9414151583
 40
0.9714253995
 40
1.0
 40
1.0
 40
1.0
 40
1.0
 10
4.4865479061
 20
9.2439907346
 30
0.0
 10
4.4926323851
 20
9.2443833807
 30
0.0
 10
4.5049380453
 20
9.2461052243
 30
0.0
 10
4.5231953673
 20
9.2513345511
 30
0.0
 10
4.5414121408
 20
9.259159793
 30
0.0
 10
4.5595877514
 20
9.2695134683
 30
0.0
 10
4.577732093
 20
9.2823337492
 30
0.0
 10
4.5958403208
 20
9.2975576014
 30
0.0
 10
4.6139307075
 20
9.3150703187
 30
0.0
 10
4.6320142271
 20
9.3347495549
 30
0.0
 10
4.6500946195
 20
9.3564719922
 30
0.0
 10
4.6681745189
 20
9.3801134098
 30
0.0
 10
4.6862528649
 20
9.4055471197
 30
0.0
 10
4.7043239213
 20
9.4326329179
 30
0.0
 10
4.722396776
 20
9.4612031729
 30
0.0
 10
4.7404717729
 20
9.491083061
 30
0.0
 10
4.7585489653
 20
9.522095336
 30
0.0
 10
4.7828600147
 20
9.5650838112
 30
0.0
 10
4.8068934626
 20
9.6091453259
 30
0.0
 10
4.8308669186
 20
9.6539073172
 30
0.0
 10
4.854962122
 20
9.699191616
 30
0.0
 10
4.8848796606
 20
9.7554862847
 30
0.0
 10
4.915040198
 20
9.8110546327
 30
0.0
 10
4.9393428396
 20
9.8543128491
 30
0.0
 10
4.9574237328
 20
9.8855902024
 30
0.0
 10
4.975502773
 20
9.9157965217
 30
0.0
 10
4.9935798159
 20
9.9447693086
 30
0.0
 10
5.0116548251
 20
9.9723462277
 30
0.0
 10
5.0297288501
 20
9.9983679861
 30
0.0
 10
5.0478126168
 20
10.0226830776
 30
0.0
 10
5.0601784541
 20
10.0380611145
 30
0.0
 10
5.0663759598
 20
10.04542082
 30
0.0
  0
SPLINE
  5
5B8
100
AcDbEntity
  8
0
100
AcDbSpline
 62
9
  6
CONTINUOUS
 70
0
 71
3
 72
11
 73
7
 74
0
 42
0.0000001
 43
0.0000001
 44
0.0000000001
 40
0.0
 40
0.0
 40
0.0
 40
0.0
 40
0.2709036332
 40
0.5277779684
 40
0.770700367
 40
1.0
 40
1.0
 40
1.0
 40
1.0
 10
5.0663759598
 20
10.04542082
 30
0.0
 10
5.0719764899
 20
10.0520716008
 30
0.0
 10
5.0831545893
 20
10.064807866
 30
0.0
 10
5.1003677848
 20
10.082588117
 30
0.0
 10
5.1175866616
 20
10.0984543796
 30
0.0
 10
5.1294065486
 20
10.107966847
 30
0.0
 10
5.1353214006
 20
10.112345911
 30
0.0
  0
SPLINE
  5
5B9
100
AcDbEntity
  8
0
100
AcDbSpline
 62
7
  6
CONTINUOUS
 70
0
 71
3
 72
36
 73
32
 74
0
 42
0.0000001
 43
0.0000001
 44
0.0000000001
 40
0.0
 40
0.0
 40
0.0
 40
0.0
 40
0.1210645801
 40
0.2441431252
 40
0.3064960656
 40
0.3694108534
 40
0.4328966444
 40
0.4969557189
 40
0.5615850867
 40
0.6267740212
 40
0.6925004897
 40
0.725552773
 40
0.758719184
 40
0.791984213
 40
0.8253215341
 40
0.8586823677
 40
0.8919674108
 40
0.9085195541
 40
0.9249459423
 40
0.9411514404
 40
0.9569558574
 40
0.9646043177
 40
0.9719856153
 40
0.978979945
 40
0.9854116724
 40
0.9910234782
 40
0.9955003863
 40
0.997212853
 40
0.9985409681
 40
0.9994674498
 40
1.0
 40
1.0
 40
1.0
 40
1.0
 10
2.76847115
 20
9.6932147935
 30
0.0
 10
2.7773549947
 20
9.6962664611
 30
0.0
 10
2.7951222588
 20
9.7028592927
 30
0.0
 10
2.8170361324
 20
9.7121141021
 30
0.0
 10
2.834555467
 20
9.7201396933
 30
0.0
 10
2.8477526175
 20
9.7264915984
 30
0.0
 10
2.8609537461
 20
9.7331347171
 30
0.0
 10
2.8741660286
 20
9.7400472084
 30
0.0
 10
2.8873959161
 20
9.7472076379
 30
0.0
 10
2.9006503466
 20
9.7545918997
 30
0.0
 10
2.911700582
 20
9.7608967799
 30
0.0
 10
2.9205625834
 20
9.7660225439
 30
0.0
 10
2.9272317743
 20
9.7699088967
 30
0.0
 10
2.9339104482
 20
9.7738228404
 30
0.0
 10
2.940596146
 20
9.7777546099
 30
0.0
 10
2.947281775
 20
9.7816895541
 30
0.0
 10
2.9528489498
 20
9.7849572298
 30
0.0
 10
2.9572893701
 20
9.7875488351
 30
0.0
 10
2.9605897534
 20
9.7894647433
 30
0.0
 10
2.9638459021
 20
9.7913412605
 30
0.0
 10
2.9665183669
 20
9.7928665328
 30
0.0
 10
2.9686011481
 20
9.7940436862
 30
0.0
 10
2.9700915139
 20
9.7948797281
 30
0.0
 10
2.9715023284
 20
9.7956645978
 30
0.0
 10
2.9727959551
 20
9.7963776868
 30
0.0
 10
2.9739208498
 20
9.7969922292
 30
0.0
 10
2.9747258645
 20
9.7974285633
 30
0.0
 10
2.9752385428
 20
9.7977066963
 30
0.0
 10
2.9755088583
 20
9.7978539765
 30
0.0
 10
2.9756976231
 20
9.7979593736
 30
0.0
 10
2.9757958814
 20
9.7980157921
 30
0.0
 10
2.9758304137
 20
9.7980384835
 30
0.0
  0
SPLINE
  5
5BA
100
AcDbEntity
  8
0
100
AcDbSpline
 62
7
  6
CONTINUOUS
 70
0
 71
3
 72
14
 73
10
 74
0
 42
0.0000001
 43
0.0000001
 44
0.0000000001
 40
0.0
 40
0.0
 40
0.0
 40
0.0
 40
0.2660118995
 40
0.3918621739
 40
0.5141931266
 40
0.6344993134
 40
0.7544235695
 40
0.8756410716
 40
1.0
 40
1.0
 40
1.0
 40
1.0
 10
2.6702293559
 20
9.6671115611
 30
0.0
 10
2.6680376141
 20
9.6666917767
 30
0.0
 10
2.6647305971
 20
9.6663732698
 30
0.0
 10
2.6604239288
 20
9.6667486322
 30
0.0
 10
2.6573964975
 20
9.6674221338
 30
0.0
 10
2.6545424286
 20
9.6685047532
 30
0.0
 10
2.6518907913
 20
9.6699999806
 30
0.0
 10
2.6494731973
 20
9.6719047893
 30
0.0
 10
2.6480635263
 20
9.6734200035
 30
0.0
 10
2.6474111146
 20
9.6742340857
 30
0.0
  0
SPLINE
  5
5BB
100
AcDbEntity
  8
0
100
AcDbSpline
 62
7
  6
CONTINUOUS
 70
0
 71
3
 72
38
 73
34
 74
0
 42
0.0000001
 43
0.0000001
 44
0.0000000001
 40
0.0
 40
0.0
 40
0.0
 40
0.0
 40
0.0003019679
 40
0.0010006341
 40
0.0021028904
 40
0.0036087553
 40
0.0055011473
 40
0.0077430999
 40
0.0131167679
 40
0.0193935175
 40
0.0262957505
 40
0.0336197937
 40
0.0412367263
 40
0.0570178782
 40
0.0732283786
 40
0.0896733081
 40
0.1062512607
 40
0.1229051165
 40
0.1396001695
 40
0.1730329922
 40
0.2064468953
 40
0.239790875
 40
0.2730367136
 40
0.3061676089
 40
0.372046942
 40
0.4373818076
 40
0.5021499066
 40
0.5663409481
 40
0.6299523108
 40
0.6929879996
 40
0.7554562386
 40
0.8787455655
 40
1.0
 40
1.0
 40
1.0
 40
1.0
 10
5.4898775767
 20
9.8468858165
 30
0.0
 10
5.4898973264
 20
9.8468990818
 30
0.0
 10
5.4899680553
 20
9.8469344794
 30
0.0
 10
5.490113739
 20
9.8470129905
 30
0.0
 10
5.4903452832
 20
9.8471326597
 30
0.0
 10
5.4906592114
 20
9.8472974203
 30
0.0
 10
5.4910525576
 20
9.8475042129
 30
0.0
 10
5.4917145054
 20
9.8478548962
 30
0.0
 10
5.4926792967
 20
9.8483718268
 30
0.0
 10
5.4939637999
 20
9.8490694353
 30
0.0
 10
5.4953793683
 20
9.849847649
 30
0.0
 10
5.4968836829
 20
9.8506835692
 30
0.0
 10
5.4989948814
 20
9.8518675074
 30
0.0
 10
5.5017089512
 20
9.8534077543
 30
0.0
 10
5.5050186203
 20
9.855307584
 30
0.0
 10
5.5083755543
 20
9.857251115
 30
0.0
 10
5.5117573229
 20
9.8592214304
 30
0.0
 10
5.5151521708
 20
9.8612084238
 30
0.0
 10
5.5196894336
 20
9.8638724426
 30
0.0
 10
5.5253612197
 20
9.8672121558
 30
0.0
 10
5.532163371
 20
9.8712173615
 30
0.0
 10
5.5389581538
 20
9.8752060409
 30
0.0
 10
5.5457433918
 20
9.879166906
 30
0.0
 10
5.5547597631
 20
9.8843902226
 30
0.0
 10
5.5660027373
 20
9.8908134593
 30
0.0
 10
5.579489207
 20
9.8983331457
 30
0.0
 10
5.5929511588
 20
9.9056214834
 30
0.0
 10
5.6063952696
 20
9.9126546053
 30
0.0
 10
5.6198280615
 20
9.9194110118
 30
0.0
 10
5.633255574
 20
9.9258711801
 30
0.0
 10
5.6510816089
 20
9.9340259398
 30
0.0
 10
5.6733848911
 20
9.9434077378
 30
0.0
 10
5.6914725935
 20
9.9500690208
 30
0.0
 10
5.7005162326
 20
9.953147604
 30
0.0
  0
SPLINE
  5
5BC
100
AcDbEntity
  8
0
100
AcDbSpline
 62
9
  6
CONTINUOUS
 70
0
 71
3
 72
14
 73
10
 74
0
 42
0.0000001
 43
0.0000001
 44
0.0000000001
 40
0.0
 40
0.0
 40
0.0
 40
0.0
 40
0.1366624691
 40
0.2700990281
 40
0.5265578565
 40
0.6497551244
 40
0.7695385851
 40
0.8861344576
 40
1.0
 40
1.0
 40
1.0
 40
1.0
 10
5.0824071419
 20
9.4633765664
 30
0.0
 10
5.0840603432
 20
9.4608513502
 30
0.0
 10
5.0875565216
 20
9.4560042756
 30
0.0
 10
5.0952222246
 20
9.4472450585
 30
0.0
 10
5.103879706
 20
9.4397948198
 30
0.0
 10
5.113279274
 20
9.4339900198
 30
0.0
 10
5.1204703479
 20
9.4305777933
 30
0.0
 10
5.1278182238
 20
9.4281032644
 30
0.0
 10
5.132827061
 20
9.4271031106
 30
0.0
 10
5.1353213989
 20
9.4267832397
 30
0.0
  0
SPLINE
  5
5BD
100
AcDbEntity
  8
0
100
AcDbSpline
 62
9
  6
CONTINUOUS
 70
0
 71
3
 72
25
 73
21
 74
0
 42
0.0000001
 43
0.0000001
 44
0.0000000001
 40
0.0
 40
0.0
 40
0.0
 40
0.0
 40
0.0057925912
 40
0.0125646793
 40
0.0209736073
 40
0.0313275029
 40
0.0437510822
 40
0.0582856036
 40
0.0749308376
 40
0.0936643225
 40
0.1372430276
 40
0.1886682964
 40
0.2475218197
 40
0.3133585397
 40
0.3857077671
 40
0.4638470998
 40
0.5468182656
 40
0.6336482709
 40
0.8149733642
 40
1.0
 40
1.0
 40
1.0
 40
1.0
 10
5.0636759984
 20
9.7253220806
 30
0.0
 10
5.0635450187
 20
9.7251663378
 30
0.0
 10
5.0633401737
 20
9.7247579345
 30
0.0
 10
5.063280342
 20
9.7240122818
 30
0.0
 10
5.0634259847
 20
9.7231219338
 30
0.0
 10
5.06376703
 20
9.7220778654
 30
0.0
 10
5.0643007961
 20
9.7208789465
 30
0.0
 10
5.0650250158
 20
9.719528022
 30
0.0
 10
5.0659367709
 20
9.7180294412
 30
0.0
 10
5.0674780565
 20
9.715722472
 30
0.0
 10
5.0698693237
 20
9.7125182867
 30
0.0
 10
5.0732951822
 20
9.7083360602
 30
0.0
 10
5.0773798393
 20
9.7036875791
 30
0.0
 10
5.0820916734
 20
9.6986156369
 30
0.0
 10
5.0873940596
 20
9.6931705621
 30
0.0
 10
5.0932311519
 20
9.687408438
 30
0.0
 10
5.0995311592
 20
9.6813929429
 30
0.0
 10
5.1085781333
 20
9.6730071304
 30
0.0
 10
5.1204746107
 20
9.6624241785
 30
0.0
 10
5.1303024055
 20
9.6541116059
 30
0.0
 10
5.1353213989
 20
9.6499810665
 30
0.0
  0
SPLINE
  5
5BE
100
AcDbEntity
  8
0
100
AcDbSpline
 62
9
  6
CONTINUOUS
 70
0
 71
3
 72
13
 73
9
 74
0
 42
0.0000001
 43
0.0000001
 44
0.0000000001
 40
0.0
 40
0.0
 40
0.0
 40
0.0
 40
0.1165749894
 40
0.2342215605
 40
0.3537590184
 40
0.4758799263
 40
0.7297781433
 40
1.0
 40
1.0
 40
1.0
 40
1.0
 10
5.0901666365
 20
10.1110581133
 30
0.0
 10
5.0917551306
 20
10.1119236865
 30
0.0
 10
5.095060309
 20
10.1134624175
 30
0.0
 10
5.1002947773
 20
10.115157504
 30
0.0
 10
5.1057768359
 20
10.1162429376
 30
0.0
 10
5.1134543588
 20
10.1168812181
 30
0.0
 10
5.1235259338
 20
10.1160721822
 30
0.0
 10
5.1314020718
 20
10.1138367896
 30
0.0
 10
5.1353213989
 20
10.1123459097
 30
0.0
  0
SPLINE
  5
5BF
100
AcDbEntity
  8
0
100
AcDbSpline
 62
9
  6
CONTINUOUS
 70
0
 71
3
 72
24
 73
20
 74
0
 42
0.0000001
 43
0.0000001
 44
0.0000000001
 40
0.0
 40
0.0
 40
0.0
 40
0.0
 40
0.0453315079
 40
0.0912088067
 40
0.1381842132
 40
0.1622711106
 40
0.1868481715
 40
0.2377114432
 40
0.2912388214
 40
0.3478108564
 40
0.4077205203
 40
0.4710879094
 40
0.537936899
 40
0.6082104784
 40
0.6816775909
 40
0.7580228985
 40
0.8368785088
 40
0.9177314941
 40
1.0
 40
1.0
 40
1.0
 40
1.0
 10
2.8704483578
 20
9.5914740677
 30
0.0
 10
2.8800461822
 20
9.5915537942
 30
0.0
 10
2.8993657739
 20
9.5926953466
 30
0.0
 10
2.9282747715
 20
9.5975323633
 30
0.0
 10
2.9521680856
 20
9.6042157796
 30
0.0
 10
2.9711937219
 20
9.6111716717
 30
0.0
 10
2.9905969574
 20
9.6194145075
 30
0.0
 10
3.0149011237
 20
9.6319601997
 30
0.0
 10
3.0437033093
 20
9.6502526539
 30
0.0
 10
3.0724763065
 20
9.6719406025
 30
0.0
 10
3.101198405
 20
9.6969846096
 30
0.0
 10
3.1299031978
 20
9.7252375261
 30
0.0
 10
3.1585970446
 20
9.7565432683
 30
0.0
 10
3.1872583201
 20
9.7907153475
 30
0.0
 10
3.2159147845
 20
9.8274718757
 30
0.0
 10
3.2445724318
 20
9.8665028891
 30
0.0
 10
3.273208542
 20
9.9074704371
 30
0.0
 10
3.3018415635
 20
9.9499590677
 30
0.0
 10
3.3208141102
 20
9.978820084
 30
0.0
 10
3.3303360894
 20
9.9934060599
 30
0.0
  0
SPLINE
  5
5C0
100
AcDbEntity
  8
0
100
AcDbSpline
 62
9
  6
CONTINUOUS
 70
0
 71
3
 72
9
 73
5
 74
0
 42
0.0000001
 43
0.0000001
 44
0.0000000001
 40
0.0
 40
0.0
 40
0.0
 40
0.0
 40
0.249503983
 40
1.0
 40
1.0
 40
1.0
 40
1.0
 10
5.2626198234
 20
9.9685825921
 30
0.0
 10
5.2669963851
 20
9.9685771635
 30
0.0
 10
5.2845368423
 20
9.9682739011
 30
0.0
 10
5.3020518288
 20
9.9669091614
 30
0.0
 10
5.3151310391
 20
9.9654130805
 30
0.0
  0
SPLINE
  5
5C1
100
AcDbEntity
  8
0
100
AcDbSpline
 62
9
  6
CONTINUOUS
 70
0
 71
3
 72
13
 73
9
 74
0
 42
0.0000001
 43
0.0000001
 44
0.0000000001
 40
0.0
 40
0.0
 40
0.0
 40
0.0
 40
0.2707327812
 40
0.5249053241
 40
0.6470711177
 40
0.7666144892
 40
0.8840750535
 40
1.0
 40
1.0
 40
1.0
 40
1.0
 10
5.1353214003
 20
10.1123459107
 30
0.0
 10
5.1435694259
 20
10.1181788633
 30
0.0
 10
5.1601311344
 20
10.1287145479
 30
0.0
 10
5.1819008911
 20
10.1392994859
 30
0.0
 10
5.1992426655
 20
10.1457840053
 30
0.0
 10
5.2120816291
 20
10.1496624967
 30
0.0
 10
5.2249215982
 20
10.1526303643
 30
0.0
 10
5.2335271739
 20
10.1540161008
 30
0.0
 10
5.2378186895
 20
10.1545583003
 30
0.0
  0
ENDSEC
  0
SECTION
  2
OBJECTS
  0
DICTIONARY
  5
C
100
AcDbDictionary
280
0
281
1
  3
ACAD_GROUP
350
D
  3
ACAD_MLINESTYLE
350
17
  3
ACAD_LAYOUT
350
1A
  3
ACAD_PLOTSETTINGS
350
19
  3
ACAD_PLOTSTYLENAME
350
E
  0
DICTIONARY
  5
D
102
{ACAD_REACTORS
330
C
102
}
100
AcDbDictionary
280
0
281
1
  0
ACDBDICTIONARYWDFLT
  5
E
102
{ACAD_REACTORS
330
C
102
}
100
AcDbDictionary
281
1
  3
Normal
350
F
100
AcDbDictionaryWithDefault
340
F
  0
DICTIONARY
  5
17
102
{ACAD_REACTORS
330
C
102
}
100
AcDbDictionary
280
0
281
1
  3
Standard
350
18
  0
DICTIONARY
  5
19
102
{ACAD_REACTORS
330
C
102
}
100
AcDbDictionary
281
1
  0
DICTIONARY
  5
1A
102
{ACAD_REACTORS
330
C
102
}
100
AcDbDictionary
281
1
  3
Model
350
5C2
  3
Layout1
350
5C3
  0
ACDBPLACEHOLDER
  5
F
102
{ACAD_REACTORS
330
E
102
}
  0
MLINESTYLE
  5
18
102
{ACAD_REACTORS
330
17
102
}
100
AcDbMlineStyle
  2
STANDARD
 70
0
  3

 62
256
 51
90.0
 52
90.0
 71
2
 49
0.5
 62
256
  6
BYLAYER
 49
-0.5
 62
256
  6
BYLAYER
  0
LAYOUT
  5
5C2
102
{ACAD_REACTORS
330
1A
102
}
100
AcDbPlotSettings
  1

  2
none_device
  4
ANSI_C_(22.00_x_17.00_Inches)
  6

 40
0.0
 41
0.0
 42
0.0
 43
0.0
 44
558.8
 45
431.8
 46
0.0
 47
0.0
 48
0.0
 49
0.0
140
0.0
141
0.0
142
1.0
143
1.0
 70
1024
 72
0
 73
0
 74
0
  7

 75
0
147
1.0
148
0.0
149
0.0
100
AcDbLayout
  1
Model
 70
0
 71
0
 10
0.0
 20
0.0
 11
22.0
 21
17.0
 12
0.0
 22
0.0
 32
0.0
 14
0.0
 24
0.0
 34
0.0
 15
0.0
 25
0.0
 35
0.0
146
0.0
 13
0.0
 23
0.0
 33
0.0
 16
1.0
 26
0.0
 36
0.0
 17
0.0
 27
1.0
 37
0.0
 76
0
330
202
345
0
346
0
  0
LAYOUT
  5
5C3
102
{ACAD_REACTORS
330
1A
102
}
100
AcDbPlotSettings
  1

  2
none_device
  4
ANSI_C_(22.00_x_17.00_Inches)
  6

 40
0.0
 41
0.0
 42
0.0
 43
0.0
 44
558.8
 45
431.8
 46
0.0
 47
0.0
 48
0.0
 49
0.0
140
0.0
141
0.0
142
1.0
143
1.0
 70
0
 72
0
 73
0
 74
0
  7

 75
0
147
1.0
148
0.0
149
0.0
100
AcDbLayout
  1
Layout1
 70
0
 71
1
 10
0.0
 20
0.0
 11
22.0
 21
17.0
 12
0.0
 22
0.0
 32
0.0
 14
0.0
 24
0.0
 34
0.0
 15
0.0
 25
0.0
 35
0.0
146
0.0
 13
0.0
 23
0.0
 33
0.0
 16
1.0
 26
0.0
 36
0.0
 17
0.0
 27
1.0
 37
0.0
 76
0
330
203
345
0
346
0
  0
ENDSEC
  0
EOF
