999
DXF file: E:\BT Custom\CADOUTPUT\_RIGHT.dxf
999
Pro/ENGINEER 2018400 by Parametric Technology Corporation
  0
SECTION
  2
HEADER
  9
$ACADVER
  1
AC1018
  9
$DWGCODEPAGE
  3
ANSI_1252
  9
$EXTMAX
 10
22.0
 20
17.0
 30
0.0
  9
$EXTMIN
 10
0.0
 20
0.0
 30
0.0
  9
$LIMMIN
 10
0.0
 20
0.0
  9
$LIMMAX
 10
22.0
 20
17.0
  9
$VIEWCTR
 10
11.0
 20
8.5
  9
$VIEWSIZE
 40
17.0
  9
$CLAYER
  8
0
  9
$LTSCALE
 40
1.21
  9
$CELTYPE
  6
BYLAYER
  9
$DIMSCALE
 40
1.0
  9
$DIMASZ
 40
0.1
  9
$DIMEXO
 40
0.0625
  9
$DIMDLI
 40
0.836
  9
$DIMEXE
 40
0.125
  9
$DIMCEN
 40
0.198
  9
$DIMLFAC
 40
1.0
  9
$DIMBLK
  1
_FILLED
  9
$DIMALT
 70
1
  9
$DIMALTD
 70
2
  9
$DIMALTTD
 70
2
  9
$DIMALTF
 40
25.4
  9
$DIMTXT
 40
0.08
  9
$DIMTOL
 70
1
  9
$DIMLIM
 70
0
  9
$DIMTFAC
 40
1.0
  9
$DIMTP
 40
0.001
  9
$DIMTM
 40
0.001
  9
$DIMGAP
 40
0.09
  9
$DIMDSEP
 70
46
  9
$AUNITS
 70
0
  9
$PDMODE
 70
3
  9
$PDSIZE
 40
0.06
  9
$HANDSEED
  5
32C
  9
$TILEMODE
 70
1
  9
$MEASUREMENT
 70
0
  9
$INSUNITS
 70
1
  0
ENDSEC
  0
SECTION
  2
CLASSES
  0
CLASS
  1
ACDBDICTIONARYWDFLT
  2
AcDbDictionaryWithDefault
  3
AutoCAD 2000
 90
0
 91
1
280
0
281
0
  0
CLASS
  1
ACDBPLACEHOLDER
  2
AcDbPlaceHolder
  3
AutoCAD 2000
 90
0
 91
1
280
0
281
0
  0
CLASS
  1
LAYOUT
  2
AcDbLayout
  3
AutoCAD 2000
 90
0
 91
0
280
0
281
0
  0
ENDSEC
  0
SECTION
  2
TABLES
  0
TABLE
  2
VPORT
  5
8
100
AcDbSymbolTable
 70
2
  0
VPORT
  5
1F4
100
AcDbSymbolTableRecord
100
AcDbViewportTableRecord
  2
*ACTIVE
 70
0
 10
0.0
 20
0.0
 11
1.0
 21
1.0
 12
11.0
 22
8.5
 13
0.0
 23
0.0
 14
1.0
 24
1.0
 15
0.0
 25
0.0
 16
0.0
 26
0.0
 36
1.0
 17
0.0
 27
0.0
 37
0.0
 40
17.0
 41
1.2941176471
 42
50.0
 43
0.0
 44
0.0
 50
0.0
 51
0.0
 71
0
 72
100
 73
1
 74
1
 75
0
 76
0
 77
0
 78
0
  0
ENDTAB
  0
TABLE
  2
LTYPE
  5
5
100
AcDbSymbolTable
 70
6
  0
LTYPE
  5
14
100
AcDbSymbolTableRecord
100
AcDbLinetypeTableRecord
  2
BYBLOCK
 70
0
  3

 72
65
 73
0
 40
0.0
  0
LTYPE
  5
15
100
AcDbSymbolTableRecord
100
AcDbLinetypeTableRecord
  2
BYLAYER
 70
0
  3

 72
65
 73
0
 40
0.0
  0
LTYPE
  5
16
100
AcDbSymbolTableRecord
100
AcDbLinetypeTableRecord
  2
CONTINUOUS
 70
64
  3
Solid line
 72
65
 73
0
 40
0.0
  0
LTYPE
  5
1F5
100
AcDbSymbolTableRecord
100
AcDbLinetypeTableRecord
  2
CENTER
 70
64
  3
____ _ ____ _ ____ _ ____ _ ____ _ ____ _ ____
 72
65
 73
4
 40
0.6
 49
0.375
 74
0
 49
-0.075
 74
0
 49
0.075
 74
0
 49
-0.075
 74
0
  0
LTYPE
  5
1F6
100
AcDbSymbolTableRecord
100
AcDbLinetypeTableRecord
  2
HIDDEN
 70
64
  3
- - - - - - - - - - - - - - - - - - - -
 72
65
 73
2
 40
0.2
 49
0.1
 74
0
 49
-0.1
 74
0
  0
LTYPE
  5
1F7
100
AcDbSymbolTableRecord
100
AcDbLinetypeTableRecord
  2
PHANTOM
 70
64
  3
_____ _ _ _____ _ _ _____ _ _ _____
 72
65
 73
6
 40
0.8
 49
0.45
 74
0
 49
-0.05
 74
0
 49
0.1
 74
0
 49
-0.05
 74
0
 49
0.1
 74
0
 49
-0.05
 74
0
  0
LTYPE
  5
1F8
100
AcDbSymbolTableRecord
100
AcDbLinetypeTableRecord
  2
DOT
 70
64
  3
. . . . . . . . . . . . . . . . . . . .
 72
65
 73
2
 40
0.2
 49
0.1
 74
0
 49
-0.1
 74
0
  0
LTYPE
  5
1F9
100
AcDbSymbolTableRecord
100
AcDbLinetypeTableRecord
  2
DASHED
 70
64
  3
- - - - - - - - - - - - - - - - - - - -
 72
65
 73
2
 40
0.2
 49
0.1
 74
0
 49
-0.1
 74
0
  0
ENDTAB
  0
TABLE
  2
LAYER
  5
2
100
AcDbSymbolTable
 70
36
  0
LAYER
  5
10
100
AcDbSymbolTableRecord
100
AcDbLayerTableRecord
  2
0
 70
0
 62
7
  6
CONTINUOUS
370
-3
390
F
  0
LAYER
  5
1FA
100
AcDbSymbolTableRecord
100
AcDbLayerTableRecord
  2
DEFAULT_1
 70
0
 62
7
  6
CENTER
370
-3
390
F
  0
LAYER
  5
1FB
100
AcDbSymbolTableRecord
100
AcDbLayerTableRecord
  2
DEFAULT_2
 70
0
 62
8
  6
HIDDEN
370
-3
390
F
  0
LAYER
  5
1FC
100
AcDbSymbolTableRecord
100
AcDbLayerTableRecord
  2
DEFAULT_3
 70
0
 62
7
  6
PHANTOM
370
-3
390
F
  0
LAYER
  5
1FD
100
AcDbSymbolTableRecord
100
AcDbLayerTableRecord
  2
ALL_FEATURES
 70
0
 62
7
  6
CONTINUOUS
370
-3
390
F
  0
LAYER
  5
1FE
100
AcDbSymbolTableRecord
100
AcDbLayerTableRecord
  2
AXES_FEATURES
 70
0
 62
7
  6
CONTINUOUS
370
-3
390
F
  0
LAYER
  5
1FF
100
AcDbSymbolTableRecord
100
AcDbLayerTableRecord
  2
DIMENSIONS
 70
0
 62
7
  6
CONTINUOUS
370
-3
390
F
  0
ENDTAB
  0
TABLE
  2
STYLE
  5
3
100
AcDbSymbolTable
 70
1
  0
STYLE
  5
11
100
AcDbSymbolTableRecord
100
AcDbTextStyleTableRecord
  2
STANDARD
 70
0
 40
0.0
 41
0.8
 50
0.0
 71
0
 42
0.2
  3
txt
  4

  0
STYLE
  5
200
100
AcDbSymbolTableRecord
100
AcDbTextStyleTableRecord
  2
TEXTSTYLE_1
 70
0
 40
0.0
 41
0.8
 50
0.0
 71
0
 42
0.2
  3
gdt
  4

  0
ENDTAB
  0
TABLE
  2
VIEW
  5
6
100
AcDbSymbolTable
 70
0
  0
ENDTAB
  0
TABLE
  2
UCS
  5
7
100
AcDbSymbolTable
 70
0
  0
ENDTAB
  0
TABLE
  2
APPID
  5
9
100
AcDbSymbolTable
 70
1
  0
APPID
  5
201
100
AcDbSymbolTableRecord
100
AcDbRegAppTableRecord
  2
ACAD
 70
0
  0
ENDTAB
  0
TABLE
  2
BLOCK_RECORD
  5
1
100
AcDbSymbolTable
 70
0
  0
BLOCK_RECORD
  5
202
100
AcDbSymbolTableRecord
100
AcDbBlockTableRecord
  2
*Model_Space
  0
BLOCK_RECORD
  5
203
100
AcDbSymbolTableRecord
100
AcDbBlockTableRecord
  2
*Paper_Space
  0
BLOCK_RECORD
  5
204
100
AcDbSymbolTableRecord
100
AcDbBlockTableRecord
  2
_FILLED
  0
ENDTAB
  0
TABLE
  2
DIMSTYLE
  5
A
100
AcDbSymbolTable
 70
1
100
AcDbDimStyleTable
 71
0
  0
DIMSTYLE
105
205
100
AcDbSymbolTableRecord
100
AcDbDimStyleTableRecord
  2
STANDARD
 70
0
  3

  4

 40
1.0
 41
0.1
 42
0.0625
 43
0.38
 44
0.125
 45
0.0
 46
0.0
 47
0.001
 48
0.001
140
0.08
141
0.09
142
0.0
143
25.4
144
1.0
145
0.0
146
1.0
147
0.09
 71
1.0
 72
0.0
 73
1
 74
1
 75
0
 76
0
 77
0
 78
4
 79
1
170
1
171
2
172
0
173
0
174
0
175
0
176
0
177
0
178
0
270
2
179
3
271
3
272
3
273
2
274
2
275
0
280
0
281
0
282
0
283
1
284
4
285
0
286
0
287
3
288
0
340
11
278
46
341
204
342
204
343
204
344
204
  0
ENDTAB
  0
ENDSEC
  0
SECTION
  2
BLOCKS
  0
BLOCK
  5
20
100
AcDbEntity
  8
0
100
AcDbBlockBegin
  2
*Model_Space
 70
0
 10
0.0
 20
0.0
 30
0.0
  3
*Model_Space
  1

  0
ENDBLK
  5
21
100
AcDbEntity
  8
0
100
AcDbBlockEnd
  0
BLOCK
  5
1C
100
AcDbEntity
  8
0
100
AcDbBlockBegin
  2
*Paper_Space
 70
0
 10
0.0
 20
0.0
 30
0.0
  3
*Paper_Space
  1

  0
ENDBLK
  5
1D
100
AcDbEntity
  8
0
100
AcDbBlockEnd
  0
BLOCK
  5
206
100
AcDbEntity
  8
0
100
AcDbBlockBegin
  2
_FILLED
 70
64
 10
0.0
 20
0.0
  3
_FILLED
  1

  0
SOLID
  5
207
100
AcDbEntity
  8
0
  6
BYBLOCK
 62
0
100
AcDbTrace
 10
0.0
 20
0.0
 11
-1.0
 21
0.2
 12
-1.0
 22
-0.2
 13
-1.0
 23
-0.2
  0
ENDBLK
  5
208
100
AcDbEntity
  8
0
  6
BYBLOCK
 62
0
100
AcDbBlockEnd
  0
ENDSEC
  0
SECTION
  2
ENTITIES
  0
LINE
  5
209
100
AcDbEntity
  8
0
100
AcDbLine
 62
7
  6
CONTINUOUS
 10
6.411587991
 20
10.0410079987
 11
6.4193071555
 21
9.3375522387
  0
LINE
  5
20A
100
AcDbEntity
  8
0
100
AcDbLine
 62
7
  6
CONTINUOUS
 10
7.2424143693
 20
9.9683201092
 11
7.1126586654
 21
9.2768918417
  0
LINE
  5
20B
100
AcDbEntity
  8
0
100
AcDbLine
 62
9
  6
CONTINUOUS
 10
8.5338732102
 20
11.4276212293
 11
8.3201106207
 21
10.8403133413
  0
LINE
  5
20C
100
AcDbEntity
  8
0
100
AcDbLine
 62
7
  6
CONTINUOUS
 10
12.5393892225
 20
5.9976412472
 11
14.8993696511
 21
5.9976412472
  0
LINE
  5
20D
100
AcDbEntity
  8
0
100
AcDbLine
 62
9
  6
CONTINUOUS
 10
14.8943794368
 20
6.1026412472
 11
14.8660901527
 21
6.1026412472
  0
LINE
  5
20E
100
AcDbEntity
  8
0
100
AcDbLine
 62
9
  6
CONTINUOUS
 10
12.5726687209
 20
6.1026412472
 11
12.5443794368
 21
6.1026412472
  0
LINE
  5
20F
100
AcDbEntity
  8
0
100
AcDbLine
 62
7
  6
CONTINUOUS
 10
14.8643794368
 20
6.1326412472
 11
14.84048617
 21
6.1326412472
  0
LINE
  5
210
100
AcDbEntity
  8
0
100
AcDbLine
 62
7
  6
CONTINUOUS
 10
12.5982727036
 20
6.1326412472
 11
12.5743794368
 21
6.1326412472
  0
LINE
  5
211
100
AcDbEntity
  8
0
100
AcDbLine
 62
7
  6
CONTINUOUS
 10
12.7193794368
 20
6.1846412472
 11
14.7193794368
 21
6.1846412472
  0
LINE
  5
212
100
AcDbEntity
  8
0
100
AcDbLine
 62
7
  6
CONTINUOUS
 10
14.5893683204
 20
6.3726412472
 11
12.8493905533
 21
6.3726412472
  0
LINE
  5
213
100
AcDbEntity
  8
0
100
AcDbLine
 62
7
  6
CONTINUOUS
 10
12.9783892187
 20
6.4346412472
 11
14.4603696549
 21
6.4346412472
  0
LINE
  5
214
100
AcDbEntity
  8
0
100
AcDbLine
 62
9
  6
CONTINUOUS
 10
14.3605428765
 20
6.8011412472
 11
13.0782159972
 21
6.8011412472
  0
LINE
  5
215
100
AcDbEntity
  8
0
100
AcDbLine
 62
9
  6
CONTINUOUS
 10
13.1008794368
 20
7.0161412472
 11
14.3378794368
 21
7.0161412472
  0
LINE
  5
216
100
AcDbEntity
  8
0
100
AcDbLine
 62
9
  6
CONTINUOUS
 10
13.1047454426
 20
7.2443400588
 11
14.334013431
 21
7.2443400588
  0
LINE
  5
217
100
AcDbEntity
  8
0
100
AcDbLine
 62
9
  6
CONTINUOUS
 10
14.2598794368
 20
7.350257686
 11
13.1788794368
 21
7.350257686
  0
LINE
  5
218
100
AcDbEntity
  8
0
100
AcDbLine
 62
9
  6
CONTINUOUS
 10
9.8166881309
 20
10.2956036743
 11
10.0304507204
 21
10.8829115623
  0
LINE
  5
219
100
AcDbEntity
  8
0
100
AcDbLine
 62
9
  6
CONTINUOUS
 10
14.1491191642
 20
7.6562404918
 11
13.2896397094
 21
7.6562404918
  0
LINE
  5
21A
100
AcDbEntity
  8
0
100
AcDbLine
 62
7
  6
CONTINUOUS
 10
14.1182283253
 20
7.6846412472
 11
13.3205305483
 21
7.6846412472
  0
LINE
  5
21B
100
AcDbEntity
  8
0
100
AcDbLine
 62
7
  6
CONTINUOUS
 10
13.5356303099
 20
7.6946412472
 11
13.5413985156
 21
7.6946412472
  0
LINE
  5
21C
100
AcDbEntity
  8
0
100
AcDbLine
 62
7
  6
CONTINUOUS
 10
13.5578362431
 20
7.6946412472
 11
13.5742627031
 21
7.6946412472
  0
LINE
  5
21D
100
AcDbEntity
  8
0
100
AcDbLine
 62
7
  6
CONTINUOUS
 10
13.6046356631
 20
7.6946412472
 11
13.6292195979
 21
7.6946412472
  0
LINE
  5
21E
100
AcDbEntity
  8
0
100
AcDbLine
 62
7
  6
CONTINUOUS
 10
13.6689037825
 20
7.6946412472
 11
13.6979025109
 21
7.6946412472
  0
LINE
  5
21F
100
AcDbEntity
  8
0
100
AcDbLine
 62
7
  6
CONTINUOUS
 10
13.7408563628
 20
7.6946412472
 11
13.7698550911
 21
7.6946412472
  0
LINE
  5
220
100
AcDbEntity
  8
0
100
AcDbLine
 62
7
  6
CONTINUOUS
 10
13.8095392757
 20
7.6946412472
 11
13.8341232105
 21
7.6946412472
  0
LINE
  5
221
100
AcDbEntity
  8
0
100
AcDbLine
 62
7
  6
CONTINUOUS
 10
13.8644961705
 20
7.6946412472
 11
13.8809226306
 21
7.6946412472
  0
LINE
  5
222
100
AcDbEntity
  8
0
100
AcDbLine
 62
7
  6
CONTINUOUS
 10
13.8973603581
 20
7.6946412472
 11
13.9031285638
 21
7.6946412472
  0
LINE
  5
223
100
AcDbEntity
  8
0
100
AcDbLine
 62
7
  6
CONTINUOUS
 10
13.3668799209
 20
7.7002662472
 11
14.0718789527
 21
7.7002662472
  0
LINE
  5
224
100
AcDbEntity
  8
0
100
AcDbLine
 62
7
  6
CONTINUOUS
 10
13.7424734476
 20
7.8602662472
 11
13.6962854261
 21
7.8602662472
  0
LINE
  5
225
100
AcDbEntity
  8
0
100
AcDbLine
 62
7
  6
CONTINUOUS
 10
13.6962854261
 20
7.9402662472
 11
13.7424734476
 21
7.9402662472
  0
LINE
  5
226
100
AcDbEntity
  8
0
100
AcDbLine
 62
7
  6
CONTINUOUS
 10
13.2663794368
 20
8.0084721491
 11
13.3668794368
 21
8.0084721491
  0
LINE
  5
227
100
AcDbEntity
  8
0
100
AcDbLine
 62
7
  6
CONTINUOUS
 10
14.0718794368
 20
8.0084721491
 11
14.1723794368
 21
8.0084721491
  0
LINE
  5
228
100
AcDbEntity
  8
0
100
AcDbLine
 62
7
  6
CONTINUOUS
 10
14.1723794368
 20
8.0389326331
 11
14.0718794368
 21
8.0389326331
  0
LINE
  5
229
100
AcDbEntity
  8
0
100
AcDbLine
 62
7
  6
CONTINUOUS
 10
13.3668794368
 20
8.0389326331
 11
13.2663794368
 21
8.0389326331
  0
LINE
  5
22A
100
AcDbEntity
  8
0
100
AcDbLine
 62
7
  6
CONTINUOUS
 10
14.0718794368
 20
8.1002662472
 11
13.3668794368
 21
8.1002662472
  0
LINE
  5
22B
100
AcDbEntity
  8
0
100
AcDbLine
 62
7
  6
CONTINUOUS
 10
14.0198794368
 20
8.1602876391
 11
13.4188794368
 21
8.1602876391
  0
LINE
  5
22C
100
AcDbEntity
  8
0
100
AcDbLine
 62
9
  6
CONTINUOUS
 10
10.3298893559
 20
10.8301124492
 11
10.3298893559
 21
10.2051124518
  0
LINE
  5
22D
100
AcDbEntity
  8
0
100
AcDbLine
 62
9
  6
CONTINUOUS
 10
13.4040945457
 20
8.4312144963
 11
14.034664328
 21
8.4312144963
  0
LINE
  5
22E
100
AcDbEntity
  8
0
100
AcDbLine
 62
7
  6
CONTINUOUS
 10
13.2663794368
 20
8.6263498613
 11
13.4746436868
 21
8.6263498613
  0
LINE
  5
22F
100
AcDbEntity
  8
0
100
AcDbLine
 62
7
  6
CONTINUOUS
 10
13.9641151869
 20
8.6263498613
 11
14.1723794368
 21
8.6263498613
  0
LINE
  5
230
100
AcDbEntity
  8
0
100
AcDbLine
 62
7
  6
CONTINUOUS
 10
14.1723794368
 20
8.6568103453
 11
13.9605266865
 21
8.6568103453
  0
LINE
  5
231
100
AcDbEntity
  8
0
100
AcDbLine
 62
7
  6
CONTINUOUS
 10
13.4782321872
 20
8.6568103453
 11
13.2663794368
 21
8.6568103453
  0
LINE
  5
232
100
AcDbEntity
  8
0
100
AcDbLine
 62
9
  6
CONTINUOUS
 10
13.4818794368
 20
8.7104226501
 11
13.9568794368
 21
8.7104226501
  0
LINE
  5
233
100
AcDbEntity
  8
0
100
AcDbLine
 62
9
  6
CONTINUOUS
 10
13.9568794368
 20
8.7604226501
 11
13.4818794368
 21
8.7604226501
  0
LINE
  5
234
100
AcDbEntity
  8
0
100
AcDbLine
 62
9
  6
CONTINUOUS
 10
13.4631294368
 20
8.7803835494
 11
13.9756294368
 21
8.7803835494
  0
LINE
  5
235
100
AcDbEntity
  8
0
100
AcDbLine
 62
7
  6
CONTINUOUS
 10
13.9718728332
 20
8.9002662472
 11
13.4668860404
 21
8.9002662472
  0
LINE
  5
236
100
AcDbEntity
  8
0
100
AcDbLine
 62
7
  6
CONTINUOUS
 10
6.4476034613
 20
9.3070103519
 11
7.0794887011
 21
9.2517275568
  0
LINE
  5
237
100
AcDbEntity
  8
0
100
AcDbLine
 62
9
  6
CONTINUOUS
 10
6.4193071555
 20
9.3375522387
 11
7.1126586654
 21
9.2768918417
  0
LINE
  5
238
100
AcDbEntity
  8
0
100
AcDbLine
 62
7
  6
CONTINUOUS
 10
7.2424143693
 20
9.9683201092
 11
6.411587991
 21
10.0410079987
  0
LINE
  5
239
100
AcDbEntity
  8
0
100
AcDbLine
 62
7
  6
CONTINUOUS
 10
12.9605299738
 20
10.1106124518
 11
12.5648893559
 21
10.1106124518
  0
LINE
  5
23A
100
AcDbEntity
  8
0
100
AcDbLine
 62
7
  6
CONTINUOUS
 10
7.237276848
 20
10.0931773843
 11
6.4383287001
 21
10.16307629
  0
LINE
  5
23B
100
AcDbEntity
  8
0
100
AcDbLine
 62
7
  6
CONTINUOUS
 10
8.3201106207
 20
10.8403133413
 11
9.8166881309
 21
10.2956036743
  0
LINE
  5
23C
100
AcDbEntity
  8
0
100
AcDbLine
 62
7
  6
CONTINUOUS
 10
14.3605428765
 20
6.8011412472
 11
14.3758794368
 21
6.7858488655
  0
LINE
  5
23D
100
AcDbEntity
  8
0
100
AcDbLine
 62
7
  6
CONTINUOUS
 10
10.3298893559
 20
10.2051124518
 11
12.4398893559
 21
10.2051124518
  0
LINE
  5
23E
100
AcDbEntity
  8
0
100
AcDbLine
 62
7
  6
CONTINUOUS
 10
14.9028893559
 20
10.2366124518
 11
14.8668893559
 21
10.2366124518
  0
LINE
  5
23F
100
AcDbEntity
  8
0
100
AcDbLine
 62
7
  6
CONTINUOUS
 10
14.5538893559
 20
10.3151124518
 11
14.3998893559
 21
10.3151124518
  0
LINE
  5
240
100
AcDbEntity
  8
0
100
AcDbLine
 62
7
  6
CONTINUOUS
 10
14.8068893559
 20
10.3391124518
 11
14.7758893559
 21
10.3391124518
  0
LINE
  5
241
100
AcDbEntity
  8
0
100
AcDbLine
 62
7
  6
CONTINUOUS
 10
12.4398893559
 20
10.9246124518
 11
12.4398893559
 21
10.1106124518
  0
LINE
  5
242
100
AcDbEntity
  8
0
100
AcDbLine
 62
7
  6
CONTINUOUS
 10
14.8068893559
 20
10.6961124518
 11
14.7758893559
 21
10.6961124518
  0
LINE
  5
243
100
AcDbEntity
  8
0
100
AcDbLine
 62
7
  6
CONTINUOUS
 10
14.5538893559
 20
10.7201124518
 11
14.3998893559
 21
10.7201124518
  0
LINE
  5
244
100
AcDbEntity
  8
0
100
AcDbLine
 62
7
  6
CONTINUOUS
 10
14.9028893559
 20
10.7986124518
 11
14.8668893559
 21
10.7986124518
  0
LINE
  5
245
100
AcDbEntity
  8
0
100
AcDbLine
 62
7
  6
CONTINUOUS
 10
8.5338732102
 20
11.4276212293
 11
10.0304507204
 21
10.8829115623
  0
LINE
  5
246
100
AcDbEntity
  8
0
100
AcDbLine
 62
7
  6
CONTINUOUS
 10
12.5443794368
 20
6.1026412472
 11
12.5443794368
 21
6.0398502754
  0
LINE
  5
247
100
AcDbEntity
  8
0
100
AcDbLine
 62
7
  6
CONTINUOUS
 10
12.5648893559
 20
10.9246124518
 11
12.5648893559
 21
10.1106124518
  0
LINE
  5
248
100
AcDbEntity
  8
0
100
AcDbLine
 62
7
  6
CONTINUOUS
 10
10.3298893559
 20
10.8301124492
 11
12.4398893559
 21
10.8301124492
  0
LINE
  5
249
100
AcDbEntity
  8
0
100
AcDbLine
 62
7
  6
CONTINUOUS
 10
12.9605299738
 20
10.9246124518
 11
12.5648893559
 21
10.9246124518
  0
LINE
  5
24A
100
AcDbEntity
  8
0
100
AcDbLine
 62
7
  6
CONTINUOUS
 10
14.0198794368
 20
8.1602876391
 11
14.0718794368
 21
8.1002662472
  0
LINE
  5
24B
100
AcDbEntity
  8
0
100
AcDbLine
 62
7
  6
CONTINUOUS
 10
14.2598794368
 20
7.350257686
 11
14.334013431
 21
7.2443400588
  0
LINE
  5
24C
100
AcDbEntity
  8
0
100
AcDbLine
 62
7
  6
CONTINUOUS
 10
13.6731914153
 20
7.9002662472
 11
13.6962854261
 21
7.8602662472
  0
LINE
  5
24D
100
AcDbEntity
  8
0
100
AcDbLine
 62
7
  6
CONTINUOUS
 10
13.7655674584
 20
7.9002662472
 11
13.7424734476
 21
7.9402662472
  0
LINE
  5
24E
100
AcDbEntity
  8
0
100
AcDbLine
 62
9
  6
CONTINUOUS
 10
12.9605299738
 20
10.1106124518
 11
12.9605299738
 21
10.9246124518
  0
LINE
  5
24F
100
AcDbEntity
  8
0
100
AcDbLine
 62
7
  6
CONTINUOUS
 10
12.9783794368
 20
6.4346412472
 11
12.9783794368
 21
6.3726412472
  0
LINE
  5
250
100
AcDbEntity
  8
0
100
AcDbLine
 62
9
  6
CONTINUOUS
 10
13.0132438239
 20
10.1391124518
 11
13.0132438239
 21
10.8961124518
  0
LINE
  5
251
100
AcDbEntity
  8
0
100
AcDbLine
 62
7
  6
CONTINUOUS
 10
13.0628794368
 20
6.4346412472
 11
13.0628794368
 21
6.7858488653
  0
LINE
  5
252
100
AcDbEntity
  8
0
100
AcDbLine
 62
9
  6
CONTINUOUS
 10
13.1192119704
 20
10.138272219
 11
13.1192119704
 21
10.8969526847
  0
LINE
  5
253
100
AcDbEntity
  8
0
100
AcDbLine
 62
7
  6
CONTINUOUS
 10
13.4693796976
 20
11.1821423609
 11
13.969379176
 21
11.1821423609
  0
LINE
  5
254
100
AcDbEntity
  8
0
100
AcDbLine
 62
7
  6
CONTINUOUS
 10
13.9693794368
 20
11.1971423609
 11
13.4693794368
 21
11.1971423609
  0
LINE
  5
255
100
AcDbEntity
  8
0
100
AcDbLine
 62
7
  6
CONTINUOUS
 10
13.2663794368
 20
8.6568103453
 11
13.2663794368
 21
8.6263498613
  0
LINE
  5
256
100
AcDbEntity
  8
0
100
AcDbLine
 62
7
  6
CONTINUOUS
 10
13.2663794368
 20
8.0389326331
 11
13.2663794368
 21
8.0084721491
  0
LINE
  5
257
100
AcDbEntity
  8
0
100
AcDbLine
 62
7
  6
CONTINUOUS
 10
13.3668794368
 20
8.1002662472
 11
13.3668794368
 21
7.7002662472
  0
LINE
  5
258
100
AcDbEntity
  8
0
100
AcDbLine
 62
7
  6
CONTINUOUS
 10
13.4693794368
 20
11.6351423609
 11
13.4693794368
 21
11.5721423609
  0
LINE
  5
259
100
AcDbEntity
  8
0
100
AcDbLine
 62
7
  6
CONTINUOUS
 10
13.4693794368
 20
11.1971423609
 11
13.4693794368
 21
11.1821423609
  0
LINE
  5
25A
100
AcDbEntity
  8
0
100
AcDbLine
 62
7
  6
CONTINUOUS
 10
13.4818794368
 20
8.7604226501
 11
13.4818794368
 21
8.7104226501
  0
LINE
  5
25B
100
AcDbEntity
  8
0
100
AcDbLine
 62
7
  6
CONTINUOUS
 10
13.5243794368
 20
9.0128168707
 11
13.5243794368
 21
8.9002662472
  0
LINE
  5
25C
100
AcDbEntity
  8
0
100
AcDbLine
 62
7
  6
CONTINUOUS
 10
13.5356303099
 20
7.694642411
 11
13.5356303099
 21
7.7002662472
  0
LINE
  5
25D
100
AcDbEntity
  8
0
100
AcDbLine
 62
7
  6
CONTINUOUS
 10
13.5413985156
 20
7.7002662472
 11
13.5413985156
 21
7.6946409757
  0
LINE
  5
25E
100
AcDbEntity
  8
0
100
AcDbLine
 62
7
  6
CONTINUOUS
 10
13.5578362431
 20
7.694642411
 11
13.5578362431
 21
7.7002662472
  0
LINE
  5
25F
100
AcDbEntity
  8
0
100
AcDbLine
 62
7
  6
CONTINUOUS
 10
13.5742627031
 20
7.7002662472
 11
13.5742627031
 21
7.6946409757
  0
LINE
  5
260
100
AcDbEntity
  8
0
100
AcDbLine
 62
7
  6
CONTINUOUS
 10
13.4188794368
 20
8.1602876391
 11
13.3668794368
 21
8.1002662472
  0
LINE
  5
261
100
AcDbEntity
  8
0
100
AcDbLine
 62
7
  6
CONTINUOUS
 10
13.4693794368
 20
11.5721423609
 11
13.9693794368
 21
11.5721423609
  0
LINE
  5
262
100
AcDbEntity
  8
0
100
AcDbLine
 62
7
  6
CONTINUOUS
 10
14.0653794368
 20
11.6351423609
 11
13.3733794368
 21
11.6351423609
  0
LINE
  5
263
100
AcDbEntity
  8
0
100
AcDbLine
 62
7
  6
CONTINUOUS
 10
14.0653794368
 20
11.8701423609
 11
13.3733794368
 21
11.8701423609
  0
LINE
  5
264
100
AcDbEntity
  8
0
100
AcDbLine
 62
7
  6
CONTINUOUS
 10
13.5971637624
 20
7.6846412472
 11
13.5971637624
 21
7.7002662472
  0
LINE
  5
265
100
AcDbEntity
  8
0
100
AcDbLine
 62
7
  6
CONTINUOUS
 10
13.6046356631
 20
7.694642411
 11
13.6046356631
 21
7.7002662472
  0
LINE
  5
266
100
AcDbEntity
  8
0
100
AcDbLine
 62
7
  6
CONTINUOUS
 10
13.6292195979
 20
7.7002662472
 11
13.6292195979
 21
7.6946409756
  0
LINE
  5
267
100
AcDbEntity
  8
0
100
AcDbLine
 62
7
  6
CONTINUOUS
 10
13.6480291497
 20
7.6846412472
 11
13.6480291497
 21
7.7002662472
  0
LINE
  5
268
100
AcDbEntity
  8
0
100
AcDbLine
 62
7
  6
CONTINUOUS
 10
13.6658091473
 20
7.7002662472
 11
13.6658091473
 21
7.6846412472
  0
LINE
  5
269
100
AcDbEntity
  8
0
100
AcDbLine
 62
7
  6
CONTINUOUS
 10
13.6689037825
 20
7.694642411
 11
13.6689037825
 21
7.7002662472
  0
LINE
  5
26A
100
AcDbEntity
  8
0
100
AcDbLine
 62
7
  6
CONTINUOUS
 10
13.6979025109
 20
7.7002662472
 11
13.6979025109
 21
7.6946409756
  0
LINE
  5
26B
100
AcDbEntity
  8
0
100
AcDbLine
 62
7
  6
CONTINUOUS
 10
13.7097569715
 20
7.6846412472
 11
13.7097569715
 21
7.7002662472
  0
LINE
  5
26C
100
AcDbEntity
  8
0
100
AcDbLine
 62
7
  6
CONTINUOUS
 10
13.7193779895
 20
6.6845860059
 11
13.7193794368
 21
6.4346412472
  0
LINE
  5
26D
100
AcDbEntity
  8
0
100
AcDbLine
 62
7
  6
CONTINUOUS
 10
13.7290019022
 20
7.7002662472
 11
13.7290019022
 21
7.6846412472
  0
LINE
  5
26E
100
AcDbEntity
  8
0
100
AcDbLine
 62
7
  6
CONTINUOUS
 10
13.7408563628
 20
7.694642411
 11
13.7408563628
 21
7.7002662472
  0
LINE
  5
26F
100
AcDbEntity
  8
0
100
AcDbLine
 62
7
  6
CONTINUOUS
 10
13.7698550911
 20
7.7002662472
 11
13.7698550911
 21
7.6946409757
  0
LINE
  5
270
100
AcDbEntity
  8
0
100
AcDbLine
 62
7
  6
CONTINUOUS
 10
13.7729497263
 20
7.6846412472
 11
13.7729497263
 21
7.7002662472
  0
LINE
  5
271
100
AcDbEntity
  8
0
100
AcDbLine
 62
7
  6
CONTINUOUS
 10
13.7907297239
 20
7.7002662472
 11
13.7907297239
 21
7.6846412472
  0
LINE
  5
272
100
AcDbEntity
  8
0
100
AcDbLine
 62
7
  6
CONTINUOUS
 10
13.8095392757
 20
7.694642411
 11
13.8095392757
 21
7.7002662472
  0
LINE
  5
273
100
AcDbEntity
  8
0
100
AcDbLine
 62
7
  6
CONTINUOUS
 10
13.8341232105
 20
7.7002662472
 11
13.8341232105
 21
7.6946409756
  0
LINE
  5
274
100
AcDbEntity
  8
0
100
AcDbLine
 62
7
  6
CONTINUOUS
 10
13.8415951112
 20
7.7002662472
 11
13.8415951112
 21
7.6846412472
  0
LINE
  5
275
100
AcDbEntity
  8
0
100
AcDbLine
 62
7
  6
CONTINUOUS
 10
13.8644961705
 20
7.694642411
 11
13.8644961705
 21
7.7002662472
  0
LINE
  5
276
100
AcDbEntity
  8
0
100
AcDbLine
 62
7
  6
CONTINUOUS
 10
13.8809226306
 20
7.7002662472
 11
13.8809226306
 21
7.6946409757
  0
LINE
  5
277
100
AcDbEntity
  8
0
100
AcDbLine
 62
7
  6
CONTINUOUS
 10
13.8973603581
 20
7.694642411
 11
13.8973603581
 21
7.7002662472
  0
LINE
  5
278
100
AcDbEntity
  8
0
100
AcDbLine
 62
7
  6
CONTINUOUS
 10
13.9031285638
 20
7.7002662472
 11
13.9031285638
 21
7.6946409757
  0
LINE
  5
279
100
AcDbEntity
  8
0
100
AcDbLine
 62
7
  6
CONTINUOUS
 10
13.9143794368
 20
9.006959702
 11
13.9143794368
 21
8.9002662472
  0
LINE
  5
27A
100
AcDbEntity
  8
0
100
AcDbLine
 62
7
  6
CONTINUOUS
 10
13.6962854261
 20
7.9402662472
 11
13.6731914153
 21
7.9002662472
  0
LINE
  5
27B
100
AcDbEntity
  8
0
100
AcDbLine
 62
7
  6
CONTINUOUS
 10
13.7424734476
 20
7.8602662472
 11
13.7655674584
 21
7.9002662472
  0
LINE
  5
27C
100
AcDbEntity
  8
0
100
AcDbLine
 62
7
  6
CONTINUOUS
 10
13.1788794368
 20
7.350257686
 11
13.1047454426
 21
7.2443400588
  0
LINE
  5
27D
100
AcDbEntity
  8
0
100
AcDbLine
 62
7
  6
CONTINUOUS
 10
13.8473584353
 20
12.0221423609
 11
13.591403801
 21
12.0221423609
  0
LINE
  5
27E
100
AcDbEntity
  8
0
100
AcDbLine
 62
7
  6
CONTINUOUS
 10
13.9568794368
 20
8.7604226501
 11
13.9568794368
 21
8.7104226501
  0
LINE
  5
27F
100
AcDbEntity
  8
0
100
AcDbLine
 62
7
  6
CONTINUOUS
 10
13.9693794368
 20
11.6351423609
 11
13.9693794368
 21
11.5721423609
  0
LINE
  5
280
100
AcDbEntity
  8
0
100
AcDbLine
 62
7
  6
CONTINUOUS
 10
13.9693794368
 20
11.1971423609
 11
13.9693794368
 21
11.1821423609
  0
LINE
  5
281
100
AcDbEntity
  8
0
100
AcDbLine
 62
7
  6
CONTINUOUS
 10
14.0718794368
 20
8.1002662472
 11
14.0718794368
 21
7.7002662472
  0
LINE
  5
282
100
AcDbEntity
  8
0
100
AcDbLine
 62
7
  6
CONTINUOUS
 10
14.1723794368
 20
8.6568103453
 11
14.1723794368
 21
8.6263498613
  0
LINE
  5
283
100
AcDbEntity
  8
0
100
AcDbLine
 62
7
  6
CONTINUOUS
 10
14.1723794368
 20
8.0389326331
 11
14.1723794368
 21
8.0084721491
  0
LINE
  5
284
100
AcDbEntity
  8
0
100
AcDbLine
 62
7
  6
CONTINUOUS
 10
13.0782159972
 20
6.8011412472
 11
13.0628794368
 21
6.7858488655
  0
LINE
  5
285
100
AcDbEntity
  8
0
100
AcDbLine
 62
7
  6
CONTINUOUS
 10
14.3758794368
 20
6.7858488653
 11
14.3758794368
 21
6.4346412472
  0
LINE
  5
286
100
AcDbEntity
  8
0
100
AcDbLine
 62
7
  6
CONTINUOUS
 10
14.3998893559
 20
10.720112239
 11
14.3998893559
 21
10.3151126647
  0
LINE
  5
287
100
AcDbEntity
  8
0
100
AcDbLine
 62
7
  6
CONTINUOUS
 10
14.4603794368
 20
6.4346412472
 11
14.4603794368
 21
6.3726412472
  0
LINE
  5
288
100
AcDbEntity
  8
0
100
AcDbLine
 62
9
  6
CONTINUOUS
 10
14.5538893559
 20
10.3151124518
 11
14.5538893559
 21
10.7201124518
  0
LINE
  5
289
100
AcDbEntity
  8
0
100
AcDbLine
 62
9
  6
CONTINUOUS
 10
14.5920930179
 20
10.335490582
 11
14.5920930179
 21
10.6997343217
  0
LINE
  5
28A
100
AcDbEntity
  8
0
100
AcDbLine
 62
9
  6
CONTINUOUS
 10
14.7607897346
 20
10.3459975201
 11
14.7607897346
 21
10.6892273836
  0
LINE
  5
28B
100
AcDbEntity
  8
0
100
AcDbLine
 62
9
  6
CONTINUOUS
 10
14.7758893559
 20
10.6961124518
 11
14.7758893559
 21
10.3391124518
  0
LINE
  5
28C
100
AcDbEntity
  8
0
100
AcDbLine
 62
7
  6
CONTINUOUS
 10
14.8068893559
 20
10.738612213
 11
14.8068893559
 21
10.2966126907
  0
LINE
  5
28D
100
AcDbEntity
  8
0
100
AcDbLine
 62
9
  6
CONTINUOUS
 10
14.8668893559
 20
10.7986124518
 11
14.8668893559
 21
10.2366124518
  0
LINE
  5
28E
100
AcDbEntity
  8
0
100
AcDbLine
 62
7
  6
CONTINUOUS
 10
14.8943794368
 20
6.1026412472
 11
14.8943794368
 21
6.0398502754
  0
LINE
  5
28F
100
AcDbEntity
  8
0
100
AcDbLine
 62
9
  6
CONTINUOUS
 10
14.9028893559
 20
10.2366124518
 11
14.9028893559
 21
10.7986124518
  0
LINE
  5
290
100
AcDbEntity
  8
0
100
AcDbLine
 62
7
  6
CONTINUOUS
 10
14.9628893559
 20
10.2966126907
 11
14.9628893559
 21
10.738612213
  0
LINE
  5
291
100
AcDbEntity
  8
0
100
AcDbLine
 62
7
  6
CONTINUOUS
 10
15.0498893559
 20
10.4045719584
 11
15.0498893559
 21
10.6306529453
  0
ARC
  5
292
100
AcDbEntity
  8
0
100
AcDbCircle
 62
7
  6
CONTINUOUS
 10
10.3602070321
 20
8.6737466266
 40
3.6092577479
100
AcDbArc
 50
344.0947197981
 51
344.2597789469
  0
ARC
  5
293
100
AcDbEntity
  8
0
100
AcDbCircle
 62
7
  6
CONTINUOUS
 10
11.6721668599
 20
8.8205044511
 40
2.3552158272
100
AcDbArc
 50
331.1657520797
 51
331.4432322839
  0
ARC
  5
294
100
AcDbEntity
  8
0
100
AcDbCircle
 62
7
  6
CONTINUOUS
 10
11.2343794368
 20
7.4217856911
 40
2.115
100
AcDbArc
 50
7.1493656984
 51
16.1046796528
  0
ARC
  5
295
100
AcDbEntity
  8
0
100
AcDbCircle
 62
7
  6
CONTINUOUS
 10
11.2343794368
 20
9.2434968033
 40
2.115
100
AcDbArc
 50
343.8953203472
 51
356.9091120802
  0
ARC
  5
296
100
AcDbEntity
  8
0
100
AcDbCircle
 62
7
  6
CONTINUOUS
 10
10.3298893559
 20
11.7056124518
 40
1.5005
100
AcDbArc
 50
250.0
 51
270.0
  0
ARC
  5
297
100
AcDbEntity
  8
0
100
AcDbCircle
 62
7
  6
CONTINUOUS
 10
8.0206719852
 20
10.0176124518
 40
1.5005
100
AcDbArc
 50
70.0
 51
174.7316669857
  0
ARC
  5
298
100
AcDbEntity
  8
0
100
AcDbCircle
 62
7
  6
CONTINUOUS
 10
10.3298893559
 20
11.7056124518
 40
0.8755
100
AcDbArc
 50
250.0
 51
270.0
  0
ARC
  5
299
100
AcDbEntity
  8
0
100
AcDbCircle
 62
7
  6
CONTINUOUS
 10
8.0206719852
 20
10.0176124518
 40
0.8755
100
AcDbArc
 50
70.0
 51
174.5400959981
  0
ARC
  5
29A
100
AcDbEntity
  8
0
100
AcDbCircle
 62
7
  6
CONTINUOUS
 10
6.4328378883
 20
10.100316024
 40
0.063
100
AcDbArc
 50
85.0
 51
250.2875420391
  0
ARC
  5
29B
100
AcDbEntity
  8
0
100
AcDbCircle
 62
7
  6
CONTINUOUS
 10
7.2317860362
 20
10.0304171183
 40
0.063
100
AcDbArc
 50
279.7124579609
 51
85.0
  0
ARC
  5
29C
100
AcDbEntity
  8
0
100
AcDbCircle
 62
7
  6
CONTINUOUS
 10
6.4503052893
 20
9.3378923875
 40
0.031
100
AcDbArc
 50
180.6286931202
 51
265.0
  0
ARC
  5
29D
100
AcDbEntity
  8
0
100
AcDbCircle
 62
7
  6
CONTINUOUS
 10
7.0821905292
 20
9.2826095924
 40
0.031
100
AcDbArc
 50
265.0
 51
349.3713068798
  0
ARC
  5
29E
100
AcDbEntity
  8
0
100
AcDbCircle
 62
7
  6
CONTINUOUS
 10
13.2684483357
 20
6.3464086747
 40
0.37
100
AcDbArc
 50
123.7702083199
 51
175.9343845019
  0
ARC
  5
29F
100
AcDbEntity
  8
0
100
AcDbCircle
 62
7
  6
CONTINUOUS
 10
14.1703105379
 20
6.3464086747
 40
0.37
100
AcDbArc
 50
4.0656154981
 51
56.2299969089
  0
ARC
  5
2A0
100
AcDbEntity
  8
0
100
AcDbCircle
 62
7
  6
CONTINUOUS
 10
12.5994187569
 20
6.3770750359
 40
0.25
100
AcDbArc
 50
356.6321050859
 51
358.9837972034
  0
ARC
  5
2A1
100
AcDbEntity
  8
0
100
AcDbCircle
 62
7
  6
CONTINUOUS
 10
14.1669043158
 20
7.127376844
 40
0.2039751211
100
AcDbArc
 50
326.9521644936
 51
34.9889904702
  0
ARC
  5
2A2
100
AcDbEntity
  8
0
100
AcDbCircle
 62
7
  6
CONTINUOUS
 10
13.2718545579
 20
7.127376844
 40
0.2039751211
100
AcDbArc
 50
145.0110095298
 51
213.0478355064
  0
ARC
  5
2A3
100
AcDbEntity
  8
0
100
AcDbCircle
 62
7
  6
CONTINUOUS
 10
12.7265155479
 20
5.9976412472
 40
0.1871361111
100
AcDbArc
 50
92.1854050713
 51
180.0
  0
ARC
  5
2A4
100
AcDbEntity
  8
0
100
AcDbCircle
 62
7
  6
CONTINUOUS
 10
14.7122433257
 20
5.9976412472
 40
0.1871361111
100
AcDbArc
 50
0.0
 51
87.8145949287
  0
ARC
  5
2A5
100
AcDbEntity
  8
0
100
AcDbCircle
 62
7
  6
CONTINUOUS
 10
14.5323821106
 20
6.1856412472
 40
0.187
100
AcDbArc
 50
359.6936039968
 51
90.0
  0
ARC
  5
2A6
100
AcDbEntity
  8
0
100
AcDbCircle
 62
7
  6
CONTINUOUS
 10
12.906376763
 20
6.1856412472
 40
0.187
100
AcDbArc
 50
90.0
 51
180.3063960032
  0
ARC
  5
2A7
100
AcDbEntity
  8
0
100
AcDbCircle
 62
7
  6
CONTINUOUS
 10
12.9571049032
 20
6.9226022227
 40
0.1715245336
100
AcDbArc
 50
314.9173576842
 51
33.0478355064
  0
ARC
  5
2A8
100
AcDbEntity
  8
0
100
AcDbCircle
 62
7
  6
CONTINUOUS
 10
14.4816539705
 20
6.9226022227
 40
0.1715245336
100
AcDbArc
 50
146.9521644936
 51
225.0826423158
  0
ARC
  5
2A9
100
AcDbEntity
  8
0
100
AcDbCircle
 62
7
  6
CONTINUOUS
 10
12.5743794368
 20
6.1026412472
 40
0.03
100
AcDbArc
 50
90.0
 51
180.0
  0
ARC
  5
2AA
100
AcDbEntity
  8
0
100
AcDbCircle
 62
7
  6
CONTINUOUS
 10
12.6668405347
 20
7.7086445758
 40
0.625
100
AcDbArc
 50
325.0110095298
 51
355.1903004544
  0
ARC
  5
2AB
100
AcDbEntity
  8
0
100
AcDbCircle
 62
7
  6
CONTINUOUS
 10
13.3205305483
 20
7.6536412472
 40
0.031
100
AcDbArc
 50
90.0
 51
175.1902968487
  0
ARC
  5
2AC
100
AcDbEntity
  8
0
100
AcDbCircle
 62
7
  6
CONTINUOUS
 10
12.9418794368
 20
8.7104226501
 40
0.54
100
AcDbArc
 50
328.8652784311
 51
360.0
  0
ARC
  5
2AD
100
AcDbEntity
  8
0
100
AcDbCircle
 62
7
  6
CONTINUOUS
 10
13.4668794368
 20
8.8402662472
 40
0.06
100
AcDbArc
 50
90.0
 51
266.4166783015
  0
ARC
  5
2AE
100
AcDbEntity
  8
0
100
AcDbCircle
 62
7
  6
CONTINUOUS
 10
13.4618794368
 20
8.7604226501
 40
0.02
100
AcDbArc
 50
0.0
 51
86.4166783015
  0
ARC
  5
2AF
100
AcDbEntity
  8
0
100
AcDbCircle
 62
7
  6
CONTINUOUS
 10
13.7080119932
 20
7.895168848
 40
0.0988349451
100
AcDbArc
 50
317.6044010614
 51
329.27133243
  0
ARC
  5
2B0
100
AcDbEntity
  8
0
100
AcDbCircle
 62
7
  6
CONTINUOUS
 10
13.7174271145
 20
7.8993397117
 40
0.0941946434
100
AcDbArc
 50
26.7151115562
 51
30.0366391453
  0
ARC
  5
2B1
100
AcDbEntity
  8
0
100
AcDbCircle
 62
7
  6
CONTINUOUS
 10
13.7117322585
 20
7.8918576343
 40
0.0938549523
100
AcDbArc
 50
312.1482038533
 51
317.5659305176
  0
ARC
  5
2B2
100
AcDbEntity
  8
0
100
AcDbCircle
 62
7
  6
CONTINUOUS
 10
13.7182231831
 20
7.9003448381
 40
0.0931879319
100
AcDbArc
 50
349.0041977063
 51
353.1043433571
  0
ARC
  5
2B3
100
AcDbEntity
  8
0
100
AcDbCircle
 62
7
  6
CONTINUOUS
 10
13.7184848918
 20
7.9001740468
 40
0.0929413208
100
AcDbArc
 50
357.1568898722
 51
0.9561093726
  0
ARC
  5
2B4
100
AcDbEntity
  8
0
100
AcDbCircle
 62
7
  6
CONTINUOUS
 10
13.7187178188
 20
7.9002534367
 40
0.0927071322
100
AcDbArc
 50
0.9094529609
 51
11.5659793931
  0
ARC
  5
2B5
100
AcDbEntity
  8
0
100
AcDbCircle
 62
7
  6
CONTINUOUS
 10
13.7131618402
 20
7.8902874895
 40
0.0917315074
100
AcDbArc
 50
309.3840367416
 51
312.1442927319
  0
ARC
  5
2B6
100
AcDbEntity
  8
0
100
AcDbCircle
 62
7
  6
CONTINUOUS
 10
13.7196508033
 20
7.9006622579
 40
0.091607584
100
AcDbArc
 50
30.0167125047
 51
35.9874224007
  0
ARC
  5
2B7
100
AcDbEntity
  8
0
100
AcDbCircle
 62
7
  6
CONTINUOUS
 10
13.7201499446
 20
7.9000937334
 40
0.091274334
100
AcDbArc
 50
353.1156261833
 51
357.1553994901
  0
ARC
  5
2B8
100
AcDbEntity
  8
0
100
AcDbCircle
 62
7
  6
CONTINUOUS
 10
13.7214180233
 20
7.900772859
 40
0.0899576205
100
AcDbArc
 50
11.5866829004
 51
13.9510843473
  0
ARC
  5
2B9
100
AcDbEntity
  8
0
100
AcDbCircle
 62
7
  6
CONTINUOUS
 10
13.7214555449
 20
7.9161279537
 40
0.08451698
100
AcDbArc
 50
117.5252557659
 51
118.9090282081
  0
ARC
  5
2BA
100
AcDbEntity
  8
0
100
AcDbCircle
 62
7
  6
CONTINUOUS
 10
13.7242962263
 20
7.9018300996
 40
0.0838223535
100
AcDbArc
 50
299.595546594
 51
307.0902782355
  0
ARC
  5
2BB
100
AcDbEntity
  8
0
100
AcDbCircle
 62
7
  6
CONTINUOUS
 10
13.7161153208
 20
7.911448861
 40
0.0727519639
100
AcDbArc
 50
189.0076292283
 51
193.2402362152
  0
ARC
  5
2BC
100
AcDbEntity
  8
0
100
AcDbCircle
 62
7
  6
CONTINUOUS
 10
13.7157320698
 20
7.9113827717
 40
0.0723630922
100
AcDbArc
 50
188.8368546551
 51
189.0034563608
  0
ARC
  5
2BD
100
AcDbEntity
  8
0
100
AcDbCircle
 62
7
  6
CONTINUOUS
 10
13.7197452629
 20
7.8999014308
 40
0.065598079
100
AcDbArc
 50
138.6447188255
 51
138.9865064109
  0
ARC
  5
2BE
100
AcDbEntity
  8
0
100
AcDbCircle
 62
7
  6
CONTINUOUS
 10
13.7193794368
 20
7.9002662472
 40
0.0650899999
100
AcDbArc
 50
139.0174917831
 51
228.9886794717
  0
CIRCLE
  5
2BF
100
AcDbEntity
  8
0
100
AcDbCircle
 62
7
  6
CONTINUOUS
 10
13.7193794368
 20
7.9002662472
 40
0.062
  0
ARC
  5
2C0
100
AcDbEntity
  8
0
100
AcDbCircle
 62
7
  6
CONTINUOUS
 10
13.7562125315
 20
7.9179930298
 40
0.0617077597
100
AcDbArc
 50
330.3100922466
 51
332.1366682297
  0
ARC
  5
2C1
100
AcDbEntity
  8
0
100
AcDbCircle
 62
7
  6
CONTINUOUS
 10
14.1182283253
 20
7.6536412472
 40
0.031
100
AcDbArc
 50
4.8097031513
 51
90.0
  0
ARC
  5
2C2
100
AcDbEntity
  8
0
100
AcDbCircle
 62
7
  6
CONTINUOUS
 10
14.4968794368
 20
8.7104226501
 40
0.54
100
AcDbArc
 50
180.0
 51
211.1347215689
  0
ARC
  5
2C3
100
AcDbEntity
  8
0
100
AcDbCircle
 62
7
  6
CONTINUOUS
 10
13.8118794368
 20
8.3326412472
 40
0.465
100
AcDbArc
 50
320.8294108274
 51
39.1705891726
  0
ARC
  5
2C4
100
AcDbEntity
  8
0
100
AcDbCircle
 62
7
  6
CONTINUOUS
 10
13.6268794368
 20
8.3326412472
 40
0.465
100
AcDbArc
 50
140.8294108274
 51
219.1705891726
  0
ARC
  5
2C5
100
AcDbEntity
  8
0
100
AcDbCircle
 62
7
  6
CONTINUOUS
 10
13.8283794368
 20
8.3066049313
 40
0.241
100
AcDbArc
 50
322.6180391694
 51
31.1347215689
  0
ARC
  5
2C6
100
AcDbEntity
  8
0
100
AcDbCircle
 62
7
  6
CONTINUOUS
 10
13.6103794368
 20
8.3066049313
 40
0.241
100
AcDbArc
 50
148.8652784311
 51
217.3819608306
  0
ARC
  5
2C7
100
AcDbEntity
  8
0
100
AcDbCircle
 62
7
  6
CONTINUOUS
 10
13.9718794368
 20
8.8402662472
 40
0.06
100
AcDbArc
 50
273.5833216985
 51
90.0
  0
ARC
  5
2C8
100
AcDbEntity
  8
0
100
AcDbCircle
 62
7
  6
CONTINUOUS
 10
13.9768794368
 20
8.7604226501
 40
0.02
100
AcDbArc
 50
93.5833216985
 51
180.0
  0
ARC
  5
2C9
100
AcDbEntity
  8
0
100
AcDbCircle
 62
7
  6
CONTINUOUS
 10
16.2043794368
 20
7.4217856911
 40
2.115
100
AcDbArc
 50
163.8953203472
 51
172.8506343016
  0
ARC
  5
2CA
100
AcDbEntity
  8
0
100
AcDbCircle
 62
7
  6
CONTINUOUS
 10
14.8393401168
 20
6.3770750359
 40
0.25
100
AcDbArc
 50
181.0162027966
 51
183.3678949141
  0
ARC
  5
2CB
100
AcDbEntity
  8
0
100
AcDbCircle
 62
7
  6
CONTINUOUS
 10
14.8643794368
 20
6.1026412472
 40
0.03
100
AcDbArc
 50
0.0
 51
90.0
  0
ARC
  5
2CC
100
AcDbEntity
  8
0
100
AcDbCircle
 62
7
  6
CONTINUOUS
 10
16.922081246
 20
8.629222492
 40
3.4465758549
100
AcDbArc
 50
195.733418775
 51
195.906294641
  0
ARC
  5
2CD
100
AcDbEntity
  8
0
100
AcDbCircle
 62
7
  6
CONTINUOUS
 10
15.8623070365
 20
8.8731243409
 40
2.4644411117
100
AcDbArc
 50
208.5675794562
 51
208.8327300501
  0
ARC
  5
2CE
100
AcDbEntity
  8
0
100
AcDbCircle
 62
7
  6
CONTINUOUS
 10
14.7719183389
 20
7.7086445758
 40
0.625
100
AcDbArc
 50
184.8096995456
 51
214.9889904702
  0
ARC
  5
2CF
100
AcDbEntity
  8
0
100
AcDbCircle
 62
7
  6
CONTINUOUS
 10
12.0799839055
 20
9.6563236041
 40
2.6741447743
100
AcDbArc
 50
312.4968234305
 51
312.8132015256
  0
ARC
  5
2D0
100
AcDbEntity
  8
0
100
AcDbCircle
 62
7
  6
CONTINUOUS
 10
12.050522363
 20
9.6022522891
 40
2.6323898688
100
AcDbArc
 50
313.2417776409
 51
313.5587264823
  0
ARC
  5
2D1
100
AcDbEntity
  8
0
100
AcDbCircle
 62
7
  6
CONTINUOUS
 10
12.075925267
 20
9.4178347371
 40
2.5115868743
100
AcDbArc
 50
316.3635088943
 51
316.67801049
  0
ARC
  5
2D2
100
AcDbEntity
  8
0
100
AcDbCircle
 62
7
  6
CONTINUOUS
 10
11.9050390919
 20
9.0044983023
 40
2.3706205885
100
AcDbArc
 50
326.1681415228
 51
326.458713124
  0
ARC
  5
2D3
100
AcDbEntity
  8
0
100
AcDbCircle
 62
7
  6
CONTINUOUS
 10
12.0465803738
 20
9.217057238
 40
2.329328443
100
AcDbArc
 50
318.8615606233
 51
319.1875333172
  0
ARC
  5
2D4
100
AcDbEntity
  8
0
100
AcDbCircle
 62
7
  6
CONTINUOUS
 10
13.7407206242
 20
9.5823659084
 40
0.5664665109
100
AcDbArc
 50
17.018991704
 51
32.1537059775
  0
ARC
  5
2D5
100
AcDbEntity
  8
0
100
AcDbCircle
 62
7
  6
CONTINUOUS
 10
13.7457051163
 20
9.5842925374
 40
0.5612831694
100
AcDbArc
 50
41.6551814802
 51
42.3293707352
  0
ARC
  5
2D6
100
AcDbEntity
  8
0
100
AcDbCircle
 62
7
  6
CONTINUOUS
 10
13.745975199
 20
9.5463694939
 40
0.5610611641
100
AcDbArc
 50
337.7922017777
 51
343.0009801913
  0
ARC
  5
2D7
100
AcDbEntity
  8
0
100
AcDbCircle
 62
7
  6
CONTINUOUS
 10
13.6867557804
 20
9.564921445
 40
0.5610611641
100
AcDbArc
 50
193.7922017776
 51
199.0009801912
  0
CIRCLE
  5
2D8
100
AcDbEntity
  8
0
100
AcDbCircle
 62
7
  6
CONTINUOUS
 10
13.7193794368
 20
9.5652662472
 40
0.23
  0
ARC
  5
2D9
100
AcDbEntity
  8
0
100
AcDbCircle
 62
7
  6
CONTINUOUS
 10
13.2843794368
 20
9.8926412472
 40
0.065
100
AcDbArc
 50
98.4905604512
 51
188.7936078876
  0
ARC
  5
2DA
100
AcDbEntity
  8
0
100
AcDbCircle
 62
7
  6
CONTINUOUS
 10
12.9605299738
 20
10.1736124518
 40
0.063
100
AcDbArc
 50
270.0
 51
326.79617747
  0
ARC
  5
2DB
100
AcDbEntity
  8
0
100
AcDbCircle
 62
7
  6
CONTINUOUS
 10
13.0659576741
 20
10.1046124518
 40
0.063
100
AcDbArc
 50
32.2952327441
 51
146.79617747
  0
ARC
  5
2DC
100
AcDbEntity
  8
0
100
AcDbCircle
 62
7
  6
CONTINUOUS
 10
12.5023893559
 20
10.1106124518
 40
0.0625
100
AcDbArc
 50
180.0
 51
360.0
  0
ARC
  5
2DD
100
AcDbEntity
  8
0
100
AcDbCircle
 62
7
  6
CONTINUOUS
 10
13.7193794368
 20
10.5176124518
 40
0.71
100
AcDbArc
 50
16.5714774768
 51
69.3834096173
  0
ARC
  5
2DE
100
AcDbEntity
  8
0
100
AcDbCircle
 62
7
  6
CONTINUOUS
 10
13.7193794368
 20
10.5176124518
 40
0.71
100
AcDbArc
 50
110.6165903827
 51
147.7047672559
  0
ARC
  5
2DF
100
AcDbEntity
  8
0
100
AcDbCircle
 62
7
  6
CONTINUOUS
 10
13.7193794368
 20
10.5176124518
 40
0.71
100
AcDbArc
 50
212.2952327441
 51
231.6801914047
  0
ARC
  5
2E0
100
AcDbEntity
  8
0
100
AcDbCircle
 62
7
  6
CONTINUOUS
 10
13.7193794368
 20
10.5176124518
 40
0.71
100
AcDbArc
 50
307.9365708134
 51
343.4285225232
  0
ARC
  5
2E1
100
AcDbEntity
  8
0
100
AcDbCircle
 62
7
  6
CONTINUOUS
 10
13.2592815347
 20
11.3846423609
 40
0.2815979021
100
AcDbArc
 50
318.2529672045
 51
41.7470327955
  0
ARC
  5
2E2
100
AcDbEntity
  8
0
100
AcDbCircle
 62
7
  6
CONTINUOUS
 10
13.5914004383
 20
11.8341423609
 40
0.188
100
AcDbArc
 50
90.0
 51
168.960285586
  0
ARC
  5
2E3
100
AcDbEntity
  8
0
100
AcDbCircle
 62
7
  6
CONTINUOUS
 10
13.8473584353
 20
11.8341423609
 40
0.188
100
AcDbArc
 50
11.039714414
 51
90.0
  0
ARC
  5
2E4
100
AcDbEntity
  8
0
100
AcDbCircle
 62
7
  6
CONTINUOUS
 10
13.3733794368
 20
11.7526423609
 40
0.1175
100
AcDbArc
 50
90.0
 51
270.0
  0
ARC
  5
2E5
100
AcDbEntity
  8
0
100
AcDbCircle
 62
7
  6
CONTINUOUS
 10
12.9605299738
 20
10.8616124518
 40
0.063
100
AcDbArc
 50
33.20382253
 51
90.0
  0
ARC
  5
2E6
100
AcDbEntity
  8
0
100
AcDbCircle
 62
7
  6
CONTINUOUS
 10
13.0659576741
 20
10.9306124518
 40
0.063
100
AcDbArc
 50
213.20382253
 51
327.7047672559
  0
ARC
  5
2E7
100
AcDbEntity
  8
0
100
AcDbCircle
 62
7
  6
CONTINUOUS
 10
12.5023893559
 20
10.9246124518
 40
0.0625
100
AcDbArc
 50
0.0
 51
180.0
  0
ARC
  5
2E8
100
AcDbEntity
  8
0
100
AcDbCircle
 62
7
  6
CONTINUOUS
 10
15.3484109088
 20
9.6454502273
 40
2.659125895
100
AcDbArc
 50
227.1914119409
 51
227.5095581502
  0
ARC
  5
2E9
100
AcDbEntity
  8
0
100
AcDbCircle
 62
7
  6
CONTINUOUS
 10
15.377889753
 20
9.5916764068
 40
2.6175969824
100
AcDbArc
 50
226.4458951346
 51
226.7646155206
  0
ARC
  5
2EA
100
AcDbEntity
  8
0
100
AcDbCircle
 62
7
  6
CONTINUOUS
 10
15.4717339537
 20
9.286460637
 40
2.4349022538
100
AcDbArc
 50
220.8250080831
 51
221.1368219454
  0
ARC
  5
2EB
100
AcDbEntity
  8
0
100
AcDbCircle
 62
7
  6
CONTINUOUS
 10
15.2843539447
 20
9.3430966979
 40
2.4032136582
100
AcDbArc
 50
223.3093782042
 51
223.6380860317
  0
ARC
  5
2EC
100
AcDbEntity
  8
0
100
AcDbCircle
 62
7
  6
CONTINUOUS
 10
15.447138629
 20
8.9465438117
 40
2.2664334587
100
AcDbArc
 50
213.5295010649
 51
213.8334617938
  0
ARC
  5
2ED
100
AcDbEntity
  8
0
100
AcDbCircle
 62
7
  6
CONTINUOUS
 10
16.2043794368
 20
9.2434968033
 40
2.115
100
AcDbArc
 50
183.590702332
 51
196.1046796528
  0
ARC
  5
2EE
100
AcDbEntity
  8
0
100
AcDbCircle
 62
7
  6
CONTINUOUS
 10
14.680459749
 20
10.2762260831
 40
0.1064
100
AcDbArc
 50
40.9762844864
 51
146.1516146287
  0
ARC
  5
2EF
100
AcDbEntity
  8
0
100
AcDbCircle
 62
7
  6
CONTINUOUS
 10
14.1543794368
 20
9.8926412472
 40
0.065
100
AcDbArc
 50
344.6613245463
 51
88.0646764931
  0
ARC
  5
2F0
100
AcDbEntity
  8
0
100
AcDbCircle
 62
7
  6
CONTINUOUS
 10
14.9028893559
 20
10.2966124518
 40
0.06
100
AcDbArc
 50
270.0
 51
360.0
  0
ARC
  5
2F1
100
AcDbEntity
  8
0
100
AcDbCircle
 62
7
  6
CONTINUOUS
 10
14.8668893559
 20
10.2966124518
 40
0.06
100
AcDbArc
 50
180.0
 51
270.0
  0
ARC
  5
2F2
100
AcDbEntity
  8
0
100
AcDbCircle
 62
7
  6
CONTINUOUS
 10
14.5538893559
 20
10.3611124518
 40
0.046
100
AcDbArc
 50
270.0
 51
326.1516146287
  0
ARC
  5
2F3
100
AcDbEntity
  8
0
100
AcDbCircle
 62
7
  6
CONTINUOUS
 10
14.7758893559
 20
10.3591124518
 40
0.02
100
AcDbArc
 50
220.9762844863
 51
270.0
  0
ARC
  5
2F4
100
AcDbEntity
  8
0
100
AcDbCircle
 62
7
  6
CONTINUOUS
 10
14.1794773389
 20
11.3846423609
 40
0.2815979021
100
AcDbArc
 50
138.2529672045
 51
221.7470327955
  0
ARC
  5
2F5
100
AcDbEntity
  8
0
100
AcDbCircle
 62
7
  6
CONTINUOUS
 10
14.0653794368
 20
11.7526423609
 40
0.1175
100
AcDbArc
 50
270.0
 51
90.0
  0
ARC
  5
2F6
100
AcDbEntity
  8
0
100
AcDbCircle
 62
7
  6
CONTINUOUS
 10
14.680459749
 20
10.7589988206
 40
0.1064
100
AcDbArc
 50
213.8483853713
 51
319.0237155136
  0
ARC
  5
2F7
100
AcDbEntity
  8
0
100
AcDbCircle
 62
7
  6
CONTINUOUS
 10
14.9628893559
 20
10.4276124518
 40
0.09
100
AcDbArc
 50
270.0
 51
345.164888418
  0
ARC
  5
2F8
100
AcDbEntity
  8
0
100
AcDbCircle
 62
7
  6
CONTINUOUS
 10
14.9628893559
 20
10.6076124518
 40
0.09
100
AcDbArc
 50
14.835111582
 51
90.0
  0
ARC
  5
2F9
100
AcDbEntity
  8
0
100
AcDbCircle
 62
7
  6
CONTINUOUS
 10
14.9028893559
 20
10.7386124518
 40
0.06
100
AcDbArc
 50
0.0
 51
90.0
  0
ARC
  5
2FA
100
AcDbEntity
  8
0
100
AcDbCircle
 62
7
  6
CONTINUOUS
 10
14.8668893559
 20
10.7386124518
 40
0.06
100
AcDbArc
 50
90.0
 51
180.0
  0
ARC
  5
2FB
100
AcDbEntity
  8
0
100
AcDbCircle
 62
7
  6
CONTINUOUS
 10
14.5538893559
 20
10.6741124518
 40
0.046
100
AcDbArc
 50
33.8483853713
 51
90.0
  0
ARC
  5
2FC
100
AcDbEntity
  8
0
100
AcDbCircle
 62
7
  6
CONTINUOUS
 10
14.7758893559
 20
10.6761124518
 40
0.02
100
AcDbArc
 50
90.0
 51
139.0237155137
  0
SPLINE
  5
2FD
100
AcDbEntity
  8
0
100
AcDbSpline
 62
7
  6
CONTINUOUS
 70
0
 71
3
 72
45
 73
41
 74
0
 42
0.0000001
 43
0.0000001
 44
0.0000000001
 40
0.0
 40
0.0
 40
0.0
 40
0.0
 40
0.0312377852
 40
0.0624918098
 40
0.0937383385
 40
0.1249826017
 40
0.1406086811
 40
0.1562351913
 40
0.171861751
 40
0.1874881059
 40
0.2187347524
 40
0.2499814378
 40
0.2812284904
 40
0.3124754874
 40
0.343722929
 40
0.3749708566
 40
0.4062191769
 40
0.4374674504
 40
0.4687160553
 40
0.4999650807
 40
0.5312142895
 40
0.5624636083
 40
0.578091052
 40
0.5937184302
 40
0.6093459054
 40
0.6249735272
 40
0.640601243
 40
0.6562290707
 40
0.6718570971
 40
0.6874852653
 40
0.7187362295
 40
0.7499872491
 40
0.7812377447
 40
0.8124885542
 40
0.8437400237
 40
0.8749911986
 40
0.9062409516
 40
0.9374949558
 40
0.9687553977
 40
1.0
 40
1.0
 40
1.0
 40
1.0
 10
13.6702423559
 20
7.9429541303
 30
0.0
 10
13.6713201819
 20
7.9443233545
 30
0.0
 10
13.6735878661
 20
7.9469767823
 30
0.0
 10
13.6772956137
 20
7.9506715587
 30
0.0
 10
13.6812869826
 20
7.954058757
 30
0.0
 10
13.6848269332
 20
7.9566084631
 30
0.0
 10
13.6877725062
 20
7.9584747493
 30
0.0
 10
13.6900356372
 20
7.9597864482
 30
0.0
 10
13.6923487618
 20
7.9610078649
 30
0.0
 10
13.695494279
 20
7.9625132383
 30
0.0
 10
13.6995335796
 20
7.9641615554
 30
0.0
 10
13.704519974
 20
7.9657535355
 30
0.0
 10
13.7096153762
 20
7.9669522612
 30
0.0
 10
13.7147885145
 20
7.9677511806
 30
0.0
 10
13.7200079727
 20
7.9681476277
 30
0.0
 10
13.7252424929
 20
7.9681397926
 30
0.0
 10
13.7304609641
 20
7.9677300455
 30
0.0
 10
13.7356326739
 20
7.9669214521
 30
0.0
 10
13.7407276583
 20
7.9657208627
 30
0.0
 10
13.7457165729
 20
7.9641360452
 30
0.0
 10
13.7505709832
 20
7.9621779624
 30
0.0
 10
13.7544819673
 20
7.9602448545
 30
0.0
 10
13.7575161097
 20
7.9585256362
 30
0.0
 10
13.7597418589
 20
7.9571512311
 30
0.0
 10
13.7619144372
 20
7.9556942901
 30
0.0
 10
13.7640309711
 20
7.9541570203
 30
0.0
 10
13.766088522
 20
7.9525416253
 30
0.0
 10
13.768084238
 20
7.9508504154
 30
0.0
 10
13.7700156026
 20
7.9490859886
 30
0.0
 10
13.7725012127
 20
7.9466396513
 30
0.0
 10
13.7754350579
 20
7.9434107161
 30
0.0
 10
13.7786589458
 20
7.9392868301
 30
0.0
 10
13.7815695188
 20
7.9349360141
 30
0.0
 10
13.7841524374
 20
7.9303830919
 30
0.0
 10
13.7863943412
 20
7.9256529165
 30
0.0
 10
13.7882851245
 20
7.9207718628
 30
0.0
 10
13.7898152574
 20
7.9157659198
 30
0.0
 10
13.7909780604
 20
7.9106615322
 30
0.0
 10
13.7917671667
 20
7.905486808
 30
0.0
 10
13.7920440599
 20
7.9020075266
 30
0.0
 10
13.7921199224
 20
7.9002662472
 30
0.0
  0
SPLINE
  5
2FE
100
AcDbEntity
  8
0
100
AcDbSpline
 62
7
  6
CONTINUOUS
 70
0
 71
3
 72
36
 73
32
 74
0
 42
0.0000001
 43
0.0000001
 44
0.0000000001
 40
0.0
 40
0.0
 40
0.0
 40
0.0
 40
0.0624675638
 40
0.1249388627
 40
0.1561903891
 40
0.1874437598
 40
0.2186967383
 40
0.249949187
 40
0.2812016327
 40
0.3124546136
 40
0.3437079796
 40
0.374961686
 40
0.406215479
 40
0.4374691726
 40
0.4687229463
 40
0.4999767207
 40
0.5312307686
 40
0.5624849272
 40
0.5937395113
 40
0.6249941862
 40
0.6406236324
 40
0.6562531127
 40
0.6875078961
 40
0.718762757
 40
0.7500176566
 40
0.8124967473
 40
0.8749770902
 40
0.9062327925
 40
0.9374885875
 40
0.9687442297
 40
1.0
 40
1.0
 40
1.0
 40
1.0
 10
13.7921199224
 20
7.9002662472
 30
0.0
 10
13.7922631095
 20
7.8969796613
 30
0.0
 10
13.7920998564
 20
7.890378708
 30
0.0
 10
13.7907871256
 20
7.8822326089
 30
0.0
 10
13.7890905538
 20
7.8758691184
 30
0.0
 10
13.7875013067
 20
7.871190303
 30
0.0
 10
13.7856032269
 20
7.8666281971
 30
0.0
 10
13.7834058666
 20
7.86220249
 30
0.0
 10
13.7809195947
 20
7.8579324261
 30
0.0
 10
13.7781561605
 20
7.8538362473
 30
0.0
 10
13.7751284953
 20
7.8499312516
 30
0.0
 10
13.7718502845
 20
7.8462340558
 30
0.0
 10
13.7683367118
 20
7.8427597564
 30
0.0
 10
13.7646030868
 20
7.8395231216
 30
0.0
 10
13.760666422
 20
7.836536777
 30
0.0
 10
13.7565434766
 20
7.8338133761
 30
0.0
 10
13.7522526304
 20
7.8313630322
 30
0.0
 10
13.7478118718
 20
7.8291960693
 30
0.0
 10
13.743240686
 20
7.827320058
 30
0.0
 10
13.7393381131
 20
7.8260053383
 30
0.0
 10
13.7361707989
 20
7.8251056626
 30
0.0
 10
13.7329762698
 20
7.8243079327
 30
0.0
 10
13.7289375589
 20
7.8235035573
 30
0.0
 10
13.7240396616
 20
7.8228500235
 30
0.0
 10
13.7174692981
 20
7.8223966169
 30
0.0
 10
13.709221975
 20
7.8226153072
 30
0.0
 10
13.7010685584
 20
7.8238739076
 30
0.0
 10
13.6946834146
 20
7.8254879632
 30
0.0
 10
13.6899779886
 20
7.8269968855
 30
0.0
 10
13.6853767453
 20
7.8287976078
 30
0.0
 10
13.682389726
 20
7.8301874807
 30
0.0
 10
13.6809197123
 20
7.8309280265
 30
0.0
  0
SPLINE
  5
2FF
100
AcDbEntity
  8
0
100
AcDbSpline
 62
7
  6
CONTINUOUS
 70
0
 71
3
 72
17
 73
13
 74
0
 42
0.0000001
 43
0.0000001
 44
0.0000000001
 40
0.0
 40
0.0
 40
0.0
 40
0.0
 40
0.1248804119
 40
0.1873567008
 40
0.2498361706
 40
0.3747885827
 40
0.4997720696
 40
0.6247822035
 40
0.7498189134
 40
0.8123663929
 40
0.8749254947
 40
1.0
 40
1.0
 40
1.0
 40
1.0
 10
13.6442279441
 20
7.9002662472
 30
0.0
 10
13.6439323074
 20
7.9021678536
 30
0.0
 10
13.6435962744
 20
7.90503913
 30
0.0
 10
13.6433678274
 20
7.908883089
 30
0.0
 10
13.6432873278
 20
7.9127342766
 30
0.0
 10
13.6434624437
 20
7.9175505082
 30
0.0
 10
13.6441056095
 20
7.9232979411
 30
0.0
 10
13.6451730492
 20
7.9289831158
 30
0.0
 10
13.6464086864
 20
7.9336439537
 30
0.0
 10
13.6475992717
 20
7.9373110804
 30
0.0
 10
13.6489224432
 20
7.9409329434
 30
0.0
 10
13.6500598678
 20
7.9435947646
 30
0.0
 10
13.6508784795
 20
7.9453397299
 30
0.0
  0
SPLINE
  5
300
100
AcDbEntity
  8
0
100
AcDbSpline
 62
7
  6
CONTINUOUS
 70
0
 71
3
 72
20
 73
16
 74
0
 42
0.0000001
 43
0.0000001
 44
0.0000000001
 40
0.0
 40
0.0
 40
0.0
 40
0.0
 40
0.1247506585
 40
0.1871992597
 40
0.2496501508
 40
0.3121095192
 40
0.3745833902
 40
0.4370746797
 40
0.4995828093
 40
0.5621029413
 40
0.6246318075
 40
0.6871704882
 40
0.7497177082
 40
0.8748184444
 40
1.0
 40
1.0
 40
1.0
 40
1.0
 10
13.6766668496
 20
7.8511506389
 30
0.0
 10
13.6746945236
 20
7.8523246784
 30
0.0
 10
13.6718266568
 20
7.8542476271
 30
0.0
 10
13.6682240362
 20
7.8570994118
 30
0.0
 10
13.6656355903
 20
7.8593787197
 30
0.0
 10
13.6631685024
 20
7.86178921
 30
0.0
 10
13.6608280081
 20
7.8643238519
 30
0.0
 10
13.658619232
 20
7.8669751762
 30
0.0
 10
13.6565463519
 20
7.8697350786
 30
0.0
 10
13.6546136647
 20
7.8725957234
 30
0.0
 10
13.6528250985
 20
7.8755492286
 30
0.0
 10
13.6511837057
 20
7.8785876055
 30
0.0
 10
13.649195853
 20
7.8827412325
 30
0.0
 10
13.6470922255
 20
7.8881087788
 30
0.0
 10
13.6458247085
 20
7.8925441289
 30
0.0
 10
13.6452972276
 20
7.8947861503
 30
0.0
  0
LINE
  5
301
100
AcDbEntity
  8
0
100
AcDbLine
 62
7
  6
CONTINUOUS
 10
14.2654163692
 20
9.3343070019
 11
14.2651585257
 21
9.3336763176
  0
SPLINE
  5
302
100
AcDbEntity
  8
0
100
AcDbSpline
 62
7
  6
CONTINUOUS
 70
0
 71
3
 72
13
 73
9
 74
0
 42
0.0000001
 43
0.0000001
 44
0.0000000001
 40
0.0
 40
0.0
 40
0.0
 40
0.0
 40
0.249917948
 40
0.3749853172
 40
0.5000522998
 40
0.6251147097
 40
0.7501646724
 40
1.0
 40
1.0
 40
1.0
 40
1.0
 10
14.2651585257
 20
9.3336763176
 30
0.0
 10
14.2561372707
 20
9.3116483662
 30
0.0
 10
14.2404838053
 20
9.279405087
 30
0.0
 10
14.2156894017
 20
9.2387141774
 30
0.0
 10
14.1951584291
 20
9.2094322782
 30
0.0
 10
14.1727790482
 20
9.1815401938
 30
0.0
 10
14.140664514
 20
9.1463525054
 30
0.0
 10
14.1141170538
 20
9.1222880035
 30
0.0
 10
14.0955166018
 20
9.1074467671
 30
0.0
  0
LINE
  5
303
100
AcDbEntity
  8
0
100
AcDbLine
 62
7
  6
CONTINUOUS
 10
13.1418718407
 20
9.4311637456
 11
13.1417097335
 21
9.4318255365
  0
SPLINE
  5
304
100
AcDbEntity
  8
0
100
AcDbSpline
 62
7
  6
CONTINUOUS
 70
0
 71
3
 72
15
 73
11
 74
0
 42
0.0000001
 43
0.0000001
 44
0.0000000001
 40
0.0
 40
0.0
 40
0.0
 40
0.0
 40
0.1249895833
 40
0.2500321737
 40
0.3750903534
 40
0.500144881
 40
0.6251919707
 40
0.7502102801
 40
0.8751612864
 40
1.0
 40
1.0
 40
1.0
 40
1.0
 10
13.1417097335
 20
9.4318255365
 30
0.0
 10
13.1385353897
 20
9.4448185374
 30
0.0
 10
13.1331080706
 20
9.4710455217
 30
0.0
 10
13.1277847724
 20
9.5108619475
 30
0.0
 10
13.1253191555
 20
9.5509669198
 30
0.0
 10
13.1257707051
 20
9.5911454772
 30
0.0
 10
13.1291142311
 20
9.6311818735
 30
0.0
 10
13.1352912001
 20
9.6708685605
 30
0.0
 10
13.1442507101
 20
9.7099958366
 30
0.0
 10
13.1520507676
 20
9.7355901916
 30
0.0
 10
13.1563974153
 20
9.7482222767
 30
0.0
  0
LINE
  5
305
100
AcDbEntity
  8
0
100
AcDbLine
 62
7
  6
CONTINUOUS
 10
13.8065946558
 20
7.8823309426
 11
13.8098192208
 21
7.8874288273
  0
SPLINE
  5
306
100
AcDbEntity
  8
0
100
AcDbSpline
 62
7
  6
CONTINUOUS
 70
0
 71
3
 72
9
 73
5
 74
0
 42
0.0000001
 43
0.0000001
 44
0.0000000001
 40
0.0
 40
0.0
 40
0.0
 40
0.0
 40
0.4996958603
 40
1.0
 40
1.0
 40
1.0
 40
1.0
 10
13.8015667483
 20
7.9416853476
 30
0.0
 10
13.8031052181
 20
7.9386286832
 30
0.0
 10
13.8058571337
 20
7.9323412927
 30
0.0
 10
13.8078958611
 20
7.9257861064
 30
0.0
 10
13.8087220659
 20
7.9224610501
 30
0.0
  0
SPLINE
  5
307
100
AcDbEntity
  8
0
100
AcDbSpline
 62
7
  6
CONTINUOUS
 70
0
 71
3
 72
19
 73
15
 74
0
 42
0.0000001
 43
0.0000001
 44
0.0000000001
 40
0.0
 40
0.0
 40
0.0
 40
0.0
 40
0.1249101598
 40
0.1874681755
 40
0.249997565
 40
0.3125137062
 40
0.3750334818
 40
0.4999851048
 40
0.5625184506
 40
0.6250481037
 40
0.6875667289
 40
0.7500830829
 40
0.8750835277
 40
1.0
 40
1.0
 40
1.0
 40
1.0
 10
13.6838911681
 20
7.9852110891
 30
0.0
 10
13.6886153599
 20
7.9871847626
 30
0.0
 10
13.6959733681
 20
7.9895577335
 30
0.0
 10
13.7060495949
 20
7.9914648574
 30
0.0
 10
13.7137077951
 20
7.9922584826
 30
0.0
 10
13.7214036595
 20
7.9924113616
 30
0.0
 10
13.7316384369
 20
7.9917573508
 30
0.0
 10
13.741759743
 20
7.9898228328
 30
0.0
 10
13.7515132567
 20
7.9866493969
 30
0.0
 10
13.7586102615
 20
7.983667189
 30
0.0
 10
13.7654324735
 20
7.9801028441
 30
0.0
 10
13.7740960466
 20
7.9746085732
 30
0.0
 10
13.7840202584
 20
7.9664184088
 30
0.0
 10
13.790765384
 20
7.9586340322
 30
0.0
 10
13.793774714
 20
7.9544915743
 30
0.0
  0
SPLINE
  5
308
100
AcDbEntity
  8
0
100
AcDbSpline
 62
7
  6
CONTINUOUS
 70
0
 71
3
 72
11
 73
7
 74
0
 42
0.0000001
 43
0.0000001
 44
0.0000000001
 40
0.0
 40
0.0
 40
0.0
 40
0.0
 40
0.2499011662
 40
0.5000061286
 40
0.7499732085
 40
1.0
 40
1.0
 40
1.0
 40
1.0
 10
13.8065946558
 20
7.8823309426
 30
0.0
 10
13.8053476158
 20
7.8776630454
 30
0.0
 10
13.8020685633
 20
7.8685143492
 30
0.0
 10
13.7949918627
 20
7.8557871939
 30
0.0
 10
13.7859294806
 20
7.844383829
 30
0.0
 10
13.7787035084
 20
7.8378810684
 30
0.0
 10
13.774847195
 20
7.8349661593
 30
0.0
  0
SPLINE
  5
309
100
AcDbEntity
  8
0
100
AcDbSpline
 62
7
  6
CONTINUOUS
 70
0
 71
3
 72
16
 73
12
 74
0
 42
0.0000001
 43
0.0000001
 44
0.0000000001
 40
0.0
 40
0.0
 40
0.0
 40
0.0
 40
0.124988123
 40
0.2499663321
 40
0.3749586561
 40
0.4999522648
 40
0.6249562246
 40
0.7499760927
 40
0.8125056531
 40
0.8750291278
 40
1.0
 40
1.0
 40
1.0
 40
1.0
 10
13.765693931
 20
7.8289437703
 30
0.0
 10
13.7624625875
 20
7.8271084305
 30
0.0
 10
13.7557474817
 20
7.8238626598
 30
0.0
 10
13.7451192651
 20
7.8203930091
 30
0.0
 10
13.7341238938
 20
7.8183610776
 30
0.0
 10
13.7229556103
 20
7.8178015912
 30
0.0
 10
13.7118114375
 20
7.8187339483
 30
0.0
 10
13.7027106236
 20
7.8207656881
 30
0.0
 10
13.6956571264
 20
7.8231352761
 30
0.0
 10
13.6887924987
 20
7.8259998164
 30
0.0
 10
13.6838834322
 20
7.8286925428
 30
0.0
 10
13.6807595603
 20
7.8307044241
 30
0.0
  0
SPLINE
  5
30A
100
AcDbEntity
  8
0
100
AcDbSpline
 62
7
  6
CONTINUOUS
 70
0
 71
3
 72
9
 73
5
 74
0
 42
0.0000001
 43
0.0000001
 44
0.0000000001
 40
0.0
 40
0.0
 40
0.0
 40
0.0
 40
0.5005276854
 40
1.0
 40
1.0
 40
1.0
 40
1.0
 10
13.7193794368
 20
8.0002662472
 30
0.0
 10
13.7129751506
 20
8.0002662472
 30
0.0
 10
13.7001305855
 20
7.9986709843
 30
0.0
 10
13.6880643535
 20
7.9940315462
 30
0.0
 10
13.682396905
 20
7.9910782209
 30
0.0
  0
SPLINE
  5
30B
100
AcDbEntity
  8
0
100
AcDbSpline
 62
7
  6
CONTINUOUS
 70
0
 71
3
 72
15
 73
11
 74
0
 42
0.0000001
 43
0.0000001
 44
0.0000000001
 40
0.0
 40
0.0
 40
0.0
 40
0.0
 40
0.1248143074
 40
0.2494716893
 40
0.3741287355
 40
0.4988932984
 40
0.6238424939
 40
0.7490352783
 40
0.8745261188
 40
1.0
 40
1.0
 40
1.0
 40
1.0
 10
13.6805983188
 20
7.9901131346
 30
0.0
 10
13.6766785177
 20
7.9879485753
 30
0.0
 10
13.6691741467
 20
7.9829945742
 30
0.0
 10
13.6591712359
 20
7.9739778257
 30
0.0
 10
13.6505474276
 20
7.9636385192
 30
0.0
 10
13.6433914276
 20
7.9522271344
 30
0.0
 10
13.6377616129
 20
7.9399722945
 30
0.0
 10
13.6337051846
 20
7.927084456
 30
0.0
 10
13.6312617228
 20
7.9137803696
 30
0.0
 10
13.6307139797
 20
7.9047676498
 30
0.0
 10
13.6307139797
 20
7.9002662472
 30
0.0
  0
SPLINE
  5
30C
100
AcDbEntity
  8
0
100
AcDbSpline
 62
7
  6
CONTINUOUS
 70
0
 71
3
 72
15
 73
11
 74
0
 42
0.0000001
 43
0.0000001
 44
0.0000000001
 40
0.0
 40
0.0
 40
0.0
 40
0.0
 40
0.1254283198
 40
0.2506877542
 40
0.3755916104
 40
0.5002512428
 40
0.624822171
 40
0.7495651425
 40
0.8746661321
 40
1.0
 40
1.0
 40
1.0
 40
1.0
 10
13.6307139797
 20
7.9002662472
 30
0.0
 10
13.6307139797
 20
7.8940791591
 30
0.0
 10
13.6317462315
 20
7.881688701
 30
0.0
 10
13.6363583821
 20
7.8636577544
 30
0.0
 10
13.6439734743
 20
7.8467051282
 30
0.0
 10
13.6544675103
 20
7.831397815
 30
0.0
 10
13.667671644
 20
7.818344968
 30
0.0
 10
13.6832932
 20
7.8082301612
 30
0.0
 10
13.70079389
 20
7.8017540355
 30
0.0
 10
13.7131970078
 20
7.8002662472
 30
0.0
 10
13.7193794368
 20
7.8002662472
 30
0.0
  0
SPLINE
  5
30D
100
AcDbEntity
  8
0
100
AcDbSpline
 62
7
  6
CONTINUOUS
 70
0
 71
3
 72
15
 73
11
 74
0
 42
0.0000001
 43
0.0000001
 44
0.0000000001
 40
0.0
 40
0.0
 40
0.0
 40
0.0
 40
0.1255359143
 40
0.2510630763
 40
0.3763516167
 40
0.5014944458
 40
0.6264731971
 40
0.7512310785
 40
0.875740073
 40
1.0
 40
1.0
 40
1.0
 40
1.0
 10
13.6838911681
 20
7.9852110891
 30
0.0
 10
13.6878309904
 20
7.9859851506
 30
0.0
 10
13.6958247966
 20
7.9870062753
 30
0.0
 10
13.7078985933
 20
7.9868907917
 30
0.0
 10
13.7198275862
 20
7.9850736367
 30
0.0
 10
13.7313514972
 20
7.9815503408
 30
0.0
 10
13.7422094761
 20
7.9763556042
 30
0.0
 10
13.7521164142
 20
7.9695475758
 30
0.0
 10
13.7607906379
 20
7.9612592795
 30
0.0
 10
13.7655747228
 20
7.9548438068
 30
0.0
 10
13.767663206
 20
7.9514624537
 30
0.0
  0
SPLINE
  5
30E
100
AcDbEntity
  8
0
100
AcDbSpline
 62
7
  6
CONTINUOUS
 70
0
 71
3
 72
17
 73
13
 74
0
 42
0.0000001
 43
0.0000001
 44
0.0000000001
 40
0.0
 40
0.0
 40
0.0
 40
0.0
 40
0.1246844291
 40
0.249394585
 40
0.3740476046
 40
0.4364250897
 40
0.4988595557
 40
0.6238292939
 40
0.7490292735
 40
0.8117450698
 40
0.8745324853
 40
1.0
 40
1.0
 40
1.0
 40
1.0
 10
13.793774714
 20
7.9544915743
 30
0.0
 10
13.7918793475
 20
7.9577867241
 30
0.0
 10
13.7877152601
 20
7.9641716013
 30
0.0
 10
13.7804212076
 20
7.9729687581
 30
0.0
 10
13.7735077097
 20
7.9795294764
 30
0.0
 10
13.767512989
 20
7.9842179211
 30
0.0
 10
13.7612167384
 20
7.9885100856
 30
0.0
 10
13.7528255817
 20
7.9930912129
 30
0.0
 10
13.7438822053
 20
7.9965028167
 30
0.0
 10
13.7364841698
 20
7.9984494273
 30
0.0
 10
13.7289557301
 20
7.9998441897
 30
0.0
 10
13.7232046832
 20
8.0002662472
 30
0.0
 10
13.7193794368
 20
8.0002662472
 30
0.0
  0
SPLINE
  5
30F
100
AcDbEntity
  8
0
100
AcDbSpline
 62
7
  6
CONTINUOUS
 70
0
 71
3
 72
13
 73
9
 74
0
 42
0.0000001
 43
0.0000001
 44
0.0000000001
 40
0.0
 40
0.0
 40
0.0
 40
0.0
 40
0.2504247134
 40
0.375798476
 40
0.5009806733
 40
0.6259972056
 40
0.7508419321
 40
1.0
 40
1.0
 40
1.0
 40
1.0
 10
13.7193794368
 20
7.8002662472
 30
0.0
 10
13.724092505
 20
7.8002662472
 30
0.0
 10
13.7311856587
 20
7.8009246549
 30
0.0
 10
13.740382903
 20
7.8030363726
 30
0.0
 10
13.7471152607
 20
7.8052214298
 30
0.0
 10
13.7536248157
 20
7.8079735302
 30
0.0
 10
13.7619403238
 20
7.8123564887
 30
0.0
 10
13.7677422985
 20
7.8164121389
 30
0.0
 10
13.7713668756
 20
7.8193872547
 30
0.0
  0
SPLINE
  5
310
100
AcDbEntity
  8
0
100
AcDbSpline
 62
7
  6
CONTINUOUS
 70
0
 71
3
 72
9
 73
5
 74
0
 42
0.0000001
 43
0.0000001
 44
0.0000000001
 40
0.0
 40
0.0
 40
0.0
 40
0.0
 40
0.4993832485
 40
1.0
 40
1.0
 40
1.0
 40
1.0
 10
13.7929701876
 20
7.8446668522
 30
0.0
 10
13.7963979679
 20
7.8504195466
 30
0.0
 10
13.8021385602
 20
7.8626407411
 30
0.0
 10
13.8055139156
 20
7.8757054633
 30
0.0
 10
13.8065946558
 20
7.8823309426
 30
0.0
  0
SPLINE
  5
311
100
AcDbEntity
  8
0
100
AcDbSpline
 62
7
  6
CONTINUOUS
 70
0
 71
3
 72
23
 73
19
 74
0
 42
0.0000001
 43
0.0000001
 44
0.0000000001
 40
0.0
 40
0.0
 40
0.0
 40
0.0
 40
0.0635357225
 40
0.1267694934
 40
0.1896828714
 40
0.2522694117
 40
0.3145415286
 40
0.3765374198
 40
0.4383250391
 40
0.500000047
 40
0.5616750513
 40
0.6234626696
 40
0.6854585584
 40
0.7477306724
 40
0.8103172111
 40
0.8732305848
 40
0.9364643555
 40
1.0
 40
1.0
 40
1.0
 40
1.0
 10
13.7193779895
 20
6.6845860059
 30
0.0
 10
13.7066220003
 20
6.691929465
 30
0.0
 10
13.6808874827
 20
6.7060977002
 30
0.0
 10
13.641492754
 20
6.7256000027
 30
0.0
 10
13.6013536829
 20
6.742989462
 30
0.0
 10
13.5604721611
 20
6.7579342224
 30
0.0
 10
13.5188859554
 20
6.7700765629
 30
0.0
 10
13.4766877515
 20
6.7790668549
 30
0.0
 10
13.4340317913
 20
6.784601668
 30
0.0
 10
13.3911294521
 20
6.7864718949
 30
0.0
 10
13.3482271131
 20
6.7846016704
 30
0.0
 10
13.3055711539
 20
6.7790668607
 30
0.0
 10
13.263372952
 20
6.7700765692
 30
0.0
 10
13.2217867425
 20
6.7579342415
 30
0.0
 10
13.1809052385
 20
6.7429894495
 30
0.0
 10
13.1407661144
 20
6.7256000968
 30
0.0
 10
13.1013715647
 20
6.7060975021
 30
0.0
 10
13.0756367137
 20
6.6919299131
 30
0.0
 10
13.0628807385
 20
6.684586466
 30
0.0
  0
SPLINE
  5
312
100
AcDbEntity
  8
0
100
AcDbSpline
 62
7
  6
CONTINUOUS
 70
0
 71
3
 72
23
 73
19
 74
0
 42
0.0000001
 43
0.0000001
 44
0.0000000001
 40
0.0
 40
0.0
 40
0.0
 40
0.0
 40
0.0635355967
 40
0.1267693751
 40
0.1896827551
 40
0.2522692977
 40
0.3145414172
 40
0.3765373111
 40
0.4383249329
 40
0.4999999434
 40
0.5616749508
 40
0.6234625721
 40
0.6854584644
 40
0.7477305817
 40
0.8103171242
 40
0.873230502
 40
0.9364642737
 40
1.0
 40
1.0
 40
1.0
 40
1.0
 10
14.3758782595
 20
6.684586744
 30
0.0
 10
14.3631222961
 20
6.6919301882
 30
0.0
 10
14.3373872256
 20
6.7060973556
 30
0.0
 10
14.2979927915
 20
6.7256001453
 30
0.0
 10
14.2578536301
 20
6.7429894306
 30
0.0
 10
14.2169721352
 20
6.7579342464
 30
0.0
 10
14.1753859207
 20
6.7700765676
 30
0.0
 10
14.1331877181
 20
6.7790668616
 30
0.0
 10
14.0905317568
 20
6.7846016707
 30
0.0
 10
14.0476294172
 20
6.7864718949
 30
0.0
 10
14.0047270777
 20
6.7846016674
 30
0.0
 10
13.9620711186
 20
6.7790668541
 30
0.0
 10
13.9198729154
 20
6.7700765624
 30
0.0
 10
13.8782867105
 20
6.7579342216
 30
0.0
 10
13.8374051896
 20
6.7429894617
 30
0.0
 10
13.7972661195
 20
6.7256000024
 30
0.0
 10
13.757871391
 20
6.706097701
 30
0.0
 10
13.7321368737
 20
6.6919294652
 30
0.0
 10
13.7193808842
 20
6.6845860059
 30
0.0
  0
SPLINE
  5
313
100
AcDbEntity
  8
0
100
AcDbSpline
 62
7
  6
CONTINUOUS
 70
0
 71
3
 72
43
 73
39
 74
0
 42
0.0000001
 43
0.0000001
 44
0.0000000001
 40
0.0
 40
0.0
 40
0.0
 40
0.0
 40
0.0262674481
 40
0.0529386661
 40
0.0800072802
 40
0.1074637556
 40
0.1353068374
 40
0.163546394
 40
0.1921756191
 40
0.221176239
 40
0.2505324905
 40
0.2653472629
 40
0.280250963
 40
0.3103119173
 40
0.340709556
 40
0.3714247117
 40
0.4024452062
 40
0.4337704982
 40
0.4653892507
 40
0.4972811485
 40
0.529429889
 40
0.5456038673
 40
0.5618409958
 40
0.5944883246
 40
0.627362161
 40
0.6604410962
 40
0.6937113504
 40
0.7271729346
 40
0.7608183144
 40
0.7946258292
 40
0.828572501
 40
0.845597807
 40
0.8626536307
 40
0.8797398055
 40
0.89685511
 40
0.9311549958
 40
0.9655428105
 40
1.0
 40
1.0
 40
1.0
 40
1.0
 10
13.993176749
 20
9.2739081521
 30
0.0
 10
14.0052331908
 20
9.2799776981
 30
0.0
 10
14.028845961
 20
9.2936218663
 30
0.0
 10
14.0620282425
 20
9.3180253074
 30
0.0
 10
14.0928565625
 20
9.3462607318
 30
0.0
 10
14.1209154902
 20
9.3780557616
 30
0.0
 10
14.14578877
 20
9.4131448514
 30
0.0
 10
14.1670555059
 20
9.4512203669
 30
0.0
 10
14.1844923487
 20
9.4918396526
 30
0.0
 10
14.1978623815
 20
9.534572057
 30
0.0
 10
14.205395616
 20
9.5714830343
 30
0.0
 10
14.2091668189
 20
9.6016162936
 30
0.0
 10
14.2114020301
 20
9.6322656408
 30
0.0
 10
14.2112565739
 20
9.6710630787
 30
0.0
 10
14.2064109945
 20
9.7177384466
 30
0.0
 10
14.1968838847
 20
9.7641935459
 30
0.0
 10
14.1826614406
 20
9.8099345282
 30
0.0
 10
14.1637393083
 20
9.85444497
 30
0.0
 10
14.1403234728
 20
9.8972728793
 30
0.0
 10
14.1126171242
 20
9.9379689286
 30
0.0
 10
14.0861655747
 20
9.9696760045
 30
0.0
 10
14.063079531
 20
9.9935174527
 30
0.0
 10
14.0386604909
 20
10.0163682819
 30
0.0
 10
14.0059165846
 20
10.0428049797
 30
0.0
 10
13.9635681387
 20
10.0707591801
 30
0.0
 10
13.9184627499
 20
10.0947010552
 30
0.0
 10
13.8709854527
 20
10.1143190029
 30
0.0
 10
13.8215355296
 20
10.1292769919
 30
0.0
 10
13.770607766
 20
10.1394617934
 30
0.0
 10
13.7186980653
 20
10.1447908508
 30
0.0
 10
13.6750612666
 20
10.1451049454
 30
0.0
 10
13.6401659045
 20
10.142841813
 30
0.0
 10
13.6140306269
 20
10.1398670488
 30
0.0
 10
13.5880242979
 20
10.1356246575
 30
0.0
 10
13.5535826486
 20
10.1283012236
 30
0.0
 10
13.5111478747
 20
10.1160628461
 30
0.0
 10
13.4617629103
 20
10.0966163811
 30
0.0
 10
13.4301633968
 20
10.080567404
 30
0.0
 10
13.4147797301
 20
10.0718002472
 30
0.0
  0
SPLINE
  5
314
100
AcDbEntity
  8
0
100
AcDbSpline
 62
7
  6
CONTINUOUS
 70
0
 71
3
 72
43
 73
39
 74
0
 42
0.0000001
 43
0.0000001
 44
0.0000000001
 40
0.0
 40
0.0
 40
0.0
 40
0.0
 40
0.0262674481
 40
0.0529386661
 40
0.0800072802
 40
0.1074637556
 40
0.1353068374
 40
0.163546394
 40
0.1921756191
 40
0.221176239
 40
0.2505324905
 40
0.2653472629
 40
0.280250963
 40
0.3103119173
 40
0.340709556
 40
0.3714247117
 40
0.4024452062
 40
0.4337704982
 40
0.4653892507
 40
0.4972811485
 40
0.529429889
 40
0.5456038673
 40
0.5618409958
 40
0.5944883246
 40
0.627362161
 40
0.6604410962
 40
0.6937113504
 40
0.7271729346
 40
0.7608183144
 40
0.7946258292
 40
0.828572501
 40
0.845597807
 40
0.8626536307
 40
0.8797398055
 40
0.89685511
 40
0.9311549958
 40
0.9655428105
 40
1.0
 40
1.0
 40
1.0
 40
1.0
 10
14.0810854742
 20
9.7356283623
 30
0.0
 10
14.0790386384
 20
9.7489703127
 30
0.0
 10
14.0733590105
 20
9.7756436715
 30
0.0
 10
14.0604038478
 20
9.8147429746
 30
0.0
 10
14.0430768382
 20
9.8527876751
 30
0.0
 10
14.0215086534
 20
9.8892985057
 30
0.0
 10
13.9958232121
 20
9.9237975256
 30
0.0
 10
13.9661830278
 20
9.9557893748
 30
0.0
 10
13.9329400721
 20
9.9849248473
 30
0.0
 10
13.8964307078
 20
10.0108455433
 30
0.0
 10
13.8636541798
 20
10.0294161943
 30
0.0
 10
13.836161113
 20
10.0423145107
 30
0.0
 10
13.8077025699
 20
10.053911492
 30
0.0
 10
13.7707590654
 20
10.0657622225
 30
0.0
 10
13.7248707861
 20
10.0755772845
 30
0.0
 10
13.6777453225
 20
10.0808718798
 30
0.0
 10
13.6298480862
 20
10.0814802726
 30
0.0
 10
13.5816688801
 20
10.0772387383
 30
0.0
 10
13.5337012267
 20
10.0682035072
 30
0.0
 10
13.4864352513
 20
10.0544289747
 30
0.0
 10
13.4481060518
 20
10.0390700815
 30
0.0
 10
13.4182975073
 20
10.0244813618
 30
0.0
 10
13.3890191789
 20
10.0083187691
 30
0.0
 10
13.3537579617
 20
9.9853468526
 30
0.0
 10
13.3140855478
 20
9.9537094101
 30
0.0
 10
13.2773771398
 20
9.9182100825
 30
0.0
 10
13.2440480711
 20
9.8791187689
 30
0.0
 10
13.2145413116
 20
9.8367113701
 30
0.0
 10
13.1891174453
 20
9.7914234654
 30
0.0
 10
13.1680082309
 20
9.7437011756
 30
0.0
 10
13.1542249968
 20
9.7022971743
 30
0.0
 10
13.1455941037
 20
9.6684103665
 30
0.0
 10
13.1403470276
 20
9.6426349877
 30
0.0
 10
13.1363453839
 20
9.6165905281
 30
0.0
 10
13.1326673284
 20
9.5815715076
 30
0.0
 10
13.1311936509
 20
9.5374317727
 30
0.0
 10
13.1344275448
 20
9.4844545923
 30
0.0
 10
13.1399262424
 20
9.4494422624
 30
0.0
 10
13.1435104896
 20
9.4321023255
 30
0.0
  0
SPLINE
  5
315
100
AcDbEntity
  8
0
100
AcDbSpline
 62
7
  6
CONTINUOUS
 70
0
 71
3
 72
17
 73
13
 74
0
 42
0.0000001
 43
0.0000001
 44
0.0000000001
 40
0.0
 40
0.0
 40
0.0
 40
0.0
 40
0.1176738279
 40
0.2375009473
 40
0.3594301556
 40
0.4211981031
 40
0.4834831268
 40
0.5462966548
 40
0.609641452
 40
0.7378199423
 40
0.8679669591
 40
1.0
 40
1.0
 40
1.0
 40
1.0
 10
13.6691287497
 20
9.9619139198
 30
0.0
 10
13.6532047671
 20
9.9645153092
 30
0.0
 10
13.620665493
 20
9.9675547623
 30
0.0
 10
13.5712910148
 20
9.9657006004
 30
0.0
 10
13.5301159008
 20
9.9588465088
 30
0.0
 10
13.4975001416
 20
9.950184269
 30
0.0
 10
13.4731863573
 20
9.9420425427
 30
0.0
 10
13.4492446231
 20
9.9322766857
 30
0.0
 10
13.4178334863
 20
9.9170829612
 30
0.0
 10
13.3799891421
 20
9.8941907386
 30
0.0
 10
13.3378021028
 20
9.8610518021
 30
0.0
 10
13.3123644821
 20
9.8354974647
 30
0.0
 10
13.3004026562
 20
9.8219082017
 30
0.0
  0
SPLINE
  5
316
100
AcDbEntity
  8
0
100
AcDbSpline
 62
7
  6
CONTINUOUS
 70
0
 71
3
 72
31
 73
27
 74
0
 42
0.0000001
 43
0.0000001
 44
0.0000000001
 40
0.0
 40
0.0
 40
0.0
 40
0.0
 40
0.0573479856
 40
0.1156023887
 40
0.1450650046
 40
0.174732058
 40
0.204604009
 40
0.2346791786
 40
0.2953689286
 40
0.3260003886
 40
0.3568023099
 40
0.3877738975
 40
0.4189138148
 40
0.4816311295
 40
0.5132235782
 40
0.5449480377
 40
0.5767999333
 40
0.6087803068
 40
0.6408885167
 40
0.6731166159
 40
0.7378528369
 40
0.770376248
 40
0.8029824685
 40
0.8683997938
 40
0.9340972168
 40
1.0
 40
1.0
 40
1.0
 40
1.0
 10
13.3004026562
 20
9.8219082017
 30
0.0
 10
13.2861293304
 20
9.8056929533
 30
0.0
 10
13.2597075225
 20
9.7708652707
 30
0.0
 10
13.2329859231
 20
9.7229921906
 30
0.0
 10
13.2155280873
 20
9.6823343154
 30
0.0
 10
13.2044650501
 20
9.6506564931
 30
0.0
 10
13.1955987199
 20
9.618054631
 30
0.0
 10
13.186757883
 20
9.5734519655
 30
0.0
 10
13.1825335747
 20
9.5277464827
 30
0.0
 10
13.1829930548
 20
9.4817197613
 30
0.0
 10
13.185725824
 20
9.4469900064
 30
0.0
 10
13.1908915009
 20
9.4123442083
 30
0.0
 10
13.2010125557
 20
9.3663960493
 30
0.0
 10
13.2158667006
 20
9.3213558053
 30
0.0
 10
13.2351813877
 20
9.2779579017
 30
0.0
 10
13.2519358659
 20
9.2462322762
 30
0.0
 10
13.2708724826
 20
9.2155884588
 30
0.0
 10
13.2919526094
 20
9.1861989415
 30
0.0
 10
13.3150798578
 20
9.1582058594
 30
0.0
 10
13.3485127427
 20
9.1228670825
 30
0.0
 10
13.3855433822
 20
9.0908543269
 30
0.0
 10
13.4255875509
 20
9.0627048677
 30
0.0
 10
13.4676632354
 20
9.0371864465
 30
0.0
 10
13.5235700907
 20
9.0106692591
 30
0.0
 10
13.5944333245
 20
8.9879573137
 30
0.0
 10
13.6433986249
 20
8.9791656736
 30
0.0
 10
13.6680725611
 20
8.9764324176
 30
0.0
  0
SPLINE
  5
317
100
AcDbEntity
  8
0
100
AcDbSpline
 62
7
  6
CONTINUOUS
 70
0
 71
3
 72
43
 73
39
 74
0
 42
0.0000001
 43
0.0000001
 44
0.0000000001
 40
0.0
 40
0.0
 40
0.0
 40
0.0
 40
0.0262674481
 40
0.0529386661
 40
0.0800072802
 40
0.1074637556
 40
0.1353068374
 40
0.163546394
 40
0.1921756191
 40
0.221176239
 40
0.2505324905
 40
0.2653472629
 40
0.280250963
 40
0.3103119173
 40
0.340709556
 40
0.3714247117
 40
0.4024452062
 40
0.4337704982
 40
0.4653892507
 40
0.4972811485
 40
0.529429889
 40
0.5456038673
 40
0.5618409958
 40
0.5944883246
 40
0.627362161
 40
0.6604410962
 40
0.6937113504
 40
0.7271729346
 40
0.7608183144
 40
0.7946258292
 40
0.828572501
 40
0.845597807
 40
0.8626536307
 40
0.8797398055
 40
0.89685511
 40
0.9311549958
 40
0.9655428105
 40
1.0
 40
1.0
 40
1.0
 40
1.0
 10
13.3266167668
 20
9.6400458754
 30
0.0
 10
13.3204304901
 20
9.6280489108
 30
0.0
 10
13.3093471986
 20
9.6031313088
 30
0.0
 10
13.2968461517
 20
9.5638844545
 30
0.0
 10
13.288501883
 20
9.5229210845
 30
0.0
 10
13.2844903833
 20
9.4807057412
 30
0.0
 10
13.2849923267
 20
9.4376979242
 30
0.0
 10
13.2901674024
 20
9.3943939113
 30
0.0
 10
13.2999361174
 20
9.3512830998
 30
0.0
 10
13.3142370108
 20
9.3088531504
 30
0.0
 10
13.3298382241
 20
9.2745636183
 30
0.0
 10
13.3444991423
 20
9.247968642
 30
0.0
 10
13.3607060527
 20
9.2218589751
 30
0.0
 10
13.3836282911
 20
9.1905566855
 30
0.0
 10
13.4149835401
 20
9.1556436798
 30
0.0
 10
13.449996756
 20
9.1236606096
 30
0.0
 10
13.4883888299
 20
9.0950151204
 30
0.0
 10
13.5298597377
 20
9.070127567
 30
0.0
 10
13.5739771601
 20
9.0492425432
 30
0.0
 10
13.6203126045
 20
9.0326041308
 30
0.0
 10
13.6603493091
 20
9.0225003983
 30
0.0
 10
13.6930399626
 20
9.0167818975
 30
0.0
 10
13.7262267613
 20
9.0126483401
 30
0.0
 10
13.7682562391
 20
9.0105069875
 30
0.0
 10
13.8189479182
 20
9.0127833563
 30
0.0
 10
13.8695116254
 20
9.0199262547
 30
0.0
 10
13.919452706
 20
9.0319614568
 30
0.0
 10
13.9682506195
 20
9.048926125
 30
0.0
 10
14.0154385219
 20
9.0706210358
 30
0.0
 10
14.0605666933
 20
9.0968214944
 30
0.0
 10
14.0960542252
 20
9.1222164533
 30
0.0
 10
14.1229549303
 20
9.1445583451
 30
0.0
 10
14.1423502916
 20
9.1623269106
 30
0.0
 10
14.1608962386
 20
9.1810452139
 30
0.0
 10
14.1844555117
 20
9.2072142898
 30
0.0
 10
14.2115924272
 20
9.2420578796
 30
0.0
 10
14.2401153574
 20
9.286818154
 30
0.0
 10
14.2562465487
 20
9.3183757772
 30
0.0
 10
14.263538991
 20
9.3345108485
 30
0.0
  0
SPLINE
  5
318
100
AcDbEntity
  8
0
100
AcDbSpline
 62
7
  6
CONTINUOUS
 70
0
 71
3
 72
27
 73
23
 74
0
 42
0.0000001
 43
0.0000001
 44
0.0000000001
 40
0.0
 40
0.0
 40
0.0
 40
0.0
 40
0.048061803
 40
0.0977705415
 40
0.1492107645
 40
0.2024069256
 40
0.2296913442
 40
0.2574441064
 40
0.314341242
 40
0.3731371945
 40
0.4032828677
 40
0.4339420447
 40
0.4967986442
 40
0.5617568565
 40
0.5950639243
 40
0.6289367029
 40
0.698358485
 40
0.7700804784
 40
0.8068527585
 40
0.8442442751
 40
0.920856741
 40
1.0
 40
1.0
 40
1.0
 40
1.0
 10
13.5605508597
 20
9.7332032524
 30
0.0
 10
13.5520593411
 20
9.7286575169
 30
0.0
 10
13.5353063848
 20
9.7184004286
 30
0.0
 10
13.5117068252
 20
9.6999338737
 30
0.0
 10
13.4896661962
 20
9.6781351278
 30
0.0
 10
13.4730939145
 20
9.6574553127
 30
0.0
 10
13.4610347772
 20
9.6394137656
 30
0.0
 10
13.4496751403
 20
9.6200575641
 30
0.0
 10
13.4373301655
 20
9.5940202836
 30
0.0
 10
13.4279211013
 20
9.5662765214
 30
0.0
 10
13.4222128683
 20
9.5429857271
 30
0.0
 10
13.41773238
 20
9.518599164
 30
0.0
 10
13.4147656109
 20
9.4869025883
 30
0.0
 10
13.4155046248
 20
9.4545446655
 30
0.0
 10
13.4184057283
 20
9.428210075
 30
0.0
 10
13.4229979773
 20
9.4012085126
 30
0.0
 10
13.4319223279
 20
9.3672019846
 30
0.0
 10
13.4449415224
 20
9.3339173043
 30
0.0
 10
13.4579243419
 20
9.3077061174
 30
0.0
 10
13.4729078426
 20
9.2814488841
 30
0.0
 10
13.4950242032
 20
9.2495720316
 30
0.0
 10
13.5157289386
 20
9.2261042834
 30
0.0
 10
13.526889444
 20
9.2148349269
 30
0.0
  0
SPLINE
  5
319
100
AcDbEntity
  8
0
100
AcDbSpline
 62
7
  6
CONTINUOUS
 70
0
 71
3
 72
27
 73
23
 74
0
 42
0.0000001
 43
0.0000001
 44
0.0000000001
 40
0.0
 40
0.0
 40
0.0
 40
0.0
 40
0.048061803
 40
0.0977705415
 40
0.1492107645
 40
0.2024069256
 40
0.2296913442
 40
0.2574441064
 40
0.314341242
 40
0.3731371945
 40
0.4032828677
 40
0.4339420447
 40
0.4967986442
 40
0.5617568565
 40
0.5950639243
 40
0.6289367029
 40
0.698358485
 40
0.7700804784
 40
0.8068527585
 40
0.8442442751
 40
0.920856741
 40
1.0
 40
1.0
 40
1.0
 40
1.0
 10
13.8300162904
 20
9.768216589
 30
0.0
 10
13.8230690154
 20
9.7748877936
 30
0.0
 10
13.8081369966
 20
9.7876511873
 30
0.0
 10
13.7832815942
 20
9.8043892229
 30
0.0
 10
13.7557388259
 20
9.8186149238
 30
0.0
 10
13.7309500364
 20
9.8279856861
 30
0.0
 10
13.7100650272
 20
9.8338794625
 30
0.0
 10
13.6881458647
 20
9.838701724
 30
0.0
 10
13.6595681324
 20
9.8423965305
 30
0.0
 10
13.6302746858
 20
9.8427717884
 30
0.0
 10
13.6063598831
 20
9.8410033893
 30
0.0
 10
13.5817823363
 20
9.8377287244
 30
0.0
 10
13.5507203194
 20
9.830755509
 30
0.0
 10
13.520174474
 20
9.820053517
 30
0.0
 10
13.4960252804
 20
9.8091565675
 30
0.0
 10
13.4717643515
 20
9.7964451376
 30
0.0
 10
13.4421799974
 20
9.7774489807
 30
0.0
 10
13.4145475377
 20
9.7547814591
 30
0.0
 10
13.3936311294
 20
9.7343343617
 30
0.0
 10
13.3732891729
 20
9.7119702745
 30
0.0
 10
13.349806816
 20
9.6810858764
 30
0.0
 10
13.3338857762
 20
9.6541425699
 30
0.0
 10
13.3266167671
 20
9.6400458758
 30
0.0
  0
SPLINE
  5
31A
100
AcDbEntity
  8
0
100
AcDbSpline
 62
7
  6
CONTINUOUS
 70
0
 71
3
 72
27
 73
23
 74
0
 42
0.0000001
 43
0.0000001
 44
0.0000000001
 40
0.0
 40
0.0
 40
0.0
 40
0.0
 40
0.048061803
 40
0.0977705415
 40
0.1492107645
 40
0.2024069256
 40
0.2296913442
 40
0.2574441064
 40
0.314341242
 40
0.3731371945
 40
0.4032828677
 40
0.4339420447
 40
0.4967986442
 40
0.5617568565
 40
0.5950639243
 40
0.6289367029
 40
0.698358485
 40
0.7700804784
 40
0.8068527585
 40
0.8442442751
 40
0.920856741
 40
1.0
 40
1.0
 40
1.0
 40
1.0
 10
13.9465853498
 20
9.5227594513
 30
0.0
 10
13.9507832164
 20
9.531428218
 30
0.0
 10
13.9583076775
 20
9.5495735174
 30
0.0
 10
13.9665457537
 20
9.5783847472
 30
0.0
 10
13.9715640158
 20
9.6089754598
 30
0.0
 10
13.972815983
 20
9.6354467244
 30
0.0
 10
13.9719674747
 20
9.6571308256
 30
0.0
 10
13.9697803242
 20
9.6794673487
 30
0.0
 10
13.9644632891
 20
9.7077881452
 30
0.0
 10
13.9557680077
 20
9.7357638295
 30
0.0
 10
13.9466960798
 20
9.7579616931
 30
0.0
 10
13.9359868088
 20
9.7803244021
 30
0.0
 10
13.9197561957
 20
9.8077112936
 30
0.0
 10
13.9001388111
 20
9.8334550215
 30
0.0
 10
13.8823126851
 20
9.8530549269
 30
0.0
 10
13.8627263575
 20
9.8722003935
 30
0.0
 10
13.8355178706
 20
9.894466651
 30
0.0
 10
13.8054208768
 20
9.9137420325
 30
0.0
 10
13.7795110059
 20
9.9273162182
 30
0.0
 10
13.7519554848
 20
9.9397516855
 30
0.0
 10
13.7153262294
 20
9.9525409302
 30
0.0
 10
13.6847817503
 20
9.9593567993
 30
0.0
 10
13.6691287502
 20
9.9619139197
 30
0.0
  0
SPLINE
  5
31B
100
AcDbEntity
  8
0
100
AcDbSpline
 62
7
  6
CONTINUOUS
 70
0
 71
3
 72
27
 73
23
 74
0
 42
0.0000001
 43
0.0000001
 44
0.0000000001
 40
0.0
 40
0.0
 40
0.0
 40
0.0
 40
0.048061803
 40
0.0977705415
 40
0.1492107645
 40
0.2024069256
 40
0.2296913442
 40
0.2574441064
 40
0.314341242
 40
0.3731371945
 40
0.4032828677
 40
0.4339420447
 40
0.4967986442
 40
0.5617568565
 40
0.5950639243
 40
0.6289367029
 40
0.698358485
 40
0.7700804784
 40
0.8068527585
 40
0.8442442751
 40
0.920856741
 40
1.0
 40
1.0
 40
1.0
 40
1.0
 10
13.7491635599
 20
9.3360452608
 30
0.0
 10
13.7587052591
 20
9.3347316487
 30
0.0
 10
13.7782876507
 20
9.3331826668
 30
0.0
 10
13.8082344641
 20
9.3342509504
 30
0.0
 10
13.8388786889
 20
9.3389313496
 30
0.0
 10
13.8644412367
 20
9.3459207286
 30
0.0
 10
13.884801839
 20
9.3534284638
 30
0.0
 10
13.9053692681
 20
9.3624109327
 30
0.0
 10
13.930660892
 20
9.376219341
 30
0.0
 10
13.9545803592
 20
9.3931340069
 30
0.0
 10
13.9728884021
 20
9.4086214402
 30
0.0
 10
13.9908472554
 20
9.4257170192
 30
0.0
 10
14.0118782018
 20
9.4496162645
 30
0.0
 10
14.0302998368
 20
9.4762287554
 30
0.0
 10
14.0434318786
 20
9.4992391125
 30
0.0
 10
14.0555877913
 20
9.5237830916
 30
0.0
 10
14.0683563757
 20
9.5565405523
 30
0.0
 10
14.0773878703
 20
9.5911209149
 30
0.0
 10
14.0822910977
 20
9.6199573204
 30
0.0
 10
14.0856028056
 20
9.6500069491
 30
0.0
 10
14.0864470377
 20
9.6887955351
 30
0.0
 10
14.0834905512
 20
9.7199512804
 30
0.0
 10
14.0810854743
 20
9.7356283618
 30
0.0
  0
SPLINE
  5
31C
100
AcDbEntity
  8
0
100
AcDbSpline
 62
7
  6
CONTINUOUS
 70
0
 71
3
 72
27
 73
23
 74
0
 42
0.0000001
 43
0.0000001
 44
0.0000000001
 40
0.0
 40
0.0
 40
0.0
 40
0.0
 40
0.048061803
 40
0.0977705415
 40
0.1492107645
 40
0.2024069256
 40
0.2296913442
 40
0.2574441064
 40
0.314341242
 40
0.3731371945
 40
0.4032828677
 40
0.4339420447
 40
0.4967986442
 40
0.5617568565
 40
0.5950639243
 40
0.6289367029
 40
0.698358485
 40
0.7700804784
 40
0.8068527585
 40
0.8442442751
 40
0.920856741
 40
1.0
 40
1.0
 40
1.0
 40
1.0
 10
13.5105811242
 20
9.4661066826
 30
0.0
 10
13.512280352
 20
9.4566260589
 30
0.0
 10
13.5168584745
 20
9.4375234361
 30
0.0
 10
13.5271285469
 20
9.4093724419
 30
0.0
 10
13.5410494573
 20
9.3816743751
 30
0.0
 10
13.5555960134
 20
9.3595227843
 30
0.0
 10
13.569028066
 20
9.3424787186
 30
0.0
 10
13.5839265868
 20
9.3256936666
 30
0.0
 10
13.604874705
 20
9.3059069357
 30
0.0
 10
13.6283530301
 20
9.2883850899
 30
0.0
 10
13.6487399509
 20
9.2757589864
 30
0.0
 10
13.6705484036
 20
9.2639619264
 30
0.0
 10
13.6997768564
 20
9.2513455807
 30
0.0
 10
13.7307794375
 20
9.2420492767
 30
0.0
 10
13.7567216117
 20
9.2366705541
 30
0.0
 10
13.7838207065
 20
9.2326941008
 30
0.0
 10
13.8189206126
 20
9.2306730675
 30
0.0
 10
13.854599377
 20
9.2327695254
 30
0.0
 10
13.8835396091
 20
9.2370172183
 30
0.0
 10
13.9131418782
 20
9.2431534429
 30
0.0
 10
13.9502928978
 20
9.2543368627
 30
0.0
 10
13.9790101678
 20
9.2667763032
 30
0.0
 10
13.9931767485
 20
9.2739081519
 30
0.0
  0
SPLINE
  5
31D
100
AcDbEntity
  8
0
100
AcDbSpline
 62
7
  6
CONTINUOUS
 70
0
 71
3
 72
43
 73
39
 74
0
 42
0.0000001
 43
0.0000001
 44
0.0000000001
 40
0.0
 40
0.0
 40
0.0
 40
0.0
 40
0.0262674481
 40
0.0529386661
 40
0.0800072802
 40
0.1074637556
 40
0.1353068374
 40
0.163546394
 40
0.1921756191
 40
0.221176239
 40
0.2505324905
 40
0.2653472629
 40
0.280250963
 40
0.3103119173
 40
0.340709556
 40
0.3714247117
 40
0.4024452062
 40
0.4337704982
 40
0.4653892507
 40
0.4972811485
 40
0.529429889
 40
0.5456038673
 40
0.5618409958
 40
0.5944883246
 40
0.627362161
 40
0.6604410962
 40
0.6937113504
 40
0.7271729346
 40
0.7608183144
 40
0.7946258292
 40
0.828572501
 40
0.845597807
 40
0.8626536307
 40
0.8797398055
 40
0.89685511
 40
0.9311549958
 40
0.9655428105
 40
1.0
 40
1.0
 40
1.0
 40
1.0
 10
13.5268894444
 20
9.2148349265
 30
0.0
 10
13.536387571
 20
9.2052441618
 30
0.0
 10
13.5566606934
 20
9.1870033627
 30
0.0
 10
13.590123634
 20
9.1629862157
 30
0.0
 10
13.6265035931
 20
9.142391967
 30
0.0
 10
13.6654131489
 20
9.1255315456
 30
0.0
 10
13.7064711226
 20
9.1127187758
 30
0.0
 10
13.7492548725
 20
9.1042588894
 30
0.0
 10
13.7932743896
 20
9.100227516
 30
0.0
 10
13.8380468887
 20
9.1007168984
 30
0.0
 10
13.8754792116
 20
9.1049584859
 30
0.0
 10
13.90530301
 20
9.1106835479
 30
0.0
 10
13.9351429896
 20
9.118028905
 30
0.0
 10
13.9719965973
 20
9.1301563097
 30
0.0
 10
14.0148901437
 20
9.1491882115
 30
0.0
 10
14.0561275297
 20
9.1726044465
 30
0.0
 10
14.0952348122
 20
9.2002655355
 30
0.0
 10
14.1317194974
 20
9.2320160356
 30
0.0
 10
14.1652153685
 20
9.2675203704
 30
0.0
 10
14.1953578788
 20
9.3064464445
 30
0.0
 10
14.2173391216
 20
9.3414013884
 30
0.0
 10
14.2328797065
 20
9.3707249334
 30
0.0
 10
14.2470662381
 20
9.4010101151
 30
0.0
 10
14.2620906083
 20
9.4403208095
 30
0.0
 10
14.2755902433
 20
9.4892348979
 30
0.0
 10
14.284421988
 20
9.5395311181
 30
0.0
 10
14.2884084733
 20
9.5907469902
 30
0.0
 10
14.2873534995
 20
9.6423989346
 30
0.0
 10
14.281302277
 20
9.6939813928
 30
0.0
 10
14.270329532
 20
9.7449972212
 30
0.0
 10
14.2571437413
 20
9.7865953436
 30
0.0
 10
14.2442081146
 20
9.8190834587
 30
0.0
 10
14.2333027008
 20
9.8430203321
 30
0.0
 10
14.2212315493
 20
9.8664428497
 30
0.0
 10
14.2036234949
 20
9.8969357392
 30
0.0
 10
14.1788710399
 20
9.9335117408
 30
0.0
 10
14.1451155593
 20
9.9744703449
 30
0.0
 10
14.1200872884
 20
9.9995638614
 30
0.0
 10
14.1069954124
 20
10.0114853974
 30
0.0
  0
SPLINE
  5
31E
100
AcDbEntity
  8
0
100
AcDbSpline
 62
7
  6
CONTINUOUS
 70
0
 71
3
 72
20
 73
16
 74
0
 42
0.0000001
 43
0.0000001
 44
0.0000000001
 40
0.0
 40
0.0
 40
0.0
 40
0.0
 40
0.0624716117
 40
0.1250185164
 40
0.1876256185
 40
0.2502726965
 40
0.3755337152
 40
0.5007890898
 40
0.6259718215
 40
0.6885246776
 40
0.7510015276
 40
0.8133910902
 40
0.8756922763
 40
0.9379003724
 40
1.0
 40
1.0
 40
1.0
 40
1.0
 10
13.4147797301
 20
10.0718002472
 30
0.0
 10
13.4035377481
 20
10.0653934378
 30
0.0
 10
13.3814853119
 20
10.0517725549
 30
0.0
 10
13.3499055949
 20
10.0290733474
 30
0.0
 10
13.319939703
 20
10.004219936
 30
0.0
 10
13.2823533829
 20
9.9684007197
 30
0.0
 10
13.2401200253
 20
9.9188637029
 30
0.0
 10
13.1983279751
 20
9.8529350683
 30
0.0
 10
13.1713656884
 20
9.7937354656
 30
0.0
 10
13.1548294167
 20
9.7445838856
 30
0.0
 10
13.1450103096
 20
9.7069931664
 30
0.0
 10
13.1378546943
 20
9.6688598067
 30
0.0
 10
13.1334216109
 20
9.6303703005
 30
0.0
 10
13.1316817216
 20
9.5917286234
 30
0.0
 10
13.1323052177
 20
9.5659646572
 30
0.0
 10
13.1330601927
 20
9.5531244307
 30
0.0
  0
SPLINE
  5
31F
100
AcDbEntity
  8
0
100
AcDbSpline
 62
7
  6
CONTINUOUS
 70
0
 71
3
 72
20
 73
16
 74
0
 42
0.0000001
 43
0.0000001
 44
0.0000000001
 40
0.0
 40
0.0
 40
0.0
 40
0.0
 40
0.0624716117
 40
0.1250185164
 40
0.1876256185
 40
0.2502726965
 40
0.3755337152
 40
0.5007890898
 40
0.6259718215
 40
0.6885246776
 40
0.7510015276
 40
0.8133910902
 40
0.8756922763
 40
0.9379003724
 40
1.0
 40
1.0
 40
1.0
 40
1.0
 10
13.1435104896
 20
9.4321023255
 30
0.0
 10
13.1461297639
 20
9.4194307522
 30
0.0
 10
13.1522694158
 20
9.3942485549
 30
0.0
 10
13.1640989758
 20
9.3572000183
 30
0.0
 10
13.1784760048
 20
9.3210206351
 30
0.0
 10
13.2009272922
 20
9.2742051739
 30
0.0
 10
13.2349889696
 20
9.2187310839
 30
0.0
 10
13.2847763734
 20
9.1586114137
 30
0.0
 10
13.3327467364
 20
9.1146750719
 30
0.0
 10
13.374382678
 20
9.0837594694
 30
0.0
 10
13.4070993054
 20
9.0628047726
 30
0.0
 10
13.4411550789
 20
9.0442155219
 30
0.0
 10
13.4763908765
 20
9.0281054975
 30
0.0
 10
13.51260364
 20
9.0145098295
 30
0.0
 10
13.5372992988
 20
9.0071413061
 30
0.0
 10
13.54974438
 20
9.0038914818
 30
0.0
  0
SPLINE
  5
320
100
AcDbEntity
  8
0
100
AcDbSpline
 62
7
  6
CONTINUOUS
 70
0
 71
3
 72
20
 73
16
 74
0
 42
0.0000001
 43
0.0000001
 44
0.0000000001
 40
0.0
 40
0.0
 40
0.0
 40
0.0
 40
0.0624716117
 40
0.1250185164
 40
0.1876256185
 40
0.2502726965
 40
0.3755337152
 40
0.5007890898
 40
0.6259718215
 40
0.6885246776
 40
0.7510015276
 40
0.8133910902
 40
0.8756922763
 40
0.9379003724
 40
1.0
 40
1.0
 40
1.0
 40
1.0
 10
13.6680725611
 20
8.9764324176
 30
0.0
 10
13.6809333437
 20
8.975007764
 30
0.0
 10
13.7067802934
 20
8.973065193
 30
0.0
 10
13.7456710806
 20
8.9728671457
 30
0.0
 10
13.784522465
 20
8.9753604686
 30
0.0
 10
13.8359844438
 20
8.9822461386
 30
0.0
 10
13.8992690757
 20
8.9974982823
 30
0.0
 10
13.9718314337
 20
9.0262709173
 30
0.0
 10
14.0284410353
 20
9.0583163674
 30
0.0
 10
14.070709734
 20
9.0883610544
 30
0.0
 10
14.1007488289
 20
9.1130010587
 30
0.0
 10
14.1289520696
 20
9.1396456296
 30
0.0
 10
14.1551620736
 20
9.1681785932
 30
0.0
 10
14.1792826815
 20
9.1984176854
 30
0.0
 10
14.193921942
 20
9.2196276537
 30
0.0
 10
14.2008584501
 20
9.2304593783
 30
0.0
  0
SPLINE
  5
321
100
AcDbEntity
  8
0
100
AcDbSpline
 62
7
  6
CONTINUOUS
 70
0
 71
3
 72
20
 73
16
 74
0
 42
0.0000001
 43
0.0000001
 44
0.0000000001
 40
0.0
 40
0.0
 40
0.0
 40
0.0
 40
0.0624716117
 40
0.1250185164
 40
0.1876256185
 40
0.2502726965
 40
0.3755337152
 40
0.5007890898
 40
0.6259718215
 40
0.6885246776
 40
0.7510015276
 40
0.8133910902
 40
0.8756922763
 40
0.9379003724
 40
1.0
 40
1.0
 40
1.0
 40
1.0
 10
14.263538991
 20
9.3345108485
 30
0.0
 10
14.2688681174
 20
9.3463019374
 30
0.0
 10
14.2787027589
 20
9.3702835599
 30
0.0
 10
14.2909090273
 20
9.4072096965
 30
0.0
 10
14.3005434744
 20
9.444930038
 30
0.0
 10
14.309897439
 20
9.4960010774
 30
0.0
 10
14.3149478151
 20
9.5609015105
 30
0.0
 10
14.3100064149
 20
9.6388036471
 30
0.0
 10
14.2970227097
 20
9.7025451662
 30
0.0
 10
14.2815102606
 20
9.7520294064
 30
0.0
 10
14.2673588148
 20
9.7882124634
 30
0.0
 10
14.2507336027
 20
9.8232689646
 30
0.0
 10
14.2316964784
 20
9.8570133302
 30
0.0
 10
14.2103910704
 20
9.889297785
 30
0.0
 10
14.1947429722
 20
9.9097747897
 30
0.0
 10
14.1865848888
 20
9.919718988
 30
0.0
  0
SPLINE
  5
322
100
AcDbEntity
  8
0
100
AcDbSpline
 62
7
  6
CONTINUOUS
 70
0
 71
3
 72
20
 73
16
 74
0
 42
0.0000001
 43
0.0000001
 44
0.0000000001
 40
0.0
 40
0.0
 40
0.0
 40
0.0
 40
0.0624716117
 40
0.1250185164
 40
0.1876256185
 40
0.2502726965
 40
0.3755337152
 40
0.5007890898
 40
0.6259718215
 40
0.6885246776
 40
0.7510015276
 40
0.8133910902
 40
0.8756922763
 40
0.9379003724
 40
1.0
 40
1.0
 40
1.0
 40
1.0
 10
14.1069954124
 20
10.0114853974
 30
0.0
 10
14.097428211
 20
10.0201973447
 30
0.0
 10
14.0776594041
 20
10.0369613735
 30
0.0
 10
14.0463125056
 20
10.0599810282
 30
0.0
 10
14.0134155369
 20
10.0808001585
 30
0.0
 10
13.9677346261
 20
10.1054781266
 30
0.0
 10
13.9075712984
 20
10.1303366565
 30
0.0
 10
13.831954987
 20
10.1497101897
 30
0.0
 10
13.7673210144
 20
10.1570591649
 30
0.0
 10
13.7154650949
 20
10.1575974203
 30
0.0
 10
13.6766799255
 20
10.155319775
 30
0.0
 10
13.6382017385
 20
10.1503413134
 30
0.0
 10
13.6002261448
 20
10.1426635147
 30
0.0
 10
13.5629380705
 20
10.1323773128
 30
0.0
 10
13.5386277535
 20
10.1238228295
 30
0.0
 10
13.5266492725
 20
10.1191369573
 30
0.0
  0
SPLINE
  5
323
100
AcDbEntity
  8
0
100
AcDbSpline
 62
9
  6
CONTINUOUS
 70
0
 71
3
 72
23
 73
19
 74
0
 42
0.0000001
 43
0.0000001
 44
0.0000000001
 40
0.0
 40
0.0
 40
0.0
 40
0.0
 40
0.069271634
 40
0.1401676371
 40
0.2120453239
 40
0.2842773989
 40
0.3562682437
 40
0.4273973037
 40
0.4970219587
 40
0.5645150532
 40
0.6293084373
 40
0.6909500311
 40
0.7492554864
 40
0.804355839
 40
0.8564913649
 40
0.9060415158
 40
0.9535923901
 40
1.0
 40
1.0
 40
1.0
 40
1.0
 10
13.5942229677
 20
9.8374462378
 30
0.0
 10
13.5936935177
 20
9.8411923421
 30
0.0
 10
13.5929627252
 20
9.8488240835
 30
0.0
 10
13.5928268313
 20
9.8604166413
 30
0.0
 10
13.5936510641
 20
9.8721440182
 30
0.0
 10
13.5954626044
 20
9.8838209574
 30
0.0
 10
13.5982420552
 20
9.8952634444
 30
0.0
 10
13.6019030193
 20
9.9063045682
 30
0.0
 10
13.6063727041
 20
9.9167779427
 30
0.0
 10
13.6115760911
 20
9.9265177669
 30
0.0
 10
13.6174390712
 20
9.9353597576
 30
0.0
 10
13.6238977605
 20
9.9431408377
 30
0.0
 10
13.6308802331
 20
9.9497093259
 30
0.0
 10
13.6382468362
 20
9.9550001942
 30
0.0
 10
13.6458783458
 20
9.9589559063
 30
0.0
 10
13.6536578026
 20
9.9615164795
 30
0.0
 10
13.6614618793
 20
9.9626159867
 30
0.0
 10
13.6666273165
 20
9.9623225613
 30
0.0
 10
13.669128752
 20
9.9619139194
 30
0.0
  0
SPLINE
  5
324
100
AcDbEntity
  8
0
100
AcDbSpline
 62
9
  6
CONTINUOUS
 70
0
 71
3
 72
23
 73
19
 74
0
 42
0.0000001
 43
0.0000001
 44
0.0000000001
 40
0.0
 40
0.0
 40
0.0
 40
0.0
 40
0.069271634
 40
0.1401676371
 40
0.2120453239
 40
0.2842773989
 40
0.3562682437
 40
0.4273973037
 40
0.4970219587
 40
0.5645150532
 40
0.6293084373
 40
0.6909500311
 40
0.7492554864
 40
0.804355839
 40
0.8564913649
 40
0.9060415158
 40
0.9535923901
 40
1.0
 40
1.0
 40
1.0
 40
1.0
 10
13.4218454072
 20
9.5303436143
 30
0.0
 10
13.4181190413
 20
9.5309976874
 30
0.0
 10
13.4106349966
 20
9.5326610001
 30
0.0
 10
13.3995678254
 20
9.5361140547
 30
0.0
 10
13.3886691292
 20
9.5405219055
 30
0.0
 10
13.3781234968
 20
9.5458531553
 30
0.0
 10
13.3680999425
 20
9.5520324931
 30
0.0
 10
13.3587305099
 20
9.5589261717
 30
0.0
 10
13.3501509474
 20
9.5664135453
 30
0.0
 10
13.3424957591
 20
9.5743720316
 30
0.0
 10
13.3358982868
 20
9.5826803825
 30
0.0
 10
13.3304938845
 20
9.591227447
 30
0.0
 10
13.3264045837
 20
9.5998979475
 30
0.0
 10
13.3236490745
 20
9.6085389716
 30
0.0
 10
13.3222452349
 20
9.6170193509
 30
0.0
 10
13.3222139694
 20
9.6252093145
 30
0.0
 10
13.3235798683
 20
9.6329711989
 30
0.0
 10
13.3254551403
 20
9.6377931482
 30
0.0
 10
13.3266167679
 20
9.6400458774
 30
0.0
  0
SPLINE
  5
325
100
AcDbEntity
  8
0
100
AcDbSpline
 62
9
  6
CONTINUOUS
 70
0
 71
3
 72
23
 73
19
 74
0
 42
0.0000001
 43
0.0000001
 44
0.0000000001
 40
0.0
 40
0.0
 40
0.0
 40
0.0
 40
0.069271634
 40
0.1401676371
 40
0.2120453239
 40
0.2842773989
 40
0.3562682437
 40
0.4273973037
 40
0.4970219587
 40
0.5645150532
 40
0.6293084373
 40
0.6909500311
 40
0.7492554864
 40
0.804355839
 40
0.8564913649
 40
0.9060415158
 40
0.9535923901
 40
1.0
 40
1.0
 40
1.0
 40
1.0
 10
13.9806165318
 20
9.4186331361
 30
0.0
 10
13.9832467706
 20
9.4159136769
 30
0.0
 10
13.9883238193
 20
9.4101690175
 30
0.0
 10
13.9952476943
 20
9.4008703177
 30
0.0
 10
14.0014740551
 20
9.3908981986
 30
0.0
 10
14.0068720209
 20
9.3803865596
 30
0.0
 10
14.011349123
 20
9.3694956731
 30
0.0
 10
14.0148771506
 20
9.3584113556
 30
0.0
 10
14.0174171947
 20
9.3473110028
 30
0.0
 10
14.0189324912
 20
9.3363728453
 30
0.0
 10
14.0193864324
 20
9.3257733513
 30
0.0
 10
14.0187348471
 20
9.315682003
 30
0.0
 10
14.0169467686
 20
9.30626379
 30
0.0
 10
14.0140969559
 20
9.2976534069
 30
0.0
 10
14.0102480441
 20
9.2899674798
 30
0.0
 10
14.0054593986
 20
9.2833232826
 30
0.0
 10
13.999792042
 20
9.2778466414
 30
0.0
 10
13.9954406444
 20
9.2750478597
 30
0.0
 10
13.9931767469
 20
9.2739081511
 30
0.0
  0
SPLINE
  5
326
100
AcDbEntity
  8
0
100
AcDbSpline
 62
9
  6
CONTINUOUS
 70
0
 71
3
 72
23
 73
19
 74
0
 42
0.0000001
 43
0.0000001
 44
0.0000000001
 40
0.0
 40
0.0
 40
0.0
 40
0.0
 40
0.069271634
 40
0.1401676371
 40
0.2120453239
 40
0.2842773989
 40
0.3562682437
 40
0.4273973037
 40
0.4970219587
 40
0.5645150532
 40
0.6293084373
 40
0.6909500311
 40
0.7492554864
 40
0.804355839
 40
0.8564913649
 40
0.9060415158
 40
0.9535923901
 40
1.0
 40
1.0
 40
1.0
 40
1.0
 10
13.6606497629
 20
9.2715028825
 30
0.0
 10
13.658876192
 20
9.2681610176
 30
0.0
 10
13.6549815906
 20
9.26155726
 30
0.0
 10
13.6482775965
 20
9.2520988073
 30
0.0
 10
13.640717599
 20
9.243095632
 30
0.0
 10
13.6323884994
 20
9.2347135864
 30
0.0
 10
13.6234141514
 20
9.2270901402
 30
0.0
 10
13.6139625595
 20
9.2203095441
 30
0.0
 10
13.6041904135
 20
9.2144636209
 30
0.0
 10
13.5942558599
 20
9.2096424118
 30
0.0
 10
13.5843154176
 20
9.2059352643
 30
0.0
 10
13.5745166241
 20
9.2034365605
 30
0.0
 10
13.5650068246
 20
9.2022267364
 30
0.0
 10
13.5559372231
 20
9.2022763147
 30
0.0
 10
13.5474380929
 20
9.2035617652
 30
0.0
 10
13.539639313
 20
9.2060628679
 30
0.0
 10
13.5326794083
 20
9.2097604691
 30
0.0
 10
13.5286729529
 20
9.213034023
 30
0.0
 10
13.5268894428
 20
9.2148349282
 30
0.0
  0
SPLINE
  5
327
100
AcDbEntity
  8
0
100
AcDbSpline
 62
9
  6
CONTINUOUS
 70
0
 71
3
 72
23
 73
19
 74
0
 42
0.0000001
 43
0.0000001
 44
0.0000000001
 40
0.0
 40
0.0
 40
0.0
 40
0.0
 40
0.069271634
 40
0.1401676371
 40
0.2120453239
 40
0.2842773989
 40
0.3562682437
 40
0.4273973037
 40
0.4970219587
 40
0.5645150532
 40
0.6293084373
 40
0.6909500311
 40
0.7492554864
 40
0.804355839
 40
0.8564913649
 40
0.9060415158
 40
0.9535923901
 40
1.0
 40
1.0
 40
1.0
 40
1.0
 10
13.9395625146
 20
9.7684053654
 30
0.0
 10
13.9429616624
 20
9.7700665121
 30
0.0
 10
13.9499940525
 20
9.7731198749
 30
0.0
 10
13.9609772366
 20
9.7768314151
 30
0.0
 10
13.9723853368
 20
9.7796714818
 30
0.0
 10
13.9840505627
 20
9.7815569773
 30
0.0
 10
13.995791912
 20
9.7824494854
 30
0.0
 10
14.0074239448
 20
9.7823795966
 30
0.0
 10
14.0187659244
 20
9.7813651244
 30
0.0
 10
14.0296369828
 20
9.7794261805
 30
0.0
 10
14.0398579761
 20
9.7765824804
 30
0.0
 10
14.0492540678
 20
9.7728443879
 30
0.0
 10
14.057658774
 20
9.7682334363
 30
0.0
 10
14.0649670944
 20
9.7628623486
 30
0.0
 10
14.0710874663
 20
9.7568267339
 30
0.0
 10
14.0759267005
 20
9.7502192915
 30
0.0
 10
14.0793839863
 20
9.74313694
 30
0.0
 10
14.08070113
 20
9.7381336438
 30
0.0
 10
14.0810854745
 20
9.73562836
 30
0.0
  0
LINE
  5
328
100
AcDbEntity
  8
0
100
AcDbLine
 62
7
  6
CONTINUOUS
 10
13.7698550911
 20
7.6946409757
 11
13.7712848449
 21
7.6846373056
  0
LINE
  5
329
100
AcDbEntity
  8
0
100
AcDbLine
 62
7
  6
CONTINUOUS
 10
13.6674740706
 20
7.6846371075
 11
13.6689037825
 21
7.694642411
  0
ENDSEC
  0
SECTION
  2
OBJECTS
  0
DICTIONARY
  5
C
100
AcDbDictionary
280
0
281
1
  3
ACAD_GROUP
350
D
  3
ACAD_MLINESTYLE
350
17
  3
ACAD_LAYOUT
350
1A
  3
ACAD_PLOTSETTINGS
350
19
  3
ACAD_PLOTSTYLENAME
350
E
  0
DICTIONARY
  5
D
102
{ACAD_REACTORS
330
C
102
}
100
AcDbDictionary
280
0
281
1
  0
ACDBDICTIONARYWDFLT
  5
E
102
{ACAD_REACTORS
330
C
102
}
100
AcDbDictionary
281
1
  3
Normal
350
F
100
AcDbDictionaryWithDefault
340
F
  0
DICTIONARY
  5
17
102
{ACAD_REACTORS
330
C
102
}
100
AcDbDictionary
280
0
281
1
  3
Standard
350
18
  0
DICTIONARY
  5
19
102
{ACAD_REACTORS
330
C
102
}
100
AcDbDictionary
281
1
  0
DICTIONARY
  5
1A
102
{ACAD_REACTORS
330
C
102
}
100
AcDbDictionary
281
1
  3
Model
350
32A
  3
Layout1
350
32B
  0
ACDBPLACEHOLDER
  5
F
102
{ACAD_REACTORS
330
E
102
}
  0
MLINESTYLE
  5
18
102
{ACAD_REACTORS
330
17
102
}
100
AcDbMlineStyle
  2
STANDARD
 70
0
  3

 62
256
 51
90.0
 52
90.0
 71
2
 49
0.5
 62
256
  6
BYLAYER
 49
-0.5
 62
256
  6
BYLAYER
  0
LAYOUT
  5
32A
102
{ACAD_REACTORS
330
1A
102
}
100
AcDbPlotSettings
  1

  2
none_device
  4
ANSI_C_(22.00_x_17.00_Inches)
  6

 40
0.0
 41
0.0
 42
0.0
 43
0.0
 44
558.8
 45
431.8
 46
0.0
 47
0.0
 48
0.0
 49
0.0
140
0.0
141
0.0
142
1.0
143
1.0
 70
1024
 72
0
 73
0
 74
0
  7

 75
0
147
1.0
148
0.0
149
0.0
100
AcDbLayout
  1
Model
 70
0
 71
0
 10
0.0
 20
0.0
 11
22.0
 21
17.0
 12
0.0
 22
0.0
 32
0.0
 14
0.0
 24
0.0
 34
0.0
 15
0.0
 25
0.0
 35
0.0
146
0.0
 13
0.0
 23
0.0
 33
0.0
 16
1.0
 26
0.0
 36
0.0
 17
0.0
 27
1.0
 37
0.0
 76
0
330
202
345
0
346
0
  0
LAYOUT
  5
32B
102
{ACAD_REACTORS
330
1A
102
}
100
AcDbPlotSettings
  1

  2
none_device
  4
ANSI_C_(22.00_x_17.00_Inches)
  6

 40
0.0
 41
0.0
 42
0.0
 43
0.0
 44
558.8
 45
431.8
 46
0.0
 47
0.0
 48
0.0
 49
0.0
140
0.0
141
0.0
142
1.0
143
1.0
 70
0
 72
0
 73
0
 74
0
  7

 75
0
147
1.0
148
0.0
149
0.0
100
AcDbLayout
  1
Layout1
 70
0
 71
1
 10
0.0
 20
0.0
 11
22.0
 21
17.0
 12
0.0
 22
0.0
 32
0.0
 14
0.0
 24
0.0
 34
0.0
 15
0.0
 25
0.0
 35
0.0
146
0.0
 13
0.0
 23
0.0
 33
0.0
 16
1.0
 26
0.0
 36
0.0
 17
0.0
 27
1.0
 37
0.0
 76
0
330
203
345
0
346
0
  0
ENDSEC
  0
EOF
