999
DXF file: E:\BT Custom\CADOUTPUT\_TOP.dxf
999
Pro/ENGINEER 2018400 by Parametric Technology Corporation
  0
SECTION
  2
HEADER
  9
$ACADVER
  1
AC1018
  9
$DWGCODEPAGE
  3
ANSI_1252
  9
$EXTMAX
 10
22.0
 20
17.0
 30
0.0
  9
$EXTMIN
 10
0.0
 20
0.0
 30
0.0
  9
$LIMMIN
 10
0.0
 20
0.0
  9
$LIMMAX
 10
22.0
 20
17.0
  9
$VIEWCTR
 10
11.0
 20
8.5
  9
$VIEWSIZE
 40
17.0
  9
$CLAYER
  8
0
  9
$LTSCALE
 40
1.21
  9
$CELTYPE
  6
BYLAYER
  9
$DIMSCALE
 40
1.0
  9
$DIMASZ
 40
0.1
  9
$DIMEXO
 40
0.0625
  9
$DIMDLI
 40
0.836
  9
$DIMEXE
 40
0.125
  9
$DIMCEN
 40
0.198
  9
$DIMLFAC
 40
1.0
  9
$DIMBLK
  1
_FILLED
  9
$DIMALT
 70
1
  9
$DIMALTD
 70
2
  9
$DIMALTTD
 70
2
  9
$DIMALTF
 40
25.4
  9
$DIMTXT
 40
0.08
  9
$DIMTOL
 70
1
  9
$DIMLIM
 70
0
  9
$DIMTFAC
 40
1.0
  9
$DIMTP
 40
0.001
  9
$DIMTM
 40
0.001
  9
$DIMGAP
 40
0.09
  9
$DIMDSEP
 70
46
  9
$AUNITS
 70
0
  9
$PDMODE
 70
3
  9
$PDSIZE
 40
0.06
  9
$HANDSEED
  5
4EF
  9
$TILEMODE
 70
1
  9
$MEASUREMENT
 70
0
  9
$INSUNITS
 70
1
  0
ENDSEC
  0
SECTION
  2
CLASSES
  0
CLASS
  1
ACDBDICTIONARYWDFLT
  2
AcDbDictionaryWithDefault
  3
AutoCAD 2000
 90
0
 91
1
280
0
281
0
  0
CLASS
  1
ACDBPLACEHOLDER
  2
AcDbPlaceHolder
  3
AutoCAD 2000
 90
0
 91
1
280
0
281
0
  0
CLASS
  1
LAYOUT
  2
AcDbLayout
  3
AutoCAD 2000
 90
0
 91
0
280
0
281
0
  0
ENDSEC
  0
SECTION
  2
TABLES
  0
TABLE
  2
VPORT
  5
8
100
AcDbSymbolTable
 70
2
  0
VPORT
  5
1F4
100
AcDbSymbolTableRecord
100
AcDbViewportTableRecord
  2
*ACTIVE
 70
0
 10
0.0
 20
0.0
 11
1.0
 21
1.0
 12
11.0
 22
8.5
 13
0.0
 23
0.0
 14
1.0
 24
1.0
 15
0.0
 25
0.0
 16
0.0
 26
0.0
 36
1.0
 17
0.0
 27
0.0
 37
0.0
 40
17.0
 41
1.2941176471
 42
50.0
 43
0.0
 44
0.0
 50
0.0
 51
0.0
 71
0
 72
100
 73
1
 74
1
 75
0
 76
0
 77
0
 78
0
  0
ENDTAB
  0
TABLE
  2
LTYPE
  5
5
100
AcDbSymbolTable
 70
6
  0
LTYPE
  5
14
100
AcDbSymbolTableRecord
100
AcDbLinetypeTableRecord
  2
BYBLOCK
 70
0
  3

 72
65
 73
0
 40
0.0
  0
LTYPE
  5
15
100
AcDbSymbolTableRecord
100
AcDbLinetypeTableRecord
  2
BYLAYER
 70
0
  3

 72
65
 73
0
 40
0.0
  0
LTYPE
  5
16
100
AcDbSymbolTableRecord
100
AcDbLinetypeTableRecord
  2
CONTINUOUS
 70
64
  3
Solid line
 72
65
 73
0
 40
0.0
  0
LTYPE
  5
1F5
100
AcDbSymbolTableRecord
100
AcDbLinetypeTableRecord
  2
CENTER
 70
64
  3
____ _ ____ _ ____ _ ____ _ ____ _ ____ _ ____
 72
65
 73
4
 40
0.6
 49
0.375
 74
0
 49
-0.075
 74
0
 49
0.075
 74
0
 49
-0.075
 74
0
  0
LTYPE
  5
1F6
100
AcDbSymbolTableRecord
100
AcDbLinetypeTableRecord
  2
HIDDEN
 70
64
  3
- - - - - - - - - - - - - - - - - - - -
 72
65
 73
2
 40
0.2
 49
0.1
 74
0
 49
-0.1
 74
0
  0
LTYPE
  5
1F7
100
AcDbSymbolTableRecord
100
AcDbLinetypeTableRecord
  2
PHANTOM
 70
64
  3
_____ _ _ _____ _ _ _____ _ _ _____
 72
65
 73
6
 40
0.8
 49
0.45
 74
0
 49
-0.05
 74
0
 49
0.1
 74
0
 49
-0.05
 74
0
 49
0.1
 74
0
 49
-0.05
 74
0
  0
LTYPE
  5
1F8
100
AcDbSymbolTableRecord
100
AcDbLinetypeTableRecord
  2
DOT
 70
64
  3
. . . . . . . . . . . . . . . . . . . .
 72
65
 73
2
 40
0.2
 49
0.1
 74
0
 49
-0.1
 74
0
  0
LTYPE
  5
1F9
100
AcDbSymbolTableRecord
100
AcDbLinetypeTableRecord
  2
DASHED
 70
64
  3
- - - - - - - - - - - - - - - - - - - -
 72
65
 73
2
 40
0.2
 49
0.1
 74
0
 49
-0.1
 74
0
  0
ENDTAB
  0
TABLE
  2
LAYER
  5
2
100
AcDbSymbolTable
 70
36
  0
LAYER
  5
10
100
AcDbSymbolTableRecord
100
AcDbLayerTableRecord
  2
0
 70
0
 62
7
  6
CONTINUOUS
370
-3
390
F
  0
LAYER
  5
1FA
100
AcDbSymbolTableRecord
100
AcDbLayerTableRecord
  2
DEFAULT_1
 70
0
 62
7
  6
CENTER
370
-3
390
F
  0
LAYER
  5
1FB
100
AcDbSymbolTableRecord
100
AcDbLayerTableRecord
  2
DEFAULT_2
 70
0
 62
8
  6
HIDDEN
370
-3
390
F
  0
LAYER
  5
1FC
100
AcDbSymbolTableRecord
100
AcDbLayerTableRecord
  2
DEFAULT_3
 70
0
 62
7
  6
PHANTOM
370
-3
390
F
  0
LAYER
  5
1FD
100
AcDbSymbolTableRecord
100
AcDbLayerTableRecord
  2
ALL_FEATURES
 70
0
 62
7
  6
CONTINUOUS
370
-3
390
F
  0
LAYER
  5
1FE
100
AcDbSymbolTableRecord
100
AcDbLayerTableRecord
  2
AXES_FEATURES
 70
0
 62
7
  6
CONTINUOUS
370
-3
390
F
  0
LAYER
  5
1FF
100
AcDbSymbolTableRecord
100
AcDbLayerTableRecord
  2
DIMENSIONS
 70
0
 62
7
  6
CONTINUOUS
370
-3
390
F
  0
ENDTAB
  0
TABLE
  2
STYLE
  5
3
100
AcDbSymbolTable
 70
1
  0
STYLE
  5
11
100
AcDbSymbolTableRecord
100
AcDbTextStyleTableRecord
  2
STANDARD
 70
0
 40
0.0
 41
0.8
 50
0.0
 71
0
 42
0.2
  3
txt
  4

  0
STYLE
  5
200
100
AcDbSymbolTableRecord
100
AcDbTextStyleTableRecord
  2
TEXTSTYLE_1
 70
0
 40
0.0
 41
0.8
 50
0.0
 71
0
 42
0.2
  3
gdt
  4

  0
ENDTAB
  0
TABLE
  2
VIEW
  5
6
100
AcDbSymbolTable
 70
0
  0
ENDTAB
  0
TABLE
  2
UCS
  5
7
100
AcDbSymbolTable
 70
0
  0
ENDTAB
  0
TABLE
  2
APPID
  5
9
100
AcDbSymbolTable
 70
1
  0
APPID
  5
201
100
AcDbSymbolTableRecord
100
AcDbRegAppTableRecord
  2
ACAD
 70
0
  0
ENDTAB
  0
TABLE
  2
BLOCK_RECORD
  5
1
100
AcDbSymbolTable
 70
0
  0
BLOCK_RECORD
  5
202
100
AcDbSymbolTableRecord
100
AcDbBlockTableRecord
  2
*Model_Space
  0
BLOCK_RECORD
  5
203
100
AcDbSymbolTableRecord
100
AcDbBlockTableRecord
  2
*Paper_Space
  0
BLOCK_RECORD
  5
204
100
AcDbSymbolTableRecord
100
AcDbBlockTableRecord
  2
_FILLED
  0
ENDTAB
  0
TABLE
  2
DIMSTYLE
  5
A
100
AcDbSymbolTable
 70
1
100
AcDbDimStyleTable
 71
0
  0
DIMSTYLE
105
205
100
AcDbSymbolTableRecord
100
AcDbDimStyleTableRecord
  2
STANDARD
 70
0
  3

  4

 40
1.0
 41
0.1
 42
0.0625
 43
0.38
 44
0.125
 45
0.0
 46
0.0
 47
0.001
 48
0.001
140
0.08
141
0.09
142
0.0
143
25.4
144
1.0
145
0.0
146
1.0
147
0.09
 71
1.0
 72
0.0
 73
1
 74
1
 75
0
 76
0
 77
0
 78
4
 79
1
170
1
171
2
172
0
173
0
174
0
175
0
176
0
177
0
178
0
270
2
179
3
271
3
272
3
273
2
274
2
275
0
280
0
281
0
282
0
283
1
284
4
285
0
286
0
287
3
288
0
340
11
278
46
341
204
342
204
343
204
344
204
  0
ENDTAB
  0
ENDSEC
  0
SECTION
  2
BLOCKS
  0
BLOCK
  5
20
100
AcDbEntity
  8
0
100
AcDbBlockBegin
  2
*Model_Space
 70
0
 10
0.0
 20
0.0
 30
0.0
  3
*Model_Space
  1

  0
ENDBLK
  5
21
100
AcDbEntity
  8
0
100
AcDbBlockEnd
  0
BLOCK
  5
1C
100
AcDbEntity
  8
0
100
AcDbBlockBegin
  2
*Paper_Space
 70
0
 10
0.0
 20
0.0
 30
0.0
  3
*Paper_Space
  1

  0
ENDBLK
  5
1D
100
AcDbEntity
  8
0
100
AcDbBlockEnd
  0
BLOCK
  5
206
100
AcDbEntity
  8
0
100
AcDbBlockBegin
  2
_FILLED
 70
64
 10
0.0
 20
0.0
  3
_FILLED
  1

  0
SOLID
  5
207
100
AcDbEntity
  8
0
  6
BYBLOCK
 62
0
100
AcDbTrace
 10
0.0
 20
0.0
 11
-1.0
 21
0.2
 12
-1.0
 22
-0.2
 13
-1.0
 23
-0.2
  0
ENDBLK
  5
208
100
AcDbEntity
  8
0
  6
BYBLOCK
 62
0
100
AcDbBlockEnd
  0
ENDSEC
  0
SECTION
  2
ENTITIES
  0
LWPOLYLINE
  5
209
100
AcDbEntity
  8
0
100
AcDbPolyline
 62
7
  6
CONTINUOUS
 90
11
 70
0
 10
3.8672926698
 20
10.8670410793
 10
3.8087645607
 20
10.7841512049
 10
3.7534398729
 20
10.6994121659
 10
3.7012891216
 20
10.6176811431
 10
3.6524452937
 20
10.5428952709
 10
3.6064521538
 20
10.4769497901
 10
3.5629085379
 20
10.4211233257
 10
3.5217693694
 20
10.3763586723
 10
3.4834922318
 20
10.3436177048
 10
3.4494288421
 20
10.3232909854
 10
3.4234954602
 20
10.3149047232
  0
LWPOLYLINE
  5
20A
100
AcDbEntity
  8
0
100
AcDbPolyline
 62
7
  6
CONTINUOUS
 90
10
 70
0
 10
3.5115908914
 20
10.4966424963
 10
3.5645035864
 20
10.5615699482
 10
3.6151823862
 20
10.6260120514
 10
3.6623146807
 20
10.6848570298
 10
3.7072181963
 20
10.7371347252
 10
3.7493983022
 20
10.7802427879
 10
3.7866688671
 20
10.81130337
 10
3.8164974913
 20
10.8298434514
 10
3.839411282
 20
10.838580202
 10
3.8479182953
 20
10.8396023068
  0
LINE
  5
20B
100
AcDbEntity
  8
0
100
AcDbLine
 62
7
  6
CONTINUOUS
 10
3.3683312619
 20
10.6175419557
 11
3.368324376
 21
10.6175337824
  0
LINE
  5
20C
100
AcDbEntity
  8
0
100
AcDbLine
 62
7
  6
CONTINUOUS
 10
3.5115908911
 20
10.496642496
 11
3.5115951196
 21
10.4966474777
  0
LWPOLYLINE
  5
20D
100
AcDbEntity
  8
0
100
AcDbPolyline
 62
7
  6
CONTINUOUS
 90
7
 70
0
 10
3.368324376
 20
10.6175337824
 10
3.333440504
 20
10.5777958479
 10
3.2863407166
 20
10.5300435289
 10
3.2361188965
 20
10.4881032246
 10
3.1865425076
 20
10.4569617617
 10
3.141354265
 20
10.4379411129
 10
3.1070885189
 20
10.4303313029
  0
LWPOLYLINE
  5
20E
100
AcDbEntity
  8
0
100
AcDbPolyline
 62
7
  6
CONTINUOUS
 90
3
 70
0
 10
3.3504627273
 20
10.6207453667
 10
3.4032879429
 20
10.6635457741
 10
3.4096948487
 20
10.6681970679
  0
LWPOLYLINE
  5
20F
100
AcDbEntity
  8
0
100
AcDbPolyline
 62
7
  6
CONTINUOUS
 90
12
 70
0
 10
4.6494768959
 20
10.1060480551
 10
4.7046305948
 20
10.1862046619
 10
4.7576561945
 20
10.2707408457
 10
4.8084423108
 20
10.3553154931
 10
4.8565535779
 20
10.4355658058
 10
4.9019244067
 20
10.5084997054
 10
4.9449552423
 20
10.5728314045
 10
4.9858187358
 20
10.6275077518
 10
5.0243402788
 20
10.6714325916
 10
5.0598604158
 20
10.7039519184
 10
5.0909298454
 20
10.7247983748
 10
5.1166643014
 20
10.7351994964
  0
LWPOLYLINE
  5
210
100
AcDbEntity
  8
0
100
AcDbPolyline
 62
7
  6
CONTINUOUS
 90
12
 70
0
 10
5.1844058198
 20
10.6869658936
 10
5.1284760809
 20
10.6333239503
 10
5.0686188316
 20
10.563923425
 10
5.0109184981
 20
10.4877516308
 10
4.9573541995
 20
10.4122093105
 10
4.9081857543
 20
10.3419964818
 10
4.8624979448
 20
10.2789710786
 10
4.8196716464
 20
10.2244686697
 10
4.7794821829
 20
10.1795600559
 10
4.7427477524
 20
10.1457169135
 10
4.7112769331
 20
10.1239906331
 10
4.6869149408
 20
10.1135502965
  0
LWPOLYLINE
  5
211
100
AcDbEntity
  8
0
100
AcDbPolyline
 62
7
  6
CONTINUOUS
 90
7
 70
0
 10
3.3946994762
 20
10.8832396385
 10
3.3212888968
 20
10.8362413821
 10
3.2482618332
 20
10.7793290741
 10
3.1766389959
 20
10.7189559092
 10
3.1062934108
 20
10.6603387954
 10
3.0413063823
 20
10.6105795999
 10
2.9743081594
 20
10.567032075
  0
LINE
  5
212
100
AcDbEntity
  8
0
100
AcDbLine
 62
7
  6
CONTINUOUS
 10
3.3946449434
 20
10.8832098176
 11
3.3946994762
 21
10.8832396385
  0
LINE
  5
213
100
AcDbEntity
  8
0
100
AcDbLine
 62
7
  6
CONTINUOUS
 10
2.8051569358
 20
10.644031109
 11
2.7827294161
 21
10.6334956809
  0
LWPOLYLINE
  5
214
100
AcDbEntity
  8
0
100
AcDbPolyline
 62
7
  6
CONTINUOUS
 90
7
 70
0
 10
5.3133368029
 20
10.1945611524
 10
5.3674078595
 20
10.2525965013
 10
5.4229299818
 20
10.3110813539
 10
5.4759335476
 20
10.3634065953
 10
5.5280146987
 20
10.4093679366
 10
5.5812896586
 20
10.448924305
 10
5.6233357152
 20
10.4738969212
  0
LWPOLYLINE
  5
215
100
AcDbEntity
  8
0
100
AcDbPolyline
 62
7
  6
CONTINUOUS
 90
5
 70
0
 10
5.1765469762
 20
10.3225065539
 10
5.1307350379
 20
10.2755851205
 10
5.0911439838
 20
10.2398287654
 10
5.0577213128
 20
10.2148579736
 10
5.0403820689
 20
10.2049954128
  0
LINE
  5
216
100
AcDbEntity
  8
0
100
AcDbLine
 62
7
  6
CONTINUOUS
 10
5.1843876188
 20
10.6869503806
 11
5.1844058198
 21
10.6869658936
  0
LINE
  5
217
100
AcDbEntity
  8
0
100
AcDbLine
 62
7
  6
CONTINUOUS
 10
5.3054800727
 20
10.5439752124
 11
5.305446237
 21
10.5439464697
  0
LWPOLYLINE
  5
218
100
AcDbEntity
  8
0
100
AcDbPolyline
 62
7
  6
CONTINUOUS
 90
4
 70
0
 10
5.3054800725
 20
10.5439752122
 10
5.3444503612
 20
10.5729538406
 10
5.3853914686
 20
10.5942607238
 10
5.4242748903
 20
10.6051483584
  0
LINE
  5
219
100
AcDbEntity
  8
0
100
AcDbLine
 62
7
  6
CONTINUOUS
 10
5.2480786689
 20
10.7338320999
 11
5.1843876192
 21
10.6869503809
  0
LINE
  5
21A
100
AcDbEntity
  8
0
100
AcDbLine
 62
7
  6
CONTINUOUS
 10
5.8673183383
 20
10.7737204418
 11
5.8673183383
 21
10.2097351743
  0
LINE
  5
21B
100
AcDbEntity
  8
0
100
AcDbLine
 62
7
  6
CONTINUOUS
 10
6.4018407373
 20
10.6867278081
 11
6.6682871351
 21
11.1482265064
  0
LINE
  5
21C
100
AcDbEntity
  8
0
100
AcDbLine
 62
9
  6
CONTINUOUS
 10
5.9857757204
 20
10.179836693
 11
5.9857757204
 21
10.8036189232
  0
LINE
  5
21D
100
AcDbEntity
  8
0
100
AcDbLine
 62
9
  6
CONTINUOUS
 10
6.1218886679
 20
10.2664586885
 11
6.1218886679
 21
10.7169969276
  0
LINE
  5
21E
100
AcDbEntity
  8
0
100
AcDbLine
 62
7
  6
CONTINUOUS
 10
6.1313183383
 20
10.2764424115
 11
6.1313183383
 21
10.7070122065
  0
LINE
  5
21F
100
AcDbEntity
  8
0
100
AcDbLine
 62
9
  6
CONTINUOUS
 10
6.5973183383
 20
10.2967278081
 11
6.5973183383
 21
10.6867278081
  0
LWPOLYLINE
  5
220
100
AcDbEntity
  8
0
100
AcDbPolyline
 62
7
  6
CONTINUOUS
 90
16
 70
0
 10
3.4565676607
 20
10.1304959653
 10
3.5145939115
 20
10.1474718395
 10
3.5792882283
 20
10.1819131013
 10
3.6428720747
 20
10.2329435003
 10
3.7040947688
 20
10.298033411
 10
3.7622145612
 20
10.3725541609
 10
3.8168959781
 20
10.4516122028
 10
3.8675267757
 20
10.529601489
 10
3.9148168432
 20
10.6038374517
 10
3.9601533019
 20
10.6735041581
 10
4.0035569018
 20
10.7362503315
 10
4.044796056
 20
10.7900549006
 10
4.0831872491
 20
10.8330044398
 10
4.117332549
 20
10.863608876
 10
4.1449725263
 20
10.8817898234
 10
4.1652893222
 20
10.8898509996
  0
LINE
  5
221
100
AcDbEntity
  8
0
100
AcDbLine
 62
7
  6
CONTINUOUS
 10
3.6324351131
 20
10.2245671226
 11
3.6470757493
 21
10.2040039453
  0
LINE
  5
222
100
AcDbEntity
  8
0
100
AcDbLine
 62
7
  6
CONTINUOUS
 10
3.9881706694
 20
10.177575378
 11
3.9948531557
 21
10.1670938774
  0
LWPOLYLINE
  5
223
100
AcDbEntity
  8
0
100
AcDbPolyline
 62
7
  6
CONTINUOUS
 90
3
 70
0
 10
3.81869381
 20
10.4543814982
 10
3.8400240884
 20
10.4196911836
 10
3.8825952696
 20
10.3484256477
  0
LWPOLYLINE
  5
224
100
AcDbEntity
  8
0
100
AcDbPolyline
 62
7
  6
CONTINUOUS
 90
3
 70
0
 10
3.9935369377
 20
10.5278324539
 10
3.9748976889
 20
10.5587059373
 10
3.9305948277
 20
10.6280828438
  0
LWPOLYLINE
  5
225
100
AcDbEntity
  8
0
100
AcDbPolyline
 62
7
  6
CONTINUOUS
 90
3
 70
0
 10
4.1684599934
 20
10.4560435701
 10
4.1910395878
 20
10.4157775827
 10
4.2346771863
 20
10.3384826939
  0
LINE
  5
226
100
AcDbEntity
  8
0
100
AcDbLine
 62
7
  6
CONTINUOUS
 10
7.8053784061
 20
10.4917263607
 11
7.4263495415
 21
9.8352291097
  0
LWPOLYLINE
  5
227
100
AcDbEntity
  8
0
100
AcDbPolyline
 62
7
  6
CONTINUOUS
 90
4
 70
0
 10
3.8271427329
 20
10.2752928436
 10
3.8236662725
 20
10.2797307615
 10
3.7777666904
 20
10.3431666709
 10
3.7595772981
 20
10.3691726825
  0
LWPOLYLINE
  5
228
100
AcDbEntity
  8
0
100
AcDbPolyline
 62
7
  6
CONTINUOUS
 90
3
 70
0
 10
3.4692413611
 20
10.4499221584
 10
3.5046989514
 20
10.4043393406
 10
3.5235095928
 20
10.3782522569
  0
LWPOLYLINE
  5
229
100
AcDbEntity
  8
0
100
AcDbPolyline
 62
7
  6
CONTINUOUS
 90
3
 70
0
 10
3.6437309052
 20
10.5304004828
 10
3.6172575977
 20
10.5653274453
 10
3.5911992198
 20
10.595515558
  0
LWPOLYLINE
  5
22A
100
AcDbEntity
  8
0
100
AcDbPolyline
 62
7
  6
CONTINUOUS
 90
4
 70
0
 10
4.1709465368
 20
10.2416806349
 10
4.1653420059
 20
10.2493386359
 10
4.1209997454
 20
10.3169826655
 10
4.1033442723
 20
10.3457600667
  0
LINE
  5
22B
100
AcDbEntity
  8
0
100
AcDbLine
 62
7
  6
CONTINUOUS
 10
3.9948531557
 20
10.1670938774
 11
4.0330776042
 21
10.113134983
  0
LWPOLYLINE
  5
22C
100
AcDbEntity
  8
0
100
AcDbPolyline
 62
7
  6
CONTINUOUS
 90
3
 70
0
 10
4.343522126
 20
10.1617133868
 10
4.3558517756
 20
10.1429484326
 10
4.3878631653
 20
10.101623741
  0
LWPOLYLINE
  5
22D
100
AcDbEntity
  8
0
100
AcDbPolyline
 62
7
  6
CONTINUOUS
 90
4
 70
0
 10
4.6934794204
 20
10.5277843206
 10
4.6894819198
 20
10.5346182953
 10
4.6421500772
 20
10.6173739942
 10
4.6278649437
 20
10.6420438177
  0
LWPOLYLINE
  5
22E
100
AcDbEntity
  8
0
100
AcDbPolyline
 62
7
  6
CONTINUOUS
 90
3
 70
0
 10
4.518529775
 20
10.4560398464
 10
4.5592636567
 20
10.385652752
 10
4.583697202
 20
10.3457307002
  0
LWPOLYLINE
  5
22F
100
AcDbEntity
  8
0
100
AcDbPolyline
 62
7
  6
CONTINUOUS
 90
4
 70
0
 10
4.3434937759
 20
10.5273522178
 10
4.3407953488
 20
10.5321660589
 10
4.2876483333
 20
10.6262785055
 10
4.2772929474
 20
10.6437050075
  0
LWPOLYLINE
  5
230
100
AcDbEntity
  8
0
100
AcDbPolyline
 62
7
  6
CONTINUOUS
 90
5
 70
0
 10
3.4399298752
 20
10.1279859782
 10
3.4719013059
 20
10.0984416106
 10
3.5327294754
 20
10.0532698189
 10
3.5968224418
 20
10.0203477475
 10
3.6603790612
 20
10.0029376455
  0
LWPOLYLINE
  5
231
100
AcDbEntity
  8
0
100
AcDbPolyline
 62
7
  6
CONTINUOUS
 90
3
 70
0
 10
3.4872539231
 20
10.3468353282
 10
3.4602901564
 20
10.3759335923
 10
3.4292443519
 20
10.4087970027
  0
LWPOLYLINE
  5
232
100
AcDbEntity
  8
0
100
AcDbPolyline
 62
7
  6
CONTINUOUS
 90
3
 70
0
 10
3.8106868974
 20
10.7868736958
 10
3.8026551977
 20
10.796393216
 10
3.7865761751
 20
10.8112261222
  0
LWPOLYLINE
  5
233
100
AcDbEntity
  8
0
100
AcDbPolyline
 62
7
  6
CONTINUOUS
 90
4
 70
0
 10
3.9989868048
 20
10.7296435962
 10
4.0006786484
 20
10.7276243559
 10
4.045578873
 20
10.6638653992
 10
4.0591486621
 20
10.6421245489
  0
LINE
  5
234
100
AcDbEntity
  8
0
100
AcDbLine
 62
7
  6
CONTINUOUS
 10
4.698824129
 20
10.1777659423
 11
4.7312067105
 21
10.1377494084
  0
LINE
  5
235
100
AcDbEntity
  8
0
100
AcDbLine
 62
7
  6
CONTINUOUS
 10
4.1662682535
 20
10.8178312283
 11
4.1262177185
 21
10.8694533381
  0
LWPOLYLINE
  5
236
100
AcDbEntity
  8
0
100
AcDbPolyline
 62
7
  6
CONTINUOUS
 90
4
 70
0
 10
4.6877792264
 20
10.7292933389
 10
4.7001839631
 20
10.7124176592
 10
4.7473395174
 20
10.6421524445
 10
4.7565588091
 20
10.6277807486
  0
LWPOLYLINE
  5
237
100
AcDbEntity
  8
0
100
AcDbPolyline
 62
7
  6
CONTINUOUS
 90
4
 70
0
 10
4.3434660767
 20
10.7455047695
 10
4.3622608944
 20
10.7189555385
 10
4.4079820367
 20
10.6466164753
 10
4.4096929106
 20
10.6437120931
  0
LWPOLYLINE
  5
238
100
AcDbEntity
  8
0
100
AcDbPolyline
 62
7
  6
CONTINUOUS
 90
3
 70
0
 10
4.5158809537
 20
10.2420107666
 10
4.4844802573
 20
10.2868802364
 10
4.45231465
 20
10.3384903546
  0
LWPOLYLINE
  5
239
100
AcDbEntity
  8
0
100
AcDbPolyline
 62
7
  6
CONTINUOUS
 90
4
 70
0
 10
5.0432604154
 20
10.5304470836
 10
5.0339581065
 20
10.5437793206
 10
4.9853153064
 20
10.618185009
 10
4.9823366638
 20
10.6228486549
  0
LWPOLYLINE
  5
23A
100
AcDbEntity
  8
0
100
AcDbPolyline
 62
7
  6
CONTINUOUS
 90
3
 70
0
 10
4.5206854049
 20
10.8178181323
 10
4.4830695142
 20
10.8732814008
 10
4.4753605124
 20
10.8829296361
  0
LWPOLYLINE
  5
23B
100
AcDbEntity
  8
0
100
AcDbPolyline
 62
7
  6
CONTINUOUS
 90
3
 70
0
 10
4.8684695259
 20
10.4547207689
 10
4.9055934194
 20
10.3995385143
 10
4.9277351578
 20
10.3699131449
  0
LINE
  5
23C
100
AcDbEntity
  8
0
100
AcDbLine
 62
7
  6
CONTINUOUS
 10
3.2946838771
 20
10.5385022775
 11
3.2737374751
 21
10.5558827167
  0
LWPOLYLINE
  5
23D
100
AcDbEntity
  8
0
100
AcDbPolyline
 62
7
  6
CONTINUOUS
 90
4
 70
0
 10
3.8018671043
 20
10.0226956504
 10
3.8361601977
 20
9.9918003235
 10
3.9025884351
 20
9.9506718583
 10
3.9705476236
 20
9.9279125723
  0
LWPOLYLINE
  5
23E
100
AcDbEntity
  8
0
100
AcDbPolyline
 62
7
  6
CONTINUOUS
 90
5
 70
0
 10
4.1618554465
 20
9.9703777825
 10
4.1683007632
 20
9.9644215401
 10
4.2337152979
 20
9.9236783976
 10
4.3008130228
 20
9.9018582542
 10
4.3437865678
 20
9.8979799166
  0
LWPOLYLINE
  5
23F
100
AcDbEntity
  8
0
100
AcDbPolyline
 62
7
  6
CONTINUOUS
 90
3
 70
0
 10
3.6562475421
 20
10.6772821674
 10
3.6697785232
 20
10.6642525667
 10
3.7046654519
 20
10.6229725516
  0
LWPOLYLINE
  5
240
100
AcDbEntity
  8
0
100
AcDbPolyline
 62
7
  6
CONTINUOUS
 90
4
 70
0
 10
4.8597542591
 20
10.2754793578
 10
4.8550860269
 20
10.28056034
 10
4.8161290642
 20
10.3312713333
 10
4.8044147475
 20
10.34860835
  0
LWPOLYLINE
  5
241
100
AcDbEntity
  8
0
100
AcDbPolyline
 62
7
  6
CONTINUOUS
 90
3
 70
0
 10
5.0305028098
 20
10.6770745
 10
5.0707025082
 20
10.6269717155
 10
5.0956630275
 20
10.5952793831
  0
LINE
  5
242
100
AcDbEntity
  8
0
100
AcDbLine
 62
7
  6
CONTINUOUS
 10
4.8766976982
 20
10.7861021769
 11
4.8393292726
 21
10.8390118989
  0
LINE
  5
243
100
AcDbEntity
  8
0
100
AcDbLine
 62
7
  6
CONTINUOUS
 10
6.6682871352
 20
9.8352291095
 11
6.4018407373
 21
10.2967278081
  0
LWPOLYLINE
  5
244
100
AcDbEntity
  8
0
100
AcDbPolyline
 62
7
  6
CONTINUOUS
 90
5
 70
0
 10
3.0940318957
 20
10.2411043996
 10
3.1066598504
 20
10.2328931254
 10
3.1834385401
 20
10.1878257748
 10
3.2697175359
 20
10.1492368468
 10
3.3549197954
 20
10.1282581047
  0
LINE
  5
245
100
AcDbEntity
  8
0
100
AcDbLine
 62
7
  6
CONTINUOUS
 10
3.1365814467
 20
10.4368811552
 11
3.1269682336
 21
10.4431920013
  0
LWPOLYLINE
  5
246
100
AcDbEntity
  8
0
100
AcDbPolyline
 62
7
  6
CONTINUOUS
 90
4
 70
0
 10
4.703848443
 20
10.9942846771
 10
4.6922171992
 20
11.0054347123
 10
4.6249498224
 20
11.0496015561
 10
4.5563813375
 20
11.0738462796
  0
LINE
  5
247
100
AcDbEntity
  8
0
100
AcDbLine
 62
7
  6
CONTINUOUS
 10
5.3923208639
 20
10.5385351806
 11
5.3535981095
 21
10.5777145816
  0
LWPOLYLINE
  5
248
100
AcDbEntity
  8
0
100
AcDbPolyline
 62
7
  6
CONTINUOUS
 90
3
 70
0
 10
5.2176913032
 20
10.4498777837
 10
5.2394657352
 20
10.4258139332
 10
5.2576120562
 20
10.4091078276
  0
LWPOLYLINE
  5
249
100
AcDbEntity
  8
0
100
AcDbPolyline
 62
7
  6
CONTINUOUS
 90
3
 70
0
 10
4.5251494141
 20
9.9705774799
 10
4.5499221075
 20
9.9538308441
 10
4.6219982072
 20
9.92844285
  0
LWPOLYLINE
  5
24A
100
AcDbEntity
  8
0
100
AcDbPolyline
 62
7
  6
CONTINUOUS
 90
4
 70
0
 10
5.0681090587
 20
10.9141346333
 10
5.0096577909
 20
10.9630880354
 10
4.9436002208
 20
11.0019563417
 10
4.8747064576
 20
11.0236598816
  0
LWPOLYLINE
  5
24B
100
AcDbEntity
  8
0
100
AcDbPolyline
 62
7
  6
CONTINUOUS
 90
3
 70
0
 10
5.3740622719
 20
10.5883646969
 10
5.3922243027
 20
10.5730081858
 10
5.4129796155
 20
10.555679152
  0
LINE
  5
24C
100
AcDbEntity
  8
0
100
AcDbLine
 62
7
  6
CONTINUOUS
 10
5.0550588012
 20
10.2255816482
 11
5.0629969259
 21
10.2187994969
  0
LWPOLYLINE
  5
24D
100
AcDbEntity
  8
0
100
AcDbPolyline
 62
7
  6
CONTINUOUS
 90
3
 70
0
 10
5.1995933291
 20
10.3472984901
 10
5.1641187434
 20
10.3778312341
 10
5.1635460098
 20
10.3784551198
  0
LINE
  5
24E
100
AcDbEntity
  8
0
100
AcDbLine
 62
7
  6
CONTINUOUS
 10
7.4263494697
 20
11.1482266308
 11
7.8053784061
 21
10.4917292555
  0
LWPOLYLINE
  5
24F
100
AcDbEntity
  8
0
100
AcDbPolyline
 62
7
  6
CONTINUOUS
 90
16
 70
0
 10
18.6380690159
 20
10.8529596509
 10
18.5800427651
 20
10.8359837767
 10
18.5153484483
 20
10.8015425149
 10
18.4517646018
 20
10.7505121159
 10
18.3905419078
 20
10.6854222052
 10
18.3324221154
 20
10.6109014553
 10
18.2777406985
 20
10.5318434134
 10
18.2271099009
 20
10.4538541272
 10
18.1798198334
 20
10.3796181645
 10
18.1344833747
 20
10.3099514581
 10
18.0910797748
 20
10.2472052847
 10
18.0498406206
 20
10.1934007156
 10
18.0114494274
 20
10.1504511764
 10
17.9773041276
 20
10.1198467402
 10
17.9496641502
 20
10.1016657928
 10
17.9293473543
 20
10.0936046166
  0
LINE
  5
250
100
AcDbEntity
  8
0
100
AcDbLine
 62
7
  6
CONTINUOUS
 10
3.3129364832
 20
10.5889053992
 11
3.333734388
 21
10.5781306257
  0
LWPOLYLINE
  5
251
100
AcDbEntity
  8
0
100
AcDbPolyline
 62
7
  6
CONTINUOUS
 90
3
 70
0
 10
4.3435462228
 20
11.0191277119
 10
4.2978060044
 20
11.0495151543
 10
4.2290790091
 20
11.0740123972
  0
LWPOLYLINE
  5
252
100
AcDbEntity
  8
0
100
AcDbPolyline
 62
7
  6
CONTINUOUS
 90
3
 70
0
 10
3.9832673367
 20
10.9945651822
 10
3.9803324415
 20
10.996562887
 10
3.9066522798
 20
11.0231053929
  0
LWPOLYLINE
  5
253
100
AcDbEntity
  8
0
100
AcDbPolyline
 62
7
  6
CONTINUOUS
 90
3
 70
0
 10
5.4210782686
 20
10.7924588314
 10
5.3632560339
 20
10.8371900981
 10
5.2897155427
 20
10.8837359058
  0
LINE
  5
254
100
AcDbEntity
  8
0
100
AcDbLine
 62
7
  6
CONTINUOUS
 10
10.6403183383
 20
9.732878345
 11
10.6403183383
 21
9.3372377272
  0
LINE
  5
255
100
AcDbEntity
  8
0
100
AcDbLine
 62
7
  6
CONTINUOUS
 10
10.7348183383
 20
9.2122377272
 11
10.7348183383
 21
3.6087720076
  0
LINE
  5
256
100
AcDbEntity
  8
0
100
AcDbLine
 62
7
  6
CONTINUOUS
 10
10.7663183383
 20
11.6752377272
 11
10.7663183383
 21
11.6392377272
  0
LINE
  5
257
100
AcDbEntity
  8
0
100
AcDbLine
 62
7
  6
CONTINUOUS
 10
10.8448183383
 20
11.3262377272
 11
10.8448183383
 21
11.1722377272
  0
LINE
  5
258
100
AcDbEntity
  8
0
100
AcDbLine
 62
7
  6
CONTINUOUS
 10
10.8688183383
 20
11.5792377272
 11
10.8688183383
 21
11.5482377272
  0
LINE
  5
259
100
AcDbEntity
  8
0
100
AcDbLine
 62
7
  6
CONTINUOUS
 10
11.0101596012
 20
3.2977789939
 11
11.0101596018
 21
3.3004012748
  0
LINE
  5
25A
100
AcDbEntity
  8
0
100
AcDbLine
 62
9
  6
CONTINUOUS
 10
10.7348183383
 20
7.1022377272
 11
11.3598183383
 21
7.1022377272
  0
LWPOLYLINE
  5
25B
100
AcDbEntity
  8
0
100
AcDbPolyline
 62
7
  6
CONTINUOUS
 90
4
 70
0
 10
2.7669089183
 20
10.3062072364
 10
2.809359612
 20
10.2909038913
 10
2.9102997024
 20
10.2598548129
 10
3.0070390586
 20
10.2417618676
  0
LINE
  5
25C
100
AcDbEntity
  8
0
100
AcDbLine
 62
7
  6
CONTINUOUS
 10
5.2000762904
 20
10.7191105739
 11
5.2000171535
 21
10.719142661
  0
LINE
  5
25D
100
AcDbEntity
  8
0
100
AcDbLine
 62
7
  6
CONTINUOUS
 10
5.2000762907
 20
10.7191105738
 11
5.215426037
 21
10.7097971449
  0
LINE
  5
25E
100
AcDbEntity
  8
0
100
AcDbLine
 62
7
  6
CONTINUOUS
 10
11.2258183383
 20
11.5792377272
 11
11.2258183383
 21
11.5482377272
  0
LINE
  5
25F
100
AcDbEntity
  8
0
100
AcDbLine
 62
7
  6
CONTINUOUS
 10
11.2498183383
 20
11.3262377272
 11
11.2498183383
 21
11.1722377272
  0
LINE
  5
260
100
AcDbEntity
  8
0
100
AcDbLine
 62
7
  6
CONTINUOUS
 10
11.3283183383
 20
11.6752377272
 11
11.3283183383
 21
11.6392377272
  0
LINE
  5
261
100
AcDbEntity
  8
0
100
AcDbLine
 62
7
  6
CONTINUOUS
 10
11.3598183383
 20
9.2122377272
 11
11.3598183383
 21
3.6071607379
  0
LINE
  5
262
100
AcDbEntity
  8
0
100
AcDbLine
 62
7
  6
CONTINUOUS
 10
11.4543183383
 20
9.732878345
 11
11.4543183383
 21
9.3372377272
  0
LINE
  5
263
100
AcDbEntity
  8
0
100
AcDbLine
 62
7
  6
CONTINUOUS
 10
4.8852468188
 20
10.023212171
 11
4.9410904708
 21
10.0047669612
  0
LWPOLYLINE
  5
264
100
AcDbEntity
  8
0
100
AcDbPolyline
 62
7
  6
CONTINUOUS
 90
3
 70
0
 10
3.6198170744
 20
10.9154980914
 10
3.6105613064
 20
10.9188817672
 10
3.548756736
 20
10.9262046857
  0
LWPOLYLINE
  5
265
100
AcDbEntity
  8
0
100
AcDbPolyline
 62
7
  6
CONTINUOUS
 90
4
 70
0
 10
5.2897688192
 20
10.88370719
 10
5.2393914908
 20
10.906569988
 10
5.1868370997
 20
10.9209961196
 10
5.1381052504
 20
10.9254617969
  0
LWPOLYLINE
  5
266
100
AcDbEntity
  8
0
100
AcDbPolyline
 62
7
  6
CONTINUOUS
 90
4
 70
0
 10
5.7638608956
 20
10.7016346903
 10
5.6980662899
 20
10.7331648166
 10
5.6035334777
 20
10.7699666157
 10
5.506918559
 20
10.7918618219
  0
LINE
  5
267
100
AcDbEntity
  8
0
100
AcDbLine
 62
7
  6
CONTINUOUS
 10
5.2897155431
 20
10.8837359056
 11
5.2897688192
 21
10.88370719
  0
LINE
  5
268
100
AcDbEntity
  8
0
100
AcDbLine
 62
7
  6
CONTINUOUS
 10
14.2892580864
 20
10.4917289367
 11
14.6682871351
 21
11.1482265064
  0
LWPOLYLINE
  5
269
100
AcDbEntity
  8
0
100
AcDbPolyline
 62
7
  6
CONTINUOUS
 90
4
 70
0
 10
16.7891566041
 20
10.439480404
 10
16.7501863154
 20
10.4105017756
 10
16.709245208
 20
10.3891948924
 10
16.6703617862
 20
10.3783072578
  0
LINE
  5
26A
100
AcDbEntity
  8
0
100
AcDbLine
 62
7
  6
CONTINUOUS
 10
16.8465580077
 20
10.2496235163
 11
16.9102490574
 21
10.2965052353
  0
LINE
  5
26B
100
AcDbEntity
  8
0
100
AcDbLine
 62
7
  6
CONTINUOUS
 10
18.6999917332
 20
10.1002457986
 11
18.6999372004
 21
10.1002159777
  0
LINE
  5
26C
100
AcDbEntity
  8
0
100
AcDbLine
 62
7
  6
CONTINUOUS
 10
19.2894797408
 20
10.3394245072
 11
19.3119072605
 21
10.3499599352
  0
LWPOLYLINE
  5
26D
100
AcDbEntity
  8
0
100
AcDbPolyline
 62
7
  6
CONTINUOUS
 90
7
 70
0
 10
16.7812998737
 20
10.7888944638
 10
16.7272288171
 20
10.7308591149
 10
16.6717066948
 20
10.6723742623
 10
16.6187031289
 20
10.6200490209
 10
16.5666219778
 20
10.5740876796
 10
16.5133470179
 20
10.5345313112
 10
16.4713009614
 20
10.509558695
  0
LWPOLYLINE
  5
26E
100
AcDbEntity
  8
0
100
AcDbPolyline
 62
7
  6
CONTINUOUS
 90
5
 70
0
 10
16.9180897004
 20
10.6609490623
 10
16.9639016387
 20
10.7078704957
 10
17.0034926928
 20
10.7436268508
 10
17.0369153638
 20
10.7685976426
 10
17.0542546077
 20
10.7784602034
  0
LINE
  5
26F
100
AcDbEntity
  8
0
100
AcDbLine
 62
7
  6
CONTINUOUS
 10
16.9102490577
 20
10.2965052356
 11
16.9102308568
 21
10.2964897225
  0
LINE
  5
270
100
AcDbEntity
  8
0
100
AcDbLine
 62
7
  6
CONTINUOUS
 10
16.7891566038
 20
10.4394804038
 11
16.7891904395
 21
10.4395091465
  0
LWPOLYLINE
  5
271
100
AcDbEntity
  8
0
100
AcDbPolyline
 62
7
  6
CONTINUOUS
 90
7
 70
0
 10
18.6999372004
 20
10.1002159777
 10
18.7733477798
 20
10.1472142341
 10
18.8463748433
 20
10.2041265421
 10
18.9179976806
 20
10.264499707
 10
18.9883432657
 20
10.3231168207
 10
19.0533302943
 20
10.3728760163
 10
19.1203285172
 20
10.4164235412
  0
LINE
  5
272
100
AcDbEntity
  8
0
100
AcDbLine
 62
7
  6
CONTINUOUS
 10
18.638162461
 20
10.8529767877
 11
18.6380690162
 21
10.852959651
  0
LINE
  5
273
100
AcDbEntity
  8
0
100
AcDbLine
 62
7
  6
CONTINUOUS
 10
18.6710883515
 20
10.6685413185
 11
18.6711412161
 21
10.668550893
  0
LWPOLYLINE
  5
274
100
AcDbEntity
  8
0
100
AcDbPolyline
 62
7
  6
CONTINUOUS
 90
8
 70
0
 10
19.3317813063
 20
10.6723628458
 10
19.219846407
 20
10.6562826524
 10
19.1231301239
 20
10.6259124505
 10
19.0290780726
 20
10.5799910827
 10
18.9418839884
 20
10.5235829884
 10
18.8666230158
 20
10.4657955133
 10
18.8020130662
 20
10.4117851209
 10
18.7441739492
 20
10.3627102495
  0
LINE
  5
275
100
AcDbEntity
  8
0
100
AcDbLine
 62
7
  6
CONTINUOUS
 10
16.9779723752
 20
10.2482561197
 11
16.9557788568
 21
10.2454945205
  0
LINE
  5
276
100
AcDbEntity
  8
0
100
AcDbLine
 62
7
  6
CONTINUOUS
 10
17.9293473543
 20
10.0936046166
 11
17.9142183993
 21
10.0918026861
  0
LINE
  5
277
100
AcDbEntity
  8
0
100
AcDbLine
 62
7
  6
CONTINUOUS
 10
17.2798646935
 20
10.1449866304
 11
17.2639024334
 21
10.1432396441
  0
LINE
  5
278
100
AcDbEntity
  8
0
100
AcDbLine
 62
7
  6
CONTINUOUS
 10
17.6000367358
 20
10.0932558545
 11
17.5871256539
 21
10.0919345284
  0
LWPOLYLINE
  5
279
100
AcDbEntity
  8
0
100
AcDbPolyline
 62
7
  6
CONTINUOUS
 90
18
 70
0
 10
17.5872113847
 20
9.9044466819
 10
17.6359864917
 20
9.9093735782
 10
17.7048416867
 20
9.9337655372
 10
17.770417591
 20
9.9770997705
 10
17.8321208481
 20
10.0368790064
 10
17.8904178414
 20
10.1096765362
 10
17.9459709888
 20
10.1915746025
 10
17.9989730844
 20
10.2782926677
 10
18.0491424726
 20
10.3649037589
 10
18.0959924511
 20
10.4468750815
 10
18.1396851016
 20
10.5217145763
 10
18.1812702785
 20
10.589214844
 10
18.2216225344
 20
10.6492953064
 10
18.2603890499
 20
10.7002988705
 10
18.2963267314
 20
10.7400757368
 10
18.3282829195
 20
10.7681421715
 10
18.3546348544
 20
10.7851230308
 10
18.3763060258
 20
10.7936222609
  0
LWPOLYLINE
  5
27A
100
AcDbEntity
  8
0
100
AcDbPolyline
 62
7
  6
CONTINUOUS
 90
6
 70
0
 10
17.9143383874
 20
9.9043227215
 10
17.9628066351
 20
9.9091701674
 10
18.0314131415
 20
9.9330591565
 10
18.0989780918
 20
9.9770428421
 10
18.1649550986
 20
10.0401251597
 10
18.2273440068
 20
10.1164145369
  0
LWPOLYLINE
  5
27B
100
AcDbEntity
  8
0
100
AcDbPolyline
 62
7
  6
CONTINUOUS
 90
17
 70
0
 10
17.2640341161
 20
9.9557618993
 10
17.3142428662
 20
9.960764375
 10
17.3873309886
 20
9.9868367503
 10
17.4566538819
 20
10.0336407005
 10
17.5204687704
 20
10.097210227
 10
17.5805054994
 20
10.1740231766
 10
17.6381255584
 20
10.2611650192
 10
17.6939366299
 20
10.35483692
 10
17.7473499556
 20
10.4493359607
 10
17.7975119761
 20
10.5388358978
 10
17.8453288325
 20
10.6214501896
 10
17.8914711931
 20
10.6956364928
 10
17.9353395242
 20
10.7584572457
 10
17.9758998347
 20
10.8075099291
 10
18.0118512916
 20
10.8419479077
 10
18.0414001031
 20
10.8622477336
 10
18.062890176
 20
10.8708536895
  0
LWPOLYLINE
  5
27C
100
AcDbEntity
  8
0
100
AcDbPolyline
 62
7
  6
CONTINUOUS
 90
10
 70
0
 10
18.2375647502
 20
9.9552424191
 10
18.2813657014
 20
9.9590538326
 10
18.3504930186
 20
9.9806151039
 10
18.4167524616
 20
10.019443733
 10
18.4759584066
 20
10.0689089704
 10
18.5308579152
 20
10.1257222524
 10
18.5833776406
 20
10.1874087308
 10
18.6342094817
 20
10.2510520573
 10
18.6830430576
 20
10.3129332562
 10
18.7263054149
 20
10.3659136608
  0
LINE
  5
27D
100
AcDbEntity
  8
0
100
AcDbLine
 62
7
  6
CONTINUOUS
 10
11.4543183383
 20
9.2122377272
 11
10.6403183383
 21
9.2122377272
  0
LINE
  5
27E
100
AcDbEntity
  8
0
100
AcDbLine
 62
7
  6
CONTINUOUS
 10
11.4543183383
 20
9.3372377272
 11
10.6403183383
 21
9.3372377272
  0
LINE
  5
27F
100
AcDbEntity
  8
0
100
AcDbLine
 62
7
  6
CONTINUOUS
 10
3.6603790612
 20
10.0029376455
 11
3.6998694927
 21
9.9999556969
  0
LINE
  5
280
100
AcDbEntity
  8
0
100
AcDbLine
 62
7
  6
CONTINUOUS
 10
4.9410904708
 20
10.0047669612
 11
4.9876276051
 21
10.0005745792
  0
LINE
  5
281
100
AcDbEntity
  8
0
100
AcDbLine
 62
7
  6
CONTINUOUS
 10
3.9705476236
 20
9.9279125723
 11
4.0177641792
 21
9.9233260976
  0
LINE
  5
282
100
AcDbEntity
  8
0
100
AcDbLine
 62
7
  6
CONTINUOUS
 10
4.6219982072
 20
9.92844285
 11
4.6702362279
 21
9.9236597948
  0
LWPOLYLINE
  5
283
100
AcDbEntity
  8
0
100
AcDbPolyline
 62
7
  6
CONTINUOUS
 90
5
 70
0
 10
3.6988799581
 20
10.1875821513
 10
3.6815573359
 20
10.1895021016
 10
3.6572805001
 20
10.1981596875
 10
3.628195783
 20
10.2148164964
 10
3.6241175771
 20
10.2178917293
  0
LWPOLYLINE
  5
284
100
AcDbEntity
  8
0
100
AcDbPolyline
 62
7
  6
CONTINUOUS
 90
3
 70
0
 10
4.6690765729
 20
10.1112903593
 10
4.6557128387
 20
10.1127773078
 10
4.6544456651
 20
10.1132693239
  0
LWPOLYLINE
  5
285
100
AcDbEntity
  8
0
100
AcDbPolyline
 62
7
  6
CONTINUOUS
 90
4
 70
0
 10
4.3433249828
 20
10.0855613253
 10
4.3279345873
 20
10.0876287017
 10
4.307705233
 20
10.096144889
 10
4.2993538522
 20
10.1018333616
  0
LWPOLYLINE
  5
286
100
AcDbEntity
  8
0
100
AcDbPolyline
 62
7
  6
CONTINUOUS
 90
4
 70
0
 10
4.0167074579
 20
10.1109893714
 10
4.0001765336
 20
10.1132227066
 10
3.9755707007
 20
10.1237327295
 10
3.9556939253
 20
10.137448623
  0
LWPOLYLINE
  5
287
100
AcDbEntity
  8
0
100
AcDbPolyline
 62
7
  6
CONTINUOUS
 90
3
 70
0
 10
5.2471404932
 20
10.1287527881
 10
5.2490101519
 20
10.1284601816
 10
5.2775698096
 20
10.1262775043
  0
LINE
  5
288
100
AcDbEntity
  8
0
100
AcDbLine
 62
7
  6
CONTINUOUS
 10
15.6927959392
 20
10.2967278081
 11
15.4263495415
 21
9.8352291097
  0
LWPOLYLINE
  5
289
100
AcDbEntity
  8
0
100
AcDbPolyline
 62
7
  6
CONTINUOUS
 90
12
 70
0
 10
16.9102308568
 20
10.2964897225
 10
16.9661605957
 20
10.3501316658
 10
17.026017845
 20
10.4195321912
 10
17.0837181785
 20
10.4957039854
 10
17.137282477
 20
10.5712463057
 10
17.1864509223
 20
10.6414591344
 10
17.2321387318
 20
10.7044845376
 10
17.2749650302
 20
10.7589869464
 10
17.3151544937
 20
10.8038955603
 10
17.3518889242
 20
10.8377387027
 10
17.3833597435
 20
10.8594649831
 10
17.4077217358
 20
10.8699053197
  0
LWPOLYLINE
  5
28A
100
AcDbEntity
  8
0
100
AcDbPolyline
 62
7
  6
CONTINUOUS
 90
3
 70
0
 10
18.7441739492
 20
10.3627102495
 10
18.6913487336
 20
10.3199098421
 10
18.6849418279
 20
10.3152585483
  0
LINE
  5
28B
100
AcDbEntity
  8
0
100
AcDbLine
 62
7
  6
CONTINUOUS
 10
17.7316728698
 20
10.8945296607
 11
17.7513227965
 21
10.8979769442
  0
LINE
  5
28C
100
AcDbEntity
  8
0
100
AcDbLine
 62
7
  6
CONTINUOUS
 10
18.6577487844
 20
10.8559279946
 11
18.638162461
 21
10.8529767877
  0
LWPOLYLINE
  5
28D
100
AcDbEntity
  8
0
100
AcDbPolyline
 62
7
  6
CONTINUOUS
 90
3
 70
0
 10
18.6710883515
 20
10.6685413185
 10
18.680145588
 20
10.669849816
 10
18.6920749544
 20
10.670623336
  0
LINE
  5
28E
100
AcDbEntity
  8
0
100
AcDbLine
 62
7
  6
CONTINUOUS
 10
17.4077217358
 20
10.8699053197
 11
17.4255754915
 21
10.8723035523
  0
LINE
  5
28F
100
AcDbEntity
  8
0
100
AcDbLine
 62
7
  6
CONTINUOUS
 10
18.3763060258
 20
10.7936222609
 11
18.3957718318
 21
10.7960098238
  0
LINE
  5
290
100
AcDbEntity
  8
0
100
AcDbLine
 62
7
  6
CONTINUOUS
 10
18.062890176
 20
10.8708536895
 11
18.0779512767
 21
10.8726295163
  0
LINE
  5
291
100
AcDbEntity
  8
0
100
AcDbLine
 62
9
  6
CONTINUOUS
 10
18.694843189
 20
10.8581558642
 11
18.6546745916
 21
10.8534338455
  0
LWPOLYLINE
  5
292
100
AcDbEntity
  8
0
100
AcDbPolyline
 62
7
  6
CONTINUOUS
 90
17
 70
0
 10
16.9561326136
 20
10.0579942856
 10
17.0028266942
 20
10.0621101135
 10
17.0688383117
 20
10.0821937676
 10
17.1337010088
 20
10.1193251237
 10
17.1958874496
 20
10.1725918256
 10
17.2557709015
 20
10.2398348234
 10
17.3132468521
 20
10.3177167287
 10
17.3684659688
 20
10.4021278921
 10
17.4212791511
 20
10.488627928
 10
17.4708729132
 20
10.571764621
 10
17.5175467399
 20
10.6486022448
 10
17.5620177089
 20
10.7178178755
 10
17.6046630697
 20
10.7780150314
 10
17.6446294474
 20
10.8267221243
 10
17.6799819575
 20
10.8618146364
 10
17.7089501791
 20
10.8834581668
 10
17.7316728698
 20
10.8945296607
  0
LINE
  5
293
100
AcDbEntity
  8
0
100
AcDbLine
 62
7
  6
CONTINUOUS
 10
16.6703617862
 20
10.3783072578
 11
16.638096014
 21
10.3758227067
  0
LWPOLYLINE
  5
294
100
AcDbEntity
  8
0
100
AcDbPolyline
 62
7
  6
CONTINUOUS
 90
7
 70
0
 10
19.0327054122
 20
10.7448135776
 10
18.9619357996
 20
10.7393850134
 10
18.8750722036
 20
10.7166482271
 10
18.7949654096
 20
10.6779632349
 10
18.7206802096
 20
10.6254298823
 10
18.6491671762
 20
10.559758941
 10
18.583041557
 20
10.4868081385
  0
LWPOLYLINE
  5
295
100
AcDbEntity
  8
0
100
AcDbPolyline
 62
7
  6
CONTINUOUS
 90
4
 70
0
 10
16.6382748297
 20
10.1883278278
 10
16.6961688968
 20
10.1927071108
 10
16.7731917748
 20
10.213070911
 10
16.8465580077
 20
10.2496235163
  0
LWPOLYLINE
  5
296
100
AcDbEntity
  8
0
100
AcDbPolyline
 62
7
  6
CONTINUOUS
 90
4
 70
0
 10
18.5456048256
 20
10.0572510424
 10
18.5843721567
 20
10.0600573468
 10
18.6430417328
 20
10.0746174434
 10
18.6999917335
 20
10.1002457988
  0
LWPOLYLINE
  5
297
100
AcDbEntity
  8
0
100
AcDbPolyline
 62
7
  6
CONTINUOUS
 90
9
 70
0
 10
16.2985404952
 20
10.2795142383
 10
16.3824042858
 20
10.2855153504
 10
16.4801242586
 20
10.3094390125
 10
16.567373307
 20
10.3484091387
 10
16.6521204904
 20
10.4032651028
 10
16.7325223499
 20
10.4699877786
 10
16.8055230808
 20
10.5410483753
 10
16.8693707609
 20
10.6085400064
 10
16.9180857949
 20
10.6609448905
  0
LWPOLYLINE
  5
298
100
AcDbEntity
  8
0
100
AcDbPolyline
 62
7
  6
CONTINUOUS
 90
6
 70
0
 10
18.8628934593
 20
10.1876572267
 10
18.914270124
 20
10.1908789354
 10
19.0133029957
 20
10.2135398497
 10
19.1093539546
 20
10.2513993637
 10
19.1954479055
 20
10.2929890504
 10
19.2894797408
 20
10.3394245072
  0
LWPOLYLINE
  5
299
100
AcDbEntity
  8
0
100
AcDbPolyline
 62
7
  6
CONTINUOUS
 90
4
 70
0
 10
19.2028197929
 20
10.2790936428
 10
19.2347085371
 20
10.2799107123
 10
19.2946927698
 20
10.2854047809
 10
19.3453085226
 20
10.2933426021
  0
LINE
  5
29A
100
AcDbEntity
  8
0
100
AcDbLine
 62
7
  6
CONTINUOUS
 10
4.3433100072
 20
9.8979789343
 11
4.3437865678
 21
9.8979799166
  0
LINE
  5
29B
100
AcDbEntity
  8
0
100
AcDbLine
 62
7
  6
CONTINUOUS
 10
4.34331388
 20
10.085478672
 11
4.3439318175
 21
10.0854798098
  0
LINE
  5
29C
100
AcDbEntity
  8
0
100
AcDbLine
 62
7
  6
CONTINUOUS
 10
3.3991920734
 20
10.125298812
 11
3.3997934876
 21
10.125299752
  0
LINE
  5
29D
100
AcDbEntity
  8
0
100
AcDbLine
 62
7
  6
CONTINUOUS
 10
18.2385412155
 20
9.9552432145
 11
18.2375647502
 21
9.9552424191
  0
LINE
  5
29E
100
AcDbEntity
  8
0
100
AcDbLine
 62
7
  6
CONTINUOUS
 10
3.6990475437
 20
9.9999552282
 11
3.6998694927
 21
9.9999556969
  0
LINE
  5
29F
100
AcDbEntity
  8
0
100
AcDbLine
 62
7
  6
CONTINUOUS
 10
4.0166853999
 20
10.1108260999
 11
4.0179127468
 21
10.1108265363
  0
LINE
  5
2A0
100
AcDbEntity
  8
0
100
AcDbLine
 62
7
  6
CONTINUOUS
 10
4.016773461
 20
9.9233258609
 11
4.0177641792
 21
9.9233260976
  0
LINE
  5
2A1
100
AcDbEntity
  8
0
100
AcDbLine
 62
7
  6
CONTINUOUS
 10
4.9868865731
 20
10.0005744773
 11
4.9876276051
 21
10.0005745792
  0
LINE
  5
2A2
100
AcDbEntity
  8
0
100
AcDbLine
 62
9
  6
CONTINUOUS
 10
11.4543183383
 20
9.732878345
 11
10.6403183383
 21
9.732878345
  0
LINE
  5
2A3
100
AcDbEntity
  8
0
100
AcDbLine
 62
9
  6
CONTINUOUS
 10
10.6688183383
 20
9.7855921952
 11
11.4258183383
 21
9.7855921952
  0
LINE
  5
2A4
100
AcDbEntity
  8
0
100
AcDbLine
 62
7
  6
CONTINUOUS
 10
15.4263476902
 20
9.8352278081
 11
14.6682889866
 21
9.8352278081
  0
LINE
  5
2A5
100
AcDbEntity
  8
0
100
AcDbLine
 62
7
  6
CONTINUOUS
 10
7.4263476902
 20
9.8352278081
 11
6.6682889866
 21
9.8352278081
  0
LINE
  5
2A6
100
AcDbEntity
  8
0
100
AcDbLine
 62
9
  6
CONTINUOUS
 10
11.4266584392
 20
9.89156026
 11
10.6679781952
 21
9.8915602849
  0
LINE
  5
2A7
100
AcDbEntity
  8
0
100
AcDbLine
 62
7
  6
CONTINUOUS
 10
17.9152528885
 20
9.9043225619
 11
17.9143383874
 21
9.9043227215
  0
LINE
  5
2A8
100
AcDbEntity
  8
0
100
AcDbLine
 62
7
  6
CONTINUOUS
 10
17.9153337193
 20
10.0918024378
 11
17.9142183993
 21
10.0918026861
  0
LINE
  5
2A9
100
AcDbEntity
  8
0
100
AcDbLine
 62
7
  6
CONTINUOUS
 10
17.5882992327
 20
10.0919341949
 11
17.5871256539
 21
10.0919345284
  0
LINE
  5
2AA
100
AcDbEntity
  8
0
100
AcDbLine
 62
7
  6
CONTINUOUS
 10
17.588158629
 20
9.9044461588
 11
17.5872113847
 21
9.9044466819
  0
LINE
  5
2AB
100
AcDbEntity
  8
0
100
AcDbLine
 62
7
  6
CONTINUOUS
 10
18.5458799406
 20
10.0572509305
 11
18.5456048256
 21
10.0572510424
  0
LINE
  5
2AC
100
AcDbEntity
  8
0
100
AcDbLine
 62
7
  6
CONTINUOUS
 10
4.6692347577
 20
9.92366042
 11
4.6702362279
 21
9.9236597948
  0
LINE
  5
2AD
100
AcDbEntity
  8
0
100
AcDbLine
 62
7
  6
CONTINUOUS
 10
4.6690611851
 20
10.1111520639
 11
4.6703278143
 21
10.1111511369
  0
LINE
  5
2AE
100
AcDbEntity
  8
0
100
AcDbLine
 62
7
  6
CONTINUOUS
 10
17.2650106601
 20
9.9557607093
 11
17.2640341161
 21
9.9557618993
  0
LINE
  5
2AF
100
AcDbEntity
  8
0
100
AcDbLine
 62
7
  6
CONTINUOUS
 10
16.9565314261
 20
10.0579938193
 11
16.9561326136
 21
10.0579942856
  0
LINE
  5
2B0
100
AcDbEntity
  8
0
100
AcDbLine
 62
7
  6
CONTINUOUS
 10
5.2871513816
 20
10.1261198332
 11
5.2877006741
 21
10.126119088
  0
LINE
  5
2B1
100
AcDbEntity
  8
0
100
AcDbLine
 62
7
  6
CONTINUOUS
 10
5.2775698096
 20
10.1262775043
 11
5.287700674
 21
10.126119088
  0
LINE
  5
2B2
100
AcDbEntity
  8
0
100
AcDbLine
 62
7
  6
CONTINUOUS
 10
3.0070390586
 20
10.2417618676
 11
3.0630358934
 21
10.2386416086
  0
LINE
  5
2B3
100
AcDbEntity
  8
0
100
AcDbLine
 62
7
  6
CONTINUOUS
 10
3.3549197954
 20
10.1282581047
 11
3.3997934874
 21
10.125299752
  0
LINE
  5
2B4
100
AcDbEntity
  8
0
100
AcDbLine
 62
7
  6
CONTINUOUS
 10
2.9231018835
 20
10.7020183513
 11
2.8909269939
 21
10.704360863
  0
LINE
  5
2B5
100
AcDbEntity
  8
0
100
AcDbLine
 62
7
  6
CONTINUOUS
 10
5.5928102679
 20
10.2416025716
 11
5.6250156133
 21
10.2391911681
  0
LINE
  5
2B6
100
AcDbEntity
  8
0
100
AcDbLine
 62
7
  6
CONTINUOUS
 10
5.4554072799
 20
10.6076332597
 11
5.4813332841
 21
10.6053164143
  0
LWPOLYLINE
  5
2B7
100
AcDbEntity
  8
0
100
AcDbPolyline
 62
7
  6
CONTINUOUS
 90
4
 70
0
 10
3.3996514763
 20
10.312795207
 10
3.3679011733
 20
10.3158719607
 10
3.3301125353
 20
10.3265724835
 10
3.3297200418
 20
10.3267424134
  0
LWPOLYLINE
  5
2B8
100
AcDbEntity
  8
0
100
AcDbPolyline
 62
7
  6
CONTINUOUS
 90
3
 70
0
 10
4.1804057387
 20
10.8915354647
 10
4.1927150746
 20
10.8902215351
 10
4.2116006845
 20
10.882997058
  0
LWPOLYLINE
  5
2B9
100
AcDbEntity
  8
0
100
AcDbPolyline
 62
7
  6
CONTINUOUS
 90
4
 70
0
 10
5.1381277534
 20
10.7379618977
 10
5.1579490955
 20
10.7357662361
 10
5.179182584
 20
10.7290718552
 10
5.2000171535
 20
10.719142661
  0
LWPOLYLINE
  5
2BA
100
AcDbEntity
  8
0
100
AcDbPolyline
 62
7
  6
CONTINUOUS
 90
4
 70
0
 10
4.8307164064
 20
10.8400709063
 10
4.8478054147
 20
10.8379697025
 10
4.8711327462
 20
10.828990233
 10
4.8992952336
 20
10.8113314805
  0
LWPOLYLINE
  5
2BB
100
AcDbEntity
  8
0
100
AcDbPolyline
 62
7
  6
CONTINUOUS
 90
4
 70
0
 10
4.5074910195
 20
10.8913693497
 10
4.522931356
 20
10.8893339067
 10
4.5452729007
 20
10.8798111542
 10
4.5606950424
 20
10.8690077678
  0
LWPOLYLINE
  5
2BC
100
AcDbEntity
  8
0
100
AcDbPolyline
 62
7
  6
CONTINUOUS
 90
6
 70
0
 10
17.7513266693
 20
11.0854766819
 10
17.6922499201
 20
11.077998234
 10
17.6265275339
 20
11.0521500827
 10
17.5626871362
 20
11.0081962828
 10
17.5025680884
 20
10.9489070905
 10
17.4451597807
 20
10.8774075611
  0
LWPOLYLINE
  5
2BD
100
AcDbEntity
  8
0
100
AcDbPolyline
 62
7
  6
CONTINUOUS
 90
6
 70
0
 10
4.3433100072
 20
9.8979789343
 10
4.4023867564
 20
9.9054573822
 10
4.4681091427
 20
9.9313055335
 10
4.5319495403
 20
9.9752593334
 10
4.5920685882
 20
10.0345485257
 10
4.6494768959
 20
10.1060480551
  0
LWPOLYLINE
  5
2BE
100
AcDbEntity
  8
0
100
AcDbPolyline
 62
7
  6
CONTINUOUS
 90
17
 70
0
 10
18.0778632155
 20
11.0601297553
 10
18.0289926022
 20
11.0551909186
 10
17.9572579089
 20
11.0296691858
 10
17.887633938
 20
10.9824750456
 10
17.8233917415
 20
10.9179247273
 10
17.7633676332
 20
10.8404040053
 10
17.706213024
 20
10.7533559911
 10
17.6512159763
 20
10.6607217603
 10
17.5983020048
 20
10.5669795032
 10
17.5477715855
 20
10.4769068408
 10
17.4992775282
 20
10.3933713868
 10
17.4523455935
 20
10.3183520255
 10
17.4075953164
 20
10.2550385919
 10
17.3663651206
 20
10.2060722326
 10
17.3303395213
 20
10.1725320767
 10
17.3012436699
 20
10.1532453684
 10
17.2798646935
 20
10.1449866304
  0
LWPOLYLINE
  5
2BF
100
AcDbEntity
  8
0
100
AcDbPolyline
 62
7
  6
CONTINUOUS
 90
17
 70
0
 10
4.016773461
 20
9.9233258609
 10
4.0656440744
 20
9.9282646976
 10
4.1373787677
 20
9.9537864304
 10
4.2070027385
 20
10.0009805706
 10
4.2712449351
 20
10.0655308889
 10
4.3312690433
 20
10.1430516109
 10
4.3884236526
 20
10.2300996251
 10
4.4434207003
 20
10.3227338559
 10
4.4963346718
 20
10.4164761129
 10
4.546865091
 20
10.5065487753
 10
4.5953591484
 20
10.5900842294
 10
4.6422910831
 20
10.6651035907
 10
4.6870413602
 20
10.7284170243
 10
4.7282715559
 20
10.7773833836
 10
4.7642971552
 20
10.8109235394
 10
4.7933930067
 20
10.8302102478
 10
4.8147719831
 20
10.8384689858
  0
LWPOLYLINE
  5
2C0
100
AcDbEntity
  8
0
100
AcDbPolyline
 62
7
  6
CONTINUOUS
 90
13
 70
0
 10
17.4254019189
 20
11.0597951962
 10
17.3774473317
 20
11.05510768
 10
17.3100912051
 20
11.0324134034
 10
17.2441873209
 20
10.9915529696
 10
17.181162829
 20
10.9348457648
 10
17.1211826119
 20
10.8668291244
 10
17.0646976168
 20
10.7931080309
 10
17.0112297584
 20
10.7181116427
 10
16.9607102307
 20
10.6460443275
 10
16.9134082862
 20
10.5804980208
 10
16.8688894932
 20
10.5232115895
 10
16.8266176811
 20
10.475148135
 10
16.7891904395
 20
10.4395091465
  0
LWPOLYLINE
  5
2C1
100
AcDbEntity
  8
0
100
AcDbPolyline
 62
7
  6
CONTINUOUS
 90
13
 70
0
 10
4.6692347577
 20
9.92366042
 10
4.7171893449
 20
9.9283479362
 10
4.7845454715
 20
9.9510422127
 10
4.8504493557
 20
9.9919026466
 10
4.9134738475
 20
10.0486098513
 10
4.9734540647
 20
10.1166264918
 10
5.0299390597
 20
10.1903475853
 10
5.0834069182
 20
10.2653439735
 10
5.1339264459
 20
10.3374112887
 10
5.1812283904
 20
10.4029575953
 10
5.2257471833
 20
10.4602440267
 10
5.2680189955
 20
10.5083074812
 10
5.305446237
 20
10.5439464697
  0
LWPOLYLINE
  5
2C2
100
AcDbEntity
  8
0
100
AcDbPolyline
 62
7
  6
CONTINUOUS
 90
17
 70
0
 10
18.3955891329
 20
10.983500388
 10
18.3479434726
 20
10.979076768
 10
18.2756220787
 20
10.9550672878
 10
18.2056424156
 20
10.9102416675
 10
18.1413105134
 20
10.84893249
 10
18.080718435
 20
10.7740677351
 10
18.0226048254
 20
10.6888772994
 10
17.9665210183
 20
10.5972054553
 10
17.9130438704
 20
10.5046930255
 10
17.8627086684
 20
10.4166989141
 10
17.814872624
 20
10.3355591041
 10
17.7692508641
 20
10.2634403409
 10
17.7260386025
 20
10.2025198431
 10
17.6858554956
 20
10.1545518598
 10
17.6497174362
 20
10.1206021547
 10
17.620092879
 20
10.1008345973
 10
17.6000367358
 20
10.0932558545
  0
LWPOLYLINE
  5
2C3
100
AcDbEntity
  8
0
100
AcDbPolyline
 62
7
  6
CONTINUOUS
 90
17
 70
0
 10
3.6990475437
 20
9.9999552282
 10
3.746693204
 20
10.0043788482
 10
3.8190145979
 20
10.0283883284
 10
3.888994261
 20
10.0732139487
 10
3.9533261632
 20
10.1345231262
 10
4.0139182416
 20
10.2093878811
 10
4.0720318512
 20
10.2945783168
 10
4.1281156583
 20
10.3862501609
 10
4.1815928062
 20
10.4787625907
 10
4.2319280081
 20
10.5667567021
 10
4.2797640525
 20
10.6478965121
 10
4.3253858125
 20
10.7200152753
 10
4.368598074
 20
10.7809357731
 10
4.4087811809
 20
10.8289037564
 10
4.4449192404
 20
10.8628534615
 10
4.4745437976
 20
10.8826210189
 10
4.4945999408
 20
10.8901997616
  0
LWPOLYLINE
  5
2C4
100
AcDbEntity
  8
0
100
AcDbPolyline
 62
7
  6
CONTINUOUS
 90
7
 70
0
 10
4.9868865731
 20
10.0005744773
 10
5.026475972
 20
10.0035737154
 10
5.0892514434
 20
10.020668526
 10
5.1527868177
 20
10.0530929741
 10
5.213250371
 20
10.0976187393
 10
5.2689311983
 20
10.1487713903
 10
5.3133464856
 20
10.1945714847
  0
LWPOLYLINE
  5
2C5
100
AcDbEntity
  8
0
100
AcDbPolyline
 62
7
  6
CONTINUOUS
 90
7
 70
0
 10
17.1077501035
 20
10.9828811389
 10
17.0681607045
 20
10.9798819008
 10
17.0053852331
 20
10.9627870902
 10
16.9418498589
 20
10.930362642
 10
16.8813863056
 20
10.8858368769
 10
16.8257054783
 20
10.8346842259
 10
16.781290191
 20
10.7888841314
  0
LINE
  5
2C6
100
AcDbEntity
  8
0
100
AcDbLine
 62
7
  6
CONTINUOUS
 10
18.6850378232
 20
10.85798857
 11
18.6577487844
 21
10.8559279946
  0
LINE
  5
2C7
100
AcDbEntity
  8
0
100
AcDbLine
 62
7
  6
CONTINUOUS
 10
3.4095988534
 20
10.1254670462
 11
3.4368878922
 21
10.1275276216
  0
LWPOLYLINE
  5
2C8
100
AcDbEntity
  8
0
100
AcDbPolyline
 62
7
  6
CONTINUOUS
 90
9
 70
0
 10
16.807485295
 20
10.8573357829
 10
16.7611876642
 20
10.8541893099
 10
16.6771863888
 20
10.8333693227
 10
16.5921017443
 20
10.7954633132
 10
16.516303819
 20
10.751225254
 10
16.4426936144
 20
10.7035723773
 10
16.3675163749
 20
10.6549597138
 10
16.2983915005
 20
10.6138343365
 10
16.2752059716
 20
10.6013081744
  0
LWPOLYLINE
  5
2C9
100
AcDbEntity
  8
0
100
AcDbPolyline
 62
7
  6
CONTINUOUS
 90
9
 70
0
 10
5.2871513816
 20
10.1261198332
 10
5.3334490123
 20
10.1292663063
 10
5.4174502878
 20
10.1500862935
 10
5.5025349323
 20
10.187992303
 10
5.5783328575
 20
10.2322303622
 10
5.6519430622
 20
10.2798832389
 10
5.7271203017
 20
10.3284959024
 10
5.7962451761
 20
10.3696212797
 10
5.819430705
 20
10.3821474418
  0
LWPOLYLINE
  5
2CA
100
AcDbEntity
  8
0
100
AcDbPolyline
 62
7
  6
CONTINUOUS
 90
4
 70
0
 10
16.4707103118
 20
10.7442652236
 10
16.415117706
 20
10.741192907
 10
16.3213469672
 20
10.723965077
 10
16.2273183383
 20
10.6955597963
  0
LWPOLYLINE
  5
2CB
100
AcDbEntity
  8
0
100
AcDbPolyline
 62
7
  6
CONTINUOUS
 90
4
 70
0
 10
5.6239263647
 20
10.2391903926
 10
5.6795189706
 20
10.2422627092
 10
5.7732897094
 20
10.2594905392
 10
5.8673183383
 20
10.2878958199
  0
LINE
  5
2CC
100
AcDbEntity
  8
0
100
AcDbLine
 62
9
  6
CONTINUOUS
 10
3.4399620849
 20
10.1300217706
 11
3.4564742156
 21
10.1304788285
  0
LINE
  5
2CD
100
AcDbEntity
  8
0
100
AcDbLine
 62
9
  6
CONTINUOUS
 10
18.6546745916
 20
10.8534338455
 11
18.638162461
 21
10.8529767877
  0
LINE
  5
2CE
100
AcDbEntity
  8
0
100
AcDbLine
 62
7
  6
CONTINUOUS
 10
3.3991920734
 20
10.125298812
 11
3.4095988534
 21
10.1254670462
  0
LINE
  5
2CF
100
AcDbEntity
  8
0
100
AcDbLine
 62
7
  6
CONTINUOUS
 10
18.6954446032
 20
10.8581568042
 11
18.6850378232
 21
10.85798857
  0
LINE
  5
2D0
100
AcDbEntity
  8
0
100
AcDbLine
 62
7
  6
CONTINUOUS
 10
3.4025617222
 20
10.3128322802
 11
3.3992214627
 21
10.3127949289
  0
LINE
  5
2D1
100
AcDbEntity
  8
0
100
AcDbLine
 62
7
  6
CONTINUOUS
 10
18.6920749544
 20
10.670623336
 11
18.6954152138
 21
10.6706606873
  0
LINE
  5
2D2
100
AcDbEntity
  8
0
100
AcDbLine
 62
7
  6
CONTINUOUS
 10
19.2037096826
 20
10.2790947532
 11
19.2028197929
 21
10.2790936428
  0
LINE
  5
2D3
100
AcDbEntity
  8
0
100
AcDbLine
 62
7
  6
CONTINUOUS
 10
2.8909269939
 20
10.704360863
 11
2.8918168836
 21
10.7043619733
  0
LINE
  5
2D4
100
AcDbEntity
  8
0
100
AcDbLine
 62
7
  6
CONTINUOUS
 10
3.6988648448
 20
10.1874457924
 11
3.7001027835
 21
10.1874466196
  0
LINE
  5
2D5
100
AcDbEntity
  8
0
100
AcDbLine
 62
7
  6
CONTINUOUS
 10
5.6239263647
 20
10.2391903926
 11
5.6250156133
 21
10.2391911681
  0
LINE
  5
2D6
100
AcDbEntity
  8
0
100
AcDbLine
 62
7
  6
CONTINUOUS
 10
16.4707103118
 20
10.7442652236
 11
16.4696210633
 21
10.7442644481
  0
LINE
  5
2D7
100
AcDbEntity
  8
0
100
AcDbLine
 62
7
  6
CONTINUOUS
 10
18.3957718318
 20
10.7960098238
 11
18.394533893
 21
10.7960089966
  0
LINE
  5
2D8
100
AcDbEntity
  8
0
100
AcDbLine
 62
7
  6
CONTINUOUS
 10
3.3992214627
 20
10.3127949289
 11
3.399651476
 21
10.312795207
  0
LINE
  5
2D9
100
AcDbEntity
  8
0
100
AcDbLine
 62
7
  6
CONTINUOUS
 10
18.6954152138
 20
10.6706606873
 11
18.6949852006
 21
10.6706604092
  0
LINE
  5
2DA
100
AcDbEntity
  8
0
100
AcDbLine
 62
7
  6
CONTINUOUS
 10
16.6394062358
 20
10.1883277948
 11
16.6382748297
 21
10.1883278278
  0
LINE
  5
2DB
100
AcDbEntity
  8
0
100
AcDbLine
 62
7
  6
CONTINUOUS
 10
15.9633183383
 20
10.2967278081
 11
15.0473183383
 21
10.2967278081
  0
LINE
  5
2DC
100
AcDbEntity
  8
0
100
AcDbLine
 62
7
  6
CONTINUOUS
 10
6.1313183383
 20
10.2967278081
 11
7.0473183383
 21
10.2967278081
  0
LINE
  5
2DD
100
AcDbEntity
  8
0
100
AcDbLine
 62
7
  6
CONTINUOUS
 10
15.9633183383
 20
10.6867278081
 11
15.0473183383
 21
10.6867278081
  0
LINE
  5
2DE
100
AcDbEntity
  8
0
100
AcDbLine
 62
7
  6
CONTINUOUS
 10
6.1313183383
 20
10.6867278081
 11
7.0473183383
 21
10.6867278081
  0
LINE
  5
2DF
100
AcDbEntity
  8
0
100
AcDbLine
 62
7
  6
CONTINUOUS
 10
18.8640601233
 20
10.1876568588
 11
18.8628934593
 21
10.1876572267
  0
LINE
  5
2E0
100
AcDbEntity
  8
0
100
AcDbLine
 62
7
  6
CONTINUOUS
 10
3.0619312644
 20
10.2386420386
 11
3.0630358934
 21
10.2386416086
  0
LINE
  5
2E1
100
AcDbEntity
  8
0
100
AcDbLine
 62
7
  6
CONTINUOUS
 10
16.6392293967
 20
10.3758223565
 11
16.638096014
 21
10.3758227067
  0
LINE
  5
2E2
100
AcDbEntity
  8
0
100
AcDbLine
 62
7
  6
CONTINUOUS
 10
5.4554072799
 20
10.6076332597
 11
5.4565406626
 21
10.6076329095
  0
LINE
  5
2E3
100
AcDbEntity
  8
0
100
AcDbLine
 62
7
  6
CONTINUOUS
 10
19.0327054122
 20
10.7448135776
 11
19.0316007832
 21
10.7448140076
  0
LINE
  5
2E4
100
AcDbEntity
  8
0
100
AcDbLine
 62
7
  6
CONTINUOUS
 10
17.2651099956
 20
10.1432384254
 11
17.2639024334
 21
10.1432396441
  0
LINE
  5
2E5
100
AcDbEntity
  8
0
100
AcDbLine
 62
9
  6
CONTINUOUS
 10
16.9565089232
 20
10.2454937185
 11
16.9557788568
 21
10.2454945205
  0
LINE
  5
2E6
100
AcDbEntity
  8
0
100
AcDbLine
 62
9
  6
CONTINUOUS
 10
5.1381277534
 20
10.7379618977
 11
5.1388578198
 21
10.7379610957
  0
LINE
  5
2E7
100
AcDbEntity
  8
0
100
AcDbLine
 62
7
  6
CONTINUOUS
 10
16.2692903735
 20
10.2802458642
 11
16.2994635922
 21
10.2795130135
  0
LINE
  5
2E8
100
AcDbEntity
  8
0
100
AcDbLine
 62
7
  6
CONTINUOUS
 10
5.8253463031
 20
10.703209752
 11
5.7951730844
 21
10.7039426027
  0
LINE
  5
2E9
100
AcDbEntity
  8
0
100
AcDbLine
 62
7
  6
CONTINUOUS
 10
5.506918559
 20
10.7918618219
 11
5.4552304408
 21
10.7951278214
  0
LINE
  5
2EA
100
AcDbEntity
  8
0
100
AcDbLine
 62
7
  6
CONTINUOUS
 10
16.5877181176
 20
10.1915937943
 11
16.6394062358
 21
10.1883277948
  0
LINE
  5
2EB
100
AcDbEntity
  8
0
100
AcDbLine
 62
7
  6
CONTINUOUS
 10
3.2659227203
 20
10.7930927638
 11
3.2305765533
 21
10.7957987574
  0
LINE
  5
2EC
100
AcDbEntity
  8
0
100
AcDbLine
 62
7
  6
CONTINUOUS
 10
18.8287139563
 20
10.1903628524
 11
18.8640601233
 21
10.1876568588
  0
LINE
  5
2ED
100
AcDbEntity
  8
0
100
AcDbLine
 62
7
  6
CONTINUOUS
 10
5.8673183383
 20
10.6995804713
 11
5.8253463031
 21
10.703209752
  0
LINE
  5
2EE
100
AcDbEntity
  8
0
100
AcDbLine
 62
7
  6
CONTINUOUS
 10
16.2273183383
 20
10.2838751449
 11
16.2692903735
 21
10.2802458642
  0
LINE
  5
2EF
100
AcDbEntity
  8
0
100
AcDbLine
 62
7
  6
CONTINUOUS
 10
4.8747064576
 20
11.0236598816
 11
4.8296260165
 21
11.0276949068
  0
LINE
  5
2F0
100
AcDbEntity
  8
0
100
AcDbLine
 62
7
  6
CONTINUOUS
 10
17.219930219
 20
9.9597957346
 11
17.2650106601
 21
9.9557607093
  0
LINE
  5
2F1
100
AcDbEntity
  8
0
100
AcDbLine
 62
7
  6
CONTINUOUS
 10
3.9066522798
 20
11.0231053929
 11
3.856095461
 21
11.0282124017
  0
LINE
  5
2F2
100
AcDbEntity
  8
0
100
AcDbLine
 62
7
  6
CONTINUOUS
 10
18.1879843967
 20
9.9603502233
 11
18.2385412155
 21
9.9552432145
  0
LINE
  5
2F3
100
AcDbEntity
  8
0
100
AcDbLine
 62
7
  6
CONTINUOUS
 10
4.2290790091
 20
11.0740123972
 11
4.1793837881
 21
11.0791330543
  0
LINE
  5
2F4
100
AcDbEntity
  8
0
100
AcDbLine
 62
7
  6
CONTINUOUS
 10
17.8655576674
 20
9.909443219
 11
17.9152528885
 21
9.9043225619
  0
LINE
  5
2F5
100
AcDbEntity
  8
0
100
AcDbLine
 62
7
  6
CONTINUOUS
 10
4.5563813375
 20
11.0738462796
 11
4.5064780476
 21
11.0790094574
  0
LINE
  5
2F6
100
AcDbEntity
  8
0
100
AcDbLine
 62
7
  6
CONTINUOUS
 10
17.5382553391
 20
9.9096093365
 11
17.588158629
 21
9.9044461588
  0
LWPOLYLINE
  5
2F7
100
AcDbEntity
  8
0
100
AcDbPolyline
 62
7
  6
CONTINUOUS
 90
12
 70
0
 10
17.4451597807
 20
10.8774075611
 10
17.3900060817
 20
10.7972509543
 10
17.3369804821
 20
10.7127147705
 10
17.2861943657
 20
10.6281401231
 10
17.2380830986
 20
10.5478898104
 10
17.1927122699
 20
10.4749559108
 10
17.1496814342
 20
10.4106242117
 10
17.1088179408
 20
10.3559478644
 10
17.0702963978
 20
10.3120230246
 10
17.0347762607
 20
10.2795036978
 10
17.0037068311
 20
10.2586572414
 10
16.9779723752
 20
10.2482561197
  0
LWPOLYLINE
  5
2F8
100
AcDbEntity
  8
0
100
AcDbPolyline
 62
7
  6
CONTINUOUS
 90
10
 70
0
 10
18.5830457852
 20
10.4868131199
 10
18.5301330902
 20
10.4218856679
 10
18.4794542904
 20
10.3574435648
 10
18.4323219958
 20
10.2985985864
 10
18.3874184802
 20
10.246320891
 10
18.3452383744
 20
10.2032128283
 10
18.3079678095
 20
10.1721522462
 10
18.2781391852
 20
10.1536121648
 10
18.2552253945
 20
10.1448754142
 10
18.2467183812
 20
10.1438533094
  0
LINE
  5
2F9
100
AcDbEntity
  8
0
100
AcDbLine
 62
7
  6
CONTINUOUS
 10
18.5830457855
 20
10.4868131202
 11
18.583041557
 21
10.4868081385
  0
LWPOLYLINE
  5
2FA
100
AcDbEntity
  8
0
100
AcDbPolyline
 62
7
  6
CONTINUOUS
 90
7
 70
0
 10
18.7263123006
 20
10.3659218338
 10
18.7611961726
 20
10.4056597682
 10
18.80829596
 20
10.4534120873
 10
18.8585177801
 20
10.4953523915
 10
18.908094169
 20
10.5264938545
 10
18.9532824116
 20
10.5455145033
 10
18.9875481577
 20
10.5531243133
  0
LINE
  5
2FB
100
AcDbEntity
  8
0
100
AcDbLine
 62
7
  6
CONTINUOUS
 10
4.3629638068
 20
10.0889259555
 11
4.34331388
 21
10.085478672
  0
LINE
  5
2FC
100
AcDbEntity
  8
0
100
AcDbLine
 62
7
  6
CONTINUOUS
 10
3.4368878922
 20
10.1275276216
 11
3.4564742156
 21
10.1304788285
  0
LWPOLYLINE
  5
2FD
100
AcDbEntity
  8
0
100
AcDbPolyline
 62
7
  6
CONTINUOUS
 90
3
 70
0
 10
3.4235483251
 20
10.3149142977
 10
3.4144910886
 20
10.3136058002
 10
3.4025617222
 20
10.3128322802
  0
LINE
  5
2FE
100
AcDbEntity
  8
0
100
AcDbLine
 62
7
  6
CONTINUOUS
 10
4.6869149408
 20
10.1135502965
 11
4.6690611851
 21
10.1111520639
  0
LINE
  5
2FF
100
AcDbEntity
  8
0
100
AcDbLine
 62
7
  6
CONTINUOUS
 10
3.7183306507
 20
10.1898333553
 11
3.6988648448
 21
10.1874457924
  0
LINE
  5
300
100
AcDbEntity
  8
0
100
AcDbLine
 62
7
  6
CONTINUOUS
 10
4.0317465006
 20
10.1126019267
 11
4.0166853999
 21
10.1108260999
  0
LINE
  5
301
100
AcDbEntity
  8
0
100
AcDbLine
 62
9
  6
CONTINUOUS
 10
3.3997934876
 20
10.125299752
 11
3.4399620849
 21
10.1300217706
  0
LWPOLYLINE
  5
302
100
AcDbEntity
  8
0
100
AcDbPolyline
 62
7
  6
CONTINUOUS
 90
17
 70
0
 10
5.138504063
 20
10.9254613306
 10
5.0918099824
 20
10.9213455027
 10
5.0257983649
 20
10.9012618486
 10
4.9609356678
 20
10.8641304925
 10
4.898749227
 20
10.8108637906
 10
4.8388657751
 20
10.7436207928
 10
4.7813898245
 20
10.6657388874
 10
4.7261707078
 20
10.5813277241
 10
4.6733575254
 20
10.4948276882
 10
4.6237637634
 20
10.4116909952
 10
4.5770899367
 20
10.3348533714
 10
4.5326189676
 20
10.2656377407
 10
4.4899736068
 20
10.2054405848
 10
4.4500072291
 20
10.1567334919
 10
4.4146547191
 20
10.1216409798
 10
4.3856864975
 20
10.0999974493
 10
4.3629638068
 20
10.0889259555
  0
LINE
  5
303
100
AcDbEntity
  8
0
100
AcDbLine
 62
7
  6
CONTINUOUS
 10
5.4242748903
 20
10.6051483584
 11
5.4565406626
 21
10.6076329095
  0
LWPOLYLINE
  5
304
100
AcDbEntity
  8
0
100
AcDbPolyline
 62
7
  6
CONTINUOUS
 90
7
 70
0
 10
3.0619312644
 20
10.2386420386
 10
3.132700877
 20
10.2440706028
 10
3.2195644729
 20
10.2668073891
 10
3.299671267
 20
10.3054923813
 10
3.373956467
 20
10.3580257339
 10
3.4454695003
 20
10.4236966752
 10
3.5115951196
 20
10.4966474777
  0
LWPOLYLINE
  5
305
100
AcDbEntity
  8
0
100
AcDbPolyline
 62
7
  6
CONTINUOUS
 90
4
 70
0
 10
5.4563618469
 20
10.7951277884
 10
5.3984677798
 20
10.7907485054
 10
5.3214449017
 20
10.7703847052
 10
5.2480786689
 20
10.7338320999
  0
LWPOLYLINE
  5
306
100
AcDbEntity
  8
0
100
AcDbPolyline
 62
7
  6
CONTINUOUS
 90
9
 70
0
 10
5.7960961813
 20
10.7039413779
 10
5.7122323907
 20
10.6979402658
 10
5.614512418
 20
10.6740166037
 10
5.5272633696
 20
10.6350464775
 10
5.4425161862
 20
10.5801905134
 10
5.3621143267
 20
10.5134678376
 10
5.2891135958
 20
10.4424072409
 10
5.2252659157
 20
10.3749156098
 10
5.1765508816
 20
10.3225107257
  0
LWPOLYLINE
  5
307
100
AcDbEntity
  8
0
100
AcDbPolyline
 62
7
  6
CONTINUOUS
 90
6
 70
0
 10
3.2317432172
 20
10.7957983895
 10
3.1803665526
 20
10.7925766808
 10
3.0813336808
 20
10.7699157665
 10
2.985282722
 20
10.7320562525
 10
2.8991887711
 20
10.6904665658
 10
2.8051569358
 20
10.644031109
  0
LWPOLYLINE
  5
308
100
AcDbEntity
  8
0
100
AcDbPolyline
 62
7
  6
CONTINUOUS
 90
4
 70
0
 10
2.8918168836
 20
10.7043619733
 10
2.8599281395
 20
10.7035449038
 10
2.7999439068
 20
10.6980508353
 10
2.7493281539
 20
10.6901130141
  0
LINE
  5
309
100
AcDbEntity
  8
0
100
AcDbLine
 62
7
  6
CONTINUOUS
 10
17.7513266693
 20
11.0854766819
 11
17.7508501088
 21
11.0854756996
  0
LINE
  5
30A
100
AcDbEntity
  8
0
100
AcDbLine
 62
7
  6
CONTINUOUS
 10
17.7513227965
 20
10.8979769442
 11
17.7507048591
 21
10.8979758064
  0
LINE
  5
30B
100
AcDbEntity
  8
0
100
AcDbLine
 62
7
  6
CONTINUOUS
 10
18.6954446032
 20
10.8581568042
 11
18.694843189
 21
10.8581558642
  0
LINE
  5
30C
100
AcDbEntity
  8
0
100
AcDbLine
 62
7
  6
CONTINUOUS
 10
3.856095461
 20
11.0282124017
 11
3.8570719263
 21
11.0282131971
  0
LINE
  5
30D
100
AcDbEntity
  8
0
100
AcDbLine
 62
7
  6
CONTINUOUS
 10
18.3955891329
 20
10.983500388
 11
18.3947671838
 21
10.9834999193
  0
LINE
  5
30E
100
AcDbEntity
  8
0
100
AcDbLine
 62
7
  6
CONTINUOUS
 10
18.0779512767
 20
10.8726295163
 11
18.0767239297
 21
10.8726290799
  0
LINE
  5
30F
100
AcDbEntity
  8
0
100
AcDbLine
 62
7
  6
CONTINUOUS
 10
17.1077501035
 20
10.9828811389
 11
17.1070090715
 21
10.982881037
  0
LINE
  5
310
100
AcDbEntity
  8
0
100
AcDbLine
 62
7
  6
CONTINUOUS
 10
18.0778632155
 20
11.0601297553
 11
18.0768724973
 21
11.0601295186
  0
LINE
  5
311
100
AcDbEntity
  8
0
100
AcDbLine
 62
7
  6
CONTINUOUS
 10
5.4552304408
 20
10.7951278214
 11
5.4563618469
 21
10.7951277884
  0
LINE
  5
312
100
AcDbEntity
  8
0
100
AcDbLine
 62
7
  6
CONTINUOUS
 10
6.6682889864
 20
11.1482278081
 11
7.4263474303
 21
11.1482278081
  0
LINE
  5
313
100
AcDbEntity
  8
0
100
AcDbLine
 62
7
  6
CONTINUOUS
 10
14.6682889864
 20
11.1482278081
 11
15.4263474303
 21
11.1482278081
  0
LINE
  5
314
100
AcDbEntity
  8
0
100
AcDbLine
 62
7
  6
CONTINUOUS
 10
10.8448183383
 20
11.1722377272
 11
11.2498183383
 21
11.1722377272
  0
LINE
  5
315
100
AcDbEntity
  8
0
100
AcDbLine
 62
9
  6
CONTINUOUS
 10
11.2498183383
 20
11.3262377272
 11
10.8448183383
 21
11.3262377272
  0
LINE
  5
316
100
AcDbEntity
  8
0
100
AcDbLine
 62
9
  6
CONTINUOUS
 10
10.8651964685
 20
11.3644413892
 11
11.2294402081
 21
11.3644413892
  0
LINE
  5
317
100
AcDbEntity
  8
0
100
AcDbLine
 62
7
  6
CONTINUOUS
 10
4.1793837881
 20
11.0791330543
 11
4.1802982892
 21
11.0791328947
  0
LINE
  5
318
100
AcDbEntity
  8
0
100
AcDbLine
 62
7
  6
CONTINUOUS
 10
3.2305765533
 20
10.7957987574
 11
3.2317432172
 21
10.7957983895
  0
LINE
  5
319
100
AcDbEntity
  8
0
100
AcDbLine
 62
7
  6
CONTINUOUS
 10
4.5063374438
 20
10.8915214213
 11
4.5075110226
 21
10.8915210878
  0
LINE
  5
31A
100
AcDbEntity
  8
0
100
AcDbLine
 62
7
  6
CONTINUOUS
 10
4.1793029573
 20
10.8916531783
 11
4.1804182772
 21
10.8916529301
  0
LINE
  5
31B
100
AcDbEntity
  8
0
100
AcDbLine
 62
7
  6
CONTINUOUS
 10
3.548756736
 20
10.9262046857
 11
3.5490318509
 21
10.9262045738
  0
LINE
  5
31C
100
AcDbEntity
  8
0
100
AcDbLine
 62
7
  6
CONTINUOUS
 10
4.5064780476
 20
11.0790094574
 11
4.5074252918
 21
11.0790089343
  0
LINE
  5
31D
100
AcDbEntity
  8
0
100
AcDbLine
 62
7
  6
CONTINUOUS
 10
17.4255754915
 20
10.8723035523
 11
17.4243088623
 21
10.8723044793
  0
LINE
  5
31E
100
AcDbEntity
  8
0
100
AcDbLine
 62
7
  6
CONTINUOUS
 10
17.4254019189
 20
11.0597951962
 11
17.4244004487
 21
11.0597958213
  0
LINE
  5
31F
100
AcDbEntity
  8
0
100
AcDbLine
 62
7
  6
CONTINUOUS
 10
4.829526681
 20
10.8402171907
 11
4.8307342431
 21
10.8402159721
  0
LINE
  5
320
100
AcDbEntity
  8
0
100
AcDbLine
 62
7
  6
CONTINUOUS
 10
5.1381052504
 20
10.9254617969
 11
5.138504063
 21
10.9254613306
  0
LINE
  5
321
100
AcDbEntity
  8
0
100
AcDbLine
 62
7
  6
CONTINUOUS
 10
4.8296260165
 20
11.0276949068
 11
4.8306025604
 21
11.0276937169
  0
LINE
  5
322
100
AcDbEntity
  8
0
100
AcDbLine
 62
7
  6
CONTINUOUS
 10
16.807485295
 20
10.8573357829
 11
16.8069360024
 21
10.8573365282
  0
LINE
  5
323
100
AcDbEntity
  8
0
100
AcDbLine
 62
7
  6
CONTINUOUS
 10
16.817066867
 20
10.8571781119
 11
16.8069360025
 21
10.8573365282
  0
LINE
  5
324
100
AcDbEntity
  8
0
100
AcDbLine
 62
7
  6
CONTINUOUS
 10
19.0875976179
 20
10.7416937486
 11
19.0316007832
 21
10.7448140076
  0
LINE
  5
325
100
AcDbEntity
  8
0
100
AcDbLine
 62
7
  6
CONTINUOUS
 10
18.7397168811
 20
10.8551975115
 11
18.6948431892
 21
10.8581558642
  0
LINE
  5
326
100
AcDbEntity
  8
0
100
AcDbLine
 62
7
  6
CONTINUOUS
 10
19.1715347931
 20
10.2814372649
 11
19.2037096826
 21
10.2790947532
  0
LINE
  5
327
100
AcDbEntity
  8
0
100
AcDbLine
 62
7
  6
CONTINUOUS
 10
16.5018264086
 20
10.7418530446
 11
16.4696210633
 21
10.7442644481
  0
LINE
  5
328
100
AcDbEntity
  8
0
100
AcDbLine
 62
7
  6
CONTINUOUS
 10
16.6392293967
 20
10.3758223565
 11
16.6133033925
 21
10.3781392019
  0
LWPOLYLINE
  5
329
100
AcDbEntity
  8
0
100
AcDbPolyline
 62
7
  6
CONTINUOUS
 90
4
 70
0
 10
18.6949852003
 20
10.6706604092
 10
18.7267355032
 20
10.6675836555
 10
18.7645241412
 20
10.6568831327
 10
18.7649166347
 20
10.6567132028
  0
LWPOLYLINE
  5
32A
100
AcDbEntity
  8
0
100
AcDbPolyline
 62
7
  6
CONTINUOUS
 90
3
 70
0
 10
17.9142309379
 20
10.0919201515
 10
17.9019216019
 20
10.0932340811
 10
17.883035992
 20
10.1004585582
  0
LWPOLYLINE
  5
32B
100
AcDbEntity
  8
0
100
AcDbPolyline
 62
7
  6
CONTINUOUS
 90
4
 70
0
 10
16.9565089232
 20
10.2454937185
 10
16.9366875811
 20
10.2476893801
 10
16.9154540926
 20
10.254383761
 10
16.8946195231
 20
10.2643129552
  0
LWPOLYLINE
  5
32C
100
AcDbEntity
  8
0
100
AcDbPolyline
 62
7
  6
CONTINUOUS
 90
4
 70
0
 10
17.2639202702
 20
10.1433847099
 10
17.2468312618
 20
10.1454859136
 10
17.2235039304
 20
10.1544653832
 10
17.1953414429
 20
10.1721241356
  0
LWPOLYLINE
  5
32D
100
AcDbEntity
  8
0
100
AcDbPolyline
 62
7
  6
CONTINUOUS
 90
4
 70
0
 10
17.587145657
 20
10.0920862665
 10
17.5717053205
 20
10.0941217094
 10
17.5493637759
 20
10.103644462
 10
17.5339416342
 20
10.1144478484
  0
LINE
  5
32E
100
AcDbEntity
  8
0
100
AcDbLine
 62
9
  6
CONTINUOUS
 10
15.4973183383
 20
10.6867278081
 11
15.4973183383
 21
10.2967278081
  0
LWPOLYLINE
  5
32F
100
AcDbEntity
  8
0
100
AcDbPolyline
 62
7
  6
CONTINUOUS
 90
11
 70
0
 10
18.2273440068
 20
10.1164145369
 10
18.2858721158
 20
10.1993044113
 10
18.3411968037
 20
10.2840434503
 10
18.393347555
 20
10.365774473
 10
18.4421913829
 20
10.4405603452
 10
18.4881845228
 20
10.5065058261
 10
18.5317281387
 20
10.5623322905
 10
18.5728673071
 20
10.6070969439
 10
18.6111444448
 20
10.6398379114
 10
18.6452078345
 20
10.6601646308
 10
18.6711412163
 20
10.668550893
  0
LINE
  5
330
100
AcDbEntity
  8
0
100
AcDbLine
 62
7
  6
CONTINUOUS
 10
18.7263054147
 20
10.3659136605
 11
18.7263123006
 21
10.3659218338
  0
LINE
  5
331
100
AcDbEntity
  8
0
100
AcDbLine
 62
7
  6
CONTINUOUS
 10
3.4564742156
 20
10.1304788285
 11
3.4565676603
 21
10.1304959652
  0
LINE
  5
332
100
AcDbEntity
  8
0
100
AcDbLine
 62
7
  6
CONTINUOUS
 10
3.4235483251
 20
10.3149142977
 11
3.4234954604
 21
10.3149047232
  0
LWPOLYLINE
  5
333
100
AcDbEntity
  8
0
100
AcDbPolyline
 62
7
  6
CONTINUOUS
 90
8
 70
0
 10
2.7628553702
 20
10.3110927704
 10
2.8747902695
 20
10.3271729638
 10
2.9715065527
 20
10.3575431657
 10
3.0655586039
 20
10.4034645334
 10
3.1527526882
 20
10.4598726277
 10
3.2280136608
 20
10.5176601029
 10
3.2926236104
 20
10.5716704953
 10
3.3504627273
 20
10.6207453667
  0
LINE
  5
334
100
AcDbEntity
  8
0
100
AcDbLine
 62
7
  6
CONTINUOUS
 10
5.1166643014
 20
10.7351994964
 11
5.1388578197
 21
10.7379610957
  0
LINE
  5
335
100
AcDbEntity
  8
0
100
AcDbLine
 62
7
  6
CONTINUOUS
 10
4.1652893222
 20
10.8898509996
 11
4.1804182772
 21
10.8916529301
  0
LINE
  5
336
100
AcDbEntity
  8
0
100
AcDbLine
 62
7
  6
CONTINUOUS
 10
4.8147719831
 20
10.8384689858
 11
4.8307342431
 21
10.8402159721
  0
LINE
  5
337
100
AcDbEntity
  8
0
100
AcDbLine
 62
7
  6
CONTINUOUS
 10
4.4945999408
 20
10.8901997616
 11
4.5075110226
 21
10.8915210878
  0
LWPOLYLINE
  5
338
100
AcDbEntity
  8
0
100
AcDbPolyline
 62
7
  6
CONTINUOUS
 90
18
 70
0
 10
4.5074252918
 20
11.0790089343
 10
4.4586501848
 20
11.074082038
 10
4.3897949898
 20
11.049690079
 10
4.3242190856
 20
11.0063558457
 10
4.2625158285
 20
10.9465766097
 10
4.2042188351
 20
10.87377908
 10
4.1486656877
 20
10.7918810137
 10
4.0956635921
 20
10.7051629484
 10
4.0454942039
 20
10.6185518572
 10
3.9986442255
 20
10.5365805347
 10
3.9549515749
 20
10.4617410399
 10
3.9133663981
 20
10.3942407722
 10
3.8730141422
 20
10.3341603098
 10
3.8342476267
 20
10.2831567457
 10
3.7983099452
 20
10.2433798794
 10
3.7663537571
 20
10.2153134447
 10
3.7400018221
 20
10.1983325854
 10
3.7183306507
 20
10.1898333553
  0
LWPOLYLINE
  5
339
100
AcDbEntity
  8
0
100
AcDbPolyline
 62
7
  6
CONTINUOUS
 90
6
 70
0
 10
4.1802982892
 20
11.0791328947
 10
4.1318300414
 20
11.0742854487
 10
4.063223535
 20
11.0503964597
 10
3.9956585848
 20
11.0064127741
 10
3.929681578
 20
10.9433304564
 10
3.8672926698
 20
10.8670410793
  0
LWPOLYLINE
  5
33A
100
AcDbEntity
  8
0
100
AcDbPolyline
 62
7
  6
CONTINUOUS
 90
17
 70
0
 10
4.8306025604
 20
11.0276937169
 10
4.7803938103
 20
11.0226912412
 10
4.707305688
 20
10.9966188659
 10
4.6379827947
 20
10.9498149157
 10
4.5741679061
 20
10.8862453892
 10
4.5141311772
 20
10.8094324396
 10
4.4565111182
 20
10.722290597
 10
4.4007000467
 20
10.6286186962
 10
4.347286721
 20
10.5341196555
 10
4.2971247005
 20
10.4446197184
 10
4.249307844
 20
10.3620054266
 10
4.2031654835
 20
10.2878191234
 10
4.1592971523
 20
10.2249983705
 10
4.1187368419
 20
10.1759456871
 10
4.0827853849
 20
10.1415077085
 10
4.0532365734
 20
10.1212078826
 10
4.0317465006
 20
10.1126019267
  0
LWPOLYLINE
  5
33B
100
AcDbEntity
  8
0
100
AcDbPolyline
 62
7
  6
CONTINUOUS
 90
10
 70
0
 10
3.8570719263
 20
11.0282131971
 10
3.8132709752
 20
11.0244017836
 10
3.744143658
 20
11.0028405122
 10
3.677884215
 20
10.9640118832
 10
3.61867827
 20
10.9145466458
 10
3.5637787614
 20
10.8577333638
 10
3.5112590359
 20
10.7960468854
 10
3.4604271949
 20
10.7324035589
 10
3.411593619
 20
10.67052236
 10
3.3683312616
 20
10.6175419554
  0
LWPOLYLINE
  5
33C
100
AcDbEntity
  8
0
100
AcDbPolyline
 62
7
  6
CONTINUOUS
 90
4
 70
0
 10
3.5490318509
 20
10.9262045738
 10
3.5102645198
 20
10.9233982694
 10
3.4515949438
 20
10.9088381728
 10
3.3946449431
 20
10.8832098174
  0
LINE
  5
33D
100
AcDbEntity
  8
0
100
AcDbLine
 62
9
  6
CONTINUOUS
 10
10.8757034065
 20
11.5331381059
 11
11.21893327
 21
11.5331381059
  0
LINE
  5
33E
100
AcDbEntity
  8
0
100
AcDbLine
 62
9
  6
CONTINUOUS
 10
10.8688183383
 20
11.5482377272
 11
11.2258183383
 21
11.5482377272
  0
LINE
  5
33F
100
AcDbEntity
  8
0
100
AcDbLine
 62
7
  6
CONTINUOUS
 10
10.8263183383
 20
11.5792377272
 11
11.2683183383
 21
11.5792377272
  0
LINE
  5
340
100
AcDbEntity
  8
0
100
AcDbLine
 62
9
  6
CONTINUOUS
 10
10.7663183383
 20
11.6392377272
 11
11.3283183383
 21
11.6392377272
  0
LINE
  5
341
100
AcDbEntity
  8
0
100
AcDbLine
 62
9
  6
CONTINUOUS
 10
11.3283183383
 20
11.6752377272
 11
10.7663183383
 21
11.6752377272
  0
LINE
  5
342
100
AcDbEntity
  8
0
100
AcDbLine
 62
7
  6
CONTINUOUS
 10
11.2683183383
 20
11.7352377272
 11
10.8263183383
 21
11.7352377272
  0
LINE
  5
343
100
AcDbEntity
  8
0
100
AcDbLine
 62
7
  6
CONTINUOUS
 10
11.1603617755
 20
11.8222377272
 11
10.934274901
 21
11.8222377272
  0
LINE
  5
344
100
AcDbEntity
  8
0
100
AcDbLine
 62
7
  6
CONTINUOUS
 10
18.4342576153
 20
10.9805179707
 11
18.3947671838
 21
10.9834999193
  0
LINE
  5
345
100
AcDbEntity
  8
0
100
AcDbLine
 62
7
  6
CONTINUOUS
 10
17.1535462058
 20
10.978688655
 11
17.1070090715
 21
10.982881037
  0
LINE
  5
346
100
AcDbEntity
  8
0
100
AcDbLine
 62
7
  6
CONTINUOUS
 10
18.1240890529
 20
11.0555430439
 11
18.0768724973
 21
11.0601295186
  0
LINE
  5
347
100
AcDbEntity
  8
0
100
AcDbLine
 62
7
  6
CONTINUOUS
 10
17.4726384693
 20
11.0550127662
 11
17.4244004487
 21
11.0597958213
  0
LWPOLYLINE
  5
348
100
AcDbEntity
  8
0
100
AcDbPolyline
 62
7
  6
CONTINUOUS
 90
5
 70
0
 10
18.3957567185
 20
10.7958734649
 10
18.4130793406
 20
10.7939535146
 10
18.4373561765
 20
10.7852959287
 10
18.4664408936
 20
10.7686391198
 10
18.4705190995
 20
10.7655638869
  0
LWPOLYLINE
  5
349
100
AcDbEntity
  8
0
100
AcDbPolyline
 62
7
  6
CONTINUOUS
 90
3
 70
0
 10
17.4255601037
 20
10.8721652569
 10
17.4389238379
 20
10.8706783084
 10
17.4401910114
 20
10.8701862923
  0
LWPOLYLINE
  5
34A
100
AcDbEntity
  8
0
100
AcDbPolyline
 62
7
  6
CONTINUOUS
 90
4
 70
0
 10
17.7513116938
 20
10.8978942909
 10
17.7667020892
 20
10.8958269145
 10
17.7869314435
 20
10.8873107272
 10
17.7952828243
 20
10.8816222546
  0
LWPOLYLINE
  5
34B
100
AcDbEntity
  8
0
100
AcDbPolyline
 62
7
  6
CONTINUOUS
 90
4
 70
0
 10
18.0779292186
 20
10.8724662448
 10
18.094460143
 20
10.8702329096
 10
18.1190659759
 20
10.8597228867
 10
18.1389427513
 20
10.8460069932
  0
LWPOLYLINE
  5
34C
100
AcDbEntity
  8
0
100
AcDbPolyline
 62
7
  6
CONTINUOUS
 90
3
 70
0
 10
16.8474961834
 20
10.8547028281
 10
16.8456265247
 20
10.8549954346
 10
16.817066867
 20
10.8571781119
  0
LINE
  5
34D
100
AcDbEntity
  8
0
100
AcDbLine
 62
7
  6
CONTINUOUS
 10
14.6682871352
 20
9.8352291095
 11
14.2892580864
 21
10.4917266795
  0
LINE
  5
34E
100
AcDbEntity
  8
0
100
AcDbLine
 62
7
  6
CONTINUOUS
 10
15.9633183383
 20
10.7070132047
 11
15.9633183383
 21
10.2764434097
  0
LINE
  5
34F
100
AcDbEntity
  8
0
100
AcDbLine
 62
9
  6
CONTINUOUS
 10
15.9727480087
 20
10.7169969276
 11
15.9727480087
 21
10.2664586885
  0
LINE
  5
350
100
AcDbEntity
  8
0
100
AcDbLine
 62
9
  6
CONTINUOUS
 10
16.1088609561
 20
10.179836693
 11
16.1088609561
 21
10.8036189232
  0
LINE
  5
351
100
AcDbEntity
  8
0
100
AcDbLine
 62
7
  6
CONTINUOUS
 10
16.2273183383
 20
10.7737278081
 11
16.2273183383
 21
10.2097278081
  0
LINE
  5
352
100
AcDbEntity
  8
0
100
AcDbLine
 62
7
  6
CONTINUOUS
 10
17.2093898577
 20
10.9602434451
 11
17.1535462058
 21
10.978688655
  0
LWPOLYLINE
  5
353
100
AcDbEntity
  8
0
100
AcDbPolyline
 62
7
  6
CONTINUOUS
 90
3
 70
0
 10
18.4748196021
 20
10.0679575248
 10
18.4840753702
 20
10.064573849
 10
18.5458799406
 20
10.0572509305
  0
LWPOLYLINE
  5
354
100
AcDbEntity
  8
0
100
AcDbPolyline
 62
7
  6
CONTINUOUS
 90
4
 70
0
 10
16.8048678574
 20
10.0997484262
 10
16.8552451858
 20
10.0768856282
 10
16.9077995769
 20
10.0624594966
 10
16.9565314261
 20
10.0579938193
  0
LWPOLYLINE
  5
355
100
AcDbEntity
  8
0
100
AcDbPolyline
 62
7
  6
CONTINUOUS
 90
4
 70
0
 10
16.330775781
 20
10.2818209259
 10
16.3965703867
 20
10.2502907996
 10
16.4911031989
 20
10.2134890005
 10
16.5877181176
 20
10.1915937943
  0
LINE
  5
356
100
AcDbEntity
  8
0
100
AcDbLine
 62
7
  6
CONTINUOUS
 10
16.8049211335
 20
10.0997197106
 11
16.8048678574
 21
10.0997484262
  0
LINE
  5
357
100
AcDbEntity
  8
0
100
AcDbLine
 62
7
  6
CONTINUOUS
 10
16.8945603861
 20
10.2643450423
 11
16.8946195231
 21
10.2643129552
  0
LWPOLYLINE
  5
358
100
AcDbEntity
  8
0
100
AcDbPolyline
 62
7
  6
CONTINUOUS
 90
4
 70
0
 10
19.3277277583
 20
10.6772483798
 10
19.2852770645
 20
10.6925517248
 10
19.1843369741
 20
10.7236008033
 10
19.0875976179
 20
10.7416937486
  0
LINE
  5
359
100
AcDbEntity
  8
0
100
AcDbLine
 62
7
  6
CONTINUOUS
 10
16.8945603859
 20
10.2643450424
 11
16.8792106396
 21
10.2736584713
  0
LWPOLYLINE
  5
35A
100
AcDbEntity
  8
0
100
AcDbPolyline
 62
7
  6
CONTINUOUS
 90
3
 70
0
 10
17.7510904538
 20
9.9643279043
 10
17.7968306722
 20
9.9339404619
 10
17.8655576674
 20
9.909443219
  0
LWPOLYLINE
  5
35B
100
AcDbEntity
  8
0
100
AcDbPolyline
 62
7
  6
CONTINUOUS
 90
3
 70
0
 10
16.673558408
 20
10.1909967848
 10
16.7313806427
 20
10.1462655181
 10
16.8049211338
 20
10.0997197104
  0
LWPOLYLINE
  5
35C
100
AcDbEntity
  8
0
100
AcDbPolyline
 62
7
  6
CONTINUOUS
 90
4
 70
0
 10
17.0265276178
 20
10.0693209829
 10
17.0849788857
 20
10.0203675808
 10
17.1510364558
 20
9.9814992745
 10
17.219930219
 20
9.9597957346
  0
LWPOLYLINE
  5
35D
100
AcDbEntity
  8
0
100
AcDbPolyline
 62
7
  6
CONTINUOUS
 90
3
 70
0
 10
16.7205744047
 20
10.3950909193
 10
16.7024123738
 20
10.4104474304
 10
16.6816570611
 20
10.4277764641
  0
LINE
  5
35E
100
AcDbEntity
  8
0
100
AcDbLine
 62
7
  6
CONTINUOUS
 10
15.4263494697
 20
11.1482266308
 11
15.6927959392
 21
10.6867278081
  0
LINE
  5
35F
100
AcDbEntity
  8
0
100
AcDbLine
 62
7
  6
CONTINUOUS
 10
18.7817001934
 20
10.394550217
 11
18.7609022886
 21
10.4053249905
  0
LWPOLYLINE
  5
360
100
AcDbEntity
  8
0
100
AcDbPolyline
 62
7
  6
CONTINUOUS
 90
3
 70
0
 10
18.1113693399
 20
9.9888904339
 10
18.114304235
 20
9.9868927292
 10
18.1879843967
 20
9.9603502233
  0
LINE
  5
361
100
AcDbEntity
  8
0
100
AcDbLine
 62
7
  6
CONTINUOUS
 10
17.0395778753
 20
10.757873968
 11
17.0316397506
 21
10.7646561192
  0
LWPOLYLINE
  5
362
100
AcDbEntity
  8
0
100
AcDbPolyline
 62
7
  6
CONTINUOUS
 90
3
 70
0
 10
16.8950433475
 20
10.6361571261
 10
16.9305179332
 20
10.6056243821
 10
16.9310906668
 20
10.6050004964
  0
LWPOLYLINE
  5
363
100
AcDbEntity
  8
0
100
AcDbPolyline
 62
7
  6
CONTINUOUS
 90
4
 70
0
 10
17.3907882335
 20
9.9891709391
 10
17.4024194774
 20
9.9780209038
 10
17.4696868542
 20
9.9338540601
 10
17.5382553391
 20
9.9096093365
  0
LINE
  5
364
100
AcDbEntity
  8
0
100
AcDbLine
 62
7
  6
CONTINUOUS
 10
16.7023158126
 20
10.4449204356
 11
16.7410385671
 21
10.4057410346
  0
LWPOLYLINE
  5
365
100
AcDbEntity
  8
0
100
AcDbPolyline
 62
7
  6
CONTINUOUS
 90
3
 70
0
 10
16.8769453734
 20
10.5335778325
 10
16.8551709413
 20
10.557641683
 10
16.8370246204
 20
10.5743477886
  0
LWPOLYLINE
  5
366
100
AcDbEntity
  8
0
100
AcDbPolyline
 62
7
  6
CONTINUOUS
 90
3
 70
0
 10
17.0641338668
 20
10.3063811162
 10
17.0239341684
 20
10.3564839007
 10
16.9989736491
 20
10.388176233
  0
LWPOLYLINE
  5
367
100
AcDbEntity
  8
0
100
AcDbPolyline
 62
7
  6
CONTINUOUS
 90
5
 70
0
 10
19.0006047808
 20
10.7423512166
 10
18.9879768262
 20
10.7505624908
 10
18.9111981364
 20
10.7956298413
 10
18.8249191407
 20
10.8342187694
 10
18.7397168811
 20
10.8551975115
  0
LINE
  5
368
100
AcDbEntity
  8
0
100
AcDbLine
 62
7
  6
CONTINUOUS
 10
18.9580552299
 20
10.546574461
 11
18.967668443
 21
10.5402636149
  0
LWPOLYLINE
  5
369
100
AcDbEntity
  8
0
100
AcDbPolyline
 62
7
  6
CONTINUOUS
 90
3
 70
0
 10
17.5694872625
 20
11.0128781363
 10
17.5447145691
 20
11.0296247721
 10
17.4726384693
 20
11.0550127662
  0
LWPOLYLINE
  5
36A
100
AcDbEntity
  8
0
100
AcDbPolyline
 62
7
  6
CONTINUOUS
 90
3
 70
0
 10
18.4383891345
 20
10.3061734488
 10
18.4248581534
 20
10.3192030494
 10
18.3899712247
 20
10.3604830646
  0
LWPOLYLINE
  5
36B
100
AcDbEntity
  8
0
100
AcDbPolyline
 62
7
  6
CONTINUOUS
 90
4
 70
0
 10
17.2348824175
 20
10.7079762584
 10
17.2395506496
 20
10.7028952762
 10
17.2785076124
 20
10.6521842829
 10
17.2902219291
 20
10.6348472662
  0
LINE
  5
36C
100
AcDbEntity
  8
0
100
AcDbLine
 62
7
  6
CONTINUOUS
 10
17.3958125476
 20
10.8056896739
 11
17.363429966
 21
10.8457062077
  0
LINE
  5
36D
100
AcDbEntity
  8
0
100
AcDbLine
 62
7
  6
CONTINUOUS
 10
17.9283684231
 20
10.1656243879
 11
17.968418958
 21
10.1140022781
  0
LWPOLYLINE
  5
36E
100
AcDbEntity
  8
0
100
AcDbPolyline
 62
7
  6
CONTINUOUS
 90
4
 70
0
 10
17.4068574502
 20
10.2541622773
 10
17.3944527135
 20
10.271037957
 10
17.3472971592
 20
10.3413031716
 10
17.3380778675
 20
10.3556748676
  0
LWPOLYLINE
  5
36F
100
AcDbEntity
  8
0
100
AcDbPolyline
 62
7
  6
CONTINUOUS
 90
4
 70
0
 10
17.7511705999
 20
10.2379508466
 10
17.7323757821
 20
10.2645000777
 10
17.6866546399
 20
10.3368391409
 10
17.684943766
 20
10.3397435231
  0
LINE
  5
370
100
AcDbEntity
  8
0
100
AcDbLine
 62
7
  6
CONTINUOUS
 10
17.2179389784
 20
10.1973534393
 11
17.255307404
 21
10.1444437173
  0
LWPOLYLINE
  5
371
100
AcDbEntity
  8
0
100
AcDbPolyline
 62
7
  6
CONTINUOUS
 90
4
 70
0
 10
17.0513762612
 20
10.4530085326
 10
17.0606785701
 20
10.4396762956
 10
17.1093213702
 20
10.3652706072
 10
17.1123000127
 20
10.3606069613
  0
LWPOLYLINE
  5
372
100
AcDbEntity
  8
0
100
AcDbPolyline
 62
7
  6
CONTINUOUS
 90
3
 70
0
 10
17.5739512717
 20
10.1656374839
 10
17.6115671624
 20
10.1101742153
 10
17.6192761642
 20
10.1005259801
  0
LWPOLYLINE
  5
373
100
AcDbEntity
  8
0
100
AcDbPolyline
 62
7
  6
CONTINUOUS
 90
3
 70
0
 10
17.2261671507
 20
10.5287348473
 10
17.1890432572
 20
10.5839171018
 10
17.1669015187
 20
10.6135424713
  0
LWPOLYLINE
  5
374
100
AcDbEntity
  8
0
100
AcDbPolyline
 62
7
  6
CONTINUOUS
 90
4
 70
0
 10
17.4011572562
 20
10.4556712956
 10
17.4051547568
 20
10.4488373209
 10
17.4524865994
 20
10.366081622
 10
17.4667717329
 20
10.3414117985
  0
LWPOLYLINE
  5
375
100
AcDbEntity
  8
0
100
AcDbPolyline
 62
7
  6
CONTINUOUS
 90
3
 70
0
 10
17.5761069016
 20
10.5274157698
 10
17.5353730199
 20
10.5978028642
 10
17.5109394746
 20
10.637724916
  0
LINE
  5
376
100
AcDbEntity
  8
0
100
AcDbLine
 62
7
  6
CONTINUOUS
 10
18.7999527995
 20
10.4449533387
 11
18.8208992014
 21
10.4275728995
  0
LWPOLYLINE
  5
377
100
AcDbEntity
  8
0
100
AcDbPolyline
 62
7
  6
CONTINUOUS
 90
4
 70
0
 10
18.2927695723
 20
10.9607599658
 10
18.2584764789
 20
10.9916552927
 10
18.1920482415
 20
11.0327837579
 10
18.1240890529
 20
11.0555430439
  0
LWPOLYLINE
  5
378
100
AcDbEntity
  8
0
100
AcDbPolyline
 62
7
  6
CONTINUOUS
 90
5
 70
0
 10
17.9327812301
 20
11.0130778337
 10
17.9263359134
 20
11.0190340761
 10
17.8609213787
 20
11.0597772186
 10
17.7938236538
 20
11.081597362
 10
17.7508501088
 20
11.0854756996
  0
LWPOLYLINE
  5
379
100
AcDbEntity
  8
0
100
AcDbPolyline
 62
7
  6
CONTINUOUS
 90
5
 70
0
 10
18.6547068014
 20
10.855469638
 10
18.6227353707
 20
10.8850140056
 10
18.5619072011
 20
10.9301857973
 10
18.4978142348
 20
10.9631078687
 10
18.4342576153
 20
10.9805179707
  0
LWPOLYLINE
  5
37A
100
AcDbEntity
  8
0
100
AcDbPolyline
 62
7
  6
CONTINUOUS
 90
3
 70
0
 10
18.6073827535
 20
10.636620288
 10
18.6343465202
 20
10.6075220239
 10
18.6653923247
 20
10.5746586135
  0
LWPOLYLINE
  5
37B
100
AcDbEntity
  8
0
100
AcDbPolyline
 62
7
  6
CONTINUOUS
 90
3
 70
0
 10
18.2839497792
 20
10.1965819204
 10
18.2919814789
 20
10.1870624001
 10
18.3080605015
 20
10.172229494
  0
LWPOLYLINE
  5
37C
100
AcDbEntity
  8
0
100
AcDbPolyline
 62
7
  6
CONTINUOUS
 90
4
 70
0
 10
18.0956498717
 20
10.25381202
 10
18.0939580281
 20
10.2558312603
 10
18.0490578036
 20
10.3195902169
 10
18.0354880145
 20
10.3413310673
  0
LWPOLYLINE
  5
37D
100
AcDbEntity
  8
0
100
AcDbPolyline
 62
7
  6
CONTINUOUS
 90
4
 70
0
 10
18.2674939436
 20
10.7081627726
 10
18.2709704041
 20
10.7037248547
 10
18.3168699861
 20
10.6402889453
 10
18.3350593785
 20
10.6142829337
  0
LWPOLYLINE
  5
37E
100
AcDbEntity
  8
0
100
AcDbPolyline
 62
7
  6
CONTINUOUS
 90
3
 70
0
 10
18.4509057714
 20
10.4530551333
 10
18.4773790788
 20
10.4181281708
 10
18.5034374568
 20
10.3879400582
  0
LWPOLYLINE
  5
37F
100
AcDbEntity
  8
0
100
AcDbPolyline
 62
7
  6
CONTINUOUS
 90
4
 70
0
 10
17.9236901398
 20
10.7417749813
 10
17.9292946707
 20
10.7341169803
 10
17.9736369311
 20
10.6664729507
 10
17.9912924042
 20
10.6376955495
  0
LINE
  5
380
100
AcDbEntity
  8
0
100
AcDbLine
 62
7
  6
CONTINUOUS
 10
18.0997835208
 20
10.8163617388
 11
18.0615590724
 21
10.8703206332
  0
LWPOLYLINE
  5
381
100
AcDbEntity
  8
0
100
AcDbPolyline
 62
7
  6
CONTINUOUS
 90
3
 70
0
 10
17.5787557229
 20
10.7414448496
 10
17.6101564193
 20
10.6965753798
 10
17.6423220265
 20
10.6449652615
  0
LWPOLYLINE
  5
382
100
AcDbEntity
  8
0
100
AcDbPolyline
 62
7
  6
CONTINUOUS
 90
3
 70
0
 10
17.7511145506
 20
10.8217422294
 10
17.738784901
 20
10.8405071836
 10
17.7067735113
 20
10.8818318752
  0
LINE
  5
383
100
AcDbEntity
  8
0
100
AcDbLine
 62
7
  6
CONTINUOUS
 10
18.1064660072
 20
10.8058802382
 11
18.0997835208
 21
10.8163617388
  0
LWPOLYLINE
  5
384
100
AcDbEntity
  8
0
100
AcDbPolyline
 62
7
  6
CONTINUOUS
 90
3
 70
0
 10
18.2759428665
 20
10.529074118
 10
18.2546125882
 20
10.5637644326
 10
18.212041407
 20
10.6350299685
  0
LWPOLYLINE
  5
385
100
AcDbEntity
  8
0
100
AcDbPolyline
 62
7
  6
CONTINUOUS
 90
3
 70
0
 10
18.1010997389
 20
10.4556231623
 10
18.1197389877
 20
10.4247496789
 10
18.1640418488
 20
10.3553727724
  0
LWPOLYLINE
  5
386
100
AcDbEntity
  8
0
100
AcDbPolyline
 62
7
  6
CONTINUOUS
 90
3
 70
0
 10
17.9261766832
 20
10.5274120461
 10
17.9035970888
 20
10.5676780335
 10
17.8599594903
 20
10.6449729223
  0
LWPOLYLINE
  5
387
100
AcDbEntity
  8
0
100
AcDbPolyline
 62
7
  6
CONTINUOUS
 90
4
 70
0
 10
17.7511429007
 20
10.4561033984
 10
17.7538413278
 20
10.4512895573
 10
17.8069883433
 20
10.3571771107
 10
17.8173437292
 20
10.3397506087
  0
LWPOLYLINE
  5
388
100
AcDbEntity
  8
0
100
AcDbPolyline
 62
7
  6
CONTINUOUS
 90
3
 70
0
 10
18.6253953155
 20
10.5335334578
 10
18.5899377252
 20
10.5791162756
 10
18.5711270838
 20
10.6052033593
  0
LINE
  5
389
100
AcDbEntity
  8
0
100
AcDbLine
 62
7
  6
CONTINUOUS
 10
18.4622015634
 20
10.7588884936
 11
18.4475609273
 21
10.7794516709
  0
ARC
  5
38A
100
AcDbEntity
  8
0
100
AcDbCircle
 62
7
  6
CONTINUOUS
 10
11.045148654
 20
3.6101361678
 40
0.3128300617
100
AcDbArc
 50
174.074844027
 51
179.9972568289
  0
ARC
  5
38B
100
AcDbEntity
  8
0
100
AcDbCircle
 62
7
  6
CONTINUOUS
 10
11.0451305614
 20
3.6018546014
 40
0.3128122118
100
AcDbArc
 50
174.256299811
 51
178.4872328913
  0
ARC
  5
38C
100
AcDbEntity
  8
0
100
AcDbCircle
 62
7
  6
CONTINUOUS
 10
11.0466443199
 20
3.6105043775
 40
0.3122420093
100
AcDbArc
 50
263.0011444232
 51
263.2897995226
  0
ARC
  5
38D
100
AcDbEntity
  8
0
100
AcDbCircle
 62
7
  6
CONTINUOUS
 10
11.0453847789
 20
3.601906801
 40
0.3115666997
100
AcDbArc
 50
180.5311693643
 51
188.5726690052
  0
ARC
  5
38E
100
AcDbEntity
  8
0
100
AcDbCircle
 62
7
  6
CONTINUOUS
 10
11.045236946
 20
3.6018378968
 40
0.3114191023
100
AcDbArc
 50
176.766865926
 51
177.6658056351
  0
ARC
  5
38F
100
AcDbEntity
  8
0
100
AcDbCircle
 62
7
  6
CONTINUOUS
 10
11.0456267273
 20
3.6070289679
 40
0.3110626149
100
AcDbArc
 50
214.1126492842
 51
225.4571276866
  0
ARC
  5
390
100
AcDbEntity
  8
0
100
AcDbCircle
 62
7
  6
CONTINUOUS
 10
11.0448736032
 20
3.6018526909
 40
0.3110554584
100
AcDbArc
 50
177.6658026059
 51
178.4999717062
  0
ARC
  5
391
100
AcDbEntity
  8
0
100
AcDbCircle
 62
7
  6
CONTINUOUS
 10
11.0443829282
 20
3.6018650478
 40
0.3105646258
100
AcDbArc
 50
178.7173876135
 51
179.2063453032
  0
ARC
  5
392
100
AcDbEntity
  8
0
100
AcDbCircle
 62
9
  6
CONTINUOUS
 10
11.0453596971
 20
3.6095642863
 40
0.310540172
100
AcDbArc
 50
180.0043070375
 51
180.7386330594
  0
ARC
  5
393
100
AcDbEntity
  8
0
100
AcDbCircle
 62
7
  6
CONTINUOUS
 10
11.043982756
 20
3.6018701932
 40
0.3101644201
100
AcDbArc
 50
179.3110093162
 51
179.7995767203
  0
ARC
  5
394
100
AcDbEntity
  8
0
100
AcDbCircle
 62
7
  6
CONTINUOUS
 10
11.0438690565
 20
3.6018717817
 40
0.3100507185
100
AcDbArc
 50
180.0516242032
 51
180.5272949038
  0
ARC
  5
395
100
AcDbEntity
  8
0
100
AcDbCircle
 62
7
  6
CONTINUOUS
 10
11.0446483299
 20
3.6030937563
 40
0.3098588612
100
AcDbArc
 50
193.2368763814
 51
203.5869016605
  0
ARC
  5
396
100
AcDbEntity
  8
0
100
AcDbCircle
 62
7
  6
CONTINUOUS
 10
11.0444522146
 20
3.6029451881
 40
0.309635437
100
AcDbArc
 50
182.5236820992
 51
188.3397764331
  0
ARC
  5
397
100
AcDbEntity
  8
0
100
AcDbCircle
 62
7
  6
CONTINUOUS
 10
11.0443762384
 20
3.6029333067
 40
0.3095585409
100
AcDbArc
 50
188.3396402077
 51
189.1967716447
  0
ARC
  5
398
100
AcDbEntity
  8
0
100
AcDbCircle
 62
7
  6
CONTINUOUS
 10
11.0442620894
 20
3.6087949946
 40
0.3094426083
100
AcDbArc
 50
180.0044877852
 51
180.5992254166
  0
ARC
  5
399
100
AcDbEntity
  8
0
100
AcDbCircle
 62
7
  6
CONTINUOUS
 10
11.0441945559
 20
3.606132302
 40
0.3093752411
100
AcDbArc
 50
180.3407154156
 51
180.7035580339
  0
ARC
  5
39A
100
AcDbEntity
  8
0
100
AcDbCircle
 62
7
  6
CONTINUOUS
 10
11.0441948849
 20
3.6060101651
 40
0.3093057762
100
AcDbArc
 50
213.3019483605
 51
214.1051478733
  0
ARC
  5
39B
100
AcDbEntity
  8
0
100
AcDbCircle
 62
7
  6
CONTINUOUS
 10
11.0441130281
 20
3.6061318122
 40
0.3092937118
100
AcDbArc
 50
180.0039923337
 51
180.3407144907
  0
ARC
  5
39C
100
AcDbEntity
  8
0
100
AcDbCircle
 62
7
  6
CONTINUOUS
 10
11.0440909116
 20
3.602886446
 40
0.3092693924
100
AcDbArc
 50
189.1966501629
 51
190.7965258452
  0
ARC
  5
39D
100
AcDbEntity
  8
0
100
AcDbCircle
 62
7
  6
CONTINUOUS
 10
11.0440024845
 20
3.6061318563
 40
0.3091831682
100
AcDbArc
 50
179.5113262151
 51
180.0040019293
  0
ARC
  5
39E
100
AcDbEntity
  8
0
100
AcDbCircle
 62
7
  6
CONTINUOUS
 10
11.043481568
 20
3.6028917153
 40
0.3086633774
100
AcDbArc
 50
181.3010861077
 51
182.5216994078
  0
ARC
  5
39F
100
AcDbEntity
  8
0
100
AcDbCircle
 62
7
  6
CONTINUOUS
 10
11.0434354222
 20
3.6027605228
 40
0.3086019178
100
AcDbArc
 50
190.7963574859
 51
192.7933280405
  0
ARC
  5
3A0
100
AcDbEntity
  8
0
100
AcDbCircle
 62
7
  6
CONTINUOUS
 10
11.0430433419
 20
3.6028809808
 40
0.3082250206
100
AcDbArc
 50
180.698142253
 51
181.300940875
  0
ARC
  5
3A1
100
AcDbEntity
  8
0
100
AcDbCircle
 62
7
  6
CONTINUOUS
 10
11.0429234633
 20
3.6026475543
 40
0.3080776537
100
AcDbArc
 50
193.0185339854
 51
193.2295503844
  0
ARC
  5
3A2
100
AcDbEntity
  8
0
100
AcDbCircle
 62
7
  6
CONTINUOUS
 10
11.0428885268
 20
3.6026393986
 40
0.308041778
100
AcDbArc
 50
192.7938831407
 51
193.0185198259
  0
ARC
  5
3A3
100
AcDbEntity
  8
0
100
AcDbCircle
 62
7
  6
CONTINUOUS
 10
11.0428377987
 20
3.6028758287
 40
0.3080194539
100
AcDbArc
 50
179.5100803757
 51
179.7498755142
  0
ARC
  5
3A4
100
AcDbEntity
  8
0
100
AcDbCircle
 62
7
  6
CONTINUOUS
 10
11.0427534232
 20
3.6028773404
 40
0.3079350791
100
AcDbArc
 50
180.226238437
 51
180.6981222352
  0
ARC
  5
3A5
100
AcDbEntity
  8
0
100
AcDbCircle
 62
7
  6
CONTINUOUS
 10
11.042696832
 20
3.60287644
 40
0.3078784859
100
AcDbArc
 50
179.7498747513
 51
179.9988847701
  0
ARC
  5
3A6
100
AcDbEntity
  8
0
100
AcDbCircle
 62
7
  6
CONTINUOUS
 10
11.0425872264
 20
3.6028764945
 40
0.3077688803
100
AcDbArc
 50
179.9988945045
 51
180.2262031277
  0
ARC
  5
3A7
100
AcDbEntity
  8
0
100
AcDbCircle
 62
9
  6
CONTINUOUS
 10
2.9321983736
 20
9.8734580599
 40
0.6423438174
100
AcDbArc
 50
66.1944473398
 51
68.5534053042
  0
ARC
  5
3A8
100
AcDbEntity
  8
0
100
AcDbCircle
 62
9
  6
CONTINUOUS
 10
5.455633118
 20
10.0824123269
 40
0.5252213666
100
AcDbArc
 50
87.1199585869
 51
89.9009969823
  0
ARC
  5
3A9
100
AcDbEntity
  8
0
100
AcDbCircle
 62
9
  6
CONTINUOUS
 10
2.7153434959
 20
10.6905659283
 40
0.3809503441
100
AcDbArc
 50
276.2833994885
 51
276.5946280852
  0
ARC
  5
3AA
100
AcDbEntity
  8
0
100
AcDbCircle
 62
9
  6
CONTINUOUS
 10
2.7154562356
 20
10.6895952759
 40
0.3799731664
100
AcDbArc
 50
276.5945496493
 51
277.1089252892
  0
ARC
  5
3AB
100
AcDbEntity
  8
0
100
AcDbCircle
 62
9
  6
CONTINUOUS
 10
3.2400293681
 20
10.230514859
 40
0.3772282445
100
AcDbArc
 50
73.7576065477
 51
77.2579356624
  0
ARC
  5
3AC
100
AcDbEntity
  8
0
100
AcDbCircle
 62
9
  6
CONTINUOUS
 10
5.7950391483
 20
10.3949355713
 40
0.3090070604
100
AcDbArc
 50
89.9751656938
 51
95.1797036692
  0
ARC
  5
3AD
100
AcDbEntity
  8
0
100
AcDbCircle
 62
9
  6
CONTINUOUS
 10
5.2870469447
 20
10.6171268448
 40
0.3040143975
100
AcDbArc
 50
249.6501083982
 51
250.0212180245
  0
ARC
  5
3AE
100
AcDbEntity
  8
0
100
AcDbCircle
 62
9
  6
CONTINUOUS
 10
5.2865372007
 20
10.6157261291
 40
0.3025238127
100
AcDbArc
 50
250.0213092609
 51
250.2851443515
  0
ARC
  5
3AF
100
AcDbEntity
  8
0
100
AcDbCircle
 62
9
  6
CONTINUOUS
 10
5.6242142078
 20
10.5061098448
 40
0.2669198798
100
AcDbArc
 50
270.1720262271
 51
274.696562604
  0
ARC
  5
3B0
100
AcDbEntity
  8
0
100
AcDbCircle
 62
9
  6
CONTINUOUS
 10
3.0627495692
 20
10.4893988203
 40
0.2507573752
100
AcDbArc
 50
270.0654224778
 51
277.5370357128
  0
ARC
  5
3B1
100
AcDbEntity
  8
0
100
AcDbCircle
 62
7
  6
CONTINUOUS
 10
2.6329547398
 20
10.4917278081
 40
0.23
100
AcDbArc
 50
59.6028715785
 51
308.8675279394
  0
ARC
  5
3B2
100
AcDbEntity
  8
0
100
AcDbCircle
 62
9
  6
CONTINUOUS
 10
3.2311697859
 20
10.5750625205
 40
0.2207370341
100
AcDbArc
 50
90.153983052
 51
93.8118399649
  0
ARC
  5
3B3
100
AcDbEntity
  8
0
100
AcDbCircle
 62
9
  6
CONTINUOUS
 10
5.4557877572
 20
10.5798172143
 40
0.2153113284
100
AcDbArc
 50
90.1483057723
 51
90.5988945458
  0
ARC
  5
3B4
100
AcDbEntity
  8
0
100
AcDbCircle
 62
9
  6
CONTINUOUS
 10
4.6698550522
 20
10.3023364806
 40
0.1911860648
100
AcDbArc
 50
265.0996292349
 51
269.7620884815
  0
ARC
  5
3B5
100
AcDbEntity
  8
0
100
AcDbCircle
 62
9
  6
CONTINUOUS
 10
4.1797148925
 20
10.70388417
 40
0.1877700775
100
AcDbArc
 50
78.9625112152
 51
89.7853701164
  0
ARC
  5
3B6
100
AcDbEntity
  8
0
100
AcDbCircle
 62
9
  6
CONTINUOUS
 10
5.287518588
 20
10.3126113427
 40
0.1864951977
100
AcDbArc
 50
272.7020546582
 51
273.7968659447
  0
ARC
  5
3B7
100
AcDbEntity
  8
0
100
AcDbCircle
 62
9
  6
CONTINUOUS
 10
5.2876481688
 20
10.3097572929
 40
0.1836382124
100
AcDbArc
 50
270.016381863
 51
272.7036488844
  0
ARC
  5
3B8
100
AcDbEntity
  8
0
100
AcDbCircle
 62
7
  6
CONTINUOUS
 10
6.1313183383
 20
10.1013903081
 40
0.1653375
100
AcDbArc
 50
93.2695165906
 51
151.6756638894
  0
ARC
  5
3B9
100
AcDbEntity
  8
0
100
AcDbCircle
 62
9
  6
CONTINUOUS
 10
3.4039220975
 20
10.2762506341
 40
0.150604652
100
AcDbArc
 50
283.845344901
 51
289.535275235
  0
ARC
  5
3BA
100
AcDbEntity
  8
0
100
AcDbCircle
 62
9
  6
CONTINUOUS
 10
4.9872168291
 20
10.1342326956
 40
0.1336587476
100
AcDbArc
 50
270.1760885009
 51
277.7304683631
  0
ARC
  5
3BB
100
AcDbEntity
  8
0
100
AcDbCircle
 62
9
  6
CONTINUOUS
 10
3.6993668156
 20
10.1323105581
 40
0.1323558158
100
AcDbArc
 50
270.2176054428
 51
278.1243516689
  0
ARC
  5
3BC
100
AcDbEntity
  8
0
100
AcDbCircle
 62
9
  6
CONTINUOUS
 10
4.6698127763
 20
10.0473950015
 40
0.1237359313
100
AcDbArc
 50
270.1960791328
 51
270.7705329014
  0
ARC
  5
3BD
100
AcDbEntity
  8
0
100
AcDbCircle
 62
9
  6
CONTINUOUS
 10
4.0172318243
 20
10.0457742838
 40
0.1224493435
100
AcDbArc
 50
270.2490971836
 51
274.9164915569
  0
ARC
  5
3BE
100
AcDbEntity
  8
0
100
AcDbCircle
 62
9
  6
CONTINUOUS
 10
4.3432974225
 20
10.0174114354
 40
0.1194325204
100
AcDbArc
 50
270.2346600256
 51
272.6857085924
  0
ARC
  5
3BF
100
AcDbEntity
  8
0
100
AcDbCircle
 62
7
  6
CONTINUOUS
 10
5.9303183383
 20
10.2097278081
 40
0.063
100
AcDbArc
 50
180.0
 51
331.6756638894
  0
ARC
  5
3C0
100
AcDbEntity
  8
0
100
AcDbCircle
 62
7
  6
CONTINUOUS
 10
5.9303183383
 20
10.7737278081
 40
0.063
100
AcDbArc
 50
28.3243361106
 51
180.0
  0
ARC
  5
3C1
100
AcDbEntity
  8
0
100
AcDbCircle
 62
7
  6
CONTINUOUS
 10
6.1213183383
 20
10.7070132047
 40
0.01
100
AcDbArc
 50
0.0
 51
86.7304778879
  0
ARC
  5
3C2
100
AcDbEntity
  8
0
100
AcDbCircle
 62
7
  6
CONTINUOUS
 10
6.1213183383
 20
10.2764424115
 40
0.01
100
AcDbArc
 50
273.2695221121
 51
360.0
  0
ARC
  5
3C3
100
AcDbEntity
  8
0
100
AcDbCircle
 62
9
  6
CONTINUOUS
 10
6.3178932387
 20
12.2870888623
 40
1.8830821626
100
AcDbArc
 50
243.2180676166
 51
243.4728049666
  0
ARC
  5
3C4
100
AcDbEntity
  8
0
100
AcDbCircle
 62
9
  6
CONTINUOUS
 10
5.7542669292
 20
11.1674228823
 40
0.7819400158
100
AcDbArc
 50
234.0807337872
 51
234.2302404328
  0
ARC
  5
3C5
100
AcDbEntity
  8
0
100
AcDbCircle
 62
7
  6
CONTINUOUS
 10
6.1313183383
 20
10.8820653081
 40
0.1653375
100
AcDbArc
 50
208.3243361106
 51
266.7304834094
  0
ARC
  5
3C6
100
AcDbEntity
  8
0
100
AcDbCircle
 62
9
  6
CONTINUOUS
 10
3.5489516954
 20
10.788549254
 40
0.1376555698
100
AcDbArc
 50
90.0811471355
 51
97.4146879294
  0
ARC
  5
3C7
100
AcDbEntity
  8
0
100
AcDbCircle
 62
9
  6
CONTINUOUS
 10
5.1381488657
 20
10.7921603194
 40
0.1333014846
100
AcDbArc
 50
90.0187467507
 51
90.3395889334
  0
ARC
  5
3C8
100
AcDbEntity
  8
0
100
AcDbCircle
 62
9
  6
CONTINUOUS
 10
3.8566881951
 20
10.9004175433
 40
0.127796233
100
AcDbArc
 50
90.2657455893
 51
90.6374394263
  0
ARC
  5
3C9
100
AcDbEntity
  8
0
100
AcDbCircle
 62
9
  6
CONTINUOUS
 10
4.1798197661
 20
10.9563172379
 40
0.1228165902
100
AcDbArc
 50
90.2033907072
 51
90.803407535
  0
ARC
  5
3CA
100
AcDbEntity
  8
0
100
AcDbCircle
 62
9
  6
CONTINUOUS
 10
4.5068839278
 20
10.9566831672
 40
0.1223269636
100
AcDbArc
 50
90.1901074463
 51
91.2116650611
  0
ARC
  5
3CB
100
AcDbEntity
  8
0
100
AcDbCircle
 62
9
  6
CONTINUOUS
 10
5.2692216921
 20
10.8456494444
 40
0.043250161
100
AcDbArc
 50
60.8015706634
 51
61.6356810356
  0
ARC
  5
3CC
100
AcDbEntity
  8
0
100
AcDbCircle
 62
7
  6
CONTINUOUS
 10
7.0473183383
 20
10.4917278081
 40
1.18
100
AcDbArc
 50
196.9561296832
 51
163.0442399291
  0
ARC
  5
3CD
100
AcDbEntity
  8
0
100
AcDbCircle
 62
7
  6
CONTINUOUS
 10
7.0473183383
 20
10.4917278081
 40
1.0000026738
100
AcDbArc
 50
193.6089328951
 51
166.3910671049
  0
ARC
  5
3CE
100
AcDbEntity
  8
0
100
AcDbCircle
 62
9
  6
CONTINUOUS
 10
7.0473183383
 20
10.4917278081
 40
0.8130026738
100
AcDbArc
 50
193.9160443702
 51
166.0842886198
  0
ARC
  5
3CF
100
AcDbEntity
  8
0
100
AcDbCircle
 62
7
  6
CONTINUOUS
 10
7.0473183383
 20
10.4917278081
 40
0.741
100
AcDbArc
 50
122.6316076561
 51
164.7123316653
  0
ARC
  5
3D0
100
AcDbEntity
  8
0
100
AcDbCircle
 62
7
  6
CONTINUOUS
 10
7.0473183383
 20
10.4917278081
 40
0.741
100
AcDbArc
 50
62.6291242566
 51
117.3669832926
  0
ARC
  5
3D1
100
AcDbEntity
  8
0
100
AcDbCircle
 62
7
  6
CONTINUOUS
 10
7.0473183383
 20
10.4917278081
 40
0.741
100
AcDbArc
 50
2.6470278516
 51
57.3645520063
  0
ARC
  5
3D2
100
AcDbEntity
  8
0
100
AcDbCircle
 62
7
  6
CONTINUOUS
 10
7.0473183383
 20
10.4917278081
 40
0.741
100
AcDbArc
 50
302.6316076561
 51
357.3531455237
  0
ARC
  5
3D3
100
AcDbEntity
  8
0
100
AcDbCircle
 62
7
  6
CONTINUOUS
 10
7.0473183383
 20
10.4917278081
 40
0.741
100
AcDbArc
 50
242.6291242566
 51
297.3669832926
  0
ARC
  5
3D4
100
AcDbEntity
  8
0
100
AcDbCircle
 62
7
  6
CONTINUOUS
 10
7.0473183383
 20
10.4917278081
 40
0.741
100
AcDbArc
 50
195.2882951492
 51
237.3645520063
  0
ARC
  5
3D5
100
AcDbEntity
  8
0
100
AcDbCircle
 62
7
  6
CONTINUOUS
 10
7.0473183383
 20
10.4917278081
 40
0.6515
100
AcDbArc
 50
197.4393916159
 51
162.5606083841
  0
ARC
  5
3D6
100
AcDbEntity
  8
0
100
AcDbCircle
 62
9
  6
CONTINUOUS
 10
7.0473183383
 20
10.4917278081
 40
0.6146339942
100
AcDbArc
 50
198.5381573567
 51
161.4618426433
  0
ARC
  5
3D7
100
AcDbEntity
  8
0
100
AcDbCircle
 62
9
  6
CONTINUOUS
 10
7.0473183383
 20
10.4917278081
 40
0.5405
100
AcDbArc
 50
201.2103314457
 51
158.7896685543
  0
ARC
  5
3D8
100
AcDbEntity
  8
0
100
AcDbCircle
 62
9
  6
CONTINUOUS
 10
7.0473183383
 20
10.4917278081
 40
0.4297397274
100
AcDbArc
 50
206.9892959866
 51
152.9953098893
  0
ARC
  5
3D9
100
AcDbEntity
  8
0
100
AcDbCircle
 62
9
  6
CONTINUOUS
 10
7.0473183383
 20
10.4917278081
 40
0.398848868
100
AcDbArc
 50
209.309177232
 51
150.7176878393
  0
ARC
  5
3DA
100
AcDbEntity
  8
0
100
AcDbCircle
 62
7
  6
CONTINUOUS
 10
7.0473183383
 20
10.4917278081
 40
0.3525
100
AcDbArc
 50
213.7252174386
 51
146.2747825614
  0
ARC
  5
3DB
100
AcDbEntity
  8
0
100
AcDbCircle
 62
7
  6
CONTINUOUS
 10
7.0473183383
 20
10.4917278081
 40
0.35
100
AcDbArc
 50
214.0019478769
 51
145.9980521231
  0
ARC
  5
3DC
100
AcDbEntity
  8
0
100
AcDbCircle
 62
9
  6
CONTINUOUS
 10
7.0473183383
 20
10.4917278081
 40
0.3152848912
100
AcDbArc
 50
218.250741624
 51
141.7492417323
  0
ARC
  5
3DD
100
AcDbEntity
  8
0
100
AcDbCircle
 62
7
  6
CONTINUOUS
 10
7.0473183383
 20
10.4917278081
 40
0.3125
100
AcDbArc
 50
218.6842268928
 51
141.3157731072
  0
ARC
  5
3DE
100
AcDbEntity
  8
0
100
AcDbCircle
 62
9
  6
CONTINUOUS
 10
7.0473183383
 20
10.4917278081
 40
0.2525
100
AcDbArc
 50
230.755998672
 51
129.2507503003
  0
ARC
  5
3DF
100
AcDbEntity
  8
0
100
AcDbCircle
 62
7
  6
CONTINUOUS
 10
7.0473183383
 20
10.4917278081
 40
0.195
100
AcDbArc
 50
270.0
 51
90.0
  0
ARC
  5
3E0
100
AcDbEntity
  8
0
100
AcDbCircle
 62
7
  6
CONTINUOUS
 10
10.6343183383
 20
9.8383060454
 40
0.063
100
AcDbArc
 50
303.20382253
 51
57.7047672559
  0
ARC
  5
3E1
100
AcDbEntity
  8
0
100
AcDbCircle
 62
7
  6
CONTINUOUS
 10
10.7033183383
 20
9.732878345
 40
0.063
100
AcDbArc
 50
123.20382253
 51
180.0
  0
ARC
  5
3E2
100
AcDbEntity
  8
0
100
AcDbCircle
 62
7
  6
CONTINUOUS
 10
10.6403183383
 20
9.2747377272
 40
0.0625
100
AcDbArc
 50
90.0
 51
270.0
  0
ARC
  5
3E3
100
AcDbEntity
  8
0
100
AcDbCircle
 62
7
  6
CONTINUOUS
 10
11.0473181152
 20
10.4917280665
 40
0.7099997651
100
AcDbArc
 50
302.2952366532
 51
73.4284995057
  0
ARC
  5
3E4
100
AcDbEntity
  8
0
100
AcDbCircle
 62
7
  6
CONTINUOUS
 10
10.8059319695
 20
11.4528081203
 40
0.1064
100
AcDbArc
 50
303.8483853713
 51
49.0237155136
  0
ARC
  5
3E5
100
AcDbEntity
  8
0
100
AcDbCircle
 62
7
  6
CONTINUOUS
 10
10.9573183383
 20
11.7352377272
 40
0.09
100
AcDbArc
 50
104.835111582
 51
180.0
  0
ARC
  5
3E6
100
AcDbEntity
  8
0
100
AcDbCircle
 62
7
  6
CONTINUOUS
 10
10.8263183383
 20
11.6392377272
 40
0.06
100
AcDbArc
 50
180.0
 51
270.0
  0
ARC
  5
3E7
100
AcDbEntity
  8
0
100
AcDbCircle
 62
7
  6
CONTINUOUS
 10
10.8263183383
 20
11.6752377272
 40
0.06
100
AcDbArc
 50
90.0
 51
180.0
  0
ARC
  5
3E8
100
AcDbEntity
  8
0
100
AcDbCircle
 62
7
  6
CONTINUOUS
 10
10.8908183383
 20
11.3262377272
 40
0.046
100
AcDbArc
 50
123.8483853713
 51
180.0
  0
ARC
  5
3E9
100
AcDbEntity
  8
0
100
AcDbCircle
 62
7
  6
CONTINUOUS
 10
10.8888183383
 20
11.5482377272
 40
0.02
100
AcDbArc
 50
180.0
 51
229.0237155138
  0
ARC
  5
3EA
100
AcDbEntity
  8
0
100
AcDbCircle
 62
7
  6
CONTINUOUS
 10
11.047349565
 20
3.6129569231
 40
0.3166071092
100
AcDbArc
 50
263.2597658455
 51
269.994348953
  0
ARC
  5
3EB
100
AcDbEntity
  8
0
100
AcDbCircle
 62
7
  6
CONTINUOUS
 10
11.0494147503
 20
3.6018498106
 40
0.3129036199
100
AcDbArc
 50
1.5136925676
 51
5.9249660314
  0
ARC
  5
3EC
100
AcDbEntity
  8
0
100
AcDbCircle
 62
7
  6
CONTINUOUS
 10
11.0496954639
 20
3.6101463244
 40
0.3126226201
100
AcDbArc
 50
0.0008835511
 51
5.7449981716
  0
ARC
  5
3ED
100
AcDbEntity
  8
0
100
AcDbCircle
 62
7
  6
CONTINUOUS
 10
11.0501473634
 20
3.6101531776
 40
0.3121707212
100
AcDbArc
 50
359.4182127277
 51
359.8528839769
  0
ARC
  5
3EE
100
AcDbEntity
  8
0
100
AcDbCircle
 62
7
  6
CONTINUOUS
 10
11.0493009021
 20
3.6019020378
 40
0.3115175446
100
AcDbArc
 50
351.539398697
 51
356.2124047226
  0
ARC
  5
3EF
100
AcDbEntity
  8
0
100
AcDbCircle
 62
7
  6
CONTINUOUS
 10
11.0483619156
 20
3.6070109214
 40
0.3113555802
100
AcDbArc
 50
320.230854811
 51
322.0316986938
  0
ARC
  5
3F0
100
AcDbEntity
  8
0
100
AcDbCircle
 62
7
  6
CONTINUOUS
 10
11.0485486396
 20
3.6045133089
 40
0.3112696943
100
AcDbArc
 50
334.8706303375
 51
359.9969217044
  0
ARC
  5
3F1
100
AcDbEntity
  8
0
100
AcDbCircle
 62
7
  6
CONTINUOUS
 10
11.0496386387
 20
3.6018902581
 40
0.3111797653
100
AcDbArc
 50
356.2502699281
 51
359.767925509
  0
ARC
  5
3F2
100
AcDbEntity
  8
0
100
AcDbCircle
 62
7
  6
CONTINUOUS
 10
11.0497630733
 20
3.6018526909
 40
0.3110554584
100
AcDbArc
 50
1.500028311
 51
2.3341973941
  0
ARC
  5
3F3
100
AcDbEntity
  8
0
100
AcDbCircle
 62
7
  6
CONTINUOUS
 10
11.0501508638
 20
3.6018630094
 40
0.3106675304
100
AcDbArc
 50
0.9865782749
 51
1.4242298205
  0
ARC
  5
3F4
100
AcDbEntity
  8
0
100
AcDbCircle
 62
7
  6
CONTINUOUS
 10
11.0504466995
 20
3.6018680467
 40
0.3103716518
100
AcDbArc
 50
0.4970769271
 51
0.9865888269
  0
ARC
  5
3F5
100
AcDbEntity
  8
0
100
AcDbCircle
 62
7
  6
CONTINUOUS
 10
11.0498207574
 20
3.6071556484
 40
0.309997574
100
AcDbArc
 50
359.514354374
 51
0.0007971282
  0
ARC
  5
3F6
100
AcDbEntity
  8
0
100
AcDbCircle
 62
7
  6
CONTINUOUS
 10
11.0508374889
 20
3.6018711764
 40
0.3099808494
100
AcDbArc
 50
0.0000320472
 51
0.392830201
  0
ARC
  5
3F7
100
AcDbEntity
  8
0
100
AcDbCircle
 62
7
  6
CONTINUOUS
 10
11.0500047507
 20
3.6045010867
 40
0.3098135829
100
AcDbArc
 50
359.999167552
 51
0.2455108921
  0
ARC
  5
3F8
100
AcDbEntity
  8
0
100
AcDbCircle
 62
9
  6
CONTINUOUS
 10
11.0508720026
 20
3.6095412199
 40
0.3089463357
100
AcDbArc
 50
359.5635952842
 51
359.9999694332
  0
ARC
  5
3F9
100
AcDbEntity
  8
0
100
AcDbCircle
 62
7
  6
CONTINUOUS
 10
11.4603183383
 20
9.8383060454
 40
0.063
100
AcDbArc
 50
122.2952327441
 51
236.79617747
  0
ARC
  5
3FA
100
AcDbEntity
  8
0
100
AcDbCircle
 62
7
  6
CONTINUOUS
 10
11.3913183383
 20
9.732878345
 40
0.063
100
AcDbArc
 50
0.0
 51
56.79617747
  0
ARC
  5
3FB
100
AcDbEntity
  8
0
100
AcDbCircle
 62
7
  6
CONTINUOUS
 10
11.4543183383
 20
9.2747377272
 40
0.0625
100
AcDbArc
 50
270.0
 51
90.0
  0
ARC
  5
3FC
100
AcDbEntity
  8
0
100
AcDbCircle
 62
7
  6
CONTINUOUS
 10
11.0473183383
 20
10.4917278081
 40
1.175
100
AcDbArc
 50
290.2843613853
 51
76.1783321734
  0
ARC
  5
3FD
100
AcDbEntity
  8
0
100
AcDbCircle
 62
7
  6
CONTINUOUS
 10
11.0473183383
 20
10.4917278081
 40
1.175
100
AcDbArc
 50
103.8216678266
 51
249.7156386147
  0
ARC
  5
3FE
100
AcDbEntity
  8
0
100
AcDbCircle
 62
9
  6
CONTINUOUS
 10
11.0473183383
 20
10.4917278081
 40
1.145
100
AcDbArc
 50
290.8500152009
 51
76.4201168544
  0
ARC
  5
3FF
100
AcDbEntity
  8
0
100
AcDbCircle
 62
9
  6
CONTINUOUS
 10
11.0473183383
 20
10.4917278081
 40
1.145
100
AcDbArc
 50
103.5794922309
 51
249.1499851838
  0
ARC
  5
400
100
AcDbEntity
  8
0
100
AcDbCircle
 62
7
  6
CONTINUOUS
 10
11.0473183383
 20
10.4917278081
 40
1.0675
100
AcDbArc
 50
292.4579816471
 51
80.4243539374
  0
ARC
  5
401
100
AcDbEntity
  8
0
100
AcDbCircle
 62
7
  6
CONTINUOUS
 10
11.0473183383
 20
10.4917278081
 40
1.0675
100
AcDbArc
 50
99.5759801521
 51
247.5414306731
  0
ARC
  5
402
100
AcDbEntity
  8
0
100
AcDbCircle
 62
7
  6
CONTINUOUS
 10
11.0473183383
 20
10.4917278081
 40
0.87
100
AcDbArc
 50
297.9536457857
 51
76.6409832571
  0
ARC
  5
403
100
AcDbEntity
  8
0
100
AcDbCircle
 62
7
  6
CONTINUOUS
 10
11.0473183383
 20
10.4917278081
 40
0.87
100
AcDbArc
 50
103.3570890577
 51
242.0467750217
  0
ARC
  5
404
100
AcDbEntity
  8
0
100
AcDbCircle
 62
7
  6
CONTINUOUS
 10
11.0473183383
 20
10.4917278081
 40
0.82
100
AcDbArc
 50
298.6193729961
 51
75.6796308194
  0
ARC
  5
405
100
AcDbEntity
  8
0
100
AcDbCircle
 62
7
  6
CONTINUOUS
 10
11.0473183383
 20
10.4917278081
 40
0.82
100
AcDbArc
 50
104.3209630617
 51
241.3813631274
  0
ARC
  5
406
100
AcDbEntity
  8
0
100
AcDbCircle
 62
7
  6
CONTINUOUS
 10
11.0473186905
 20
10.4917277698
 40
0.7100000773
100
AcDbArc
 50
106.5715037532
 51
237.7047416317
  0
CIRCLE
  5
407
100
AcDbEntity
  8
0
100
AcDbCircle
 62
7
  6
CONTINUOUS
 10
11.0473183383
 20
10.4917278081
 40
0.4635
  0
CIRCLE
  5
408
100
AcDbEntity
  8
0
100
AcDbCircle
 62
9
  6
CONTINUOUS
 10
11.0473183383
 20
10.4917278081
 40
0.346
  0
CIRCLE
  5
409
100
AcDbEntity
  8
0
100
AcDbCircle
 62
7
  6
CONTINUOUS
 10
11.0473183383
 20
10.4917278081
 40
0.3125
  0
CIRCLE
  5
40A
100
AcDbEntity
  8
0
100
AcDbCircle
 62
9
  6
CONTINUOUS
 10
11.0473183383
 20
10.4917278081
 40
0.1279789985
  0
ARC
  5
40B
100
AcDbEntity
  8
0
100
AcDbCircle
 62
7
  6
CONTINUOUS
 10
11.288704707
 20
11.4528081203
 40
0.1064
100
AcDbArc
 50
130.9762844864
 51
236.1516146287
  0
ARC
  5
40C
100
AcDbEntity
  8
0
100
AcDbCircle
 62
7
  6
CONTINUOUS
 10
11.1373183383
 20
11.7352377272
 40
0.09
100
AcDbArc
 50
0.0
 51
75.164888418
  0
ARC
  5
40D
100
AcDbEntity
  8
0
100
AcDbCircle
 62
7
  6
CONTINUOUS
 10
11.2683183383
 20
11.6392377272
 40
0.06
100
AcDbArc
 50
270.0
 51
360.0
  0
ARC
  5
40E
100
AcDbEntity
  8
0
100
AcDbCircle
 62
7
  6
CONTINUOUS
 10
11.2683183383
 20
11.6752377272
 40
0.06
100
AcDbArc
 50
0.0
 51
90.0
  0
ARC
  5
40F
100
AcDbEntity
  8
0
100
AcDbCircle
 62
7
  6
CONTINUOUS
 10
11.2038183383
 20
11.3262377272
 40
0.046
100
AcDbArc
 50
0.0
 51
56.1516146287
  0
ARC
  5
410
100
AcDbEntity
  8
0
100
AcDbCircle
 62
7
  6
CONTINUOUS
 10
11.2058183383
 20
11.5482377272
 40
0.02
100
AcDbArc
 50
310.9762844862
 51
360.0
  0
ARC
  5
411
100
AcDbEntity
  8
0
100
AcDbCircle
 62
7
  6
CONTINUOUS
 10
15.0473183383
 20
10.4917278081
 40
1.18
100
AcDbArc
 50
16.9561296832
 51
343.0442399291
  0
ARC
  5
412
100
AcDbEntity
  8
0
100
AcDbCircle
 62
7
  6
CONTINUOUS
 10
15.0473183383
 20
10.4917278081
 40
1.0000026738
100
AcDbArc
 50
13.6089328951
 51
346.3910671049
  0
ARC
  5
413
100
AcDbEntity
  8
0
100
AcDbCircle
 62
9
  6
CONTINUOUS
 10
15.0473183383
 20
10.4917278081
 40
0.8130026738
100
AcDbArc
 50
13.9160443702
 51
346.0842886197
  0
ARC
  5
414
100
AcDbEntity
  8
0
100
AcDbCircle
 62
7
  6
CONTINUOUS
 10
15.0473183383
 20
10.4917278081
 40
0.741
100
AcDbArc
 50
122.6316076561
 51
177.3531455237
  0
ARC
  5
415
100
AcDbEntity
  8
0
100
AcDbCircle
 62
7
  6
CONTINUOUS
 10
15.0473183383
 20
10.4917278081
 40
0.741
100
AcDbArc
 50
62.6291242566
 51
117.3669832926
  0
ARC
  5
416
100
AcDbEntity
  8
0
100
AcDbCircle
 62
7
  6
CONTINUOUS
 10
15.0473183383
 20
10.4917278081
 40
0.741
100
AcDbArc
 50
15.2882951492
 51
57.3645520063
  0
ARC
  5
417
100
AcDbEntity
  8
0
100
AcDbCircle
 62
7
  6
CONTINUOUS
 10
15.0473183383
 20
10.4917278081
 40
0.741
100
AcDbArc
 50
302.6316076561
 51
344.7123316653
  0
ARC
  5
418
100
AcDbEntity
  8
0
100
AcDbCircle
 62
7
  6
CONTINUOUS
 10
15.0473183383
 20
10.4917278081
 40
0.741
100
AcDbArc
 50
242.6291242566
 51
297.3669832926
  0
ARC
  5
419
100
AcDbEntity
  8
0
100
AcDbCircle
 62
7
  6
CONTINUOUS
 10
15.0473183383
 20
10.4917278081
 40
0.741
100
AcDbArc
 50
182.6470278516
 51
237.3645520063
  0
ARC
  5
41A
100
AcDbEntity
  8
0
100
AcDbCircle
 62
7
  6
CONTINUOUS
 10
15.0473183383
 20
10.4917278081
 40
0.6515
100
AcDbArc
 50
17.4393916159
 51
342.5606083841
  0
ARC
  5
41B
100
AcDbEntity
  8
0
100
AcDbCircle
 62
9
  6
CONTINUOUS
 10
15.0473183383
 20
10.4917278081
 40
0.6146339942
100
AcDbArc
 50
18.5381573567
 51
341.4618426433
  0
ARC
  5
41C
100
AcDbEntity
  8
0
100
AcDbCircle
 62
9
  6
CONTINUOUS
 10
15.0473183383
 20
10.4917278081
 40
0.5405
100
AcDbArc
 50
21.2103314457
 51
338.7896685543
  0
ARC
  5
41D
100
AcDbEntity
  8
0
100
AcDbCircle
 62
9
  6
CONTINUOUS
 10
15.0473183383
 20
10.4917278081
 40
0.4297397274
100
AcDbArc
 50
26.9892959866
 51
332.9953098893
  0
ARC
  5
41E
100
AcDbEntity
  8
0
100
AcDbCircle
 62
9
  6
CONTINUOUS
 10
15.0473183383
 20
10.4917278081
 40
0.398848868
100
AcDbArc
 50
29.309177232
 51
330.7176878393
  0
ARC
  5
41F
100
AcDbEntity
  8
0
100
AcDbCircle
 62
7
  6
CONTINUOUS
 10
15.0473183383
 20
10.4917278081
 40
0.3525
100
AcDbArc
 50
33.7252174386
 51
326.2747825614
  0
ARC
  5
420
100
AcDbEntity
  8
0
100
AcDbCircle
 62
7
  6
CONTINUOUS
 10
15.0473183383
 20
10.4917278081
 40
0.35
100
AcDbArc
 50
34.0019478769
 51
325.9980521231
  0
ARC
  5
421
100
AcDbEntity
  8
0
100
AcDbCircle
 62
9
  6
CONTINUOUS
 10
15.0473183383
 20
10.4917278081
 40
0.3152848912
100
AcDbArc
 50
38.250741624
 51
321.7492417323
  0
ARC
  5
422
100
AcDbEntity
  8
0
100
AcDbCircle
 62
7
  6
CONTINUOUS
 10
15.0473183383
 20
10.4917278081
 40
0.3125
100
AcDbArc
 50
38.6842268928
 51
321.3157731072
  0
ARC
  5
423
100
AcDbEntity
  8
0
100
AcDbCircle
 62
9
  6
CONTINUOUS
 10
15.0473183383
 20
10.4917278081
 40
0.2525
100
AcDbArc
 50
50.755998672
 51
309.2507503003
  0
ARC
  5
424
100
AcDbEntity
  8
0
100
AcDbCircle
 62
7
  6
CONTINUOUS
 10
15.0473183383
 20
10.4917278081
 40
0.195
100
AcDbArc
 50
90.0
 51
270.0
  0
ARC
  5
425
100
AcDbEntity
  8
0
100
AcDbCircle
 62
9
  6
CONTINUOUS
 10
15.7767434374
 20
8.696366753
 40
1.8830821636
100
AcDbArc
 50
63.2180676167
 51
63.4728049665
  0
ARC
  5
426
100
AcDbEntity
  8
0
100
AcDbCircle
 62
9
  6
CONTINUOUS
 10
16.3403697475
 20
9.8160327341
 40
0.7819400156
100
AcDbArc
 50
54.0807337871
 51
54.2302404328
  0
ARC
  5
427
100
AcDbEntity
  8
0
100
AcDbCircle
 62
7
  6
CONTINUOUS
 10
15.9633183383
 20
10.1013903081
 40
0.1653375
100
AcDbArc
 50
28.3243361106
 51
86.7304834094
  0
ARC
  5
428
100
AcDbEntity
  8
0
100
AcDbCircle
 62
9
  6
CONTINUOUS
 10
18.5456849811
 20
10.1949063622
 40
0.1376555698
100
AcDbArc
 50
270.0811471355
 51
277.4146879294
  0
ARC
  5
429
100
AcDbEntity
  8
0
100
AcDbCircle
 62
9
  6
CONTINUOUS
 10
16.9564878109
 20
10.1912952963
 40
0.1333014841
100
AcDbArc
 50
270.0187467502
 51
270.3395889341
  0
ARC
  5
42A
100
AcDbEntity
  8
0
100
AcDbCircle
 62
9
  6
CONTINUOUS
 10
18.2379484814
 20
10.0830380729
 40
0.127796233
100
AcDbArc
 50
270.2657455895
 51
270.6374394265
  0
ARC
  5
42B
100
AcDbEntity
  8
0
100
AcDbCircle
 62
9
  6
CONTINUOUS
 10
17.9148169104
 20
10.0271383783
 40
0.1228165902
100
AcDbArc
 50
270.2033907071
 51
270.8034075349
  0
ARC
  5
42C
100
AcDbEntity
  8
0
100
AcDbCircle
 62
9
  6
CONTINUOUS
 10
17.5877527488
 20
10.0267724491
 40
0.1223269636
100
AcDbArc
 50
270.1901074464
 51
271.2116650609
  0
ARC
  5
42D
100
AcDbEntity
  8
0
100
AcDbCircle
 62
7
  6
CONTINUOUS
 10
16.1643183383
 20
10.2097278081
 40
0.063
100
AcDbArc
 50
208.3243361106
 51
360.0
  0
ARC
  5
42E
100
AcDbEntity
  8
0
100
AcDbCircle
 62
9
  6
CONTINUOUS
 10
16.8254149845
 20
10.1378061718
 40
0.0432501611
100
AcDbArc
 50
240.8015706639
 51
241.6356810354
  0
ARC
  5
42F
100
AcDbEntity
  8
0
100
AcDbCircle
 62
9
  6
CONTINUOUS
 10
19.162438303
 20
11.1099975563
 40
0.6423438174
100
AcDbArc
 50
246.1944473398
 51
248.5534053042
  0
ARC
  5
430
100
AcDbEntity
  8
0
100
AcDbCircle
 62
9
  6
CONTINUOUS
 10
16.6390035586
 20
10.9010432893
 40
0.5252213666
100
AcDbArc
 50
267.1199585869
 51
269.9009969824
  0
ARC
  5
431
100
AcDbEntity
  8
0
100
AcDbCircle
 62
9
  6
CONTINUOUS
 10
19.3792931807
 20
10.2928896875
 40
0.3809503445
100
AcDbArc
 50
96.2833994888
 51
96.5946280851
  0
ARC
  5
432
100
AcDbEntity
  8
0
100
AcDbCircle
 62
9
  6
CONTINUOUS
 10
19.3791804409
 20
10.2938603404
 40
0.3799731663
100
AcDbArc
 50
96.5945496492
 51
97.1089252893
  0
ARC
  5
433
100
AcDbEntity
  8
0
100
AcDbCircle
 62
9
  6
CONTINUOUS
 10
18.8546073085
 20
10.7529407572
 40
0.3772282445
100
AcDbArc
 50
253.7576065477
 51
257.2579356624
  0
ARC
  5
434
100
AcDbEntity
  8
0
100
AcDbCircle
 62
9
  6
CONTINUOUS
 10
16.2995975283
 20
10.5885200449
 40
0.3090070604
100
AcDbArc
 50
269.9751656939
 51
275.1797036692
  0
ARC
  5
435
100
AcDbEntity
  8
0
100
AcDbCircle
 62
9
  6
CONTINUOUS
 10
16.8075897319
 20
10.3663287717
 40
0.3040143972
100
AcDbArc
 50
69.650108398
 51
70.0212180247
  0
ARC
  5
436
100
AcDbEntity
  8
0
100
AcDbCircle
 62
9
  6
CONTINUOUS
 10
16.8080994757
 20
10.3677294867
 40
0.3025238131
100
AcDbArc
 50
70.0213092609
 51
70.2851443512
  0
ARC
  5
437
100
AcDbEntity
  8
0
100
AcDbCircle
 62
9
  6
CONTINUOUS
 10
16.4704224688
 20
10.4773457714
 40
0.2669198798
100
AcDbArc
 50
90.1720262271
 51
94.6965626039
  0
ARC
  5
438
100
AcDbEntity
  8
0
100
AcDbCircle
 62
9
  6
CONTINUOUS
 10
19.0318871073
 20
10.4940567959
 40
0.2507573752
100
AcDbArc
 50
90.0654224778
 51
97.5370357128
  0
ARC
  5
439
100
AcDbEntity
  8
0
100
AcDbCircle
 62
7
  6
CONTINUOUS
 10
19.4616819367
 20
10.4917278081
 40
0.23
100
AcDbArc
 50
239.6028715785
 51
128.8675279394
  0
ARC
  5
43A
100
AcDbEntity
  8
0
100
AcDbCircle
 62
9
  6
CONTINUOUS
 10
18.8634668907
 20
10.4083930957
 40
0.2207370341
100
AcDbArc
 50
270.153983052
 51
273.8118399649
  0
ARC
  5
43B
100
AcDbEntity
  8
0
100
AcDbCircle
 62
9
  6
CONTINUOUS
 10
16.6388489194
 20
10.4036384016
 40
0.2153113281
100
AcDbArc
 50
270.148305772
 51
270.5988945461
  0
ARC
  5
43C
100
AcDbEntity
  8
0
100
AcDbCircle
 62
9
  6
CONTINUOUS
 10
17.4247816243
 20
10.6811191356
 40
0.1911860648
100
AcDbArc
 50
85.0996292349
 51
89.7620884815
  0
ARC
  5
43D
100
AcDbEntity
  8
0
100
AcDbCircle
 62
9
  6
CONTINUOUS
 10
17.914921784
 20
10.2795714462
 40
0.1877700775
100
AcDbArc
 50
258.9625112152
 51
269.7853701164
  0
ARC
  5
43E
100
AcDbEntity
  8
0
100
AcDbCircle
 62
9
  6
CONTINUOUS
 10
16.8071180886
 20
10.6708442735
 40
0.1864951976
100
AcDbArc
 50
92.7020546582
 51
93.7968659449
  0
ARC
  5
43F
100
AcDbEntity
  8
0
100
AcDbCircle
 62
9
  6
CONTINUOUS
 10
16.8069885078
 20
10.6736983233
 40
0.1836382124
100
AcDbArc
 50
90.016381863
 51
92.7036488843
  0
ARC
  5
440
100
AcDbEntity
  8
0
100
AcDbCircle
 62
7
  6
CONTINUOUS
 10
15.9633183383
 20
10.8820653081
 40
0.1653375
100
AcDbArc
 50
273.2695165906
 51
331.6756638894
  0
ARC
  5
441
100
AcDbEntity
  8
0
100
AcDbCircle
 62
9
  6
CONTINUOUS
 10
18.6907145791
 20
10.7072049821
 40
0.150604652
100
AcDbArc
 50
103.8453449009
 51
109.5352752351
  0
ARC
  5
442
100
AcDbEntity
  8
0
100
AcDbCircle
 62
9
  6
CONTINUOUS
 10
17.1074198475
 20
10.8492229206
 40
0.1336587476
100
AcDbArc
 50
90.1760885009
 51
97.7304683631
  0
ARC
  5
443
100
AcDbEntity
  8
0
100
AcDbCircle
 62
9
  6
CONTINUOUS
 10
18.3952698609
 20
10.8511450581
 40
0.1323558158
100
AcDbArc
 50
90.2176054428
 51
98.1243516689
  0
ARC
  5
444
100
AcDbEntity
  8
0
100
AcDbCircle
 62
9
  6
CONTINUOUS
 10
17.4248239003
 20
10.9360606146
 40
0.1237359314
100
AcDbArc
 50
90.1960791331
 51
90.7705329011
  0
ARC
  5
445
100
AcDbEntity
  8
0
100
AcDbCircle
 62
9
  6
CONTINUOUS
 10
18.0774048522
 20
10.9376813324
 40
0.1224493435
100
AcDbArc
 50
90.2490971835
 51
94.9164915569
  0
ARC
  5
446
100
AcDbEntity
  8
0
100
AcDbCircle
 62
9
  6
CONTINUOUS
 10
17.751339254
 20
10.9660441808
 40
0.1194325204
100
AcDbArc
 50
90.2346600257
 51
92.6857085923
  0
ARC
  5
447
100
AcDbEntity
  8
0
100
AcDbCircle
 62
7
  6
CONTINUOUS
 10
16.1643183383
 20
10.7737278081
 40
0.063
100
AcDbArc
 50
0.0
 51
151.6756638894
  0
ARC
  5
448
100
AcDbEntity
  8
0
100
AcDbCircle
 62
7
  6
CONTINUOUS
 10
15.9733183383
 20
10.2764424115
 40
0.01
100
AcDbArc
 50
180.0
 51
266.7304778879
  0
ARC
  5
449
100
AcDbEntity
  8
0
100
AcDbCircle
 62
7
  6
CONTINUOUS
 10
15.9733183383
 20
10.7070132047
 40
0.01
100
AcDbArc
 50
93.2695221121
 51
180.0
  0
SPLINE
  5
44A
100
AcDbEntity
  8
0
100
AcDbSpline
 62
7
  6
CONTINUOUS
 70
0
 71
3
 72
28
 73
24
 74
0
 42
0.0000001
 43
0.0000001
 44
0.0000000001
 40
0.0
 40
0.0
 40
0.0
 40
0.0
 40
0.0625983504
 40
0.0939229908
 40
0.1252410496
 40
0.1878367547
 40
0.2504202059
 40
0.3129904368
 40
0.3755399134
 40
0.4068160614
 40
0.4380872114
 40
0.5005946332
 40
0.5630784681
 40
0.5943209408
 40
0.6255577247
 40
0.6879969055
 40
0.7192181698
 40
0.7504349263
 40
0.812837513
 40
0.8752267932
 40
0.9064269167
 40
0.937625204
 40
1.0
 40
1.0
 40
1.0
 40
1.0
 10
11.0473183383
 20
3.2963498154
 30
0.0
 10
11.0575540578
 20
3.2963498154
 30
0.0
 10
11.0729253254
 20
3.297099037
 30
0.0
 10
11.0932590445
 20
3.299579273
 30
0.0
 10
11.1134491186
 20
3.3030460028
 30
0.0
 10
11.1383295799
 20
3.309212214
 30
0.0
 10
11.1673141201
 20
3.3194734598
 30
0.0
 10
11.1951599566
 20
3.3324943095
 30
0.0
 10
11.217199222
 20
3.3455516339
 30
0.0
 10
11.2339963503
 20
3.3572372116
 30
0.0
 10
11.2501982141
 20
3.3697239896
 30
0.0
 10
11.2692775111
 20
3.3867839463
 30
0.0
 10
11.2865984445
 20
3.4056202777
 30
0.0
 10
11.2992983268
 20
3.421636733
 30
0.0
 10
11.3111959123
 20
3.4382478666
 30
0.0
 10
11.3218610384
 20
3.455709659
 30
0.0
 10
11.3312021325
 20
3.4738742353
 30
0.0
 10
11.3396415643
 20
3.4924691681
 30
0.0
 10
11.3484712612
 20
3.5164480218
 30
0.0
 10
11.3549116097
 20
3.541173077
 30
0.0
 10
11.3585963532
 20
3.5612497512
 30
0.0
 10
11.3612923865
 20
3.5814788792
 30
0.0
 10
11.3621984331
 20
3.5967847789
 30
0.0
 10
11.3623019914
 20
3.6069834183
 30
0.0
  0
LINE
  5
44B
100
AcDbEntity
  8
0
100
AcDbLine
 62
7
  6
CONTINUOUS
 10
11.3623170555
 20
3.6093516305
 11
11.362318084
 21
3.6101511454
  0
LINE
  5
44C
100
AcDbEntity
  8
0
100
AcDbLine
 62
7
  6
CONTINUOUS
 10
10.7323185926
 20
3.6101511453
 11
10.7323196282
 21
3.6093456395
  0
LINE
  5
44D
100
AcDbEntity
  8
0
100
AcDbLine
 62
7
  6
CONTINUOUS
 10
10.7323196282
 20
3.6093456395
 11
10.7323225418
 21
3.6085797174
  0
SPLINE
  5
44E
100
AcDbEntity
  8
0
100
AcDbSpline
 62
7
  6
CONTINUOUS
 70
0
 71
3
 72
29
 73
25
 74
0
 42
0.0000001
 43
0.0000001
 44
0.0000000001
 40
0.0
 40
0.0
 40
0.0
 40
0.0
 40
0.0623841733
 40
0.1247722314
 40
0.1871682495
 40
0.2183781919
 40
0.2495913889
 40
0.2808082832
 40
0.312029074
 40
0.3432540856
 40
0.3744837708
 40
0.4369416369
 40
0.4994202765
 40
0.530675687
 40
0.5619365943
 40
0.6244587044
 40
0.6557350421
 40
0.6870161135
 40
0.7495771113
 40
0.812157534
 40
0.874750285
 40
0.9373536373
 40
0.9686726503
 40
1.0
 40
1.0
 40
1.0
 40
1.0
 10
10.7323225418
 20
3.6085797174
 30
0.0
 10
10.732370122
 20
3.5991233146
 30
0.0
 10
10.7333254947
 20
3.580202857
 30
0.0
 10
10.7373224059
 20
3.5520773527
 30
0.0
 10
10.742767451
 20
3.529029538
 30
0.0
 10
10.7483598791
 20
3.5109486638
 30
0.0
 10
10.7531675053
 20
3.4975877267
 30
0.0
 10
10.7585758612
 20
3.4844570381
 30
0.0
 10
10.7645738014
 20
3.4715829659
 30
0.0
 10
10.771150737
 20
3.4589923548
 30
0.0
 10
10.7806717105
 20
3.4426190394
 30
0.0
 10
10.793950894
 20
3.4229800727
 30
0.0
 10
10.8089562663
 20
3.404621586
 30
0.0
 10
10.8219165743
 20
3.390792158
 30
0.0
 10
10.8354939023
 20
3.3775594477
 30
0.0
 10
10.8499583951
 20
3.3652583418
 30
0.0
 10
10.8652041804
 20
3.3539777944
 30
0.0
 10
10.8809496168
 20
3.3433943345
 30
0.0
 10
10.9015076665
 20
3.3315093896
 30
0.0
 10
10.9273640613
 20
3.3195321454
 30
0.0
 10
10.9541985336
 20
3.3099262421
 30
0.0
 10
10.9771997456
 20
3.3039672585
 30
0.0
 10
10.9958632838
 20
3.3004559435
 30
0.0
 10
11.005269546
 20
3.2991227435
 30
0.0
 10
11.0099851272
 20
3.2985623291
 30
0.0
  0
LINE
  5
44F
100
AcDbEntity
  8
0
100
AcDbLine
 62
7
  6
CONTINUOUS
 10
11.0099851272
 20
3.2985623291
 11
11.0101899804
 21
3.2985380514
  0
SPLINE
  5
450
100
AcDbEntity
  8
0
100
AcDbSpline
 62
7
  6
CONTINUOUS
 70
0
 71
3
 72
45
 73
41
 74
0
 42
0.0000001
 43
0.0000001
 44
0.0000000001
 40
0.0
 40
0.0
 40
0.0
 40
0.0
 40
0.0312947931
 40
0.0626046378
 40
0.0782590471
 40
0.0939109564
 40
0.1252054541
 40
0.1564982293
 40
0.1877870649
 40
0.2190702157
 40
0.2503473916
 40
0.2659865044
 40
0.2816240486
 40
0.2972599343
 40
0.3128941582
 40
0.3441521626
 40
0.3597813753
 40
0.3754089539
 40
0.4066538256
 40
0.4378924393
 40
0.4691253699
 40
0.5003530625
 40
0.5315763051
 40
0.5627958054
 40
0.594012489
 40
0.6252272593
 40
0.6564410946
 40
0.6876550156
 40
0.7188699667
 40
0.7500869943
 40
0.7813069263
 40
0.8125307408
 40
0.8281470655
 40
0.8437646086
 40
0.8593835036
 40
0.8750037981
 40
0.9062432115
 40
0.9374889416
 40
0.9687411006
 40
1.0
 40
1.0
 40
1.0
 40
1.0
 10
11.0473183383
 20
3.1421862596
 30
0.0
 10
11.0357209377
 20
3.1421862596
 30
0.0
 10
11.0125119276
 20
3.1430560962
 30
0.0
 10
10.9836644072
 20
3.1463028186
 30
0.0
 10
10.9607826888
 20
3.1501898531
 30
0.0
 10
10.9380680508
 20
3.1549280925
 30
0.0
 10
10.910032755
 20
3.1624381989
 30
0.0
 10
10.8771659153
 20
3.1739385221
 30
0.0
 10
10.8452527147
 20
3.1878608024
 30
0.0
 10
10.8144775003
 20
3.2041298256
 30
0.0
 10
10.7899172489
 20
3.2195676713
 30
0.0
 10
10.7710119768
 20
3.2329908625
 30
0.0
 10
10.7572198101
 20
3.243581605
 30
0.0
 10
10.7438354675
 20
3.254680623
 30
0.0
 10
10.7265633291
 20
3.2701339576
 30
0.0
 10
10.7101732985
 20
3.2865473148
 30
0.0
 10
10.6947485588
 20
3.3038386973
 30
0.0
 10
10.6799873273
 20
3.3216941157
 30
0.0
 10
10.6628093379
 20
3.3450296541
 30
0.0
 10
10.6443630005
 20
3.3744936024
 30
0.0
 10
10.6281821551
 20
3.4052539043
 30
0.0
 10
10.6143625394
 20
3.4371384076
 30
0.0
 10
10.6029777657
 20
3.4699660081
 30
0.0
 10
10.5940970307
 20
3.5035533925
 30
0.0
 10
10.5877651671
 20
3.5377099582
 30
0.0
 10
10.5840236486
 20
3.5722442738
 30
0.0
 10
10.5828877686
 20
3.6069610765
 30
0.0
 10
10.5843697775
 20
3.6416649188
 30
0.0
 10
10.5884556624
 20
3.6761603511
 30
0.0
 10
10.5951276888
 20
3.7102526764
 30
0.0
 10
10.6043428457
 20
3.7437495573
 30
0.0
 10
10.6141034648
 20
3.7710127258
 30
0.0
 10
10.623121622
 20
3.7923343884
 30
0.0
 10
10.6304843185
 20
3.8080636878
 30
0.0
 10
10.6384339845
 20
3.8235062609
 30
0.0
 10
10.6497987626
 20
3.8436840234
 30
0.0
 10
10.6654182761
 20
3.8680878504
 30
0.0
 10
10.6863075066
 20
3.8958834043
 30
0.0
 10
10.7092270114
 20
3.9220383457
 30
0.0
 10
10.7257764972
 20
3.9382849888
 30
0.0
 10
10.7343411624
 20
3.9460848516
 30
0.0
  0
SPLINE
  5
451
100
AcDbEntity
  8
0
100
AcDbSpline
 62
7
  6
CONTINUOUS
 70
0
 71
3
 72
45
 73
41
 74
0
 42
0.0000001
 43
0.0000001
 44
0.0000000001
 40
0.0
 40
0.0
 40
0.0
 40
0.0
 40
0.0312588867
 40
0.0625110331
 40
0.0937567507
 40
0.1249961524
 40
0.1406164414
 40
0.1562353308
 40
0.1718528687
 40
0.1874691887
 40
0.2186929943
 40
0.2499129191
 40
0.2811299405
 40
0.3123448874
 40
0.3435588051
 40
0.3747726396
 40
0.4059874099
 40
0.4372040957
 40
0.4684235989
 40
0.4996468463
 40
0.5308745444
 40
0.5621074821
 40
0.5933461032
 40
0.6245909832
 40
0.6402185659
 40
0.6558477829
 40
0.687105796
 40
0.7027400241
 40
0.718375914
 40
0.7340134623
 40
0.749652579
 40
0.7809297625
 40
0.8122129203
 40
0.843501762
 40
0.8747945415
 40
0.9060890426
 40
0.9217409533
 40
0.9373953638
 40
0.9687052087
 40
1.0
 40
1.0
 40
1.0
 40
1.0
 10
11.3602966513
 20
3.9460838149
 30
0.0
 10
11.3688612753
 20
3.9382839376
 30
0.0
 10
11.3854106818
 20
3.922037273
 30
0.0
 10
11.4083300582
 20
3.8958823019
 30
0.0
 10
11.4292191752
 20
3.86808674
 30
0.0
 10
11.4448385849
 20
3.8436829072
 30
0.0
 10
11.4562032908
 20
3.8235051507
 30
0.0
 10
11.4641529033
 20
3.8080625838
 30
0.0
 10
11.4715155412
 20
3.7923332898
 30
0.0
 10
11.4805336289
 20
3.7710116404
 30
0.0
 10
11.4902941698
 20
3.7437484945
 30
0.0
 10
11.4995092254
 20
3.7102516443
 30
0.0
 10
11.5061811721
 20
3.6761593592
 30
0.0
 10
11.5102669718
 20
3.6416639703
 30
0.0
 10
11.5117489129
 20
3.6069601765
 30
0.0
 10
11.5106129665
 20
3.5722434255
 30
0.0
 10
11.5068713911
 20
3.5377091642
 30
0.0
 10
11.5005394802
 20
3.5035526541
 30
0.0
 10
11.4916586993
 20
3.4699653279
 30
0.0
 10
11.4802738957
 20
3.4371377835
 30
0.0
 10
11.4664542461
 20
3.4052533403
 30
0.0
 10
11.4502733854
 20
3.3744930925
 30
0.0
 10
11.4318270271
 20
3.3450292041
 30
0.0
 10
11.4146490347
 20
3.3216937087
 30
0.0
 10
11.3998878001
 20
3.3038383264
 30
0.0
 10
11.3844630567
 20
3.2865469818
 30
0.0
 10
11.3680730319
 20
3.2701336553
 30
0.0
 10
11.3508008973
 20
3.2546803549
 30
0.0
 10
11.3374165591
 20
3.243581362
 30
0.0
 10
11.3236244
 20
3.2329906418
 30
0.0
 10
11.3047191397
 20
3.2195674793
 30
0.0
 10
11.280158904
 20
3.2041296714
 30
0.0
 10
11.2493837165
 20
3.1878606842
 30
0.0
 10
11.2174705457
 20
3.1739384399
 30
0.0
 10
11.1846037422
 20
3.162438144
 30
0.0
 10
11.156568479
 20
3.154928058
 30
0.0
 10
11.133853869
 20
3.150189831
 30
0.0
 10
11.1109721803
 20
3.146302807
 30
0.0
 10
11.0821246995
 20
3.1430560938
 30
0.0
 10
11.0589157222
 20
3.1421862596
 30
0.0
 10
11.0473183383
 20
3.1421862596
 30
0.0
  0
LINE
  5
452
100
AcDbEntity
  8
0
100
AcDbLine
 62
7
  6
CONTINUOUS
 10
11.360138028
 20
3.5813238518
 11
11.3601522401
 21
3.5815395906
  0
LINE
  5
453
100
AcDbEntity
  8
0
100
AcDbLine
 62
7
  6
CONTINUOUS
 10
11.3608158513
 20
3.6006298392
 11
11.3608175978
 21
3.6011939099
  0
LINE
  5
454
100
AcDbEntity
  8
0
100
AcDbLine
 62
7
  6
CONTINUOUS
 10
11.3608175978
 20
3.6011939099
 11
11.3608183383
 21
3.6018713498
  0
LINE
  5
455
100
AcDbEntity
  8
0
100
AcDbLine
 62
7
  6
CONTINUOUS
 10
11.3608110526
 20
3.6039964444
 11
11.3608066711
 21
3.6045606822
  0
LINE
  5
456
100
AcDbEntity
  8
0
100
AcDbLine
 62
7
  6
CONTINUOUS
 10
11.3607224191
 20
3.6095846321
 11
11.3607119368
 21
3.6099953272
  0
LINE
  5
457
100
AcDbEntity
  8
0
100
AcDbLine
 62
7
  6
CONTINUOUS
 10
10.7339247398
 20
3.6099953271
 11
10.7339142541
 21
3.6095844975
  0
LINE
  5
458
100
AcDbEntity
  8
0
100
AcDbLine
 62
7
  6
CONTINUOUS
 10
10.7339142541
 20
3.6095844975
 11
10.7338961148
 21
3.6088167076
  0
LINE
  5
459
100
AcDbEntity
  8
0
100
AcDbLine
 62
7
  6
CONTINUOUS
 10
10.7338480966
 20
3.6061668165
 11
10.7338407613
 21
3.6055998789
  0
LINE
  5
45A
100
AcDbEntity
  8
0
100
AcDbLine
 62
7
  6
CONTINUOUS
 10
10.7338202336
 20
3.6029551605
 11
10.7338187715
 21
3.6023894687
  0
LINE
  5
45B
100
AcDbEntity
  8
0
100
AcDbLine
 62
7
  6
CONTINUOUS
 10
10.7338187715
 20
3.6023894687
 11
10.7338183383
 21
3.6018713498
  0
LINE
  5
45C
100
AcDbEntity
  8
0
100
AcDbLine
 62
7
  6
CONTINUOUS
 10
10.7338183383
 20
3.6018713498
 11
10.7338184638
 21
3.6015924222
  0
SPLINE
  5
45D
100
AcDbEntity
  8
0
100
AcDbSpline
 62
9
  6
CONTINUOUS
 70
0
 71
3
 72
38
 73
34
 74
0
 42
0.0000001
 43
0.0000001
 44
0.0000000001
 40
0.0
 40
0.0
 40
0.0
 40
0.0
 40
0.0313160084
 40
0.0626478503
 40
0.0939716319
 40
0.1252873134
 40
0.1878701584
 40
0.2504280921
 40
0.281715205
 40
0.312994565
 40
0.3442656249
 40
0.3755283387
 40
0.40678267
 40
0.4380289444
 40
0.4692674094
 40
0.5004987264
 40
0.5317234516
 40
0.5629425263
 40
0.5941567273
 40
0.625367195
 40
0.6565748445
 40
0.6877809531
 40
0.7189865255
 40
0.750192894
 40
0.7814010569
 40
0.8126122971
 40
0.8438275038
 40
0.8594393929
 40
0.8750526514
 40
0.9062788082
 40
0.9375117399
 40
0.9687519171
 40
1.0
 40
1.0
 40
1.0
 40
1.0
 10
11.0473183383
 20
3.2106770714
 30
0.0
 10
11.0379430718
 20
3.2106770714
 30
0.0
 10
11.0191812237
 20
3.2113346549
 30
0.0
 10
10.99118123
 20
3.2142790769
 30
0.0
 10
10.9634532727
 20
3.2191760312
 30
0.0
 10
10.9270566593
 20
3.2282635628
 30
0.0
 10
10.8828966279
 20
3.2443608329
 30
0.0
 10
10.841424408
 20
3.2664631718
 30
0.0
 10
10.8103761321
 20
3.2874659935
 30
0.0
 10
10.7882460384
 20
3.3048098908
 30
0.0
 10
10.7673936446
 20
3.323657923
 30
0.0
 10
10.7479173378
 20
3.3439148368
 30
0.0
 10
10.7299163076
 20
3.3654835967
 30
0.0
 10
10.7134760553
 20
3.3882555252
 30
0.0
 10
10.6986805762
 20
3.4121207812
 30
0.0
 10
10.6855996858
 20
3.4369599702
 30
0.0
 10
10.6743007525
 20
3.462652467
 30
0.0
 10
10.6648364993
 20
3.4890704708
 30
0.0
 10
10.6572563319
 20
3.5160850143
 30
0.0
 10
10.6515949124
 20
3.5435622946
 30
0.0
 10
10.6478826107
 20
3.5713676241
 30
0.0
 10
10.6461354257
 20
3.5993637344
 30
0.0
 10
10.6463640145
 20
3.6274130188
 30
0.0
 10
10.6485654325
 20
3.6553772734
 30
0.0
 10
10.6527304383
 20
3.6831190161
 30
0.0
 10
10.6588370415
 20
3.7105009413
 30
0.0
 10
10.6655202213
 20
3.7329093777
 30
0.0
 10
10.6718020963
 20
3.7505189263
 30
0.0
 10
10.6786997644
 20
3.767900052
 30
0.0
 10
10.6884647256
 20
3.7891584723
 30
0.0
 10
10.7019471125
 20
3.8137833775
 30
0.0
 10
10.7171287848
 20
3.8374055174
 30
0.0
 10
10.7283345048
 20
3.8524082535
 30
0.0
 10
10.7341919491
 20
3.8597024351
 30
0.0
  0
SPLINE
  5
45E
100
AcDbEntity
  8
0
100
AcDbSpline
 62
9
  6
CONTINUOUS
 70
0
 71
3
 72
38
 73
34
 74
0
 42
0.0000001
 43
0.0000001
 44
0.0000000001
 40
0.0
 40
0.0
 40
0.0
 40
0.0
 40
0.0312481095
 40
0.0624882868
 40
0.0937211994
 40
0.1249473321
 40
0.1405605803
 40
0.15617246
 40
0.187387656
 40
0.2185988943
 40
0.2498070555
 40
0.2810134175
 40
0.3122189719
 40
0.3434250515
 40
0.3746326643
 40
0.4058430954
 40
0.4370572648
 40
0.4682763191
 40
0.4995010275
 40
0.5307323269
 40
0.5619707561
 40
0.59321697
 40
0.6244712128
 40
0.6557338225
 40
0.6870047821
 40
0.7182840718
 40
0.7495711513
 40
0.8121291893
 40
0.8747122207
 40
0.9060280292
 40
0.93735199
 40
0.968683965
 40
1.0
 40
1.0
 40
1.0
 40
1.0
 10
11.3604546541
 20
3.8596900714
 30
0.0
 10
11.366311712
 20
3.852395781
 30
0.0
 10
11.3775166722
 20
3.8373928798
 30
0.0
 10
11.3926971492
 20
3.8137705594
 30
0.0
 10
11.4061784226
 20
3.7891456252
 30
0.0
 10
11.4159424213
 20
3.767887235
 30
0.0
 10
11.4228393753
 20
3.7505061958
 30
0.0
 10
11.4291205541
 20
3.7328967585
 30
0.0
 10
11.4358028439
 20
3.7104884955
 30
0.0
 10
11.4419085088
 20
3.6831068736
 30
0.0
 10
11.4460725615
 20
3.6553654922
 30
0.0
 10
11.4482731583
 20
3.6274016784
 30
0.0
 10
11.4485009281
 20
3.5993528993
 30
0.0
 10
11.4467530643
 20
3.5713573534
 30
0.0
 10
11.4430400957
 20
3.5435526442
 30
0.0
 10
11.4373781589
 20
3.5160760091
 30
0.0
 10
11.4297974877
 20
3.4890621497
 30
0.0
 10
11.4203328778
 20
3.4626448227
 30
0.0
 10
11.4090336075
 20
3.4369530341
 30
0.0
 10
11.3959525203
 20
3.4121145334
 30
0.0
 10
11.3811568805
 20
3.3882500014
 30
0.0
 10
11.3647166122
 20
3.3654787651
 30
0.0
 10
11.3467156064
 20
3.3439107309
 30
0.0
 10
11.3272394668
 20
3.3236544673
 30
0.0
 10
11.3063872531
 20
3.3048070999
 30
0.0
 10
11.2842574453
 20
3.2874637439
 30
0.0
 10
11.2532095115
 20
3.2664615962
 30
0.0
 10
11.2117378108
 20
3.2443599007
 30
0.0
 10
11.1675783721
 20
3.2282630703
 30
0.0
 10
11.1311822262
 20
3.2191757929
 30
0.0
 10
11.1034546164
 20
3.214278974
 30
0.0
 10
11.0754550114
 20
3.2113346453
 30
0.0
 10
11.0566934473
 20
3.2106770714
 30
0.0
 10
11.0473183383
 20
3.2106770714
 30
0.0
  0
SPLINE
  5
45F
100
AcDbEntity
  8
0
100
AcDbSpline
 62
7
  6
CONTINUOUS
 70
0
 71
3
 72
28
 73
24
 74
0
 42
0.0000001
 43
0.0000001
 44
0.0000000001
 40
0.0
 40
0.0
 40
0.0
 40
0.0
 40
0.0143570896
 40
0.0287457811
 40
0.0438299394
 40
0.0601039104
 40
0.077875766
 40
0.0973083701
 40
0.1184703937
 40
0.1413668081
 40
0.1659661795
 40
0.1922111221
 40
0.2493378126
 40
0.3120968826
 40
0.379692146
 40
0.4512376765
 40
0.5259367672
 40
0.6030637981
 40
0.6819226564
 40
0.7618144362
 40
0.842001741
 40
0.9216908029
 40
1.0
 40
1.0
 40
1.0
 40
1.0
 10
2.7570371102
 20
10.3119040644
 30
0.0
 10
2.756346472
 20
10.3121902276
 30
0.0
 10
2.7550254097
 20
10.312929924
 30
0.0
 10
2.7533447579
 20
10.3145025827
 30
0.0
 10
2.7519864216
 20
10.316478405
 30
0.0
 10
2.7509284896
 20
10.3188191733
 30
0.0
 10
2.7501477543
 20
10.3214996071
 30
0.0
 10
2.7496255085
 20
10.3244984956
 30
0.0
 10
2.7493469365
 20
10.3277961306
 30
0.0
 10
2.7492987117
 20
10.3313732333
 30
0.0
 10
2.7494696833
 20
10.335210915
 30
0.0
 10
2.7499913732
 20
10.3408104607
 30
0.0
 10
2.7511677485
 20
10.3483354075
 30
0.0
 10
2.7532594113
 20
10.3578751029
 30
0.0
 10
2.7559892127
 20
10.3680304466
 30
0.0
 10
2.7592402719
 20
10.3786815355
 30
0.0
 10
2.7629324013
 20
10.3897122157
 30
0.0
 10
2.7670063418
 20
10.4010130858
 30
0.0
 10
2.7714205948
 20
10.4124756381
 30
0.0
 10
2.7761459859
 20
10.4239860239
 30
0.0
 10
2.7811621704
 20
10.4354202507
 30
0.0
 10
2.7864555841
 20
10.4466381679
 30
0.0
 10
2.7902061008
 20
10.4539626687
 30
0.0
 10
2.7921285858
 20
10.4575585923
 30
0.0
  0
SPLINE
  5
460
100
AcDbEntity
  8
0
100
AcDbSpline
 62
9
  6
CONTINUOUS
 70
0
 71
3
 72
11
 73
7
 74
0
 42
0.0000001
 43
0.0000001
 44
0.0000000001
 40
0.0
 40
0.0
 40
0.0
 40
0.0
 40
0.2564403533
 40
0.5075913719
 40
0.7548833503
 40
1.0
 40
1.0
 40
1.0
 40
1.0
 10
5.2212463621
 20
10.7135867289
 30
0.0
 10
5.2193610715
 20
10.713645308
 30
0.0
 10
5.2156320105
 20
10.7139585595
 30
0.0
 10
5.2101740262
 20
10.7150404106
 30
0.0
 10
5.2049578194
 20
10.7167250696
 30
0.0
 10
5.2016616309
 20
10.7182519799
 30
0.0
 10
5.2000762904
 20
10.7191105739
 30
0.0
  0
SPLINE
  5
461
100
AcDbEntity
  8
0
100
AcDbSpline
 62
9
  6
CONTINUOUS
 70
0
 71
3
 72
12
 73
8
 74
0
 42
0.0000001
 43
0.0000001
 44
0.0000000001
 40
0.0
 40
0.0
 40
0.0
 40
0.0
 40
0.2723558049
 40
0.5276248149
 40
0.7687499039
 40
0.8853238946
 40
1.0
 40
1.0
 40
1.0
 40
1.0
 10
3.4399620852
 20
10.8844904781
 30
0.0
 10
3.447311439
 20
10.8899551788
 30
0.0
 10
3.4620271476
 20
10.8999275588
 30
0.0
 10
3.4849152216
 20
10.9120608404
 30
0.0
 10
3.5042781458
 20
10.9193390947
 30
0.0
 10
3.5196893333
 20
10.9232396412
 30
0.0
 10
3.527363192
 20
10.9245573816
 30
0.0
 10
3.5311872703
 20
10.9250537634
 30
0.0
  0
LINE
  5
462
100
AcDbEntity
  8
0
100
AcDbLine
 62
7
  6
CONTINUOUS
 10
2.7628582063
 20
10.3110966278
 11
2.760045661
 21
10.3111513709
  0
SPLINE
  5
463
100
AcDbEntity
  8
0
100
AcDbSpline
 62
7
  6
CONTINUOUS
 70
0
 71
3
 72
9
 73
5
 74
0
 42
0.0000001
 43
0.0000001
 44
0.0000000001
 40
0.0
 40
0.0
 40
0.0
 40
0.0
 40
0.2601316503
 40
1.0
 40
1.0
 40
1.0
 40
1.0
 10
2.760045661
 20
10.3111513709
 30
0.0
 10
2.7597780094
 20
10.3111819245
 30
0.0
 10
2.7587531724
 20
10.3113301062
 30
0.0
 10
2.7577449539
 20
10.3116107721
 30
0.0
 10
2.7570371102
 20
10.3119040644
 30
0.0
  0
SPLINE
  5
464
100
AcDbEntity
  8
0
100
AcDbSpline
 62
7
  6
CONTINUOUS
 70
0
 71
3
 72
15
 73
11
 74
0
 42
0.0000001
 43
0.0000001
 44
0.0000000001
 40
0.0
 40
0.0
 40
0.0
 40
0.0
 40
0.1396919816
 40
0.2767171229
 40
0.4098328881
 40
0.5382959818
 40
0.6618495785
 40
0.7801931007
 40
0.8930011478
 40
1.0
 40
1.0
 40
1.0
 40
1.0
 10
2.7570371102
 20
10.504522826
 30
0.0
 10
2.75798321
 20
10.5019157765
 30
0.0
 10
2.7600630163
 20
10.4968236491
 30
0.0
 10
2.7637077202
 20
10.4895406848
 30
0.0
 10
2.7677765584
 20
10.482744062
 30
0.0
 10
2.7721944949
 20
10.4764942204
 30
0.0
 10
2.776886354
 20
10.4708234885
 30
0.0
 10
2.7817838967
 20
10.4657528522
 30
0.0
 10
2.7868303258
 20
10.4613137825
 30
0.0
 10
2.7903548052
 20
10.4587275576
 30
0.0
 10
2.7921285858
 20
10.4575585923
 30
0.0
  0
SPLINE
  5
465
100
AcDbEntity
  8
0
100
AcDbSpline
 62
9
  6
CONTINUOUS
 70
0
 71
3
 72
13
 73
9
 74
0
 42
0.0000001
 43
0.0000001
 44
0.0000000001
 40
0.0
 40
0.0
 40
0.0
 40
0.0
 40
0.1164818734
 40
0.2340530835
 40
0.3535403308
 40
0.4756409088
 40
0.7295947015
 40
1.0
 40
1.0
 40
1.0
 40
1.0
 10
3.3946994762
 20
10.8832396385
 30
0.0
 10
3.3962900213
 20
10.8841079213
 30
0.0
 10
3.3996004742
 20
10.8856510364
 30
0.0
 10
3.4048449993
 20
10.8873491988
 30
0.0
 10
3.4103391761
 20
10.8884344512
 30
0.0
 10
3.4180363441
 20
10.8890682796
 30
0.0
 10
3.4281359726
 20
10.888245004
 30
0.0
 10
3.4360323978
 20
10.8859917816
 30
0.0
 10
3.4399620838
 20
10.884490477
 30
0.0
  0
SPLINE
  5
466
100
AcDbEntity
  8
0
100
AcDbSpline
 62
9
  6
CONTINUOUS
 70
0
 71
3
 72
24
 73
20
 74
0
 42
0.0000001
 43
0.0000001
 44
0.0000000001
 40
0.0
 40
0.0
 40
0.0
 40
0.0
 40
0.0685305901
 40
0.1400556998
 40
0.2136706848
 40
0.2884118485
 40
0.3632987997
 40
0.4373715149
 40
0.5097609203
 40
0.5797219971
 40
0.6465325394
 40
0.7095192141
 40
0.7681206584
 40
0.8219867492
 40
0.8712557863
 40
0.9166298617
 40
0.9590920342
 40
0.9796561635
 40
1.0
 40
1.0
 40
1.0
 40
1.0
 10
5.2449473961
 20
10.6815912219
 30
0.0
 10
5.2482372637
 20
10.6796469643
 30
0.0
 10
5.2547689388
 20
10.6753429747
 30
0.0
 10
5.2641521406
 20
10.6679819673
 30
0.0
 10
5.2732128908
 20
10.6597049142
 30
0.0
 10
5.2817892451
 20
10.6506677683
 30
0.0
 10
5.2897210943
 20
10.6410263932
 30
0.0
 10
5.2968468915
 20
10.630933232
 30
0.0
 10
5.3030143014
 20
10.6205450065
 30
0.0
 10
5.308155756
 20
10.6100617224
 30
0.0
 10
5.3122053245
 20
10.5996694115
 30
0.0
 10
5.3150983247
 20
10.5895521897
 30
0.0
 10
5.3167719486
 20
10.5798902679
 30
0.0
 10
5.317151409
 20
10.5708479623
 30
0.0
 10
5.3161754045
 20
10.5625834918
 30
0.0
 10
5.3139070374
 20
10.555233764
 30
0.0
 10
5.3109373814
 20
10.549905992
 30
0.0
 10
5.307992304
 20
10.5462971784
 30
0.0
 10
5.30634407
 20
10.5447103473
 30
0.0
 10
5.3054800727
 20
10.5439752124
 30
0.0
  0
SPLINE
  5
467
100
AcDbEntity
  8
0
100
AcDbSpline
 62
9
  6
CONTINUOUS
 70
0
 71
3
 72
11
 73
7
 74
0
 42
0.0000001
 43
0.0000001
 44
0.0000000001
 40
0.0
 40
0.0
 40
0.0
 40
0.0
 40
0.247099301
 40
0.4981764109
 40
0.7501683901
 40
1.0
 40
1.0
 40
1.0
 40
1.0
 10
3.4399620852
 20
10.5419784952
 30
0.0
 10
3.4497862412
 20
10.5577087162
 30
0.0
 10
3.4693083922
 20
10.589599905
 30
0.0
 10
3.4982451772
 20
10.6378988128
 30
0.0
 10
3.5271832158
 20
10.686435658
 30
0.0
 10
3.5466357378
 20
10.7186884968
 30
0.0
 10
3.5564230234
 20
10.7346826067
 30
0.0
  0
SPLINE
  5
468
100
AcDbEntity
  8
0
100
AcDbSpline
 62
9
  6
CONTINUOUS
 70
0
 71
3
 72
25
 73
21
 74
0
 42
0.0000001
 43
0.0000001
 44
0.0000000001
 40
0.0
 40
0.0
 40
0.0
 40
0.0
 40
0.0818661747
 40
0.1622369746
 40
0.2407496652
 40
0.3170540036
 40
0.3908165428
 40
0.4617266063
 40
0.5295103541
 40
0.5940003573
 40
0.6551163585
 40
0.7128361029
 40
0.7672136639
 40
0.7931993543
 40
0.8184182733
 40
0.8667137512
 40
0.912608061
 40
0.9567650522
 40
0.9784476255
 40
1.0
 40
1.0
 40
1.0
 40
1.0
 10
3.5564230234
 20
10.7346826067
 30
0.0
 10
3.5626018879
 20
10.7447799352
 30
0.0
 10
3.574928944
 20
10.7647401246
 30
0.0
 10
3.5935605488
 20
10.7941481553
 30
0.0
 10
3.6121903999
 20
10.8226014616
 30
0.0
 10
3.6308182599
 20
10.849907827
 30
0.0
 10
3.649444378
 20
10.8758752423
 30
0.0
 10
3.6680684849
 20
10.9003140548
 30
0.0
 10
3.6867022771
 20
10.9230390384
 30
0.0
 10
3.7053435444
 20
10.9438967741
 30
0.0
 10
3.7239889469
 20
10.9627589768
 30
0.0
 10
3.742642309
 20
10.9794988353
 30
0.0
 10
3.7584320749
 20
10.9917570201
 30
0.0
 10
3.7710769584
 20
11.0003213436
 30
0.0
 10
3.783355128
 20
11.007829221
 30
0.0
 10
3.7987534904
 20
11.0157221453
 30
0.0
 10
3.8175446824
 20
11.0227250218
 30
0.0
 10
3.8333438369
 20
11.0263609397
 30
0.0
 10
3.8458987817
 20
11.0278724054
 30
0.0
 10
3.8521501605
 20
11.0281711975
 30
0.0
 10
3.8552664381
 20
11.0282058674
 30
0.0
  0
SPLINE
  5
469
100
AcDbEntity
  8
0
100
AcDbSpline
 62
9
  6
CONTINUOUS
 70
0
 71
3
 72
52
 73
48
 74
0
 42
0.0000001
 43
0.0000001
 44
0.0000000001
 40
0.0
 40
0.0
 40
0.0
 40
0.0
 40
0.0092354647
 40
0.0186087892
 40
0.0282064385
 40
0.0381058848
 40
0.0483748046
 40
0.0590710486
 40
0.0702431696
 40
0.0819312789
 40
0.1069714407
 40
0.1203689045
 40
0.1343530251
 40
0.1489188273
 40
0.164057178
 40
0.1797555695
 40
0.195998742
 40
0.2300459547
 40
0.2660349454
 40
0.3037290229
 40
0.34284845
 40
0.3831013053
 40
0.424187636
 40
0.4657965407
 40
0.5075999532
 40
0.5492665585
 40
0.5904658362
 40
0.6308772774
 40
0.6702188498
 40
0.708225148
 40
0.7446405998
 40
0.7792239108
 40
0.811771772
 40
0.8272479523
 40
0.8421797902
 40
0.8565612564
 40
0.8703891679
 40
0.8836637803
 40
0.896389513
 40
0.9202311827
 40
0.9314038521
 40
0.9421257285
 40
0.9623940315
 40
0.9720660437
 40
0.9815099369
 40
0.9907962853
 40
1.0
 40
1.0
 40
1.0
 40
1.0
 10
4.3488937073
 20
9.8981101004
 30
0.0
 10
4.3530155216
 20
9.8983033402
 30
0.0
 10
4.3613063486
 20
9.8991233078
 30
0.0
 10
4.3736796845
 20
9.9016133144
 30
0.0
 10
4.3860448257
 20
9.9053504348
 30
0.0
 10
4.3983994136
 20
9.9103163384
 30
0.0
 10
4.4107444713
 20
9.9164932471
 30
0.0
 10
4.4230809644
 20
9.9238640509
 30
0.0
 10
4.4354107597
 20
9.9324125173
 30
0.0
 10
4.4522294027
 20
9.945664746
 30
0.0
 10
4.468624264
 20
9.9609870091
 30
0.0
 10
4.4846745125
 20
9.9780486617
 30
0.0
 10
4.4969818613
 20
9.9921896956
 30
0.0
 10
4.5092879167
 20
10.0073455025
 30
0.0
 10
4.5215939767
 20
10.0234755212
 30
0.0
 10
4.5339002344
 20
10.0405378137
 30
0.0
 10
4.5505707419
 20
10.0648585287
 30
0.0
 10
4.5713312681
 20
10.0973524153
 30
0.0
 10
4.5958570292
 20
10.1387761742
 30
0.0
 10
4.6203836941
 20
10.1828101987
 30
0.0
 10
4.6449185227
 20
10.2290060701
 30
0.0
 10
4.6694591754
 20
10.2769070525
 30
0.0
 10
4.6940026044
 20
10.3260522321
 30
0.0
 10
4.718543905
 20
10.375971127
 30
0.0
 10
4.7430860323
 20
10.4261781696
 30
0.0
 10
4.7676274475
 20
10.4761818907
 30
0.0
 10
4.7921675549
 20
10.5254930038
 30
0.0
 10
4.8167155136
 20
10.5736377902
 30
0.0
 10
4.8412607231
 20
10.6201781461
 30
0.0
 10
4.8657993652
 20
10.6646953574
 30
0.0
 10
4.8903305003
 20
10.7067758756
 30
0.0
 10
4.914856456
 20
10.746014103
 30
0.0
 10
4.9356488022
 20
10.7765249992
 30
0.0
 10
4.9523418193
 20
10.7991679183
 30
0.0
 10
4.9646509003
 20
10.8149496127
 30
0.0
 10
4.9769602289
 20
10.8297867574
 30
0.0
 10
4.9892700333
 20
10.8436482715
 30
0.0
 10
5.0015817959
 20
10.8565043431
 30
0.0
 10
5.0176501285
 20
10.8719275803
 30
0.0
 10
5.0340607598
 20
10.8856275816
 30
0.0
 10
5.0508670553
 20
10.8972746405
 30
0.0
 10
5.0670090301
 20
10.9070018228
 30
0.0
 10
5.083519181
 20
10.9147764628
 30
0.0
 10
5.100251332
 20
10.920279561
 30
0.0
 10
5.1126153181
 20
10.92321075
 30
0.0
 10
5.1249829157
 20
10.9250025051
 30
0.0
 10
5.133246716
 20
10.9254350907
 30
0.0
 10
5.1373587997
 20
10.9254594627
 30
0.0
  0
SPLINE
  5
46A
100
AcDbEntity
  8
0
100
AcDbSpline
 62
9
  6
CONTINUOUS
 70
0
 71
3
 72
9
 73
5
 74
0
 42
0.0000001
 43
0.0000001
 44
0.0000000001
 40
0.0
 40
0.0
 40
0.0
 40
0.0
 40
0.502364726
 40
1.0
 40
1.0
 40
1.0
 40
1.0
 10
3.3222615444
 20
10.3205546011
 30
0.0
 10
3.3350013069
 20
10.3181378741
 30
0.0
 10
3.3605510857
 20
10.314253816
 30
0.0
 10
3.3863765761
 20
10.3127946997
 30
0.0
 10
3.3992214627
 20
10.3127949289
 30
0.0
  0
SPLINE
  5
46B
100
AcDbEntity
  8
0
100
AcDbSpline
 62
9
  6
CONTINUOUS
 70
0
 71
3
 72
9
 73
5
 74
0
 42
0.0000001
 43
0.0000001
 44
0.0000000001
 40
0.0
 40
0.0
 40
0.0
 40
0.0
 40
0.4867339275
 40
1.0
 40
1.0
 40
1.0
 40
1.0
 10
3.6776698671
 20
10.7033724383
 30
0.0
 10
3.6869962149
 20
10.698182714
 30
0.0
 10
3.7056573113
 20
10.6866080366
 30
0.0
 10
3.7233433528
 20
10.673611176
 30
0.0
 10
3.7321925174
 20
10.6666567669
 30
0.0
  0
SPLINE
  5
46C
100
AcDbEntity
  8
0
100
AcDbSpline
 62
9
  6
CONTINUOUS
 70
0
 71
3
 72
9
 73
5
 74
0
 42
0.0000001
 43
0.0000001
 44
0.0000000001
 40
0.0
 40
0.0
 40
0.0
 40
0.0
 40
0.4940130175
 40
1.0
 40
1.0
 40
1.0
 40
1.0
 10
3.8669846967
 20
10.5291386015
 30
0.0
 10
3.8793012071
 20
10.5142280019
 30
0.0
 10
3.9037684086
 20
10.4836614124
 30
0.0
 10
3.9276539964
 20
10.4526436061
 30
0.0
 10
3.9396822973
 20
10.4369053295
 30
0.0
  0
SPLINE
  5
46D
100
AcDbEntity
  8
0
100
AcDbSpline
 62
9
  6
CONTINUOUS
 70
0
 71
3
 72
10
 73
6
 74
0
 42
0.0000001
 43
0.0000001
 44
0.0000000001
 40
0.0
 40
0.0
 40
0.0
 40
0.0
 40
0.2595722434
 40
0.513292772
 40
1.0
 40
1.0
 40
1.0
 40
1.0
 10
4.0619984874
 20
10.279344491
 30
0.0
 10
4.0681503041
 20
10.2718775098
 30
0.0
 10
4.0804301343
 20
10.2572052583
 30
0.0
 10
4.104902462
 20
10.2290927051
 30
0.0
 10
4.1237470512
 20
10.2089043285
 30
0.0
 10
4.136573149
 20
10.1960759005
 30
0.0
  0
SPLINE
  5
46E
100
AcDbEntity
  8
0
100
AcDbSpline
 62
9
  6
CONTINUOUS
 70
0
 71
3
 72
9
 73
5
 74
0
 42
0.0000001
 43
0.0000001
 44
0.0000000001
 40
0.0
 40
0.0
 40
0.0
 40
0.0
 40
0.5045898548
 40
1.0
 40
1.0
 40
1.0
 40
1.0
 10
4.2935177365
 20
10.0923293727
 30
0.0
 10
4.3016918673
 20
10.0900973001
 30
0.0
 10
4.3181826454
 20
10.0866620679
 30
0.0
 10
4.3349946286
 20
10.0854777684
 30
0.0
 10
4.34331388
 20
10.085478672
 30
0.0
  0
SPLINE
  5
46F
100
AcDbEntity
  8
0
100
AcDbSpline
 62
9
  6
CONTINUOUS
 70
0
 71
3
 72
22
 73
18
 74
0
 42
0.0000001
 43
0.0000001
 44
0.0000000001
 40
0.0
 40
0.0
 40
0.0
 40
0.0
 40
0.0494052044
 40
0.0995807105
 40
0.1511838596
 40
0.2046638503
 40
0.3180549548
 40
0.3783945141
 40
0.4411450849
 40
0.5062825388
 40
0.573592267
 40
0.6427179487
 40
0.7132358715
 40
0.7846857021
 40
0.8565960877
 40
0.9285079032
 40
1.0
 40
1.0
 40
1.0
 40
1.0
 10
5.290320666
 20
10.8834040432
 30
0.0
 10
5.2923768795
 20
10.8822549284
 30
0.0
 10
5.2963387667
 20
10.8795914778
 30
0.0
 10
5.3015889973
 20
10.8746093564
 30
0.0
 10
5.3061333433
 20
10.8687313282
 30
0.0
 10
5.3113039627
 20
10.8596577784
 30
0.0
 10
5.3147794795
 20
10.8492685497
 30
0.0
 10
5.3165938989
 20
10.838128366
 30
0.0
 10
5.3171097755
 20
10.8291511894
 30
0.0
 10
5.3167108507
 20
10.8198395073
 30
0.0
 10
5.3154350949
 20
10.8103020133
 30
0.0
 10
5.3133208858
 20
10.8006533954
 30
0.0
 10
5.310405259
 20
10.7910103327
 30
0.0
 10
5.3067252772
 20
10.7814901683
 30
0.0
 10
5.3023171658
 20
10.7722106141
 30
0.0
 10
5.297218937
 20
10.7632891
 30
0.0
 10
5.293362122
 20
10.7576332124
 30
0.0
 10
5.2913312271
 20
10.7548957281
 30
0.0
  0
SPLINE
  5
470
100
AcDbEntity
  8
0
100
AcDbSpline
 62
9
  6
CONTINUOUS
 70
0
 71
3
 72
21
 73
17
 74
0
 42
0.0000001
 43
0.0000001
 44
0.0000000001
 40
0.0
 40
0.0
 40
0.0
 40
0.0
 40
0.1799909634
 40
0.3482169647
 40
0.4269950795
 40
0.5017300339
 40
0.5720897333
 40
0.6377759112
 40
0.6985413817
 40
0.7542169572
 40
0.8048007127
 40
0.8506270686
 40
0.892225683
 40
0.9303151575
 40
0.9658447805
 40
1.0
 40
1.0
 40
1.0
 40
1.0
 10
5.2449473961
 20
10.2157588248
 30
0.0
 10
5.2486060753
 20
10.2130450459
 30
0.0
 10
5.2558474872
 20
10.2080104541
 30
0.0
 10
5.2651206699
 20
10.2024422212
 30
0.0
 10
5.2723368583
 20
10.1986655878
 30
0.0
 10
5.2774653193
 20
10.1962526099
 30
0.0
 10
5.282396604
 20
10.1942121218
 30
0.0
 10
5.2870985787
 20
10.1925598379
 30
0.0
 10
5.2915394509
 20
10.1913114171
 30
0.0
 10
5.2956895934
 20
10.1904817328
 30
0.0
 10
5.2995253508
 20
10.1900879808
 30
0.0
 10
5.3030267288
 20
10.1901255808
 30
0.0
 10
5.3061809179
 20
10.1905880877
 30
0.0
 10
5.3089753095
 20
10.1914723584
 30
0.0
 10
5.3113912863
 20
10.1927753881
 30
0.0
 10
5.312745343
 20
10.1939307691
 30
0.0
 10
5.3133368032
 20
10.1945611527
 30
0.0
  0
SPLINE
  5
471
100
AcDbEntity
  8
0
100
AcDbSpline
 62
9
  6
CONTINUOUS
 70
0
 71
3
 72
45
 73
41
 74
0
 42
0.0000001
 43
0.0000001
 44
0.0000000001
 40
0.0
 40
0.0
 40
0.0
 40
0.0
 40
0.0202016092
 40
0.0417946738
 40
0.0650419387
 40
0.0901251223
 40
0.1171624766
 40
0.1314329368
 40
0.1461962349
 40
0.1771555961
 40
0.2099359215
 40
0.2444049786
 40
0.2804127954
 40
0.3177751546
 40
0.3562567081
 40
0.3956095358
 40
0.4355802281
 40
0.4759117935
 40
0.5163399197
 40
0.5565901423
 40
0.5963879801
 40
0.635461564
 40
0.6735458435
 40
0.7104075134
 40
0.7458374262
 40
0.7796386806
 40
0.8116314226
 40
0.8416606399
 40
0.869634975
 40
0.8955558816
 40
0.9077662935
 40
0.9194927222
 40
0.930755437
 40
0.9415814188
 40
0.9520054087
 40
0.9620712185
 40
0.9718352794
 40
0.9813633368
 40
0.9907265004
 40
1.0
 40
1.0
 40
1.0
 40
1.0
 10
3.454282358
 20
10.1343154187
 30
0.0
 10
3.4620395241
 20
10.1370563444
 30
0.0
 10
3.477665809
 20
10.1439697713
 30
0.0
 10
3.5003586576
 20
10.1577421591
 30
0.0
 10
3.5230015817
 20
10.1750893313
 30
0.0
 10
3.5456077514
 20
10.1959014772
 30
0.0
 10
3.5640785631
 20
10.2156777248
 30
0.0
 10
3.5788798975
 20
10.2330692987
 30
0.0
 10
3.5941889338
 20
10.252114469
 30
0.0
 10
3.6132612967
 20
10.2777882519
 30
0.0
 10
3.6358023736
 20
10.3108369953
 30
0.0
 10
3.6583481257
 20
10.3463415202
 30
0.0
 10
3.6808917804
 20
10.3840367426
 30
0.0
 10
3.7034262779
 20
10.4236274348
 30
0.0
 10
3.7259654735
 20
10.464774383
 30
0.0
 10
3.7485078897
 20
10.5071259829
 30
0.0
 10
3.7710529523
 20
10.5503273044
 30
0.0
 10
3.7935979509
 20
10.5940217391
 30
0.0
 10
3.8161402882
 20
10.6378455236
 30
0.0
 10
3.8386818452
 20
10.6814252834
 30
0.0
 10
3.8612216218
 20
10.7243843454
 30
0.0
 10
3.8837581485
 20
10.7663471779
 30
0.0
 10
3.9062989122
 20
10.8069463293
 30
0.0
 10
3.9288397923
 20
10.8458408186
 30
0.0
 10
3.9513751057
 20
10.8827108228
 30
0.0
 10
3.9739053057
 20
10.9172419959
 30
0.0
 10
3.9964296313
 20
10.9491230648
 30
0.0
 10
4.0189621622
 20
10.9780515939
 30
0.0
 10
4.0415206939
 20
11.0037573499
 30
0.0
 10
4.0606993831
 20
11.0226968665
 30
0.0
 10
4.0760822014
 20
11.0359606846
 30
0.0
 10
4.0873924152
 20
11.0447789879
 30
0.0
 10
4.0987063564
 20
11.0526436892
 30
0.0
 10
4.1100255348
 20
11.0595310783
 30
0.0
 10
4.1213510315
 20
11.0654179296
 30
0.0
 10
4.1326863174
 20
11.0702781424
 30
0.0
 10
4.1440297691
 20
11.0740988967
 30
0.0
 10
4.1553793375
 20
11.0768777697
 30
0.0
 10
4.166732698
 20
11.0786111094
 30
0.0
 10
4.1743213848
 20
11.0790688006
 30
0.0
 10
4.1780976752
 20
11.0791217543
 30
0.0
  0
SPLINE
  5
472
100
AcDbEntity
  8
0
100
AcDbSpline
 62
9
  6
CONTINUOUS
 70
0
 71
3
 72
9
 73
5
 74
0
 42
0.0000001
 43
0.0000001
 44
0.0000000001
 40
0.0
 40
0.0
 40
0.0
 40
0.0
 40
0.2484094989
 40
1.0
 40
1.0
 40
1.0
 40
1.0
 10
3.3694824002
 20
10.3548565628
 30
0.0
 10
3.3740122703
 20
10.3515778578
 30
0.0
 10
3.3921923601
 20
10.3383024195
 30
0.0
 10
3.4101917189
 20
10.3247816515
 30
0.0
 10
3.4236861269
 20
10.3145761039
 30
0.0
  0
SPLINE
  5
473
100
AcDbEntity
  8
0
100
AcDbSpline
 62
9
  6
CONTINUOUS
 70
0
 71
3
 72
9
 73
5
 74
0
 42
0.0000001
 43
0.0000001
 44
0.0000000001
 40
0.0
 40
0.0
 40
0.0
 40
0.0
 40
0.4965950012
 40
1.0
 40
1.0
 40
1.0
 40
1.0
 10
5.1388578198
 20
10.7379610957
 30
0.0
 10
5.1494517036
 20
10.7379338286
 30
0.0
 10
5.170797454
 20
10.7364947184
 30
0.0
 10
5.1918251125
 20
10.7326651621
 30
0.0
 10
5.2022894721
 20
10.7302511323
 30
0.0
  0
SPLINE
  5
474
100
AcDbEntity
  8
0
100
AcDbSpline
 62
9
  6
CONTINUOUS
 70
0
 71
3
 72
9
 73
5
 74
0
 42
0.0000001
 43
0.0000001
 44
0.0000000001
 40
0.0
 40
0.0
 40
0.0
 40
0.0
 40
0.2480515859
 40
1.0
 40
1.0
 40
1.0
 40
1.0
 10
5.2022894721
 20
10.7302511323
 30
0.0
 10
5.2046853954
 20
10.7296984152
 30
0.0
 10
5.2143204473
 20
10.7273670267
 30
0.0
 10
5.223858667
 20
10.7246410378
 30
0.0
 10
5.2309692524
 20
10.7224052362
 30
0.0
  0
SPLINE
  5
475
100
AcDbEntity
  8
0
100
AcDbSpline
 62
9
  6
CONTINUOUS
 70
0
 71
3
 72
23
 73
19
 74
0
 42
0.0000001
 43
0.0000001
 44
0.0000000001
 40
0.0
 40
0.0
 40
0.0
 40
0.0
 40
0.0463897926
 40
0.0936858465
 40
0.142266491
 40
0.1925084078
 40
0.2447678302
 40
0.2993354343
 40
0.3564548624
 40
0.4163340408
 40
0.4791362926
 40
0.5449263156
 40
0.6137124845
 40
0.6854738342
 40
0.7601558491
 40
0.8376092183
 40
0.9176307124
 40
1.0
 40
1.0
 40
1.0
 40
1.0
 10
3.0956406694
 20
10.2408079179
 30
0.0
 10
3.1028628592
 20
10.2417657763
 30
0.0
 10
3.1173708134
 20
10.2443445793
 30
0.0
 10
3.1389700736
 20
10.2501627076
 30
0.0
 10
3.1605642333
 20
10.2580075556
 30
0.0
 10
3.1821467617
 20
10.2679265148
 30
0.0
 10
3.2037073642
 20
10.2799583114
 30
0.0
 10
3.2252538686
 20
10.2940900468
 30
0.0
 10
3.2467895457
 20
10.3103113161
 30
0.0
 10
3.2683153597
 20
10.3286096423
 30
0.0
 10
3.2898214302
 20
10.3489646958
 30
0.0
 10
3.3113204221
 20
10.3713091531
 30
0.0
 10
3.332816782
 20
10.3955682038
 30
0.0
 10
3.3543113182
 20
10.4216633788
 30
0.0
 10
3.3757933783
 20
10.449507366
 30
0.0
 10
3.3972722334
 20
10.4789735337
 30
0.0
 10
3.4187525917
 20
10.5099188063
 30
0.0
 10
3.432883082
 20
10.5311513802
 30
0.0
 10
3.4399620849
 20
10.5419784947
 30
0.0
  0
SPLINE
  5
476
100
AcDbEntity
  8
0
100
AcDbSpline
 62
9
  6
CONTINUOUS
 70
0
 71
3
 72
25
 73
21
 74
0
 42
0.0000001
 43
0.0000001
 44
0.0000000001
 40
0.0
 40
0.0
 40
0.0
 40
0.0
 40
0.0058665793
 40
0.0127066165
 40
0.0211732654
 40
0.0315761442
 40
0.0440417
 40
0.0586125044
 40
0.0752892064
 40
0.0940499117
 40
0.1376715127
 40
0.1891254481
 40
0.2479936885
 40
0.3138308938
 40
0.3861661358
 40
0.4642785197
 40
0.5472101064
 40
0.6339878428
 40
0.8151695958
 40
1.0
 40
1.0
 40
1.0
 40
1.0
 10
3.368324376
 20
10.6175337824
 30
0.0
 10
3.3681919611
 20
10.6173753965
 30
0.0
 10
3.367984409
 20
10.6169621586
 30
0.0
 10
3.3679200854
 20
10.6162086298
 30
0.0
 10
3.3680619578
 20
10.6153098319
 30
0.0
 10
3.3683996984
 20
10.6142572173
 30
0.0
 10
3.3689305174
 20
10.613049642
 30
0.0
 10
3.3696520942
 20
10.6116899781
 30
0.0
 10
3.3705614952
 20
10.6101825833
 30
0.0
 10
3.3720996036
 20
10.6078635593
 30
0.0
 10
3.3744878736
 20
10.6046443273
 30
0.0
 10
3.3779116065
 20
10.6004446139
 30
0.0
 10
3.3819951008
 20
10.5957791238
 30
0.0
 10
3.3867066961
 20
10.5906909279
 30
0.0
 10
3.392009798
 20
10.5852306048
 30
0.0
 10
3.3978485543
 20
10.5794544677
 30
0.0
 10
3.4041510524
 20
10.5734263187
 30
0.0
 10
3.4132017618
 20
10.5650260475
 30
0.0
 10
3.4251040948
 20
10.5544298842
 30
0.0
 10
3.434939212
 20
10.5461107319
 30
0.0
 10
3.4399620838
 20
10.5419784929
 30
0.0
  0
SPLINE
  5
477
100
AcDbEntity
  8
0
100
AcDbSpline
 62
7
  6
CONTINUOUS
 70
0
 71
3
 72
24
 73
20
 74
0
 42
0.0000001
 43
0.0000001
 44
0.0000000001
 40
0.0
 40
0.0
 40
0.0
 40
0.0
 40
0.2403323255
 40
0.4469944241
 40
0.619860943
 40
0.6937007656
 40
0.7592844537
 40
0.8167222759
 40
0.8661238813
 40
0.9075982937
 40
0.9412538605
 40
0.955183488
 40
0.9671991296
 40
0.9773145664
 40
0.9855438746
 40
0.9919017934
 40
0.9964048427
 40
0.9990762477
 40
1.0
 40
1.0
 40
1.0
 40
1.0
 10
2.7570371102
 20
10.6794593077
 30
0.0
 10
2.7563909071
 20
10.6802920653
 30
0.0
 10
2.7551972236
 20
10.6818472981
 30
0.0
 10
2.7535666669
 20
10.6840227466
 30
0.0
 10
2.7523924125
 20
10.6856274757
 30
0.0
 10
2.7515940943
 20
10.6867404448
 30
0.0
 10
2.7510953028
 20
10.6874452124
 30
0.0
 10
2.7506625312
 20
10.6880653707
 30
0.0
 10
2.7502940502
 20
10.6886014386
 30
0.0
 10
2.7499881116
 20
10.6890538859
 30
0.0
 10
2.7497721541
 20
10.6893794051
 30
0.0
 10
2.7496297281
 20
10.689598548
 30
0.0
 10
2.7495444552
 20
10.689731874
 30
0.0
 10
2.7494738929
 20
10.6898444459
 30
0.0
 10
2.7494170316
 20
10.6899376404
 30
0.0
 10
2.7493757953
 20
10.6900081002
 30
0.0
 10
2.7493447507
 20
10.6900641139
 30
0.0
 10
2.7493336993
 20
10.6900892509
 30
0.0
 10
2.7493243443
 20
10.6901116309
 30
0.0
 10
2.7493281557
 20
10.690113005
 30
0.0
  0
SPLINE
  5
478
100
AcDbEntity
  8
0
100
AcDbSpline
 62
9
  6
CONTINUOUS
 70
0
 71
3
 72
11
 73
7
 74
0
 42
0.0000001
 43
0.0000001
 44
0.0000000001
 40
0.0
 40
0.0
 40
0.0
 40
0.0
 40
0.2570438313
 40
0.5084074732
 40
0.7554203959
 40
1.0
 40
1.0
 40
1.0
 40
1.0
 10
3.608651032
 20
10.2049166178
 30
0.0
 10
3.6160763725
 20
10.2021851444
 30
0.0
 10
3.6309512897
 20
10.1972736189
 30
0.0
 10
3.6535590228
 20
10.1917263684
 30
0.0
 10
3.6761963924
 20
10.1882646459
 30
0.0
 10
3.6913367071
 20
10.1874617201
 30
0.0
 10
3.6988648448
 20
10.1874457924
 30
0.0
  0
SPLINE
  5
479
100
AcDbEntity
  8
0
100
AcDbSpline
 62
9
  6
CONTINUOUS
 70
0
 71
3
 72
17
 73
13
 74
0
 42
0.0000001
 43
0.0000001
 44
0.0000000001
 40
0.0
 40
0.0
 40
0.0
 40
0.0
 40
0.0492004561
 40
0.0988206927
 40
0.1493295481
 40
0.2011951978
 40
0.3103778474
 40
0.4285692369
 40
0.5566703445
 40
0.6948443928
 40
0.8428024758
 40
1.0
 40
1.0
 40
1.0
 40
1.0
 10
5.1844058198
 20
10.6869658936
 30
0.0
 10
5.1852115866
 20
10.6876520673
 30
0.0
 10
5.1869105953
 20
10.6889387801
 30
0.0
 10
5.1896831204
 20
10.6905741169
 30
0.0
 10
5.1926764816
 20
10.6919071122
 30
0.0
 10
5.1970220748
 20
10.6932858131
 30
0.0
 10
5.2030034897
 20
10.6941780584
 30
0.0
 10
5.210676974
 20
10.6939930735
 30
0.0
 10
5.2188561128
 20
10.6926160166
 30
0.0
 10
5.2274173153
 20
10.6900781888
 30
0.0
 10
5.2362359376
 20
10.6864080542
 30
0.0
 10
5.2420363032
 20
10.6833116269
 30
0.0
 10
5.2449473944
 20
10.6815912199
 30
0.0
  0
SPLINE
  5
47A
100
AcDbEntity
  8
0
100
AcDbSpline
 62
9
  6
CONTINUOUS
 70
0
 71
3
 72
36
 73
32
 74
0
 42
0.0000001
 43
0.0000001
 44
0.0000000001
 40
0.0
 40
0.0
 40
0.0
 40
0.0
 40
0.0184926778
 40
0.0374013763
 40
0.0570611674
 40
0.0777416103
 40
0.0996490244
 40
0.122933748
 40
0.1476996652
 40
0.1739998679
 40
0.2018222496
 40
0.2311219291
 40
0.2618330318
 40
0.2938740351
 40
0.3271516471
 40
0.3615633212
 40
0.3969845319
 40
0.4332636842
 40
0.4702428414
 40
0.5077605876
 40
0.5837546958
 40
0.6599245664
 40
0.7349596606
 40
0.7716481875
 40
0.8075730968
 40
0.84258379
 40
0.8765558435
 40
0.9093800745
 40
0.9409547381
 40
0.9711877874
 40
1.0
 40
1.0
 40
1.0
 40
1.0
 10
4.6714767685
 20
9.9236702594
 30
0.0
 10
4.6774719193
 20
9.9237508894
 30
0.0
 10
4.6896030275
 20
9.924803443
 30
0.0
 10
4.707671647
 20
9.9290265975
 30
0.0
 10
4.7256972107
 20
9.9358066361
 30
0.0
 10
4.7436797008
 20
9.9450529858
 30
0.0
 10
4.7616293711
 20
9.9566823689
 30
0.0
 10
4.7795558732
 20
9.9706172761
 30
0.0
 10
4.7974627067
 20
9.9867832451
 30
0.0
 10
4.8153476849
 20
10.0050870444
 30
0.0
 10
4.8332281232
 20
10.0253941969
 30
0.0
 10
4.8511070239
 20
10.0475690203
 30
0.0
 10
4.8689863615
 20
10.0714726044
 30
0.0
 10
4.886866807
 20
10.0969660107
 30
0.0
 10
4.9047490905
 20
10.1239092723
 30
0.0
 10
4.9226290482
 20
10.1521590258
 30
0.0
 10
4.9405049682
 20
10.1815556534
 30
0.0
 10
4.9583829368
 20
10.2119204777
 30
0.0
 10
4.9762623398
 20
10.2430702759
 30
0.0
 10
5.0002044075
 20
10.2855848812
 30
0.0
 10
5.0299364554
 20
10.3394193273
 30
0.0
 10
5.0654714479
 20
10.4039434972
 30
0.0
 10
5.0952941539
 20
10.4570657956
 30
0.0
 10
5.1193126551
 20
10.4984758542
 30
0.0
 10
5.1371907823
 20
10.528443065
 30
0.0
 10
5.1550732072
 20
10.5573779448
 30
0.0
 10
5.1729562604
 20
10.5851244648
 30
0.0
 10
5.1908374644
 20
10.6115380954
 30
0.0
 10
5.2087173269
 20
10.6364769471
 30
0.0
 10
5.2265957371
 20
10.6597988277
 30
0.0
 10
5.2388183821
 20
10.6745414957
 30
0.0
 10
5.2449473961
 20
10.6815912219
 30
0.0
  0
SPLINE
  5
47B
100
AcDbEntity
  8
0
100
AcDbSpline
 62
9
  6
CONTINUOUS
 70
0
 71
3
 72
10
 73
6
 74
0
 42
0.0000001
 43
0.0000001
 44
0.0000000001
 40
0.0
 40
0.0
 40
0.0
 40
0.0
 40
0.489814299
 40
0.7425092358
 40
1.0
 40
1.0
 40
1.0
 40
1.0
 10
3.5145377793
 20
10.500721874
 30
0.0
 10
3.5256940906
 20
10.4918925913
 30
0.0
 10
3.5422153426
 20
10.4780091771
 30
0.0
 10
3.5637991763
 20
10.4585698105
 30
0.0
 10
3.5746045595
 20
10.4484264255
 30
0.0
 10
3.5800141194
 20
10.4432616008
 30
0.0
  0
SPLINE
  5
47C
100
AcDbEntity
  8
0
100
AcDbSpline
 62
9
  6
CONTINUOUS
 70
0
 71
3
 72
10
 73
6
 74
0
 42
0.0000001
 43
0.0000001
 44
0.0000000001
 40
0.0
 40
0.0
 40
0.0
 40
0.0
 40
0.5067949371
 40
0.7555361008
 40
1.0
 40
1.0
 40
1.0
 40
1.0
 10
3.7118692996
 20
10.3075016063
 30
0.0
 10
3.7242187378
 20
10.2945776759
 30
0.0
 10
3.7427401716
 20
10.2754136111
 30
0.0
 10
3.7677609425
 20
10.2505510107
 30
0.0
 10
3.7803172149
 20
10.2385086228
 30
0.0
 10
3.7866074049
 20
10.2326108017
 30
0.0
  0
SPLINE
  5
47D
100
AcDbEntity
  8
0
100
AcDbSpline
 62
9
  6
CONTINUOUS
 70
0
 71
3
 72
11
 73
7
 74
0
 42
0.0000001
 43
0.0000001
 44
0.0000000001
 40
0.0
 40
0.0
 40
0.0
 40
0.0
 40
0.2571582537
 40
0.5083883018
 40
0.7553471046
 40
1.0
 40
1.0
 40
1.0
 40
1.0
 10
3.9433162705
 20
10.1248871525
 30
0.0
 10
3.9493482649
 20
10.1226451004
 30
0.0
 10
3.9614439535
 20
10.1186533473
 30
0.0
 10
3.9798424599
 20
10.11422179
 30
0.0
 10
3.9982549662
 20
10.1114893589
 30
0.0
 10
4.010563167
 20
10.1108440023
 30
0.0
 10
4.0166853999
 20
10.1108260999
 30
0.0
  0
SPLINE
  5
47E
100
AcDbEntity
  8
0
100
AcDbSpline
 62
9
  6
CONTINUOUS
 70
0
 71
3
 72
11
 73
7
 74
0
 42
0.0000001
 43
0.0000001
 44
0.0000000001
 40
0.0
 40
0.0
 40
0.0
 40
0.0
 40
0.2373683752
 40
0.4832898285
 40
0.7375872325
 40
1.0
 40
1.0
 40
1.0
 40
1.0
 10
4.0268897302
 20
10.7681580799
 30
0.0
 10
4.0325679214
 20
10.7633947991
 30
0.0
 10
4.0439124415
 20
10.7534364145
 30
0.0
 10
4.0606227235
 20
10.7375816417
 30
0.0
 10
4.0773318591
 20
10.7206105992
 30
0.0
 10
4.0883033232
 20
10.7087784683
 30
0.0
 10
4.0937959344
 20
10.7026986057
 30
0.0
  0
SPLINE
  5
47F
100
AcDbEntity
  8
0
100
AcDbSpline
 62
9
  6
CONTINUOUS
 70
0
 71
3
 72
9
 73
5
 74
0
 42
0.0000001
 43
0.0000001
 44
0.0000000001
 40
0.0
 40
0.0
 40
0.0
 40
0.0
 40
0.248642275
 40
1.0
 40
1.0
 40
1.0
 40
1.0
 10
4.2183605171
 20
10.5431258839
 30
0.0
 10
4.2245961222
 20
10.5343750835
 30
0.0
 10
4.2495539165
 20
10.4990945929
 30
0.0
 10
4.2742064336
 20
10.4635999003
 30
0.0
 10
4.2928719471
 20
10.4370307731
 30
0.0
  0
SPLINE
  5
480
100
AcDbEntity
  8
0
100
AcDbSpline
 62
9
  6
CONTINUOUS
 70
0
 71
3
 72
10
 73
6
 74
0
 42
0.0000001
 43
0.0000001
 44
0.0000000001
 40
0.0
 40
0.0
 40
0.0
 40
0.0
 40
0.2621467362
 40
0.5165366718
 40
1.0
 40
1.0
 40
1.0
 40
1.0
 10
4.4151393176
 20
10.2741035457
 30
0.0
 10
4.4209006143
 20
10.267245154
 30
0.0
 10
4.4324039304
 20
10.2538563206
 30
0.0
 10
4.4553477476
 20
10.228535722
 30
0.0
 10
4.4731297362
 20
10.2106239023
 30
0.0
 10
4.4852472848
 20
10.1993968225
 30
0.0
  0
SPLINE
  5
481
100
AcDbEntity
  8
0
100
AcDbSpline
 62
7
  6
CONTINUOUS
 70
0
 71
3
 72
22
 73
18
 74
0
 42
0.0000001
 43
0.0000001
 44
0.0000000001
 40
0.0
 40
0.0
 40
0.0
 40
0.0
 40
0.0793713689
 40
0.1592426446
 40
0.2384193529
 40
0.3161881798
 40
0.3918980384
 40
0.4650084538
 40
0.5350412914
 40
0.6016592658
 40
0.7236562905
 40
0.7789160344
 40
0.8302616126
 40
0.8777579966
 40
0.9215783824
 40
0.9620992744
 40
1.0
 40
1.0
 40
1.0
 40
1.0
 10
2.7570371102
 20
10.504522826
 30
0.0
 10
2.7557719827
 20
10.5080089803
 30
0.0
 10
2.7535967201
 20
10.5151387403
 30
0.0
 10
2.7512942382
 20
10.5260503962
 30
0.0
 10
2.7498721773
 20
10.5370346686
 30
0.0
 10
2.7492513426
 20
10.5478961939
 30
0.0
 10
2.7493565274
 20
10.5584908356
 30
0.0
 10
2.7501343255
 20
10.5686943633
 30
0.0
 10
2.7515289009
 20
10.5784039731
 30
0.0
 10
2.754060987
 20
10.5902273533
 30
0.0
 10
2.7576026367
 20
10.6011097789
 30
0.0
 10
2.7620713959
 20
10.6108216974
 30
0.0
 10
2.7656263464
 20
10.6170949021
 30
0.0
 10
2.7694656381
 20
10.6225585657
 30
0.0
 10
2.7735698148
 20
10.6271746707
 30
0.0
 10
2.7779408499
 20
10.6308842284
 30
0.0
 10
2.7811209005
 20
10.6327552629
 30
0.0
 10
2.7827309179
 20
10.633492792
 30
0.0
  0
SPLINE
  5
482
100
AcDbEntity
  8
0
100
AcDbSpline
 62
9
  6
CONTINUOUS
 70
0
 71
3
 72
15
 73
11
 74
0
 42
0.0000001
 43
0.0000001
 44
0.0000000001
 40
0.0
 40
0.0
 40
0.0
 40
0.0
 40
0.1161339901
 40
0.2341384966
 40
0.3546732054
 40
0.478093068
 40
0.6045046776
 40
0.7338160861
 40
0.8657731288
 40
1.0
 40
1.0
 40
1.0
 40
1.0
 10
5.6460692649
 20
10.2400862016
 30
0.0
 10
5.6553243318
 20
10.2408406243
 30
0.0
 10
5.6739173047
 20
10.243301274
 30
0.0
 10
5.7016103013
 20
10.2495575227
 30
0.0
 10
5.7292665318
 20
10.2581766772
 30
0.0
 10
5.7568927177
 20
10.2688944164
 30
0.0
 10
5.7844976536
 20
10.2814563655
 30
0.0
 10
5.8120866474
 20
10.2956084272
 30
0.0
 10
5.8396650785
 20
10.311093506
 30
0.0
 10
5.857912153
 20
10.3220541211
 30
0.0
 10
5.8670524603
 20
10.327679037
 30
0.0
  0
SPLINE
  5
483
100
AcDbEntity
  8
0
100
AcDbSpline
 62
9
  6
CONTINUOUS
 70
0
 71
3
 72
9
 73
5
 74
0
 42
0.0000001
 43
0.0000001
 44
0.0000000001
 40
0.0
 40
0.0
 40
0.0
 40
0.0
 40
0.4966190964
 40
1.0
 40
1.0
 40
1.0
 40
1.0
 10
3.4234954604
 20
10.3149047232
 30
0.0
 10
3.4202154393
 20
10.314309005
 30
0.0
 10
3.4137079974
 20
10.3125007937
 30
0.0
 10
3.4076262597
 20
10.3095704298
 30
0.0
 10
3.4047174525
 20
10.3078508503
 30
0.0
  0
SPLINE
  5
484
100
AcDbEntity
  8
0
100
AcDbSpline
 62
9
  6
CONTINUOUS
 70
0
 71
3
 72
30
 73
26
 74
0
 42
0.0000001
 43
0.0000001
 44
0.0000000001
 40
0.0
 40
0.0
 40
0.0
 40
0.0
 40
0.0545807705
 40
0.082690373
 40
0.1114440924
 40
0.1409004014
 40
0.1710713105
 40
0.2334255016
 40
0.298202216
 40
0.3313582175
 40
0.3649220471
 40
0.3988284255
 40
0.4330136523
 40
0.4673968993
 40
0.5018828651
 40
0.5707112516
 40
0.6386690998
 40
0.6720818711
 40
0.70498786
 40
0.7373200522
 40
0.7690467548
 40
0.8305767102
 40
0.8895162726
 40
0.9458853703
 40
1.0
 40
1.0
 40
1.0
 40
1.0
 10
3.4047174525
 20
10.3078508503
 30
0.0
 10
3.4012206912
 20
10.305783694
 30
0.0
 10
3.3962283685
 20
10.3020958069
 30
0.0
 10
3.3903311957
 20
10.2962519498
 30
0.0
 10
3.3862153604
 20
10.2913058876
 30
0.0
 10
3.3824780116
 20
10.2858832073
 30
0.0
 10
3.3779654619
 20
10.2779956231
 30
0.0
 10
3.3733791838
 20
10.2671731964
 30
0.0
 10
3.3703110464
 20
10.2556052105
 30
0.0
 10
3.3687576615
 20
10.2459368768
 30
0.0
 10
3.368064451
 20
10.2384742633
 30
0.0
 10
3.3678688346
 20
10.2309056101
 30
0.0
 10
3.3681836117
 20
10.2232801099
 30
0.0
 10
3.3689908941
 20
10.2156477719
 30
0.0
 10
3.3707022945
 20
10.2055382257
 30
0.0
 10
3.3739766624
 20
10.19318504
 30
0.0
 10
3.3787021691
 20
10.1813941867
 30
0.0
 10
3.3833094269
 20
10.1725190983
 30
0.0
 10
3.3871302081
 20
10.1662425206
 30
0.0
 10
3.3913235952
 20
10.1603609
 30
0.0
 10
3.3973092809
 20
10.1531732151
 30
0.0
 10
3.4055211019
 20
10.1453015536
 30
0.0
 10
3.4163952187
 20
10.1377817967
 30
0.0
 10
3.4279058627
 20
10.1324757207
 30
0.0
 10
3.4359664926
 20
10.1305268336
 30
0.0
 10
3.4399620838
 20
10.1300217704
 30
0.0
  0
LINE
  5
485
100
AcDbEntity
  8
0
100
AcDbLine
 62
7
  6
CONTINUOUS
 10
2.790814641
 20
10.6373493809
 11
2.7894934946
 21
10.6390183097
  0
LINE
  5
486
100
AcDbEntity
  8
0
100
AcDbLine
 62
7
  6
CONTINUOUS
 10
2.7894934946
 20
10.6390183097
 11
2.7570371102
 21
10.6794593077
  0
SPLINE
  5
487
100
AcDbEntity
  8
0
100
AcDbSpline
 62
9
  6
CONTINUOUS
 70
0
 71
3
 72
26
 73
22
 74
0
 42
0.0000001
 43
0.0000001
 44
0.0000000001
 40
0.0
 40
0.0
 40
0.0
 40
0.0
 40
0.0144540258
 40
0.0292387812
 40
0.0446727514
 40
0.0610423901
 40
0.0974773053
 40
0.1179250242
 40
0.1399366285
 40
0.1886723491
 40
0.243575591
 40
0.304278075
 40
0.3702911978
 40
0.4410623127
 40
0.5159896861
 40
0.5942460774
 40
0.6748363673
 40
0.7567384732
 40
0.838919443
 40
0.9203468408
 40
1.0
 40
1.0
 40
1.0
 40
1.0
 10
5.1765469762
 20
10.3225065539
 30
0.0
 10
5.1761045151
 20
10.3220336856
 30
0.0
 10
5.1752871881
 20
10.3210010233
 30
0.0
 10
5.1743119454
 20
10.3192440825
 30
0.0
 10
5.1735867386
 20
10.31727859
 30
0.0
 10
5.1729364273
 20
10.3142826935
 30
0.0
 10
5.1728671376
 20
10.3109698127
 30
0.0
 10
5.1732658438
 20
10.3074564148
 30
0.0
 10
5.1740427057
 20
10.3034407578
 30
0.0
 10
5.1756751851
 20
10.2980384824
 30
0.0
 10
5.1784954715
 20
10.2912275871
 30
0.0
 10
5.1822011203
 20
10.2839748459
 30
0.0
 10
5.1867489552
 20
10.2763783828
 30
0.0
 10
5.1920946952
 20
10.2685366495
 30
0.0
 10
5.198190312
 20
10.260560865
 30
0.0
 10
5.2049464833
 20
10.2525525807
 30
0.0
 10
5.2122544142
 20
10.244614775
 30
0.0
 10
5.2200045074
 20
10.2368577455
 30
0.0
 10
5.2280858654
 20
10.2293909881
 30
0.0
 10
5.2363872965
 20
10.2223242869
 30
0.0
 10
5.2420810667
 20
10.2178848845
 30
0.0
 10
5.2449473944
 20
10.2157588223
 30
0.0
  0
SPLINE
  5
488
100
AcDbEntity
  8
0
100
AcDbSpline
 62
9
  6
CONTINUOUS
 70
0
 71
3
 72
11
 73
7
 74
0
 42
0.0000001
 43
0.0000001
 44
0.0000000001
 40
0.0
 40
0.0
 40
0.0
 40
0.0
 40
0.2561168036
 40
0.5074702196
 40
0.754902493
 40
1.0
 40
1.0
 40
1.0
 40
1.0
 10
2.7570371102
 20
10.6794593077
 30
0.0
 10
2.7680853672
 20
10.6832352344
 30
0.0
 10
2.7901933166
 20
10.6901072352
 30
0.0
 10
2.8237157606
 20
10.6980339847
 30
0.0
 10
2.8572901668
 20
10.7030926658
 30
0.0
 10
2.8797536889
 20
10.7043313876
 30
0.0
 10
2.8909269939
 20
10.704360863
 30
0.0
  0
SPLINE
  5
489
100
AcDbEntity
  8
0
100
AcDbSpline
 62
9
  6
CONTINUOUS
 70
0
 71
3
 72
21
 73
17
 74
0
 42
0.0000001
 43
0.0000001
 44
0.0000000001
 40
0.0
 40
0.0
 40
0.0
 40
0.0
 40
0.0463008626
 40
0.0938162025
 40
0.1430025597
 40
0.1942077695
 40
0.2476907431
 40
0.3036341254
 40
0.3621565083
 40
0.42332383
 40
0.5536152122
 40
0.6226383343
 40
0.6940549518
 40
0.7676945274
 40
0.8433689826
 40
1.0
 40
1.0
 40
1.0
 40
1.0
 10
5.0051956875
 20
10.0017886642
 30
0.0
 10
5.0102351596
 20
10.0024695698
 30
0.0
 10
5.0203771412
 20
10.0044204739
 30
0.0
 10
5.0354253645
 20
10.0090075272
 30
0.0
 10
5.0504520035
 20
10.0152404435
 30
0.0
 10
5.0654606778
 20
10.0230494333
 30
0.0
 10
5.0804556775
 20
10.0323733569
 30
0.0
 10
5.0954404808
 20
10.0431508459
 30
0.0
 10
5.1104184419
 20
10.0553222733
 30
0.0
 10
5.1308123129
 20
10.0737189545
 30
0.0
 10
5.1507096987
 20
10.0943257119
 30
0.0
 10
5.170279741
 20
10.1167145329
 30
0.0
 10
5.1852388358
 20
10.134859104
 30
0.0
 10
5.2001979357
 20
10.1539390212
 30
0.0
 10
5.2203754293
 20
10.1808109816
 30
0.0
 10
5.2351515955
 20
10.2016172976
 30
0.0
 10
5.2449473961
 20
10.2157588248
 30
0.0
  0
SPLINE
  5
48A
100
AcDbEntity
  8
0
100
AcDbSpline
 62
7
  6
CONTINUOUS
 70
0
 71
3
 72
9
 73
5
 74
0
 42
0.0000001
 43
0.0000001
 44
0.0000000001
 40
0.0
 40
0.0
 40
0.0
 40
0.0
 40
0.2479640953
 40
1.0
 40
1.0
 40
1.0
 40
1.0
 10
5.819430665
 20
10.3821473627
 30
0.0
 10
5.8234237545
 20
10.3842369992
 30
0.0
 10
5.8394847493
 20
10.3927454405
 30
0.0
 10
5.8553958765
 20
10.4015344019
 30
0.0
 10
5.8673072592
 20
10.4082385315
 30
0.0
  0
SPLINE
  5
48B
100
AcDbEntity
  8
0
100
AcDbSpline
 62
9
  6
CONTINUOUS
 70
0
 71
3
 72
11
 73
7
 74
0
 42
0.0000001
 43
0.0000001
 44
0.0000000001
 40
0.0
 40
0.0
 40
0.0
 40
0.0
 40
0.2385843885
 40
0.4851239742
 40
0.7391185611
 40
1.0
 40
1.0
 40
1.0
 40
1.0
 10
4.3763272834
 20
10.790342701
 30
0.0
 10
4.3824581389
 20
10.784311731
 30
0.0
 10
4.3946991972
 20
10.7718184566
 30
0.0
 10
4.412747449
 20
10.7522161918
 30
0.0
 10
4.4307956669
 20
10.7315354514
 30
0.0
 10
4.4426786455
 20
10.717277256
 30
0.0
 10
4.4486298557
 20
10.7099962532
 30
0.0
  0
SPLINE
  5
48C
100
AcDbEntity
  8
0
100
AcDbSpline
 62
9
  6
CONTINUOUS
 70
0
 71
3
 72
9
 73
5
 74
0
 42
0.0000001
 43
0.0000001
 44
0.0000000001
 40
0.0
 40
0.0
 40
0.0
 40
0.0
 40
0.5034815949
 40
1.0
 40
1.0
 40
1.0
 40
1.0
 10
4.5704446429
 20
10.547382737
 30
0.0
 10
4.5827362509
 20
10.5302843182
 30
0.0
 10
4.6071494396
 20
10.4963240924
 30
0.0
 10
4.631901412
 20
10.46260719
 30
0.0
 10
4.6443659827
 20
10.4459971557
 30
0.0
  0
SPLINE
  5
48D
100
AcDbEntity
  8
0
100
AcDbSpline
 62
9
  6
CONTINUOUS
 70
0
 71
3
 72
9
 73
5
 74
0
 42
0.0000001
 43
0.0000001
 44
0.0000000001
 40
0.0
 40
0.0
 40
0.0
 40
0.0
 40
0.5161492497
 40
1.0
 40
1.0
 40
1.0
 40
1.0
 10
4.7725467805
 20
10.2951102101
 30
0.0
 10
4.7825716275
 20
10.2853448523
 30
0.0
 10
4.8025631332
 20
10.2669944803
 30
0.0
 10
4.8239115964
 20
10.2502178204
 30
0.0
 10
4.8345938914
 20
10.242601845
 30
0.0
  0
SPLINE
  5
48E
100
AcDbEntity
  8
0
100
AcDbSpline
 62
9
  6
CONTINUOUS
 70
0
 71
3
 72
26
 73
22
 74
0
 42
0.0000001
 43
0.0000001
 44
0.0000000001
 40
0.0
 40
0.0
 40
0.0
 40
0.0
 40
0.0246326614
 40
0.049574478
 40
0.0749688907
 40
0.1009296113
 40
0.1275382987
 40
0.1548499246
 40
0.2116754589
 40
0.2714544465
 40
0.3339579071
 40
0.3987890921
 40
0.4654496774
 40
0.5333832337
 40
0.6020009736
 40
0.6707518001
 40
0.7391075866
 40
0.8065648595
 40
0.8727359152
 40
0.9372978254
 40
1.0
 40
1.0
 40
1.0
 40
1.0
 10
5.2998681733
 20
10.1265254848
 30
0.0
 10
5.3053193468
 20
10.1268871559
 30
0.0
 10
5.3162633989
 20
10.1280961133
 30
0.0
 10
5.3325994285
 20
10.1312811975
 30
0.0
 10
5.3489249129
 20
10.1357920368
 30
0.0
 10
5.3652376926
 20
10.1415645062
 30
0.0
 10
5.381541355
 20
10.1485246726
 30
0.0
 10
5.4035575718
 20
10.159438025
 30
0.0
 10
5.4310332744
 20
10.1757768004
 30
0.0
 10
5.463513378
 20
10.1986942743
 30
0.0
 10
5.4959668637
 20
10.2245873312
 30
0.0
 10
5.528408269
 20
10.2528632324
 30
0.0
 10
5.5608479136
 20
10.2829352297
 30
0.0
 10
5.5932862396
 20
10.3142264302
 30
0.0
 10
5.625739823
 20
10.3461643412
 30
0.0
 10
5.6581993672
 20
10.3782292627
 30
0.0
 10
5.6906598114
 20
10.4099270641
 30
0.0
 10
5.7231474941
 20
10.4407738388
 30
0.0
 10
5.7556443843
 20
10.4703783963
 30
0.0
 10
5.7881506216
 20
10.4983856056
 30
0.0
 10
5.8101810564
 20
10.5160437033
 30
0.0
 10
5.8212129485
 20
10.5245104389
 30
0.0
  0
SPLINE
  5
48F
100
AcDbEntity
  8
0
100
AcDbSpline
 62
9
  6
CONTINUOUS
 70
0
 71
3
 72
9
 73
5
 74
0
 42
0.0000001
 43
0.0000001
 44
0.0000000001
 40
0.0
 40
0.0
 40
0.0
 40
0.0
 40
0.2544184449
 40
1.0
 40
1.0
 40
1.0
 40
1.0
 10
5.8212129485
 20
10.5245104389
 30
0.0
 10
5.8250112764
 20
10.5274255724
 30
0.0
 10
5.8400239144
 20
10.5387743392
 30
0.0
 10
5.8553851771
 20
10.5496655766
 30
0.0
 10
5.8670524603
 20
10.5574602836
 30
0.0
  0
SPLINE
  5
490
100
AcDbEntity
  8
0
100
AcDbSpline
 62
9
  6
CONTINUOUS
 70
0
 71
3
 72
53
 73
49
 74
0
 42
0.0000001
 43
0.0000001
 44
0.0000000001
 40
0.0
 40
0.0
 40
0.0
 40
0.0
 40
0.0090859437
 40
0.0183635673
 40
0.0279028426
 40
0.0377683922
 40
0.0586944864
 40
0.0698616339
 40
0.0815365175
 40
0.0937399988
 40
0.1064869236
 40
0.1197871143
 40
0.1336462145
 40
0.1480663949
 40
0.1630469375
 40
0.1785830726
 40
0.194659074
 40
0.2283441392
 40
0.2639172297
 40
0.3011708342
 40
0.3398832989
 40
0.3798116639
 40
0.4206581381
 40
0.4621070178
 40
0.5038392096
 40
0.5455342204
 40
0.5868758462
 40
0.6275550143
 40
0.6672666781
 40
0.7057117549
 40
0.7426059722
 40
0.7777177389
 40
0.8108487437
 40
0.8266167058
 40
0.8418264473
 40
0.8705088246
 40
0.8839777976
 40
0.8968717184
 40
0.9092017157
 40
0.9209839476
 40
0.9322405993
 40
0.9430010242
 40
0.9533029929
 40
0.9631939642
 40
0.9727322411
 40
0.9819894752
 40
0.9910492953
 40
1.0
 40
1.0
 40
1.0
 40
1.0
 10
3.7180716037
 20
10.0012831073
 30
0.0
 10
3.722197508
 20
10.0018697796
 30
0.0
 10
3.7304860038
 20
10.0034425787
 30
0.0
 10
3.742812534
 20
10.0069404692
 30
0.0
 10
3.7551336368
 20
10.0115954126
 30
0.0
 10
3.7718776069
 20
10.0194961129
 30
0.0
 10
3.7883024132
 20
10.0296641719
 30
0.0
 10
3.804337461
 20
10.0417521938
 30
0.0
 10
3.8166221365
 20
10.0521320789
 30
0.0
 10
3.8289021057
 20
10.0636036445
 30
0.0
 10
3.8411802724
 20
10.0761428362
 30
0.0
 10
3.8534568413
 20
10.0897246435
 30
0.0
 10
3.8657325287
 20
10.104324386
 30
0.0
 10
3.8780076804
 20
10.1199173046
 30
0.0
 10
3.890282202
 20
10.1364779866
 30
0.0
 10
3.9025529146
 20
10.1539771373
 30
0.0
 10
3.9191723763
 20
10.1788950457
 30
0.0
 10
3.9398645914
 20
10.2121296933
 30
0.0
 10
3.9643318654
 20
10.2544214817
 30
0.0
 10
3.9888067622
 20
10.2993514275
 30
0.0
 10
4.0132858206
 20
10.3465394606
 30
0.0
 10
4.0377538315
 20
10.3955807297
 30
0.0
 10
4.0622244226
 20
10.4460184814
 30
0.0
 10
4.08669822
 20
10.4973721796
 30
0.0
 10
4.111173424
 20
10.5491557613
 30
0.0
 10
4.1356496811
 20
10.6008844623
 30
0.0
 10
4.160125884
 20
10.6520786584
 30
0.0
 10
4.1845985277
 20
10.7022650014
 30
0.0
 10
4.209066308
 20
10.7509724022
 30
0.0
 10
4.2335274634
 20
10.7977339526
 30
0.0
 10
4.2579956621
 20
10.8420993717
 30
0.0
 10
4.2824611391
 20
10.8836634327
 30
0.0
 10
4.3031693423
 20
10.9161722749
 30
0.0
 10
4.3198044884
 20
10.9404224988
 30
0.0
 10
4.3358520254
 20
10.9625888709
 30
0.0
 10
4.3521761875
 20
10.9832500102
 30
0.0
 10
4.3688966599
 20
11.002174307
 30
0.0
 10
4.3811748115
 20
11.0149960672
 30
0.0
 10
4.3934550232
 20
11.0267223982
 30
0.0
 10
4.4057384942
 20
11.0373304028
 30
0.0
 10
4.4180264613
 20
11.0467969011
 30
0.0
 10
4.4303204951
 20
11.0550984203
 30
0.0
 10
4.4426224248
 20
11.0622107952
 30
0.0
 10
4.4549339485
 20
11.068109567
 30
0.0
 10
4.4672578467
 20
11.0727679238
 30
0.0
 10
4.4795946816
 20
11.0761643822
 30
0.0
 10
4.4919367163
 20
11.0783036069
 30
0.0
 10
4.5001927473
 20
11.0788959636
 30
0.0
 10
4.5042972057
 20
11.0789827783
 30
0.0
  0
SPLINE
  5
491
100
AcDbEntity
  8
0
100
AcDbSpline
 62
9
  6
CONTINUOUS
 70
0
 71
3
 72
11
 73
7
 74
0
 42
0.0000001
 43
0.0000001
 44
0.0000000001
 40
0.0
 40
0.0
 40
0.0
 40
0.0
 40
0.244535582
 40
0.4914334577
 40
0.7426912643
 40
1.0
 40
1.0
 40
1.0
 40
1.0
 10
4.8307342431
 20
10.8402159721
 30
0.0
 10
4.8375255417
 20
10.8401890804
 30
0.0
 10
4.851179797
 20
10.8394533436
 30
0.0
 10
4.8716043313
 20
10.8363793183
 30
0.0
 10
4.892013266
 20
10.8314037177
 30
0.0
 10
4.9054268844
 20
10.8269255054
 30
0.0
 10
4.9121157673
 20
10.8244104509
 30
0.0
  0
SPLINE
  5
492
100
AcDbEntity
  8
0
100
AcDbSpline
 62
9
  6
CONTINUOUS
 70
0
 71
3
 72
9
 73
5
 74
0
 42
0.0000001
 43
0.0000001
 44
0.0000000001
 40
0.0
 40
0.0
 40
0.0
 40
0.0
 40
0.4978563074
 40
1.0
 40
1.0
 40
1.0
 40
1.0
 10
5.0775136013
 20
10.7165784823
 30
0.0
 10
5.0896031275
 20
10.7063572035
 30
0.0
 10
5.1136180544
 20
10.6855101937
 30
0.0
 10
5.137429444
 20
10.6644348086
 30
0.0
 10
5.1494156871
 20
10.6538850947
 30
0.0
  0
SPLINE
  5
493
100
AcDbEntity
  8
0
100
AcDbSpline
 62
9
  6
CONTINUOUS
 70
0
 71
3
 72
25
 73
21
 74
0
 42
0.0000001
 43
0.0000001
 44
0.0000000001
 40
0.0
 40
0.0
 40
0.0
 40
0.0
 40
0.1954876555
 40
0.3810375922
 40
0.468221408
 40
0.5506842093
 40
0.6276861763
 40
0.6984938567
 40
0.7623920871
 40
0.8189061915
 40
0.8678372175
 40
0.9090344586
 40
0.9267074583
 40
0.9424276602
 40
0.9562117693
 40
0.9681011356
 40
0.9781802669
 40
0.9866124643
 40
0.9937052495
 40
1.0
 40
1.0
 40
1.0
 40
1.0
 10
3.4399620849
 20
10.5419784947
 30
0.0
 10
3.444295612
 20
10.538413369
 30
0.0
 10
3.4528249782
 20
10.5315641262
 30
0.0
 10
3.4635065491
 20
10.5234036299
 30
0.0
 10
3.4717367034
 20
10.5173844082
 30
0.0
 10
3.4775149596
 20
10.5132923649
 30
0.0
 10
3.4829752703
 20
10.5095663661
 30
0.0
 10
3.4880646991
 20
10.5062443093
 30
0.0
 10
3.4927365841
 20
10.50336143
 30
0.0
 10
3.496953798
 20
10.5009415344
 30
0.0
 10
3.5006871212
 20
10.498994333
 30
0.0
 10
3.5035049828
 20
10.4977092648
 30
0.0
 10
3.5055041001
 20
10.4969405784
 30
0.0
 10
3.5067910651
 20
10.4965168681
 30
0.0
 10
3.5079415675
 20
10.4962159441
 30
0.0
 10
3.5089539102
 20
10.4960382866
 30
0.0
 10
3.5098274005
 20
10.4959843622
 30
0.0
 10
3.5105632271
 20
10.4960565319
 30
0.0
 10
3.511163296
 20
10.4962615907
 30
0.0
 10
3.5114736414
 20
10.496505009
 30
0.0
 10
3.5115908911
 20
10.496642496
 30
0.0
  0
SPLINE
  5
494
100
AcDbEntity
  8
0
100
AcDbSpline
 62
9
  6
CONTINUOUS
 70
0
 71
3
 72
53
 73
49
 74
0
 42
0.0000001
 43
0.0000001
 44
0.0000000001
 40
0.0
 40
0.0
 40
0.0
 40
0.0
 40
0.0089649881
 40
0.0180962081
 40
0.0274759217
 40
0.0371783833
 40
0.0472691118
 40
0.0578048509
 40
0.068834022
 40
0.0803974609
 40
0.0925257227
 40
0.1052338273
 40
0.1185288714
 40
0.1324125157
 40
0.146882007
 40
0.1619310005
 40
0.1775502181
 40
0.1937279752
 40
0.227697935
 40
0.2636593766
 40
0.3013652875
 40
0.3405515463
 40
0.3809425066
 40
0.4222360678
 40
0.5062084255
 40
0.5482181056
 40
0.589797742
 40
0.6306287876
 40
0.6704076656
 40
0.7088375313
 40
0.7456311464
 40
0.7805349951
 40
0.8133759363
 40
0.828979812
 40
0.8440188633
 40
0.8584812423
 40
0.8723581756
 40
0.8983380037
 40
0.910466069
 40
0.92204557
 40
0.9331048739
 40
0.9436791763
 40
0.9538115216
 40
0.9635537571
 40
0.9729672636
 40
0.9821238089
 40
0.9911059869
 40
1.0
 40
1.0
 40
1.0
 40
1.0
 10
4.0277261861
 20
9.923775472
 30
0.0
 10
4.0319262382
 20
9.9241360067
 30
0.0
 10
4.0403726581
 20
9.9252988049
 30
0.0
 10
4.052954569
 20
9.9283153751
 30
0.0
 10
4.0655282989
 20
9.9326032995
 30
0.0
 10
4.0780916584
 20
9.938150621
 30
0.0
 10
4.0906457392
 20
9.9449460242
 30
0.0
 10
4.1031915732
 20
9.9529789046
 30
0.0
 10
4.1157307637
 20
9.9622391746
 30
0.0
 10
4.1282629314
 20
9.9727170566
 30
0.0
 10
4.1407858245
 20
9.9843952975
 30
0.0
 10
4.1533057716
 20
9.9972386613
 30
0.0
 10
4.1658239156
 20
10.0112117753
 30
0.0
 10
4.1783411182
 20
10.0262782578
 30
0.0
 10
4.190857876
 20
10.0424018795
 30
0.0
 10
4.2033745426
 20
10.0595462886
 30
0.0
 10
4.2158913773
 20
10.0776751333
 30
0.0
 10
4.2328578567
 20
10.103533009
 30
0.0
 10
4.2539716896
 20
10.1380951962
 30
0.0
 10
4.2789104329
 20
10.1821451738
 30
0.0
 10
4.3038596574
 20
10.2289853656
 30
0.0
 10
4.3288167962
 20
10.2781667379
 30
0.0
 10
4.3537742973
 20
10.3292312227
 30
0.0
 10
4.3872333175
 20
10.3995750079
 30
0.0
 10
4.4203337774
 20
10.4709278737
 30
0.0
 10
4.4536068768
 20
10.5423480241
 30
0.0
 10
4.4785678872
 20
10.5952611349
 30
0.0
 10
4.5035285164
 20
10.6470129017
 30
0.0
 10
4.528483217
 20
10.6971193343
 30
0.0
 10
4.5534303042
 20
10.7451011278
 30
0.0
 10
4.5783727329
 20
10.790489241
 30
0.0
 10
4.6033314757
 20
10.832847048
 30
0.0
 10
4.6244718105
 20
10.8658638811
 30
0.0
 10
4.6414499255
 20
10.8904201855
 30
0.0
 10
4.653965661
 20
10.9075462065
 30
0.0
 10
4.6664817574
 20
10.9236569809
 30
0.0
 10
4.6828128534
 20
10.9432987133
 30
0.0
 10
4.6994717173
 20
10.9612355493
 30
0.0
 10
4.7165685841
 20
10.9771720465
 30
0.0
 10
4.7291003155
 20
10.9876834307
 30
0.0
 10
4.7416367809
 20
10.9970131494
 30
0.0
 10
4.7541797498
 20
11.0051451046
 30
0.0
 10
4.7667307198
 20
11.0120625814
 30
0.0
 10
4.7792912131
 20
11.0177479255
 30
0.0
 10
4.791862278
 20
11.0221835837
 30
0.0
 10
4.804445702
 20
11.0253485107
 30
0.0
 10
4.817033458
 20
11.0272494529
 30
0.0
 10
4.8254439062
 20
11.027684085
 30
0.0
 10
4.8296260165
 20
11.0276949068
 30
0.0
  0
SPLINE
  5
495
100
AcDbEntity
  8
0
100
AcDbSpline
 62
9
  6
CONTINUOUS
 70
0
 71
3
 72
36
 73
32
 74
0
 42
0.0000001
 43
0.0000001
 44
0.0000000001
 40
0.0
 40
0.0
 40
0.0
 40
0.0
 40
0.0237019327
 40
0.0476545285
 40
0.0719488847
 40
0.0966793424
 40
0.1219332006
 40
0.147792786
 40
0.174336776
 40
0.2016374814
 40
0.2297444404
 40
0.2586908107
 40
0.2885010299
 40
0.3191904564
 40
0.3507477635
 40
0.3831392968
 40
0.4163233597
 40
0.4502489764
 40
0.4848357362
 40
0.5199858305
 40
0.5915614355
 40
0.6640556246
 40
0.736337945
 40
0.7720342515
 40
0.8072283601
 40
0.8417666885
 40
0.8755037284
 40
0.9083049787
 40
0.9400502899
 40
0.9706395792
 40
1.0
 40
1.0
 40
1.0
 40
1.0
 10
2.7624802163
 20
10.3125430879
 30
0.0
 10
2.7695652445
 20
10.3134267124
 30
0.0
 10
2.7837633864
 20
10.3156064654
 30
0.0
 10
2.8049728491
 20
10.3201242281
 30
0.0
 10
2.8261831368
 20
10.3259517706
 30
0.0
 10
2.847387582
 20
10.3331344863
 30
0.0
 10
2.8685881201
 20
10.3416821857
 30
0.0
 10
2.8897849598
 20
10.3516050444
 30
0.0
 10
2.9109778391
 20
10.3629118519
 30
0.0
 10
2.9321591736
 20
10.3756109972
 30
0.0
 10
2.9533336865
 20
10.3896736907
 30
0.0
 10
2.9745046287
 20
10.4050637861
 30
0.0
 10
2.9956728247
 20
10.4217446296
 30
0.0
 10
3.0168312929
 20
10.4396784962
 30
0.0
 10
3.0379832202
 20
10.4587986118
 30
0.0
 10
3.0591341975
 20
10.479021985
 30
0.0
 10
3.0802841724
 20
10.5002646479
 30
0.0
 10
3.1014253653
 20
10.5224381709
 30
0.0
 10
3.1225632318
 20
10.5454252215
 30
0.0
 10
3.1509177962
 20
10.5771775394
 30
0.0
 10
3.1861788993
 20
10.61806381
 30
0.0
 10
3.2281872392
 20
10.6678916404
 30
0.0
 10
3.2633315559
 20
10.7093713784
 30
0.0
 10
3.2916131757
 20
10.7419340932
 30
0.0
 10
3.3127355282
 20
10.7656524025
 30
0.0
 10
3.3338575115
 20
10.788575823
 30
0.0
 10
3.3549796258
 20
10.8105105324
 30
0.0
 10
3.3761022532
 20
10.8312630041
 30
0.0
 10
3.3972273843
 20
10.8506394349
 30
0.0
 10
3.4183563477
 20
10.8684448686
 30
0.0
 10
3.4327513468
 20
10.8793689683
 30
0.0
 10
3.4399620849
 20
10.8844904778
 30
0.0
  0
SPLINE
  5
496
100
AcDbEntity
  8
0
100
AcDbSpline
 62
9
  6
CONTINUOUS
 70
0
 71
3
 72
17
 73
13
 74
0
 42
0.0000001
 43
0.0000001
 44
0.0000000001
 40
0.0
 40
0.0
 40
0.0
 40
0.0
 40
0.1113654247
 40
0.229553814
 40
0.3533721322
 40
0.4812620738
 40
0.546246253
 40
0.6116389727
 40
0.6772385928
 40
0.7428198436
 40
0.872910046
 40
1.0
 40
1.0
 40
1.0
 40
1.0
 10
3.4399620849
 20
10.8844904778
 30
0.0
 10
3.444083177
 20
10.8829160481
 30
0.0
 10
3.4522914465
 20
10.8788933337
 30
0.0
 10
3.4638571161
 20
10.8709369567
 30
0.0
 10
3.4747905565
 20
10.8611254007
 30
0.0
 10
3.4830792461
 20
10.8516661727
 30
0.0
 10
3.4891229815
 20
10.8434050492
 30
0.0
 10
3.4933246487
 20
10.8368711924
 30
0.0
 10
3.4971436359
 20
10.8300797912
 30
0.0
 10
3.5016935713
 20
10.8207783031
 30
0.0
 10
3.5063351217
 20
10.8088349697
 30
0.0
 10
3.5089284204
 20
10.7989540837
 30
0.0
 10
3.5098997315
 20
10.794014161
 30
0.0
  0
SPLINE
  5
497
100
AcDbEntity
  8
0
100
AcDbSpline
 62
9
  6
CONTINUOUS
 70
0
 71
3
 72
11
 73
7
 74
0
 42
0.0000001
 43
0.0000001
 44
0.0000000001
 40
0.0
 40
0.0
 40
0.0
 40
0.0
 40
0.2458868548
 40
0.4934881548
 40
0.7443715328
 40
1.0
 40
1.0
 40
1.0
 40
1.0
 10
4.5075110226
 20
10.8915210878
 30
0.0
 10
4.5126130682
 20
10.8915034493
 30
0.0
 10
4.5228560986
 20
10.8910432047
 30
0.0
 10
4.5381941349
 20
10.8890935853
 30
0.0
 10
4.5535274149
 20
10.8858973132
 30
0.0
 10
4.5636348705
 20
10.8829760497
 30
0.0
 10
4.5686749667
 20
10.8813231464
 30
0.0
  0
SPLINE
  5
498
100
AcDbEntity
  8
0
100
AcDbSpline
 62
9
  6
CONTINUOUS
 70
0
 71
3
 72
10
 73
6
 74
0
 42
0.0000001
 43
0.0000001
 44
0.0000000001
 40
0.0
 40
0.0
 40
0.0
 40
0.0
 40
0.2417944409
 40
0.4895885535
 40
1.0
 40
1.0
 40
1.0
 40
1.0
 10
4.72474122
 20
10.7742728665
 30
0.0
 10
4.7311362279
 20
10.7679633445
 30
0.0
 10
4.7439015031
 20
10.7550009334
 30
0.0
 10
4.7693433919
 20
10.7279212511
 30
0.0
 10
4.7880359463
 20
10.706837756
 30
0.0
 10
4.8004549379
 20
10.6925060451
 30
0.0
  0
SPLINE
  5
499
100
AcDbEntity
  8
0
100
AcDbSpline
 62
9
  6
CONTINUOUS
 70
0
 71
3
 72
9
 73
5
 74
0
 42
0.0000001
 43
0.0000001
 44
0.0000000001
 40
0.0
 40
0.0
 40
0.0
 40
0.0
 40
0.5082442362
 40
1.0
 40
1.0
 40
1.0
 40
1.0
 10
4.925632836
 20
10.5439178963
 30
0.0
 10
4.9371872764
 20
10.5304782178
 30
0.0
 10
4.9601644563
 20
10.5042420858
 30
0.0
 10
4.9839073303
 20
10.4786881174
 30
0.0
 10
4.99584937
 20
10.4663809519
 30
0.0
  0
SPLINE
  5
49A
100
AcDbEntity
  8
0
100
AcDbSpline
 62
9
  6
CONTINUOUS
 70
0
 71
3
 72
9
 73
5
 74
0
 42
0.0000001
 43
0.0000001
 44
0.0000000001
 40
0.0
 40
0.0
 40
0.0
 40
0.0
 40
0.255562609
 40
1.0
 40
1.0
 40
1.0
 40
1.0
 10
5.14326717
 20
10.3491109847
 30
0.0
 10
5.1464137319
 20
10.347460851
 30
0.0
 10
5.1588225975
 20
10.3411906201
 30
0.0
 10
5.1716215606
 20
10.3356861413
 30
0.0
 10
5.1813252667
 20
10.3320870568
 30
0.0
  0
SPLINE
  5
49B
100
AcDbEntity
  8
0
100
AcDbSpline
 62
9
  6
CONTINUOUS
 70
0
 71
3
 72
9
 73
5
 74
0
 42
0.0000001
 43
0.0000001
 44
0.0000000001
 40
0.0
 40
0.0
 40
0.0
 40
0.0
 40
0.2556214977
 40
1.0
 40
1.0
 40
1.0
 40
1.0
 10
5.2971999086
 20
10.5329783007
 30
0.0
 10
5.3014387729
 20
10.5299245477
 30
0.0
 10
5.3181406369
 20
10.5181456022
 30
0.0
 10
5.3353436753
 20
10.5070695189
 30
0.0
 10
5.3484412013
 20
10.4993299403
 30
0.0
  0
SPLINE
  5
49C
100
AcDbEntity
  8
0
100
AcDbSpline
 62
9
  6
CONTINUOUS
 70
0
 71
3
 72
31
 73
27
 74
0
 42
0.0000001
 43
0.0000001
 44
0.0000000001
 40
0.0
 40
0.0
 40
0.0
 40
0.0
 40
0.0761599122
 40
0.1528707412
 40
0.2293013148
 40
0.3046614436
 40
0.3782991194
 40
0.4496157422
 40
0.4842471113
 40
0.5181373591
 40
0.5512508892
 40
0.5835557081
 40
0.6150241483
 40
0.6456409298
 40
0.675409528
 40
0.7043394666
 40
0.7597370424
 40
0.7862682674
 40
0.8120780857
 40
0.8617418162
 40
0.8857317897
 40
0.909242863
 40
0.9323481792
 40
0.9551258458
 40
0.9776520731
 40
1.0
 40
1.0
 40
1.0
 40
1.0
 10
5.2449473959
 20
10.2157588243
 30
0.0
 10
5.2559056429
 20
10.2308700092
 30
0.0
 10
5.277701604
 20
10.261346405
 30
0.0
 10
5.3101622317
 20
10.3072240715
 30
0.0
 10
5.3426275166
 20
10.352858715
 30
0.0
 10
5.3751206192
 20
10.3975472801
 30
0.0
 10
5.4076116513
 20
10.4406801687
 30
0.0
 10
5.4349568277
 20
10.4751795574
 30
0.0
 10
5.4569126419
 20
10.5014992053
 30
0.0
 10
5.4732184783
 20
10.5203330147
 30
0.0
 10
5.4895245458
 20
10.5384060566
 30
0.0
 10
5.5058307023
 20
10.5556717911
 30
0.0
 10
5.5221392177
 20
10.5720840622
 30
0.0
 10
5.5384526304
 20
10.5876029676
 30
0.0
 10
5.5547675583
 20
10.6022044822
 30
0.0
 10
5.5762116051
 20
10.620157902
 30
0.0
 10
5.5979627941
 20
10.636495329
 30
0.0
 10
5.620050003
 20
10.6509815334
 30
0.0
 10
5.6415450836
 20
10.663759786
 30
0.0
 10
5.6633492841
 20
10.6747652749
 30
0.0
 10
5.6853839911
 20
10.6838221676
 30
0.0
 10
5.7017253853
 20
10.6895434468
 30
0.0
 10
5.7180696
 20
10.6942792168
 30
0.0
 10
5.7344143003
 20
10.6980553986
 30
0.0
 10
5.7507582913
 20
10.7008956672
 30
0.0
 10
5.761687149
 20
10.7021856068
 30
0.0
 10
5.7671420543
 20
10.7026807833
 30
0.0
  0
SPLINE
  5
49D
100
AcDbEntity
  8
0
100
AcDbSpline
 62
9
  6
CONTINUOUS
 70
0
 71
3
 72
15
 73
11
 74
0
 42
0.0000001
 43
0.0000001
 44
0.0000000001
 40
0.0
 40
0.0
 40
0.0
 40
0.0
 40
0.1530668516
 40
0.2958652725
 40
0.4291978915
 40
0.5540874834
 40
0.6718946976
 40
0.7842971857
 40
0.8930689757
 40
1.0
 40
1.0
 40
1.0
 40
1.0
 10
5.2449473959
 20
10.6815912216
 30
0.0
 10
5.2533434671
 20
10.6908160606
 30
0.0
 10
5.2701156788
 20
10.7081660117
 30
0.0
 10
5.2961988084
 20
10.731518682
 30
0.0
 10
5.3223115809
 20
10.7512406876
 30
0.0
 10
5.3484750523
 20
10.7672971833
 30
0.0
 10
5.3746988167
 20
10.7796793971
 30
0.0
 10
5.4009585443
 20
10.7884723824
 30
0.0
 10
5.4272370649
 20
10.7937645059
 30
0.0
 10
5.4448237299
 20
10.7950256761
 30
0.0
 10
5.4535372174
 20
10.7951167805
 30
0.0
  0
SPLINE
  5
49E
100
AcDbEntity
  8
0
100
AcDbSpline
 62
7
  6
CONTINUOUS
 70
0
 71
3
 72
19
 73
15
 74
0
 42
0.0000001
 43
0.0000001
 44
0.0000000001
 40
0.0
 40
0.0
 40
0.0
 40
0.0
 40
0.0315611106
 40
0.0634497468
 40
0.1276838773
 40
0.1921254358
 40
0.2565271226
 40
0.3207500339
 40
0.3847014814
 40
0.5115298109
 40
0.6366246036
 40
0.7597722186
 40
0.8808892162
 40
1.0
 40
1.0
 40
1.0
 40
1.0
 10
5.6233357152
 20
10.4738969207
 30
0.0
 10
5.625917398
 20
10.4752552369
 30
0.0
 10
5.6310708334
 20
10.4780558562
 30
0.0
 10
5.6413423364
 20
10.4838685683
 30
0.0
 10
5.6541320425
 20
10.4913987863
 30
0.0
 10
5.6694174262
 20
10.5006099296
 30
0.0
 10
5.6846677236
 20
10.5098770876
 30
0.0
 10
5.699887371
 20
10.5191074697
 30
0.0
 10
5.720093298
 20
10.5312428274
 30
0.0
 10
5.7452852062
 20
10.546004728
 30
0.0
 10
5.7756273236
 20
10.5627841231
 30
0.0
 10
5.8060194227
 20
10.5783515493
 30
0.0
 10
5.836481396
 20
10.592520319
 30
0.0
 10
5.8570239717
 20
10.6009752361
 30
0.0
 10
5.8673072674
 20
10.6049074412
 30
0.0
  0
SPLINE
  5
49F
100
AcDbEntity
  8
0
100
AcDbSpline
 62
9
  6
CONTINUOUS
 70
0
 71
3
 72
23
 73
19
 74
0
 42
0.0000001
 43
0.0000001
 44
0.0000000001
 40
0.0
 40
0.0
 40
0.0
 40
0.0
 40
0.0651079369
 40
0.1311538234
 40
0.197938878
 40
0.265198474
 40
0.3326174799
 40
0.3998748582
 40
0.4666225462
 40
0.5324961905
 40
0.5971548027
 40
0.6602860686
 40
0.7216238747
 40
0.7809852497
 40
0.8383133843
 40
0.8937044166
 40
0.9474336639
 40
1.0
 40
1.0
 40
1.0
 40
1.0
 10
2.7570371102
 20
10.504522826
 30
0.0
 10
2.7666875102
 20
10.511578714
 30
0.0
 10
2.785958398
 20
10.5260239902
 30
0.0
 10
2.814629829
 20
10.5483615872
 30
0.0
 10
2.8432876007
 20
10.5713525268
 30
0.0
 10
2.871935337
 20
10.5947554338
 30
0.0
 10
2.9005838387
 20
10.6182939444
 30
0.0
 10
2.9292252731
 20
10.6416930823
 30
0.0
 10
2.9578609172
 20
10.6646495958
 30
0.0
 10
2.986499345
 20
10.686834124
 30
0.0
 10
3.0151394961
 20
10.7079185427
 30
0.0
 10
3.0437846408
 20
10.7275647444
 30
0.0
 10
3.0724433802
 20
10.7454233298
 30
0.0
 10
3.1011285
 20
10.7611420108
 30
0.0
 10
3.1298500476
 20
10.7743828188
 30
0.0
 10
3.158621548
 20
10.784820015
 30
0.0
 10
3.1874561689
 20
10.7921125014
 30
0.0
 10
3.2068645276
 20
10.7946706113
 30
0.0
 10
3.2164951677
 20
10.7953112295
 30
0.0
  0
SPLINE
  5
4A0
100
AcDbEntity
  8
0
100
AcDbSpline
 62
7
  6
CONTINUOUS
 70
0
 71
3
 72
14
 73
10
 74
0
 42
0.0000001
 43
0.0000001
 44
0.0000000001
 40
0.0
 40
0.0
 40
0.0
 40
0.0
 40
0.2489168352
 40
0.374261057
 40
0.4999077654
 40
0.6255997838
 40
0.751059618
 40
0.8759766778
 40
1.0
 40
1.0
 40
1.0
 40
1.0
 10
2.7921285858
 20
10.4575585923
 30
0.0
 10
2.8075126501
 20
10.4661818829
 30
0.0
 10
2.8304236506
 20
10.479541004
 30
0.0
 10
2.860730971
 20
10.4978705307
 30
0.0
 10
2.8834661244
 20
10.5118490066
 30
0.0
 10
2.9061666586
 20
10.5258986751
 30
0.0
 10
2.9288454837
 20
10.5398853974
 30
0.0
 10
2.951513188
 20
10.5536641296
 30
0.0
 10
2.966697561
 20
10.5626396136
 30
0.0
 10
2.9743081534
 20
10.5670320855
 30
0.0
  0
SPLINE
  5
4A1
100
AcDbEntity
  8
0
100
AcDbSpline
 62
7
  6
CONTINUOUS
 70
0
 71
3
 72
28
 73
24
 74
0
 42
0.0000001
 43
0.0000001
 44
0.0000000001
 40
0.0
 40
0.0
 40
0.0
 40
0.0
 40
0.0143570896
 40
0.0287457811
 40
0.0438299394
 40
0.0601039104
 40
0.077875766
 40
0.0973083701
 40
0.1184703937
 40
0.1413668081
 40
0.1659661795
 40
0.1922111221
 40
0.2493378126
 40
0.3120968826
 40
0.379692146
 40
0.4512376765
 40
0.5259367672
 40
0.6030637981
 40
0.6819226564
 40
0.7618144362
 40
0.842001741
 40
0.9216908029
 40
1.0
 40
1.0
 40
1.0
 40
1.0
 10
19.3375995664
 20
10.6715515518
 30
0.0
 10
19.3382902045
 20
10.6712653885
 30
0.0
 10
19.3396112668
 20
10.6705256922
 30
0.0
 10
19.3412919187
 20
10.6689530335
 30
0.0
 10
19.342650255
 20
10.6669772112
 30
0.0
 10
19.343708187
 20
10.6646364429
 30
0.0
 10
19.3444889222
 20
10.661956009
 30
0.0
 10
19.3450111681
 20
10.6589571206
 30
0.0
 10
19.34528974
 20
10.6556594856
 30
0.0
 10
19.3453379649
 20
10.6520823829
 30
0.0
 10
19.3451669932
 20
10.6482447012
 30
0.0
 10
19.3446453034
 20
10.6426451554
 30
0.0
 10
19.3434689281
 20
10.6351202087
 30
0.0
 10
19.3413772652
 20
10.6255805133
 30
0.0
 10
19.3386474638
 20
10.6154251696
 30
0.0
 10
19.3353964047
 20
10.6047740806
 30
0.0
 10
19.3317042752
 20
10.5937434004
 30
0.0
 10
19.3276303348
 20
10.5824425304
 30
0.0
 10
19.3232160817
 20
10.5709799781
 30
0.0
 10
19.3184906907
 20
10.5594695923
 30
0.0
 10
19.3134745062
 20
10.5480353655
 30
0.0
 10
19.3081810925
 20
10.5368174483
 30
0.0
 10
19.3044305758
 20
10.5294929475
 30
0.0
 10
19.3025080908
 20
10.5258970239
 30
0.0
  0
SPLINE
  5
4A2
100
AcDbEntity
  8
0
100
AcDbSpline
 62
9
  6
CONTINUOUS
 70
0
 71
3
 72
11
 73
7
 74
0
 42
0.0000001
 43
0.0000001
 44
0.0000000001
 40
0.0
 40
0.0
 40
0.0
 40
0.0
 40
0.2564403533
 40
0.5075913719
 40
0.7548833503
 40
1.0
 40
1.0
 40
1.0
 40
1.0
 10
16.8733903144
 20
10.2698688873
 30
0.0
 10
16.875275605
 20
10.2698103082
 30
0.0
 10
16.8790046661
 20
10.2694970567
 30
0.0
 10
16.8844626504
 20
10.2684152056
 30
0.0
 10
16.8896788572
 20
10.2667305466
 30
0.0
 10
16.8929750457
 20
10.2652036363
 30
0.0
 10
16.8945603861
 20
10.2643450423
 30
0.0
  0
SPLINE
  5
4A3
100
AcDbEntity
  8
0
100
AcDbSpline
 62
9
  6
CONTINUOUS
 70
0
 71
3
 72
12
 73
8
 74
0
 42
0.0000001
 43
0.0000001
 44
0.0000000001
 40
0.0
 40
0.0
 40
0.0
 40
0.0
 40
0.2723558049
 40
0.5276248149
 40
0.7687499039
 40
0.8853238946
 40
1.0
 40
1.0
 40
1.0
 40
1.0
 10
18.6546745913
 20
10.0989651381
 30
0.0
 10
18.6473252376
 20
10.0935004374
 30
0.0
 10
18.632609529
 20
10.0835280574
 30
0.0
 10
18.6097214549
 20
10.0713947758
 30
0.0
 10
18.5903585308
 20
10.0641165215
 30
0.0
 10
18.5749473432
 20
10.060215975
 30
0.0
 10
18.5672734845
 20
10.0588982346
 30
0.0
 10
18.5634494063
 20
10.0584018528
 30
0.0
  0
LINE
  5
4A4
100
AcDbEntity
  8
0
100
AcDbLine
 62
7
  6
CONTINUOUS
 10
19.3317784703
 20
10.6723589884
 11
19.3345910156
 21
10.6723042453
  0
SPLINE
  5
4A5
100
AcDbEntity
  8
0
100
AcDbSpline
 62
7
  6
CONTINUOUS
 70
0
 71
3
 72
9
 73
5
 74
0
 42
0.0000001
 43
0.0000001
 44
0.0000000001
 40
0.0
 40
0.0
 40
0.0
 40
0.0
 40
0.2601316503
 40
1.0
 40
1.0
 40
1.0
 40
1.0
 10
19.3345910156
 20
10.6723042453
 30
0.0
 10
19.3348586671
 20
10.6722736917
 30
0.0
 10
19.3358835041
 20
10.67212551
 30
0.0
 10
19.3368917227
 20
10.671844844
 30
0.0
 10
19.3375995664
 20
10.6715515518
 30
0.0
  0
SPLINE
  5
4A6
100
AcDbEntity
  8
0
100
AcDbSpline
 62
7
  6
CONTINUOUS
 70
0
 71
3
 72
15
 73
11
 74
0
 42
0.0000001
 43
0.0000001
 44
0.0000000001
 40
0.0
 40
0.0
 40
0.0
 40
0.0
 40
0.1396919816
 40
0.2767171229
 40
0.4098328881
 40
0.5382959818
 40
0.6618495785
 40
0.7801931007
 40
0.8930011478
 40
1.0
 40
1.0
 40
1.0
 40
1.0
 10
19.3375995664
 20
10.4789327902
 30
0.0
 10
19.3366534666
 20
10.4815398397
 30
0.0
 10
19.3345736603
 20
10.4866319671
 30
0.0
 10
19.3309289564
 20
10.4939149314
 30
0.0
 10
19.3268601182
 20
10.5007115541
 30
0.0
 10
19.3224421816
 20
10.5069613958
 30
0.0
 10
19.3177503226
 20
10.5126321277
 30
0.0
 10
19.3128527798
 20
10.517702764
 30
0.0
 10
19.3078063507
 20
10.5221418337
 30
0.0
 10
19.3042818714
 20
10.5247280586
 30
0.0
 10
19.3025080908
 20
10.5258970239
 30
0.0
  0
SPLINE
  5
4A7
100
AcDbEntity
  8
0
100
AcDbSpline
 62
9
  6
CONTINUOUS
 70
0
 71
3
 72
13
 73
9
 74
0
 42
0.0000001
 43
0.0000001
 44
0.0000000001
 40
0.0
 40
0.0
 40
0.0
 40
0.0
 40
0.1164818734
 40
0.2340530835
 40
0.3535403308
 40
0.4756409088
 40
0.7295947015
 40
1.0
 40
1.0
 40
1.0
 40
1.0
 10
18.6999372004
 20
10.1002159777
 30
0.0
 10
18.6983466553
 20
10.0993476948
 30
0.0
 10
18.6950362024
 20
10.0978045798
 30
0.0
 10
18.6897916773
 20
10.0961064174
 30
0.0
 10
18.6842975005
 20
10.0950211649
 30
0.0
 10
18.6766003325
 20
10.0943873366
 30
0.0
 10
18.6665007039
 20
10.0952106122
 30
0.0
 10
18.6586042788
 20
10.0974638346
 30
0.0
 10
18.6546745928
 20
10.0989651392
 30
0.0
  0
SPLINE
  5
4A8
100
AcDbEntity
  8
0
100
AcDbSpline
 62
9
  6
CONTINUOUS
 70
0
 71
3
 72
24
 73
20
 74
0
 42
0.0000001
 43
0.0000001
 44
0.0000000001
 40
0.0
 40
0.0
 40
0.0
 40
0.0
 40
0.0685305901
 40
0.1400556998
 40
0.2136706848
 40
0.2884118485
 40
0.3632987997
 40
0.4373715149
 40
0.5097609203
 40
0.5797219971
 40
0.6465325394
 40
0.7095192141
 40
0.7681206584
 40
0.8219867492
 40
0.8712557863
 40
0.9166298617
 40
0.9590920342
 40
0.9796561635
 40
1.0
 40
1.0
 40
1.0
 40
1.0
 10
16.8496892804
 20
10.3018643943
 30
0.0
 10
16.8463994129
 20
10.3038086518
 30
0.0
 10
16.8398677377
 20
10.3081126415
 30
0.0
 10
16.830484536
 20
10.3154736489
 30
0.0
 10
16.8214237858
 20
10.323750702
 30
0.0
 10
16.8128474314
 20
10.3327878478
 30
0.0
 10
16.8049155822
 20
10.342429223
 30
0.0
 10
16.7977897851
 20
10.3525223842
 30
0.0
 10
16.7916223752
 20
10.3629106096
 30
0.0
 10
16.7864809205
 20
10.3733938938
 30
0.0
 10
16.7824313521
 20
10.3837862047
 30
0.0
 10
16.7795383519
 20
10.3939034265
 30
0.0
 10
16.777864728
 20
10.4035653483
 30
0.0
 10
16.7774852675
 20
10.4126076539
 30
0.0
 10
16.7784612721
 20
10.4208721244
 30
0.0
 10
16.7807296392
 20
10.4282218522
 30
0.0
 10
16.7836992951
 20
10.4335496241
 30
0.0
 10
16.7866443726
 20
10.4371584378
 30
0.0
 10
16.7882926066
 20
10.4387452689
 30
0.0
 10
16.7891566038
 20
10.4394804038
 30
0.0
  0
SPLINE
  5
4A9
100
AcDbEntity
  8
0
100
AcDbSpline
 62
9
  6
CONTINUOUS
 70
0
 71
3
 72
11
 73
7
 74
0
 42
0.0000001
 43
0.0000001
 44
0.0000000001
 40
0.0
 40
0.0
 40
0.0
 40
0.0
 40
0.247099301
 40
0.4981764109
 40
0.7501683901
 40
1.0
 40
1.0
 40
1.0
 40
1.0
 10
18.6546745913
 20
10.441477121
 30
0.0
 10
18.6448504354
 20
10.4257469
 30
0.0
 10
18.6253282843
 20
10.3938557112
 30
0.0
 10
18.5963914993
 20
10.3455568034
 30
0.0
 10
18.5674534608
 20
10.2970199582
 30
0.0
 10
18.5480009387
 20
10.2647671194
 30
0.0
 10
18.5382136532
 20
10.2487730095
 30
0.0
  0
SPLINE
  5
4AA
100
AcDbEntity
  8
0
100
AcDbSpline
 62
9
  6
CONTINUOUS
 70
0
 71
3
 72
25
 73
21
 74
0
 42
0.0000001
 43
0.0000001
 44
0.0000000001
 40
0.0
 40
0.0
 40
0.0
 40
0.0
 40
0.0818661747
 40
0.1622369746
 40
0.2407496652
 40
0.3170540036
 40
0.3908165428
 40
0.4617266063
 40
0.5295103541
 40
0.5940003573
 40
0.6551163585
 40
0.7128361029
 40
0.7672136639
 40
0.7931993543
 40
0.8184182733
 40
0.8667137512
 40
0.912608061
 40
0.9567650522
 40
0.9784476255
 40
1.0
 40
1.0
 40
1.0
 40
1.0
 10
18.5382136532
 20
10.2487730095
 30
0.0
 10
18.5320347887
 20
10.238675681
 30
0.0
 10
18.5197077326
 20
10.2187154916
 30
0.0
 10
18.5010761278
 20
10.1893074609
 30
0.0
 10
18.4824462767
 20
10.1608541546
 30
0.0
 10
18.4638184167
 20
10.1335477892
 30
0.0
 10
18.4451922986
 20
10.1075803738
 30
0.0
 10
18.4265681917
 20
10.0831415614
 30
0.0
 10
18.4079343995
 20
10.0604165778
 30
0.0
 10
18.3892931321
 20
10.039558842
 30
0.0
 10
18.3706477297
 20
10.0206966394
 30
0.0
 10
18.3519943676
 20
10.0039567809
 30
0.0
 10
18.3362046017
 20
9.9916985961
 30
0.0
 10
18.3235597182
 20
9.9831342726
 30
0.0
 10
18.3112815486
 20
9.9756263952
 30
0.0
 10
18.2958831862
 20
9.9677334709
 30
0.0
 10
18.2770919942
 20
9.9607305944
 30
0.0
 10
18.2612928397
 20
9.9570946765
 30
0.0
 10
18.2487378948
 20
9.9555832107
 30
0.0
 10
18.2424865161
 20
9.9552844187
 30
0.0
 10
18.2393702385
 20
9.9552497488
 30
0.0
  0
SPLINE
  5
4AB
100
AcDbEntity
  8
0
100
AcDbSpline
 62
9
  6
CONTINUOUS
 70
0
 71
3
 72
52
 73
48
 74
0
 42
0.0000001
 43
0.0000001
 44
0.0000000001
 40
0.0
 40
0.0
 40
0.0
 40
0.0
 40
0.0092354647
 40
0.0186087892
 40
0.0282064385
 40
0.0381058848
 40
0.0483748046
 40
0.0590710486
 40
0.0702431696
 40
0.0819312789
 40
0.1069714407
 40
0.1203689045
 40
0.1343530251
 40
0.1489188273
 40
0.164057178
 40
0.1797555695
 40
0.195998742
 40
0.2300459547
 40
0.2660349454
 40
0.3037290229
 40
0.34284845
 40
0.3831013053
 40
0.424187636
 40
0.4657965407
 40
0.5075999532
 40
0.5492665585
 40
0.5904658362
 40
0.6308772774
 40
0.6702188498
 40
0.708225148
 40
0.7446405998
 40
0.7792239108
 40
0.811771772
 40
0.8272479523
 40
0.8421797902
 40
0.8565612564
 40
0.8703891679
 40
0.8836637803
 40
0.896389513
 40
0.9202311827
 40
0.9314038521
 40
0.9421257285
 40
0.9623940315
 40
0.9720660437
 40
0.9815099369
 40
0.9907962853
 40
1.0
 40
1.0
 40
1.0
 40
1.0
 10
17.7457429693
 20
11.0853455158
 30
0.0
 10
17.741621155
 20
11.085152276
 30
0.0
 10
17.733330328
 20
11.0843323084
 30
0.0
 10
17.720956992
 20
11.0818423018
 30
0.0
 10
17.7085918509
 20
11.0781051814
 30
0.0
 10
17.696237263
 20
11.0731392778
 30
0.0
 10
17.6838922053
 20
11.0669623691
 30
0.0
 10
17.6715557122
 20
11.0595915653
 30
0.0
 10
17.6592259169
 20
11.0510430989
 30
0.0
 10
17.6424072739
 20
11.0377908702
 30
0.0
 10
17.6260124126
 20
11.0224686071
 30
0.0
 10
17.6099621641
 20
11.0054069544
 30
0.0
 10
17.5976548153
 20
10.9912659206
 30
0.0
 10
17.5853487599
 20
10.9761101137
 30
0.0
 10
17.5730426999
 20
10.959980095
 30
0.0
 10
17.5607364422
 20
10.9429178025
 30
0.0
 10
17.5440659347
 20
10.9185970875
 30
0.0
 10
17.5233054085
 20
10.8861032009
 30
0.0
 10
17.4987796474
 20
10.844679442
 30
0.0
 10
17.4742529825
 20
10.8006454175
 30
0.0
 10
17.4497181539
 20
10.7544495461
 30
0.0
 10
17.4251775012
 20
10.7065485637
 30
0.0
 10
17.4006340722
 20
10.6574033841
 30
0.0
 10
17.3760927716
 20
10.6074844892
 30
0.0
 10
17.3515506442
 20
10.5572774465
 30
0.0
 10
17.3270092291
 20
10.5072737255
 30
0.0
 10
17.3024691216
 20
10.4579626123
 30
0.0
 10
17.277921163
 20
10.409817826
 30
0.0
 10
17.2533759535
 20
10.3632774701
 30
0.0
 10
17.2288373113
 20
10.3187602588
 30
0.0
 10
17.2043061763
 20
10.2766797406
 30
0.0
 10
17.1797802205
 20
10.2374415132
 30
0.0
 10
17.1589878744
 20
10.206930617
 30
0.0
 10
17.1422948573
 20
10.1842876979
 30
0.0
 10
17.1299857763
 20
10.1685060035
 30
0.0
 10
17.1176764477
 20
10.1536688588
 30
0.0
 10
17.1053666433
 20
10.1398073447
 30
0.0
 10
17.0930548807
 20
10.1269512731
 30
0.0
 10
17.0769865481
 20
10.1115280359
 30
0.0
 10
17.0605759168
 20
10.0978280346
 30
0.0
 10
17.0437696213
 20
10.0861809757
 30
0.0
 10
17.0276276464
 20
10.0764537934
 30
0.0
 10
17.0111174955
 20
10.0686791534
 30
0.0
 10
16.9943853446
 20
10.0631760552
 30
0.0
 10
16.9820213585
 20
10.0602448662
 30
0.0
 10
16.9696537608
 20
10.0584531111
 30
0.0
 10
16.9613899605
 20
10.0580205255
 30
0.0
 10
16.9572778768
 20
10.0579961535
 30
0.0
  0
SPLINE
  5
4AC
100
AcDbEntity
  8
0
100
AcDbSpline
 62
9
  6
CONTINUOUS
 70
0
 71
3
 72
9
 73
5
 74
0
 42
0.0000001
 43
0.0000001
 44
0.0000000001
 40
0.0
 40
0.0
 40
0.0
 40
0.0
 40
0.502364726
 40
1.0
 40
1.0
 40
1.0
 40
1.0
 10
18.7723751321
 20
10.662901015
 30
0.0
 10
18.7596353696
 20
10.665317742
 30
0.0
 10
18.7340855908
 20
10.6692018001
 30
0.0
 10
18.7082601005
 20
10.6706609164
 30
0.0
 10
18.6954152138
 20
10.6706606873
 30
0.0
  0
SPLINE
  5
4AD
100
AcDbEntity
  8
0
100
AcDbSpline
 62
9
  6
CONTINUOUS
 70
0
 71
3
 72
9
 73
5
 74
0
 42
0.0000001
 43
0.0000001
 44
0.0000000001
 40
0.0
 40
0.0
 40
0.0
 40
0.0
 40
0.4867339275
 40
1.0
 40
1.0
 40
1.0
 40
1.0
 10
18.4169668095
 20
10.2800831779
 30
0.0
 10
18.4076404617
 20
10.2852729021
 30
0.0
 10
18.3889793652
 20
10.2968475795
 30
0.0
 10
18.3712933238
 20
10.3098444402
 30
0.0
 10
18.3624441592
 20
10.3167988493
 30
0.0
  0
SPLINE
  5
4AE
100
AcDbEntity
  8
0
100
AcDbSpline
 62
9
  6
CONTINUOUS
 70
0
 71
3
 72
9
 73
5
 74
0
 42
0.0000001
 43
0.0000001
 44
0.0000000001
 40
0.0
 40
0.0
 40
0.0
 40
0.0
 40
0.4940130175
 40
1.0
 40
1.0
 40
1.0
 40
1.0
 10
18.2276519798
 20
10.4543170147
 30
0.0
 10
18.2153354694
 20
10.4692276143
 30
0.0
 10
18.190868268
 20
10.4997942038
 30
0.0
 10
18.1669826801
 20
10.5308120101
 30
0.0
 10
18.1549543792
 20
10.5465502867
 30
0.0
  0
SPLINE
  5
4AF
100
AcDbEntity
  8
0
100
AcDbSpline
 62
9
  6
CONTINUOUS
 70
0
 71
3
 72
10
 73
6
 74
0
 42
0.0000001
 43
0.0000001
 44
0.0000000001
 40
0.0
 40
0.0
 40
0.0
 40
0.0
 40
0.2595722434
 40
0.513292772
 40
1.0
 40
1.0
 40
1.0
 40
1.0
 10
18.0326381892
 20
10.7041111252
 30
0.0
 10
18.0264863725
 20
10.7115781064
 30
0.0
 10
18.0142065423
 20
10.7262503579
 30
0.0
 10
17.9897342146
 20
10.7543629111
 30
0.0
 10
17.9708896253
 20
10.7745512877
 30
0.0
 10
17.9580635275
 20
10.7873797157
 30
0.0
  0
SPLINE
  5
4B0
100
AcDbEntity
  8
0
100
AcDbSpline
 62
9
  6
CONTINUOUS
 70
0
 71
3
 72
9
 73
5
 74
0
 42
0.0000001
 43
0.0000001
 44
0.0000000001
 40
0.0
 40
0.0
 40
0.0
 40
0.0
 40
0.5045898548
 40
1.0
 40
1.0
 40
1.0
 40
1.0
 10
17.80111894
 20
10.8911262435
 30
0.0
 10
17.7929448093
 20
10.8933583161
 30
0.0
 10
17.7764540311
 20
10.8967935483
 30
0.0
 10
17.759642048
 20
10.8979778478
 30
0.0
 10
17.7513227965
 20
10.8979769442
 30
0.0
  0
SPLINE
  5
4B1
100
AcDbEntity
  8
0
100
AcDbSpline
 62
9
  6
CONTINUOUS
 70
0
 71
3
 72
22
 73
18
 74
0
 42
0.0000001
 43
0.0000001
 44
0.0000000001
 40
0.0
 40
0.0
 40
0.0
 40
0.0
 40
0.0494052044
 40
0.0995807105
 40
0.1511838596
 40
0.2046638503
 40
0.3180549548
 40
0.3783945141
 40
0.4411450849
 40
0.5062825388
 40
0.573592267
 40
0.6427179487
 40
0.7132358715
 40
0.7846857021
 40
0.8565960877
 40
0.9285079032
 40
1.0
 40
1.0
 40
1.0
 40
1.0
 10
16.8043160106
 20
10.100051573
 30
0.0
 10
16.802259797
 20
10.1012006878
 30
0.0
 10
16.7982979098
 20
10.1038641384
 30
0.0
 10
16.7930476792
 20
10.1088462598
 30
0.0
 10
16.7885033332
 20
10.114724288
 30
0.0
 10
16.7833327139
 20
10.1237978378
 30
0.0
 10
16.779857197
 20
10.1341870665
 30
0.0
 10
16.7780427777
 20
10.1453272502
 30
0.0
 10
16.7775269011
 20
10.1543044268
 30
0.0
 10
16.7779258259
 20
10.1636161089
 30
0.0
 10
16.7792015817
 20
10.1731536029
 30
0.0
 10
16.7813157908
 20
10.1828022208
 30
0.0
 10
16.7842314176
 20
10.1924452835
 30
0.0
 10
16.7879113994
 20
10.2019654478
 30
0.0
 10
16.7923195108
 20
10.2112450021
 30
0.0
 10
16.7974177396
 20
10.2201665162
 30
0.0
 10
16.8012745545
 20
10.2258224038
 30
0.0
 10
16.8033054495
 20
10.2285598881
 30
0.0
  0
SPLINE
  5
4B2
100
AcDbEntity
  8
0
100
AcDbSpline
 62
9
  6
CONTINUOUS
 70
0
 71
3
 72
21
 73
17
 74
0
 42
0.0000001
 43
0.0000001
 44
0.0000000001
 40
0.0
 40
0.0
 40
0.0
 40
0.0
 40
0.1799909634
 40
0.3482169647
 40
0.4269950795
 40
0.5017300339
 40
0.5720897333
 40
0.6377759112
 40
0.6985413817
 40
0.7542169572
 40
0.8048007127
 40
0.8506270686
 40
0.892225683
 40
0.9303151575
 40
0.9658447805
 40
1.0
 40
1.0
 40
1.0
 40
1.0
 10
16.8496892804
 20
10.7676967914
 30
0.0
 10
16.8460306013
 20
10.7704105702
 30
0.0
 10
16.8387891894
 20
10.7754451621
 30
0.0
 10
16.8295160067
 20
10.781013395
 30
0.0
 10
16.8222998183
 20
10.7847900284
 30
0.0
 10
16.8171713573
 20
10.7872030063
 30
0.0
 10
16.8122400725
 20
10.7892434943
 30
0.0
 10
16.8075380979
 20
10.7908957783
 30
0.0
 10
16.8030972257
 20
10.7921441991
 30
0.0
 10
16.7989470832
 20
10.7929738834
 30
0.0
 10
16.7951113258
 20
10.7933676354
 30
0.0
 10
16.7916099477
 20
10.7933300354
 30
0.0
 10
16.7884557586
 20
10.7928675284
 30
0.0
 10
16.7856613671
 20
10.7919832578
 30
0.0
 10
16.7832453902
 20
10.7906802281
 30
0.0
 10
16.7818913336
 20
10.7895248471
 30
0.0
 10
16.7812998734
 20
10.7888944634
 30
0.0
  0
SPLINE
  5
4B3
100
AcDbEntity
  8
0
100
AcDbSpline
 62
9
  6
CONTINUOUS
 70
0
 71
3
 72
45
 73
41
 74
0
 42
0.0000001
 43
0.0000001
 44
0.0000000001
 40
0.0
 40
0.0
 40
0.0
 40
0.0
 40
0.0202016092
 40
0.0417946738
 40
0.0650419387
 40
0.0901251223
 40
0.1171624766
 40
0.1314329368
 40
0.1461962349
 40
0.1771555961
 40
0.2099359215
 40
0.2444049786
 40
0.2804127954
 40
0.3177751546
 40
0.3562567081
 40
0.3956095358
 40
0.4355802281
 40
0.4759117935
 40
0.5163399197
 40
0.5565901423
 40
0.5963879801
 40
0.635461564
 40
0.6735458435
 40
0.7104075134
 40
0.7458374262
 40
0.7796386806
 40
0.8116314226
 40
0.8416606399
 40
0.869634975
 40
0.8955558816
 40
0.9077662935
 40
0.9194927222
 40
0.930755437
 40
0.9415814188
 40
0.9520054087
 40
0.9620712185
 40
0.9718352794
 40
0.9813633368
 40
0.9907265004
 40
1.0
 40
1.0
 40
1.0
 40
1.0
 10
18.6403543186
 20
10.8491401975
 30
0.0
 10
18.6325971525
 20
10.8463992718
 30
0.0
 10
18.6169708675
 20
10.8394858449
 30
0.0
 10
18.594278019
 20
10.825713457
 30
0.0
 10
18.5716350948
 20
10.8083662849
 30
0.0
 10
18.5490289252
 20
10.787554139
 30
0.0
 10
18.5305581135
 20
10.7677778914
 30
0.0
 10
18.5157567791
 20
10.7503863175
 30
0.0
 10
18.5004477427
 20
10.7313411471
 30
0.0
 10
18.4813753798
 20
10.7056673643
 30
0.0
 10
18.458834303
 20
10.6726186209
 30
0.0
 10
18.4362885509
 20
10.637114096
 30
0.0
 10
18.4137448962
 20
10.5994188736
 30
0.0
 10
18.3912103986
 20
10.5598281814
 30
0.0
 10
18.3686712031
 20
10.5186812331
 30
0.0
 10
18.3461287868
 20
10.4763296332
 30
0.0
 10
18.3235837242
 20
10.4331283118
 30
0.0
 10
18.3010387257
 20
10.3894338771
 30
0.0
 10
18.2784963884
 20
10.3456100926
 30
0.0
 10
18.2559548313
 20
10.3020303328
 30
0.0
 10
18.2334150548
 20
10.2590712708
 30
0.0
 10
18.210878528
 20
10.2171084382
 30
0.0
 10
18.1883377643
 20
10.1765092869
 30
0.0
 10
18.1657968843
 20
10.1376147976
 30
0.0
 10
18.1432615709
 20
10.1007447934
 30
0.0
 10
18.1207313709
 20
10.0662136203
 30
0.0
 10
18.0982070453
 20
10.0343325514
 30
0.0
 10
18.0756745143
 20
10.0054040223
 30
0.0
 10
18.0531159827
 20
9.9796982663
 30
0.0
 10
18.0339372935
 20
9.9607587497
 30
0.0
 10
18.0185544751
 20
9.9474949316
 30
0.0
 10
18.0072442614
 20
9.9386766283
 30
0.0
 10
17.9959303202
 20
9.930811927
 30
0.0
 10
17.9846111418
 20
9.9239245379
 30
0.0
 10
17.9732856451
 20
9.9180376866
 30
0.0
 10
17.9619503592
 20
9.9131774738
 30
0.0
 10
17.9506069075
 20
9.9093567195
 30
0.0
 10
17.939257339
 20
9.9065778465
 30
0.0
 10
17.9279039786
 20
9.9048445068
 30
0.0
 10
17.9203152917
 20
9.9043868156
 30
0.0
 10
17.9165390013
 20
9.9043338619
 30
0.0
  0
SPLINE
  5
4B4
100
AcDbEntity
  8
0
100
AcDbSpline
 62
9
  6
CONTINUOUS
 70
0
 71
3
 72
9
 73
5
 74
0
 42
0.0000001
 43
0.0000001
 44
0.0000000001
 40
0.0
 40
0.0
 40
0.0
 40
0.0
 40
0.2484094989
 40
1.0
 40
1.0
 40
1.0
 40
1.0
 10
18.7251542763
 20
10.6285990533
 30
0.0
 10
18.7206244062
 20
10.6318777584
 30
0.0
 10
18.7024443164
 20
10.6451531967
 30
0.0
 10
18.6844449577
 20
10.6586739647
 30
0.0
 10
18.6709505496
 20
10.6688795123
 30
0.0
  0
SPLINE
  5
4B5
100
AcDbEntity
  8
0
100
AcDbSpline
 62
9
  6
CONTINUOUS
 70
0
 71
3
 72
9
 73
5
 74
0
 42
0.0000001
 43
0.0000001
 44
0.0000000001
 40
0.0
 40
0.0
 40
0.0
 40
0.0
 40
0.4965950012
 40
1.0
 40
1.0
 40
1.0
 40
1.0
 10
16.9557788568
 20
10.2454945205
 30
0.0
 10
16.945184973
 20
10.2455217875
 30
0.0
 10
16.9238392226
 20
10.2469608978
 30
0.0
 10
16.902811564
 20
10.2507904541
 30
0.0
 10
16.8923472045
 20
10.2532044839
 30
0.0
  0
SPLINE
  5
4B6
100
AcDbEntity
  8
0
100
AcDbSpline
 62
9
  6
CONTINUOUS
 70
0
 71
3
 72
9
 73
5
 74
0
 42
0.0000001
 43
0.0000001
 44
0.0000000001
 40
0.0
 40
0.0
 40
0.0
 40
0.0
 40
0.2480515859
 40
1.0
 40
1.0
 40
1.0
 40
1.0
 10
16.8923472045
 20
10.2532044839
 30
0.0
 10
16.8899512812
 20
10.253757201
 30
0.0
 10
16.8803162293
 20
10.2560885895
 30
0.0
 10
16.8707780096
 20
10.2588145784
 30
0.0
 10
16.8636674242
 20
10.26105038
 30
0.0
  0
SPLINE
  5
4B7
100
AcDbEntity
  8
0
100
AcDbSpline
 62
9
  6
CONTINUOUS
 70
0
 71
3
 72
23
 73
19
 74
0
 42
0.0000001
 43
0.0000001
 44
0.0000000001
 40
0.0
 40
0.0
 40
0.0
 40
0.0
 40
0.0463897926
 40
0.0936858465
 40
0.142266491
 40
0.1925084078
 40
0.2447678302
 40
0.2993354343
 40
0.3564548624
 40
0.4163340408
 40
0.4791362926
 40
0.5449263156
 40
0.6137124845
 40
0.6854738342
 40
0.7601558491
 40
0.8376092183
 40
0.9176307124
 40
1.0
 40
1.0
 40
1.0
 40
1.0
 10
18.9989960072
 20
10.7426476983
 30
0.0
 10
18.9917738173
 20
10.7416898399
 30
0.0
 10
18.9772658632
 20
10.7391110369
 30
0.0
 10
18.955666603
 20
10.7332929086
 30
0.0
 10
18.9340724433
 20
10.7254480606
 30
0.0
 10
18.9124899149
 20
10.7155291014
 30
0.0
 10
18.8909293124
 20
10.7034973048
 30
0.0
 10
18.8693828079
 20
10.6893655694
 30
0.0
 10
18.8478471309
 20
10.6731443001
 30
0.0
 10
18.8263213169
 20
10.6548459739
 30
0.0
 10
18.8048152464
 20
10.6344909204
 30
0.0
 10
18.7833162544
 20
10.6121464631
 30
0.0
 10
18.7618198946
 20
10.5878874124
 30
0.0
 10
18.7403253584
 20
10.5617922374
 30
0.0
 10
18.7188432983
 20
10.5339482502
 30
0.0
 10
18.6973644432
 20
10.5044820825
 30
0.0
 10
18.6758840848
 20
10.4735368098
 30
0.0
 10
18.6617535946
 20
10.452304236
 30
0.0
 10
18.6546745916
 20
10.4414771215
 30
0.0
  0
SPLINE
  5
4B8
100
AcDbEntity
  8
0
100
AcDbSpline
 62
9
  6
CONTINUOUS
 70
0
 71
3
 72
25
 73
21
 74
0
 42
0.0000001
 43
0.0000001
 44
0.0000000001
 40
0.0
 40
0.0
 40
0.0
 40
0.0
 40
0.0058665793
 40
0.0127066165
 40
0.0211732654
 40
0.0315761442
 40
0.0440417
 40
0.0586125044
 40
0.0752892064
 40
0.0940499117
 40
0.1376715127
 40
0.1891254481
 40
0.2479936885
 40
0.3138308938
 40
0.3861661358
 40
0.4642785197
 40
0.5472101064
 40
0.6339878428
 40
0.8151695958
 40
1.0
 40
1.0
 40
1.0
 40
1.0
 10
18.7263123006
 20
10.3659218338
 30
0.0
 10
18.7264447154
 20
10.3660802196
 30
0.0
 10
18.7266522676
 20
10.3664934576
 30
0.0
 10
18.7267165912
 20
10.3672469864
 30
0.0
 10
18.7265747188
 20
10.3681457843
 30
0.0
 10
18.7262369782
 20
10.3691983989
 30
0.0
 10
18.7257061591
 20
10.3704059742
 30
0.0
 10
18.7249845824
 20
10.3717656381
 30
0.0
 10
18.7240751814
 20
10.3732730329
 30
0.0
 10
18.7225370729
 20
10.3755920569
 30
0.0
 10
18.7201488029
 20
10.3788112889
 30
0.0
 10
18.71672507
 20
10.3830110023
 30
0.0
 10
18.7126415758
 20
10.3876764924
 30
0.0
 10
18.7079299804
 20
10.3927646883
 30
0.0
 10
18.7026268785
 20
10.3982250114
 30
0.0
 10
18.6967881223
 20
10.4040011484
 30
0.0
 10
18.6904856242
 20
10.4100292974
 30
0.0
 10
18.6814349147
 20
10.4184295687
 30
0.0
 10
18.6695325818
 20
10.429025732
 30
0.0
 10
18.6596974646
 20
10.4373448843
 30
0.0
 10
18.6546745928
 20
10.4414771232
 30
0.0
  0
SPLINE
  5
4B9
100
AcDbEntity
  8
0
100
AcDbSpline
 62
7
  6
CONTINUOUS
 70
0
 71
3
 72
24
 73
20
 74
0
 42
0.0000001
 43
0.0000001
 44
0.0000000001
 40
0.0
 40
0.0
 40
0.0
 40
0.0
 40
0.2403323255
 40
0.4469944241
 40
0.619860943
 40
0.6937007656
 40
0.7592844537
 40
0.8167222759
 40
0.8661238813
 40
0.9075982937
 40
0.9412538605
 40
0.955183488
 40
0.9671991296
 40
0.9773145664
 40
0.9855438746
 40
0.9919017934
 40
0.9964048427
 40
0.9990762477
 40
1.0
 40
1.0
 40
1.0
 40
1.0
 10
19.3375995664
 20
10.3039963085
 30
0.0
 10
19.3382457695
 20
10.3031635509
 30
0.0
 10
19.339439453
 20
10.3016083181
 30
0.0
 10
19.3410700097
 20
10.2994328696
 30
0.0
 10
19.3422442641
 20
10.2978281405
 30
0.0
 10
19.3430425822
 20
10.2967151714
 30
0.0
 10
19.3435413738
 20
10.2960104038
 30
0.0
 10
19.3439741453
 20
10.2953902455
 30
0.0
 10
19.3443426264
 20
10.2948541776
 30
0.0
 10
19.344648565
 20
10.2944017303
 30
0.0
 10
19.3448645225
 20
10.2940762111
 30
0.0
 10
19.3450069485
 20
10.2938570682
 30
0.0
 10
19.3450922214
 20
10.2937237422
 30
0.0
 10
19.3451627837
 20
10.2936111703
 30
0.0
 10
19.345219645
 20
10.2935179758
 30
0.0
 10
19.3452608812
 20
10.293447516
 30
0.0
 10
19.3452919259
 20
10.2933915022
 30
0.0
 10
19.3453029773
 20
10.2933663653
 30
0.0
 10
19.3453123322
 20
10.2933439853
 30
0.0
 10
19.3453085209
 20
10.2933426112
 30
0.0
  0
SPLINE
  5
4BA
100
AcDbEntity
  8
0
100
AcDbSpline
 62
9
  6
CONTINUOUS
 70
0
 71
3
 72
11
 73
7
 74
0
 42
0.0000001
 43
0.0000001
 44
0.0000000001
 40
0.0
 40
0.0
 40
0.0
 40
0.0
 40
0.2570438313
 40
0.5084074732
 40
0.7554203959
 40
1.0
 40
1.0
 40
1.0
 40
1.0
 10
18.4859856446
 20
10.7785389984
 30
0.0
 10
18.4785603041
 20
10.7812704718
 30
0.0
 10
18.4636853868
 20
10.7861819973
 30
0.0
 10
18.4410776537
 20
10.7917292478
 30
0.0
 10
18.4184402842
 20
10.7951909703
 30
0.0
 10
18.4032999694
 20
10.7959938961
 30
0.0
 10
18.3957718318
 20
10.7960098238
 30
0.0
  0
SPLINE
  5
4BB
100
AcDbEntity
  8
0
100
AcDbSpline
 62
9
  6
CONTINUOUS
 70
0
 71
3
 72
17
 73
13
 74
0
 42
0.0000001
 43
0.0000001
 44
0.0000000001
 40
0.0
 40
0.0
 40
0.0
 40
0.0
 40
0.0492004561
 40
0.0988206927
 40
0.1493295481
 40
0.2011951978
 40
0.3103778474
 40
0.4285692369
 40
0.5566703445
 40
0.6948443928
 40
0.8428024758
 40
1.0
 40
1.0
 40
1.0
 40
1.0
 10
16.9102308568
 20
10.2964897225
 30
0.0
 10
16.90942509
 20
10.2958035489
 30
0.0
 10
16.9077260813
 20
10.2945168361
 30
0.0
 10
16.9049535561
 20
10.2928814992
 30
0.0
 10
16.9019601949
 20
10.291548504
 30
0.0
 10
16.8976146018
 20
10.2901698031
 30
0.0
 10
16.8916331869
 20
10.2892775577
 30
0.0
 10
16.8839597026
 20
10.2894625427
 30
0.0
 10
16.8757805638
 20
10.2908395996
 30
0.0
 10
16.8672193613
 20
10.2933774274
 30
0.0
 10
16.858400739
 20
10.297047562
 30
0.0
 10
16.8526003734
 20
10.3001439892
 30
0.0
 10
16.8496892822
 20
10.3018643963
 30
0.0
  0
SPLINE
  5
4BC
100
AcDbEntity
  8
0
100
AcDbSpline
 62
9
  6
CONTINUOUS
 70
0
 71
3
 72
36
 73
32
 74
0
 42
0.0000001
 43
0.0000001
 44
0.0000000001
 40
0.0
 40
0.0
 40
0.0
 40
0.0
 40
0.0184926778
 40
0.0374013763
 40
0.0570611674
 40
0.0777416103
 40
0.0996490244
 40
0.122933748
 40
0.1476996652
 40
0.1739998679
 40
0.2018222496
 40
0.2311219291
 40
0.2618330318
 40
0.2938740351
 40
0.3271516471
 40
0.3615633212
 40
0.3969845319
 40
0.4332636842
 40
0.4702428414
 40
0.5077605876
 40
0.5837546958
 40
0.6599245664
 40
0.7349596606
 40
0.7716481875
 40
0.8075730968
 40
0.84258379
 40
0.8765558435
 40
0.9093800745
 40
0.9409547381
 40
0.9711877874
 40
1.0
 40
1.0
 40
1.0
 40
1.0
 10
17.423159908
 20
11.0597853568
 30
0.0
 10
17.4171647572
 20
11.0597047268
 30
0.0
 10
17.4050336491
 20
11.0586521732
 30
0.0
 10
17.3869650296
 20
11.0544290187
 30
0.0
 10
17.3689394658
 20
11.0476489801
 30
0.0
 10
17.3509569758
 20
11.0384026304
 30
0.0
 10
17.3330073055
 20
11.0267732472
 30
0.0
 10
17.3150808034
 20
11.01283834
 30
0.0
 10
17.2971739699
 20
10.9966723711
 30
0.0
 10
17.2792889916
 20
10.9783685718
 30
0.0
 10
17.2614085534
 20
10.9580614193
 30
0.0
 10
17.2435296527
 20
10.9358865959
 30
0.0
 10
17.225650315
 20
10.9119830118
 30
0.0
 10
17.2077698695
 20
10.8864896055
 30
0.0
 10
17.1898875861
 20
10.8595463439
 30
0.0
 10
17.1720076283
 20
10.8312965904
 30
0.0
 10
17.1541317084
 20
10.8018999628
 30
0.0
 10
17.1362537398
 20
10.7715351385
 30
0.0
 10
17.1183743367
 20
10.7403853403
 30
0.0
 10
17.094432269
 20
10.697870735
 30
0.0
 10
17.0647002211
 20
10.6440362889
 30
0.0
 10
17.0291652287
 20
10.579512119
 30
0.0
 10
16.9993425227
 20
10.5263898206
 30
0.0
 10
16.9753240214
 20
10.484979762
 30
0.0
 10
16.9574458943
 20
10.4550125512
 30
0.0
 10
16.9395634693
 20
10.4260776714
 30
0.0
 10
16.9216804162
 20
10.3983311514
 30
0.0
 10
16.9037992122
 20
10.3719175208
 30
0.0
 10
16.8859193497
 20
10.3469786691
 30
0.0
 10
16.8680409394
 20
10.3236567885
 30
0.0
 10
16.8558182944
 20
10.3089141204
 30
0.0
 10
16.8496892804
 20
10.3018643943
 30
0.0
  0
SPLINE
  5
4BD
100
AcDbEntity
  8
0
100
AcDbSpline
 62
9
  6
CONTINUOUS
 70
0
 71
3
 72
10
 73
6
 74
0
 42
0.0000001
 43
0.0000001
 44
0.0000000001
 40
0.0
 40
0.0
 40
0.0
 40
0.0
 40
0.489814299
 40
0.7425092358
 40
1.0
 40
1.0
 40
1.0
 40
1.0
 10
18.5800988973
 20
10.4827337421
 30
0.0
 10
18.5689425859
 20
10.4915630249
 30
0.0
 10
18.5524213339
 20
10.5054464391
 30
0.0
 10
18.5308375003
 20
10.5248858057
 30
0.0
 10
18.5200321171
 20
10.5350291907
 30
0.0
 10
18.5146225572
 20
10.5401940153
 30
0.0
  0
SPLINE
  5
4BE
100
AcDbEntity
  8
0
100
AcDbSpline
 62
9
  6
CONTINUOUS
 70
0
 71
3
 72
10
 73
6
 74
0
 42
0.0000001
 43
0.0000001
 44
0.0000000001
 40
0.0
 40
0.0
 40
0.0
 40
0.0
 40
0.5067949371
 40
0.7555361008
 40
1.0
 40
1.0
 40
1.0
 40
1.0
 10
18.3827673769
 20
10.6759540099
 30
0.0
 10
18.3704179387
 20
10.6888779403
 30
0.0
 10
18.3518965049
 20
10.7080420051
 30
0.0
 10
18.3268757341
 20
10.7329046055
 30
0.0
 10
18.3143194616
 20
10.7449469934
 30
0.0
 10
18.3080292717
 20
10.7508448145
 30
0.0
  0
SPLINE
  5
4BF
100
AcDbEntity
  8
0
100
AcDbSpline
 62
9
  6
CONTINUOUS
 70
0
 71
3
 72
11
 73
7
 74
0
 42
0.0000001
 43
0.0000001
 44
0.0000000001
 40
0.0
 40
0.0
 40
0.0
 40
0.0
 40
0.2571582537
 40
0.5083883018
 40
0.7553471046
 40
1.0
 40
1.0
 40
1.0
 40
1.0
 10
18.1513204061
 20
10.8585684637
 30
0.0
 10
18.1452884117
 20
10.8608105158
 30
0.0
 10
18.1331927231
 20
10.8648022689
 30
0.0
 10
18.1147942166
 20
10.8692338262
 30
0.0
 10
18.0963817104
 20
10.8719662573
 30
0.0
 10
18.0840735096
 20
10.8726116139
 30
0.0
 10
18.0779512767
 20
10.8726295163
 30
0.0
  0
SPLINE
  5
4C0
100
AcDbEntity
  8
0
100
AcDbSpline
 62
9
  6
CONTINUOUS
 70
0
 71
3
 72
11
 73
7
 74
0
 42
0.0000001
 43
0.0000001
 44
0.0000000001
 40
0.0
 40
0.0
 40
0.0
 40
0.0
 40
0.2373683752
 40
0.4832898285
 40
0.7375872325
 40
1.0
 40
1.0
 40
1.0
 40
1.0
 10
18.0677469464
 20
10.2152975363
 30
0.0
 10
18.0620687551
 20
10.2200608171
 30
0.0
 10
18.050724235
 20
10.2300192017
 30
0.0
 10
18.0340139531
 20
10.2458739745
 30
0.0
 10
18.0173048174
 20
10.262845017
 30
0.0
 10
18.0063333534
 20
10.2746771479
 30
0.0
 10
18.0008407422
 20
10.2807570105
 30
0.0
  0
SPLINE
  5
4C1
100
AcDbEntity
  8
0
100
AcDbSpline
 62
9
  6
CONTINUOUS
 70
0
 71
3
 72
9
 73
5
 74
0
 42
0.0000001
 43
0.0000001
 44
0.0000000001
 40
0.0
 40
0.0
 40
0.0
 40
0.0
 40
0.248642275
 40
1.0
 40
1.0
 40
1.0
 40
1.0
 10
17.8762761595
 20
10.4403297323
 30
0.0
 10
17.8700405544
 20
10.4490805327
 30
0.0
 10
17.84508276
 20
10.4843610233
 30
0.0
 10
17.8204302429
 20
10.5198557159
 30
0.0
 10
17.8017647295
 20
10.546424843
 30
0.0
  0
SPLINE
  5
4C2
100
AcDbEntity
  8
0
100
AcDbSpline
 62
9
  6
CONTINUOUS
 70
0
 71
3
 72
10
 73
6
 74
0
 42
0.0000001
 43
0.0000001
 44
0.0000000001
 40
0.0
 40
0.0
 40
0.0
 40
0.0
 40
0.2621467362
 40
0.5165366718
 40
1.0
 40
1.0
 40
1.0
 40
1.0
 10
17.679497359
 20
10.7093520705
 30
0.0
 10
17.6737360623
 20
10.7162104622
 30
0.0
 10
17.6622327462
 20
10.7295992956
 30
0.0
 10
17.6392889289
 20
10.7549198942
 30
0.0
 10
17.6215069404
 20
10.7728317139
 30
0.0
 10
17.6093893918
 20
10.7840587937
 30
0.0
  0
SPLINE
  5
4C3
100
AcDbEntity
  8
0
100
AcDbSpline
 62
7
  6
CONTINUOUS
 70
0
 71
3
 72
22
 73
18
 74
0
 42
0.0000001
 43
0.0000001
 44
0.0000000001
 40
0.0
 40
0.0
 40
0.0
 40
0.0
 40
0.0793713689
 40
0.1592426446
 40
0.2384193529
 40
0.3161881798
 40
0.3918980384
 40
0.4650084538
 40
0.5350412914
 40
0.6016592658
 40
0.7236562905
 40
0.7789160344
 40
0.8302616126
 40
0.8777579966
 40
0.9215783824
 40
0.9620992744
 40
1.0
 40
1.0
 40
1.0
 40
1.0
 10
19.3375995664
 20
10.4789327902
 30
0.0
 10
19.3388646938
 20
10.4754466359
 30
0.0
 10
19.3410399565
 20
10.4683168759
 30
0.0
 10
19.3433424383
 20
10.4574052199
 30
0.0
 10
19.3447644992
 20
10.4464209476
 30
0.0
 10
19.3453853339
 20
10.4355594223
 30
0.0
 10
19.3452801492
 20
10.4249647806
 30
0.0
 10
19.3445023511
 20
10.4147612529
 30
0.0
 10
19.3431077756
 20
10.4050516431
 30
0.0
 10
19.3405756895
 20
10.3932282629
 30
0.0
 10
19.3370340398
 20
10.3823458373
 30
0.0
 10
19.3325652807
 20
10.3726339188
 30
0.0
 10
19.3290103302
 20
10.3663607141
 30
0.0
 10
19.3251710385
 20
10.3608970505
 30
0.0
 10
19.3210668617
 20
10.3562809455
 30
0.0
 10
19.3166958266
 20
10.3525713878
 30
0.0
 10
19.3135157761
 20
10.3507003533
 30
0.0
 10
19.3119057587
 20
10.3499628242
 30
0.0
  0
SPLINE
  5
4C4
100
AcDbEntity
  8
0
100
AcDbSpline
 62
9
  6
CONTINUOUS
 70
0
 71
3
 72
15
 73
11
 74
0
 42
0.0000001
 43
0.0000001
 44
0.0000000001
 40
0.0
 40
0.0
 40
0.0
 40
0.0
 40
0.1161339901
 40
0.2341384966
 40
0.3546732054
 40
0.478093068
 40
0.6045046776
 40
0.7338160861
 40
0.8657731288
 40
1.0
 40
1.0
 40
1.0
 40
1.0
 10
16.4485674117
 20
10.7433694146
 30
0.0
 10
16.4393123448
 20
10.7426149919
 30
0.0
 10
16.4207193718
 20
10.7401543422
 30
0.0
 10
16.3930263753
 20
10.7338980935
 30
0.0
 10
16.3653701448
 20
10.725278939
 30
0.0
 10
16.3377439589
 20
10.7145611998
 30
0.0
 10
16.310139023
 20
10.7019992507
 30
0.0
 10
16.2825500292
 20
10.687847189
 30
0.0
 10
16.2549715981
 20
10.6723621102
 30
0.0
 10
16.2367245236
 20
10.6614014951
 30
0.0
 10
16.2275842163
 20
10.6557765792
 30
0.0
  0
SPLINE
  5
4C5
100
AcDbEntity
  8
0
100
AcDbSpline
 62
9
  6
CONTINUOUS
 70
0
 71
3
 72
9
 73
5
 74
0
 42
0.0000001
 43
0.0000001
 44
0.0000000001
 40
0.0
 40
0.0
 40
0.0
 40
0.0
 40
0.4966190964
 40
1.0
 40
1.0
 40
1.0
 40
1.0
 10
18.6711412161
 20
10.668550893
 30
0.0
 10
18.6744212373
 20
10.6691466112
 30
0.0
 10
18.6809286792
 20
10.6709548225
 30
0.0
 10
18.6870104169
 20
10.6738851864
 30
0.0
 10
18.689919224
 20
10.6756047659
 30
0.0
  0
SPLINE
  5
4C6
100
AcDbEntity
  8
0
100
AcDbSpline
 62
9
  6
CONTINUOUS
 70
0
 71
3
 72
30
 73
26
 74
0
 42
0.0000001
 43
0.0000001
 44
0.0000000001
 40
0.0
 40
0.0
 40
0.0
 40
0.0
 40
0.0545807705
 40
0.082690373
 40
0.1114440924
 40
0.1409004014
 40
0.1710713105
 40
0.2334255016
 40
0.298202216
 40
0.3313582175
 40
0.3649220471
 40
0.3988284255
 40
0.4330136523
 40
0.4673968993
 40
0.5018828651
 40
0.5707112516
 40
0.6386690998
 40
0.6720818711
 40
0.70498786
 40
0.7373200522
 40
0.7690467548
 40
0.8305767102
 40
0.8895162726
 40
0.9458853703
 40
1.0
 40
1.0
 40
1.0
 40
1.0
 10
18.689919224
 20
10.6756047659
 30
0.0
 10
18.6934159854
 20
10.6776719222
 30
0.0
 10
18.698408308
 20
10.6813598092
 30
0.0
 10
18.7043054808
 20
10.6872036664
 30
0.0
 10
18.7084213162
 20
10.6921497286
 30
0.0
 10
18.712158665
 20
10.6975724089
 30
0.0
 10
18.7166712147
 20
10.7054599931
 30
0.0
 10
18.7212574928
 20
10.7162824198
 30
0.0
 10
18.7243256302
 20
10.7278504057
 30
0.0
 10
18.725879015
 20
10.7375187394
 30
0.0
 10
18.7265722255
 20
10.7449813529
 30
0.0
 10
18.7267678419
 20
10.7525500061
 30
0.0
 10
18.7264530649
 20
10.7601755063
 30
0.0
 10
18.7256457824
 20
10.7678078443
 30
0.0
 10
18.723934382
 20
10.7779173905
 30
0.0
 10
18.7206600142
 20
10.7902705762
 30
0.0
 10
18.7159345075
 20
10.8020614295
 30
0.0
 10
18.7113272497
 20
10.8109365179
 30
0.0
 10
18.7075064684
 20
10.8172130956
 30
0.0
 10
18.7033130813
 20
10.8230947162
 30
0.0
 10
18.6973273956
 20
10.8302824011
 30
0.0
 10
18.6891155747
 20
10.8381540626
 30
0.0
 10
18.6782414579
 20
10.8456738195
 30
0.0
 10
18.6667308138
 20
10.8509798955
 30
0.0
 10
18.658670184
 20
10.8529287826
 30
0.0
 10
18.6546745928
 20
10.8534338458
 30
0.0
  0
LINE
  5
4C7
100
AcDbEntity
  8
0
100
AcDbLine
 62
7
  6
CONTINUOUS
 10
19.3038220355
 20
10.3461062353
 11
19.3051431819
 21
10.3444373065
  0
LINE
  5
4C8
100
AcDbEntity
  8
0
100
AcDbLine
 62
7
  6
CONTINUOUS
 10
19.3051431819
 20
10.3444373065
 11
19.3375995664
 21
10.3039963085
  0
SPLINE
  5
4C9
100
AcDbEntity
  8
0
100
AcDbSpline
 62
9
  6
CONTINUOUS
 70
0
 71
3
 72
26
 73
22
 74
0
 42
0.0000001
 43
0.0000001
 44
0.0000000001
 40
0.0
 40
0.0
 40
0.0
 40
0.0
 40
0.0144540258
 40
0.0292387812
 40
0.0446727514
 40
0.0610423901
 40
0.0974773053
 40
0.1179250242
 40
0.1399366285
 40
0.1886723491
 40
0.243575591
 40
0.304278075
 40
0.3702911978
 40
0.4410623127
 40
0.5159896861
 40
0.5942460774
 40
0.6748363673
 40
0.7567384732
 40
0.838919443
 40
0.9203468408
 40
1.0
 40
1.0
 40
1.0
 40
1.0
 10
16.9180897004
 20
10.6609490623
 30
0.0
 10
16.9185321615
 20
10.6614219306
 30
0.0
 10
16.9193494885
 20
10.6624545929
 30
0.0
 10
16.9203247312
 20
10.6642115336
 30
0.0
 10
16.921049938
 20
10.6661770261
 30
0.0
 10
16.9217002493
 20
10.6691729226
 30
0.0
 10
16.921769539
 20
10.6724858035
 30
0.0
 10
16.9213708328
 20
10.6759992014
 30
0.0
 10
16.9205939709
 20
10.6800148584
 30
0.0
 10
16.9189614915
 20
10.6854171338
 30
0.0
 10
16.916141205
 20
10.6922280291
 30
0.0
 10
16.9124355562
 20
10.6994807703
 30
0.0
 10
16.9078877213
 20
10.7070772334
 30
0.0
 10
16.9025419814
 20
10.7149189667
 30
0.0
 10
16.8964463645
 20
10.7228947512
 30
0.0
 10
16.8896901933
 20
10.7309030355
 30
0.0
 10
16.8823822624
 20
10.7388408412
 30
0.0
 10
16.8746321692
 20
10.7465978706
 30
0.0
 10
16.8665508112
 20
10.7540646281
 30
0.0
 10
16.85824938
 20
10.7611313293
 30
0.0
 10
16.8525556099
 20
10.7655707317
 30
0.0
 10
16.8496892822
 20
10.7676967939
 30
0.0
  0
SPLINE
  5
4CA
100
AcDbEntity
  8
0
100
AcDbSpline
 62
9
  6
CONTINUOUS
 70
0
 71
3
 72
11
 73
7
 74
0
 42
0.0000001
 43
0.0000001
 44
0.0000000001
 40
0.0
 40
0.0
 40
0.0
 40
0.0
 40
0.2561168036
 40
0.5074702196
 40
0.754902493
 40
1.0
 40
1.0
 40
1.0
 40
1.0
 10
19.3375995664
 20
10.3039963085
 30
0.0
 10
19.3265513094
 20
10.3002203817
 30
0.0
 10
19.3044433599
 20
10.293348381
 30
0.0
 10
19.270920916
 20
10.2854216315
 30
0.0
 10
19.2373465098
 20
10.2803629503
 30
0.0
 10
19.2148829877
 20
10.2791242286
 30
0.0
 10
19.2037096826
 20
10.2790947532
 30
0.0
  0
SPLINE
  5
4CB
100
AcDbEntity
  8
0
100
AcDbSpline
 62
9
  6
CONTINUOUS
 70
0
 71
3
 72
21
 73
17
 74
0
 42
0.0000001
 43
0.0000001
 44
0.0000000001
 40
0.0
 40
0.0
 40
0.0
 40
0.0
 40
0.0463008626
 40
0.0938162025
 40
0.1430025597
 40
0.1942077695
 40
0.2476907431
 40
0.3036341254
 40
0.3621565083
 40
0.42332383
 40
0.5536152122
 40
0.6226383343
 40
0.6940549518
 40
0.7676945274
 40
0.8433689826
 40
1.0
 40
1.0
 40
1.0
 40
1.0
 10
17.089440989
 20
10.981666952
 30
0.0
 10
17.0844015169
 20
10.9809860464
 30
0.0
 10
17.0742595354
 20
10.9790351423
 30
0.0
 10
17.0592113121
 20
10.974448089
 30
0.0
 10
17.0441846731
 20
10.9682151727
 30
0.0
 10
17.0291759987
 20
10.9604061829
 30
0.0
 10
17.0141809991
 20
10.9510822593
 30
0.0
 10
16.9991961958
 20
10.9403047703
 30
0.0
 10
16.9842182347
 20
10.9281333429
 30
0.0
 10
16.9638243637
 20
10.9097366617
 30
0.0
 10
16.9439269778
 20
10.8891299042
 30
0.0
 10
16.9243569355
 20
10.8667410832
 30
0.0
 10
16.9093978407
 20
10.8485965121
 30
0.0
 10
16.8944387409
 20
10.829516595
 30
0.0
 10
16.8742612473
 20
10.8026446346
 30
0.0
 10
16.8594850811
 20
10.7818383186
 30
0.0
 10
16.8496892804
 20
10.7676967914
 30
0.0
  0
SPLINE
  5
4CC
100
AcDbEntity
  8
0
100
AcDbSpline
 62
7
  6
CONTINUOUS
 70
0
 71
3
 72
9
 73
5
 74
0
 42
0.0000001
 43
0.0000001
 44
0.0000000001
 40
0.0
 40
0.0
 40
0.0
 40
0.0
 40
0.2479640953
 40
1.0
 40
1.0
 40
1.0
 40
1.0
 10
16.2752060116
 20
10.6013082535
 30
0.0
 10
16.2712129221
 20
10.599218617
 30
0.0
 10
16.2551519273
 20
10.5907101757
 30
0.0
 10
16.2392408001
 20
10.5819212143
 30
0.0
 10
16.2273294173
 20
10.5752170847
 30
0.0
  0
SPLINE
  5
4CD
100
AcDbEntity
  8
0
100
AcDbSpline
 62
9
  6
CONTINUOUS
 70
0
 71
3
 72
11
 73
7
 74
0
 42
0.0000001
 43
0.0000001
 44
0.0000000001
 40
0.0
 40
0.0
 40
0.0
 40
0.0
 40
0.2385843885
 40
0.4851239742
 40
0.7391185611
 40
1.0
 40
1.0
 40
1.0
 40
1.0
 10
17.7183093932
 20
10.1931129152
 30
0.0
 10
17.7121785377
 20
10.1991438852
 30
0.0
 10
17.6999374793
 20
10.2116371596
 30
0.0
 10
17.6818892276
 20
10.2312394244
 30
0.0
 10
17.6638410096
 20
10.2519201648
 30
0.0
 10
17.651958031
 20
10.2661783602
 30
0.0
 10
17.6460068209
 20
10.273459363
 30
0.0
  0
SPLINE
  5
4CE
100
AcDbEntity
  8
0
100
AcDbSpline
 62
9
  6
CONTINUOUS
 70
0
 71
3
 72
9
 73
5
 74
0
 42
0.0000001
 43
0.0000001
 44
0.0000000001
 40
0.0
 40
0.0
 40
0.0
 40
0.0
 40
0.5034815949
 40
1.0
 40
1.0
 40
1.0
 40
1.0
 10
17.5241920337
 20
10.4360728792
 30
0.0
 10
17.5119004257
 20
10.453171298
 30
0.0
 10
17.487487237
 20
10.4871315238
 30
0.0
 10
17.4627352646
 20
10.5208484262
 30
0.0
 10
17.4502706938
 20
10.5374584605
 30
0.0
  0
SPLINE
  5
4CF
100
AcDbEntity
  8
0
100
AcDbSpline
 62
9
  6
CONTINUOUS
 70
0
 71
3
 72
9
 73
5
 74
0
 42
0.0000001
 43
0.0000001
 44
0.0000000001
 40
0.0
 40
0.0
 40
0.0
 40
0.0
 40
0.5161492497
 40
1.0
 40
1.0
 40
1.0
 40
1.0
 10
17.322089896
 20
10.6883454061
 30
0.0
 10
17.3120650491
 20
10.6981107639
 30
0.0
 10
17.2920735433
 20
10.7164611359
 30
0.0
 10
17.2707250801
 20
10.7332377958
 30
0.0
 10
17.2600427852
 20
10.7408537712
 30
0.0
  0
SPLINE
  5
4D0
100
AcDbEntity
  8
0
100
AcDbSpline
 62
9
  6
CONTINUOUS
 70
0
 71
3
 72
26
 73
22
 74
0
 42
0.0000001
 43
0.0000001
 44
0.0000000001
 40
0.0
 40
0.0
 40
0.0
 40
0.0
 40
0.0246326614
 40
0.049574478
 40
0.0749688907
 40
0.1009296113
 40
0.1275382987
 40
0.1548499246
 40
0.2116754589
 40
0.2714544465
 40
0.3339579071
 40
0.3987890921
 40
0.4654496774
 40
0.5333832337
 40
0.6020009736
 40
0.6707518001
 40
0.7391075866
 40
0.8065648595
 40
0.8727359152
 40
0.9372978254
 40
1.0
 40
1.0
 40
1.0
 40
1.0
 10
16.7947685032
 20
10.8569301313
 30
0.0
 10
16.7893173298
 20
10.8565684603
 30
0.0
 10
16.7783732776
 20
10.8553595028
 30
0.0
 10
16.762037248
 20
10.8521744187
 30
0.0
 10
16.7457117636
 20
10.8476635794
 30
0.0
 10
16.729398984
 20
10.84189111
 30
0.0
 10
16.7130953215
 20
10.8349309436
 30
0.0
 10
16.6910791048
 20
10.8240175912
 30
0.0
 10
16.6636034022
 20
10.8076788158
 30
0.0
 10
16.6311232985
 20
10.7847613419
 30
0.0
 10
16.5986698128
 20
10.758868285
 30
0.0
 10
16.5662284076
 20
10.7305923838
 30
0.0
 10
16.533788763
 20
10.7005203865
 30
0.0
 10
16.501350437
 20
10.669229186
 30
0.0
 10
16.4688968536
 20
10.637291275
 30
0.0
 10
16.4364373093
 20
10.6052263535
 30
0.0
 10
16.4039768652
 20
10.5735285521
 30
0.0
 10
16.3714891825
 20
10.5426817774
 30
0.0
 10
16.3389922923
 20
10.5130772199
 30
0.0
 10
16.306486055
 20
10.4850700106
 30
0.0
 10
16.2844556201
 20
10.4674119129
 30
0.0
 10
16.273423728
 20
10.4589451773
 30
0.0
  0
SPLINE
  5
4D1
100
AcDbEntity
  8
0
100
AcDbSpline
 62
9
  6
CONTINUOUS
 70
0
 71
3
 72
9
 73
5
 74
0
 42
0.0000001
 43
0.0000001
 44
0.0000000001
 40
0.0
 40
0.0
 40
0.0
 40
0.0
 40
0.2544184449
 40
1.0
 40
1.0
 40
1.0
 40
1.0
 10
16.273423728
 20
10.4589451773
 30
0.0
 10
16.2696254001
 20
10.4560300438
 30
0.0
 10
16.2546127622
 20
10.444681277
 30
0.0
 10
16.2392514994
 20
10.4337900396
 30
0.0
 10
16.2275842163
 20
10.4259953326
 30
0.0
  0
SPLINE
  5
4D2
100
AcDbEntity
  8
0
100
AcDbSpline
 62
9
  6
CONTINUOUS
 70
0
 71
3
 72
53
 73
49
 74
0
 42
0.0000001
 43
0.0000001
 44
0.0000000001
 40
0.0
 40
0.0
 40
0.0
 40
0.0
 40
0.0090859437
 40
0.0183635673
 40
0.0279028426
 40
0.0377683922
 40
0.0586944864
 40
0.0698616339
 40
0.0815365175
 40
0.0937399988
 40
0.1064869236
 40
0.1197871143
 40
0.1336462145
 40
0.1480663949
 40
0.1630469375
 40
0.1785830726
 40
0.194659074
 40
0.2283441392
 40
0.2639172297
 40
0.3011708342
 40
0.3398832989
 40
0.3798116639
 40
0.4206581381
 40
0.4621070178
 40
0.5038392096
 40
0.5455342204
 40
0.5868758462
 40
0.6275550143
 40
0.6672666781
 40
0.7057117549
 40
0.7426059722
 40
0.7777177389
 40
0.8108487437
 40
0.8266167058
 40
0.8418264473
 40
0.8705088246
 40
0.8839777976
 40
0.8968717184
 40
0.9092017157
 40
0.9209839476
 40
0.9322405993
 40
0.9430010242
 40
0.9533029929
 40
0.9631939642
 40
0.9727322411
 40
0.9819894752
 40
0.9910492953
 40
1.0
 40
1.0
 40
1.0
 40
1.0
 10
18.3765650729
 20
10.9821725089
 30
0.0
 10
18.3724391686
 20
10.9815858366
 30
0.0
 10
18.3641506727
 20
10.9800130375
 30
0.0
 10
18.3518241426
 20
10.976515147
 30
0.0
 10
18.3395030397
 20
10.9718602036
 30
0.0
 10
18.3227590697
 20
10.9639595033
 30
0.0
 10
18.3063342634
 20
10.9537914443
 30
0.0
 10
18.2902992155
 20
10.9417034224
 30
0.0
 10
18.2780145401
 20
10.9313235373
 30
0.0
 10
18.2657345709
 20
10.9198519717
 30
0.0
 10
18.2534564042
 20
10.9073127799
 30
0.0
 10
18.2411798353
 20
10.8937309727
 30
0.0
 10
18.2289041478
 20
10.8791312302
 30
0.0
 10
18.2166289961
 20
10.8635383116
 30
0.0
 10
18.2043544745
 20
10.8469776296
 30
0.0
 10
18.192083762
 20
10.8294784789
 30
0.0
 10
18.1754643002
 20
10.8045605705
 30
0.0
 10
18.1547720851
 20
10.7713259229
 30
0.0
 10
18.1303048111
 20
10.7290341345
 30
0.0
 10
18.1058299144
 20
10.6841041887
 30
0.0
 10
18.081350856
 20
10.6369161556
 30
0.0
 10
18.056882845
 20
10.5878748865
 30
0.0
 10
18.032412254
 20
10.5374371348
 30
0.0
 10
18.0079384565
 20
10.4860834366
 30
0.0
 10
17.9834632525
 20
10.4342998548
 30
0.0
 10
17.9589869955
 20
10.3825711538
 30
0.0
 10
17.9345107925
 20
10.3313769578
 30
0.0
 10
17.9100381489
 20
10.2811906148
 30
0.0
 10
17.8855703686
 20
10.2324832139
 30
0.0
 10
17.8611092132
 20
10.1857216635
 30
0.0
 10
17.8366410145
 20
10.1413562445
 30
0.0
 10
17.8121755375
 20
10.0997921835
 30
0.0
 10
17.7914673342
 20
10.0672833413
 30
0.0
 10
17.7748321881
 20
10.0430331173
 30
0.0
 10
17.7587846511
 20
10.0208667453
 30
0.0
 10
17.742460489
 20
10.000205606
 30
0.0
 10
17.7257400167
 20
9.9812813092
 30
0.0
 10
17.713461865
 20
9.968459549
 30
0.0
 10
17.7011816534
 20
9.956733218
 30
0.0
 10
17.6888981823
 20
9.9461252134
 30
0.0
 10
17.6766102152
 20
9.9366587151
 30
0.0
 10
17.6643161815
 20
9.9283571959
 30
0.0
 10
17.6520142517
 20
9.921244821
 30
0.0
 10
17.6397027281
 20
9.9153460491
 30
0.0
 10
17.6273788299
 20
9.9106876924
 30
0.0
 10
17.615041995
 20
9.907291234
 30
0.0
 10
17.6026999603
 20
9.9051520093
 30
0.0
 10
17.5944439292
 20
9.9045596526
 30
0.0
 10
17.5903394709
 20
9.9044728379
 30
0.0
  0
SPLINE
  5
4D3
100
AcDbEntity
  8
0
100
AcDbSpline
 62
9
  6
CONTINUOUS
 70
0
 71
3
 72
11
 73
7
 74
0
 42
0.0000001
 43
0.0000001
 44
0.0000000001
 40
0.0
 40
0.0
 40
0.0
 40
0.0
 40
0.244535582
 40
0.4914334577
 40
0.7426912643
 40
1.0
 40
1.0
 40
1.0
 40
1.0
 10
17.2639024334
 20
10.1432396441
 30
0.0
 10
17.2571111348
 20
10.1432665357
 30
0.0
 10
17.2434568795
 20
10.1440022726
 30
0.0
 10
17.2230323453
 20
10.1470762979
 30
0.0
 10
17.2026234106
 20
10.1520518984
 30
0.0
 10
17.1892097922
 20
10.1565301107
 30
0.0
 10
17.1825209093
 20
10.1590451653
 30
0.0
  0
SPLINE
  5
4D4
100
AcDbEntity
  8
0
100
AcDbSpline
 62
9
  6
CONTINUOUS
 70
0
 71
3
 72
9
 73
5
 74
0
 42
0.0000001
 43
0.0000001
 44
0.0000000001
 40
0.0
 40
0.0
 40
0.0
 40
0.0
 40
0.4978563074
 40
1.0
 40
1.0
 40
1.0
 40
1.0
 10
17.0171230753
 20
10.2668771339
 30
0.0
 10
17.005033549
 20
10.2770984127
 30
0.0
 10
16.9810186222
 20
10.2979454225
 30
0.0
 10
16.9572072326
 20
10.3190208076
 30
0.0
 10
16.9452209894
 20
10.3295705215
 30
0.0
  0
SPLINE
  5
4D5
100
AcDbEntity
  8
0
100
AcDbSpline
 62
9
  6
CONTINUOUS
 70
0
 71
3
 72
25
 73
21
 74
0
 42
0.0000001
 43
0.0000001
 44
0.0000000001
 40
0.0
 40
0.0
 40
0.0
 40
0.0
 40
0.1954876555
 40
0.3810375922
 40
0.468221408
 40
0.5506842093
 40
0.6276861763
 40
0.6984938567
 40
0.7623920871
 40
0.8189061915
 40
0.8678372175
 40
0.9090344586
 40
0.9267074583
 40
0.9424276602
 40
0.9562117693
 40
0.9681011356
 40
0.9781802669
 40
0.9866124643
 40
0.9937052495
 40
1.0
 40
1.0
 40
1.0
 40
1.0
 10
18.6546745916
 20
10.4414771215
 30
0.0
 10
18.6503410645
 20
10.4450422472
 30
0.0
 10
18.6418116984
 20
10.45189149
 30
0.0
 10
18.6311301275
 20
10.4600519863
 30
0.0
 10
18.6228999731
 20
10.466071208
 30
0.0
 10
18.617121717
 20
10.4701632513
 30
0.0
 10
18.6116614062
 20
10.4738892501
 30
0.0
 10
18.6065719775
 20
10.4772113069
 30
0.0
 10
18.6019000924
 20
10.4800941861
 30
0.0
 10
18.5976828785
 20
10.4825140818
 30
0.0
 10
18.5939495553
 20
10.4844612832
 30
0.0
 10
18.5911316938
 20
10.4857463514
 30
0.0
 10
18.5891325765
 20
10.4865150378
 30
0.0
 10
18.5878456115
 20
10.4869387481
 30
0.0
 10
18.5866951091
 20
10.4872396721
 30
0.0
 10
18.5856827664
 20
10.4874173296
 30
0.0
 10
18.5848092761
 20
10.487471254
 30
0.0
 10
18.5840734494
 20
10.4873990843
 30
0.0
 10
18.5834733805
 20
10.4871940255
 30
0.0
 10
18.5831630352
 20
10.4869506072
 30
0.0
 10
18.5830457855
 20
10.4868131202
 30
0.0
  0
SPLINE
  5
4D6
100
AcDbEntity
  8
0
100
AcDbSpline
 62
9
  6
CONTINUOUS
 70
0
 71
3
 72
53
 73
49
 74
0
 42
0.0000001
 43
0.0000001
 44
0.0000000001
 40
0.0
 40
0.0
 40
0.0
 40
0.0
 40
0.0089649881
 40
0.0180962081
 40
0.0274759217
 40
0.0371783833
 40
0.0472691118
 40
0.0578048509
 40
0.068834022
 40
0.0803974609
 40
0.0925257227
 40
0.1052338273
 40
0.1185288714
 40
0.1324125157
 40
0.146882007
 40
0.1619310005
 40
0.1775502181
 40
0.1937279752
 40
0.227697935
 40
0.2636593766
 40
0.3013652875
 40
0.3405515463
 40
0.3809425066
 40
0.4222360678
 40
0.5062084255
 40
0.5482181056
 40
0.589797742
 40
0.6306287876
 40
0.6704076656
 40
0.7088375313
 40
0.7456311464
 40
0.7805349951
 40
0.8133759363
 40
0.828979812
 40
0.8440188633
 40
0.8584812423
 40
0.8723581756
 40
0.8983380037
 40
0.910466069
 40
0.92204557
 40
0.9331048739
 40
0.9436791763
 40
0.9538115216
 40
0.9635537571
 40
0.9729672636
 40
0.9821238089
 40
0.9911059869
 40
1.0
 40
1.0
 40
1.0
 40
1.0
 10
18.0669104905
 20
11.0596801442
 30
0.0
 10
18.0627104383
 20
11.0593196095
 30
0.0
 10
18.0542640185
 20
11.0581568113
 30
0.0
 10
18.0416821076
 20
11.0551402411
 30
0.0
 10
18.0291083777
 20
11.0508523167
 30
0.0
 10
18.0165450182
 20
11.0453049952
 30
0.0
 10
18.0039909374
 20
11.038509592
 30
0.0
 10
17.9914451033
 20
11.0304767116
 30
0.0
 10
17.9789059129
 20
11.0212164416
 30
0.0
 10
17.9663737452
 20
11.0107385596
 30
0.0
 10
17.953850852
 20
10.9990603187
 30
0.0
 10
17.9413309049
 20
10.9862169549
 30
0.0
 10
17.928812761
 20
10.9722438409
 30
0.0
 10
17.9162955583
 20
10.9571773584
 30
0.0
 10
17.9037788006
 20
10.9410537367
 30
0.0
 10
17.891262134
 20
10.9239093276
 30
0.0
 10
17.8787452992
 20
10.9057804829
 30
0.0
 10
17.8617788199
 20
10.8799226072
 30
0.0
 10
17.840664987
 20
10.84536042
 30
0.0
 10
17.8157262437
 20
10.8013104424
 30
0.0
 10
17.7907770191
 20
10.7544702506
 30
0.0
 10
17.7658198803
 20
10.7052888783
 30
0.0
 10
17.7408623792
 20
10.6542243935
 30
0.0
 10
17.7074033591
 20
10.5838806083
 30
0.0
 10
17.6743028992
 20
10.5125277425
 30
0.0
 10
17.6410297998
 20
10.4411075921
 30
0.0
 10
17.6160687894
 20
10.3881944813
 30
0.0
 10
17.5911081602
 20
10.3364427145
 30
0.0
 10
17.5661534596
 20
10.2863362819
 30
0.0
 10
17.5412063724
 20
10.2383544884
 30
0.0
 10
17.5162639436
 20
10.1929663752
 30
0.0
 10
17.4913052008
 20
10.1506085682
 30
0.0
 10
17.4701648661
 20
10.1175917351
 30
0.0
 10
17.453186751
 20
10.0930354307
 30
0.0
 10
17.4406710155
 20
10.0759094097
 30
0.0
 10
17.4281549192
 20
10.0597986353
 30
0.0
 10
17.4118238232
 20
10.0401569029
 30
0.0
 10
17.3951649592
 20
10.0222200669
 30
0.0
 10
17.3780680925
 20
10.0062835697
 30
0.0
 10
17.3655363611
 20
9.9957721855
 30
0.0
 10
17.3529998956
 20
9.9864424668
 30
0.0
 10
17.3404569268
 20
9.9783105116
 30
0.0
 10
17.3279059568
 20
9.9713930348
 30
0.0
 10
17.3153454635
 20
9.9657076907
 30
0.0
 10
17.3027743986
 20
9.9612720324
 30
0.0
 10
17.2901909746
 20
9.9581071055
 30
0.0
 10
17.2776032185
 20
9.9562061633
 30
0.0
 10
17.2691927704
 20
9.9557715312
 30
0.0
 10
17.2650106601
 20
9.9557607093
 30
0.0
  0
SPLINE
  5
4D7
100
AcDbEntity
  8
0
100
AcDbSpline
 62
9
  6
CONTINUOUS
 70
0
 71
3
 72
36
 73
32
 74
0
 42
0.0000001
 43
0.0000001
 44
0.0000000001
 40
0.0
 40
0.0
 40
0.0
 40
0.0
 40
0.0237019327
 40
0.0476545285
 40
0.0719488847
 40
0.0966793424
 40
0.1219332006
 40
0.147792786
 40
0.174336776
 40
0.2016374814
 40
0.2297444404
 40
0.2586908107
 40
0.2885010299
 40
0.3191904564
 40
0.3507477635
 40
0.3831392968
 40
0.4163233597
 40
0.4502489764
 40
0.4848357362
 40
0.5199858305
 40
0.5915614355
 40
0.6640556246
 40
0.736337945
 40
0.7720342515
 40
0.8072283601
 40
0.8417666885
 40
0.8755037284
 40
0.9083049787
 40
0.9400502899
 40
0.9706395792
 40
1.0
 40
1.0
 40
1.0
 40
1.0
 10
19.3321564603
 20
10.6709125283
 30
0.0
 10
19.3250714321
 20
10.6700289037
 30
0.0
 10
19.3108732901
 20
10.6678491508
 30
0.0
 10
19.2896638275
 20
10.6633313881
 30
0.0
 10
19.2684535397
 20
10.6575038456
 30
0.0
 10
19.2472490945
 20
10.6503211298
 30
0.0
 10
19.2260485564
 20
10.6417734305
 30
0.0
 10
19.2048517168
 20
10.6318505718
 30
0.0
 10
19.1836588374
 20
10.6205437642
 30
0.0
 10
19.162477503
 20
10.6078446189
 30
0.0
 10
19.1413029901
 20
10.5937819255
 30
0.0
 10
19.1201320478
 20
10.5783918301
 30
0.0
 10
19.0989638519
 20
10.5617109866
 30
0.0
 10
19.0778053837
 20
10.5437771199
 30
0.0
 10
19.0566534564
 20
10.5246570044
 30
0.0
 10
19.0355024791
 20
10.5044336312
 30
0.0
 10
19.0143525042
 20
10.4831909683
 30
0.0
 10
18.9932113113
 20
10.4610174453
 30
0.0
 10
18.9720734448
 20
10.4380303947
 30
0.0
 10
18.9437188804
 20
10.4062780768
 30
0.0
 10
18.9084577772
 20
10.3653918061
 30
0.0
 10
18.8664494374
 20
10.3155639758
 30
0.0
 10
18.8313051206
 20
10.2740842378
 30
0.0
 10
18.8030235008
 20
10.2415215229
 30
0.0
 10
18.7819011483
 20
10.2178032137
 30
0.0
 10
18.7607791651
 20
10.1948797932
 30
0.0
 10
18.7396570508
 20
10.1729450838
 30
0.0
 10
18.7185344234
 20
10.1521926121
 30
0.0
 10
18.6974092922
 20
10.1328161813
 30
0.0
 10
18.6762803289
 20
10.1150107476
 30
0.0
 10
18.6618853298
 20
10.1040866479
 30
0.0
 10
18.6546745916
 20
10.0989651383
 30
0.0
  0
SPLINE
  5
4D8
100
AcDbEntity
  8
0
100
AcDbSpline
 62
9
  6
CONTINUOUS
 70
0
 71
3
 72
17
 73
13
 74
0
 42
0.0000001
 43
0.0000001
 44
0.0000000001
 40
0.0
 40
0.0
 40
0.0
 40
0.0
 40
0.1113654247
 40
0.229553814
 40
0.3533721322
 40
0.4812620738
 40
0.546246253
 40
0.6116389727
 40
0.6772385928
 40
0.7428198436
 40
0.872910046
 40
1.0
 40
1.0
 40
1.0
 40
1.0
 10
18.6546745916
 20
10.0989651383
 30
0.0
 10
18.6505534995
 20
10.1005395681
 30
0.0
 10
18.64234523
 20
10.1045622825
 30
0.0
 10
18.6307795604
 20
10.1125186595
 30
0.0
 10
18.6198461201
 20
10.1223302155
 30
0.0
 10
18.6115574304
 20
10.1317894435
 30
0.0
 10
18.6055136951
 20
10.140050567
 30
0.0
 10
18.6013120278
 20
10.1465844238
 30
0.0
 10
18.5974930407
 20
10.153375825
 30
0.0
 10
18.5929431052
 20
10.1626773131
 30
0.0
 10
18.5883015549
 20
10.1746206465
 30
0.0
 10
18.5857082562
 20
10.1845015325
 30
0.0
 10
18.584736945
 20
10.1894414552
 30
0.0
  0
SPLINE
  5
4D9
100
AcDbEntity
  8
0
100
AcDbSpline
 62
9
  6
CONTINUOUS
 70
0
 71
3
 72
11
 73
7
 74
0
 42
0.0000001
 43
0.0000001
 44
0.0000000001
 40
0.0
 40
0.0
 40
0.0
 40
0.0
 40
0.2458868548
 40
0.4934881548
 40
0.7443715328
 40
1.0
 40
1.0
 40
1.0
 40
1.0
 10
17.5871256539
 20
10.0919345284
 30
0.0
 10
17.5820236084
 20
10.0919521669
 30
0.0
 10
17.571780578
 20
10.0924124115
 30
0.0
 10
17.5564425416
 20
10.0943620309
 30
0.0
 10
17.5411092617
 20
10.097558303
 30
0.0
 10
17.5310018061
 20
10.1004795665
 30
0.0
 10
17.5259617099
 20
10.1021324698
 30
0.0
  0
SPLINE
  5
4DA
100
AcDbEntity
  8
0
100
AcDbSpline
 62
9
  6
CONTINUOUS
 70
0
 71
3
 72
10
 73
6
 74
0
 42
0.0000001
 43
0.0000001
 44
0.0000000001
 40
0.0
 40
0.0
 40
0.0
 40
0.0
 40
0.2417944409
 40
0.4895885535
 40
1.0
 40
1.0
 40
1.0
 40
1.0
 10
17.3698954566
 20
10.2091827497
 30
0.0
 10
17.3635004487
 20
10.2154922717
 30
0.0
 10
17.3507351734
 20
10.2284546827
 30
0.0
 10
17.3252932846
 20
10.2555343651
 30
0.0
 10
17.3066007302
 20
10.2766178602
 30
0.0
 10
17.2941817387
 20
10.290949571
 30
0.0
  0
SPLINE
  5
4DB
100
AcDbEntity
  8
0
100
AcDbSpline
 62
9
  6
CONTINUOUS
 70
0
 71
3
 72
9
 73
5
 74
0
 42
0.0000001
 43
0.0000001
 44
0.0000000001
 40
0.0
 40
0.0
 40
0.0
 40
0.0
 40
0.5082442362
 40
1.0
 40
1.0
 40
1.0
 40
1.0
 10
17.1690038405
 20
10.4395377198
 30
0.0
 10
17.1574494002
 20
10.4529773984
 30
0.0
 10
17.1344722202
 20
10.4792135304
 30
0.0
 10
17.1107293463
 20
10.5047674988
 30
0.0
 10
17.0987873065
 20
10.5170746643
 30
0.0
  0
SPLINE
  5
4DC
100
AcDbEntity
  8
0
100
AcDbSpline
 62
9
  6
CONTINUOUS
 70
0
 71
3
 72
9
 73
5
 74
0
 42
0.0000001
 43
0.0000001
 44
0.0000000001
 40
0.0
 40
0.0
 40
0.0
 40
0.0
 40
0.255562609
 40
1.0
 40
1.0
 40
1.0
 40
1.0
 10
16.9513695066
 20
10.6343446315
 30
0.0
 10
16.9482229447
 20
10.6359947652
 30
0.0
 10
16.9358140791
 20
10.6422649961
 30
0.0
 10
16.9230151159
 20
10.6477694749
 30
0.0
 10
16.9133114098
 20
10.6513685593
 30
0.0
  0
SPLINE
  5
4DD
100
AcDbEntity
  8
0
100
AcDbSpline
 62
9
  6
CONTINUOUS
 70
0
 71
3
 72
9
 73
5
 74
0
 42
0.0000001
 43
0.0000001
 44
0.0000000001
 40
0.0
 40
0.0
 40
0.0
 40
0.0
 40
0.2556214977
 40
1.0
 40
1.0
 40
1.0
 40
1.0
 10
16.7974367679
 20
10.4504773155
 30
0.0
 10
16.7931979037
 20
10.4535310685
 30
0.0
 10
16.7764960396
 20
10.465310014
 30
0.0
 10
16.7592930013
 20
10.4763860973
 30
0.0
 10
16.7461954752
 20
10.4841256759
 30
0.0
  0
SPLINE
  5
4DE
100
AcDbEntity
  8
0
100
AcDbSpline
 62
9
  6
CONTINUOUS
 70
0
 71
3
 72
31
 73
27
 74
0
 42
0.0000001
 43
0.0000001
 44
0.0000000001
 40
0.0
 40
0.0
 40
0.0
 40
0.0
 40
0.0761599122
 40
0.1528707412
 40
0.2293013148
 40
0.3046614436
 40
0.3782991194
 40
0.4496157422
 40
0.4842471113
 40
0.5181373591
 40
0.5512508892
 40
0.5835557081
 40
0.6150241483
 40
0.6456409298
 40
0.675409528
 40
0.7043394666
 40
0.7597370424
 40
0.7862682674
 40
0.8120780857
 40
0.8617418162
 40
0.8857317897
 40
0.909242863
 40
0.9323481792
 40
0.9551258458
 40
0.9776520731
 40
1.0
 40
1.0
 40
1.0
 40
1.0
 10
16.8496892807
 20
10.7676967919
 30
0.0
 10
16.8387310337
 20
10.752585607
 30
0.0
 10
16.8169350726
 20
10.7221092112
 30
0.0
 10
16.7844744449
 20
10.6762315447
 30
0.0
 10
16.75200916
 20
10.6305969012
 30
0.0
 10
16.7195160574
 20
10.5859083361
 30
0.0
 10
16.6870250253
 20
10.5427754475
 30
0.0
 10
16.6596798488
 20
10.5082760588
 30
0.0
 10
16.6377240346
 20
10.4819564109
 30
0.0
 10
16.6214181983
 20
10.4631226015
 30
0.0
 10
16.6051121308
 20
10.4450495596
 30
0.0
 10
16.5888059743
 20
10.427783825
 30
0.0
 10
16.5724974589
 20
10.411371554
 30
0.0
 10
16.5561840462
 20
10.3958526486
 30
0.0
 10
16.5398691183
 20
10.381251134
 30
0.0
 10
16.5184250714
 20
10.3632977142
 30
0.0
 10
16.4966738824
 20
10.3469602872
 30
0.0
 10
16.4745866736
 20
10.3324740828
 30
0.0
 10
16.453091593
 20
10.3196958302
 30
0.0
 10
16.4312873925
 20
10.3086903413
 30
0.0
 10
16.4092526855
 20
10.2996334486
 30
0.0
 10
16.3929112912
 20
10.2939121693
 30
0.0
 10
16.3765670765
 20
10.2891763994
 30
0.0
 10
16.3602223762
 20
10.2854002176
 30
0.0
 10
16.3438783853
 20
10.282559949
 30
0.0
 10
16.3329495276
 20
10.2812700094
 30
0.0
 10
16.3274946223
 20
10.2807748328
 30
0.0
  0
SPLINE
  5
4DF
100
AcDbEntity
  8
0
100
AcDbSpline
 62
9
  6
CONTINUOUS
 70
0
 71
3
 72
15
 73
11
 74
0
 42
0.0000001
 43
0.0000001
 44
0.0000000001
 40
0.0
 40
0.0
 40
0.0
 40
0.0
 40
0.1530668516
 40
0.2958652725
 40
0.4291978915
 40
0.5540874834
 40
0.6718946976
 40
0.7842971857
 40
0.8930689757
 40
1.0
 40
1.0
 40
1.0
 40
1.0
 10
16.8496892807
 20
10.3018643946
 30
0.0
 10
16.8412932095
 20
10.2926395556
 30
0.0
 10
16.8245209978
 20
10.2752896045
 30
0.0
 10
16.7984378682
 20
10.2519369342
 30
0.0
 10
16.7723250957
 20
10.2322149286
 30
0.0
 10
16.7461616243
 20
10.2161584329
 30
0.0
 10
16.7199378598
 20
10.2037762191
 30
0.0
 10
16.6936781323
 20
10.1949832338
 30
0.0
 10
16.6673996117
 20
10.1896911103
 30
0.0
 10
16.6498129466
 20
10.1884299401
 30
0.0
 10
16.6410994592
 20
10.1883388357
 30
0.0
  0
SPLINE
  5
4E0
100
AcDbEntity
  8
0
100
AcDbSpline
 62
7
  6
CONTINUOUS
 70
0
 71
3
 72
19
 73
15
 74
0
 42
0.0000001
 43
0.0000001
 44
0.0000000001
 40
0.0
 40
0.0
 40
0.0
 40
0.0
 40
0.0315611106
 40
0.0634497468
 40
0.1276838773
 40
0.1921254358
 40
0.2565271226
 40
0.3207500339
 40
0.3847014814
 40
0.5115298109
 40
0.6366246036
 40
0.7597722186
 40
0.8808892162
 40
1.0
 40
1.0
 40
1.0
 40
1.0
 10
16.4713009614
 20
10.5095586955
 30
0.0
 10
16.4687192785
 20
10.5082003793
 30
0.0
 10
16.4635658431
 20
10.50539976
 30
0.0
 10
16.4532943402
 20
10.4995870479
 30
0.0
 10
16.440504634
 20
10.4920568298
 30
0.0
 10
16.4252192504
 20
10.4828456866
 30
0.0
 10
16.4099689529
 20
10.4735785286
 30
0.0
 10
16.3947493055
 20
10.4643481465
 30
0.0
 10
16.3745433786
 20
10.4522127887
 30
0.0
 10
16.3493514704
 20
10.4374508882
 30
0.0
 10
16.3190093529
 20
10.4206714931
 30
0.0
 10
16.2886172538
 20
10.4051040669
 30
0.0
 10
16.2581552806
 20
10.3909352972
 30
0.0
 10
16.2376127048
 20
10.38248038
 30
0.0
 10
16.2273294091
 20
10.3785481749
 30
0.0
  0
SPLINE
  5
4E1
100
AcDbEntity
  8
0
100
AcDbSpline
 62
9
  6
CONTINUOUS
 70
0
 71
3
 72
23
 73
19
 74
0
 42
0.0000001
 43
0.0000001
 44
0.0000000001
 40
0.0
 40
0.0
 40
0.0
 40
0.0
 40
0.0651079369
 40
0.1311538234
 40
0.197938878
 40
0.265198474
 40
0.3326174799
 40
0.3998748582
 40
0.4666225462
 40
0.5324961905
 40
0.5971548027
 40
0.6602860686
 40
0.7216238747
 40
0.7809852497
 40
0.8383133843
 40
0.8937044166
 40
0.9474336639
 40
1.0
 40
1.0
 40
1.0
 40
1.0
 10
19.3375995664
 20
10.4789327902
 30
0.0
 10
19.3279491664
 20
10.4718769022
 30
0.0
 10
19.3086782786
 20
10.457431626
 30
0.0
 10
19.2800068476
 20
10.435094029
 30
0.0
 10
19.2513490759
 20
10.4121030893
 30
0.0
 10
19.2227013396
 20
10.3887001824
 30
0.0
 10
19.1940528378
 20
10.3651616718
 30
0.0
 10
19.1654114034
 20
10.3417625339
 30
0.0
 10
19.1367757594
 20
10.3188060204
 30
0.0
 10
19.1081373316
 20
10.2966214922
 30
0.0
 10
19.0794971804
 20
10.2755370735
 30
0.0
 10
19.0508520357
 20
10.2558908718
 30
0.0
 10
19.0221932963
 20
10.2380322864
 30
0.0
 10
18.9935081766
 20
10.2223136053
 30
0.0
 10
18.964786629
 20
10.2090727974
 30
0.0
 10
18.9360151285
 20
10.1986356012
 30
0.0
 10
18.9071805076
 20
10.1913431148
 30
0.0
 10
18.887772149
 20
10.1887850049
 30
0.0
 10
18.8781415088
 20
10.1881443867
 30
0.0
  0
SPLINE
  5
4E2
100
AcDbEntity
  8
0
100
AcDbSpline
 62
7
  6
CONTINUOUS
 70
0
 71
3
 72
14
 73
10
 74
0
 42
0.0000001
 43
0.0000001
 44
0.0000000001
 40
0.0
 40
0.0
 40
0.0
 40
0.0
 40
0.2489168352
 40
0.374261057
 40
0.4999077654
 40
0.6255997838
 40
0.751059618
 40
0.8759766778
 40
1.0
 40
1.0
 40
1.0
 40
1.0
 10
19.3025080908
 20
10.5258970239
 30
0.0
 10
19.2871240264
 20
10.5172737333
 30
0.0
 10
19.264213026
 20
10.5039146122
 30
0.0
 10
19.2339057056
 20
10.4855850855
 30
0.0
 10
19.2111705522
 20
10.4716066096
 30
0.0
 10
19.1884700179
 20
10.4575569411
 30
0.0
 10
19.1657911929
 20
10.4435702188
 30
0.0
 10
19.1431234885
 20
10.4297914866
 30
0.0
 10
19.1279391156
 20
10.4208160026
 30
0.0
 10
19.1203285231
 20
10.4164235307
 30
0.0
  0
SPLINE
  5
4E3
100
AcDbEntity
  8
0
100
AcDbSpline
 62
7
  6
CONTINUOUS
 70
0
 71
3
 72
13
 73
9
 74
0
 42
0.0000001
 43
0.0000001
 44
0.0000000001
 40
0.0
 40
0.0
 40
0.0
 40
0.0
 40
0.2500186605
 40
0.3750910004
 40
0.500140214
 40
0.6251712691
 40
0.750190098
 40
1.0
 40
1.0
 40
1.0
 40
1.0
 10
11.2938194751
 20
3.4154570547
 30
0.0
 10
11.3042652102
 20
3.4288423836
 30
0.0
 10
11.318328458
 20
3.4502600167
 30
0.0
 10
11.3333719499
 20
3.4807401539
 30
0.0
 10
11.3427526618
 20
3.5044593948
 30
0.0
 10
11.3501682168
 20
3.5288607783
 30
0.0
 10
11.3573518656
 20
3.5620638725
 30
0.0
 10
11.3596634084
 20
3.5875640685
 30
0.0
 10
11.3598071956
 20
3.6045281047
 30
0.0
  0
SPLINE
  5
4E4
100
AcDbEntity
  8
0
100
AcDbSpline
 62
7
  6
CONTINUOUS
 70
0
 71
3
 72
21
 73
17
 74
0
 42
0.0000001
 43
0.0000001
 44
0.0000000001
 40
0.0
 40
0.0
 40
0.0
 40
0.0
 40
0.062376444
 40
0.1247598954
 40
0.1871563438
 40
0.2495649341
 40
0.3743017873
 40
0.4367669503
 40
0.499260538
 40
0.5617819516
 40
0.624332053
 40
0.6869064678
 40
0.7494993913
 40
0.8121209728
 40
0.8747876566
 40
1.0
 40
1.0
 40
1.0
 40
1.0
 10
10.7348364042
 20
3.6055587615
 30
0.0
 10
10.734933634
 20
3.5962620185
 30
0.0
 10
10.7359661727
 20
3.5776652043
 30
0.0
 10
10.7400218061
 20
3.550029871
 30
0.0
 10
10.746558231
 20
3.5228639091
 30
0.0
 10
10.7584805459
 20
3.4875921719
 30
0.0
 10
10.7751573841
 20
3.4540641186
 30
0.0
 10
10.7960873459
 20
3.4232441926
 30
0.0
 10
10.8138243694
 20
3.4015991325
 30
0.0
 10
10.8334371791
 20
3.3816242942
 30
0.0
 10
10.8547786416
 20
3.3634885293
 30
0.0
 10
10.8776634183
 20
3.3473256064
 30
0.0
 10
10.9019142374
 20
3.3332756087
 30
0.0
 10
10.9273414787
 20
3.3214454213
 30
0.0
 10
10.9625008496
 20
3.3087795449
 30
0.0
 10
10.9900738614
 20
3.3028630823
 30
0.0
 10
11.0085977815
 20
3.3005890128
 30
0.0
  0
SPLINE
  5
4E5
100
AcDbEntity
  8
0
100
AcDbSpline
 62
9
  6
CONTINUOUS
 70
0
 71
3
 72
27
 73
23
 74
0
 42
0.0000001
 43
0.0000001
 44
0.0000000001
 40
0.0
 40
0.0
 40
0.0
 40
0.0
 40
0.0876026868
 40
0.1745851632
 40
0.2600666251
 40
0.3433109329
 40
0.4236685718
 40
0.5005130942
 40
0.5732465191
 40
0.641327635
 40
0.7043273725
 40
0.7338120379
 40
0.7619084168
 40
0.8138610755
 40
0.860168563
 40
0.9010711345
 40
0.9196859512
 40
0.9372093588
 40
0.9537950705
 40
0.9696347367
 40
0.984952401
 40
1.0
 40
1.0
 40
1.0
 40
1.0
 10
11.0473183383
 20
5.3062215815
 30
0.0
 10
11.0575216762
 20
5.3062215815
 30
0.0
 10
11.0778577351
 20
5.3058790827
 30
0.0
 10
11.1081155681
 20
5.3043534304
 30
0.0
 10
11.1377972165
 20
5.3018223556
 30
0.0
 10
11.1666024018
 20
5.2983135623
 30
0.0
 10
11.1942593314
 20
5.293861704
 30
0.0
 10
11.2205087268
 20
5.2885090004
 30
0.0
 10
11.245101459
 20
5.2823118224
 30
0.0
 10
11.2677998722
 20
5.2753221589
 30
0.0
 10
11.2853293784
 20
5.2687638943
 30
0.0
 10
11.2982007444
 20
5.26313648
 30
0.0
 10
11.3096834175
 20
5.2575721065
 30
0.0
 10
11.3225244441
 20
5.2503332549
 30
0.0
 10
11.3357546403
 20
5.2409106199
 30
0.0
 10
11.3447872172
 20
5.2324421859
 30
0.0
 10
11.3504618392
 20
5.2254753254
 30
0.0
 10
11.3538541404
 20
5.2203425995
 30
0.0
 10
11.35650667
 20
5.215149852
 30
0.0
 10
11.3584117781
 20
5.2099089297
 30
0.0
 10
11.3595608891
 20
5.2046347146
 30
0.0
 10
11.3598183383
 20
5.201092924
 30
0.0
 10
11.3598183383
 20
5.1993402867
 30
0.0
  0
SPLINE
  5
4E6
100
AcDbEntity
  8
0
100
AcDbSpline
 62
9
  6
CONTINUOUS
 70
0
 71
3
 72
9
 73
5
 74
0
 42
0.0000001
 43
0.0000001
 44
0.0000000001
 40
0.0
 40
0.0
 40
0.0
 40
0.0
 40
0.4999023987
 40
1.0
 40
1.0
 40
1.0
 40
1.0
 10
11.0101596012
 20
3.3004012694
 30
0.0
 10
11.0163209575
 20
3.2996662881
 30
0.0
 10
11.0286971508
 20
3.2986144891
 30
0.0
 10
11.0411108763
 20
3.298230212
 30
0.0
 10
11.0473183383
 20
3.298230212
 30
0.0
  0
SPLINE
  5
4E7
100
AcDbEntity
  8
0
100
AcDbSpline
 62
7
  6
CONTINUOUS
 70
0
 71
3
 72
12
 73
8
 74
0
 42
0.0000001
 43
0.0000001
 44
0.0000000001
 40
0.0
 40
0.0
 40
0.0
 40
0.0
 40
0.2498366782
 40
0.4997332453
 40
0.6247940522
 40
0.7498820011
 40
1.0
 40
1.0
 40
1.0
 40
1.0
 10
10.7348426389
 20
3.6023334538
 30
0.0
 10
10.735022611
 20
3.5876776181
 30
0.0
 10
10.7374686773
 20
3.5583471831
 30
0.0
 10
10.7457117364
 20
3.5225005745
 30
0.0
 10
10.7552917768
 20
3.494748885
 30
0.0
 10
10.7668275318
 20
3.4677432077
 30
0.0
 10
10.7776241352
 20
3.4484493399
 30
0.0
 10
10.7856806151
 20
3.4361854453
 30
0.0
  0
SPLINE
  5
4E8
100
AcDbEntity
  8
0
100
AcDbSpline
 62
9
  6
CONTINUOUS
 70
0
 71
3
 72
21
 73
17
 74
0
 42
0.0000001
 43
0.0000001
 44
0.0000000001
 40
0.0
 40
0.0
 40
0.0
 40
0.0
 40
0.1246548323
 40
0.2493458918
 40
0.3117889568
 40
0.3742525588
 40
0.4367365678
 40
0.4992436985
 40
0.5617749774
 40
0.6243306957
 40
0.6869059317
 40
0.7494906972
 40
0.812095878
 40
0.874743461
 40
0.937413538
 40
1.0
 40
1.0
 40
1.0
 40
1.0
 10
11.3598093767
 20
3.6071880914
 30
0.0
 10
11.3596551819
 20
3.5869428327
 30
0.0
 10
11.3553606037
 20
3.5463712766
 30
0.0
 10
11.3401960571
 20
3.4977014313
 30
0.0
 10
11.3225847875
 20
3.4611269706
 30
0.0
 10
11.3067364149
 20
3.4350847878
 30
0.0
 10
11.2884199024
 20
3.4107050621
 30
0.0
 10
11.2677966653
 20
3.3882274456
 30
0.0
 10
11.2450774628
 20
3.3678534199
 30
0.0
 10
11.2204647531
 20
3.3497935704
 30
0.0
 10
11.1942076136
 20
3.3342047713
 30
0.0
 10
11.1665494224
 20
3.321243855
 30
0.0
 10
11.1377507521
 20
3.3110315604
 30
0.0
 10
11.1080804338
 20
3.303666707
 30
0.0
 10
11.0778403452
 20
3.2992278888
 30
0.0
 10
11.0574833342
 20
3.298230212
 30
0.0
 10
11.0473183383
 20
3.298230212
 30
0.0
  0
SPLINE
  5
4E9
100
AcDbEntity
  8
0
100
AcDbSpline
 62
9
  6
CONTINUOUS
 70
0
 71
3
 72
27
 73
23
 74
0
 42
0.0000001
 43
0.0000001
 44
0.0000000001
 40
0.0
 40
0.0
 40
0.0
 40
0.0
 40
0.015047599
 40
0.0303652633
 40
0.0462049295
 40
0.0627906412
 40
0.0803140488
 40
0.0989288655
 40
0.139831437
 40
0.1861389245
 40
0.2380915832
 40
0.2661879621
 40
0.2956726275
 40
0.358672365
 40
0.4267534809
 40
0.4994869058
 40
0.5763314282
 40
0.6566890671
 40
0.7399333749
 40
0.8254148368
 40
0.9123973132
 40
1.0
 40
1.0
 40
1.0
 40
1.0
 10
10.7348183383
 20
5.1993402867
 30
0.0
 10
10.7348183383
 20
5.201092924
 30
0.0
 10
10.7350757875
 20
5.2046347146
 30
0.0
 10
10.7362248985
 20
5.2099089297
 30
0.0
 10
10.7381300066
 20
5.215149852
 30
0.0
 10
10.7407825362
 20
5.2203425995
 30
0.0
 10
10.7441748373
 20
5.2254753254
 30
0.0
 10
10.7498494594
 20
5.2324421859
 30
0.0
 10
10.7588820363
 20
5.2409106199
 30
0.0
 10
10.7721122325
 20
5.2503332549
 30
0.0
 10
10.784953259
 20
5.2575721065
 30
0.0
 10
10.7964359322
 20
5.26313648
 30
0.0
 10
10.8093072982
 20
5.2687638943
 30
0.0
 10
10.8268368043
 20
5.2753221589
 30
0.0
 10
10.8495352176
 20
5.2823118224
 30
0.0
 10
10.8741279498
 20
5.2885090004
 30
0.0
 10
10.9003773452
 20
5.293861704
 30
0.0
 10
10.9280342748
 20
5.2983135623
 30
0.0
 10
10.95683946
 20
5.3018223556
 30
0.0
 10
10.9865211085
 20
5.3043534304
 30
0.0
 10
11.0167789415
 20
5.3058790827
 30
0.0
 10
11.0371150004
 20
5.3062215815
 30
0.0
 10
11.0473183383
 20
5.3062215815
 30
0.0
  0
SPLINE
  5
4EA
100
AcDbEntity
  8
0
100
AcDbSpline
 62
9
  6
CONTINUOUS
 70
0
 71
3
 72
21
 73
17
 74
0
 42
0.0000001
 43
0.0000001
 44
0.0000000001
 40
0.0
 40
0.0
 40
0.0
 40
0.0
 40
0.0624077137
 40
0.1248189622
 40
0.1872391293
 40
0.2496703305
 40
0.3744524584
 40
0.4369323975
 40
0.4994334205
 40
0.5619568144
 40
0.6245039243
 40
0.6870675456
 40
0.7496415659
 40
0.8122399705
 40
0.8748816367
 40
1.0
 40
1.0
 40
1.0
 40
1.0
 10
10.7348453295
 20
3.605561044
 30
0.0
 10
10.7349655929
 20
3.5962323693
 30
0.0
 10
10.7360468777
 20
3.5775742082
 30
0.0
 10
10.7401850372
 20
3.5498549732
 30
0.0
 10
10.7468101409
 20
3.5226139164
 30
0.0
 10
10.7588608986
 20
3.4872549342
 30
0.0
 10
10.7756745911
 20
3.4536572581
 30
0.0
 10
10.7967513618
 20
3.422791573
 30
0.0
 10
10.8145987289
 20
3.4011252015
 30
0.0
 10
10.8343239797
 20
3.38114333
 30
0.0
 10
10.8557756379
 20
3.3630121287
 30
0.0
 10
10.8787680707
 20
3.3468663112
 30
0.0
 10
10.9031242115
 20
3.3328484878
 30
0.0
 10
10.9286518929
 20
3.3210612361
 30
0.0
 10
10.9639324793
 20
3.3084694976
 30
0.0
 10
10.9915870946
 20
3.3026167629
 30
0.0
 10
11.0101596057
 20
3.3004012689
 30
0.0
  0
SPLINE
  5
4EB
100
AcDbEntity
  8
0
100
AcDbSpline
 62
9
  6
CONTINUOUS
 70
0
 71
3
 72
27
 73
23
 74
0
 42
0.0000001
 43
0.0000001
 44
0.0000000001
 40
0.0
 40
0.0
 40
0.0
 40
0.0
 40
0.0876026868
 40
0.1745851632
 40
0.2600666251
 40
0.3433109329
 40
0.4236685718
 40
0.5005130942
 40
0.5732465191
 40
0.641327635
 40
0.7043273725
 40
0.7338120379
 40
0.7619084168
 40
0.8138610755
 40
0.860168563
 40
0.9010711345
 40
0.9196859512
 40
0.9372093588
 40
0.9537950705
 40
0.9696347367
 40
0.984952401
 40
1.0
 40
1.0
 40
1.0
 40
1.0
 10
11.0473183383
 20
6.8027990917
 30
0.0
 10
11.0371150004
 20
6.8027990917
 30
0.0
 10
11.0167789415
 20
6.8024565929
 30
0.0
 10
10.9865211085
 20
6.8009309406
 30
0.0
 10
10.95683946
 20
6.7983998658
 30
0.0
 10
10.9280342748
 20
6.7948910725
 30
0.0
 10
10.9003773452
 20
6.7904392142
 30
0.0
 10
10.8741279498
 20
6.7850865106
 30
0.0
 10
10.8495352176
 20
6.7788893326
 30
0.0
 10
10.8268368043
 20
6.7718996691
 30
0.0
 10
10.8093072982
 20
6.7653414045
 30
0.0
 10
10.7964359322
 20
6.7597139902
 30
0.0
 10
10.784953259
 20
6.7541496167
 30
0.0
 10
10.7721122325
 20
6.7469107651
 30
0.0
 10
10.7588820363
 20
6.7374881301
 30
0.0
 10
10.7498494594
 20
6.7290196961
 30
0.0
 10
10.7441748373
 20
6.7220528356
 30
0.0
 10
10.7407825362
 20
6.7169201097
 30
0.0
 10
10.7381300066
 20
6.7117273622
 30
0.0
 10
10.7362248985
 20
6.7064864399
 30
0.0
 10
10.7350757875
 20
6.7012122248
 30
0.0
 10
10.7348183383
 20
6.6976704342
 30
0.0
 10
10.7348183383
 20
6.6959177969
 30
0.0
  0
SPLINE
  5
4EC
100
AcDbEntity
  8
0
100
AcDbSpline
 62
9
  6
CONTINUOUS
 70
0
 71
3
 72
27
 73
23
 74
0
 42
0.0000001
 43
0.0000001
 44
0.0000000001
 40
0.0
 40
0.0
 40
0.0
 40
0.0
 40
0.015047599
 40
0.0303652633
 40
0.0462049295
 40
0.0627906412
 40
0.0803140488
 40
0.0989288655
 40
0.139831437
 40
0.1861389245
 40
0.2380915832
 40
0.2661879621
 40
0.2956726275
 40
0.358672365
 40
0.4267534809
 40
0.4994869058
 40
0.5763314282
 40
0.6566890671
 40
0.7399333749
 40
0.8254148368
 40
0.9123973132
 40
1.0
 40
1.0
 40
1.0
 40
1.0
 10
11.3598183383
 20
6.6959177969
 30
0.0
 10
11.3598183383
 20
6.6976704342
 30
0.0
 10
11.3595608891
 20
6.7012122248
 30
0.0
 10
11.3584117781
 20
6.7064864399
 30
0.0
 10
11.35650667
 20
6.7117273622
 30
0.0
 10
11.3538541404
 20
6.7169201097
 30
0.0
 10
11.3504618392
 20
6.7220528356
 30
0.0
 10
11.3447872172
 20
6.7290196961
 30
0.0
 10
11.3357546403
 20
6.7374881301
 30
0.0
 10
11.3225244441
 20
6.7469107651
 30
0.0
 10
11.3096834175
 20
6.7541496167
 30
0.0
 10
11.2982007444
 20
6.7597139902
 30
0.0
 10
11.2853293784
 20
6.7653414045
 30
0.0
 10
11.2677998722
 20
6.7718996691
 30
0.0
 10
11.245101459
 20
6.7788893326
 30
0.0
 10
11.2205087268
 20
6.7850865106
 30
0.0
 10
11.1942593314
 20
6.7904392142
 30
0.0
 10
11.1666024018
 20
6.7948910725
 30
0.0
 10
11.1377972165
 20
6.7983998658
 30
0.0
 10
11.1081155681
 20
6.8009309406
 30
0.0
 10
11.0778577351
 20
6.8024565929
 30
0.0
 10
11.0575216762
 20
6.8027990917
 30
0.0
 10
11.0473183383
 20
6.8027990917
 30
0.0
  0
ENDSEC
  0
SECTION
  2
OBJECTS
  0
DICTIONARY
  5
C
100
AcDbDictionary
280
0
281
1
  3
ACAD_GROUP
350
D
  3
ACAD_MLINESTYLE
350
17
  3
ACAD_LAYOUT
350
1A
  3
ACAD_PLOTSETTINGS
350
19
  3
ACAD_PLOTSTYLENAME
350
E
  0
DICTIONARY
  5
D
102
{ACAD_REACTORS
330
C
102
}
100
AcDbDictionary
280
0
281
1
  0
ACDBDICTIONARYWDFLT
  5
E
102
{ACAD_REACTORS
330
C
102
}
100
AcDbDictionary
281
1
  3
Normal
350
F
100
AcDbDictionaryWithDefault
340
F
  0
DICTIONARY
  5
17
102
{ACAD_REACTORS
330
C
102
}
100
AcDbDictionary
280
0
281
1
  3
Standard
350
18
  0
DICTIONARY
  5
19
102
{ACAD_REACTORS
330
C
102
}
100
AcDbDictionary
281
1
  0
DICTIONARY
  5
1A
102
{ACAD_REACTORS
330
C
102
}
100
AcDbDictionary
281
1
  3
Model
350
4ED
  3
Layout1
350
4EE
  0
ACDBPLACEHOLDER
  5
F
102
{ACAD_REACTORS
330
E
102
}
  0
MLINESTYLE
  5
18
102
{ACAD_REACTORS
330
17
102
}
100
AcDbMlineStyle
  2
STANDARD
 70
0
  3

 62
256
 51
90.0
 52
90.0
 71
2
 49
0.5
 62
256
  6
BYLAYER
 49
-0.5
 62
256
  6
BYLAYER
  0
LAYOUT
  5
4ED
102
{ACAD_REACTORS
330
1A
102
}
100
AcDbPlotSettings
  1

  2
none_device
  4
ANSI_C_(22.00_x_17.00_Inches)
  6

 40
0.0
 41
0.0
 42
0.0
 43
0.0
 44
558.8
 45
431.8
 46
0.0
 47
0.0
 48
0.0
 49
0.0
140
0.0
141
0.0
142
1.0
143
1.0
 70
1024
 72
0
 73
0
 74
0
  7

 75
0
147
1.0
148
0.0
149
0.0
100
AcDbLayout
  1
Model
 70
0
 71
0
 10
0.0
 20
0.0
 11
22.0
 21
17.0
 12
0.0
 22
0.0
 32
0.0
 14
0.0
 24
0.0
 34
0.0
 15
0.0
 25
0.0
 35
0.0
146
0.0
 13
0.0
 23
0.0
 33
0.0
 16
1.0
 26
0.0
 36
0.0
 17
0.0
 27
1.0
 37
0.0
 76
0
330
202
345
0
346
0
  0
LAYOUT
  5
4EE
102
{ACAD_REACTORS
330
1A
102
}
100
AcDbPlotSettings
  1

  2
none_device
  4
ANSI_C_(22.00_x_17.00_Inches)
  6

 40
0.0
 41
0.0
 42
0.0
 43
0.0
 44
558.8
 45
431.8
 46
0.0
 47
0.0
 48
0.0
 49
0.0
140
0.0
141
0.0
142
1.0
143
1.0
 70
0
 72
0
 73
0
 74
0
  7

 75
0
147
1.0
148
0.0
149
0.0
100
AcDbLayout
  1
Layout1
 70
0
 71
1
 10
0.0
 20
0.0
 11
22.0
 21
17.0
 12
0.0
 22
0.0
 32
0.0
 14
0.0
 24
0.0
 34
0.0
 15
0.0
 25
0.0
 35
0.0
146
0.0
 13
0.0
 23
0.0
 33
0.0
 16
1.0
 26
0.0
 36
0.0
 17
0.0
 27
1.0
 37
0.0
 76
0
330
203
345
0
346
0
  0
ENDSEC
  0
EOF
