  0
SECTION
  2
HEADER
  9
$ACADVER
  1
AC1015
  9
$DWGCODEPAGE
  3
ANSI_1252
  9
$EXTMAX
 10
23.3858267717
 20
33.1102362205
 30
0.0
  9
$EXTMIN
 10
0.0
 20
0.0
 30
0.0
  9
$LIMMIN
 10
0.0
 20
0.0
  9
$LIMMAX
 10
23.3858267717
 20
33.1102362205
  9
$VIEWCTR
 10
11.6929133858
 20
16.5551181102
  9
$VIEWSIZE
 40
33.1102362205
  9
$CLAYER
  8
0
  9
$LTSCALE
 40
2.1582968796
  9
$CELTYPE
  6
BYLAYER
  9
$DIMSCALE
 40
1.0
  9
$DIMASZ
 40
0.1875
  9
$DIMEXO
 40
0.245261009
  9
$DIMDLI
 40
1.491186935
  9
$DIMEXE
 40
0.706351706
  9
$DIMCEN
 40
0.353175853
  9
$DIMLFAC
 40
1.0
  9
$DIMBLK
  1
_CLOSED
  9
$DIMTXT
 40
0.15625
  9
$DIMTOL
 70
0
  9
$DIMLIM
 70
0
  9
$DIMTFAC
 40
1.0
  9
$PDMODE
 70
3
  9
$PDSIZE
 40
0.3125
  9
$HANDSEED
  5
3D4
  9
$TILEMODE
 70
1
  9
$MEASUREMENT
 70
0
  9
$INSUNITS
 70
1
  0
ENDSEC
  0
SECTION
  2
CLASSES
  0
CLASS
  1
ACDBDICTIONARYWDFLT
  2
AcDbDictionaryWithDefault
  3
AutoCAD 2000
 90
0
280
0
281
0
  0
CLASS
  1
ACDBPLACEHOLDER
  2
AcDbPlaceHolder
  3
AutoCAD 2000
 90
0
280
0
281
0
  0
CLASS
  1
LAYOUT
  2
AcDbLayout
  3
AutoCAD 2000
 90
0
280
0
281
0
  0
ENDSEC
  0
SECTION
  2
TABLES
  0
TABLE
  2
VPORT
  5
8
100
AcDbSymbolTable
 70
2
  0
VPORT
  5
1F4
100
AcDbSymbolTableRecord
100
AcDbViewportTableRecord
  2
*ACTIVE
 70
0
 10
0.0
 20
0.0
 11
1.0
 21
1.0
 12
11.6929133858
 22
16.5551181102
 13
0.0
 23
0.0
 14
1.0
 24
1.0
 15
0.0
 25
0.0
 16
0.0
 26
0.0
 36
1.0
 17
0.0
 27
0.0
 37
0.0
 40
33.1102362205
 41
0.7063020214
 42
50.0
 43
0.0
 44
0.0
 50
0.0
 51
0.0
 71
0
 72
100
 73
1
 74
1
 75
0
 76
0
 77
0
 78
0
  0
ENDTAB
  0
TABLE
  2
LTYPE
  5
5
100
AcDbSymbolTable
 70
6
  0
LTYPE
  5
14
100
AcDbSymbolTableRecord
100
AcDbLinetypeTableRecord
  2
BYBLOCK
 70
0
  3

 72
65
 73
0
 40
0.0
  0
LTYPE
  5
15
100
AcDbSymbolTableRecord
100
AcDbLinetypeTableRecord
  2
BYLAYER
 70
0
  3

 72
65
 73
0
 40
0.0
  0
LTYPE
  5
16
100
AcDbSymbolTableRecord
100
AcDbLinetypeTableRecord
  2
CONTINUOUS
 70
64
  3
Solid line
 72
65
 73
0
 40
0.0
  0
LTYPE
  5
1F5
100
AcDbSymbolTableRecord
100
AcDbLinetypeTableRecord
  2
CENTER
 70
64
  3
____ _ ____ _ ____ _ ____ _ ____ _ ____ _ ____
 72
65
 73
4
 40
0.6
 49
0.375
 74
0
 49
-0.075
 74
0
 49
0.075
 74
0
 49
-0.075
 74
0
  0
LTYPE
  5
1F6
100
AcDbSymbolTableRecord
100
AcDbLinetypeTableRecord
  2
HIDDEN
 70
64
  3
- - - - - - - - - - - - - - - - - - - -
 72
65
 73
2
 40
0.2
 49
0.1
 74
0
 49
-0.1
 74
0
  0
LTYPE
  5
1F7
100
AcDbSymbolTableRecord
100
AcDbLinetypeTableRecord
  2
PHANTOM
 70
64
  3
_____ _ _ _____ _ _ _____ _ _ _____
 72
65
 73
6
 40
0.8
 49
0.45
 74
0
 49
-0.05
 74
0
 49
0.1
 74
0
 49
-0.05
 74
0
 49
0.1
 74
0
 49
-0.05
 74
0
  0
LTYPE
  5
1F8
100
AcDbSymbolTableRecord
100
AcDbLinetypeTableRecord
  2
DOT
 70
64
  3
. . . . . . . . . . . . . . . . . . . .
 72
65
 73
2
 40
0.2
 49
0.1
 74
0
 49
-0.1
 74
0
  0
LTYPE
  5
1F9
100
AcDbSymbolTableRecord
100
AcDbLinetypeTableRecord
  2
DASHED
 70
64
  3
- - - - - - - - - - - - - - - - - - - -
 72
65
 73
2
 40
0.2
 49
0.1
 74
0
 49
-0.1
 74
0
  0
ENDTAB
  0
TABLE
  2
LAYER
  5
2
100
AcDbSymbolTable
 70
36
  0
LAYER
  5
10
100
AcDbSymbolTableRecord
100
AcDbLayerTableRecord
  2
0
 70
0
 62
7
  6
CONTINUOUS
370
-3
390
F
  0
LAYER
  5
1FA
100
AcDbSymbolTableRecord
100
AcDbLayerTableRecord
  2
DEFAULT_1
 70
0
 62
7
  6
CENTER
370
-3
390
F
  0
LAYER
  5
1FB
100
AcDbSymbolTableRecord
100
AcDbLayerTableRecord
  2
DEFAULT_2
 70
0
 62
8
  6
HIDDEN
370
-3
390
F
  0
LAYER
  5
1FC
100
AcDbSymbolTableRecord
100
AcDbLayerTableRecord
  2
DEFAULT_3
 70
0
 62
7
  6
PHANTOM
370
-3
390
F
  0
LAYER
  5
1FD
100
AcDbSymbolTableRecord
100
AcDbLayerTableRecord
  2
DEFAULT_COORDINATE_SYSTEM
 70
0
 62
7
  6
CONTINUOUS
370
-3
390
F
  0
LAYER
  5
1FE
100
AcDbSymbolTableRecord
100
AcDbLayerTableRecord
  2
DEFAULT_DATUM_AXES
 70
0
 62
7
  6
CONTINUOUS
370
-3
390
F
  0
LAYER
  5
1FF
100
AcDbSymbolTableRecord
100
AcDbLayerTableRecord
  2
DEFAULT_DATUM_CURVES
 70
0
 62
7
  6
CONTINUOUS
370
-3
390
F
  0
LAYER
  5
200
100
AcDbSymbolTableRecord
100
AcDbLayerTableRecord
  2
DEFAULT_DATUM_PLANES
 70
0
 62
7
  6
CONTINUOUS
370
-3
390
F
  0
ENDTAB
  0
TABLE
  2
STYLE
  5
3
100
AcDbSymbolTable
 70
1
  0
STYLE
  5
11
100
AcDbSymbolTableRecord
100
AcDbTextStyleTableRecord
  2
STANDARD
 70
0
 40
0.0
 41
0.8
 50
0.0
 71
0
 42
0.2
  3
txt
  4

  0
STYLE
  5
201
100
AcDbSymbolTableRecord
100
AcDbTextStyleTableRecord
  2
TEXTSTYLE_1
 70
0
 40
0.0
 41
0.8
 50
0.0
 71
0
 42
0.2
  3
gdt
  4

  0
ENDTAB
  0
TABLE
  2
VIEW
  5
6
100
AcDbSymbolTable
 70
0
  0
ENDTAB
  0
TABLE
  2
UCS
  5
7
100
AcDbSymbolTable
 70
0
  0
ENDTAB
  0
TABLE
  2
APPID
  5
9
100
AcDbSymbolTable
 70
1
  0
APPID
  5
202
100
AcDbSymbolTableRecord
100
AcDbRegAppTableRecord
  2
ACAD
 70
0
  0
ENDTAB
  0
TABLE
  2
BLOCK_RECORD
  5
1
100
AcDbSymbolTable
 70
0
  0
BLOCK_RECORD
  5
203
100
AcDbSymbolTableRecord
100
AcDbBlockTableRecord
  2
*Model_Space
  0
BLOCK_RECORD
  5
204
100
AcDbSymbolTableRecord
100
AcDbBlockTableRecord
  2
*Paper_Space
  0
ENDTAB
  0
TABLE
  2
DIMSTYLE
  5
A
100
AcDbSymbolTable
 70
1
100
AcDbDimStyleTable
 71
0
  0
DIMSTYLE
105
205
100
AcDbSymbolTableRecord
100
AcDbDimStyleTableRecord
  2
STANDARD
 70
0
  3

  4

 40
1.0
 41
0.1875
 42
0.0625
 43
0.38
 44
0.18
 45
0.0
 46
0.0
 47
0.01
 48
0.01
140
0.15625
141
0.09
142
0.0
143
25.4
144
1.0
145
0.0
146
1.0
147
0.09
 71
0.0
 72
0.0
 73
1
 74
1
 75
0
 76
0
 77
0
 78
4
170
0
171
2
172
0
173
0
174
0
175
0
176
0
177
0
178
0
270
2
271
2
272
2
273
2
274
2
275
0
280
0
281
0
282
0
283
1
284
4
285
0
286
0
287
3
288
0
340
11
  0
ENDTAB
  0
ENDSEC
  0
SECTION
  2
BLOCKS
  0
BLOCK
  5
20
100
AcDbEntity
  8
0
100
AcDbBlockBegin
  2
*Model_Space
 70
0
 10
0.0
 20
0.0
 30
0.0
  3
*Model_Space
  1

  0
ENDBLK
  5
21
100
AcDbEntity
  8
0
100
AcDbBlockEnd
  0
BLOCK
  5
1C
100
AcDbEntity
  8
0
100
AcDbBlockBegin
  2
*Paper_Space
 70
0
 10
0.0
 20
0.0
 30
0.0
  3
*Paper_Space
  1

  0
ENDBLK
  5
1D
100
AcDbEntity
  8
0
100
AcDbBlockEnd
  0
ENDSEC
  0
SECTION
  2
ENTITIES
  0
LINE
  5
206
100
AcDbEntity
  8
0
100
AcDbLine
 62
6
  6
CONTINUOUS
 10
0.4592594207
 20
13.4022704365
 11
0.4592594207
 21
13.4972704365
  0
LINE
  5
207
100
AcDbEntity
  8
0
100
AcDbLine
 62
6
  6
CONTINUOUS
 10
0.4872594207
 20
13.4972704365
 11
0.4872594207
 21
13.6472704365
  0
LINE
  5
208
100
AcDbEntity
  8
0
100
AcDbLine
 62
6
  6
CONTINUOUS
 10
1.3572594207
 20
13.4972704365
 11
1.3572594207
 21
13.6472704365
  0
LINE
  5
209
100
AcDbEntity
  8
0
100
AcDbLine
 62
6
  6
CONTINUOUS
 10
1.3852594207
 20
13.4022704365
 11
1.3852594207
 21
13.4972704365
  0
LINE
  5
20A
100
AcDbEntity
  8
0
100
AcDbLine
 62
6
  6
CONTINUOUS
 10
4.3495501676
 20
13.8275806369
 11
4.3495501676
 21
13.6352505913
  0
LINE
  5
20B
100
AcDbEntity
  8
0
100
AcDbLine
 62
9
  6
CONTINUOUS
 10
4.3535694055
 20
13.8159124813
 11
4.3535694055
 21
13.6352593085
  0
LINE
  5
20C
100
AcDbEntity
  8
0
100
AcDbLine
 62
9
  6
CONTINUOUS
 10
4.624924032
 20
13.8159124261
 11
4.624924032
 21
13.6352568894
  0
LINE
  5
20D
100
AcDbEntity
  8
0
100
AcDbLine
 62
9
  6
CONTINUOUS
 10
4.6509047941
 20
13.8159124233
 11
4.6509047941
 21
13.6352566843
  0
LINE
  5
20E
100
AcDbEntity
  8
0
100
AcDbLine
 62
9
  6
CONTINUOUS
 10
5.1936140472
 20
13.8159124194
 11
5.1936140472
 21
13.6352566848
  0
LINE
  5
20F
100
AcDbEntity
  8
0
100
AcDbLine
 62
9
  6
CONTINUOUS
 10
5.2195948093
 20
13.8159124298
 11
5.2195948093
 21
13.635256887
  0
LINE
  5
210
100
AcDbEntity
  8
0
100
AcDbLine
 62
9
  6
CONTINUOUS
 10
5.4909494358
 20
13.8159124944
 11
5.4909514965
 21
13.6352613635
  0
LINE
  5
211
100
AcDbEntity
  8
0
100
AcDbLine
 62
6
  6
CONTINUOUS
 10
5.4949686737
 20
13.8275806369
 11
5.4949686737
 21
13.6352505913
  0
LINE
  5
212
100
AcDbEntity
  8
0
100
AcDbLine
 62
6
  6
CONTINUOUS
 10
0.1322686772
 20
12.9022704365
 11
1.7122501641
 21
12.9022704365
  0
LINE
  5
213
100
AcDbEntity
  8
0
100
AcDbLine
 62
6
  6
CONTINUOUS
 10
4.2662594207
 20
12.9022704365
 11
5.5782594207
 21
12.9022704365
  0
LINE
  5
214
100
AcDbEntity
  8
0
100
AcDbLine
 62
6
  6
CONTINUOUS
 10
11.7422594207
 20
12.9022704365
 11
14.1022594207
 21
12.9022704365
  0
LINE
  5
215
100
AcDbEntity
  8
0
100
AcDbLine
 62
6
  6
CONTINUOUS
 10
20.9097594207
 20
12.9214874365
 11
22.9347594207
 21
12.9214874365
  0
LINE
  5
216
100
AcDbEntity
  8
0
100
AcDbLine
 62
9
  6
CONTINUOUS
 10
4.4426837548
 20
13.0272704365
 11
5.4018350865
 21
13.0272704365
  0
LINE
  5
217
100
AcDbEntity
  8
0
100
AcDbLine
 62
6
  6
CONTINUOUS
 10
11.9222594207
 20
13.0892704365
 11
13.9222594207
 21
13.0892704365
  0
LINE
  5
218
100
AcDbEntity
  8
0
100
AcDbLine
 62
7
  6
CONTINUOUS
 10
4.6299322083
 20
13.1522704365
 11
5.214586633
 21
13.1522704365
  0
LINE
  5
219
100
AcDbEntity
  8
0
100
AcDbLine
 62
9
  6
CONTINUOUS
 10
20.9097594207
 20
13.1704549042
 11
22.9347594207
 21
13.1704549042
  0
LINE
  5
21A
100
AcDbEntity
  8
0
100
AcDbLine
 62
9
  6
CONTINUOUS
 10
4.5897594207
 20
13.1882545697
 11
5.2547594207
 21
13.1882545697
  0
LINE
  5
21B
100
AcDbEntity
  8
0
100
AcDbLine
 62
6
  6
CONTINUOUS
 10
20.9472594207
 20
13.2414874365
 11
22.8972594207
 21
13.2414874365
  0
LINE
  5
21C
100
AcDbEntity
  8
0
100
AcDbLine
 62
9
  6
CONTINUOUS
 10
12.1092593686
 20
13.2772704365
 11
13.7352594728
 21
13.2772704365
  0
LINE
  5
21D
100
AcDbEntity
  8
0
100
AcDbLine
 62
6
  6
CONTINUOUS
 10
12.1812626003
 20
13.3392704365
 11
13.663256241
 21
13.3392704365
  0
LINE
  5
21E
100
AcDbEntity
  8
0
100
AcDbLine
 62
9
  6
CONTINUOUS
 10
1.4224436274
 20
13.3977857326
 11
0.4220752139
 21
13.3977857326
  0
LINE
  5
21F
100
AcDbEntity
  8
0
100
AcDbLine
 62
6
  6
CONTINUOUS
 10
0.4340445205
 20
13.4022704365
 11
1.4104743208
 21
13.4022704365
  0
LINE
  5
220
100
AcDbEntity
  8
0
100
AcDbLine
 62
7
  6
CONTINUOUS
 10
0.4592594207
 20
13.4972704365
 11
0.4872594207
 21
13.4972704365
  0
LINE
  5
221
100
AcDbEntity
  8
0
100
AcDbLine
 62
7
  6
CONTINUOUS
 10
1.3572594207
 20
13.4972704365
 11
1.3852594207
 21
13.4972704365
  0
LINE
  5
222
100
AcDbEntity
  8
0
100
AcDbLine
 62
9
  6
CONTINUOUS
 10
4.624924032
 20
13.6352593085
 11
4.6509047941
 21
13.6352593085
  0
LINE
  5
223
100
AcDbEntity
  8
0
100
AcDbLine
 62
9
  6
CONTINUOUS
 10
5.1936140472
 20
13.6352593085
 11
5.2195948093
 21
13.6352593085
  0
LINE
  5
224
100
AcDbEntity
  8
0
100
AcDbLine
 62
9
  6
CONTINUOUS
 10
1.3572594207
 20
13.6437704365
 11
0.4872594207
 21
13.6437704365
  0
LINE
  5
225
100
AcDbEntity
  8
0
100
AcDbLine
 62
6
  6
CONTINUOUS
 10
0.4872594207
 20
13.6472704365
 11
1.3572594207
 21
13.6472704365
  0
LINE
  5
226
100
AcDbEntity
  8
0
100
AcDbLine
 62
9
  6
CONTINUOUS
 10
12.281095981
 20
13.7057704365
 11
13.5634228603
 21
13.7057704365
  0
LINE
  5
227
100
AcDbEntity
  8
0
100
AcDbLine
 62
9
  6
CONTINUOUS
 10
12.3037594207
 20
13.9207704365
 11
13.5407594207
 21
13.9207704365
  0
LINE
  5
228
100
AcDbEntity
  8
0
100
AcDbLine
 62
9
  6
CONTINUOUS
 10
22.6304516168
 20
14.0822325785
 11
21.2140672245
 21
14.0822325785
  0
LWPOLYLINE
  5
229
100
AcDbEntity
  8
0
100
AcDbPolyline
 62
6
  6
CONTINUOUS
 90
11
 70
0
 10
12.6494240621
 20
16.9581131021
 10
12.6424493567
 20
16.9549527357
 10
12.6285038952
 20
16.9482434752
 10
12.6147258514
 20
16.9410862148
 10
12.6011183545
 20
16.93348205
 10
12.5876853282
 20
16.925431197
 10
12.5744315247
 20
16.916932777
 10
12.5613668336
 20
16.9079878578
 10
12.5485175034
 20
16.8986088707
 10
12.5359126913
 20
16.888812621
 10
12.5308271176
 20
16.8846840741
  0
LWPOLYLINE
  5
22A
100
AcDbEntity
  8
0
100
AcDbPolyline
 62
6
  6
CONTINUOUS
 90
9
 70
0
 10
12.6675704735
 20
16.8587391374
 10
12.6581767023
 20
16.8548706427
 10
12.6459330335
 20
16.8494101902
 10
12.6337732586
 20
16.8435054076
 10
12.6217036304
 20
16.8371528867
 10
12.609750321
 20
16.830359406
 10
12.5979428133
 20
16.8231355962
 10
12.5863099168
 20
16.8154940881
 10
12.5804805161
 20
16.8114597779
  0
LWPOLYLINE
  5
22B
100
AcDbEntity
  8
0
100
AcDbPolyline
 62
6
  6
CONTINUOUS
 90
10
 70
0
 10
12.7144906835
 20
17.03559412
 10
12.7046574837
 20
17.0321499566
 10
12.6891350886
 20
17.0262899718
 10
12.6738021336
 20
17.0199774492
 10
12.6586827776
 20
17.0132231821
 10
12.6438001922
 20
17.0060389559
 10
12.6291736733
 20
16.9984359468
 10
12.6148174281
 20
16.9904234265
 10
12.6007189678
 20
16.9819946534
 10
12.5988257314
 20
16.9808188357
  0
LINE
  5
22C
100
AcDbEntity
  8
0
100
AcDbLine
 62
9
  6
CONTINUOUS
 10
12.3076254265
 20
14.1489692481
 11
13.5368934149
 21
14.1489692481
  0
LINE
  5
22D
100
AcDbEntity
  8
0
100
AcDbLine
 62
9
  6
CONTINUOUS
 10
22.579130024
 20
14.2248282095
 11
21.2653888173
 21
14.2248282095
  0
LINE
  5
22E
100
AcDbEntity
  8
0
100
AcDbLine
 62
9
  6
CONTINUOUS
 10
12.3817594207
 20
14.2548868753
 11
13.4627594207
 21
14.2548868753
  0
LINE
  5
22F
100
AcDbEntity
  8
0
100
AcDbLine
 62
9
  6
CONTINUOUS
 10
12.4925196931
 20
14.5608696794
 11
13.3519991482
 21
14.5608696794
  0
LINE
  5
230
100
AcDbEntity
  8
0
100
AcDbLine
 62
9
  6
CONTINUOUS
 10
12.5234105357
 20
14.5892704365
 11
13.3211083056
 21
14.5892704365
  0
LINE
  5
231
100
AcDbEntity
  8
0
100
AcDbLine
 62
7
  6
CONTINUOUS
 10
12.5697594207
 20
14.6205204365
 11
13.2747594207
 21
14.6205204365
  0
LWPOLYLINE
  5
232
100
AcDbEntity
  8
0
100
AcDbPolyline
 62
6
  6
CONTINUOUS
 90
9
 70
0
 10
12.4394921265
 20
16.7880690176
 10
12.4372216523
 20
16.7849392836
 10
12.4280935239
 20
16.7718472259
 10
12.4193192164
 20
16.7584198103
 10
12.4109037135
 20
16.7446574043
 10
12.4028660484
 20
16.7305828852
 10
12.3952275446
 20
16.7162273009
 10
12.3880028585
 20
16.7016138114
 10
12.3824863803
 20
16.6896554465
  0
LWPOLYLINE
  5
233
100
AcDbEntity
  8
0
100
AcDbPolyline
 62
6
  6
CONTINUOUS
 90
10
 70
0
 10
12.4528699877
 20
16.8491159144
 10
12.4433917824
 20
16.8365546166
 10
12.4338393283
 20
16.8230959514
 10
12.4246770191
 20
16.809337528
 10
12.4159038326
 20
16.7952776869
 10
12.4075261123
 20
16.7809238536
 10
12.3995511951
 20
16.7662840394
 10
12.3919910939
 20
16.7513746267
 10
12.3848635437
 20
16.7362260077
 10
12.3797832652
 20
16.7246607768
  0
LWPOLYLINE
  5
234
100
AcDbEntity
  8
0
100
AcDbPolyline
 62
6
  6
CONTINUOUS
 90
10
 70
0
 10
12.507997851
 20
16.7474337239
 10
12.5022829858
 20
16.7410228207
 10
12.4930684442
 20
16.7301364545
 10
12.4841518502
 20
16.7188971165
 10
12.4755325251
 20
16.7072981508
 10
12.4672207364
 20
16.6953445969
 10
12.459238587
 20
16.6830592339
 10
12.4516064129
 20
16.670465837
 10
12.4443413769
 20
16.6575864559
 10
12.4428295266
 20
16.6547833968
  0
LWPOLYLINE
  5
235
100
AcDbEntity
  8
0
100
AcDbPolyline
 62
6
  6
CONTINUOUS
 90
10
 70
0
 10
12.5308271177
 20
16.8846840741
 10
12.5235803691
 20
16.8786177327
 10
12.5115462699
 20
16.8680437104
 10
12.4998322905
 20
16.8571091604
 10
12.4884590518
 20
16.845833681
 10
12.4774469197
 20
16.8342389544
 10
12.4668129998
 20
16.8223456368
 10
12.4565657685
 20
16.810166147
 10
12.4467073202
 20
16.7977047461
 10
12.4394921266
 20
16.7880690179
  0
LWPOLYLINE
  5
236
100
AcDbEntity
  8
0
100
AcDbPolyline
 62
6
  6
CONTINUOUS
 90
9
 70
0
 10
12.5804805161
 20
16.811459778
 10
12.5748802347
 20
16.8074498917
 10
12.5636814769
 20
16.7990200585
 10
12.5527400843
 20
16.7902234521
 10
12.5420768529
 20
16.7810769017
 10
12.5316967571
 20
16.7715843935
 10
12.5216021203
 20
16.7617457891
 10
12.5117962836
 20
16.7515596952
 10
12.5079978516
 20
16.7474337245
  0
LWPOLYLINE
  5
237
100
AcDbEntity
  8
0
100
AcDbPolyline
 62
6
  6
CONTINUOUS
 90
5
 70
0
 10
12.7673580326
 20
16.6555099737
 10
12.7671582714
 20
16.6554124695
 10
12.7582014585
 20
16.6505771313
 10
12.7494079563
 20
16.6453577723
 10
12.7481019753
 20
16.644540959
  0
LWPOLYLINE
  5
238
100
AcDbEntity
  8
0
100
AcDbPolyline
 62
6
  6
CONTINUOUS
 90
7
 70
0
 10
13.0830955329
 20
16.2720560997
 10
13.0914007439
 20
16.2753848427
 10
13.1013680421
 20
16.2797892468
 10
13.1112276296
 20
16.2846007474
 10
13.1209658843
 20
16.2898154922
 10
13.1305599613
 20
16.2954243918
 10
13.1389518317
 20
16.3007345613
  0
LWPOLYLINE
  5
239
100
AcDbEntity
  8
0
100
AcDbPolyline
 62
6
  6
CONTINUOUS
 90
10
 70
0
 10
13.1034553029
 20
16.0301312948
 10
13.1118469604
 20
16.0319587109
 10
13.1257005265
 20
16.0353497945
 10
13.1395205198
 20
16.0392015675
 10
13.1533114012
 20
16.0435190157
 10
13.1670619023
 20
16.0483040971
 10
13.180740752
 20
16.0535513749
 10
13.1943175235
 20
16.0592535676
 10
13.2077653714
 20
16.0654029248
 10
13.2106360807
 20
16.0667820039
  0
LINE
  5
23A
100
AcDbEntity
  8
0
100
AcDbLine
 62
6
  6
CONTINUOUS
 10
12.5697594207
 20
15.0205204365
 11
13.2747594207
 21
15.0205204365
  0
LINE
  5
23B
100
AcDbEntity
  8
0
100
AcDbLine
 62
6
  6
CONTINUOUS
 10
12.6217594207
 20
15.0806595682
 11
13.2227594207
 21
15.0806595682
  0
LINE
  5
23C
100
AcDbEntity
  8
0
100
AcDbLine
 62
9
  6
CONTINUOUS
 10
12.6070183096
 20
15.3516588724
 11
13.2375005317
 21
15.3516588724
  0
LINE
  5
23D
100
AcDbEntity
  8
0
100
AcDbLine
 62
9
  6
CONTINUOUS
 10
12.6847594207
 20
15.6305204365
 11
13.1597594207
 21
15.6305204365
  0
LINE
  5
23E
100
AcDbEntity
  8
0
100
AcDbLine
 62
9
  6
CONTINUOUS
 10
12.6847594207
 20
15.6805204365
 11
13.1597594207
 21
15.6805204365
  0
LINE
  5
23F
100
AcDbEntity
  8
0
100
AcDbLine
 62
6
  6
CONTINUOUS
 10
13.5634228603
 20
13.7057704365
 11
13.5787620635
 21
13.6904754196
  0
LWPOLYLINE
  5
240
100
AcDbEntity
  8
0
100
AcDbPolyline
 62
6
  6
CONTINUOUS
 90
10
 70
0
 10
12.3349041889
 20
16.4579027415
 10
12.335141157
 20
16.4474865078
 10
12.33591765
 20
16.4309129979
 10
12.337183072
 20
16.4143798143
 10
12.3389346237
 20
16.397913269
 10
12.3411682571
 20
16.3815390412
 10
12.3438793056
 20
16.365278936
 10
12.3470633415
 20
16.3491493306
 10
12.3507229172
 20
16.3331362639
 10
12.3512561441
 20
16.3309723414
  0
LINE
  5
241
100
AcDbEntity
  8
0
100
AcDbLine
 62
6
  6
CONTINUOUS
 10
12.1812594207
 20
13.3392704365
 11
12.1812594207
 21
13.2772704365
  0
LINE
  5
242
100
AcDbEntity
  8
0
100
AcDbLine
 62
6
  6
CONTINUOUS
 10
12.2657594207
 20
13.3392704365
 11
12.2657594207
 21
13.6904780546
  0
LWPOLYLINE
  5
243
100
AcDbEntity
  8
0
100
AcDbPolyline
 62
6
  6
CONTINUOUS
 90
8
 70
0
 10
12.340994707
 20
16.5877628912
 10
12.3395685688
 20
16.5775133661
 10
12.3377035901
 20
16.5612207084
 10
12.3363198804
 20
16.5448431966
 10
12.3354200545
 20
16.5283972373
 10
12.3350065278
 20
16.5118994945
 10
12.3350814429
 20
16.4953706901
 10
12.3353488437
 20
16.4875396767
  0
LWPOLYLINE
  5
244
100
AcDbEntity
  8
0
100
AcDbPolyline
 62
6
  6
CONTINUOUS
 90
10
 70
0
 10
12.4941103931
 20
16.4551575635
 10
12.4937955833
 20
16.4533926675
 10
12.4917450702
 20
16.4404960053
 10
12.490115512
 20
16.4274877411
 10
12.4889130958
 20
16.414402634
 10
12.4881417569
 20
16.4012868417
 10
12.4878009253
 20
16.3881558626
 10
12.4878905947
 20
16.3749918368
 10
12.4884149769
 20
16.3617750206
 10
12.4886041303
 20
16.3586277742
  0
LWPOLYLINE
  5
245
100
AcDbEntity
  8
0
100
AcDbPolyline
 62
6
  6
CONTINUOUS
 90
10
 70
0
 10
12.3475386729
 20
16.5835140685
 10
12.3464277696
 20
16.5783162129
 10
12.3433428669
 20
16.5623289606
 10
12.3407315695
 20
16.5462198574
 10
12.3385942006
 20
16.5299879706
 10
12.3369331046
 20
16.513634142
 10
12.3357533054
 20
16.497177457
 10
12.3350596008
 20
16.4806474095
 10
12.3348550875
 20
16.4640738505
 10
12.3349041889
 20
16.4579027415
  0
LWPOLYLINE
  5
246
100
AcDbEntity
  8
0
100
AcDbPolyline
 62
6
  6
CONTINUOUS
 90
10
 70
0
 10
12.3428238266
 20
16.6109113211
 10
12.3401359861
 20
16.59856874
 10
12.3369981605
 20
16.5821237809
 10
12.3343508779
 20
16.5656180966
 10
12.3321976546
 20
16.5490866994
 10
12.3305384012
 20
16.5325499039
 10
12.3293718909
 20
16.5160185039
 10
12.3286973564
 20
16.4995022353
 10
12.3285146492
 20
16.4829991548
 10
12.3287993327
 20
16.4672657021
  0
LWPOLYLINE
  5
247
100
AcDbEntity
  8
0
100
AcDbPolyline
 62
6
  6
CONTINUOUS
 90
6
 70
0
 10
12.3593198619
 20
16.668430587
 10
12.357454546
 20
16.663090751
 10
12.3524263862
 20
16.6472050494
 10
12.3478581858
 20
16.6311398121
 10
12.3437585194
 20
16.6149181947
 10
12.3428238266
 20
16.6109113211
  0
LWPOLYLINE
  5
248
100
AcDbEntity
  8
0
100
AcDbPolyline
 62
6
  6
CONTINUOUS
 90
11
 70
0
 10
12.3797832652
 20
16.7246607768
 10
12.3781842663
 20
16.7208697493
 10
12.3719661387
 20
16.7053364617
 10
12.3662189809
 20
16.6896542909
 10
12.3609494665
 20
16.6738470101
 10
12.3561630746
 20
16.6579381673
 10
12.3518642302
 20
16.641951417
 10
12.3480559048
 20
16.6259087692
 10
12.3447395661
 20
16.6098290273
 10
12.3419126248
 20
16.5937089353
 10
12.3409947071
 20
16.5877628913
  0
LWPOLYLINE
  5
249
100
AcDbEntity
  8
0
100
AcDbPolyline
 62
6
  6
CONTINUOUS
 90
9
 70
0
 10
12.3824863803
 20
16.6896554465
 10
12.3812038871
 20
16.6867627674
 10
12.3748422058
 20
16.671696213
 10
12.3689317492
 20
16.6564457119
 10
12.3634856715
 20
16.6410475727
 10
12.3585134321
 20
16.6255354701
 10
12.3540144912
 20
16.609915313
 10
12.3499859751
 20
16.5941785746
 10
12.3475386729
 20
16.5835140685
  0
LWPOLYLINE
  5
24A
100
AcDbEntity
  8
0
100
AcDbPolyline
 62
6
  6
CONTINUOUS
 90
10
 70
0
 10
12.529496756
 20
16.560300075
 10
12.5242734936
 20
16.5497422006
 10
12.519210594
 20
16.5385785043
 10
12.5144769722
 20
16.5271216855
 10
12.5100883373
 20
16.5153908827
 10
12.5060592762
 20
16.5034062151
 10
12.5024034987
 20
16.4911896433
 10
12.4991335703
 20
16.4787645801
 10
12.4962609492
 20
16.4661566125
 10
12.4941103931
 20
16.4551575636
  0
LWPOLYLINE
  5
24B
100
AcDbEntity
  8
0
100
AcDbPolyline
 62
6
  6
CONTINUOUS
 90
9
 70
0
 10
12.4428295266
 20
16.6547833968
 10
12.4374592281
 20
16.644443763
 10
12.4309744543
 20
16.6310612945
 10
12.4249005069
 20
16.6174640497
 10
12.4192500958
 20
16.6036796512
 10
12.4140327924
 20
16.5897326687
 10
12.4092526483
 20
16.5756353201
 10
12.4049108144
 20
16.561389163
 10
12.4019300316
 20
16.5505569003
  0
LWPOLYLINE
  5
24C
100
AcDbEntity
  8
0
100
AcDbPolyline
 62
6
  6
CONTINUOUS
 90
7
 70
0
 10
12.6666690835
 20
16.5636796179
 10
12.6619066127
 20
16.5561049277
 10
12.6564317428
 20
16.546683059
 10
12.651283298
 20
16.5369951532
 10
12.6464700346
 20
16.5270523335
 10
12.6420050917
 20
16.5168753814
 10
12.6383371652
 20
16.5076467464
  0
LWPOLYLINE
  5
24D
100
AcDbEntity
  8
0
100
AcDbPolyline
 62
6
  6
CONTINUOUS
 90
10
 70
0
 10
13.286486109
 20
16.2584248326
 10
13.2877781753
 20
16.2596676229
 10
13.2970175432
 20
16.2688959805
 10
13.3059819493
 20
16.278462057
 10
13.3146459574
 20
16.2883413684
 10
13.322979253
 20
16.2984988857
 10
13.3309731874
 20
16.3089217352
 10
13.3386382635
 20
16.3196243621
 10
13.3459826791
 20
16.3306252152
 10
13.3476795558
 20
16.3332825725
  0
LWPOLYLINE
  5
24E
100
AcDbEntity
  8
0
100
AcDbPolyline
 62
6
  6
CONTINUOUS
 90
10
 70
0
 10
13.3296190609
 20
16.0684295432
 10
13.3335730234
 20
16.0719817242
 10
13.3454658332
 20
16.0831024226
 10
13.3570471106
 20
16.0946000788
 10
13.368317142
 20
16.1064756371
 10
13.3792735362
 20
16.1187297947
 10
13.3899010104
 20
16.1313500639
 10
13.4001783474
 20
16.144315404
 10
13.4100854957
 20
16.1576034849
 10
13.4136730587
 20
16.1626248781
  0
LWPOLYLINE
  5
24F
100
AcDbEntity
  8
0
100
AcDbPolyline
 62
6
  6
CONTINUOUS
 90
10
 70
0
 10
13.3173297507
 20
16.0434933831
 10
13.3267590464
 20
16.051898868
 10
13.3389637051
 20
16.0633587518
 10
13.3508071996
 20
16.0751560972
 10
13.3622661052
 20
16.0872646456
 10
13.373328554
 20
16.0996679095
 10
13.3839891938
 20
16.1123564355
 10
13.3942429227
 20
16.125321896
 10
13.4040910033
 20
16.138565776
 10
13.413108581
 20
16.1514617393
  0
LWPOLYLINE
  5
250
100
AcDbEntity
  8
0
100
AcDbPolyline
 62
6
  6
CONTINUOUS
 90
6
 70
0
 10
13.2701752016
 20
16.0066554458
 10
13.2748229506
 20
16.0098790587
 10
13.2882281985
 20
16.0197753831
 10
13.3013668598
 20
16.0300873122
 10
13.3142183871
 20
16.0408011529
 10
13.3173297507
 20
16.0434933831
  0
LWPOLYLINE
  5
251
100
AcDbEntity
  8
0
100
AcDbPolyline
 62
6
  6
CONTINUOUS
 90
11
 70
0
 10
13.2205686843
 20
15.9731923533
 10
13.2240906115
 20
15.975319491
 10
13.2382514198
 20
15.9842312609
 10
13.2521187169
 20
15.993540309
 10
13.2656731301
 20
16.0032313249
 10
13.2788963857
 20
16.0132884786
 10
13.2917709999
 20
16.023695234
 10
13.3042816317
 20
16.0344355311
 10
13.3164160411
 20
16.0454950206
 10
13.328178237
 20
16.0568748146
 10
13.3324158451
 20
16.0611457267
  0
LWPOLYLINE
  5
252
100
AcDbEntity
  8
0
100
AcDbPolyline
 62
6
  6
CONTINUOUS
 90
9
 70
0
 10
13.238957435
 20
16.0031011116
 10
13.241695268
 20
16.0046875076
 10
13.2556978747
 20
16.0131373037
 10
13.2694435542
 20
16.022001139
 10
13.2829003228
 20
16.0312573711
 10
13.296040734
 20
16.0408843168
 10
13.3088617518
 20
16.0508768782
 10
13.3213707124
 20
16.0612402646
 10
13.3296190609
 20
16.0684295432
  0
LWPOLYLINE
  5
253
100
AcDbEntity
  8
0
100
AcDbPolyline
 62
6
  6
CONTINUOUS
 90
10
 70
0
 10
13.1960567224
 20
16.1941623362
 10
13.2064881933
 20
16.1996336794
 10
13.2171460212
 20
16.2056894018
 10
13.2277097509
 20
16.2121758098
 10
13.2381554239
 20
16.2190866537
 10
13.2484594137
 20
16.2264142308
 10
13.2585977206
 20
16.2341488329
 10
13.2685464172
 20
16.2422789045
 10
13.2782811938
 20
16.2507904802
 10
13.286486109
 20
16.2584248326
  0
LWPOLYLINE
  5
254
100
AcDbEntity
  8
0
100
AcDbPolyline
 62
6
  6
CONTINUOUS
 90
9
 70
0
 10
13.2106360807
 20
16.0667820039
 10
13.2210582278
 20
16.0719903611
 10
13.2341705376
 20
16.0790053512
 10
13.2470767242
 20
16.0864355765
 10
13.2597502689
 20
16.0942661609
 10
13.2721689868
 20
16.1024828528
 10
13.2843224182
 20
16.1110781491
 10
13.2962087166
 20
16.1200514665
 10
13.3049872648
 20
16.1270628909
  0
LWPOLYLINE
  5
255
100
AcDbEntity
  8
0
100
AcDbPolyline
 62
6
  6
CONTINUOUS
 90
9
 70
0
 10
13.1349927719
 20
15.956989997
 10
13.1386692356
 20
15.9581874538
 10
13.1537493651
 20
15.9634137717
 10
13.1687403657
 20
15.9691193705
 10
13.1836379899
 20
15.9753068824
 10
13.1984133924
 20
15.9819689865
 10
13.2130310725
 20
15.9890930982
 10
13.2274655599
 20
15.9966690957
 10
13.238957435
 20
16.0031011116
  0
LWPOLYLINE
  5
256
100
AcDbEntity
  8
0
100
AcDbPolyline
 62
6
  6
CONTINUOUS
 90
10
 70
0
 10
13.0882873892
 20
15.9154653295
 10
13.103338764
 20
15.9200564837
 10
13.1189776666
 20
15.9253299809
 10
13.1344771288
 20
15.931075309
 10
13.149838953
 20
15.9372932098
 10
13.1650536426
 20
15.9439814044
 10
13.1801105531
 20
15.9511377241
 10
13.1949903363
 20
15.9587559765
 10
13.2096607804
 20
15.9668219978
 10
13.2205686843
 20
15.9731923533
  0
LWPOLYLINE
  5
257
100
AcDbEntity
  8
0
100
AcDbPolyline
 62
6
  6
CONTINUOUS
 90
10
 70
0
 10
13.0043123065
 20
15.9325121352
 10
13.0137407553
 20
15.9331603766
 10
13.0296918004
 20
15.9346414742
 10
13.0455957761
 20
15.9366024067
 10
13.0614244799
 20
15.9390394392
 10
13.0771486912
 20
15.9419470012
 10
13.0927424298
 20
15.945318436
 10
13.1081915386
 20
15.9491486787
 10
13.1234918185
 20
15.9534355134
 10
13.1349927716
 20
15.9569899969
  0
LINE
  5
258
100
AcDbEntity
  8
0
100
AcDbLine
 62
9
  6
CONTINUOUS
 10
12.6658924768
 20
15.7006451766
 11
13.1786263645
 21
15.7006451766
  0
LINE
  5
259
100
AcDbEntity
  8
0
100
AcDbLine
 62
9
  6
CONTINUOUS
 10
12.6697594207
 20
15.8205204365
 11
13.1747594207
 21
15.8205204365
  0
LINE
  5
25A
100
AcDbEntity
  8
0
100
AcDbLine
 62
6
  6
CONTINUOUS
 10
21.1822594207
 20
16.3894874365
 11
22.6622594207
 21
16.3894874365
  0
LINE
  5
25B
100
AcDbEntity
  8
0
100
AcDbLine
 62
9
  6
CONTINUOUS
 10
21.1622594207
 20
16.4643205843
 11
22.6822594207
 21
16.4643205843
  0
LWPOLYLINE
  5
25C
100
AcDbEntity
  8
0
100
AcDbPolyline
 62
6
  6
CONTINUOUS
 90
9
 70
0
 10
13.0071820247
 20
16.0209373705
 10
13.0140696996
 20
16.0208896739
 10
13.0280846165
 20
16.0211270875
 10
13.0421069046
 20
16.0218125023
 10
13.0561098475
 20
16.0229445269
 10
13.0700870777
 20
16.0245228601
 10
13.084036797
 20
16.0265489797
 10
13.0979571213
 20
16.0290259765
 10
13.1034553021
 20
16.0301312946
  0
LWPOLYLINE
  5
25D
100
AcDbEntity
  8
0
100
AcDbPolyline
 62
6
  6
CONTINUOUS
 90
11
 70
0
 10
12.8652048632
 20
15.9428163386
 10
12.8727051351
 20
15.9412734997
 10
12.8879308549
 20
15.9385044689
 10
12.9032844586
 20
15.9361962832
 10
12.9187627708
 20
15.9343498958
 10
12.93436249
 20
15.9329674379
 10
12.9500802882
 20
15.9320524139
 10
12.9659075369
 20
15.9316097728
 10
12.9818156937
 20
15.931644886
 10
12.997771292
 20
15.9321612958
 10
13.0043123065
 20
15.9325121352
  0
LWPOLYLINE
  5
25E
100
AcDbEntity
  8
0
100
AcDbPolyline
 62
6
  6
CONTINUOUS
 90
9
 70
0
 10
12.9089346589
 20
16.0338777578
 10
12.9188082236
 20
16.0314859156
 10
12.9319231332
 20
16.0287068665
 10
12.9452313418
 20
16.0263365996
 10
12.9587297943
 20
16.0243815475
 10
12.9723933325
 20
16.0228516099
 10
12.9861918558
 20
16.021755516
 10
13.0000946325
 20
16.0210999809
 10
13.0071820247
 20
16.0209373705
  0
LWPOLYLINE
  5
25F
100
AcDbEntity
  8
0
100
AcDbPolyline
 62
6
  6
CONTINUOUS
 90
10
 70
0
 10
12.7670226611
 20
15.9183780789
 10
12.7770023152
 20
15.9153846557
 10
12.7930046094
 20
15.9110016482
 10
12.8091196382
 20
15.9070961013
 10
12.8253215127
 20
15.9036734837
 10
12.8415845595
 20
15.9007378806
 10
12.8578865985
 20
15.8982915921
 10
12.874210686
 20
15.896335468
 10
12.8905708885
 20
15.8948676216
 10
12.8927936773
 20
15.8947060617
  0
LWPOLYLINE
  5
260
100
AcDbEntity
  8
0
100
AcDbPolyline
 62
6
  6
CONTINUOUS
 90
8
 70
0
 10
12.6454003931
 20
15.964299499
 10
12.6547075698
 20
15.9597758835
 10
12.669626498
 20
15.9529674752
 10
12.6847748474
 20
15.9465905596
 10
12.7001378228
 20
15.9406526934
 10
12.7157003218
 20
15.9351613232
 10
12.7314432989
 20
15.9301248903
 10
12.7389736667
 20
15.9279592873
  0
LWPOLYLINE
  5
261
100
AcDbEntity
  8
0
100
AcDbPolyline
 62
6
  6
CONTINUOUS
 90
10
 70
0
 10
12.6514634603
 20
15.9692102219
 10
12.6560636268
 20
15.9665474644
 10
12.6703151199
 20
15.958673215
 10
12.6848288522
 20
15.9512117368
 10
12.6996058106
 20
15.9441630493
 10
12.714645919
 20
15.9375296422
 10
12.7299325784
 20
15.9313221912
 10
12.7454392214
 20
15.9255543733
 10
12.7611384145
 20
15.9202383582
 10
12.7670226611
 20
15.9183780789
  0
LWPOLYLINE
  5
262
100
AcDbEntity
  8
0
100
AcDbPolyline
 62
6
  6
CONTINUOUS
 90
9
 70
0
 10
12.6239501571
 20
15.9731923533
 10
12.6348580609
 20
15.9668219978
 10
12.649528505
 20
15.9587559765
 10
12.6644082882
 20
15.9511377241
 10
12.6794651987
 20
15.9439814044
 10
12.6946798883
 20
15.9372932098
 10
12.7100417125
 20
15.931075309
 10
12.7255411748
 20
15.9253299809
 10
12.7272594207
 20
15.9247505819
  0
LINE
  5
263
100
AcDbEntity
  8
0
100
AcDbLine
 62
6
  6
CONTINUOUS
 10
13.4627594207
 20
14.2548868753
 11
13.5368934149
 21
14.1489692481
  0
LWPOLYLINE
  5
264
100
AcDbEntity
  8
0
100
AcDbPolyline
 62
6
  6
CONTINUOUS
 90
9
 70
0
 10
12.4886041302
 20
16.3586277749
 10
12.4893804524
 20
16.348498337
 10
12.4907901496
 20
16.3351665433
 10
12.4926483545
 20
16.3217772321
 10
12.4949602406
 20
16.3083352966
 10
12.497727449
 20
16.2948677228
 10
12.5009489799
 20
16.2814058357
 10
12.5046217232
 20
16.2679809378
 10
12.5066571962
 20
16.2611901778
  0
LINE
  5
265
100
AcDbEntity
  8
0
100
AcDbLine
 62
6
  6
CONTINUOUS
 10
12.5697594207
 20
15.0205204365
 11
12.5697594207
 21
14.6205204365
  0
LINE
  5
266
100
AcDbEntity
  8
0
100
AcDbLine
 62
6
  6
CONTINUOUS
 10
12.6847594207
 20
15.6805204365
 11
12.6847594207
 21
15.6305204365
  0
LINE
  5
267
100
AcDbEntity
  8
0
100
AcDbLine
 62
6
  6
CONTINUOUS
 10
12.7272594207
 20
15.9314633806
 11
12.7272594207
 21
15.8205204365
  0
LINE
  5
268
100
AcDbEntity
  8
0
100
AcDbLine
 62
6
  6
CONTINUOUS
 10
12.9222594207
 20
13.3392704365
 11
12.9222594207
 21
13.5892149786
  0
LINE
  5
269
100
AcDbEntity
  8
0
100
AcDbLine
 62
6
  6
CONTINUOUS
 10
13.1172594207
 20
15.9247505819
 11
13.1172594207
 21
15.8205204365
  0
LINE
  5
26A
100
AcDbEntity
  8
0
100
AcDbLine
 62
6
  6
CONTINUOUS
 10
13.1597594207
 20
15.6805204365
 11
13.1597594207
 21
15.6305204365
  0
LWPOLYLINE
  5
26B
100
AcDbEntity
  8
0
100
AcDbPolyline
 62
6
  6
CONTINUOUS
 90
10
 70
0
 10
13.4735573054
 20
16.3926684051
 10
13.4758543421
 20
16.4018357104
 10
13.4793748785
 20
16.4174637401
 10
13.4824245197
 20
16.4331952813
 10
13.4849981025
 20
16.4490023577
 10
13.4870918952
 20
16.4648554574
 10
13.4887042005
 20
16.4807278148
 10
13.4898354603
 20
16.4966044004
 10
13.4904864848
 20
16.512480536
 10
13.4906599601
 20
16.5245169883
  0
LWPOLYLINE
  5
26C
100
AcDbEntity
  8
0
100
AcDbPolyline
 62
6
  6
CONTINUOUS
 90
9
 70
0
 10
13.3903467008
 20
16.4227225698
 10
13.3925204716
 20
16.4292583988
 10
13.3966255254
 20
16.4426607417
 10
13.4003067824
 20
16.456208535
 10
13.4035573104
 20
16.4698759399
 10
13.406375428
 20
16.4836568075
 10
13.4087591741
 20
16.4975498843
 10
13.4107050269
 20
16.5115543337
 10
13.4113528382
 20
16.5171249764
  0
LWPOLYLINE
  5
26D
100
AcDbEntity
  8
0
100
AcDbPolyline
 62
6
  6
CONTINUOUS
 90
5
 70
0
 10
13.1474946191
 20
16.4390447635
 10
13.1475989178
 20
16.4392410628
 10
13.1520029911
 20
16.4484176161
 10
13.1560492216
 20
16.4578088571
 10
13.1566256715
 20
16.4592373093
  0
LWPOLYLINE
  5
26E
100
AcDbEntity
  8
0
100
AcDbPolyline
 62
6
  6
CONTINUOUS
 90
11
 70
0
 10
13.4207708615
 20
16.2635535387
 10
13.4245559
 20
16.2702099578
 10
13.4318944109
 20
16.2838348002
 10
13.4388341505
 20
16.2977236764
 10
13.4453732308
 20
16.311873861
 10
13.4515086047
 20
16.3262828726
 10
13.457235911
 20
16.340948629
 10
13.4625477765
 20
16.3558644535
 10
13.4674302727
 20
16.3710048602
 10
13.4718696888
 20
16.3863391154
 10
13.4735573054
 20
16.3926684052
  0
LWPOLYLINE
  5
26F
100
AcDbEntity
  8
0
100
AcDbPolyline
 62
6
  6
CONTINUOUS
 90
9
 70
0
 10
13.3476795554
 20
16.3332825719
 10
13.3530054319
 20
16.3419337701
 10
13.3597011946
 20
16.3535480169
 10
13.3660679149
 20
16.3654724227
 10
13.3720985312
 20
16.3777060695
 10
13.3777758539
 20
16.3902280899
 10
13.3830822793
 20
16.4030125537
 10
13.3880019245
 20
16.4160323086
 10
13.3903467008
 20
16.4227225698
  0
LWPOLYLINE
  5
270
100
AcDbEntity
  8
0
100
AcDbPolyline
 62
6
  6
CONTINUOUS
 90
10
 70
0
 10
13.4136730587
 20
16.1626248781
 10
13.419603856
 20
16.1711910745
 10
13.4287173248
 20
16.1850557368
 10
13.4374115383
 20
16.1991751597
 10
13.4456732957
 20
16.213526411
 10
13.4534907779
 20
16.2280863363
 10
13.4608549437
 20
16.242834552
 10
13.4677597487
 20
16.2577552062
 10
13.4742113342
 20
16.272861094
 10
13.4750518663
 20
16.274925167
  0
LINE
  5
271
100
AcDbEntity
  8
0
100
AcDbLine
 62
6
  6
CONTINUOUS
 10
12.3817594207
 20
14.2548868753
 11
12.3076254265
 21
14.1489692481
  0
LINE
  5
272
100
AcDbEntity
  8
0
100
AcDbLine
 62
6
  6
CONTINUOUS
 10
12.6217594207
 20
15.0806595682
 11
12.5697594207
 21
15.0205204365
  0
LWPOLYLINE
  5
273
100
AcDbEntity
  8
0
100
AcDbPolyline
 62
6
  6
CONTINUOUS
 90
8
 70
0
 10
13.3324158452
 20
16.0611457268
 10
13.339594135
 20
16.0685995037
 10
13.3506795183
 20
16.0806843337
 10
13.3614254229
 20
16.0931206949
 10
13.3718200897
 20
16.1058968512
 10
13.3818517698
 20
16.1190007405
 10
13.3915065496
 20
16.1324168582
 10
13.395893172
 20
16.1389094553
  0
LWPOLYLINE
  5
274
100
AcDbEntity
  8
0
100
AcDbPolyline
 62
6
  6
CONTINUOUS
 90
8
 70
0
 10
12.8398770987
 20
17.0699306862
 10
12.8296885201
 20
17.0681197468
 10
12.8136169717
 20
17.0648587388
 10
12.7976134426
 20
17.0611137955
 10
12.7816943443
 20
17.0568874998
 10
12.7658762717
 20
17.0521827042
 10
12.7501795946
 20
17.0470037743
 10
12.7428144897
 20
17.0443295448
  0
LWPOLYLINE
  5
275
100
AcDbEntity
  8
0
100
AcDbPolyline
 62
6
  6
CONTINUOUS
 90
10
 70
0
 10
12.7610772868
 20
16.8833317154
 10
12.7593014894
 20
16.8830857344
 10
12.7464023913
 20
16.8810506004
 10
12.7335272357
 20
16.8785806277
 10
12.7207109923
 20
16.8756806731
 10
12.7079987757
 20
16.8723612572
 10
12.6954051498
 20
16.8686277116
 10
12.6829131267
 20
16.8644745232
 10
12.6705052304
 20
16.8598915853
 10
12.6675704728
 20
16.8587391372
  0
LWPOLYLINE
  5
276
100
AcDbEntity
  8
0
100
AcDbPolyline
 62
6
  6
CONTINUOUS
 90
10
 70
0
 10
12.8378584249
 20
17.0623940464
 10
12.8325716824
 20
17.0618443524
 10
12.8164136146
 20
17.0598379366
 10
12.8002860117
 20
17.0573434414
 10
12.7841880866
 20
17.0543602712
 10
12.7681213645
 20
17.0508864563
 10
12.7521055491
 20
17.0469231167
 10
12.7361701731
 20
17.0424748034
 10
12.7203445838
 20
17.0375477957
 10
12.7144906835
 20
17.0355941199
  0
LWPOLYLINE
  5
277
100
AcDbEntity
  8
0
100
AcDbPolyline
 62
6
  6
CONTINUOUS
 90
10
 70
0
 10
12.8624577928
 20
17.0753443483
 10
12.8498887122
 20
17.0740865692
 10
12.8332789853
 20
17.0719890468
 10
12.8167630914
 20
17.0694062253
 10
12.8003754158
 20
17.0663455796
 10
12.7841352511
 20
17.0628134726
 10
12.7680524839
 20
17.0588144062
 10
12.7521361364
 20
17.054352119
 10
12.7363843145
 20
17.0494261516
 10
12.7215088839
 20
17.0442934972
  0
LINE
  5
278
100
AcDbEntity
  8
0
100
AcDbLine
 62
9
  6
CONTINUOUS
 10
22.6822594207
 20
17.0237482053
 11
21.1622594207
 21
17.0237482053
  0
LINE
  5
279
100
AcDbEntity
  8
0
100
AcDbLine
 62
9
  6
CONTINUOUS
 10
22.7107281995
 20
17.0936287062
 11
21.1337906418
 21
17.0936287062
  0
LWPOLYLINE
  5
27A
100
AcDbEntity
  8
0
100
AcDbPolyline
 62
6
  6
CONTINUOUS
 90
6
 70
0
 10
12.9222594207
 20
17.0774301171
 10
12.9166045206
 20
17.0775540378
 10
12.8999425337
 20
17.0774271502
 10
12.8832519335
 20
17.0768073356
 10
12.866557392
 20
17.0756935947
 10
12.8624577928
 20
17.0753443483
  0
LWPOLYLINE
  5
27B
100
AcDbEntity
  8
0
100
AcDbPolyline
 62
6
  6
CONTINUOUS
 90
11
 70
0
 10
12.9820610485
 20
17.0753443483
 10
12.9779614493
 20
17.0756935947
 10
12.9612669078
 20
17.0768073356
 10
12.9445763076
 20
17.0774271502
 10
12.9279143207
 20
17.0775540378
 10
12.9113050357
 20
17.0771900642
 10
12.8947723166
 20
17.0763383307
 10
12.8783380147
 20
17.0750028126
 10
12.8620204663
 20
17.0731879245
 10
12.8458157749
 20
17.0708951231
 10
12.8398770988
 20
17.0699306862
  0
LWPOLYLINE
  5
27C
100
AcDbEntity
  8
0
100
AcDbPolyline
 62
6
  6
CONTINUOUS
 90
9
 70
0
 10
12.9496043096
 20
17.0619562911
 10
12.946456896
 20
17.0622821276
 10
12.9301618837
 20
17.0636766247
 10
12.9138313637
 20
17.0645851389
 10
12.8975039325
 20
17.06500638
 10
12.8812145398
 20
17.0649417573
 10
12.8649686383
 20
17.0643936104
 10
12.8487572308
 20
17.0633620373
 10
12.8378584248
 20
17.0623940464
  0
LWPOLYLINE
  5
27D
100
AcDbEntity
  8
0
100
AcDbPolyline
 62
6
  6
CONTINUOUS
 90
10
 70
0
 10
12.872008745
 20
16.8821681072
 10
12.8603535329
 20
16.8838731623
 10
12.8481717048
 20
16.8852384941
 10
12.835812853
 20
16.8862000843
 10
12.8233000338
 20
16.8867489066
 10
12.8106568892
 20
16.8868773055
 10
12.7979085416
 20
16.8865790282
 10
12.7850811408
 20
16.8858493593
 10
12.7722025624
 20
16.884685308
 10
12.7610772868
 20
16.8833317154
  0
LWPOLYLINE
  5
27E
100
AcDbEntity
  8
0
100
AcDbPolyline
 62
6
  6
CONTINUOUS
 90
9
 70
0
 10
12.9350860772
 20
16.9937904926
 10
12.9235929875
 20
16.9957028274
 10
12.9088615983
 20
16.9977348036
 10
12.8940528971
 20
16.9993096912
 10
12.8791970821
 20
17.000423938
 10
12.864320478
 20
17.0010760339
 10
12.849435957
 20
17.0012659008
 10
12.834545356
 20
17.0009929255
 10
12.8233221495
 20
17.0004804651
  0
LWPOLYLINE
  5
27F
100
AcDbEntity
  8
0
100
AcDbPolyline
 62
6
  6
CONTINUOUS
 90
5
 70
0
 10
12.947659933
 20
16.2569472606
 10
12.9478788548
 20
16.2569087264
 10
12.9579672091
 20
16.2555559147
 10
12.968149164
 20
16.2546097739
 10
12.9696858357
 20
16.2545029535
  0
LWPOLYLINE
  5
280
100
AcDbEntity
  8
0
100
AcDbPolyline
 62
6
  6
CONTINUOUS
 90
7
 70
0
 10
12.9176114617
 20
16.7527538075
 10
12.9089358187
 20
16.7549424784
 10
12.8982832613
 20
16.7572378716
 10
12.8874785584
 20
16.7591406059
 10
12.8765349948
 20
16.7606457912
 10
12.8654763949
 20
16.7617473531
 10
12.8555659899
 20
16.7623839534
  0
LWPOLYLINE
  5
281
100
AcDbEntity
  8
0
100
AcDbPolyline
 62
6
  6
CONTINUOUS
 90
10
 70
0
 10
12.8188309032
 20
16.0689438702
 10
12.8204121375
 20
16.0680990854
 10
12.8320439488
 20
16.0621636438
 10
12.843911982
 20
16.0565940671
 10
12.8559850913
 20
16.0514069808
 10
12.8682205942
 20
16.0466203912
 10
12.8806035747
 20
16.0422385454
 10
12.8931510166
 20
16.0382559185
 10
12.9058829988
 20
16.0346704147
 10
12.9089346596
 20
16.0338777576
  0
LWPOLYLINE
  5
282
100
AcDbEntity
  8
0
100
AcDbPolyline
 62
6
  6
CONTINUOUS
 90
6
 70
0
 10
12.5743436397
 20
16.0066554458
 10
12.5788457112
 20
16.0032313249
 10
12.5924001244
 20
15.993540309
 10
12.6062674215
 20
15.9842312609
 10
12.6204282298
 20
15.975319491
 10
12.6239501571
 20
15.9731923533
  0
LWPOLYLINE
  5
283
100
AcDbEntity
  8
0
100
AcDbPolyline
 62
6
  6
CONTINUOUS
 90
11
 70
0
 10
12.5271890907
 20
16.0434933831
 10
12.5303004542
 20
16.0408011529
 10
12.5431519815
 20
16.0300873122
 10
12.5562906428
 20
16.0197753831
 10
12.5696958907
 20
16.0098790587
 10
12.5833470229
 20
16.0004108267
 10
12.59722291
 20
15.9913822052
 10
12.6113035374
 20
15.9828028217
 10
12.6255714757
 20
15.9746798827
 10
12.6400290213
 20
15.9670099194
 10
12.645400393
 20
15.964299499
  0
LWPOLYLINE
  5
284
100
AcDbEntity
  8
0
100
AcDbPolyline
 62
6
  6
CONTINUOUS
 90
9
 70
0
 10
12.5613164466
 20
16.0352469564
 10
12.5636712358
 20
16.0331333459
 10
12.5760345129
 20
16.0224272061
 10
12.5887121698
 20
16.0120933638
 10
12.6016737398
 20
16.0021555494
 10
12.6148901196
 20
15.9926331654
 10
12.6283555226
 20
15.9835275243
 10
12.6420771702
 20
15.9748332582
 10
12.6514634603
 20
15.9692102219
  0
LWPOLYLINE
  5
285
100
AcDbEntity
  8
0
100
AcDbPolyline
 62
6
  6
CONTINUOUS
 90
10
 70
0
 10
12.72976942
 20
16.1350891241
 10
12.7381964785
 20
16.1268589437
 10
12.7472492626
 20
16.1185940682
 10
12.7566825752
 20
16.1105517746
 10
12.7664830688
 20
16.1027529174
 10
12.7766361167
 20
16.0952175866
 10
12.7871250695
 20
16.0879656073
 10
12.7979315434
 20
16.0810161648
 10
12.8090347444
 20
16.0743880636
 10
12.8188309032
 20
16.0689438702
  0
LWPOLYLINE
  5
286
100
AcDbEntity
  8
0
100
AcDbPolyline
 62
6
  6
CONTINUOUS
 90
9
 70
0
 10
12.6131287944
 20
16.081860643
 10
12.621302857
 20
16.073558063
 10
12.6320264356
 20
16.0632552664
 10
12.6430812309
 20
16.0532768194
 10
12.6544448998
 20
16.0436433458
 10
12.6660970331
 20
16.0343715407
 10
12.6780272625
 20
16.0254690332
 10
12.6902344627
 20
16.0169373992
 10
12.6996154441
 20
16.010755153
  0
LINE
  5
287
100
AcDbEntity
  8
0
100
AcDbLine
 62
6
  6
CONTINUOUS
 10
13.2227594207
 20
15.0806595682
 11
13.2747594207
 21
15.0205204365
  0
LWPOLYLINE
  5
288
100
AcDbEntity
  8
0
100
AcDbPolyline
 62
6
  6
CONTINUOUS
 90
7
 70
0
 10
12.7689438641
 20
16.2665920962
 10
12.7746761382
 20
16.2597220093
 10
12.7819450399
 20
16.251603581
 10
12.789567829
 20
16.2437133916
 10
12.7975366322
 20
16.2360632058
 10
12.8058357456
 20
16.2286719416
 10
12.8134792475
 20
16.2223317312
  0
LWPOLYLINE
  5
289
100
AcDbEntity
  8
0
100
AcDbPolyline
 62
6
  6
CONTINUOUS
 90
9
 70
0
 10
12.4853353229
 20
16.1198741087
 10
12.4876102617
 20
16.1167476184
 10
12.4972408017
 20
16.1040205841
 10
12.5072996227
 20
16.0915264223
 10
12.5177879152
 20
16.079269986
 10
12.5286898032
 20
16.0672764466
 10
12.5399823476
 20
16.0555756783
 10
12.5516480513
 20
16.0441887769
 10
12.5613164466
 20
16.0352469564
  0
LWPOLYLINE
  5
28A
100
AcDbEntity
  8
0
100
AcDbPolyline
 62
6
  6
CONTINUOUS
 90
10
 70
0
 10
12.4314102603
 20
16.1514617393
 10
12.440427838
 20
16.138565776
 10
12.4502759186
 20
16.125321896
 10
12.4605296475
 20
16.1123564355
 10
12.4711902874
 20
16.0996679095
 10
12.4822527361
 20
16.0872646456
 10
12.4937116418
 20
16.0751560972
 10
12.5055551362
 20
16.0633587518
 10
12.5177597949
 20
16.051898868
 10
12.5271890907
 20
16.0434933831
  0
LWPOLYLINE
  5
28B
100
AcDbEntity
  8
0
100
AcDbPolyline
 62
6
  6
CONTINUOUS
 90
10
 70
0
 10
12.5451512169
 20
16.1724699281
 10
12.5494823577
 20
16.1650536903
 10
12.5569884572
 20
16.1529260683
 10
12.5649223238
 20
16.140972737
 10
12.5732900777
 20
16.1291909942
 10
12.5820900991
 20
16.1175921621
 10
12.5913075538
 20
16.1062043009
 10
12.6009261145
 20
16.0950540983
 10
12.6109301142
 20
16.0841646909
 10
12.6131287944
 20
16.081860643
  0
LWPOLYLINE
  5
28C
100
AcDbEntity
  8
0
100
AcDbPolyline
 62
6
  6
CONTINUOUS
 90
10
 70
0
 10
12.4216730083
 20
16.2365945416
 10
12.4252030733
 20
16.2278278716
 10
12.431540825
 20
16.2131152105
 10
12.4383203813
 20
16.1985955923
 10
12.4455294754
 20
16.1842946848
 10
12.4531537798
 20
16.1702385572
 10
12.461178935
 20
16.1564498612
 10
12.4695957495
 20
16.1429404957
 10
12.478400818
 20
16.1297137696
 10
12.4853353227
 20
16.119874109
  0
LWPOLYLINE
  5
28D
100
AcDbEntity
  8
0
100
AcDbPolyline
 62
6
  6
CONTINUOUS
 90
9
 70
0
 10
12.5066571962
 20
16.2611901779
 10
12.5087402426
 20
16.2546248707
 10
12.5132968839
 20
16.2413692575
 10
12.5182818774
 20
16.2282450739
 10
12.5236856441
 20
16.2152772986
 10
12.5295059299
 20
16.2024718945
 10
12.5357435844
 20
16.1898310285
 10
12.5424009652
 20
16.1773574474
 10
12.5451512165
 20
16.1724699288
  0
LWPOLYLINE
  5
28E
100
AcDbEntity
  8
0
100
AcDbPolyline
 62
6
  6
CONTINUOUS
 90
5
 70
0
 10
12.7127226023
 20
16.3907301179
 10
12.7127536046
 20
16.3905100032
 10
12.7145844771
 20
16.3804973663
 10
12.7168310409
 20
16.3705213781
 10
12.7172043062
 20
16.3690269072
  0
LWPOLYLINE
  5
28F
100
AcDbEntity
  8
0
100
AcDbPolyline
 62
6
  6
CONTINUOUS
 90
11
 70
0
 10
12.3884863241
 20
16.372077756
 10
12.3893367086
 20
16.3644678101
 10
12.3914082099
 20
16.3491316125
 10
12.3939575194
 20
16.333816199
 10
12.3969845621
 20
16.3185248843
 10
12.4004903449
 20
16.3032614667
 10
12.404477172
 20
16.2880301943
 10
12.4089470842
 20
16.2728408027
 10
12.4138963696
 20
16.257722097
 10
12.4193180556
 20
16.2427070007
 10
12.4216730083
 20
16.2365945416
  0
LWPOLYLINE
  5
290
100
AcDbEntity
  8
0
100
AcDbPolyline
 62
6
  6
CONTINUOUS
 90
7
 70
0
 10
13.1749771612
 20
16.5725205613
 10
13.1743777898
 20
16.5814479246
 10
13.1732690171
 20
16.5922884242
 10
13.1717397882
 20
16.6031522846
 10
13.1697895574
 20
16.6140253599
 10
13.1674199097
 20
16.6248831147
 10
13.164962869
 20
16.6345051903
  0
LWPOLYLINE
  5
291
100
AcDbEntity
  8
0
100
AcDbPolyline
 62
6
  6
CONTINUOUS
 90
9
 70
0
 10
13.4906599601
 20
16.5245169886
 10
13.4906572008
 20
16.5283835479
 10
13.4903466933
 20
16.5443406243
 10
13.4895528203
 20
16.5603610402
 10
13.4882717659
 20
16.5764415691
 10
13.4865015788
 20
16.5925525152
 10
13.4842432575
 20
16.6086562267
 10
13.4814985577
 20
16.624725352
 10
13.4789325317
 20
16.637642377
  0
LINE
  5
292
100
AcDbEntity
  8
0
100
AcDbLine
 62
6
  6
CONTINUOUS
 10
13.2747594207
 20
15.0205204365
 11
13.2747594207
 21
14.6205204365
  0
LINE
  5
293
100
AcDbEntity
  8
0
100
AcDbLine
 62
6
  6
CONTINUOUS
 10
13.5787594207
 20
13.3392704365
 11
13.5787594207
 21
13.6904780546
  0
LINE
  5
294
100
AcDbEntity
  8
0
100
AcDbLine
 62
6
  6
CONTINUOUS
 10
13.6632594207
 20
13.3392704365
 11
13.6632594207
 21
13.2772704365
  0
LWPOLYLINE
  5
295
100
AcDbEntity
  8
0
100
AcDbPolyline
 62
6
  6
CONTINUOUS
 90
10
 70
0
 10
13.5157195087
 20
16.4672657021
 10
13.5160041922
 20
16.4829991548
 10
13.5158214849
 20
16.4995022353
 10
13.5151469504
 20
16.5160185039
 10
13.5139804401
 20
16.5325499039
 10
13.5123211867
 20
16.5490866994
 10
13.5101679634
 20
16.5656180966
 10
13.5075206808
 20
16.5821237809
 10
13.5043828552
 20
16.59856874
 10
13.5016950147
 20
16.6109113211
  0
LWPOLYLINE
  5
296
100
AcDbEntity
  8
0
100
AcDbPolyline
 62
6
  6
CONTINUOUS
 90
10
 70
0
 10
13.4113528383
 20
16.5171249772
 10
13.412208027
 20
16.5256706203
 10
13.4132639023
 20
16.5398940472
 10
13.4138712612
 20
16.5542279052
 10
13.4140267407
 20
16.5686779777
 10
13.4137249964
 20
16.5832341528
 10
13.4129615357
 20
16.5978650099
 10
13.4117338813
 20
16.6125393614
 10
13.4100411086
 20
16.6272292806
 10
13.4096166244
 20
16.6303856463
  0
LINE
  5
297
100
AcDbEntity
  8
0
100
AcDbLine
 62
6
  6
CONTINUOUS
 10
12.281095981
 20
13.7057704365
 11
12.2657567778
 21
13.6904754196
  0
LINE
  5
298
100
AcDbEntity
  8
0
100
AcDbLine
 62
6
  6
CONTINUOUS
 10
21.7610861892
 20
17.3894874365
 11
21.2828903771
 21
17.3894874365
  0
LINE
  5
299
100
AcDbEntity
  8
0
100
AcDbLine
 62
6
  6
CONTINUOUS
 10
21.0549570073
 20
17.3894874365
 11
20.8568818165
 21
17.3894874365
  0
LINE
  5
29A
100
AcDbEntity
  8
0
100
AcDbLine
 62
6
  6
CONTINUOUS
 10
22.0834326521
 20
17.3894874365
 11
22.5616284642
 21
17.3894874365
  0
LINE
  5
29B
100
AcDbEntity
  8
0
100
AcDbLine
 62
6
  6
CONTINUOUS
 10
22.789561834
 20
17.3894874365
 11
22.9876370248
 21
17.3894874365
  0
LINE
  5
29C
100
AcDbEntity
  8
0
100
AcDbLine
 62
9
  6
CONTINUOUS
 10
21.7610861892
 20
17.9994874365
 11
21.2828903771
 21
17.9994874365
  0
LINE
  5
29D
100
AcDbEntity
  8
0
100
AcDbLine
 62
9
  6
CONTINUOUS
 10
21.0549570073
 20
17.9994874365
 11
20.8568818165
 21
17.9994874365
  0
LINE
  5
29E
100
AcDbEntity
  8
0
100
AcDbLine
 62
9
  6
CONTINUOUS
 10
22.0834326521
 20
17.9994874365
 11
22.5616284642
 21
17.9994874365
  0
LINE
  5
29F
100
AcDbEntity
  8
0
100
AcDbLine
 62
9
  6
CONTINUOUS
 10
22.789561834
 20
17.9994874365
 11
22.9876370248
 21
17.9994874365
  0
LWPOLYLINE
  5
2A0
100
AcDbEntity
  8
0
100
AcDbPolyline
 62
6
  6
CONTINUOUS
 90
9
 70
0
 10
13.060816922
 20
17.0381520707
 10
13.0571387529
 20
17.039344279
 10
13.0418667193
 20
17.0439799766
 10
13.0263850781
 20
17.0481755393
 10
13.0106957188
 20
17.0519263409
 10
12.9948262805
 20
17.055221349
 10
12.9788128811
 20
17.0580498784
 10
12.9626820759
 20
17.0604051465
 10
12.9496043096
 20
17.0619562911
  0
LWPOLYLINE
  5
2A1
100
AcDbEntity
  8
0
100
AcDbPolyline
 62
6
  6
CONTINUOUS
 90
10
 70
0
 10
13.1230099574
 20
17.0442934972
 10
13.1081345268
 20
17.0494261516
 10
13.0923827049
 20
17.054352119
 10
13.0764663574
 20
17.0588144062
 10
13.0603835902
 20
17.0628134726
 10
13.0441434256
 20
17.0663455796
 10
13.02775575
 20
17.0694062253
 10
13.011239856
 20
17.0719890468
 10
12.9946301291
 20
17.0740865692
 10
12.9820610485
 20
17.0753443483
  0
LWPOLYLINE
  5
2A2
100
AcDbEntity
  8
0
100
AcDbPolyline
 62
6
  6
CONTINUOUS
 90
10
 70
0
 10
13.0433398942
 20
16.9604422586
 10
13.0354767724
 20
16.9638963404
 10
13.022275773
 20
16.969295818
 10
13.0088311482
 20
16.9743028565
 10
12.9951363585
 20
16.9789160442
 10
12.9811993691
 20
16.9831271737
 10
12.9670486748
 20
16.986922263
 10
12.9527131711
 20
16.9902893183
 10
12.9382191322
 20
16.9932188305
 10
12.9350860772
 20
16.9937904926
  0
LWPOLYLINE
  5
2A3
100
AcDbEntity
  8
0
100
AcDbPolyline
 62
6
  6
CONTINUOUS
 90
10
 70
0
 10
13.1809273655
 20
16.9811430265
 10
13.1729185635
 20
16.9861604914
 10
13.1591433296
 20
16.9943380473
 10
13.1451241358
 20
17.0020997419
 10
13.1308859936
 20
17.0094320199
 10
13.1164558173
 20
17.0163222124
 10
13.1018585382
 20
17.0227604339
 10
13.0871085864
 20
17.0287424607
 10
13.0722106618
 20
17.0342676175
 10
13.0608169223
 20
17.0381520706
  0
LWPOLYLINE
  5
2A4
100
AcDbEntity
  8
0
100
AcDbPolyline
 62
6
  6
CONTINUOUS
 90
9
 70
0
 10
13.1266306655
 20
16.9112922864
 10
13.1210864548
 20
16.9153793476
 10
13.1096086006
 20
16.9234250375
 10
13.0978614545
 20
16.9311126193
 10
13.0858674484
 20
16.9384275155
 10
13.0736319106
 20
16.9453662269
 10
13.0611554275
 20
16.951926501
 10
13.0484377063
 20
16.9581047298
 10
13.0433398949
 20
16.9604422583
  0
LWPOLYLINE
  5
2A5
100
AcDbEntity
  8
0
100
AcDbPolyline
 62
6
  6
CONTINUOUS
 90
5
 70
0
 10
13.0360619163
 20
16.6853700669
 10
13.0359074547
 20
16.6855299207
 10
13.0285409674
 20
16.6925541542
 10
13.0208597205
 20
16.6993044011
 10
13.0196793145
 20
16.7002940537
  0
LWPOLYLINE
  5
2A6
100
AcDbEntity
  8
0
100
AcDbPolyline
 62
6
  6
CONTINUOUS
 90
11
 70
0
 10
13.2874109923
 20
16.8910414472
 10
13.2822500029
 20
16.8966981793
 10
13.2715597323
 20
16.9078878258
 10
13.2604951235
 20
16.9187798091
 10
13.2490581851
 20
16.9293714916
 10
13.2372503356
 20
16.9396592083
 10
13.2250722074
 20
16.9496381683
 10
13.212527872
 20
16.9592992959
 10
13.1996372638
 20
16.9686214687
 10
13.1864253756
 20
16.9775821497
 10
13.1809273655
 20
16.9811430266
  0
LWPOLYLINE
  5
2A7
100
AcDbEntity
  8
0
100
AcDbPolyline
 62
6
  6
CONTINUOUS
 90
9
 70
0
 10
13.1985082852
 20
16.8430749405
 10
13.1919262932
 20
16.8508135172
 10
13.1829495925
 20
16.8607705657
 10
13.1735762334
 20
16.8705105206
 10
13.1638049068
 20
16.8800263822
 10
13.1536501469
 20
16.8892953541
 10
13.143131175
 20
16.8982926812
 10
13.1322689062
 20
16.9069948673
 10
13.1266306654
 20
16.9112922865
  0
LWPOLYLINE
  5
2A8
100
AcDbEntity
  8
0
100
AcDbPolyline
 62
6
  6
CONTINUOUS
 90
10
 70
0
 10
13.381206511
 20
16.8531023642
 10
13.3748922913
 20
16.8613899879
 10
13.3645224306
 20
16.874341828
 10
13.3537807212
 20
16.8869736581
 10
13.3426848935
 20
16.8992658368
 10
13.3312533165
 20
16.9111999686
 10
13.3195025822
 20
16.9227611558
 10
13.3074458989
 20
16.9339387513
 10
13.2950729955
 20
16.9447425497
 10
13.2933696841
 20
16.9461797769
  0
LWPOLYLINE
  5
2A9
100
AcDbEntity
  8
0
100
AcDbPolyline
 62
6
  6
CONTINUOUS
 90
8
 70
0
 10
13.4526090593
 20
16.7444633794
 10
13.4477383096
 20
16.7535936825
 10
13.4396705252
 20
16.7678709264
 10
13.43116351
 20
16.781933936
 10
13.422224792
 20
16.7957679009
 10
13.4128622122
 20
16.8093579202
 10
13.4030862172
 20
16.8226859698
 10
13.3982669312
 20
16.8288642185
  0
LWPOLYLINE
  5
2AA
100
AcDbEntity
  8
0
100
AcDbPolyline
 62
6
  6
CONTINUOUS
 90
10
 70
0
 10
13.2507924111
 20
16.761744201
 10
13.2500097177
 20
16.7633570724
 10
13.2440881498
 20
16.7749959527
 10
13.2377604242
 20
16.7864776897
 10
13.2310419665
 20
16.7977705262
 10
13.2239567234
 20
16.8088348068
 10
13.2165142661
 20
16.8196583278
 10
13.2087041018
 20
16.830255542
 10
13.2005112181
 20
16.8406399468
 10
13.1985082847
 20
16.8430749411
  0
LWPOLYLINE
  5
2AB
100
AcDbEntity
  8
0
100
AcDbPolyline
 62
6
  6
CONTINUOUS
 90
10
 70
0
 10
13.4448174843
 20
16.7440543026
 10
13.442661001
 20
16.7489124287
 10
13.4357596687
 20
16.7636596478
 10
13.4284035593
 20
16.7782270682
 10
13.4205918635
 20
16.7926152544
 10
13.4123231791
 20
16.8068221474
 10
13.4036046599
 20
16.8208293537
 10
13.3944497605
 20
16.8346101925
 10
13.3848735218
 20
16.8481386932
 10
13.381206511
 20
16.8531023642
  0
LWPOLYLINE
  5
2AC
100
AcDbEntity
  8
0
100
AcDbPolyline
 62
6
  6
CONTINUOUS
 90
10
 70
0
 10
13.4647355761
 20
16.7246607768
 10
13.4596552976
 20
16.7362260077
 10
13.4525277474
 20
16.7513746267
 10
13.4449676462
 20
16.7662840394
 10
13.436992729
 20
16.7809238536
 10
13.4286150087
 20
16.7952776869
 10
13.4198418222
 20
16.809337528
 10
13.410679513
 20
16.8230959514
 10
13.4011270589
 20
16.8365546166
 10
13.3916488537
 20
16.8491159144
  0
LWPOLYLINE
  5
2AD
100
AcDbEntity
  8
0
100
AcDbPolyline
 62
6
  6
CONTINUOUS
 90
6
 70
0
 10
13.4851989795
 20
16.668430587
 10
13.4835693748
 20
16.6738470101
 10
13.4782998605
 20
16.6896542909
 10
13.4725527026
 20
16.7053364617
 10
13.466334575
 20
16.7208697493
 10
13.4647355761
 20
16.7246607768
  0
LWPOLYLINE
  5
2AE
100
AcDbEntity
  8
0
100
AcDbPolyline
 62
6
  6
CONTINUOUS
 90
11
 70
0
 10
13.5016950147
 20
16.6109113211
 10
13.5007603219
 20
16.6149181947
 10
13.4966606555
 20
16.6311398121
 10
13.4920924551
 20
16.6472050494
 10
13.4870642953
 20
16.663090751
 10
13.4815855845
 20
16.6787746458
 10
13.4756666465
 20
16.6942349958
 10
13.4693180148
 20
16.709452248
 10
13.4625495539
 20
16.7244103274
 10
13.4553614452
 20
16.7391133902
 10
13.4526090593
 20
16.7444633794
  0
LWPOLYLINE
  5
2AF
100
AcDbEntity
  8
0
100
AcDbPolyline
 62
6
  6
CONTINUOUS
 90
9
 70
0
 10
13.4789325317
 20
16.637642377
 10
13.4782698164
 20
16.6407364342
 10
13.4745606262
 20
16.6566648351
 10
13.4703782664
 20
16.6724768289
 10
13.4657334368
 20
16.6881353094
 10
13.4606382777
 20
16.703607473
 10
13.4550966994
 20
16.7188888567
 10
13.4491060147
 20
16.7339880478
 10
13.4448174843
 20
16.7440543026
  0
LWPOLYLINE
  5
2B0
100
AcDbEntity
  8
0
100
AcDbPolyline
 62
6
  6
CONTINUOUS
 90
10
 70
0
 10
13.2839654598
 20
16.6558825401
 10
13.281985405
 20
16.6674941965
 10
13.2795195207
 20
16.6795017143
 10
13.2766149521
 20
16.6915528285
 10
13.2732702394
 20
16.7036228221
 10
13.2694854074
 20
16.7156868446
 10
13.2652622728
 20
16.7277190709
 10
13.2606044316
 20
16.7396931739
 10
13.2555176534
 20
16.7515817182
 10
13.2507924111
 20
16.7617442009
  0
LWPOLYLINE
  5
2B1
100
AcDbEntity
  8
0
100
AcDbPolyline
 62
6
  6
CONTINUOUS
 90
9
 70
0
 10
13.4096166244
 20
16.6303856463
 10
13.4078838029
 20
16.6419071681
 10
13.4052640774
 20
16.6565454669
 10
13.4021857442
 20
16.6711160458
 10
13.3986547566
 20
16.6855890867
 10
13.3946778131
 20
16.6999390866
 10
13.3902588173
 20
16.7141537794
 10
13.3853977536
 20
16.7282312285
 10
13.3814422133
 20
16.7387467733
  0
LINE
  5
2B2
100
AcDbEntity
  8
0
100
AcDbLine
 62
7
  6
CONTINUOUS
 10
20.9947594207
 20
18.1494874365
 11
22.8497594207
 21
18.1494874365
  0
LINE
  5
2B3
100
AcDbEntity
  8
0
100
AcDbLine
 62
9
  6
CONTINUOUS
 10
21.0131229876
 20
18.2094874365
 11
22.8313958537
 21
18.2094874365
  0
LINE
  5
2B4
100
AcDbEntity
  8
0
100
AcDbLine
 62
6
  6
CONTINUOUS
 10
22.9128490766
 20
17.3005240922
 11
22.7107281994
 21
17.0936287061
  0
LINE
  5
2B5
100
AcDbEntity
  8
0
100
AcDbLine
 62
6
  6
CONTINUOUS
 10
20.9316697647
 20
17.3005240922
 11
21.1337906419
 21
17.0936287061
  0
LINE
  5
2B6
100
AcDbEntity
  8
0
100
AcDbLine
 62
6
  6
CONTINUOUS
 10
20.8568818165
 20
17.9994874365
 11
20.8568818165
 21
17.3894874365
  0
LINE
  5
2B7
100
AcDbEntity
  8
0
100
AcDbLine
 62
6
  6
CONTINUOUS
 10
20.9097594207
 20
13.1704549042
 11
20.9097594207
 21
12.9214874365
  0
LINE
  5
2B8
100
AcDbEntity
  8
0
100
AcDbLine
 62
6
  6
CONTINUOUS
 10
21.0549570073
 20
17.9994874365
 11
21.0549570073
 21
17.3894874365
  0
LINE
  5
2B9
100
AcDbEntity
  8
0
100
AcDbLine
 62
6
  6
CONTINUOUS
 10
21.2828903771
 20
17.3894874365
 11
21.2837310671
 21
17.3732944014
  0
LINE
  5
2BA
100
AcDbEntity
  8
0
100
AcDbLine
 62
6
  6
CONTINUOUS
 10
21.1622594207
 20
17.0237482053
 11
21.1622594207
 21
16.4643205843
  0
LINE
  5
2BB
100
AcDbEntity
  8
0
100
AcDbLine
 62
6
  6
CONTINUOUS
 10
21.2828903771
 20
17.9994874365
 11
21.2828903771
 21
17.3894874365
  0
LINE
  5
2BC
100
AcDbEntity
  8
0
100
AcDbLine
 62
6
  6
CONTINUOUS
 10
21.7610861892
 20
17.9994874365
 11
21.7610861892
 21
17.3894874365
  0
LINE
  5
2BD
100
AcDbEntity
  8
0
100
AcDbLine
 62
6
  6
CONTINUOUS
 10
21.3466704879
 20
16.3894874365
 11
21.2653888173
 21
14.2248282095
  0
LINE
  5
2BE
100
AcDbEntity
  8
0
100
AcDbLine
 62
6
  6
CONTINUOUS
 10
22.4978483535
 20
16.3894874365
 11
22.579130024
 21
14.2248282095
  0
LINE
  5
2BF
100
AcDbEntity
  8
0
100
AcDbLine
 62
6
  6
CONTINUOUS
 10
22.0834326521
 20
17.9994874365
 11
22.0834326521
 21
17.3894874365
  0
LINE
  5
2C0
100
AcDbEntity
  8
0
100
AcDbLine
 62
6
  6
CONTINUOUS
 10
22.5616284642
 20
17.9994874365
 11
22.5616284642
 21
17.3894874365
  0
LINE
  5
2C1
100
AcDbEntity
  8
0
100
AcDbLine
 62
6
  6
CONTINUOUS
 10
22.6822594207
 20
17.0237482053
 11
22.6822594207
 21
16.4643205843
  0
LINE
  5
2C2
100
AcDbEntity
  8
0
100
AcDbLine
 62
6
  6
CONTINUOUS
 10
22.789561834
 20
17.9994874365
 11
22.789561834
 21
17.3894874365
  0
LINE
  5
2C3
100
AcDbEntity
  8
0
100
AcDbLine
 62
6
  6
CONTINUOUS
 10
22.9347594207
 20
13.1704549042
 11
22.9347594207
 21
12.9214874365
  0
LINE
  5
2C4
100
AcDbEntity
  8
0
100
AcDbLine
 62
6
  6
CONTINUOUS
 10
22.9876370248
 20
17.9994874365
 11
22.9876370248
 21
17.3894874365
  0
LINE
  5
2C5
100
AcDbEntity
  8
0
100
AcDbLine
 62
6
  6
CONTINUOUS
 10
22.5607877695
 20
17.3732965306
 11
22.5616284642
 21
17.3894874365
  0
ARC
  5
2C6
100
AcDbEntity
  8
0
100
AcDbCircle
 62
6
  6
CONTINUOUS
 10
1.0134798269
 20
12.7193753968
 40
0.9
100
AcDbArc
 50
131.0803096781
 51
168.2748731243
  0
ARC
  5
2C7
100
AcDbEntity
  8
0
100
AcDbCircle
 62
6
  6
CONTINUOUS
 10
0.8310390144
 20
12.7193753968
 40
0.9
100
AcDbArc
 50
11.7251268757
 51
48.9196903219
  0
ARC
  5
2C8
100
AcDbEntity
  8
0
100
AcDbCircle
 62
6
  6
CONTINUOUS
 10
1.4104743208
 20
13.3840555363
 40
0.0182149002
100
AcDbArc
 50
48.9196908212
 51
90.0
  0
ARC
  5
2C9
100
AcDbEntity
  8
0
100
AcDbCircle
 62
6
  6
CONTINUOUS
 10
0.4340445205
 20
13.3840555363
 40
0.0182149002
100
AcDbArc
 50
90.0
 51
131.0803091788
  0
ARC
  5
2CA
100
AcDbEntity
  8
0
100
AcDbCircle
 62
9
  6
CONTINUOUS
 10
4.9222594128
 20
12.7232718622
 40
1.1258315703
100
AcDbArc
 50
76.0528987811
 51
103.9471003933
  0
ARC
  5
2CB
100
AcDbEntity
  8
0
100
AcDbCircle
 62
6
  6
CONTINUOUS
 10
4.4426822083
 20
12.8402704365
 40
0.187
100
AcDbArc
 50
90.0
 51
160.6370700781
  0
ARC
  5
2CC
100
AcDbEntity
  8
0
100
AcDbCircle
 62
6
  6
CONTINUOUS
 10
3.6778873883
 20
12.9684059932
 40
0.938
100
AcDbArc
 50
13.5550873
 51
43.5429433909
  0
ARC
  5
2CD
100
AcDbEntity
  8
0
100
AcDbCircle
 62
6
  6
CONTINUOUS
 10
4.6299322083
 20
12.9652704365
 40
0.187
100
AcDbArc
 50
90.0
 51
160.6370700781
  0
ARC
  5
2CE
100
AcDbEntity
  8
0
100
AcDbCircle
 62
6
  6
CONTINUOUS
 10
4.9222594207
 20
12.7232704365
 40
1.25
100
AcDbArc
 50
63.5866640248
 51
116.4133359752
  0
ARC
  5
2CF
100
AcDbEntity
  8
0
100
AcDbCircle
 62
9
  6
CONTINUOUS
 10
4.9222594207
 20
12.7232695125
 40
1.1535183404
100
AcDbArc
 50
76.0529286405
 51
103.9470713595
  0
ARC
  5
2D0
100
AcDbEntity
  8
0
100
AcDbCircle
 62
6
  6
CONTINUOUS
 10
5.401836633
 20
12.8402704365
 40
0.187
100
AcDbArc
 50
19.3629299219
 51
90.0
  0
ARC
  5
2D1
100
AcDbEntity
  8
0
100
AcDbCircle
 62
6
  6
CONTINUOUS
 10
6.166631453
 20
12.9684059932
 40
0.938
100
AcDbArc
 50
136.4570566091
 51
166.4449127
  0
ARC
  5
2D2
100
AcDbEntity
  8
0
100
AcDbCircle
 62
6
  6
CONTINUOUS
 10
5.214586633
 20
12.9652704365
 40
0.187
100
AcDbArc
 50
19.3629299219
 51
90.0
  0
ARC
  5
2D3
100
AcDbEntity
  8
0
100
AcDbCircle
 62
6
  6
CONTINUOUS
 10
4.6354502368
 20
13.1992704365
 40
0.047
100
AcDbArc
 50
193.5550873
 51
270.0
  0
ARC
  5
2D4
100
AcDbEntity
  8
0
100
AcDbCircle
 62
6
  6
CONTINUOUS
 10
4.3795501676
 20
13.6352593085
 40
0.03
100
AcDbArc
 50
180.0238362387
 51
223.3496163984
  0
ARC
  5
2D5
100
AcDbEntity
  8
0
100
AcDbCircle
 62
9
  6
CONTINUOUS
 10
4.3703832422
 20
13.6265468577
 40
0.0173535799
100
AcDbArc
 50
223.2198246395
 51
223.5422343016
  0
ARC
  5
2D6
100
AcDbEntity
  8
0
100
AcDbCircle
 62
6
  6
CONTINUOUS
 10
5.2090686045
 20
13.1992704365
 40
0.047
100
AcDbArc
 50
270.0
 51
346.4449127
  0
ARC
  5
2D7
100
AcDbEntity
  8
0
100
AcDbCircle
 62
6
  6
CONTINUOUS
 10
5.4649686737
 20
13.6352593085
 40
0.03
100
AcDbArc
 50
316.6503836016
 51
359.9761637613
  0
ARC
  5
2D8
100
AcDbEntity
  8
0
100
AcDbCircle
 62
9
  6
CONTINUOUS
 10
5.4741355991
 20
13.6265468577
 40
0.0173535799
100
AcDbArc
 50
316.4577656984
 51
316.7801753605
  0
ARC
  5
2D9
100
AcDbEntity
  8
0
100
AcDbCircle
 62
6
  6
CONTINUOUS
 10
11.9293955318
 20
12.9022704365
 40
0.1871361111
100
AcDbArc
 50
92.1854050713
 51
180.0
  0
ARC
  5
2DA
100
AcDbEntity
  8
0
100
AcDbCircle
 62
6
  6
CONTINUOUS
 10
12.1092567468
 20
13.0902704365
 40
0.187
100
AcDbArc
 50
90.0
 51
180.3063960032
  0
ARC
  5
2DB
100
AcDbEntity
  8
0
100
AcDbCircle
 62
6
  6
CONTINUOUS
 10
11.8697205186
 20
14.6132737651
 40
0.625
100
AcDbArc
 50
325.0110095298
 51
355.1903004751
  0
ARC
  5
2DC
100
AcDbEntity
  8
0
100
AcDbCircle
 62
6
  6
CONTINUOUS
 10
12.4747345417
 20
14.0320060333
 40
0.2039751211
100
AcDbArc
 50
145.0110095298
 51
213.0478355064
  0
ARC
  5
2DD
100
AcDbEntity
  8
0
100
AcDbCircle
 62
6
  6
CONTINUOUS
 10
12.159984887
 20
13.827231412
 40
0.1715245336
100
AcDbArc
 50
314.9173576842
 51
33.0478355064
  0
ARC
  5
2DE
100
AcDbEntity
  8
0
100
AcDbCircle
 62
6
  6
CONTINUOUS
 10
12.5234105321
 20
14.5582704365
 40
0.031
100
AcDbArc
 50
89.999995562
 51
175.1903000361
  0
ARC
  5
2DF
100
AcDbEntity
  8
0
100
AcDbCircle
 62
6
  6
CONTINUOUS
 10
12.1457431192
 20
15.6305204365
 40
0.5390163015
100
AcDbArc
 50
328.8451540803
 51
360.0
  0
ARC
  5
2E0
100
AcDbEntity
  8
0
100
AcDbCircle
 62
6
  6
CONTINUOUS
 10
12.6697594207
 20
15.7605204365
 40
0.06
100
AcDbArc
 50
90.0
 51
266.304779468
  0
ARC
  5
2E1
100
AcDbEntity
  8
0
100
AcDbCircle
 62
6
  6
CONTINUOUS
 10
12.664592754
 20
15.6805204365
 40
0.0201666667
100
AcDbArc
 50
0.0
 51
86.304779468
  0
ARC
  5
2E2
100
AcDbEntity
  8
0
100
AcDbCircle
 62
6
  6
CONTINUOUS
 10
21.9222594207
 20
11.8840716374
 40
6.3904157991
100
AcDbArc
 50
81.821031102
 51
98.178968898
  0
ARC
  5
2E3
100
AcDbEntity
  8
0
100
AcDbCircle
 62
6
  6
CONTINUOUS
 10
22.2462794287
 20
13.2919554337
 40
1.3
100
AcDbArc
 50
142.5617897107
 51
182.2248692774
  0
ARC
  5
2E4
100
AcDbEntity
  8
0
100
AcDbCircle
 62
6
  6
CONTINUOUS
 10
21.5982394126
 20
13.2919554337
 40
1.3
100
AcDbArc
 50
357.7751307226
 51
37.4382102893
  0
ARC
  5
2E5
100
AcDbEntity
  8
0
100
AcDbCircle
 62
6
  6
CONTINUOUS
 10
13.9747983227
 20
14.6132737651
 40
0.625
100
AcDbArc
 50
184.8096995249
 51
214.9889904702
  0
ARC
  5
2E6
100
AcDbEntity
  8
0
100
AcDbCircle
 62
6
  6
CONTINUOUS
 10
22.8289539655
 20
14.2342089503
 40
0.25
100
AcDbArc
 50
182.1504122382
 51
217.438209623
  0
ARC
  5
2E7
100
AcDbEntity
  8
0
100
AcDbCircle
 62
6
  6
CONTINUOUS
 10
21.0155648759
 20
14.2342089503
 40
0.25
100
AcDbArc
 50
322.561790377
 51
357.8495877618
  0
ARC
  5
2E8
100
AcDbEntity
  8
0
100
AcDbCircle
 62
6
  6
CONTINUOUS
 10
13.3697842996
 20
14.0320060333
 40
0.2039751211
100
AcDbArc
 50
326.9521644936
 51
34.9889904702
  0
ARC
  5
2E9
100
AcDbEntity
  8
0
100
AcDbCircle
 62
6
  6
CONTINUOUS
 10
13.9151233095
 20
12.9022704365
 40
0.1871361111
100
AcDbArc
 50
0.0
 51
87.8145949287
  0
ARC
  5
2EA
100
AcDbEntity
  8
0
100
AcDbCircle
 62
6
  6
CONTINUOUS
 10
13.7352620945
 20
13.0902704365
 40
0.187
100
AcDbArc
 50
359.6936039968
 51
90.0
  0
ARC
  5
2EB
100
AcDbEntity
  8
0
100
AcDbCircle
 62
6
  6
CONTINUOUS
 10
13.6845339543
 20
13.827231412
 40
0.1715245336
100
AcDbArc
 50
146.9521644936
 51
225.0826423158
  0
ARC
  5
2EC
100
AcDbEntity
  8
0
100
AcDbCircle
 62
7
  6
CONTINUOUS
 10
12.9222609305
 20
14.8205218587
 40
0.0921576967
100
AcDbArc
 50
352.9263526854
 51
131.4868049109
  0
ARC
  5
2ED
100
AcDbEntity
  8
0
100
AcDbCircle
 62
6
  6
CONTINUOUS
 10
20.9957843627
 20
13.1704549042
 40
0.0860249421
100
AcDbArc
 50
124.338423378
 51
180.0
  0
ARC
  5
2EE
100
AcDbEntity
  8
0
100
AcDbCircle
 62
6
  6
CONTINUOUS
 10
22.8487344786
 20
13.1704549042
 40
0.0860249421
100
AcDbArc
 50
0.0
 51
55.661576622
  0
ARC
  5
2EF
100
AcDbEntity
  8
0
100
AcDbCircle
 62
7
  6
CONTINUOUS
 10
12.9222481901
 20
14.8207143778
 40
0.0652927707
100
AcDbArc
 50
269.9881155129
 51
280.3769911983
  0
ARC
  5
2F0
100
AcDbEntity
  8
0
100
AcDbCircle
 62
7
  6
CONTINUOUS
 10
12.9222594397
 20
14.8205203961
 40
0.0650999567
100
AcDbArc
 50
280.8064058865
 51
309.662305908
  0
ARC
  5
2F1
100
AcDbEntity
  8
0
100
AcDbCircle
 62
7
  6
CONTINUOUS
 10
12.9222594207
 20
14.8205204365
 40
0.0650899999
100
AcDbArc
 50
139.0174920094
 51
269.9802549669
  0
ARC
  5
2F2
100
AcDbEntity
  8
0
100
AcDbCircle
 62
7
  6
CONTINUOUS
 10
12.9223804955
 20
14.8198864668
 40
0.0644545725
100
AcDbArc
 50
280.3938678916
 51
280.8063587192
  0
CIRCLE
  5
2F3
100
AcDbEntity
  8
0
100
AcDbCircle
 62
6
  6
CONTINUOUS
 10
12.9222594207
 20
14.8205204365
 40
0.062
  0
ARC
  5
2F4
100
AcDbEntity
  8
0
100
AcDbCircle
 62
6
  6
CONTINUOUS
 10
12.9120019939
 20
14.8029803465
 40
0.0515563434
100
AcDbArc
 50
281.4758960087
 51
295.8298590029
  0
ARC
  5
2F5
100
AcDbEntity
  8
0
100
AcDbCircle
 62
6
  6
CONTINUOUS
 10
13.3211083092
 20
14.5582704365
 40
0.031
100
AcDbArc
 50
4.8096999639
 51
90.000004438
  0
ARC
  5
2F6
100
AcDbEntity
  8
0
100
AcDbCircle
 62
6
  6
CONTINUOUS
 10
13.0312594207
 20
15.2269768604
 40
0.241
100
AcDbArc
 50
322.6180391693
 51
31.1548459197
  0
ARC
  5
2F7
100
AcDbEntity
  8
0
100
AcDbCircle
 62
6
  6
CONTINUOUS
 10
12.8132594207
 20
15.2269768604
 40
0.241
100
AcDbArc
 50
148.8451540803
 51
217.3819608307
  0
ARC
  5
2F8
100
AcDbEntity
  8
0
100
AcDbCircle
 62
6
  6
CONTINUOUS
 10
13.1747594207
 20
15.7605204365
 40
0.06
100
AcDbArc
 50
273.695220532
 51
90.0
  0
ARC
  5
2F9
100
AcDbEntity
  8
0
100
AcDbCircle
 62
6
  6
CONTINUOUS
 10
13.1799260873
 20
15.6805204365
 40
0.0201666667
100
AcDbArc
 50
93.695220532
 51
180.0
  0
ARC
  5
2FA
100
AcDbEntity
  8
0
100
AcDbCircle
 62
6
  6
CONTINUOUS
 10
12.9152576238
 20
16.4595080029
 40
0.566888835
100
AcDbArc
 50
235.811347843
 51
239.0780104372
  0
ARC
  5
2FB
100
AcDbEntity
  8
0
100
AcDbCircle
 62
6
  6
CONTINUOUS
 10
12.914221391
 20
16.4579848801
 40
0.5650466407
100
AcDbArc
 50
234.1401074915
 51
235.8114787423
  0
ARC
  5
2FC
100
AcDbEntity
  8
0
100
AcDbCircle
 62
6
  6
CONTINUOUS
 10
12.9139560551
 20
16.4570088076
 40
0.5640760431
100
AcDbArc
 50
239.0609774968
 51
250.6322083057
  0
ARC
  5
2FD
100
AcDbEntity
  8
0
100
AcDbCircle
 62
6
  6
CONTINUOUS
 10
12.913273002
 20
16.4566751711
 40
0.5634296134
100
AcDbArc
 50
233.0146674733
 51
234.1402487741
  0
ARC
  5
2FE
100
AcDbEntity
  8
0
100
AcDbCircle
 62
6
  6
CONTINUOUS
 10
12.8937720537
 20
16.4646598096
 40
0.5586396026
100
AcDbArc
 50
251.7753991463
 51
255.3138878699
  0
ARC
  5
2FF
100
AcDbEntity
  8
0
100
AcDbCircle
 62
6
  6
CONTINUOUS
 10
12.8936451168
 20
16.4642691564
 40
0.5582288468
100
AcDbArc
 50
251.1699849772
 51
251.7752344715
  0
ARC
  5
300
100
AcDbEntity
  8
0
100
AcDbCircle
 62
6
  6
CONTINUOUS
 10
12.8923110394
 20
16.4606408295
 40
0.5543641255
100
AcDbArc
 50
243.5514284143
 51
251.179451532
  0
ARC
  5
301
100
AcDbEntity
  8
0
100
AcDbCircle
 62
6
  6
CONTINUOUS
 10
12.8821767377
 20
16.4663052314
 40
0.547335155
100
AcDbArc
 50
155.9164437447
 51
167.6346555707
  0
ARC
  5
302
100
AcDbEntity
  8
0
100
AcDbCircle
 62
6
  6
CONTINUOUS
 10
12.8760777409
 20
16.469461214
 40
0.5404793533
100
AcDbArc
 50
143.879091924
 51
155.9580470797
  0
ARC
  5
303
100
AcDbEntity
  8
0
100
AcDbCircle
 62
6
  6
CONTINUOUS
 10
12.9232617251
 20
16.4366364764
 40
0.5404793533
100
AcDbArc
 50
215.879091924
 51
227.9580470797
  0
ARC
  5
304
100
AcDbEntity
  8
0
100
AcDbCircle
 62
6
  6
CONTINUOUS
 10
12.8653117573
 20
16.4288619508
 40
0.4790953581
100
AcDbArc
 50
151.864454106
 51
165.2850742359
  0
ARC
  5
305
100
AcDbEntity
  8
0
100
AcDbCircle
 62
6
  6
CONTINUOUS
 10
12.8350350154
 20
16.4502548578
 40
0.4418913529
100
AcDbArc
 50
125.1737724635
 51
137.7385575432
  0
ARC
  5
306
100
AcDbEntity
  8
0
100
AcDbCircle
 62
6
  6
CONTINUOUS
 10
12.8823749666
 20
16.4313286335
 40
0.2519697044
100
AcDbArc
 50
117.6728679084
 51
122.2011591544
  0
ARC
  5
307
100
AcDbEntity
  8
0
100
AcDbCircle
 62
6
  6
CONTINUOUS
 10
12.9126413053
 20
16.5105731843
 40
0.5669963427
100
AcDbArc
 50
92.1281138083
 51
95.0777589568
  0
ARC
  5
308
100
AcDbEntity
  8
0
100
AcDbCircle
 62
6
  6
CONTINUOUS
 10
12.895356452
 20
16.484141257
 40
0.566888835
100
AcDbArc
 50
163.811347843
 51
167.0780104372
  0
ARC
  5
309
100
AcDbEntity
  8
0
100
AcDbCircle
 62
6
  6
CONTINUOUS
 10
12.8935876626
 20
16.4846561021
 40
0.5650466407
100
AcDbArc
 50
162.1401074915
 51
163.8114787423
  0
ARC
  5
30A
100
AcDbEntity
  8
0
100
AcDbCircle
 62
6
  6
CONTINUOUS
 10
12.91256499
 20
16.5131404968
 40
0.5644279673
100
AcDbArc
 50
89.0117073774
 51
92.1300498429
  0
ARC
  5
30B
100
AcDbEntity
  8
0
100
AcDbCircle
 62
6
  6
CONTINUOUS
 10
12.8920833683
 20
16.4858387703
 40
0.5635962922
100
AcDbArc
 50
193.6167151556
 51
194.8549719352
  0
ARC
  5
30C
100
AcDbEntity
  8
0
100
AcDbCircle
 62
6
  6
CONTINUOUS
 10
12.8920489868
 20
16.4851533514
 40
0.5634296132
100
AcDbArc
 50
161.0146674732
 51
162.1402487743
  0
ARC
  5
30D
100
AcDbEntity
  8
0
100
AcDbCircle
 62
6
  6
CONTINUOUS
 10
12.8908826689
 20
16.4856450633
 40
0.562383746
100
AcDbArc
 50
181.8728268372
 51
193.6263339879
  0
ARC
  5
30E
100
AcDbEntity
  8
0
100
AcDbCircle
 62
6
  6
CONTINUOUS
 10
12.9122384076
 20
16.5158363337
 40
0.5617787309
100
AcDbArc
 50
123.9833145097
 51
124.6314990976
  0
ARC
  5
30F
100
AcDbEntity
  8
0
100
AcDbCircle
 62
6
  6
CONTINUOUS
 10
12.8899610272
 20
16.4852647229
 40
0.561397714
100
AcDbArc
 50
194.8538748009
 51
198.9948054911
  0
ARC
  5
310
100
AcDbEntity
  8
0
100
AcDbCircle
 62
6
  6
CONTINUOUS
 10
12.9110686866
 20
16.5175146975
 40
0.5597329849
100
AcDbArc
 50
124.630611936
 51
127.7351145794
  0
ARC
  5
311
100
AcDbEntity
  8
0
100
AcDbCircle
 62
6
  6
CONTINUOUS
 10
12.893616705
 20
16.5061672442
 40
0.5586396026
100
AcDbArc
 50
179.7753991463
 51
183.3138878699
  0
ARC
  5
312
100
AcDbEntity
  8
0
100
AcDbCircle
 62
6
  6
CONTINUOUS
 10
12.8932059457
 20
16.50616725
 40
0.5582288464
100
AcDbArc
 50
179.169984977
 51
179.7752344717
  0
ARC
  5
313
100
AcDbEntity
  8
0
100
AcDbCircle
 62
6
  6
CONTINUOUS
 10
12.8893429495
 20
16.5063148183
 40
0.5543641255
100
AcDbArc
 50
171.5514284144
 51
179.179451532
  0
ARC
  5
314
100
AcDbEntity
  8
0
100
AcDbCircle
 62
6
  6
CONTINUOUS
 10
12.8915984444
 20
16.5177035084
 40
0.547335155
100
AcDbArc
 50
83.9164437446
 51
95.6346555707
  0
ARC
  5
315
100
AcDbEntity
  8
0
100
AcDbCircle
 62
6
  6
CONTINUOUS
 10
12.8927152685
 20
16.5244792513
 40
0.5404793533
100
AcDbArc
 50
71.879091924
 51
83.9580470797
  0
ARC
  5
316
100
AcDbEntity
  8
0
100
AcDbCircle
 62
6
  6
CONTINUOUS
 10
12.8507761895
 20
16.5221724487
 40
0.4790953581
100
AcDbArc
 50
79.8644525217
 51
93.2850726521
  0
ARC
  5
317
100
AcDbEntity
  8
0
100
AcDbCircle
 62
6
  6
CONTINUOUS
 10
12.8617660387
 20
16.5575781124
 40
0.4418913529
100
AcDbArc
 50
53.1737724635
 51
65.7385575432
  0
ARC
  5
318
100
AcDbEntity
  8
0
100
AcDbCircle
 62
6
  6
CONTINUOUS
 10
12.9226734792
 20
16.55280602
 40
0.2519697044
100
AcDbArc
 50
333.6728679088
 51
338.2011591536
  0
ARC
  5
319
100
AcDbEntity
  8
0
100
AcDbCircle
 62
6
  6
CONTINUOUS
 10
12.8583949792
 20
16.5067066184
 40
0.2519697044
100
AcDbArc
 50
45.6728679088
 51
50.2011591537
  0
CIRCLE
  5
31A
100
AcDbEntity
  8
0
100
AcDbCircle
 62
6
  6
CONTINUOUS
 10
12.9222594207
 20
16.4855204365
 40
0.23
  0
ARC
  5
31B
100
AcDbEntity
  8
0
100
AcDbCircle
 62
6
  6
CONTINUOUS
 10
12.9448350409
 20
16.470823048
 40
0.5668888351
100
AcDbArc
 50
307.811347843
 51
311.0780104371
  0
ARC
  5
31C
100
AcDbEntity
  8
0
100
AcDbCircle
 62
6
  6
CONTINUOUS
 10
12.9459634032
 20
16.4693668612
 40
0.5650466407
100
AcDbArc
 50
306.1401074915
 51
307.8114787422
  0
ARC
  5
31D
100
AcDbEntity
  8
0
100
AcDbCircle
 62
6
  6
CONTINUOUS
 10
12.946485248
 20
16.4675258606
 40
0.5635962922
100
AcDbArc
 50
337.6167151556
 51
338.8549719352
  0
ARC
  5
31E
100
AcDbEntity
  8
0
100
AcDbCircle
 62
6
  6
CONTINUOUS
 10
12.9469159422
 20
16.4680601673
 40
0.5634296134
100
AcDbArc
 50
305.0146674733
 51
306.1402487741
  0
ARC
  5
31F
100
AcDbEntity
  8
0
100
AcDbCircle
 62
6
  6
CONTINUOUS
 10
12.9475704923
 20
16.4669768194
 40
0.562383746
100
AcDbArc
 50
325.8728268372
 51
337.6263339879
  0
ARC
  5
320
100
AcDbEntity
  8
0
100
AcDbCircle
 62
6
  6
CONTINUOUS
 10
12.9485396746
 20
16.4667427938
 40
0.561397714
100
AcDbArc
 50
338.8538748009
 51
342.9948054911
  0
ARC
  5
321
100
AcDbEntity
  8
0
100
AcDbCircle
 62
6
  6
CONTINUOUS
 10
12.9332959753
 20
16.4519810524
 40
0.5586396026
100
AcDbArc
 50
323.7753991463
 51
327.3138878699
  0
ARC
  5
322
100
AcDbEntity
  8
0
100
AcDbCircle
 62
6
  6
CONTINUOUS
 10
12.9336282829
 20
16.4517396097
 40
0.5582288468
100
AcDbArc
 50
323.1699849772
 51
323.7752344714
  0
ARC
  5
323
100
AcDbEntity
  8
0
100
AcDbCircle
 62
6
  6
CONTINUOUS
 10
12.9366667743
 20
16.449349612
 40
0.5543641255
100
AcDbArc
 50
315.5514284144
 51
323.179451532
  0
ARC
  5
324
100
AcDbEntity
  8
0
100
AcDbCircle
 62
6
  6
CONTINUOUS
 10
12.9281479365
 20
16.4414617148
 40
0.547335155
100
AcDbArc
 50
227.9164437447
 51
239.6346555707
  0
ARC
  5
325
100
AcDbEntity
  8
0
100
AcDbCircle
 62
6
  6
CONTINUOUS
 10
12.9659814065
 20
16.4775058541
 40
0.547335155
100
AcDbArc
 50
299.9164437447
 51
311.6346555707
  0
ARC
  5
326
100
AcDbEntity
  8
0
100
AcDbCircle
 62
6
  6
CONTINUOUS
 10
12.9690605586
 20
16.4713677102
 40
0.5404793533
100
AcDbArc
 50
287.879091924
 51
299.9580470797
  0
ARC
  5
327
100
AcDbEntity
  8
0
100
AcDbCircle
 62
6
  6
CONTINUOUS
 10
12.9585470504
 20
16.4138515525
 40
0.4790953581
100
AcDbArc
 50
223.8644535904
 51
237.2850737181
  0
ARC
  5
328
100
AcDbEntity
  8
0
100
AcDbCircle
 62
6
  6
CONTINUOUS
 10
13.0135540447
 20
16.4627816721
 40
0.4418913529
100
AcDbArc
 50
269.173771058
 51
281.7385561056
  0
ARC
  5
329
100
AcDbEntity
  8
0
100
AcDbCircle
 62
6
  6
CONTINUOUS
 10
12.9288451615
 20
16.3916674235
 40
0.4418913529
100
AcDbArc
 50
197.1737708782
 51
209.738555926
  0
ARC
  5
32A
100
AcDbEntity
  8
0
100
AcDbCircle
 62
6
  6
CONTINUOUS
 10
12.9614739139
 20
16.4308418785
 40
0.2519697044
100
AcDbArc
 50
189.6728679088
 51
194.2011591536
  0
ARC
  5
32B
100
AcDbEntity
  8
0
100
AcDbCircle
 62
6
  6
CONTINUOUS
 10
12.9432137181
 20
16.5024493844
 40
0.5668888351
100
AcDbArc
 50
19.811347843
 51
23.0780104371
  0
ARC
  5
32C
100
AcDbEntity
  8
0
100
AcDbCircle
 62
6
  6
CONTINUOUS
 10
12.9449473172
 20
16.5030725343
 40
0.5650466407
100
AcDbArc
 50
18.1401074915
 51
19.8114787423
  0
ARC
  5
32D
100
AcDbEntity
  8
0
100
AcDbCircle
 62
6
  6
CONTINUOUS
 10
12.9464844078
 20
16.5035746621
 40
0.5634296132
100
AcDbArc
 50
17.0146674731
 51
18.1402487743
  0
ARC
  5
32E
100
AcDbEntity
  8
0
100
AcDbCircle
 62
6
  6
CONTINUOUS
 10
12.9476098315
 20
16.50390062
 40
0.5624240617
100
AcDbArc
 50
49.6154946709
 51
54.2587461658
  0
ARC
  5
32F
100
AcDbEntity
  8
0
100
AcDbCircle
 62
6
  6
CONTINUOUS
 10
12.9477243058
 20
16.5038690144
 40
0.5623739203
100
AcDbArc
 50
37.8727521106
 51
49.592178619
  0
ARC
  5
330
100
AcDbEntity
  8
0
100
AcDbCircle
 62
6
  6
CONTINUOUS
 10
12.9330654975
 20
16.5190830445
 40
0.5587016638
100
AcDbArc
 50
109.0332528268
 51
109.7091899278
  0
ARC
  5
331
100
AcDbEntity
  8
0
100
AcDbCircle
 62
6
  6
CONTINUOUS
 10
12.9575785715
 20
16.4856615314
 40
0.5586255658
100
AcDbArc
 50
35.1704836277
 51
39.2195395442
  0
ARC
  5
332
100
AcDbEntity
  8
0
100
AcDbCircle
 62
6
  6
CONTINUOUS
 10
12.9320764067
 20
16.5222944779
 40
0.5553432533
100
AcDbArc
 50
99.5566212048
 51
109.0448375678
  0
ARC
  5
333
100
AcDbEntity
  8
0
100
AcDbCircle
 62
6
  6
CONTINUOUS
 10
12.9611120361
 20
16.4880452446
 40
0.5543641255
100
AcDbArc
 50
27.5514284144
 51
35.179451532
  0
ARC
  5
334
100
AcDbEntity
  8
0
100
AcDbCircle
 62
6
  6
CONTINUOUS
 10
12.9433925781
 20
16.5246258739
 40
0.547335155
100
AcDbArc
 50
11.9164437447
 51
23.6346555707
  0
ARC
  5
335
100
AcDbEntity
  8
0
100
AcDbCircle
 62
6
  6
CONTINUOUS
 10
12.9501818102
 20
16.5256575308
 40
0.5404793533
100
AcDbArc
 50
359.879091924
 51
11.9580470797
  0
ARC
  5
336
100
AcDbEntity
  8
0
100
AcDbCircle
 62
6
  6
CONTINUOUS
 10
13.0016340741
 20
16.4978851201
 40
0.4790953581
100
AcDbArc
 50
295.8644535904
 51
309.2850737182
  0
ARC
  5
337
100
AcDbEntity
  8
0
100
AcDbCircle
 62
6
  6
CONTINUOUS
 10
12.9350280189
 20
16.5648311374
 40
0.4790953581
100
AcDbArc
 50
7.8644508719
 51
21.285071002
  0
ARC
  5
338
100
AcDbEntity
  8
0
100
AcDbCircle
 62
6
  6
CONTINUOUS
 10
12.972096861
 20
16.565320119
 40
0.4418913529
100
AcDbArc
 50
341.1737710608
 51
353.7385561086
  0
ARC
  5
339
100
AcDbEntity
  8
0
100
AcDbCircle
 62
6
  6
CONTINUOUS
 10
12.9863797644
 20
16.5059190322
 40
0.2519697044
100
AcDbArc
 50
261.6728679088
 51
266.2011591536
  0
ARC
  5
33A
100
AcDbEntity
  8
0
100
AcDbCircle
 62
6
  6
CONTINUOUS
 10
13.6987757222
 20
15.6305204365
 40
0.5390163015
100
AcDbArc
 50
180.0
 51
211.1548459197
  0
ARC
  5
33B
100
AcDbEntity
  8
0
100
AcDbCircle
 62
6
  6
CONTINUOUS
 10
25.0982495152
 20
15.5365918699
 40
2.8085394043
100
AcDbArc
 50
138.7202736886
 51
141.0957519089
  0
ARC
  5
33C
100
AcDbEntity
  8
0
100
AcDbCircle
 62
6
  6
CONTINUOUS
 10
21.3122594207
 20
16.4643205843
 40
0.15
100
AcDbArc
 50
180.0
 51
209.9264348666
  0
ARC
  5
33D
100
AcDbEntity
  8
0
100
AcDbCircle
 62
6
  6
CONTINUOUS
 10
22.5322594207
 20
16.4643205843
 40
0.15
100
AcDbArc
 50
330.0735651334
 51
360.0
  0
ARC
  5
33E
100
AcDbEntity
  8
0
100
AcDbCircle
 62
6
  6
CONTINUOUS
 10
20.9947594207
 20
17.9994874365
 40
0.15
100
AcDbArc
 50
90.0
 51
114.6791907782
  0
ARC
  5
33F
100
AcDbEntity
  8
0
100
AcDbCircle
 62
6
  6
CONTINUOUS
 10
20.9947594207
 20
17.9994874365
 40
0.15
100
AcDbArc
 50
114.715213815
 51
114.9394710354
  0
ARC
  5
340
100
AcDbEntity
  8
0
100
AcDbCircle
 62
6
  6
CONTINUOUS
 10
22.8497594207
 20
17.9994874365
 40
0.15
100
AcDbArc
 50
65.0605289646
 51
90.0
  0
ARC
  5
341
100
AcDbEntity
  8
0
100
AcDbCircle
 62
6
  6
CONTINUOUS
 10
21.0622594207
 20
17.0237482053
 40
0.1
100
AcDbArc
 50
0.0
 51
44.3312080184
  0
ARC
  5
342
100
AcDbEntity
  8
0
100
AcDbCircle
 62
6
  6
CONTINUOUS
 10
22.7822594207
 20
17.0237482053
 40
0.1
100
AcDbArc
 50
135.6687919816
 51
180.0
  0
ARC
  5
343
100
AcDbEntity
  8
0
100
AcDbCircle
 62
6
  6
CONTINUOUS
 10
21.0174127728
 20
18.1796407887
 40
0.0301533521
100
AcDbArc
 50
98.178968898
 51
270.0
  0
ARC
  5
344
100
AcDbEntity
  8
0
100
AcDbCircle
 62
6
  6
CONTINUOUS
 10
22.8271060685
 20
18.1796407887
 40
0.0301533521
100
AcDbArc
 50
270.0
 51
81.821031102
  0
SPLINE
  5
345
100
AcDbEntity
  8
0
100
AcDbSpline
 62
6
  6
CONTINUOUS
 70
0
 71
3
 72
8
 73
4
 74
2
 42
0.0000001
 43
0.0000001
 44
0.0000000001
 12
0.0000437859
 22
0.0000246434
 32
0.0
 13
0.0000437859
 23
0.0000246434
 33
0.0
 40
0.0
 40
0.0
 40
0.0
 40
0.0
 40
1.0
 40
1.0
 40
1.0
 40
1.0
 10
20.9322151711
 20
18.135823686
 30
0.0
 10
20.9322297664
 20
18.1358319005
 30
0.0
 10
20.9322443618
 20
18.1358401149
 30
0.0
 10
20.9322589571
 20
18.1358483294
 30
0.0
 11
20.9322151711
 21
18.135823686
 31
0.0
 11
20.9322589571
 21
18.1358483294
 31
0.0
  0
LINE
  5
346
100
AcDbEntity
  8
0
100
AcDbLine
 62
6
  6
CONTINUOUS
 10
22.9126553332
 20
17.3004116245
 11
22.9125437075
 21
17.3002731761
  0
LINE
  5
347
100
AcDbEntity
  8
0
100
AcDbLine
 62
6
  6
CONTINUOUS
 10
22.9125437075
 20
17.3002731761
 11
22.9122610382
 21
17.299922725
  0
SPLINE
  5
348
100
AcDbEntity
  8
0
100
AcDbSpline
 62
6
  6
CONTINUOUS
 70
0
 71
3
 72
38
 73
34
 74
32
 42
0.0000001
 43
0.0000001
 44
0.0000000001
 12
0.0
 22
0.1630696083
 32
0.0
 13
-0.1421002588
 23
0.0799950849
 33
0.0
 40
0.0
 40
0.0
 40
0.0
 40
0.0
 40
0.0484298436
 40
0.0968483237
 40
0.1451410779
 40
0.1931928244
 40
0.2408982203
 40
0.2881634359
 40
0.3348899285
 40
0.3809734929
 40
0.426290975
 40
0.4707009164
 40
0.5140526471
 40
0.5561965775
 40
0.5969937457
 40
0.6362945409
 40
0.6739392206
 40
0.7098058874
 40
0.743806858
 40
0.7758417667
 40
0.8336489457
 40
0.8593710754
 40
0.8829364275
 40
0.9043126308
 40
0.9235041822
 40
0.9405296165
 40
0.9554013469
 40
0.9681266662
 40
0.9787171148
 40
0.9871876731
 40
0.9935516739
 40
0.9978206358
 40
1.0
 40
1.0
 40
1.0
 40
1.0
 10
22.9876370248
 20
17.9994874365
 30
0.0
 10
22.9876370248
 20
18.0021199151
 30
0.0
 10
22.9875109822
 20
18.0073850909
 30
0.0
 10
22.9869504692
 20
18.0152572753
 30
0.0
 10
22.9860242264
 20
18.0230743369
 30
0.0
 10
22.9847368633
 20
18.0308007983
 30
0.0
 10
22.98309721
 20
18.0384030502
 30
0.0
 10
22.981124703
 20
18.0458511799
 30
0.0
 10
22.9788373575
 20
18.0531163445
 30
0.0
 10
22.9762522905
 20
18.0601682586
 30
0.0
 10
22.9733975729
 20
18.0669788739
 30
0.0
 10
22.9703058471
 20
18.0735212119
 30
0.0
 10
22.967008157
 20
18.0797677224
 30
0.0
 10
22.9635368218
 20
18.0856927286
 30
0.0
 10
22.9599357634
 20
18.0912792756
 30
0.0
 10
22.9562473622
 20
18.0965118547
 30
0.0
 10
22.9525113519
 20
18.1013765599
 30
0.0
 10
22.9487686239
 20
18.1058667063
 30
0.0
 10
22.9450616622
 20
18.109984331
 30
0.0
 10
22.9403773644
 20
18.1148203769
 30
0.0
 10
22.9357790208
 20
18.1191082215
 30
0.0
 10
22.9313296448
 20
18.1228630192
 30
0.0
 10
22.9283217848
 20
18.1252526832
 30
0.0
 10
22.9255350814
 20
18.127347792
 30
0.0
 10
22.9229861085
 20
18.129165794
 30
0.0
 10
22.9206878874
 20
18.1307250397
 30
0.0
 10
22.918652354
 20
18.1320443068
 30
0.0
 10
22.9168918614
 20
18.1331441649
 30
0.0
 10
22.9154134592
 20
18.1340384778
 30
0.0
 10
22.9142212931
 20
18.1347376341
 30
0.0
 10
22.9133193649
 20
18.1352522548
 30
0.0
 10
22.9127122954
 20
18.1355935566
 30
0.0
 10
22.9124068996
 20
18.1357655732
 30
0.0
 10
22.9123036702
 20
18.135823686
 30
0.0
 11
22.9876370248
 21
17.9994874365
 31
0.0
 11
22.9874489601
 21
18.0073826326
 31
0.0
 11
22.9868884973
 21
18.015258298
 31
0.0
 11
22.9859612334
 21
18.0230785969
 31
0.0
 11
22.9846728256
 21
18.0308077266
 31
0.0
 11
22.9830333034
 21
18.0384122962
 31
0.0
 11
22.9810599508
 21
18.0458629168
 31
0.0
 11
22.9787707357
 21
18.0531305765
 31
0.0
 11
22.9761844035
 21
18.0601863215
 31
0.0
 11
22.9733278582
 21
18.0670018062
 31
0.0
 11
22.9702328777
 21
18.0735490484
 31
0.0
 11
22.9669313097
 21
18.0798000767
 31
0.0
 11
22.9634575741
 21
18.0857299134
 31
0.0
 11
22.9598528766
 21
18.0913214798
 31
0.0
 11
22.9561595287
 21
18.0965589843
 31
0.0
 11
22.9524197939
 21
18.1014270497
 31
0.0
 11
22.948674852
 21
18.1059196483
 31
0.0
 11
22.9449648105
 21
18.1100400062
 31
0.0
 11
22.9413297309
 21
18.113791744
 31
0.0
 11
22.9344321012
 21
18.1202169584
 31
0.0
 11
22.9312263512
 21
18.1229219495
 31
0.0
 11
22.9282176536
 21
18.1253125132
 31
0.0
 11
22.9254310716
 21
18.1274067494
 31
0.0
 11
22.9228828499
 21
18.1292235336
 31
0.0
 11
22.9205852612
 21
18.1307820904
 31
0.0
 11
22.9185505587
 21
18.1321016463
 31
0.0
 11
22.9167905981
 21
18.1332010243
 31
0.0
 11
22.9153126324
 21
18.1340943767
 31
0.0
 11
22.9141209547
 21
18.1347928521
 31
0.0
 11
22.9132198088
 21
18.1353075495
 31
0.0
 11
22.9126133467
 21
18.1356493267
 31
0.0
 11
22.9123036702
 21
18.135823686
 31
0.0
  0
SPLINE
  5
349
100
AcDbEntity
  8
0
100
AcDbSpline
 62
6
  6
CONTINUOUS
 70
0
 71
3
 72
8
 73
4
 74
2
 42
0.0000001
 43
0.0000001
 44
0.0000000001
 12
-0.0000437859
 22
0.0000246434
 32
0.0
 13
-0.0000437859
 23
0.0000246434
 33
0.0
 40
0.0
 40
0.0
 40
0.0
 40
0.0
 40
1.0
 40
1.0
 40
1.0
 40
1.0
 10
22.9123036702
 20
18.135823686
 30
0.0
 10
22.9122890749
 20
18.1358319005
 30
0.0
 10
22.9122744796
 20
18.1358401149
 30
0.0
 10
22.9122598843
 20
18.1358483294
 30
0.0
 11
22.9123036702
 21
18.135823686
 31
0.0
 11
22.9122598843
 21
18.1358483294
 31
0.0
  0
SPLINE
  5
34A
100
AcDbEntity
  8
0
100
AcDbSpline
 62
6
  6
CONTINUOUS
 70
0
 71
3
 72
16
 73
12
 74
10
 42
0.0000001
 43
0.0000001
 44
0.0000000001
 12
0.0
 22
0.0656220438
 32
0.0
 13
-0.0001106832
 23
0.0656219504
 33
0.0
 40
0.0
 40
0.0
 40
0.0
 40
0.0
 40
0.1310685099
 40
0.2617482237
 40
0.3913356905
 40
0.4554995438
 40
0.5191271352
 40
0.6444703896
 40
0.7667812343
 40
0.8854809662
 40
1.0
 40
1.0
 40
1.0
 40
1.0
 10
22.5616284642
 20
17.9994874365
 30
0.0
 10
22.5616284642
 20
18.002354431
 30
0.0
 10
22.5616094558
 20
18.0080799274
 30
0.0
 10
22.5615329129
 20
18.0166397019
 30
0.0
 10
22.5614360933
 20
18.0237356738
 30
0.0
 10
22.5613431216
 20
18.0293648182
 30
0.0
 10
22.5612420724
 20
18.0349009709
 30
0.0
 10
22.561106486
 20
18.0417086005
 30
0.0
 10
22.5609525911
 20
18.0497207599
 30
0.0
 10
22.5608334256
 20
18.0574967298
 30
0.0
 10
22.5607924607
 20
18.062598099
 30
0.0
 10
22.5607882356
 20
18.0651030864
 30
0.0
 11
22.5616284642
 21
17.9994874365
 31
0.0
 11
22.5616013567
 21
18.0080883773
 31
0.0
 11
22.5615259518
 21
18.0166635157
 31
0.0
 11
22.5614111263
 21
18.0251665348
 31
0.0
 11
22.5613417048
 21
18.0293765257
 31
0.0
 11
22.5612659293
 21
18.0335512106
 31
0.0
 11
22.5611061486
 21
18.0417749391
 31
0.0
 11
22.5609563437
 21
18.0497998286
 31
0.0
 11
22.560841662
 21
18.0575883033
 31
0.0
 11
22.5607882356
 21
18.0651030864
 31
0.0
  0
SPLINE
  5
34B
100
AcDbEntity
  8
0
100
AcDbSpline
 62
7
  6
CONTINUOUS
 70
0
 71
3
 72
19
 73
15
 74
13
 42
0.0000001
 43
0.0000001
 44
0.0000000001
 12
0.0283477411
 22
-0.0140801581
 32
0.0
 13
-0.0039003676
 23
-0.0314107054
 33
0.0
 40
0.0
 40
0.0
 40
0.0
 40
0.0
 40
0.0584503572
 40
0.1171192247
 40
0.1760730026
 40
0.2353822387
 40
0.3553939125
 40
0.4780596784
 40
0.6038103435
 40
0.6679391863
 40
0.7328861324
 40
0.7986457325
 40
0.865176902
 40
1.0
 40
1.0
 40
1.0
 40
1.0
 10
5.4783139774
 20
13.84278073
 30
0.0
 10
5.4788662892
 20
13.8425063999
 30
0.0
 10
5.4799493378
 20
13.8419076076
 30
0.0
 10
5.4814926493
 20
13.8408696928
 30
0.0
 10
5.4829480517
 20
13.8396968017
 30
0.0
 10
5.4847644477
 20
13.8379550879
 30
0.0
 10
5.4867755852
 20
13.8354629878
 30
0.0
 10
5.4887007039
 20
13.8320680769
 30
0.0
 10
5.4898713993
 20
13.8289707583
 30
0.0
 10
5.4905404371
 20
13.8263648284
 30
0.0
 10
5.490908206
 20
13.8243405353
 30
0.0
 10
5.4911358913
 20
13.8222702564
 30
0.0
 10
5.4912510849
 20
13.8194528745
 30
0.0
 10
5.4911247224
 20
13.8173241239
 30
0.0
 10
5.4909494358
 20
13.8159124944
 30
0.0
 11
5.4783139774
 21
13.84278073
 31
0.0
 11
5.4799332504
 21
13.8418859097
 31
0.0
 11
5.4814743673
 21
13.8408498855
 31
0.0
 11
5.4829274166
 21
13.8396791554
 31
0.0
 11
5.4842828071
 21
13.8383803124
 31
0.0
 11
5.4866727747
 21
13.8354277823
 31
0.0
 11
5.4885949671
 21
13.8320543816
 31
0.0
 11
5.490008923
 21
13.8283337448
 31
0.0
 11
5.4905147796
 21
13.8263679863
 31
0.0
 11
5.49088301
 21
13.8243455383
 31
0.0
 11
5.4911113633
 21
13.8222766837
 31
0.0
 11
5.4911983577
 21
13.8201726409
 31
0.0
 11
5.4909494358
 21
13.8159124944
 31
0.0
  0
SPLINE
  5
34C
100
AcDbEntity
  8
0
100
AcDbSpline
 62
7
  6
CONTINUOUS
 70
0
 71
3
 72
20
 73
16
 74
14
 42
0.0000001
 43
0.0000001
 44
0.0000000001
 12
-0.0283500325
 22
-0.014081297
 32
0.0
 13
0.0039006959
 23
-0.0314132431
 33
0.0
 40
0.0
 40
0.0
 40
0.0
 40
0.0
 40
0.0583877638
 40
0.1170309419
 40
0.1759953207
 40
0.2353424293
 40
0.3553967713
 40
0.4780134284
 40
0.540504283
 40
0.6038095983
 40
0.6679485878
 40
0.7329291473
 40
0.7987368882
 40
0.8652811214
 40
1.0
 40
1.0
 40
1.0
 40
1.0
 10
4.3662048634
 20
13.8427807312
 30
0.0
 10
4.3656530984
 20
13.8425066727
 30
0.0
 10
4.3645708732
 20
13.8419081006
 30
0.0
 10
4.3630283134
 20
13.8408702644
 30
0.0
 10
4.3615726329
 20
13.8396971701
 30
0.0
 10
4.3597542256
 20
13.8379557603
 30
0.0
 10
4.35774399
 20
13.83546259
 30
0.0
 10
4.3561474837
 20
13.8326500293
 30
0.0
 10
4.3551249506
 20
13.8302343233
 30
0.0
 10
4.3544843184
 20
13.8283333229
 30
0.0
 10
4.3539783984
 20
13.826365173
 30
0.0
 10
4.3536104006
 20
13.8243398356
 30
0.0
 10
4.3533836465
 20
13.8222682501
 30
0.0
 10
4.3532684689
 20
13.8194511391
 30
0.0
 10
4.3533942412
 20
13.8173231344
 30
0.0
 10
4.353569407
 20
13.8159124821
 30
0.0
 11
4.3662048634
 21
13.8427807312
 31
0.0
 11
4.3645872923
 21
13.8418866183
 31
0.0
 11
4.3630468748
 21
13.8408507422
 31
0.0
 11
4.3615933444
 21
13.8396798339
 31
0.0
 11
4.3602364344
 21
13.8383806248
 31
0.0
 11
4.3578456411
 21
13.8354266303
 31
0.0
 11
4.355923521
 21
13.8320546164
 31
0.0
 11
4.3551513795
 21
13.8302334236
 31
0.0
 11
4.354510517
 21
13.8283347656
 31
0.0
 11
4.3540042295
 21
13.826368617
 31
0.0
 11
4.3536358134
 21
13.8243449524
 31
0.0
 11
4.3534079809
 21
13.822274338
 31
0.0
 11
4.3533211078
 21
13.8201697058
 31
0.0
 11
4.353569407
 21
13.8159124821
 31
0.0
  0
SPLINE
  5
34D
100
AcDbEntity
  8
0
100
AcDbSpline
 62
7
  6
CONTINUOUS
 70
0
 71
3
 72
15
 73
11
 74
9
 42
0.0000001
 43
0.0000001
 44
0.0000000001
 12
0.0066856809
 22
0.0105624231
 32
0.0
 13
0.0
 23
0.0125005244
 33
0.0
 40
0.0
 40
0.0
 40
0.0
 40
0.0
 40
0.1408904559
 40
0.2768284656
 40
0.408119391
 40
0.5349671226
 40
0.6573162035
 40
0.7751887149
 40
0.889103055
 40
1.0
 40
1.0
 40
1.0
 40
1.0
 10
5.4909494358
 20
13.8159124944
 30
0.0
 10
5.4912634187
 20
13.8164085426
 30
0.0
 10
5.4918595584
 20
13.8173966256
 30
0.0
 10
5.4926641411
 20
13.8188957242
 30
0.0
 10
5.4933561148
 20
13.8203860051
 30
0.0
 10
5.4939301989
 20
13.8218651155
 30
0.0
 10
5.494384512
 20
13.8233269521
 30
0.0
 10
5.4947165778
 20
13.8247663183
 30
0.0
 10
5.494921033
 20
13.8261812564
 30
0.0
 10
5.4949686737
 20
13.8271185469
 30
0.0
 10
5.4949686737
 20
13.8275806369
 30
0.0
 11
5.4909494358
 21
13.8159124944
 31
0.0
 11
5.4918571713
 21
13.8174217518
 31
0.0
 11
5.4926584003
 21
13.8189202979
 31
0.0
 11
5.4933474149
 21
13.8204098663
 31
0.0
 11
5.4939194797
 21
13.8218887407
 31
0.0
 11
5.4943713583
 21
13.8233498891
 31
0.0
 11
5.4946998458
 21
13.824786275
 31
0.0
 11
5.4949006268
 21
13.826196038
 31
0.0
 11
5.4949686737
 21
13.8275806369
 31
0.0
  0
SPLINE
  5
34E
100
AcDbEntity
  8
0
100
AcDbSpline
 62
6
  6
CONTINUOUS
 70
0
 71
3
 72
21
 73
17
 74
15
 42
0.0000001
 43
0.0000001
 44
0.0000000001
 12
-0.0305074614
 22
-0.0571448498
 32
0.0
 13
-0.0620805574
 23
-0.0184998232
 33
0.0
 40
0.0
 40
0.0
 40
0.0
 40
0.0
 40
0.0625796598
 40
0.1251522037
 40
0.1877035995
 40
0.2501850877
 40
0.3125848043
 40
0.3749462789
 40
0.4372984356
 40
0.4996534034
 40
0.5620242167
 40
0.624432665
 40
0.686897276
 40
0.749433063
 40
0.8746625326
 40
1.0
 40
1.0
 40
1.0
 40
1.0
 10
13.0137181571
 20
14.809172974
 30
0.0
 10
13.0130817749
 20
14.8079809389
 30
0.0
 10
13.0117304233
 20
14.8056381698
 30
0.0
 10
13.0094904847
 20
14.8022575572
 30
0.0
 10
13.0070581199
 20
14.7990154078
 30
0.0
 10
13.0044531485
 20
14.7959154659
 30
0.0
 10
13.0016912854
 20
14.792960245
 30
0.0
 10
12.9987848528
 20
14.7901512886
 30
0.0
 10
12.9957453381
 20
14.7874885754
 30
0.0
 10
12.9925841248
 20
14.7849713984
 30
0.0
 10
12.9893100659
 20
14.7826008446
 30
0.0
 10
12.9859298784
 20
14.7803800019
 30
0.0
 10
12.9824503248
 20
14.7783112693
 30
0.0
 10
12.9776865466
 20
14.7757584733
 30
0.0
 10
12.9715204718
 20
14.7729634216
 30
0.0
 10
12.9664039091
 20
14.7711780788
 30
0.0
 10
12.9638102359
 20
14.7704051718
 30
0.0
 11
13.0137181571
 21
14.809172974
 31
0.0
 11
13.0116948081
 21
14.8056602218
 31
0.0
 11
13.0094579413
 21
14.8022799763
 31
0.0
 11
13.0070280216
 21
14.7990374436
 31
0.0
 11
13.0044253774
 21
14.7959377511
 31
0.0
 11
13.0016662898
 21
14.7929836971
 31
0.0
 11
12.9987624083
 21
14.7901754145
 31
0.0
 11
12.9957251287
 21
14.7875128903
 31
0.0
 11
12.9925657528
 21
14.7849961628
 31
0.0
 11
12.9892933734
 21
14.7826264794
 31
0.0
 11
12.9859148506
 21
14.7804063091
 31
0.0
 11
12.9824369454
 21
14.7783381754
 31
0.0
 11
12.9788664245
 21
14.7764246143
 31
0.0
 11
12.9714771295
 21
14.7730771522
 31
0.0
 11
12.9638102359
 21
14.7704051718
 31
0.0
  0
SPLINE
  5
34F
100
AcDbEntity
  8
0
100
AcDbSpline
 62
6
  6
CONTINUOUS
 70
0
 71
3
 72
27
 73
23
 74
21
 42
0.0000001
 43
0.0000001
 44
0.0000000001
 12
-0.2850603181
 22
0.2878405816
 32
0.0
 13
0.1434029076
 23
0.3788762218
 33
0.0
 40
0.0
 40
0.0
 40
0.0
 40
0.0
 40
0.0723696376
 40
0.1433089359
 40
0.2128545222
 40
0.2471153837
 40
0.2810317634
 40
0.3146030015
 40
0.347832543
 40
0.4132859098
 40
0.4774479504
 40
0.5403416251
 40
0.6019714597
 40
0.6623458234
 40
0.7215109184
 40
0.7795010713
 40
0.808065326
 40
0.8363400121
 40
0.8643245714
 40
0.8920190073
 40
0.9465535897
 40
1.0
 40
1.0
 40
1.0
 40
1.0
 10
12.7297694272
 20
16.1350891168
 30
0.0
 10
12.7228928566
 20
16.1420327563
 30
0.0
 10
12.709759121
 20
16.1562721643
 30
0.0
 10
12.6918139856
 20
16.1787537539
 30
0.0
 10
12.6784291387
 20
16.1982140064
 30
0.0
 10
12.6687259192
 20
16.214083298
 30
0.0
 10
12.6619800306
 20
16.2260563899
 30
0.0
 10
12.6557319272
 20
16.2381400507
 30
0.0
 10
12.6481029471
 20
16.2542910517
 30
0.0
 10
12.6397779691
 20
16.2746661557
 30
0.0
 10
12.6316768476
 20
16.2993897438
 30
0.0
 10
12.6254784493
 20
16.324125883
 30
0.0
 10
12.621148008
 20
16.3487369554
 30
0.0
 10
12.6186488554
 20
16.3730945531
 30
0.0
 10
12.6179097893
 20
16.3970757577
 30
0.0
 10
12.6187045725
 20
16.4167551864
 30
0.0
 10
12.6201602786
 20
16.4321954511
 30
0.0
 10
12.6216414843
 20
16.4435560078
 30
0.0
 10
12.6235085461
 20
16.4547404822
 30
0.0
 10
12.6264854871
 20
16.4693252441
 30
0.0
 10
12.6311076987
 20
16.4870703341
 30
0.0
 10
12.635782375
 20
16.5008968884
 30
0.0
 10
12.6383371652
 20
16.5076467464
 30
0.0
 11
12.7297694272
 21
16.1350891168
 31
0.0
 11
12.7098962564
 21
16.1566429857
 31
0.0
 11
12.6919727028
 21
16.1791067064
 31
0.0
 11
12.6760126094
 21
16.2023234167
 31
0.0
 11
12.6687731862
 21
16.2141651235
 31
0.0
 11
12.6620298191
 21
16.2261362543
 31
0.0
 11
12.6557841525
 21
16.2382172313
 31
0.0
 11
12.6500351803
 21
16.2503894016
 31
0.0
 11
12.6400107621
 21
16.2749370812
 31
0.0
 11
12.63192258
 21
16.2996391164
 31
0.0
 11
12.6257364753
 21
16.3243553913
 31
0.0
 11
12.6214182854
 21
16.348945793
 31
0.0
 11
12.6189258635
 21
16.3732765355
 31
0.0
 11
12.6181922542
 21
16.3972334929
 31
0.0
 11
12.6191456973
 21
16.420706347
 31
0.0
 11
12.6202326384
 21
16.4322267608
 31
0.0
 11
12.6217144326
 21
16.4435847793
 31
0.0
 11
12.6235821098
 21
16.4547666128
 31
0.0
 11
12.6258263452
 21
16.4657590649
 31
0.0
 11
12.6313988051
 21
16.4871370662
 31
0.0
 11
12.6383371652
 21
16.5076467464
 31
0.0
  0
SPLINE
  5
350
100
AcDbEntity
  8
0
100
AcDbSpline
 62
6
  6
CONTINUOUS
 70
0
 71
3
 72
27
 73
23
 74
21
 42
0.0000001
 43
0.0000001
 44
0.0000000001
 12
-0.3618411435
 22
-0.1821608417
 32
0.0
 13
-0.3160187641
 23
0.2534634611
 33
0.0
 40
0.0
 40
0.0
 40
0.0
 40
0.0
 40
0.0723696376
 40
0.1433089359
 40
0.2128545222
 40
0.2471153837
 40
0.2810317634
 40
0.3146030015
 40
0.347832543
 40
0.4132859098
 40
0.4774479504
 40
0.5403416251
 40
0.6019714597
 40
0.6623458234
 40
0.7215109184
 40
0.7795010713
 40
0.808065326
 40
0.8363400121
 40
0.8643245714
 40
0.8920190073
 40
0.9465535897
 40
1.0
 40
1.0
 40
1.0
 40
1.0
 10
13.1960567316
 20
16.1941623408
 30
0.0
 10
13.1873279608
 20
16.1897680361
 30
0.0
 10
13.1697269315
 20
16.1816773303
 30
0.0
 10
13.1428003174
 20
16.1715576857
 30
0.0
 10
13.1201563723
 20
16.1648414885
 30
0.0
 10
13.1020653194
 20
16.1605170592
 30
0.0
 10
13.0885936382
 20
16.1578012267
 30
0.0
 10
13.0751706237
 20
16.1555929838
 30
0.0
 10
13.0574526244
 20
16.1533283263
 30
0.0
 10
13.0355021893
 20
16.1517070552
 30
0.0
 10
13.0094852755
 20
16.1516424396
 30
0.0
 10
12.9840443988
 20
16.1533913
 30
0.0
 10
12.959299698
 20
16.1568780451
 30
0.0
 10
12.9353619654
 20
16.1620281214
 30
0.0
 10
12.9123261005
 20
16.1687358276
 30
0.0
 10
12.893855453
 20
16.1755729892
 30
0.0
 10
12.8796207267
 20
16.1817287522
 30
0.0
 10
12.8692739129
 20
16.1866480676
 30
0.0
 10
12.8592137995
 20
16.1918799416
 30
0.0
 10
12.846262792
 20
16.1992181199
 30
0.0
 10
12.8308145505
 20
16.2090976388
 30
0.0
 10
12.8191092703
 20
16.2178161605
 30
0.0
 10
12.8134792475
 20
16.2223317312
 30
0.0
 11
13.1960567316
 21
16.1941623408
 31
0.0
 11
13.1694166366
 21
16.181922344
 31
0.0
 11
13.1425136859
 21
16.171817703
 31
0.0
 11
13.1155013422
 21
16.1638131102
 31
0.0
 11
13.1020021051
 21
16.1605872982
 31
0.0
 11
13.0885330681
 21
16.1578732578
 31
0.0
 11
13.075113359
 21
16.1556665032
 31
0.0
 11
13.0617604071
 21
16.1539603131
 31
0.0
 11
13.0353164608
 21
16.152012175
 31
0.0
 11
13.0093240435
 21
16.1519532055
 31
0.0
 11
12.9839058578
 21
16.1537076193
 31
0.0
 11
12.9591846019
 21
16.1571996286
 31
0.0
 11
12.93527449
 21
16.1623478074
 31
0.0
 11
12.9122633718
 21
16.1690532105
 31
0.0
 11
12.8902339911
 21
16.1772134996
 31
0.0
 11
12.8796133098
 21
16.1818072457
 31
0.0
 11
12.8692690919
 21
16.1867263364
 31
0.0
 11
12.8592116802
 21
16.1919579796
 31
0.0
 11
12.8494507439
 21
16.1974892287
 31
0.0
 11
12.8308410413
 21
16.2093951188
 31
0.0
 11
12.8134792475
 21
16.2223317312
 31
0.0
  0
SPLINE
  5
351
100
AcDbEntity
  8
0
100
AcDbSpline
 62
6
  6
CONTINUOUS
 70
0
 71
3
 72
27
 73
23
 74
21
 42
0.0000001
 43
0.0000001
 44
0.0000000001
 12
0.0614301929
 22
-0.4004221732
 32
0.0
 13
-0.3387132449
 23
-0.222227188
 33
0.0
 40
0.0
 40
0.0
 40
0.0
 40
0.0
 40
0.0723696376
 40
0.1433089359
 40
0.2128545222
 40
0.2471153837
 40
0.2810317634
 40
0.3146030015
 40
0.347832543
 40
0.4132859098
 40
0.4774479504
 40
0.5403416251
 40
0.6019714597
 40
0.6623458234
 40
0.7215109184
 40
0.7795010713
 40
0.808065326
 40
0.8363400121
 40
0.8643245714
 40
0.8920190073
 40
0.9465535897
 40
1.0
 40
1.0
 40
1.0
 40
1.0
 10
13.2839654582
 20
16.6558825502
 30
0.0
 10
13.2854473518
 20
16.646223081
 30
0.0
 10
13.2877030531
 20
16.6269833419
 30
0.0
 10
13.2890066258
 20
16.5982474679
 30
0.0
 10
13.288396745
 20
16.5746363773
 30
0.0
 10
13.2869190789
 20
16.5560944414
 30
0.0
 10
13.2853390106
 20
16.5424428728
 30
0.0
 10
13.2832912349
 20
16.5289944428
 30
0.0
 10
13.2799698892
 20
16.5114438065
 30
0.0
 10
13.2747287522
 20
16.4900667018
 30
0.0
 10
13.2667505368
 20
16.4653031791
 30
0.0
 10
13.2572256084
 20
16.4416478951
 30
0.0
 10
13.2462629837
 20
16.4191917496
 30
0.0
 10
13.2339678039
 20
16.3980170741
 30
0.0
 10
13.2204699225
 20
16.3781814599
 30
0.0
 10
13.2082596514
 20
16.3627276295
 30
0.0
 10
13.1980064006
 20
16.3510918356
 30
0.0
 10
13.1901305123
 20
16.3427715829
 30
0.0
 10
13.1820459585
 20
16.3348205845
 30
0.0
 10
13.1710648547
 20
16.3247710663
 30
0.0
 10
13.1568951047
 20
16.3131318547
 30
0.0
 10
13.1449861674
 20
16.3046936431
 30
0.0
 10
13.1389518317
 20
16.3007345613
 30
0.0
 11
13.2839654582
 21
16.6558825502
 31
0.0
 11
13.2873741449
 21
16.6267639472
 31
0.0
 11
13.2886707606
 21
16.5980552149
 31
0.0
 11
13.2879363075
 21
16.5698913942
 31
0.0
 11
13.2868327433
 21
16.556056026
 31
0.0
 11
13.2852517878
 21
16.542407526
 31
0.0
 11
13.283203618
 21
16.5289626996
 31
0.0
 11
13.2807000121
 21
16.5157360459
 31
0.0
 11
13.2743811727
 21
16.4899843507
 31
0.0
 11
13.2664051575
 21
16.4652458703
 31
0.0
 11
13.2568819594
 21
16.4416138827
 31
0.0
 11
13.245921573
 21
16.4191816615
 31
0.0
 11
13.2336367331
 21
16.3980326686
 31
0.0
 11
13.2201486892
 21
16.3782198781
 31
0.0
 11
13.20558034
 21
16.3597903601
 31
0.0
 11
13.1979294569
 21
16.3511090375
 31
0.0
 11
13.1900545844
 21
16.3427911843
 31
0.0
 11
13.181971085
 21
16.334842684
 31
0.0
 11
13.1736942593
 21
16.3272687319
 31
0.0
 11
13.1566203705
 21
16.3132489754
 31
0.0
 11
13.1389518317
 21
16.3007345613
 31
0.0
  0
SPLINE
  5
352
100
AcDbEntity
  8
0
100
AcDbSpline
 62
6
  6
CONTINUOUS
 70
0
 71
3
 72
27
 73
23
 74
21
 42
0.0000001
 43
0.0000001
 44
0.0000000001
 12
0.3998070907
 22
-0.0653136712
 32
0.0
 13
0.1066824663
 23
-0.3908074165
 33
0.0
 40
0.0
 40
0.0
 40
0.0
 40
0.0
 40
0.0723696376
 40
0.1433089359
 40
0.2128545222
 40
0.2471153837
 40
0.2810317634
 40
0.3146030015
 40
0.347832543
 40
0.4132859098
 40
0.4774479504
 40
0.5403416251
 40
0.6019714597
 40
0.6623458234
 40
0.7215109184
 40
0.7795010713
 40
0.808065326
 40
0.8363400121
 40
0.8643245714
 40
0.8920190073
 40
0.9465535897
 40
1.0
 40
1.0
 40
1.0
 40
1.0
 10
12.8720087349
 20
16.8821681089
 30
0.0
 10
12.8816533663
 20
16.8805925333
 30
0.0
 10
12.9006484957
 20
16.8767924264
 30
0.0
 10
12.9283807619
 20
16.8691523242
 30
0.0
 10
12.95064778
 20
16.8612760649
 30
0.0
 10
12.967825585
 20
16.8541409476
 30
0.0
 10
12.9803207304
 20
16.8484196467
 30
0.0
 10
12.9924781498
 20
16.8423163028
 30
0.0
 10
13.0081434446
 20
16.8337340705
 30
0.0
 10
13.0268546789
 20
16.8221435643
 30
0.0
 10
13.0479407844
 20
16.8069034812
 30
0.0
 10
13.0674949317
 20
16.7905348513
 30
0.0
 10
13.0854643578
 20
16.773169445
 30
0.0
 10
13.1018032514
 20
16.7549326995
 30
0.0
 10
13.1164969668
 20
16.7359659096
 30
0.0
 10
13.1274212517
 20
16.7195777555
 30
0.0
 10
13.1353191205
 20
16.7062306764
 30
0.0
 10
13.1407983677
 20
16.6961691621
 30
0.0
 10
13.145861952
 20
16.6860233008
 30
0.0
 10
13.1520262641
 20
16.6724741786
 30
0.0
 10
13.1587171186
 20
16.6554012314
 30
0.0
 10
13.1630622707
 20
16.6414676082
 30
0.0
 10
13.164962869
 20
16.6345051903
 30
0.0
 11
12.8720087349
 21
16.8821681089
 31
0.0
 11
12.9007555141
 21
16.8764118194
 31
0.0
 11
12.9284598173
 21
16.868773488
 31
0.0
 11
12.9550182441
 21
16.8593718824
 31
0.0
 11
12.9678354411
 21
16.8540469666
 31
0.0
 11
12.9803273938
 21
16.8483257701
 31
0.0
 11
12.9924812643
 21
16.842223165
 31
0.0
 11
13.0042869027
 21
16.8357548335
 31
0.0
 11
13.0268255915
 21
16.8217875487
 31
0.0
 11
13.0478885602
 21
16.8065572965
 31
0.0
 11
13.0674210859
 21
16.7901975112
 31
0.0
 11
13.0853684504
 21
16.7728416268
 31
0.0
 11
13.1016861137
 21
16.7546226514
 31
0.0
 11
13.1163611623
 21
16.7356722704
 31
0.0
 11
13.1293868081
 21
16.7161219128
 31
0.0
 11
13.1352789836
 21
16.7061628143
 31
0.0
 11
13.1407562627
 21
16.6961030075
 31
0.0
 11
13.1458177969
 21
16.6859589211
 31
0.0
 11
13.1504633736
 21
16.6757467121
 31
0.0
 11
13.1585208327
 21
16.6551761359
 31
0.0
 11
13.164962869
 21
16.6345051903
 31
0.0
  0
SPLINE
  5
353
100
AcDbEntity
  8
0
100
AcDbSpline
 62
6
  6
CONTINUOUS
 70
0
 71
3
 72
27
 73
23
 74
21
 42
0.0000001
 43
0.0000001
 44
0.0000000001
 12
0.1856641781
 22
0.3600561045
 32
0.0
 13
0.4046466351
 23
-0.0193050784
 33
0.0
 40
0.0
 40
0.0
 40
0.0
 40
0.0
 40
0.0723696376
 40
0.1433089359
 40
0.2128545222
 40
0.2471153837
 40
0.2810317634
 40
0.3146030015
 40
0.347832543
 40
0.4132859098
 40
0.4774479504
 40
0.5403416251
 40
0.6019714597
 40
0.6623458234
 40
0.7215109184
 40
0.7795010713
 40
0.808065326
 40
0.8363400121
 40
0.8643245714
 40
0.8920190073
 40
0.9465535897
 40
1.0
 40
1.0
 40
1.0
 40
1.0
 10
12.5294967513
 20
16.5603000659
 30
0.0
 10
12.5339755677
 20
16.5689857759
 30
0.0
 10
12.543459502
 20
16.5858769198
 30
0.0
 10
12.5592954125
 20
16.6098909509
 30
0.0
 10
12.5736670673
 20
16.6286342456
 30
0.0
 10
12.5857612007
 20
16.6427664364
 30
0.0
 10
12.5950636935
 20
16.6528820466
 30
0.0
 10
12.6046251677
 20
16.6625584027
 30
0.0
 10
12.617628198
 20
16.6748049277
 30
0.0
 10
12.6344335137
 20
16.6890187056
 30
0.0
 10
12.6554436591
 20
16.7043633389
 30
0.0
 10
12.677053715
 20
16.7179022534
 30
0.0
 10
12.6991220558
 20
16.7296259875
 30
0.0
 10
12.7215152273
 20
16.7395297344
 30
0.0
 10
12.7440943242
 20
16.7476432278
 30
0.0
 10
12.7630561747
 20
16.752968622
 30
0.0
 10
12.7781905769
 20
16.7563554674
 30
0.0
 10
12.7894528261
 20
16.7584573622
 30
0.0
 10
12.8006668472
 20
16.7601378735
 30
0.0
 10
12.8154577054
 20
16.7618135737
 30
0.0
 10
12.8337626308
 20
16.7629011236
 30
0.0
 10
12.8483570198
 20
16.7627278825
 30
0.0
 10
12.8555659899
 20
16.7623839534
 30
0.0
 11
12.5294967513
 21
16.5603000659
 31
0.0
 11
12.5438545513
 21
16.5858610863
 31
0.0
 11
12.5596801366
 21
16.6098490702
 31
0.0
 11
12.5768286001
 21
16.6322023791
 31
0.0
 11
12.5858536277
 21
16.6427467684
 31
0.0
 11
12.5951550346
 21
16.6528593744
 31
0.0
 11
12.6047147094
 21
16.6625325835
 31
0.0
 11
12.6145146011
 21
16.6717615885
 31
0.0
 11
12.6347631162
 21
16.688881027
 31
0.0
 11
12.6557567621
 21
16.7042066939
 31
0.0
 11
12.6773517249
 21
16.717727778
 31
0.0
 11
12.6994041925
 21
16.7294334728
 31
0.0
 11
12.721773903
 21
16.7393225197
 31
0.0
 11
12.7443316258
 21
16.7474233306
 31
0.0
 11
12.7669502667
 21
16.7537700632
 31
0.0
 11
12.7782427146
 21
16.7562963243
 31
0.0
 11
12.7895027317
 21
16.7583968751
 31
0.0
 11
12.8007144313
 21
16.7600759851
 31
0.0
 11
12.8118623814
 21
16.761338445
 31
0.0
 11
12.8339160536
 21
16.7626448863
 31
0.0
 11
12.8555659899
 21
16.7623839534
 31
0.0
  0
SPLINE
  5
354
100
AcDbEntity
  8
0
100
AcDbSpline
 62
7
  6
CONTINUOUS
 70
0
 71
3
 72
37
 73
33
 74
31
 42
0.0000001
 43
0.0000001
 44
0.0000000001
 12
-0.0072466061
 22
0.1671739521
 32
0.0
 13
-0.1034997809
 23
-0.1314817056
 33
0.0
 40
0.0
 40
0.0
 40
0.0
 40
0.0
 40
0.0624711715
 40
0.1249412036
 40
0.1561964655
 40
0.1874520117
 40
0.2187066807
 40
0.2499607864
 40
0.2812151497
 40
0.3124693431
 40
0.3437234395
 40
0.3749770016
 40
0.4062302235
 40
0.4374830553
 40
0.4687358456
 40
0.4999887002
 40
0.5312416541
 40
0.5624944968
 40
0.5937469796
 40
0.6249990011
 40
0.6562504532
 40
0.6875016598
 40
0.7187525581
 40
0.7500034911
 40
0.7812538276
 40
0.8125038062
 40
0.8437538072
 40
0.8750034246
 40
0.9062508202
 40
0.9375006987
 40
0.968758469
 40
1.0
 40
1.0
 40
1.0
 40
1.0
 10
12.9949999063
 20
14.8205204365
 30
0.0
 10
12.9948490049
 20
14.8240016207
 30
0.0
 10
12.9940445708
 20
14.8309520039
 30
0.0
 10
12.9917944661
 20
14.8394017513
 30
0.0
 10
12.9892744181
 20
14.8459070245
 30
0.0
 10
12.9870324125
 20
14.8506374258
 30
0.0
 10
12.9844493795
 20
14.8551902828
 30
0.0
 10
12.9815388004
 20
14.8595410655
 30
0.0
 10
12.9783149247
 20
14.8636650584
 30
0.0
 10
12.9747948112
 20
14.8675393115
 30
0.0
 10
12.9709965243
 20
14.8711412477
 30
0.0
 10
12.9669405339
 20
14.8744502653
 30
0.0
 10
12.9626484555
 20
14.8774466595
 30
0.0
 10
12.9581437234
 20
14.8801126564
 30
0.0
 10
12.9534510965
 20
14.8824320546
 30
0.0
 10
12.9485966064
 20
14.8843902808
 30
0.0
 10
12.9436076842
 20
14.8859751563
 30
0.0
 10
12.9385126011
 20
14.8871757427
 30
0.0
 10
12.9333408119
 20
14.8879842862
 30
0.0
 10
12.9281223026
 20
14.8883939762
 30
0.0
 10
12.9228877752
 20
14.8884017568
 30
0.0
 10
12.9176682996
 20
14.8880053411
 30
0.0
 10
12.9124951052
 20
14.8872064614
 30
0.0
 10
12.9073997092
 20
14.8860077054
 30
0.0
 10
12.9024132157
 20
14.8844156121
 30
0.0
 10
12.8975667033
 20
14.8824379456
 30
0.0
 10
12.8928905006
 20
14.8800857393
 30
0.0
 10
12.8884143862
 20
14.8773722229
 30
0.0
 10
12.8841670235
 20
14.8743130228
 30
0.0
 10
12.880175597
 20
14.8709257393
 30
0.0
 10
12.8764678823
 20
14.8672309831
 30
0.0
 10
12.8742001701
 20
14.8645775493
 30
0.0
 10
12.8731223396
 20
14.8632083194
 30
0.0
 11
12.9949999063
 21
14.8205204365
 31
0.0
 11
12.993795704
 21
14.8309042041
 31
0.0
 11
12.9911050541
 21
14.841005152
 31
0.0
 11
12.9892158626
 21
14.8458819919
 31
0.0
 11
12.9869755468
 21
14.8506078879
 31
0.0
 11
12.9843947665
 21
14.8551566401
 31
0.0
 11
12.9814865902
 21
14.8595032592
 31
0.0
 11
12.9782655455
 21
14.8636234423
 31
0.0
 11
12.9747484399
 21
14.8674939344
 31
0.0
 11
12.9709535445
 21
14.8710924536
 31
0.0
 11
12.9669011614
 21
14.87439818
 31
0.0
 11
12.962612989
 21
14.877391609
 31
0.0
 11
12.9581124026
 21
14.8800548928
 31
0.0
 11
12.9534241236
 21
14.8823718574
 31
0.0
 11
12.9485742067
 21
14.8843280536
 31
0.0
 11
12.9435899814
 21
14.8859111105
 31
0.0
 11
12.9384997885
 21
14.8871104076
 31
0.0
 11
12.9333329868
 21
14.887917815
 31
0.0
 11
12.9281195893
 21
14.8883269931
 31
0.0
 11
12.9228902597
 21
14.88833439
 31
0.0
 11
12.9176759913
 21
14.8879382614
 31
0.0
 11
12.9125080656
 21
14.8871398141
 31
0.0
 11
12.9074178194
 21
14.8859421379
 31
0.0
 11
12.9024365189
 21
14.8843513403
 31
0.0
 11
12.8975950833
 21
14.8823755201
 31
0.0
 11
12.8929238093
 21
14.8800254982
 31
0.0
 11
12.8884524066
 21
14.8773145408
 31
0.0
 11
12.884209846
 21
14.8742584773
 31
0.0
 11
12.8802231709
 21
14.8708747499
 31
0.0
 11
12.8765182895
 21
14.8671827511
 31
0.0
 11
12.8731223396
 21
14.8632083194
 31
0.0
  0
SPLINE
  5
355
100
AcDbEntity
  8
0
100
AcDbSpline
 62
7
  6
CONTINUOUS
 70
0
 71
3
 72
11
 73
7
 74
5
 42
0.0000001
 43
0.0000001
 44
0.0000000001
 12
0.0212289714
 22
0.0363187336
 32
0.0
 13
-0.0018218417
 23
0.042028568
 33
0.0
 40
0.0
 40
0.0
 40
0.0
 40
0.0
 40
0.250005323
 40
0.5000099962
 40
0.7500079519
 40
1.0
 40
1.0
 40
1.0
 40
1.0
 10
12.9849668818
 20
14.7802187294
 30
0.0
 10
12.9867360004
 20
14.783245355
 30
0.0
 10
12.9898504481
 20
14.789558045
 30
0.0
 10
12.9931299635
 20
14.799587067
 30
0.0
 10
12.9949472812
 20
14.8099811604
 30
0.0
 10
12.9951517216
 20
14.8170181673
 30
0.0
 10
12.9949999063
 20
14.8205204365
 30
0.0
 11
12.9849668818
 21
14.7802187294
 31
0.0
 11
12.9896184306
 21
14.7896514003
 31
0.0
 11
12.9928862934
 21
14.799648034
 31
0.0
 11
12.9946955173
 21
14.8100081681
 31
0.0
 11
12.9949999063
 21
14.8205204365
 31
0.0
  0
SPLINE
  5
356
100
AcDbEntity
  8
0
100
AcDbSpline
 62
6
  6
CONTINUOUS
 70
0
 71
3
 72
13
 73
9
 74
7
 42
0.0000001
 43
0.0000001
 44
0.0000000001
 12
-0.0323639386
 22
-0.1410478102
 32
0.0
 13
0.0046731967
 23
-0.1446377216
 33
0.0
 40
0.0
 40
0.0
 40
0.0
 40
0.0
 40
0.2498944928
 40
0.4998801539
 40
0.624905167
 40
0.7499344693
 40
0.874965975
 40
1.0
 40
1.0
 40
1.0
 40
1.0
 10
12.3428238266
 20
16.6109113211
 30
0.0
 10
12.3401279699
 20
16.5991622975
 30
0.0
 10
12.335482619
 20
16.5754817399
 30
0.0
 10
12.3315760426
 20
16.5455702904
 30
0.0
 10
12.3296082599
 20
16.5215263288
 30
0.0
 10
12.3287158394
 20
16.5034517262
 30
0.0
 10
12.3284116801
 20
16.4853575245
 30
0.0
 10
12.3286045631
 20
16.4732939143
 30
0.0
 10
12.3287993327
 20
16.4672657021
 30
0.0
 11
12.3428238266
 21
16.6109113211
 31
0.0
 11
12.3358634188
 21
16.575424457
 31
0.0
 11
12.3311808361
 21
16.5395525654
 31
0.0
 11
12.329705545
 21
16.5215200443
 31
0.0
 11
12.328813889
 21
16.5034486383
 31
0.0
 11
12.3285105946
 21
16.4853574716
 31
0.0
 11
12.3287993327
 21
16.4672657021
 31
0.0
  0
LINE
  5
357
100
AcDbEntity
  8
0
100
AcDbLine
 62
6
  6
CONTINUOUS
 10
20.932257781
 20
17.299922754
 11
20.9321485282
 21
17.3000583185
  0
SPLINE
  5
358
100
AcDbEntity
  8
0
100
AcDbSpline
 62
6
  6
CONTINUOUS
 70
0
 71
3
 72
16
 73
12
 74
10
 42
0.0000001
 43
0.0000001
 44
0.0000000001
 12
-0.0733722499
 22
0.0910005026
 32
0.0
 13
-0.0770854973
 23
0.0878772134
 33
0.0
 40
0.0
 40
0.0
 40
0.0
 40
0.0
 40
0.031376862
 40
0.1006051255
 40
0.2019718768
 40
0.3291224313
 40
0.4005870966
 40
0.4764536045
 40
0.6395391584
 40
0.8149444067
 40
1.0
 40
1.0
 40
1.0
 40
1.0
 10
20.9321485282
 20
17.3000583185
 30
0.0
 10
20.9313811312
 20
17.3010100886
 30
0.0
 10
20.9289190495
 20
17.304060553
 30
0.0
 10
20.9239621813
 20
17.3101732097
 30
0.0
 10
20.916622047
 20
17.3191578093
 30
0.0
 10
20.9091820328
 20
17.328173187
 30
0.0
 10
20.9023402486
 20
17.3363937912
 30
0.0
 10
20.8945734406
 20
17.3456661686
 30
0.0
 10
20.8841451479
 20
17.3579922663
 30
0.0
 10
20.8708600172
 20
17.3734737213
 30
0.0
 10
20.8616368506
 20
17.3840667132
 30
0.0
 10
20.8568818165
 20
17.3894874365
 30
0.0
 11
20.9321485282
 21
17.3000583185
 31
0.0
 11
20.929844695
 21
17.3029123038
 31
0.0
 11
20.9247478456
 21
17.3091980286
 31
0.0
 11
20.9172509717
 21
17.3183742701
 31
0.0
 11
20.9077907903
 21
17.3298382925
 31
0.0
 11
20.9024466977
 21
17.3362592261
 31
0.0
 11
20.8967521759
 21
17.3430579028
 31
0.0
 11
20.8844388685
 21
17.3576118666
 31
0.0
 11
20.8710868121
 21
17.3731727371
 31
0.0
 11
20.8568818165
 21
17.3894874365
 31
0.0
  0
SPLINE
  5
359
100
AcDbEntity
  8
0
100
AcDbSpline
 62
6
  6
CONTINUOUS
 70
0
 71
3
 72
16
 73
12
 74
10
 42
0.0000001
 43
0.0000001
 44
0.0000000001
 12
-0.0001108785
 22
-0.0656200971
 32
0.0
 13
0.0
 23
-0.0656201908
 33
0.0
 40
0.0
 40
0.0
 40
0.0
 40
0.0
 40
0.1145198869
 40
0.2332200557
 40
0.3555310056
 40
0.4808741159
 40
0.544501568
 40
0.6086652639
 40
0.7382524001
 40
0.8689317863
 40
1.0
 40
1.0
 40
1.0
 40
1.0
 10
21.2837306024
 20
18.0651012334
 30
0.0
 10
21.2837263698
 20
18.062596298
 30
0.0
 10
21.2836853919
 20
18.0574950448
 30
0.0
 10
21.2835662206
 20
18.0497192641
 30
0.0
 10
21.2834123303
 20
18.0417073223
 30
0.0
 10
21.28327675
 20
18.0348998888
 30
0.0
 10
21.283175703
 20
18.0293639021
 30
0.0
 10
21.2830827342
 20
18.0237349304
 30
0.0
 10
21.2829859202
 20
18.0166391766
 30
0.0
 10
21.2829093834
 20
18.0080796647
 30
0.0
 10
21.2828903771
 20
18.0023543436
 30
0.0
 10
21.2828903771
 20
17.9994874365
 30
0.0
 11
21.2837306024
 21
18.0651012334
 31
0.0
 11
21.2836771578
 21
18.0575866066
 31
0.0
 11
21.2835624695
 21
18.0497983233
 31
0.0
 11
21.2834126679
 21
18.0417736535
 31
0.0
 11
21.2832528933
 21
18.0335501667
 31
0.0
 11
21.2831771199
 21
18.0293756088
 31
0.0
 11
21.2831077006
 21
18.0251657471
 31
0.0
 11
21.2829928811
 21
18.0166629898
 31
0.0
 11
21.2829174821
 21
18.008088115
 31
0.0
 11
21.2828903771
 21
17.9994874365
 31
0.0
  0
LINE
  5
35A
100
AcDbEntity
  8
0
100
AcDbLine
 62
6
  6
CONTINUOUS
 10
20.932258957
 20
18.1358483293
 11
20.9316474148
 21
18.1355040041
  0
SPLINE
  5
35B
100
AcDbEntity
  8
0
100
AcDbSpline
 62
6
  6
CONTINUOUS
 70
0
 71
3
 72
8
 73
4
 74
2
 42
0.0000001
 43
0.0000001
 44
0.0000000001
 12
-0.0000521377
 22
-0.0000293536
 32
0.0
 13
-0.0000521377
 23
-0.0000293536
 33
0.0
 40
0.0
 40
0.0
 40
0.0
 40
0.0
 40
1.0
 40
1.0
 40
1.0
 40
1.0
 10
20.9316474148
 20
18.1355040041
 30
0.0
 10
20.9316300355
 20
18.1354942196
 30
0.0
 10
20.9316126563
 20
18.1354844351
 30
0.0
 10
20.931595277
 20
18.1354746506
 30
0.0
 11
20.9316474148
 21
18.1355040041
 31
0.0
 11
20.931595277
 21
18.1354746506
 31
0.0
  0
SPLINE
  5
35C
100
AcDbEntity
  8
0
100
AcDbSpline
 62
6
  6
CONTINUOUS
 70
0
 71
3
 72
37
 73
33
 74
31
 42
0.0000001
 43
0.0000001
 44
0.0000000001
 12
-0.1414719693
 22
-0.0796555353
 32
0.0
 13
0.0
 23
-0.1623555432
 33
0.0
 40
0.0
 40
0.0
 40
0.0
 40
0.0
 40
0.0051699649
 40
0.0122478091
 40
0.0212443183
 40
0.0321716523
 40
0.0450426064
 40
0.0598646238
 40
0.0953943418
 40
0.1161335071
 40
0.1388576581
 40
0.1635376715
 40
0.1901510039
 40
0.2490957639
 40
0.2813114326
 40
0.3152357485
 40
0.3507928775
 40
0.3878902722
 40
0.4263912597
 40
0.4661629421
 40
0.4864879034
 40
0.5070855742
 40
0.5490312333
 40
0.5918697718
 40
0.6354742858
 40
0.6797271318
 40
0.7245296751
 40
0.7697941693
 40
0.8154369915
 40
0.907498144
 40
0.9537463099
 40
1.0
 40
1.0
 40
1.0
 40
1.0
 10
20.931595277
 20
18.1354746506
 30
0.0
 10
20.9313514753
 20
18.1353373784
 30
0.0
 10
20.9307744508
 20
18.1350111931
 30
0.0
 10
20.9297791029
 20
18.1344357154
 30
0.0
 10
20.928522892
 20
18.133689105
 30
0.0
 10
20.9270095426
 20
18.1327618002
 30
0.0
 10
20.9252426357
 20
18.1316451886
 30
0.0
 10
20.9223825382
 20
18.1297669686
 30
0.0
 10
20.9192370937
 20
18.1275488061
 30
0.0
 10
20.9158298951
 20
18.1249663081
 30
0.0
 10
20.9129487992
 20
18.1226635473
 30
0.0
 10
20.9098914022
 20
18.1200745338
 30
0.0
 10
20.9054566447
 20
18.1160828202
 30
0.0
 10
20.9009318472
 20
18.1115858409
 30
0.0
 10
20.896375441
 20
18.1065780456
 30
0.0
 10
20.8928195638
 20
18.1023755464
 30
0.0
 10
20.8892612249
 20
18.0978343128
 30
0.0
 10
20.8857366095
 20
18.0929575556
 30
0.0
 10
20.882279217
 20
18.0877566473
 30
0.0
 10
20.8795048847
 20
18.0831967473
 30
0.0
 10
20.8773507805
 20
18.0793976124
 30
0.0
 10
20.8752214376
 20
18.0754503199
 30
0.0
 10
20.8726737866
 20
18.0703458222
 30
0.0
 10
20.8698349626
 20
18.064001787
 30
0.0
 10
20.867223195
 20
18.0574261992
 30
0.0
 10
20.8648668459
 20
18.0506420833
 30
0.0
 10
20.8627853697
 20
18.0436748724
 30
0.0
 10
20.8609934944
 20
18.0365497853
 30
0.0
 10
20.8590058716
 20
18.0268467961
 30
0.0
 10
20.8576708084
 20
18.0169652559
 30
0.0
 10
20.8569958012
 20
18.0069975489
 30
0.0
 10
20.8568818165
 20
18.0019906175
 30
0.0
 10
20.8568818165
 20
17.9994874365
 30
0.0
 11
20.931595277
 21
18.1354746506
 31
0.0
 11
20.9308649032
 21
18.135061008
 31
0.0
 11
20.9298700224
 21
18.1344859379
 31
0.0
 11
20.9286142537
 21
18.1337399525
 31
0.0
 11
20.9271012164
 21
18.132813564
 31
0.0
 11
20.9253349626
 21
18.1316968404
 31
0.0
 11
20.9233236558
 21
18.1303756355
 31
0.0
 11
20.918607638
 21
18.1270538659
 31
0.0
 11
20.9159239542
 21
18.1250203154
 31
0.0
 11
20.9130420979
 21
18.1227167276
 31
0.0
 11
20.909984056
 21
18.1201275339
 31
0.0
 11
20.9067722818
 21
18.1172372035
 31
0.0
 11
20.8999808868
 21
18.1104946508
 31
0.0
 11
20.8964606096
 21
18.1066262335
 31
0.0
 11
20.8929028005
 21
18.1024217284
 31
0.0
 11
20.8893418504
 21
18.0978779442
 31
0.0
 11
20.8858128099
 21
18.0929971643
 31
0.0
 11
20.8823519521
 21
18.0877918235
 31
0.0
 11
20.8789956831
 21
18.0822754583
 31
0.0
 11
20.8773681462
 21
18.0794048719
 31
0.0
 11
20.8757802966
 21
18.0764617364
 31
0.0
 11
20.8727382097
 21
18.0703688464
 31
0.0
 11
20.8698970674
 21
18.0640205421
 31
0.0
 11
20.8672842211
 21
18.0574409199
 31
0.0
 11
20.864926437
 21
18.0506541169
 31
0.0
 11
20.862843624
 21
18.0436847474
 31
0.0
 11
20.8610512406
 21
18.0365577352
 31
0.0
 11
20.8595646697
 21
18.0292980094
 31
0.0
 11
20.857558933
 21
18.0144865604
 31
0.0
 11
20.8570518959
 21
18.0069950532
 31
0.0
 11
20.8568818165
 21
17.9994874365
 31
0.0
  0
SPLINE
  5
35D
100
AcDbEntity
  8
0
100
AcDbSpline
 62
6
  6
CONTINUOUS
 70
0
 71
3
 72
8
 73
4
 74
2
 42
0.0000001
 43
0.0000001
 44
0.0000000001
 12
0.0000755323
 22
-0.0000425406
 32
0.0
 13
0.0000755323
 23
-0.0000425406
 33
0.0
 40
0.0
 40
0.0
 40
0.0
 40
0.0
 40
1.0
 40
1.0
 40
1.0
 40
1.0
 10
22.9122598843
 20
18.1358483293
 30
0.0
 10
22.9122850617
 20
18.1358341491
 30
0.0
 10
22.9123102392
 20
18.1358199689
 30
0.0
 10
22.9123354166
 20
18.1358057887
 30
0.0
 11
22.9122598843
 21
18.1358483293
 31
0.0
 11
22.9123354166
 21
18.1358057887
 31
0.0
  0
SPLINE
  5
35E
100
AcDbEntity
  8
0
100
AcDbSpline
 62
7
  6
CONTINUOUS
 70
0
 71
3
 72
15
 73
11
 74
9
 42
0.0000001
 43
0.0000001
 44
0.0000000001
 12
0.0
 22
-0.0125005357
 32
0.0
 13
0.0066856637
 23
-0.0105624474
 33
0.0
 40
0.0
 40
0.0
 40
0.0
 40
0.0
 40
0.1108968953
 40
0.2248111844
 40
0.3426836246
 40
0.4650326242
 40
0.5918803129
 40
0.7231712749
 40
0.8591093944
 40
1.0
 40
1.0
 40
1.0
 40
1.0
 10
4.3495501676
 20
13.8275806369
 30
0.0
 10
4.3495501676
 20
13.8271185467
 30
0.0
 10
4.3495978084
 20
13.8261812557
 30
0.0
 10
4.3498022636
 20
13.824766317
 30
0.0
 10
4.3501343298
 20
13.8233269505
 30
0.0
 10
4.3505886435
 20
13.8218651135
 30
0.0
 10
4.3511627282
 20
13.8203860021
 30
0.0
 10
4.351854702
 20
13.8188957192
 30
0.0
 10
4.3526592842
 20
13.8173966172
 30
0.0
 10
4.3532554231
 20
13.8164085312
 30
0.0
 10
4.3535694055
 20
13.8159124813
 30
0.0
 11
4.3495501676
 21
13.8275806369
 31
0.0
 11
4.3496182145
 21
13.8261960374
 31
0.0
 11
4.3498189957
 21
13.8247862738
 31
0.0
 11
4.3501474835
 21
13.8233498875
 31
0.0
 11
4.3505993626
 21
13.8218887388
 31
0.0
 11
4.3511714278
 21
13.8204098636
 31
0.0
 11
4.3518604425
 21
13.818920293
 31
0.0
 11
4.3526616711
 21
13.8174217434
 31
0.0
 11
4.3535694055
 21
13.8159124813
 31
0.0
  0
SPLINE
  5
35F
100
AcDbEntity
  8
0
100
AcDbSpline
 62
6
  6
CONTINUOUS
 70
0
 71
3
 72
12
 73
8
 74
6
 42
0.0000001
 43
0.0000001
 44
0.0000000001
 12
-0.098070305
 22
0.0526824825
 32
0.0
 13
-0.0783356341
 23
0.0790996657
 33
0.0
 40
0.0
 40
0.0
 40
0.0
 40
0.0
 40
0.2538111234
 40
0.5050935836
 40
0.6297955951
 40
0.7538538325
 40
1.0
 40
1.0
 40
1.0
 40
1.0
 10
12.8188309032
 20
16.0689438702
 30
0.0
 10
12.8105337918
 20
16.0734010035
 30
0.0
 10
12.7943351369
 20
16.0828677827
 30
0.0
 10
12.7750519502
 20
16.0961102291
 30
0.0
 10
12.7603601841
 20
16.1074512219
 30
0.0
 10
12.7462495075
 20
16.1192102165
 30
0.0
 10
12.7361967659
 20
16.1285990903
 30
0.0
 10
12.7297694272
 20
16.1350891168
 30
0.0
 11
12.8188309032
 21
16.0689438702
 31
0.0
 11
12.7944392859
 21
16.083206474
 31
0.0
 11
12.7713840551
 21
16.0990494667
 31
0.0
 11
12.760395606
 21
16.1075333353
 31
0.0
 11
12.7497868793
 21
16.1163759728
 31
0.0
 11
12.7297694272
 21
16.1350891168
 31
0.0
  0
SPLINE
  5
360
100
AcDbEntity
  8
0
100
AcDbSpline
 62
6
  6
CONTINUOUS
 70
0
 71
3
 72
12
 73
8
 74
6
 42
0.0000001
 43
0.0000001
 44
0.0000000001
 12
-0.0938940416
 22
0.0239967221
 32
0.0
 13
-0.0853734445
 23
0.0458618437
 33
0.0
 40
0.0
 40
0.0
 40
0.0
 40
0.0
 40
0.2529919052
 40
0.3787454008
 40
0.5040006432
 40
0.7529947085
 40
1.0
 40
1.0
 40
1.0
 40
1.0
 10
12.9089346589
 20
16.0338777578
 30
0.0
 10
12.9010165147
 20
16.0359014166
 30
0.0
 10
12.8892507484
 20
16.0392935869
 30
0.0
 10
12.8738274737
 20
16.0445145562
 30
0.0
 10
12.858690063
 20
16.0501557564
 30
0.0
 10
12.8402095847
 20
16.0580134507
 30
0.0
 10
12.8258601341
 20
16.0651678308
 30
0.0
 10
12.8188309032
 20
16.0689438702
 30
0.0
 11
12.9089346589
 21
16.0338777578
 31
0.0
 11
12.8853763862
 21
16.0406702247
 31
0.0
 11
12.8738328307
 21
16.044577886
 31
0.0
 11
12.8624583312
 21
16.0488169476
 31
0.0
 11
12.8402525024
 21
16.0582606064
 31
0.0
 11
12.8188309032
 21
16.0689438702
 31
0.0
  0
SPLINE
  5
361
100
AcDbEntity
  8
0
100
AcDbSpline
 62
6
  6
CONTINUOUS
 70
0
 71
3
 72
9
 73
5
 74
3
 42
0.0000001
 43
0.0000001
 44
0.0000000001
 12
-0.099256341
 22
0.0014699599
 32
0.0
 13
-0.0961759327
 23
0.0245799102
 33
0.0
 40
0.0
 40
0.0
 40
0.0
 40
0.0
 40
0.5038474423
 40
1.0
 40
1.0
 40
1.0
 40
1.0
 10
13.0071820247
 20
16.0209373705
 30
0.0
 10
12.9905120069
 20
16.021184249
 30
0.0
 10
12.9574258364
 20
16.0235706404
 30
0.0
 10
12.9248406379
 20
16.0298126292
 30
0.0
 10
12.9089346596
 20
16.0338777576
 30
0.0
 11
13.0071820247
 21
16.0209373705
 31
0.0
 11
12.95729842
 21
16.024567794
 31
0.0
 11
12.9089346596
 21
16.0338777576
 31
0.0
  0
SPLINE
  5
362
100
AcDbEntity
  8
0
100
AcDbSpline
 62
6
  6
CONTINUOUS
 70
0
 71
3
 72
12
 73
8
 74
6
 42
0.0000001
 43
0.0000001
 44
0.0000000001
 12
-0.1021829931
 22
-0.049510614
 32
0.0
 13
-0.1111747487
 23
-0.0230833321
 33
0.0
 40
0.0
 40
0.0
 40
0.0
 40
0.0
 40
0.2525787844
 40
0.5034710631
 40
0.6282804903
 40
0.7526467682
 40
1.0
 40
1.0
 40
1.0
 40
1.0
 10
13.2106360807
 20
16.0667820039
 30
0.0
 10
13.2020329953
 20
16.0626135603
 30
0.0
 10
13.1846291775
 20
16.0548199388
 30
0.0
 10
13.1623613026
 20
16.0464332186
 30
0.0
 10
13.1443575169
 20
16.0405853294
 30
0.0
 10
13.1263109893
 20
16.035334147
 30
0.0
 10
13.1126217799
 20
16.0320345402
 30
0.0
 10
13.1034553021
 20
16.0301312946
 30
0.0
 11
13.2106360807
 21
16.0667820039
 31
0.0
 11
13.1844600174
 21
16.055063868
 31
0.0
 11
13.1577987593
 21
16.0450273811
 31
0.0
 11
13.1443201387
 21
16.040650065
 31
0.0
 11
13.130760967
 21
16.036705532
 31
0.0
 11
13.1034553021
 21
16.0301312946
 31
0.0
  0
SPLINE
  5
363
100
AcDbEntity
  8
0
100
AcDbSpline
 62
6
  6
CONTINUOUS
 70
0
 71
3
 72
11
 73
7
 74
5
 42
0.0000001
 43
0.0000001
 44
0.0000000001
 12
-0.0901063867
 22
-0.1556977459
 32
0.0
 13
-0.1392369224
 23
-0.1139035928
 33
0.0
 40
0.0
 40
0.0
 40
0.0
 40
0.0
 40
0.2529058245
 40
0.5039518694
 40
0.7530286598
 40
1.0
 40
1.0
 40
1.0
 40
1.0
 10
13.4207708615
 20
16.2635535387
 30
0.0
 10
13.4131747182
 20
16.2504279165
 30
0.0
 10
13.3968488096
 20
16.2249414566
 30
0.0
 10
13.3691516344
 20
16.1892058033
 30
0.0
 10
13.3386156981
 20
16.1563476773
 30
0.0
 10
13.3164497746
 20
16.1364398652
 30
0.0
 10
13.3049872648
 20
16.1270628909
 30
0.0
 11
13.4207708615
 21
16.2635535387
 31
0.0
 11
13.3962319843
 21
16.2252430482
 31
0.0
 11
13.3685635526
 21
16.1895502182
 31
0.0
 11
13.3380528762
 21
16.1567363864
 31
0.0
 11
13.3049872648
 21
16.1270628909
 31
0.0
  0
SPLINE
  5
364
100
AcDbEntity
  8
0
100
AcDbSpline
 62
6
  6
CONTINUOUS
 70
0
 71
3
 72
13
 73
9
 74
7
 42
0.0000001
 43
0.0000001
 44
0.0000000001
 12
-0.0352078276
 22
-0.1353938621
 32
0.0
 13
-0.0700732799
 23
-0.1210818915
 33
0.0
 40
0.0
 40
0.0
 40
0.0
 40
0.0
 40
0.2518734554
 40
0.5025331375
 40
0.6274008607
 40
0.7519378679
 40
0.8761383569
 40
1.0
 40
1.0
 40
1.0
 40
1.0
 10
13.4735573054
 20
16.3926684052
 30
0.0
 10
13.470601333
 20
16.3813010319
 30
0.0
 10
13.4639494994
 20
16.3588098956
 30
0.0
 10
13.4537916733
 20
16.3313483953
 30
0.0
 10
13.4446051615
 20
16.3099109011
 30
0.0
 10
13.4372024701
 20
16.2941358903
 30
0.0
 10
13.4292865829
 20
16.2786650817
 30
0.0
 10
13.4236639921
 20
16.2685526727
 30
0.0
 10
13.4207708615
 20
16.2635535387
 30
0.0
 11
13.4735573054
 21
16.3926684052
 31
0.0
 11
13.4635605526
 21
16.3588799534
 31
0.0
 11
13.4513902648
 21
16.3259931624
 31
0.0
 11
13.4445088401
 21
16.3099370919
 31
0.0
 11
13.4371065853
 21
16.2941654791
 31
0.0
 11
13.4291910186
 21
16.2786980051
 31
0.0
 11
13.4207708615
 21
16.2635535387
 31
0.0
  0
SPLINE
  5
365
100
AcDbEntity
  8
0
100
AcDbSpline
 62
6
  6
CONTINUOUS
 70
0
 71
3
 72
13
 73
9
 74
7
 42
0.0000001
 43
0.0000001
 44
0.0000000001
 12
-0.0003939203
 22
-0.1332892771
 32
0.0
 13
-0.0335450808
 23
-0.1289996671
 33
0.0
 40
0.0
 40
0.0
 40
0.0
 40
0.0
 40
0.1258322773
 40
0.2514287115
 40
0.3767926143
 40
0.5019244745
 40
0.751451267
 40
1.0
 40
1.0
 40
1.0
 40
1.0
 10
13.4906599601
 20
16.5245169886
 30
0.0
 10
13.4906434374
 20
16.5189262908
 30
0.0
 10
13.4904319992
 20
16.5077550704
 30
0.0
 10
13.4895816445
 20
16.4910331515
 30
0.0
 10
13.4882050376
 20
16.4743772643
 30
0.0
 10
13.4856786226
 20
16.4523022827
 30
0.0
 10
13.4812392895
 20
16.4249523949
 30
0.0
 10
13.4763365012
 20
16.4033559731
 30
0.0
 10
13.4735573054
 20
16.3926684051
 30
0.0
 11
13.4906599601
 21
16.5245169886
 31
0.0
 11
13.4903426358
 21
16.5077478242
 31
0.0
 11
13.4894929028
 21
16.4910286726
 31
0.0
 11
13.4881168346
 21
16.4743756925
 31
0.0
 11
13.486220598
 21
16.457805028
 31
0.0
 11
13.4808922872
 21
16.4249752215
 31
0.0
 11
13.4735573054
 21
16.3926684051
 31
0.0
  0
SPLINE
  5
366
100
AcDbEntity
  8
0
100
AcDbSpline
 62
6
  6
CONTINUOUS
 70
0
 71
3
 72
13
 73
9
 74
7
 42
0.0000001
 43
0.0000001
 44
0.0000000001
 12
0.0757314425
 22
-0.1013386723
 32
0.0
 13
0.0507581274
 23
-0.115880932
 33
0.0
 40
0.0
 40
0.0
 40
0.0
 40
0.0
 40
0.2506935513
 40
0.5009466007
 40
0.6259047452
 40
0.7507352653
 40
0.8754344236
 40
1.0
 40
1.0
 40
1.0
 40
1.0
 10
13.381206511
 20
16.8531023642
 30
0.0
 10
13.3875349725
 20
16.844634047
 30
0.0
 10
13.3997050063
 20
16.827351044
 30
0.0
 10
13.4136613442
 20
16.8049307784
 30
0.0
 10
13.4240295655
 20
16.7865662865
 30
0.0
 10
13.4313971877
 20
16.7725955162
 30
0.0
 10
13.4383516737
 20
16.7584332502
 30
0.0
 10
13.4427099125
 20
16.7488658943
 30
0.0
 10
13.4448174843
 20
16.7440543026
 30
0.0
 11
13.381206511
 21
16.8531023642
 31
0.0
 11
13.3994652691
 21
16.827170258
 31
0.0
 11
13.416194247
 21
16.8002915314
 31
0.0
 11
13.423965897
 21
16.7865253167
 31
0.0
 11
13.4313320961
 21
16.7725562042
 31
0.0
 11
13.4382851758
 21
16.7583954465
 31
0.0
 11
13.4448174843
 21
16.7440543026
 31
0.0
  0
SPLINE
  5
367
100
AcDbEntity
  8
0
100
AcDbSpline
 62
6
  6
CONTINUOUS
 70
0
 71
3
 72
11
 73
7
 74
5
 42
0.0000001
 43
0.0000001
 44
0.0000000001
 12
0.1858068006
 22
-0.0670798527
 32
0.0
 13
0.1512358671
 23
-0.1270888912
 33
0.0
 40
0.0
 40
0.0
 40
0.0
 40
0.0
 40
0.2502253873
 40
0.5003844286
 40
0.7503518846
 40
1.0
 40
1.0
 40
1.0
 40
1.0
 10
13.1230099574
 20
17.0442934972
 30
0.0
 10
13.138507817
 20
17.0386984698
 30
0.0
 10
13.1690177736
 20
17.0261227362
 30
0.0
 10
13.2129237068
 20
17.0033287976
 30
0.0
 10
13.2546388713
 20
16.9768075236
 30
0.0
 10
13.2807844344
 20
16.956755611
 30
0.0
 10
13.2933696841
 20
16.9461797769
 30
0.0
 11
13.1230099574
 21
17.0442934972
 31
0.0
 11
13.1687140956
 21
17.0254647004
 31
0.0
 11
13.2125749441
 21
17.0026980083
 31
0.0
 11
13.2542432309
 21
16.9762006305
 31
0.0
 11
13.2933696841
 21
16.9461797769
 31
0.0
  0
SPLINE
  5
368
100
AcDbEntity
  8
0
100
AcDbSpline
 62
6
  6
CONTINUOUS
 70
0
 71
3
 72
13
 73
9
 74
7
 42
0.0000001
 43
0.0000001
 44
0.0000000001
 12
0.144145446
 22
-0.0128062357
 32
0.0
 13
0.1361145504
 23
-0.0491399882
 33
0.0
 40
0.0
 40
0.0
 40
0.0
 40
0.0
 40
0.2498944928
 40
0.4998801539
 40
0.624905167
 40
0.7499344693
 40
0.874965975
 40
1.0
 40
1.0
 40
1.0
 40
1.0
 10
12.9820610485
 20
17.0753443483
 30
0.0
 10
12.9940680995
 20
17.0742776124
 30
0.0
 10
13.0180251405
 20
17.0713779089
 30
0.0
 10
13.0476798179
 20
17.0658501377
 30
0.0
 10
13.0711550626
 20
17.0602916175
 30
0.0
 10
13.0886208043
 20
17.0555550005
 30
0.0
 10
13.1059234031
 20
17.0502528573
 30
0.0
 10
13.1173369741
 20
17.0463415541
 30
0.0
 10
13.1230099574
 20
17.0442934972
 30
0.0
 11
12.9820610485
 21
17.0753443483
 31
0.0
 11
13.0179619461
 21
17.0709980454
 31
0.0
 11
13.0535251401
 21
17.064366422
 31
0.0
 11
13.0711309768
 21
17.0601971518
 31
0.0
 11
13.088593442
 21
17.0554607955
 31
0.0
 11
13.1058928871
 21
17.0501587677
 31
0.0
 11
13.1230099574
 21
17.0442934972
 31
0.0
  0
SPLINE
  5
369
100
AcDbEntity
  8
0
100
AcDbSpline
 62
6
  6
CONTINUOUS
 70
0
 71
3
 72
12
 73
8
 74
6
 42
0.0000001
 43
0.0000001
 44
0.0000000001
 12
0.1406808191
 22
0.0236397198
 32
0.0
 13
0.1420935095
 23
-0.0126239366
 33
0.0
 40
0.0
 40
0.0
 40
0.0
 40
0.0
 40
0.1247486031
 40
0.2495791198
 40
0.4994487163
 40
0.7496086102
 40
1.0
 40
1.0
 40
1.0
 40
1.0
 10
12.8398770987
 20
17.0699306862
 30
0.0
 10
12.8457270106
 20
17.0709136935
 30
0.0
 10
12.8574636837
 20
17.0726901331
 30
0.0
 10
12.8810516354
 20
17.0754810569
 30
0.0
 10
12.9107150865
 20
17.0775464133
 30
0.0
 10
12.9464197743
 20
17.0777587042
 30
0.0
 10
12.9702013847
 20
17.07639799
 30
0.0
 10
12.9820610485
 20
17.0753443483
 30
0.0
 11
12.8398770987
 21
17.0699306862
 31
0.0
 11
12.8574724342
 21
17.0725941654
 31
0.0
 11
12.8751564475
 21
17.0746874068
 31
0.0
 11
12.910714715
 21
17.0771680682
 31
0.0
 11
12.9464001692
 21
17.0773834065
 31
0.0
 11
12.9820610485
 21
17.0753443483
 31
0.0
  0
SPLINE
  5
36A
100
AcDbEntity
  8
0
100
AcDbSpline
 62
6
  6
CONTINUOUS
 70
0
 71
3
 72
13
 73
9
 74
7
 42
0.0000001
 43
0.0000001
 44
0.0000000001
 12
0.0981861057
 22
-0.0825092852
 32
0.0
 13
0.0767735861
 23
-0.102733198
 33
0.0
 40
0.0
 40
0.0
 40
0.0
 40
0.0
 40
0.1252547798
 40
0.2504428504
 40
0.3755640345
 40
0.50061643
 40
0.7504740832
 40
1.0
 40
1.0
 40
1.0
 40
1.0
 10
13.2933696841
 20
16.9461797769
 30
0.0
 10
13.2974691105
 20
16.9427348828
 30
0.0
 10
13.3055659705
 20
16.9357271204
 30
0.0
 10
13.3173960488
 20
16.9248691351
 30
0.0
 10
13.3289007288
 20
16.9136790407
 30
0.0
 10
13.3437900543
 20
16.8983372931
 30
0.0
 10
13.361550291
 20
16.8783873979
 30
0.0
 10
13.3748208446
 20
16.8616472294
 30
0.0
 10
13.381206511
 20
16.8531023642
 30
0.0
 11
13.2933696841
 21
16.9461797769
 31
0.0
 11
13.3055160905
 21
16.9356670161
 31
0.0
 11
13.3173449422
 21
16.9248108292
 31
0.0
 11
13.3288482194
 21
16.9136225425
 31
0.0
 11
13.3400180799
 21
16.9021136632
 31
0.0
 11
13.361326182
 21
16.8781801558
 31
0.0
 11
13.381206511
 21
16.8531023642
 31
0.0
  0
SPLINE
  5
36B
100
AcDbEntity
  8
0
100
AcDbSpline
 62
6
  6
CONTINUOUS
 70
0
 71
3
 72
15
 73
11
 74
9
 42
0.0000001
 43
0.0000001
 44
0.0000000001
 12
0.063094171
 22
0.0969134136
 32
0.0
 13
0.0978584426
 23
0.0616182552
 33
0.0
 40
0.0
 40
0.0
 40
0.0
 40
0.0
 40
0.1319898544
 40
0.2619332478
 40
0.3898699696
 40
0.5158191005
 40
0.6397819415
 40
0.7617621105
 40
0.8818169815
 40
1.0
 40
1.0
 40
1.0
 40
1.0
 10
12.6666690835
 20
16.5636796179
 30
0.0
 10
12.6694450136
 20
16.5679434804
 30
0.0
 10
12.6751839581
 20
16.5762578993
 30
0.0
 10
12.684383155
 20
16.5881507048
 30
0.0
 10
12.6940590068
 20
16.5993535155
 30
0.0
 10
12.7041645814
 20
16.6098522538
 30
0.0
 10
12.7146537949
 20
16.6196339748
 30
0.0
 10
12.7254833105
 20
16.6286872098
 30
0.0
 10
12.7366057772
 20
16.6370102458
 30
0.0
 10
12.7442469066
 20
16.6421135485
 30
0.0
 10
12.7481019753
 20
16.644540959
 30
0.0
 11
12.6666690835
 21
16.5636796179
 31
0.0
 11
12.6753409062
 21
16.5762405212
 31
0.0
 11
12.6845361307
 21
16.5881256459
 31
0.0
 11
12.6942081547
 21
16.59932118
 31
0.0
 11
12.7043103758
 21
16.6098133113
 31
0.0
 11
12.7147961914
 21
16.6195882278
 31
0.0
 11
12.7256194599
 21
16.628634616
 31
0.0
 11
12.736735961
 21
16.6369515846
 31
0.0
 11
12.7481019753
 21
16.644540959
 31
0.0
  0
SPLINE
  5
36C
100
AcDbEntity
  8
0
100
AcDbSpline
 62
6
  6
CONTINUOUS
 70
0
 71
3
 72
12
 73
8
 74
6
 42
0.0000001
 43
0.0000001
 44
0.0000000001
 12
0.0222670622
 22
0.0588304696
 32
0.0
 13
0.0343200598
 23
0.052716029
 33
0.0
 40
0.0
 40
0.0
 40
0.0
 40
0.0
 40
0.2557896274
 40
0.5077155653
 40
0.7557826554
 40
0.8783748319
 40
1.0
 40
1.0
 40
1.0
 40
1.0
 10
12.6383371652
 20
16.5076467464
 30
0.0
 10
12.6402357264
 20
16.512662821
 30
0.0
 10
12.6442700643
 20
16.5225210354
 30
0.0
 10
12.6510523954
 20
16.5368512001
 30
0.0
 10
12.6572658054
 20
16.5483399134
 30
0.0
 10
12.6625418348
 20
16.557212906
 30
0.0
 10
12.6652776892
 20
16.5615424193
 30
0.0
 10
12.6666690835
 20
16.5636796179
 30
0.0
 11
12.6383371652
 21
16.5076467464
 31
0.0
 11
12.6444332235
 21
16.5225372779
 31
0.0
 11
12.6512147336
 21
16.5368599524
 31
0.0
 11
12.6586404752
 21
16.5505840888
 31
0.0
 11
12.662582051
 21
16.5572121199
 31
0.0
 11
12.6666690835
 21
16.5636796179
 31
0.0
  0
SPLINE
  5
36D
100
AcDbEntity
  8
0
100
AcDbSpline
 62
6
  6
CONTINUOUS
 70
0
 71
3
 72
12
 73
8
 74
6
 42
0.0000001
 43
0.0000001
 44
0.0000000001
 12
-0.0804094092
 22
-0.0769906202
 32
0.0
 13
-0.0994352947
 23
-0.0500584743
 33
0.0
 40
0.0
 40
0.0
 40
0.0
 40
0.0
 40
0.2538111234
 40
0.5050935836
 40
0.6297955951
 40
0.7538538325
 40
1.0
 40
1.0
 40
1.0
 40
1.0
 10
13.286486109
 20
16.2584248326
 30
0.0
 10
13.2796831749
 20
16.2519111406
 30
0.0
 10
13.2656740732
 20
16.2394307
 30
0.0
 10
13.2471209259
 20
16.2251834406
 30
0.0
 10
13.2317949954
 20
16.2147153002
 30
0.0
 10
13.2162510881
 20
16.2049289785
 30
0.0
 10
13.2042152705
 20
16.1982695747
 30
0.0
 10
13.1960567316
 20
16.1941623408
 30
0.0
 11
13.286486109
 21
16.2584248326
 31
0.0
 11
13.2653841424
 21
16.239634413
 31
0.0
 11
13.2431921028
 21
16.2226033394
 31
0.0
 11
13.2317278468
 21
16.2147743629
 31
0.0
 11
13.220039722
 21
16.2074173895
 31
0.0
 11
13.1960567316
 21
16.1941623408
 31
0.0
  0
SPLINE
  5
36E
100
AcDbEntity
  8
0
100
AcDbSpline
 62
6
  6
CONTINUOUS
 70
0
 71
3
 72
12
 73
8
 74
6
 42
0.0000001
 43
0.0000001
 44
0.0000000001
 12
-0.0518370934
 22
-0.0818831452
 32
0.0
 13
-0.0699990505
 23
-0.0670228816
 33
0.0
 40
0.0
 40
0.0
 40
0.0
 40
0.0
 40
0.2529919052
 40
0.3787454008
 40
0.5040006432
 40
0.7529947085
 40
1.0
 40
1.0
 40
1.0
 40
1.0
 10
13.3476795554
 20
16.3332825719
 30
0.0
 10
13.3433081004
 20
16.3263773143
 30
0.0
 10
13.3364461331
 20
16.3162356438
 30
0.0
 10
13.3267146422
 20
16.3031806062
 30
0.0
 10
13.3166718248
 20
16.2905272998
 30
0.0
 10
13.3034879316
 20
16.2753794815
 30
0.0
 10
13.2922494877
 20
16.2639431681
 30
0.0
 10
13.286486109
 20
16.2584248326
 30
0.0
 11
13.3476795554
 21
16.3332825719
 31
0.0
 11
13.3339396289
 21
16.3129763109
 31
0.0
 11
13.3266560674
 21
16.3032052709
 31
0.0
 11
13.3191095666
 21
16.2936974212
 31
0.0
 11
13.3032661348
 21
16.275496674
 31
0.0
 11
13.286486109
 21
16.2584248326
 31
0.0
  0
SPLINE
  5
36F
100
AcDbEntity
  8
0
100
AcDbSpline
 62
6
  6
CONTINUOUS
 70
0
 71
3
 72
9
 73
5
 74
3
 42
0.0000001
 43
0.0000001
 44
0.0000000001
 12
-0.0320699111
 22
-0.0939441473
 32
0.0
 13
-0.0530968814
 23
-0.0838731375
 33
0.0
 40
0.0
 40
0.0
 40
0.0
 40
0.0
 40
0.5038474423
 40
1.0
 40
1.0
 40
1.0
 40
1.0
 10
13.3903467008
 20
16.4227225698
 30
0.0
 10
13.3849605866
 20
16.4069447304
 30
0.0
 10
13.3724668046
 20
16.3762153478
 30
0.0
 10
13.3564609403
 20
16.3471538631
 30
0.0
 10
13.3476795558
 20
16.3332825725
 30
0.0
 11
13.3903467008
 21
16.4227225698
 31
0.0
 11
13.3714790813
 21
16.376402305
 31
0.0
 11
13.3476795558
 21
16.3332825725
 31
0.0
  0
SPLINE
  5
370
100
AcDbEntity
  8
0
100
AcDbSpline
 62
6
  6
CONTINUOUS
 70
0
 71
3
 72
12
 73
8
 74
6
 42
0.0000001
 43
0.0000001
 44
0.0000000001
 12
0.0155111107
 22
-0.1124814226
 32
0.0
 13
-0.0124013333
 23
-0.1128666111
 33
0.0
 40
0.0
 40
0.0
 40
0.0
 40
0.0
 40
0.2525787844
 40
0.5034710631
 40
0.6282804903
 40
0.7526467682
 40
1.0
 40
1.0
 40
1.0
 40
1.0
 10
13.4096166244
 20
16.6303856463
 30
0.0
 10
13.4109225502
 20
16.620915506
 30
0.0
 10
13.4129566493
 20
16.6019551302
 30
0.0
 10
13.4140517423
 20
16.5781854836
 30
0.0
 10
13.4140499398
 20
16.5592557687
 30
0.0
 10
13.4134674273
 20
16.5404697964
 30
0.0
 10
13.4123753415
 20
16.5264309501
 30
0.0
 10
13.4113528382
 20
16.5171249764
 30
0.0
 11
13.4096166244
 21
16.6303856463
 31
0.0
 11
13.4126723855
 21
16.6018696276
 31
0.0
 11
13.4139788699
 21
16.5734118194
 31
0.0
 11
13.413976822
 21
16.5592402243
 31
0.0
 11
13.4135382814
 21
16.545125758
 31
0.0
 11
13.4113528382
 21
16.5171249764
 31
0.0
  0
SPLINE
  5
371
100
AcDbEntity
  8
0
100
AcDbSpline
 62
6
  6
CONTINUOUS
 70
0
 71
3
 72
11
 73
7
 74
5
 42
0.0000001
 43
0.0000001
 44
0.0000000001
 12
0.1202329511
 22
-0.1338095157
 32
0.0
 13
0.0653021789
 23
-0.1676203283
 33
0.0
 40
0.0
 40
0.0
 40
0.0
 40
0.0
 40
0.2529058245
 40
0.5039518694
 40
0.7530286598
 40
1.0
 40
1.0
 40
1.0
 40
1.0
 10
13.2874109923
 20
16.8910414472
 30
0.0
 10
13.2975468635
 20
16.8797610453
 30
0.0
 10
13.316740944
 20
16.8563584342
 30
0.0
 10
13.3421686722
 20
16.8189739311
 30
0.0
 10
13.3639824838
 20
16.7797788106
 30
0.0
 10
13.3760662911
 20
16.7525459123
 30
0.0
 10
13.3814422133
 20
16.7387467733
 30
0.0
 11
13.2874109923
 21
16.8910414472
 31
0.0
 11
13.3162635039
 21
16.8558649955
 31
0.0
 11
13.3416593869
 21
16.8185210622
 31
0.0
 11
13.3634388778
 21
16.7793636529
 31
0.0
 11
13.3814422133
 21
16.7387467733
 31
0.0
  0
SPLINE
  5
372
100
AcDbEntity
  8
0
100
AcDbSpline
 62
6
  6
CONTINUOUS
 70
0
 71
3
 72
13
 73
9
 74
7
 42
0.0000001
 43
0.0000001
 44
0.0000000001
 12
0.1178873977
 22
-0.0753236382
 32
0.0
 13
0.0935018876
 23
-0.1040600117
 33
0.0
 40
0.0
 40
0.0
 40
0.0
 40
0.0
 40
0.2518734554
 40
0.5025331375
 40
0.6274008607
 40
0.7519378679
 40
0.8761383569
 40
1.0
 40
1.0
 40
1.0
 40
1.0
 10
13.1809273655
 20
16.9811430266
 30
0.0
 10
13.1908249342
 20
16.9748190182
 30
0.0
 10
13.2101597463
 20
16.9615426052
 30
0.0
 10
13.2331382442
 20
16.9433958682
 30
0.0
 10
13.2506877245
 20
16.9280344263
 30
0.0
 10
13.2634030939
 20
16.916119302
 30
0.0
 10
13.2756705636
 20
16.9038101031
 30
0.0
 10
13.2835505599
 20
16.8953377952
 30
0.0
 10
13.2874109923
 20
16.8910414472
 30
0.0
 11
13.1809273655
 21
16.9811430266
 31
0.0
 11
13.2099729262
 21
16.9611943439
 31
0.0
 11
13.2374892973
 21
16.9394571351
 31
0.0
 11
13.2506330506
 21
16.9279509125
 31
0.0
 11
13.2633453232
 21
16.9160372536
 31
0.0
 11
13.2756097205
 21
16.9037293899
 31
0.0
 11
13.2874109923
 21
16.8910414472
 31
0.0
  0
SPLINE
  5
373
100
AcDbEntity
  8
0
100
AcDbSpline
 62
6
  6
CONTINUOUS
 70
0
 71
3
 72
13
 73
9
 74
7
 42
0.0000001
 43
0.0000001
 44
0.0000000001
 12
0.1266439075
 22
-0.0415632923
 32
0.0
 13
0.112319974
 23
-0.0717663571
 33
0.0
 40
0.0
 40
0.0
 40
0.0
 40
0.0
 40
0.1258322773
 40
0.2514287115
 40
0.3767926143
 40
0.5019244745
 40
0.751451267
 40
1.0
 40
1.0
 40
1.0
 40
1.0
 10
13.060816922
 20
17.0381520707
 30
0.0
 10
13.0661288857
 20
17.0364087361
 30
0.0
 10
13.0766880097
 20
17.0327555495
 30
0.0
 10
13.0923287256
 20
17.026779457
 30
0.0
 10
13.1077440207
 20
17.0203232738
 30
0.0
 10
13.1279578707
 20
17.0110989658
 30
0.0
 10
13.1525973303
 20
16.9984253291
 30
0.0
 10
13.1716217031
 20
16.9870888389
 30
0.0
 10
13.1809273655
 20
16.9811430265
 30
0.0
 11
13.060816922
 21
17.0381520707
 31
0.0
 11
13.0766672865
 21
17.0326683206
 31
0.0
 11
13.0923055626
 21
17.0266936746
 31
0.0
 11
13.1077182593
 21
17.0202389021
 31
0.0
 11
13.1228919285
 21
17.0133148569
 31
0.0
 11
13.1524683913
 21
16.9981023641
 31
0.0
 11
13.1809273655
 21
16.9811430265
 31
0.0
  0
SPLINE
  5
374
100
AcDbEntity
  8
0
100
AcDbSpline
 62
6
  6
CONTINUOUS
 70
0
 71
3
 72
13
 73
9
 74
7
 42
0.0000001
 43
0.0000001
 44
0.0000000001
 12
0.1197811074
 22
0.04070951
 32
0.0
 13
0.1258944394
 23
0.0124646705
 33
0.0
 40
0.0
 40
0.0
 40
0.0
 40
0.0
 40
0.2506935513
 40
0.5009466007
 40
0.6259047452
 40
0.7507352653
 40
0.8754344236
 40
1.0
 40
1.0
 40
1.0
 40
1.0
 10
12.7144906835
 20
17.0355941199
 30
0.0
 10
12.7245001339
 20
17.0389959905
 30
0.0
 10
12.7446979938
 20
17.0452296388
 30
0.0
 10
12.770333679
 20
17.0515746619
 30
0.0
 10
12.7910033054
 20
17.0557604861
 30
0.0
 10
12.806567018
 20
17.0584503058
 30
0.0
 10
12.8221851877
 20
17.0606880342
 30
0.0
 10
12.8326310537
 20
17.0618764901
 30
0.0
 10
12.8378584248
 20
17.0623940464
 30
0.0
 11
12.7144906835
 21
17.0355941199
 31
0.0
 11
12.7447958487
 21
17.0449457693
 31
0.0
 11
12.7755285752
 21
17.0525499894
 31
0.0
 11
12.7910225953
 21
17.0556872734
 31
0.0
 11
12.8065842915
 21
17.058376252
 31
0.0
 11
12.8222005922
 21
17.0606131089
 31
0.0
 11
12.8378584248
 21
17.0623940464
 31
0.0
  0
SPLINE
  5
375
100
AcDbEntity
  8
0
100
AcDbSpline
 62
6
  6
CONTINUOUS
 70
0
 71
3
 72
11
 73
7
 74
5
 42
0.0000001
 43
0.0000001
 44
0.0000000001
 12
0.12121419
 22
0.155983954
 32
0.0
 13
0.1676031712
 23
0.1045612298
 33
0.0
 40
0.0
 40
0.0
 40
0.0
 40
0.0
 40
0.2502253873
 40
0.5003844286
 40
0.7503518846
 40
1.0
 40
1.0
 40
1.0
 40
1.0
 10
12.4528699877
 20
16.8491159144
 30
0.0
 10
12.4629802769
 20
16.8621262962
 30
0.0
 10
12.4843686054
 20
16.8872568738
 30
0.0
 10
12.5196146087
 20
16.9219701833
 30
0.0
 10
12.5577285339
 20
16.953448138
 30
0.0
 10
12.5848784595
 20
16.9721176643
 30
0.0
 10
12.5988257314
 20
16.9808188357
 30
0.0
 11
12.4528699877
 21
16.8491159144
 31
0.0
 11
12.4849005929
 21
16.8867647147
 31
0.0
 11
12.5201067514
 21
16.9214435657
 31
0.0
 11
12.558183464
 21
16.9528843214
 31
0.0
 11
12.5988257314
 21
16.9808188357
 31
0.0
  0
SPLINE
  5
376
100
AcDbEntity
  8
0
100
AcDbSpline
 62
6
  6
CONTINUOUS
 70
0
 71
3
 72
13
 73
9
 74
7
 42
0.0000001
 43
0.0000001
 44
0.0000000001
 12
0.0567228463
 22
0.1331331212
 32
0.0
 13
0.0887966152
 23
0.1142675387
 33
0.0
 40
0.0
 40
0.0
 40
0.0
 40
0.0
 40
0.2498944928
 40
0.4998801539
 40
0.624905167
 40
0.7499344693
 40
0.874965975
 40
1.0
 40
1.0
 40
1.0
 40
1.0
 10
12.3797832652
 20
16.7246607768
 30
0.0
 10
12.3845081741
 20
16.7357505214
 30
0.0
 10
12.3946690889
 20
16.7576389636
 30
0.0
 10
12.409090111
 20
16.7841340626
 30
0.0
 10
12.4216308274
 20
16.8047426699
 30
0.0
 10
12.4315328288
 20
16.8198898821
 30
0.0
 10
12.4419222637
 20
16.8347071791
 30
0.0
 10
12.4491691216
 20
16.844353471
 30
0.0
 10
12.4528699877
 20
16.8491159144
 30
0.0
 11
12.3797832652
 21
16.7246607768
 31
0.0
 11
12.3950108324
 21
16.757461478
 31
0.0
 11
12.4123075123
 21
16.789234801
 31
0.0
 11
12.4217132267
 21
16.8046905714
 31
0.0
 11
12.4316139677
 21
16.8198347481
 31
0.0
 11
12.4420023183
 21
16.8346490814
 31
0.0
 11
12.4528699877
 21
16.8491159144
 31
0.0
  0
SPLINE
  5
377
100
AcDbEntity
  8
0
100
AcDbSpline
 62
6
  6
CONTINUOUS
 70
0
 71
3
 72
12
 73
8
 74
6
 42
0.0000001
 43
0.0000001
 44
0.0000000001
 12
0.0209900543
 22
0.1411004848
 32
0.0
 13
0.0559153864
 23
0.1312379472
 33
0.0
 40
0.0
 40
0.0
 40
0.0
 40
0.0
 40
0.1247486031
 40
0.2495791198
 40
0.4994487163
 40
0.7496086102
 40
1.0
 40
1.0
 40
1.0
 40
1.0
 10
12.340994707
 20
16.5877628912
 30
0.0
 10
12.3418675337
 20
16.593630254
 30
0.0
 10
12.3438048707
 20
16.6053414435
 30
0.0
 10
12.3484396224
 20
16.6286373615
 30
0.0
 10
12.3556418622
 20
16.6574872102
 30
0.0
 10
12.3664733169
 20
16.6915099878
 30
0.0
 10
12.3751163547
 20
16.7137071595
 30
0.0
 10
12.3797832652
 20
16.7246607768
 30
0.0
 11
12.340994707
 21
16.5877628912
 31
0.0
 11
12.3438988455
 21
16.6053201101
 31
0.0
 11
12.3473727152
 21
16.6227854533
 31
0.0
 11
12.3560015749
 21
16.6573699419
 31
0.0
 11
12.3668241879
 21
16.6913753688
 31
0.0
 11
12.3797832652
 21
16.7246607768
 31
0.0
  0
SPLINE
  5
378
100
AcDbEntity
  8
0
100
AcDbSpline
 62
6
  6
CONTINUOUS
 70
0
 71
3
 72
13
 73
9
 74
7
 42
0.0000001
 43
0.0000001
 44
0.0000000001
 12
0.1088121686
 22
0.0678837643
 32
0.0
 13
0.1214294202
 23
0.0412697153
 33
0.0
 40
0.0
 40
0.0
 40
0.0
 40
0.0
 40
0.1252547798
 40
0.2504428504
 40
0.3755640345
 40
0.50061643
 40
0.7504740832
 40
1.0
 40
1.0
 40
1.0
 40
1.0
 10
12.5988257314
 20
16.9808188357
 30
0.0
 10
12.6033688128
 20
16.983653091
 30
0.0
 10
12.6125356583
 20
16.9891881448
 30
0.0
 10
12.6265179111
 20
16.9970839158
 30
0.0
 10
12.640715465
 20
17.0045675874
 30
0.0
 10
12.6599073886
 20
17.0139873168
 30
0.0
 10
12.6843690814
 20
17.0247134489
 30
0.0
 10
12.7043907543
 20
17.0321614988
 30
0.0
 10
12.7144906835
 20
17.03559412
 30
0.0
 11
12.5988257314
 21
16.9808188357
 31
0.0
 11
12.612577407
 21
16.9891221328
 31
0.0
 11
12.6265575706
 21
16.9970172931
 31
0.0
 11
12.6407529717
 21
17.0045001891
 31
0.0
 11
12.655150243
 21
17.0115669184
 31
0.0
 11
12.6844969269
 21
17.0244362673
 31
0.0
 11
12.7144906835
 21
17.03559412
 31
0.0
  0
SPLINE
  5
379
100
AcDbEntity
  8
0
100
AcDbSpline
 62
6
  6
CONTINUOUS
 70
0
 71
3
 72
15
 73
11
 74
9
 42
0.0000001
 43
0.0000001
 44
0.0000000001
 12
-0.0726729624
 22
0.0899540143
 32
0.0
 13
-0.0283625213
 23
0.1121099975
 33
0.0
 40
0.0
 40
0.0
 40
0.0
 40
0.0
 40
0.1319898544
 40
0.2619332478
 40
0.3898699696
 40
0.5158191005
 40
0.6397819415
 40
0.7617621105
 40
0.8818169815
 40
1.0
 40
1.0
 40
1.0
 40
1.0
 10
12.7689438641
 20
16.2665920962
 30
0.0
 10
12.7657464995
 20
16.2705497686
 30
0.0
 10
12.7596124486
 20
16.2785771258
 30
0.0
 10
12.7511444266
 20
16.2910011611
 30
0.0
 10
12.7434799231
 20
16.3036653018
 30
0.0
 10
12.7366178239
 20
16.316520563
 30
0.0
 10
12.7305561996
 20
16.3295191158
 30
0.0
 10
12.7252925659
 20
16.3426162006
 30
0.0
 10
12.7208139195
 20
16.3557662547
 30
0.0
 10
12.718321629
 20
16.3646104079
 30
0.0
 10
12.7172043062
 20
16.3690269072
 30
0.0
 11
12.7689438641
 21
16.2665920962
 31
0.0
 11
12.7596774757
 21
16.2787210222
 31
0.0
 11
12.7512155311
 21
16.291138906
 31
0.0
 11
12.7435567653
 21
16.3037971577
 31
0.0
 11
12.7366999134
 21
16.3166471877
 31
0.0
 11
12.7306437106
 21
16.3296404063
 31
0.0
 11
12.725384658
 21
16.3427294341
 31
0.0
 11
12.7209099386
 21
16.3558719395
 31
0.0
 11
12.7172043062
 21
16.3690269072
 31
0.0
  0
SPLINE
  5
37A
100
AcDbEntity
  8
0
100
AcDbSpline
 62
6
  6
CONTINUOUS
 70
0
 71
3
 72
12
 73
8
 74
6
 42
0.0000001
 43
0.0000001
 44
0.0000000001
 12
-0.0490702008
 22
0.0393568495
 32
0.0
 13
-0.0395304411
 23
0.0489304653
 33
0.0
 40
0.0
 40
0.0
 40
0.0
 40
0.0
 40
0.2557896274
 40
0.5077155653
 40
0.7557826554
 40
0.8783748319
 40
1.0
 40
1.0
 40
1.0
 40
1.0
 10
12.8134792475
 20
16.2223317312
 30
0.0
 10
12.8092953647
 20
16.2256874225
 30
0.0
 10
12.8011663246
 20
16.2325706615
 30
0.0
 10
12.7896333837
 20
16.2434493061
 30
0.0
 10
12.7806270173
 20
16.2529088179
 30
0.0
 10
12.7738186826
 20
16.2606685255
 30
0.0
 10
12.7705464963
 20
16.2646083708
 30
0.0
 10
12.7689438641
 20
16.2665920962
 30
0.0
 11
12.8134792475
 21
16.2223317312
 31
0.0
 11
12.8012012961
 21
16.2327308544
 31
0.0
 11
12.789675225
 21
16.2436064036
 31
0.0
 11
12.778917476
 21
16.2549096949
 31
0.0
 11
12.7738318578
 21
16.2607065305
 31
0.0
 11
12.7689438641
 21
16.2665920962
 31
0.0
  0
SPLINE
  5
37B
100
AcDbEntity
  8
0
100
AcDbSpline
 62
6
  6
CONTINUOUS
 70
0
 71
3
 72
12
 73
8
 74
6
 42
0.0000001
 43
0.0000001
 44
0.0000000001
 12
0.0483745571
 22
-0.1002653027
 32
0.0
 13
0.0168812423
 23
-0.1100375043
 33
0.0
 40
0.0
 40
0.0
 40
0.0
 40
0.0
 40
0.2538111234
 40
0.5050935836
 40
0.6297955951
 40
0.7538538325
 40
1.0
 40
1.0
 40
1.0
 40
1.0
 10
13.2507924111
 20
16.7617442009
 30
0.0
 10
13.254885078
 20
16.7532613846
 30
0.0
 10
13.262425632
 20
16.7360812689
 30
0.0
 10
13.270242343
 20
16.714033532
 30
0.0
 10
13.2754621631
 20
16.6962228726
 30
0.0
 10
13.2799661766
 20
16.6784155985
 30
0.0
 10
13.2825803739
 20
16.6649109868
 30
0.0
 10
13.2839654582
 20
16.6558825502
 30
0.0
 11
13.2507924111
 21
16.7617442009
 31
0.0
 11
13.2621422959
 21
16.7358684791
 31
0.0
 11
13.2714820919
 21
16.7094997041
 31
0.0
 11
13.2753852411
 21
16.6961772619
 31
0.0
 11
13.2787703094
 21
16.6827877648
 31
0.0
 11
13.2839654582
 21
16.6558825502
 31
0.0
  0
SPLINE
  5
37C
100
AcDbEntity
  8
0
100
AcDbSpline
 62
6
  6
CONTINUOUS
 70
0
 71
3
 72
12
 73
8
 74
6
 42
0.0000001
 43
0.0000001
 44
0.0000000001
 12
0.061856956
 22
-0.0746032889
 32
0.0
 13
0.0421116521
 23
-0.0872842625
 33
0.0
 40
0.0
 40
0.0
 40
0.0
 40
0.0
 40
0.2529919052
 40
0.3787454008
 40
0.5040006432
 40
0.7529947085
 40
1.0
 40
1.0
 40
1.0
 40
1.0
 10
13.1985082852
 20
16.8430749405
 30
0.0
 10
13.2037247216
 20
16.8367835978
 30
0.0
 10
13.2112495589
 20
16.8271235305
 30
0.0
 10
13.2206584414
 20
16.8138341042
 30
0.0
 10
13.2295890496
 20
16.8003727305
 30
0.0
 10
13.2399214339
 20
16.7831531698
 30
0.0
 10
13.2473251442
 20
16.7689307592
 30
0.0
 10
13.2507924111
 20
16.761744201
 30
0.0
 11
13.1985082852
 21
16.8430749405
 31
0.0
 11
13.2135748163
 21
16.8237325141
 31
0.0
 11
13.2206168832
 21
16.813786018
 31
0.0
 11
13.2273273887
 21
16.8036707821
 31
0.0
 11
13.2397414382
 21
16.782978443
 31
0.0
 11
13.2507924111
 21
16.761744201
 31
0.0
  0
SPLINE
  5
37D
100
AcDbEntity
  8
0
100
AcDbSpline
 62
6
  6
CONTINUOUS
 70
0
 71
3
 72
9
 73
5
 74
3
 42
0.0000001
 43
0.0000001
 44
0.0000000001
 12
0.0794360459
 22
-0.059530636
 32
0.0
 13
0.0633602553
 23
-0.0764163599
 33
0.0
 40
0.0
 40
0.0
 40
0.0
 40
0.0
 40
0.5038474423
 40
1.0
 40
1.0
 40
1.0
 40
1.0
 10
13.1266306654
 20
16.9112922865
 30
0.0
 10
13.1399718816
 20
16.9012941669
 30
0.0
 10
13.1653364702
 20
16.8799159727
 30
0.0
 10
13.1880295005
 20
16.8557129986
 30
0.0
 10
13.1985082847
 20
16.8430749411
 30
0.0
 11
13.1266306654
 21
16.9112922865
 31
0.0
 11
13.16485344
 21
16.879034365
 31
0.0
 11
13.1985082847
 21
16.8430749411
 31
0.0
  0
SPLINE
  5
37E
100
AcDbEntity
  8
0
100
AcDbSpline
 62
6
  6
CONTINUOUS
 70
0
 71
3
 72
12
 73
8
 74
6
 42
0.0000001
 43
0.0000001
 44
0.0000000001
 12
0.1117693867
 22
-0.0200067283
 32
0.0
 13
0.1035103032
 23
-0.0466720698
 33
0.0
 40
0.0
 40
0.0
 40
0.0
 40
0.0
 40
0.2525787844
 40
0.5034710631
 40
0.6282804903
 40
0.7526467682
 40
1.0
 40
1.0
 40
1.0
 40
1.0
 10
12.9350860772
 20
16.9937904926
 30
0.0
 10
12.9444962691
 20
16.9921060676
 30
0.0
 10
12.9631572293
 20
16.9881815324
 30
0.0
 10
12.9861019089
 20
16.9818778031
 30
0.0
 10
13.0041045806
 20
16.9760264852
 30
0.0
 10
13.0217910957
 20
16.9696672981
 30
0.0
 10
13.0348053589
 20
16.9642904207
 30
0.0
 10
13.0433398949
 20
16.9604422583
 30
0.0
 11
12.9350860772
 21
16.9937904926
 31
0.0
 11
12.9631507047
 21
16.9878847597
 31
0.0
 11
12.9906194146
 21
16.9803333539
 31
0.0
 11
13.0040967696
 21
16.9759521425
 31
0.0
 11
13.0173849082
 21
16.9711734557
 31
0.0
 11
13.0433398949
 21
16.9604422583
 31
0.0
  0
SPLINE
  5
37F
100
AcDbEntity
  8
0
100
AcDbSpline
 62
6
  6
CONTINUOUS
 70
0
 71
3
 72
11
 73
7
 74
5
 42
0.0000001
 43
0.0000001
 44
0.0000000001
 12
0.164414437
 22
0.0729989172
 32
0.0
 13
0.1795958885
 23
0.0103085327
 33
0.0
 40
0.0
 40
0.0
 40
0.0
 40
0.0
 40
0.2529058245
 40
0.5039518694
 40
0.7530286598
 40
1.0
 40
1.0
 40
1.0
 40
1.0
 10
12.6494240621
 20
16.9581131021
 30
0.0
 10
12.6632845184
 20
16.9642670525
 30
0.0
 10
12.6914730211
 20
16.9752899033
 30
0.0
 10
12.7348853965
 20
16.9879206631
 30
0.0
 10
12.7789030098
 20
16.9965548724
 30
0.0
 10
12.808537137
 20
16.9996318278
 30
0.0
 10
12.8233221495
 20
17.0004804651
 30
0.0
 11
12.6494240621
 21
16.9581131021
 31
0.0
 11
12.6917947722
 21
16.9746833498
 31
0.0
 11
12.7351587227
 21
16.9872963598
 31
0.0
 11
12.7791298648
 21
16.9959095817
 31
0.0
 11
12.8233221495
 21
17.0004804651
 31
0.0
  0
SPLINE
  5
380
100
AcDbEntity
  8
0
100
AcDbSpline
 62
6
  6
CONTINUOUS
 70
0
 71
3
 72
13
 73
9
 74
7
 42
0.0000001
 43
0.0000001
 44
0.0000000001
 12
0.1080662463
 22
0.0888412935
 32
0.0
 13
0.1278606245
 23
0.0567692674
 33
0.0
 40
0.0
 40
0.0
 40
0.0
 40
0.0
 40
0.2518734554
 40
0.5025331375
 40
0.6274008607
 40
0.7519378679
 40
0.8761383569
 40
1.0
 40
1.0
 40
1.0
 40
1.0
 10
12.5308271176
 20
16.8846840741
 30
0.0
 10
12.5399001239
 20
16.8921429953
 30
0.0
 10
12.5585015286
 20
16.9064288571
 30
0.0
 10
12.5828608474
 20
16.9226750571
 30
0.0
 10
12.6028935345
 20
16.9346186581
 30
0.0
 10
12.6181547563
 20
16.9430297171
 30
0.0
 10
12.6336523567
 20
16.9508930225
 30
0.0
 10
12.6441450531
 20
16.9557692572
 30
0.0
 10
12.6494240621
 20
16.9581131021
 30
0.0
 11
12.5308271176
 21
16.8846840741
 31
0.0
 11
12.5587750141
 21
16.906143562
 31
0.0
 11
12.5879513546
 21
16.9255960191
 31
0.0
 11
12.6029560656
 21
16.934540853
 31
0.0
 11
12.6182149368
 21
16.9429494196
 31
0.0
 11
12.633710318
 21
16.9508102155
 31
0.0
 11
12.6494240621
 21
16.9581131021
 31
0.0
  0
SPLINE
  5
381
100
AcDbEntity
  8
0
100
AcDbSpline
 62
6
  6
CONTINUOUS
 70
0
 71
3
 72
13
 73
9
 74
7
 42
0.0000001
 43
0.0000001
 44
0.0000000001
 12
0.0786641596
 22
0.1076017498
 32
0.0
 13
0.1029626423
 23
0.0846456192
 33
0.0
 40
0.0
 40
0.0
 40
0.0
 40
0.0
 40
0.1258322773
 40
0.2514287115
 40
0.3767926143
 40
0.5019244745
 40
0.751451267
 40
1.0
 40
1.0
 40
1.0
 40
1.0
 10
12.4394921265
 20
16.7880690176
 30
0.0
 10
12.4427916232
 20
16.7925822754
 30
0.0
 10
12.449528959
 20
16.8014957023
 30
0.0
 10
12.4600458077
 20
16.8145241929
 30
0.0
 10
12.470949591
 20
16.8271899394
 30
0.0
 10
12.4859688523
 20
16.8435639852
 30
0.0
 10
12.5056362088
 20
16.8630811347
 30
0.0
 10
12.5222967062
 20
16.8776712203
 30
0.0
 10
12.5308271177
 20
16.8846840741
 30
0.0
 11
12.4394921265
 21
16.7880690176
 31
0.0
 11
12.4496055147
 21
16.8014490381
 31
0.0
 11
12.4601202339
 21
16.8144756553
 31
0.0
 11
12.4710218725
 21
16.8271393666
 31
0.0
 11
12.4822959524
 21
16.8394307359
 31
0.0
 11
12.5059035225
 21
16.8628587048
 31
0.0
 11
12.5308271177
 21
16.8846840741
 31
0.0
  0
SPLINE
  5
382
100
AcDbEntity
  8
0
100
AcDbSpline
 62
6
  6
CONTINUOUS
 70
0
 71
3
 72
13
 73
9
 74
7
 42
0.0000001
 43
0.0000001
 44
0.0000000001
 12
-0.001702647
 22
0.1264985331
 32
0.0
 13
0.0270489151
 23
0.123584522
 33
0.0
 40
0.0
 40
0.0
 40
0.0
 40
0.0
 40
0.2506935513
 40
0.5009466007
 40
0.6259047452
 40
0.7507352653
 40
0.8754344236
 40
1.0
 40
1.0
 40
1.0
 40
1.0
 10
12.3349041889
 20
16.4579027415
 30
0.0
 10
12.334761908
 20
16.4684735303
 30
0.0
 10
12.3350748381
 20
16.4896091399
 30
0.0
 10
12.336962225
 20
16.5159508453
 30
0.0
 10
12.3393685354
 20
16.536902319
 30
0.0
 10
12.3416198165
 20
16.5525354893
 30
0.0
 10
12.3443178902
 20
16.5680807475
 30
0.0
 10
12.3464155516
 20
16.5783826094
 30
0.0
 10
12.3475386729
 20
16.5835140685
 30
0.0
 11
12.3349041889
 21
16.4579027415
 31
0.0
 11
12.3353750529
 21
16.4896144849
 31
0.0
 11
12.3376399446
 21
16.521192878
 31
0.0
 11
12.3394441257
 21
16.5368980408
 31
0.0
 11
12.3416955837
 21
16.5525290334
 31
0.0
 11
12.3443939086
 21
16.5680722448
 31
0.0
 11
12.3475386729
 21
16.5835140685
 31
0.0
  0
SPLINE
  5
383
100
AcDbEntity
  8
0
100
AcDbSpline
 62
6
  6
CONTINUOUS
 70
0
 71
3
 72
11
 73
7
 74
5
 42
0.0000001
 43
0.0000001
 44
0.0000000001
 12
-0.1108923112
 22
0.1634832379
 32
0.0
 13
-0.0476514107
 23
0.1917112851
 33
0.0
 40
0.0
 40
0.0
 40
0.0
 40
0.0
 40
0.2502253873
 40
0.5003844286
 40
0.7503518846
 40
1.0
 40
1.0
 40
1.0
 40
1.0
 10
12.4314102603
 20
16.1514617393
 30
0.0
 10
12.4221609031
 20
16.1650976248
 30
0.0
 10
12.4048696605
 20
16.1932049097
 30
0.0
 10
12.3827469553
 20
16.2374528534
 30
0.0
 10
12.3645874921
 20
16.2834285732
 30
0.0
 10
12.3552215057
 20
16.3150188877
 30
0.0
 10
12.3512561441
 20
16.3309723414
 30
0.0
 11
12.4314102603
 21
16.1514617393
 31
0.0
 11
12.4055021249
 21
16.1935587743
 31
0.0
 11
12.3833998789
 21
16.237758175
 31
0.0
 11
12.3652642946
 21
16.2836870084
 31
0.0
 11
12.3512561441
 21
16.3309723414
 31
0.0
  0
SPLINE
  5
384
100
AcDbEntity
  8
0
100
AcDbSpline
 62
6
  6
CONTINUOUS
 70
0
 71
3
 72
13
 73
9
 74
7
 42
0.0000001
 43
0.0000001
 44
0.0000000001
 12
-0.109088799
 22
0.0950870296
 32
0.0
 13
-0.0812352241
 23
0.1197612109
 33
0.0
 40
0.0
 40
0.0
 40
0.0
 40
0.0
 40
0.2498944928
 40
0.4998801539
 40
0.624905167
 40
0.7499344693
 40
0.874965975
 40
1.0
 40
1.0
 40
1.0
 40
1.0
 10
12.5271890907
 20
16.0434933831
 30
0.0
 10
12.518102194
 20
16.0514139581
 30
0.0
 10
12.5004249436
 20
16.0678414629
 30
0.0
 10
12.479682948
 20
16.0897441058
 30
0.0
 10
12.4639582923
 20
16.1080394457
 30
0.0
 10
12.4526123241
 20
16.1221375547
 30
0.0
 10
12.4417307492
 20
16.1365972911
 30
0.0
 10
12.4347959827
 20
16.1464703306
 30
0.0
 10
12.4314102603
 20
16.1514617393
 30
0.0
 11
12.5271890907
 21
16.0434933831
 31
0.0
 11
12.5006993471
 21
16.0681116342
 31
0.0
 11
12.4758260892
 21
16.0943802511
 31
0.0
 11
12.4640333037
 21
16.1081017128
 31
0.0
 11
12.452689833
 21
16.122197685
 31
0.0
 11
12.4418107416
 21
16.1366554743
 31
0.0
 11
12.4314102603
 21
16.1514617393
 31
0.0
  0
SPLINE
  5
385
100
AcDbEntity
  8
0
100
AcDbSpline
 62
6
  6
CONTINUOUS
 70
0
 71
3
 72
12
 73
8
 74
6
 42
0.0000001
 43
0.0000001
 44
0.0000000001
 12
-0.1277082521
 22
0.0635651757
 32
0.0
 13
-0.1075359002
 23
0.0937334485
 33
0.0
 40
0.0
 40
0.0
 40
0.0
 40
0.0
 40
0.1247486031
 40
0.2495791198
 40
0.4994487163
 40
0.7496086102
 40
1.0
 40
1.0
 40
1.0
 40
1.0
 10
12.6454003931
 20
15.964299499
 30
0.0
 10
12.6400899178
 20
15.9669427213
 30
0.0
 10
12.6295505848
 20
15.9724041948
 30
0.0
 10
12.6088270672
 20
15.9840109402
 30
0.0
 10
12.5836148451
 20
15.9997757708
 30
0.0
 10
12.5546043644
 20
16.0205907129
 30
0.0
 10
12.5361644452
 20
16.0356700336
 30
0.0
 10
12.5271890907
 20
16.0434933831
 30
0.0
 11
12.6454003931
 21
15.964299499
 31
0.0
 11
12.6295999139
 21
15.9724869778
 31
0.0
 11
12.6140628702
 21
15.9811879121
 31
0.0
 11
12.5838375313
 21
16.0000816401
 31
0.0
 11
12.5548408197
 21
16.0208828114
 31
0.0
 11
12.5271890907
 21
16.0434933831
 31
0.0
  0
SPLINE
  5
386
100
AcDbEntity
  8
0
100
AcDbSpline
 62
6
  6
CONTINUOUS
 70
0
 71
3
 72
13
 73
9
 74
7
 42
0.0000001
 43
0.0000001
 44
0.0000000001
 12
0.109088799
 22
0.0950870296
 32
0.0
 13
0.0812352241
 23
0.1197612109
 33
0.0
 40
0.0
 40
0.0
 40
0.0
 40
0.0
 40
0.2498944928
 40
0.4998801539
 40
0.624905167
 40
0.7499344693
 40
0.874965975
 40
1.0
 40
1.0
 40
1.0
 40
1.0
 10
13.3173297507
 20
16.0434933831
 30
0.0
 10
13.3264166474
 20
16.0514139581
 30
0.0
 10
13.3440938977
 20
16.0678414629
 30
0.0
 10
13.3648358933
 20
16.0897441058
 30
0.0
 10
13.380560549
 20
16.1080394457
 30
0.0
 10
13.3919065172
 20
16.1221375547
 30
0.0
 10
13.4027880921
 20
16.1365972911
 30
0.0
 10
13.4097228586
 20
16.1464703306
 30
0.0
 10
13.413108581
 20
16.1514617393
 30
0.0
 11
13.3173297507
 21
16.0434933831
 31
0.0
 11
13.3438194942
 21
16.0681116342
 31
0.0
 11
13.3686927521
 21
16.0943802511
 31
0.0
 11
13.3804855376
 21
16.1081017128
 31
0.0
 11
13.3918290083
 21
16.122197685
 31
0.0
 11
13.4027080997
 21
16.1366554743
 31
0.0
 11
13.413108581
 21
16.1514617393
 31
0.0
  0
SPLINE
  5
387
100
AcDbEntity
  8
0
100
AcDbSpline
 62
6
  6
CONTINUOUS
 70
0
 71
3
 72
13
 73
9
 74
7
 42
0.0000001
 43
0.0000001
 44
0.0000000001
 12
-0.0309364871
 22
0.1244637588
 32
0.0
 13
-0.0017260772
 23
0.1282392847
 33
0.0
 40
0.0
 40
0.0
 40
0.0
 40
0.0
 40
0.1252547798
 40
0.2504428504
 40
0.3755640345
 40
0.50061643
 40
0.7504740832
 40
1.0
 40
1.0
 40
1.0
 40
1.0
 10
12.3512561441
 20
16.3309723414
 30
0.0
 10
12.3499644965
 20
16.3361689016
 30
0.0
 10
12.3475330585
 20
16.3465975154
 30
0.0
 10
12.3443444878
 20
16.3623353555
 30
0.0
 10
12.3416143786
 20
16.3781506134
 30
0.0
 10
12.3385863141
 20
16.3993140738
 30
0.0
 10
12.3359442351
 20
16.4258930833
 30
0.0
 10
12.3350477559
 20
16.4472363998
 30
0.0
 10
12.3349041889
 20
16.4579027415
 30
0.0
 11
12.3512561441
 21
16.3309723414
 31
0.0
 11
12.3476087407
 21
16.346616822
 31
0.0
 11
12.3444201052
 21
16.3623524864
 31
0.0
 11
12.3416900684
 21
16.3781654571
 31
0.0
 11
12.3394182109
 21
16.3940418153
 31
0.0
 11
12.3362473569
 21
16.4259290177
 31
0.0
 11
12.3349041889
 21
16.4579027415
 31
0.0
  0
SPLINE
  5
388
100
AcDbEntity
  8
0
100
AcDbSpline
 62
6
  6
CONTINUOUS
 70
0
 71
3
 72
15
 73
11
 74
9
 42
0.0000001
 43
0.0000001
 44
0.0000000001
 12
-0.1080085319
 22
-0.0413187753
 32
0.0
 13
-0.1153874447
 23
0.0076695338
 33
0.0
 40
0.0
 40
0.0
 40
0.0
 40
0.0
 40
0.1319898544
 40
0.2619332478
 40
0.3898699696
 40
0.5158191005
 40
0.6397819415
 40
0.7617621105
 40
0.8818169815
 40
1.0
 40
1.0
 40
1.0
 40
1.0
 10
13.0830955329
 20
16.2720560997
 30
0.0
 10
13.0783435227
 20
16.2702382133
 30
0.0
 10
13.0688135263
 20
16.266884974
 30
0.0
 10
13.054380804
 20
16.2626706445
 30
0.0
 10
13.0399680286
 20
16.2592947033
 30
0.0
 10
13.0256214434
 20
16.2567409533
 30
0.0
 10
13.0113859401
 20
16.2549927797
 30
0.0
 10
12.99730332
 20
16.2540339884
 30
0.0
 10
12.9834128975
 20
16.2538381327
 30
0.0
 10
12.9742314479
 20
16.2542008172
 30
0.0
 10
12.9696858357
 20
16.2545029535
 30
0.0
 11
13.0830955329
 21
16.2720560997
 31
0.0
 11
13.0686967672
 21
16.2669912849
 31
0.0
 11
13.0542717733
 21
16.2627808344
 31
0.0
 11
13.0398663717
 21
16.2594085302
 31
0.0
 11
13.0255263831
 21
16.2568581542
 31
0.0
 11
13.0112976283
 21
16.2551134885
 31
0.0
 11
12.9972240866
 21
16.2541565642
 31
0.0
 11
12.9833420568
 21
16.2539621107
 31
0.0
 11
12.9696858357
 21
16.2545029535
 31
0.0
  0
SPLINE
  5
389
100
AcDbEntity
  8
0
100
AcDbSpline
 62
6
  6
CONTINUOUS
 70
0
 71
3
 72
12
 73
8
 74
6
 42
0.0000001
 43
0.0000001
 44
0.0000000001
 12
-0.0525941142
 22
-0.0345065989
 32
0.0
 13
-0.058751216
 23
-0.0224753383
 33
0.0
 40
0.0
 40
0.0
 40
0.0
 40
0.0
 40
0.2557896274
 40
0.5077155653
 40
0.7557826554
 40
0.8783748319
 40
1.0
 40
1.0
 40
1.0
 40
1.0
 10
13.1389518317
 20
16.3007345613
 30
0.0
 10
13.1344674888
 20
16.2977924179
 30
0.0
 10
13.1254091279
 20
16.2921882793
 30
0.0
 10
13.1114990473
 20
16.2845814867
 30
0.0
 10
13.0997193967
 20
16.2789390731
 30
0.0
 10
13.0902355851
 20
16.2748618436
 30
0.0
 10
13.0854774084
 20
16.2729672886
 30
0.0
 10
13.0830955329
 20
16.2720560997
 30
0.0
 11
13.1389518317
 21
16.3007345613
 31
0.0
 11
13.1252675822
 21
16.2922710414
 31
0.0
 11
13.1113625684
 21
16.2846698259
 31
0.0
 11
13.0972881723
 21
16.2779315078
 31
0.0
 11
13.0902035116
 21
16.2748861181
 31
0.0
 11
13.0830955329
 21
16.2720560997
 31
0.0
  0
SPLINE
  5
38A
100
AcDbEntity
  8
0
100
AcDbSpline
 62
6
  6
CONTINUOUS
 70
0
 71
3
 72
12
 73
8
 74
6
 42
0.0000001
 43
0.0000001
 44
0.0000000001
 12
0.1103065297
 22
0.0150232553
 32
0.0
 13
0.1098684763
 23
-0.0179484433
 33
0.0
 40
0.0
 40
0.0
 40
0.0
 40
0.0
 40
0.2538111234
 40
0.5050935836
 40
0.6297955951
 40
0.7538538325
 40
1.0
 40
1.0
 40
1.0
 40
1.0
 10
12.7610772868
 20
16.8833317154
 30
0.0
 10
12.7704096282
 20
16.8846027385
 30
0.0
 10
12.7890790485
 20
16.8864652837
 30
0.0
 10
12.8124631889
 20
16.8870862923
 30
0.0
 10
12.8310151457
 20
16.8865468398
 30
0.0
 10
12.8493426865
 20
16.8853276609
 30
0.0
 10
12.8629941668
 20
16.8836407557
 30
0.0
 10
12.8720087349
 20
16.8821681089
 30
0.0
 11
12.7610772868
 21
16.8833317154
 31
0.0
 11
12.789193868
 21
16.8861300594
 31
0.0
 11
12.817158219
 21
16.8868643337
 31
0.0
 11
12.8310347539
 21
16.8864595882
 31
0.0
 11
12.844814966
 21
16.8855413973
 31
0.0
 11
12.8720087349
 21
16.8821681089
 31
0.0
  0
SPLINE
  5
38B
100
AcDbEntity
  8
0
100
AcDbSpline
 62
6
  6
CONTINUOUS
 70
0
 71
3
 72
12
 73
8
 74
6
 42
0.0000001
 43
0.0000001
 44
0.0000000001
 12
0.0900667947
 22
0.035775777
 32
0.0
 13
0.0960254828
 23
0.0130782407
 33
0.0
 40
0.0
 40
0.0
 40
0.0
 40
0.0
 40
0.2529919052
 40
0.3787454008
 40
0.5040006432
 40
0.7529947085
 40
1.0
 40
1.0
 40
1.0
 40
1.0
 10
12.6675704735
 20
16.8587391374
 30
0.0
 10
12.6751658635
 20
16.8617561314
 30
0.0
 10
12.6866784361
 20
16.865927552
 30
0.0
 10
12.7022249362
 20
16.8707692724
 30
0.0
 10
12.717787173
 20
16.8751029924
 30
0.0
 10
12.7373568308
 20
16.8796085368
 30
0.0
 10
12.7531710193
 20
16.8822549172
 30
0.0
 10
12.7610772868
 20
16.8833317154
 30
0.0
 11
12.6675704735
 21
16.8587391374
 31
0.0
 11
12.6906220283
 21
16.8670911215
 31
0.0
 11
12.7022578266
 21
16.8707148888
 31
0.0
 11
12.7139516479
 21
16.873971179
 31
0.0
 11
12.7374673842
 21
16.8793833572
 31
0.0
 11
12.7610772868
 21
16.8833317154
 31
0.0
  0
SPLINE
  5
38C
100
AcDbEntity
  8
0
100
AcDbSpline
 62
6
  6
CONTINUOUS
 70
0
 71
3
 72
9
 73
5
 74
3
 42
0.0000001
 43
0.0000001
 44
0.0000000001
 12
0.0811640874
 22
0.0571521909
 32
0.0
 13
0.0922556727
 23
0.0366452298
 33
0.0
 40
0.0
 40
0.0
 40
0.0
 40
0.0
 40
0.5038474423
 40
1.0
 40
1.0
 40
1.0
 40
1.0
 10
12.5804805161
 20
16.8114597779
 30
0.0
 10
12.5941119554
 20
16.8210584397
 30
0.0
 10
12.6222819152
 20
16.8385753716
 30
0.0
 10
12.6523128435
 20
16.8526785957
 30
0.0
 10
12.6675704728
 20
16.8587391372
 30
0.0
 11
12.5804805161
 21
16.8114597779
 31
0.0
 11
12.6229711095
 21
16.8378435508
 31
0.0
 11
12.6675704728
 21
16.8587391372
 31
0.0
  0
SPLINE
  5
38D
100
AcDbEntity
  8
0
100
AcDbSpline
 62
6
  6
CONTINUOUS
 70
0
 71
3
 72
12
 73
8
 74
6
 42
0.0000001
 43
0.0000001
 44
0.0000000001
 12
0.0535661692
 22
0.1001165845
 32
0.0
 13
0.0763742189
 23
0.0840216857
 33
0.0
 40
0.0
 40
0.0
 40
0.0
 40
0.0
 40
0.2525787844
 40
0.5034710631
 40
0.6282804903
 40
0.7526467682
 40
1.0
 40
1.0
 40
1.0
 40
1.0
 10
12.4428295266
 20
16.6547833968
 30
0.0
 10
12.4473394193
 20
16.6632125052
 30
0.0
 10
12.4568384278
 20
16.6797473849
 30
0.0
 10
12.4699239266
 20
16.6996211125
 30
0.0
 10
12.4810519921
 20
16.714934514
 30
0.0
 10
12.4925653722
 20
16.7297902926
 30
0.0
 10
12.5017007149
 20
16.740506046
 30
0.0
 10
12.5079978516
 20
16.7474337245
 30
0.0
 11
12.4428295266
 21
16.6547833968
 31
0.0
 11
12.4571186592
 21
16.6796494719
 31
0.0
 11
12.4727887711
 21
16.7034402547
 31
0.0
 11
12.4811202824
 21
16.7149041122
 31
0.0
 11
12.4897713444
 21
16.7260651876
 31
0.0
 11
12.5079978516
 21
16.7474337245
 31
0.0
  0
SPLINE
  5
38E
100
AcDbEntity
  8
0
100
AcDbSpline
 62
6
  6
CONTINUOUS
 70
0
 71
3
 72
11
 73
7
 74
5
 42
0.0000001
 43
0.0000001
 44
0.0000000001
 12
-0.0186192407
 22
0.1789253277
 32
0.0
 13
0.0456941845
 23
0.1739913519
 33
0.0
 40
0.0
 40
0.0
 40
0.0
 40
0.0
 40
0.2529058245
 40
0.5039518694
 40
0.7530286598
 40
1.0
 40
1.0
 40
1.0
 40
1.0
 10
12.3884863241
 20
16.372077756
 30
0.0
 10
12.3869166859
 20
16.3871615085
 30
0.0
 10
12.3851440582
 20
16.4173766159
 30
0.0
 10
12.3865466536
 20
16.4625673579
 30
0.0
 10
12.3919372231
 20
16.5070987133
 30
0.0
 10
12.3981683136
 20
16.5362332745
 30
0.0
 10
12.4019300316
 20
16.5505569003
 30
0.0
 11
12.3884863241
 21
16.372077756
 31
0.0
 11
12.3858203515
 21
16.417495184
 31
0.0
 11
12.3872248638
 21
16.4626343862
 31
0.0
 11
12.3926210331
 21
16.5071150593
 31
0.0
 11
12.4019300316
 21
16.5505569003
 31
0.0
  0
SPLINE
  5
38F
100
AcDbEntity
  8
0
100
AcDbSpline
 62
6
  6
CONTINUOUS
 70
0
 71
3
 72
13
 73
9
 74
7
 42
0.0000001
 43
0.0000001
 44
0.0000000001
 12
-0.0510987845
 22
0.1302305772
 32
0.0
 13
-0.0144796758
 23
0.1391453485
 33
0.0
 40
0.0
 40
0.0
 40
0.0
 40
0.0
 40
0.2518734554
 40
0.5025331375
 40
0.6274008607
 40
0.7519378679
 40
0.8761383569
 40
1.0
 40
1.0
 40
1.0
 40
1.0
 10
12.4216730083
 20
16.2365945416
 30
0.0
 10
12.4173828658
 20
16.2475284168
 30
0.0
 10
12.409544354
 20
16.2696339779
 30
0.0
 10
12.4016207431
 20
16.2978214187
 30
0.0
 10
12.3964521443
 20
16.320564412
 30
0.0
 10
12.3931687287
 20
16.3376778566
 30
0.0
 10
12.3904793028
 20
16.3548468455
 30
0.0
 10
12.3890841495
 20
16.3663328321
 30
0.0
 10
12.3884863241
 20
16.372077756
 30
0.0
 11
12.4216730083
 21
16.2365945416
 31
0.0
 11
12.4099001975
 21
16.2698059171
 31
0.0
 11
12.4004157964
 21
16.3035654056
 31
0.0
 11
12.3965454645
 21
16.3205998395
 31
0.0
 11
12.393263693
 21
16.3377102784
 31
0.0
 11
12.3905759679
 21
16.3548763812
 31
0.0
 11
12.3884863241
 21
16.372077756
 31
0.0
  0
SPLINE
  5
390
100
AcDbEntity
  8
0
100
AcDbSpline
 62
6
  6
CONTINUOUS
 70
0
 71
3
 72
13
 73
9
 74
7
 42
0.0000001
 43
0.0000001
 44
0.0000000001
 12
-0.0780267831
 22
0.1080648309
 32
0.0
 13
-0.0486855614
 23
0.1240802268
 33
0.0
 40
0.0
 40
0.0
 40
0.0
 40
0.0
 40
0.1258322773
 40
0.2514287115
 40
0.3767926143
 40
0.5019244745
 40
0.751451267
 40
1.0
 40
1.0
 40
1.0
 40
1.0
 10
12.4853353229
 20
16.1198741087
 30
0.0
 10
12.4820625603
 20
16.12440679
 30
0.0
 10
12.4756673387
 20
16.1335687774
 30
0.0
 10
12.4665263928
 20
16.14759692
 30
0.0
 10
12.4578500064
 20
16.161880965
 30
0.0
 10
12.4469185704
 20
16.1812249898
 30
0.0
 10
12.4344342056
 20
16.2059608882
 30
0.0
 10
12.4257065865
 20
16.2263145472
 30
0.0
 10
12.4216730083
 20
16.2365945416
 30
0.0
 11
12.4853353229
 21
16.1198741087
 31
0.0
 11
12.475735376
 21
16.1336271662
 31
0.0
 11
12.4665955537
 21
16.1476527045
 31
0.0
 11
12.4579204402
 21
16.161934081
 31
0.0
 11
12.4497145356
 21
16.1764546101
 31
0.0
 11
12.4347283535
 21
16.2061463841
 31
0.0
 11
12.4216730083
 21
16.2365945416
 31
0.0
  0
SPLINE
  5
391
100
AcDbEntity
  8
0
100
AcDbSpline
 62
6
  6
CONTINUOUS
 70
0
 71
3
 72
13
 73
9
 74
7
 42
0.0000001
 43
0.0000001
 44
0.0000000001
 12
-0.1208334011
 22
0.037470883
 32
0.0
 13
-0.1091772905
 23
0.0639147645
 33
0.0
 40
0.0
 40
0.0
 40
0.0
 40
0.0
 40
0.2506935513
 40
0.5009466007
 40
0.6259047452
 40
0.7507352653
 40
0.8754344236
 40
1.0
 40
1.0
 40
1.0
 40
1.0
 10
12.7670226611
 20
15.9183780789
 30
0.0
 10
12.7569252763
 20
15.9215093151
 30
0.0
 10
12.7369208179
 20
15.9283381919
 30
0.0
 10
12.7124516019
 20
15.9382732381
 30
0.0
 10
12.6932691571
 20
15.9470361367
 30
0.0
 10
12.6790968128
 20
15.9540081476
 30
0.0
 10
12.6651461443
 20
15.9613779171
 30
0.0
 10
12.6559967044
 20
15.9665563621
 30
0.0
 10
12.6514634603
 20
15.9692102219
 30
0.0
 11
12.7670226611
 21
15.9183780789
 31
0.0
 11
12.7370085059
 21
15.9286253648
 31
0.0
 11
12.7076755594
 21
15.9405376649
 31
0.0
 11
12.6932965846
 21
15.9471067053
 31
0.0
 11
12.679126366
 21
15.9540782115
 31
0.0
 11
12.6651777218
 21
15.9614475874
 31
0.0
 11
12.6514634603
 21
15.9692102219
 31
0.0
  0
SPLINE
  5
392
100
AcDbEntity
  8
0
100
AcDbSpline
 62
6
  6
CONTINUOUS
 70
0
 71
3
 72
11
 73
7
 74
5
 42
0.0000001
 43
0.0000001
 44
0.0000000001
 12
-0.1897494074
 22
-0.0549457564
 32
0.0
 13
-0.1970533626
 23
0.0139228604
 33
0.0
 40
0.0
 40
0.0
 40
0.0
 40
0.0
 40
0.2502253873
 40
0.5003844286
 40
0.7503518846
 40
1.0
 40
1.0
 40
1.0
 40
1.0
 10
13.0882873892
 20
15.9154653295
 30
0.0
 10
13.0724606829
 20
15.9108823885
 30
0.0
 10
13.0403857787
 20
15.9031230682
 30
0.0
 10
12.9914671917
 20
15.8957564918
 30
0.0
 10
12.942130101
 20
15.8926930947
 30
0.0
 10
12.9091916775
 20
15.8935474564
 30
0.0
 10
12.8927936773
 20
15.8947060617
 30
0.0
 11
13.0882873892
 21
15.9154653295
 31
0.0
 11
13.0402446757
 21
15.9038339277
 31
0.0
 11
12.991378578
 21
15.8964718086
 31
0.0
 11
12.9420934579
 21
15.8934166331
 31
0.0
 11
12.8927936773
 21
15.8947060617
 31
0.0
  0
SPLINE
  5
393
100
AcDbEntity
  8
0
100
AcDbSpline
 62
6
  6
CONTINUOUS
 70
0
 71
3
 72
13
 73
9
 74
7
 42
0.0000001
 43
0.0000001
 44
0.0000000001
 12
-0.1241434319
 22
-0.0743661051
 32
0.0
 13
-0.1390027448
 23
-0.0402510398
 33
0.0
 40
0.0
 40
0.0
 40
0.0
 40
0.0
 40
0.2498944928
 40
0.4998801539
 40
0.624905167
 40
0.7499344693
 40
0.874965975
 40
1.0
 40
1.0
 40
1.0
 40
1.0
 10
13.2205686843
 20
15.9731923533
 30
0.0
 10
13.2102277643
 20
15.9669977933
 30
0.0
 10
13.189141708
 20
15.9552621073
 30
0.0
 10
13.1619014276
 20
15.9423035861
 30
0.0
 10
13.1396423395
 20
15.9330021208
 30
0.0
 10
13.1227281441
 20
15.9265680191
 30
0.0
 10
13.1056135261
 20
15.9206873306
 30
0.0
 10
13.0940807468
 20
15.9171429127
 30
0.0
 10
13.0882873892
 20
15.9154653295
 30
0.0
 11
13.2205686843
 21
15.9731923533
 31
0.0
 11
13.1889695552
 21
15.955606568
 31
0.0
 11
13.1563003565
 21
15.9400681431
 31
0.0
 11
13.1396062998
 21
15.9330927024
 31
0.0
 11
13.1226949083
 21
15.9266603156
 31
0.0
 11
13.1055829095
 21
15.9207813875
 31
0.0
 11
13.0882873892
 21
15.9154653295
 31
0.0
  0
SPLINE
  5
394
100
AcDbEntity
  8
0
100
AcDbSpline
 62
6
  6
CONTINUOUS
 70
0
 71
3
 72
12
 73
8
 74
6
 42
0.0000001
 43
0.0000001
 44
0.0000000001
 12
-0.0999180948
 22
-0.1018150458
 32
0.0
 13
-0.1223762277
 23
-0.0733074901
 33
0.0
 40
0.0
 40
0.0
 40
0.0
 40
0.0
 40
0.1247486031
 40
0.2495791198
 40
0.4994487163
 40
0.7496086102
 40
1.0
 40
1.0
 40
1.0
 40
1.0
 10
13.3324158452
 20
16.0611457268
 30
0.0
 10
13.3282609642
 20
16.0569119652
 30
0.0
 10
13.3198099613
 20
16.048576152
 30
0.0
 10
13.3023673713
 20
16.0324535971
 30
0.0
 10
13.2795831214
 20
16.0133469496
 30
0.0
 10
13.2508222035
 20
15.9921885137
 30
0.0
 10
13.2307826688
 20
15.9793108747
 30
0.0
 10
13.2205686843
 20
15.9731923533
 30
0.0
 11
13.3324158452
 21
16.0611457268
 31
0.0
 11
13.3197464735
 21
16.0486486481
 31
0.0
 11
13.3066701827
 21
16.036560778
 31
0.0
 11
13.2793610362
 21
16.0136532555
 31
0.0
 11
13.25061747
 21
15.9925036595
 31
0.0
 11
13.2205686843
 21
15.9731923533
 31
0.0
  0
SPLINE
  5
395
100
AcDbEntity
  8
0
100
AcDbSpline
 62
6
  6
CONTINUOUS
 70
0
 71
3
 72
13
 73
9
 74
7
 42
0.0000001
 43
0.0000001
 44
0.0000000001
 12
-0.1279319691
 22
0.0090390691
 32
0.0
 13
-0.1224961946
 23
0.0379865214
 33
0.0
 40
0.0
 40
0.0
 40
0.0
 40
0.0
 40
0.1252547798
 40
0.2504428504
 40
0.3755640345
 40
0.50061643
 40
0.7504740832
 40
1.0
 40
1.0
 40
1.0
 40
1.0
 10
12.8927936773
 20
15.8947060617
 30
0.0
 10
12.8874523138
 20
15.8950834572
 30
0.0
 10
12.876782757
 20
15.8959936412
 30
0.0
 10
12.8608298591
 20
15.8978243902
 30
0.0
 10
12.8449450049
 20
15.9001150856
 30
0.0
 10
12.8238816346
 20
15.9037750941
 30
0.0
 10
12.7977870471
 20
15.9094756932
 30
0.0
 10
12.7772113196
 20
15.9152185383
 30
0.0
 10
12.7670226611
 20
15.9183780789
 30
0.0
 11
12.8927936773
 21
15.8947060617
 31
0.0
 11
12.8767877824
 21
15.8960715853
 31
0.0
 11
12.8608369338
 21
15.8979016004
 31
0.0
 11
12.8449542771
 21
15.9001916578
 31
0.0
 11
12.8291529206
 21
15.9029370574
 31
0.0
 11
12.7978465412
 21
15.9097750835
 31
0.0
 11
12.7670226611
 21
15.9183780789
 31
0.0
  0
SPLINE
  5
396
100
AcDbEntity
  8
0
100
AcDbSpline
 62
6
  6
CONTINUOUS
 70
0
 71
3
 72
15
 73
11
 74
9
 42
0.0000001
 43
0.0000001
 44
0.0000000001
 12
0.0059200186
 22
-0.1154904218
 32
0.0
 13
-0.0429508414
 23
-0.1073699649
 33
0.0
 40
0.0
 40
0.0
 40
0.0
 40
0.0
 40
0.1319898544
 40
0.2619332478
 40
0.3898699696
 40
0.5158191005
 40
0.6397819415
 40
0.7617621105
 40
0.8818169815
 40
1.0
 40
1.0
 40
1.0
 40
1.0
 10
13.1749771612
 20
16.5725205613
 30
0.0
 10
13.175237622
 20
16.5674393733
 30
0.0
 10
13.1754818112
 20
16.5573396002
 30
0.0
 10
13.1750299203
 20
16.5423109661
 30
0.0
 10
13.1737868386
 20
16.527560379
 30
0.0
 10
13.1717822606
 20
16.5131268135
 30
0.0
 10
13.16904586
 20
16.49904783
 30
0.0
 10
13.1656059558
 20
16.4853581795
 30
0.0
 10
13.161499849
 20
16.47208708
 30
0.0
 10
13.1583176916
 20
16.4634670782
 30
0.0
 10
13.1566256715
 20
16.4592373093
 30
0.0
 11
13.1749771612
 21
16.5725205613
 31
0.0
 11
13.175344623
 21
16.5572614076
 31
0.0
 11
13.1748914311
 21
16.5422413223
 31
0.0
 11
13.1736471691
 21
16.527498872
 31
0.0
 11
13.1716414206
 21
16.5130726229
 31
0.0
 11
13.1689037693
 21
16.4990011416
 31
0.0
 11
13.1654648948
 21
16.4853207021
 31
0.0
 11
13.161360048
 21
16.4720580178
 31
0.0
 11
13.1566256715
 21
16.4592373093
 31
0.0
  0
SPLINE
  5
397
100
AcDbEntity
  8
0
100
AcDbSpline
 62
6
  6
CONTINUOUS
 70
0
 71
3
 72
12
 73
8
 74
6
 42
0.0000001
 43
0.0000001
 44
0.0000000001
 12
0.0165652507
 22
-0.0606831005
 32
0.0
 13
0.0032201928
 23
-0.0628209883
 33
0.0
 40
0.0
 40
0.0
 40
0.0
 40
0.0
 40
0.2557896274
 40
0.5077155653
 40
0.7557826554
 40
0.8783748319
 40
1.0
 40
1.0
 40
1.0
 40
1.0
 10
13.164962869
 20
16.6345051903
 30
0.0
 10
13.1663752754
 20
16.6293311544
 30
0.0
 10
13.1689059406
 20
16.6189843672
 30
0.0
 10
13.1718419789
 20
16.6034044662
 30
0.0
 10
13.1735681209
 20
16.5904577511
 30
0.0
 10
13.1745151377
 20
16.5801781771
 30
0.0
 10
13.174846609
 20
16.5750674324
 30
0.0
 10
13.1749771612
 20
16.5725205613
 30
0.0
 11
13.164962869
 21
16.6345051903
 31
0.0
 11
13.168783489
 21
16.6188753242
 31
0.0
 11
13.1717157891
 21
16.6033019655
 31
0.0
 11
13.1737750828
 21
16.5878341645
 31
0.0
 11
13.17448214
 21
16.5801551746
 31
0.0
 11
13.1749771612
 21
16.5725205613
 31
0.0
  0
SPLINE
  5
398
100
AcDbEntity
  8
0
100
AcDbSpline
 62
6
  6
CONTINUOUS
 70
0
 71
3
 72
12
 73
8
 74
6
 42
0.0000001
 43
0.0000001
 44
0.0000000001
 12
0.0197986274
 22
0.1095501851
 32
0.0
 13
0.0510212103
 23
0.0989447563
 33
0.0
 40
0.0
 40
0.0
 40
0.0
 40
0.0
 40
0.2538111234
 40
0.5050935836
 40
0.6297955951
 40
0.7538538325
 40
1.0
 40
1.0
 40
1.0
 40
1.0
 10
12.4941103931
 20
16.4551575636
 30
0.0
 10
12.4957854304
 20
16.4644259154
 30
0.0
 10
12.4997832127
 20
16.4827571473
 30
0.0
 10
12.5064186953
 20
16.5051886887
 30
0.0
 10
12.512664615
 20
16.5226659481
 30
0.0
 10
12.5194876446
 20
16.5397197281
 30
0.0
 10
12.5253105262
 20
16.5521817751
 30
0.0
 10
12.5294967513
 20
16.5603000659
 30
0.0
 11
12.4941103931
 21
16.4551575636
 31
0.0
 11
12.5001375112
 21
16.4827627571
 31
0.0
 11
12.5080806345
 21
16.5095853386
 31
0.0
 11
12.5127536555
 21
16.5226576343
 31
0.0
 11
12.5178852267
 21
16.5354796582
 31
0.0
 11
12.5294967513
 21
16.5603000659
 31
0.0
  0
SPLINE
  5
399
100
AcDbEntity
  8
0
100
AcDbSpline
 62
6
  6
CONTINUOUS
 70
0
 71
3
 72
12
 73
8
 74
6
 42
0.0000001
 43
0.0000001
 44
0.0000000001
 12
-0.0061926156
 22
0.096713935
 32
0.0
 13
0.01723536
 23
0.0953670597
 33
0.0
 40
0.0
 40
0.0
 40
0.0
 40
0.0
 40
0.2529919052
 40
0.3787454008
 40
0.5040006432
 40
0.7529947085
 40
1.0
 40
1.0
 40
1.0
 40
1.0
 10
12.4886041302
 20
16.3586277749
 30
0.0
 10
12.488081903
 20
16.3667837225
 30
0.0
 10
12.4876722269
 20
16.3790218695
 30
0.0
 10
12.4878716098
 20
16.3953036436
 30
0.0
 10
12.4885589929
 20
16.4114434035
 30
0.0
 10
12.4903213223
 20
16.4314475438
 30
0.0
 10
12.4926913181
 20
16.4473055074
 30
0.0
 10
12.4941103931
 20
16.4551575635
 30
0.0
 11
12.4886041302
 21
16.3586277749
 31
0.0
 11
12.4877842435
 21
16.3831320113
 31
0.0
 11
12.4879334954
 21
16.3953181188
 31
0.0
 11
12.4884501689
 21
16.4074458527
 31
0.0
 11
12.4905696437
 21
16.431483102
 31
0.0
 11
12.4941103931
 21
16.4551575635
 31
0.0
  0
SPLINE
  5
39A
100
AcDbEntity
  8
0
100
AcDbSpline
 62
6
  6
CONTINUOUS
 70
0
 71
3
 72
9
 73
5
 74
3
 42
0.0000001
 43
0.0000001
 44
0.0000000001
 12
-0.0292738812
 22
0.0948526325
 32
0.0
 13
-0.0063431139
 23
0.0990643575
 33
0.0
 40
0.0
 40
0.0
 40
0.0
 40
0.0
 40
0.5038474423
 40
1.0
 40
1.0
 40
1.0
 40
1.0
 10
12.5066571962
 20
16.2611901778
 30
0.0
 10
12.5017406729
 20
16.2771205966
 30
0.0
 10
12.4937860769
 20
16.3093248501
 30
0.0
 10
12.489653181
 20
16.3422440961
 30
0.0
 10
12.4886041303
 20
16.3586277742
 30
0.0
 11
12.5066571962
 21
16.2611901778
 31
0.0
 11
12.4946950526
 21
16.3097541677
 31
0.0
 11
12.4886041303
 21
16.3586277742
 31
0.0
  0
SPLINE
  5
39B
100
AcDbEntity
  8
0
100
AcDbSpline
 62
6
  6
CONTINUOUS
 70
0
 71
3
 72
12
 73
8
 74
6
 42
0.0000001
 43
0.0000001
 44
0.0000000001
 12
-0.0786636735
 22
0.0818821803
 32
0.0
 13
-0.0563084401
 23
0.0986003273
 33
0.0
 40
0.0
 40
0.0
 40
0.0
 40
0.0
 40
0.2525787844
 40
0.5034710631
 40
0.6282804903
 40
0.7526467682
 40
1.0
 40
1.0
 40
1.0
 40
1.0
 10
12.6131287944
 20
16.081860643
 30
0.0
 10
12.6065058694
 20
16.0887545435
 30
0.0
 10
12.5937156194
 20
16.1028981963
 30
0.0
 10
12.5788582228
 20
16.1214845648
 30
0.0
 10
12.5677330738
 20
16.1368000853
 30
0.0
 10
12.5571622189
 20
16.1523406484
 30
0.0
 10
12.549793908
 20
16.1643402256
 30
0.0
 10
12.5451512165
 20
16.1724699288
 30
0.0
 11
12.6131287944
 21
16.081860643
 31
0.0
 11
12.5938953365
 21
16.1031344554
 31
0.0
 11
12.5761112884
 21
16.1253893736
 31
0.0
 11
12.5677830906
 21
16.1368556386
 31
0.0
 11
12.5598416022
 21
16.1485322493
 31
0.0
 11
12.5451512165
 21
16.1724699288
 31
0.0
  0
SPLINE
  5
39C
100
AcDbEntity
  8
0
100
AcDbSpline
 62
6
  6
CONTINUOUS
 70
0
 71
3
 72
11
 73
7
 74
5
 42
0.0000001
 43
0.0000001
 44
0.0000000001
 12
-0.1759217606
 22
0.0375830167
 32
0.0
 13
-0.1513553294
 23
0.0972240365
 33
0.0
 40
0.0
 40
0.0
 40
0.0
 40
0.0
 40
0.2529058245
 40
0.5039518694
 40
0.7530286598
 40
1.0
 40
1.0
 40
1.0
 40
1.0
 10
12.8652048632
 20
15.9428163386
 30
0.0
 10
12.8503743173
 20
15.9459846599
 30
0.0
 10
12.8210902703
 20
15.9536357725
 30
0.0
 10
12.7785447465
 20
15.9689344272
 30
0.0
 10
12.7378586884
 20
15.987822109
 30
0.0
 10
12.7120755869
 20
16.0027513028
 30
0.0
 10
12.6996154441
 20
16.010755153
 30
0.0
 11
12.8652048632
 21
15.9428163386
 31
0.0
 11
12.8211864915
 21
15.9543156051
 31
0.0
 11
12.7786905773
 21
15.9696001563
 31
0.0
 11
12.7380544513
 21
15.9884775022
 31
0.0
 11
12.6996154441
 21
16.010755153
 31
0.0
  0
SPLINE
  5
39D
100
AcDbEntity
  8
0
100
AcDbSpline
 62
6
  6
CONTINUOUS
 70
0
 71
3
 72
13
 73
9
 74
7
 42
0.0000001
 43
0.0000001
 44
0.0000000001
 12
-0.1396470319
 22
-0.0083543704
 32
0.0
 13
-0.1368095563
 23
0.0292272873
 33
0.0
 40
0.0
 40
0.0
 40
0.0
 40
0.0
 40
0.2518734554
 40
0.5025331375
 40
0.6274008607
 40
0.7519378679
 40
0.8761383569
 40
1.0
 40
1.0
 40
1.0
 40
1.0
 10
13.0043123065
 20
15.9325121352
 30
0.0
 10
12.9925878464
 20
15.9318107205
 30
0.0
 10
12.969141975
 20
15.9311868468
 30
0.0
 10
12.9398855953
 20
15.9323614433
 30
0.0
 10
12.9166585385
 20
15.9344737851
 30
0.0
 10
12.8993680543
 20
15.9366394166
 30
0.0
 10
12.8822082972
 20
15.9393871299
 30
0.0
 10
12.8708533487
 20
15.9416096253
 30
0.0
 10
12.8652048632
 20
15.9428163386
 30
0.0
 11
13.0043123065
 21
15.9325121352
 31
0.0
 11
12.9690884128
 21
15.9315784062
 31
0.0
 11
12.9340503902
 21
15.9329904605
 31
0.0
 11
12.9166536825
 21
15.9345734856
 31
0.0
 11
12.8993665649
 21
15.9367397519
 31
0.0
 11
12.8822100783
 21
15.9394881909
 31
0.0
 11
12.8652048632
 21
15.9428163386
 31
0.0
  0
SPLINE
  5
39E
100
AcDbEntity
  8
0
100
AcDbSpline
 62
6
  6
CONTINUOUS
 70
0
 71
3
 72
13
 73
9
 74
7
 42
0.0000001
 43
0.0000001
 44
0.0000000001
 12
-0.1268873636
 22
-0.0408140113
 32
0.0
 13
-0.1330519741
 23
-0.0079598217
 33
0.0
 40
0.0
 40
0.0
 40
0.0
 40
0.0
 40
0.1258322773
 40
0.2514287115
 40
0.3767926143
 40
0.5019244745
 40
0.751451267
 40
1.0
 40
1.0
 40
1.0
 40
1.0
 10
13.1349927719
 20
15.956989997
 30
0.0
 10
13.1296705966
 20
15.9552780903
 30
0.0
 10
13.1189807966
 20
15.952027083
 30
0.0
 10
13.1028145326
 20
15.9476684613
 30
0.0
 10
13.0865484476
 20
15.9438307401
 30
0.0
 10
13.0647731873
 20
15.9394119591
 30
0.0
 10
13.037390069
 20
15.9351824356
 30
0.0
 10
13.0153356064
 20
15.933171603
 30
0.0
 10
13.0043123065
 20
15.9325121352
 30
0.0
 11
13.1349927719
 21
15.956989997
 31
0.0
 11
13.1189462902
 21
15.9521098335
 31
0.0
 11
13.1027828503
 21
15.9477514756
 31
0.0
 11
13.0865196966
 21
15.9439141404
 31
0.0
 11
13.0701740887
 21
15.9405969516
 31
0.0
 11
13.0373045487
 21
15.9355195082
 31
0.0
 11
13.0043123065
 21
15.9325121352
 31
0.0
  0
SPLINE
  5
39F
100
AcDbEntity
  8
0
100
AcDbSpline
 62
6
  6
CONTINUOUS
 70
0
 71
3
 72
13
 73
9
 74
7
 42
0.0000001
 43
0.0000001
 44
0.0000000001
 12
-0.0729765019
 22
-0.1033402538
 32
0.0
 13
-0.0945241915
 23
-0.0840830251
 33
0.0
 40
0.0
 40
0.0
 40
0.0
 40
0.0
 40
0.2506935513
 40
0.5009466007
 40
0.6259047452
 40
0.7507352653
 40
0.8754344236
 40
1.0
 40
1.0
 40
1.0
 40
1.0
 10
13.4136730587
 20
16.1626248781
 30
0.0
 10
13.4075748126
 20
16.1539892997
 30
0.0
 10
13.3948984472
 20
16.1370741681
 30
0.0
 10
13.3778882532
 20
16.1168726589
 30
0.0
 10
13.36362654
 20
16.1013369543
 30
0.0
 10
13.3526162683
 20
16.0900127238
 30
0.0
 10
13.3412962073
 20
16.0790222336
 30
0.0
 10
13.3335438811
 20
16.0719208267
 30
0.0
 10
13.3296190609
 20
16.0684295432
 30
0.0
 11
13.4136730587
 21
16.1626248781
 31
0.0
 11
13.3946524266
 21
16.1372463057
 31
0.0
 11
13.3742587771
 21
16.1130301189
 31
0.0
 11
13.3635679007
 21
16.1013848463
 31
0.0
 11
13.352558766
 21
16.0900624815
 31
0.0
 11
13.3412397049
 21
16.0790737949
 31
0.0
 11
13.3296190609
 21
16.0684295432
 31
0.0
  0
SPLINE
  5
3A0
100
AcDbEntity
  8
0
100
AcDbSpline
 62
6
  6
CONTINUOUS
 70
0
 71
3
 72
11
 73
7
 74
5
 42
0.0000001
 43
0.0000001
 44
0.0000000001
 12
-0.006379272
 22
-0.1974415829
 32
0.0
 13
-0.074134265
 23
-0.1831064841
 33
0.0
 40
0.0
 40
0.0
 40
0.0
 40
0.0
 40
0.2502253873
 40
0.5003844286
 40
0.7503518846
 40
1.0
 40
1.0
 40
1.0
 40
1.0
 10
13.5157195087
 20
16.4672657021
 30
0.0
 10
13.5151874234
 20
16.4507974033
 30
0.0
 10
13.512655285
 20
16.4178945948
 30
0.0
 10
13.5045446407
 20
16.3690938565
 30
0.0
 10
13.4922121051
 20
16.3212248532
 30
0.0
 10
13.4812210262
 20
16.2901625632
 30
0.0
 10
13.4750518663
 20
16.274925167
 30
0.0
 11
13.5157195087
 21
16.4672657021
 31
0.0
 11
13.5119356142
 21
16.4179800655
 31
0.0
 11
13.5038369509
 21
16.3692306249
 31
0.0
 11
13.4915126558
 21
16.3214135892
 31
0.0
 11
13.4750518663
 21
16.274925167
 31
0.0
  0
SPLINE
  5
3A1
100
AcDbEntity
  8
0
100
AcDbSpline
 62
6
  6
CONTINUOUS
 70
0
 71
3
 72
13
 73
9
 74
7
 42
0.0000001
 43
0.0000001
 44
0.0000000001
 12
0.0323639386
 22
-0.1410478102
 32
0.0
 13
-0.0046731967
 23
-0.1446377216
 33
0.0
 40
0.0
 40
0.0
 40
0.0
 40
0.0
 40
0.2498944928
 40
0.4998801539
 40
0.624905167
 40
0.7499344693
 40
0.874965975
 40
1.0
 40
1.0
 40
1.0
 40
1.0
 10
13.5016950147
 20
16.6109113211
 30
0.0
 10
13.5043908714
 20
16.5991622975
 30
0.0
 10
13.5090362223
 20
16.5754817399
 30
0.0
 10
13.5129427987
 20
16.5455702904
 30
0.0
 10
13.5149105814
 20
16.5215263288
 30
0.0
 10
13.515803002
 20
16.5034517262
 30
0.0
 10
13.5161071612
 20
16.4853575245
 30
0.0
 10
13.5159142782
 20
16.4732939143
 30
0.0
 10
13.5157195087
 20
16.4672657021
 30
0.0
 11
13.5016950147
 21
16.6109113211
 31
0.0
 11
13.5086554225
 21
16.575424457
 31
0.0
 11
13.5133380052
 21
16.5395525654
 31
0.0
 11
13.5148132963
 21
16.5215200443
 31
0.0
 11
13.5157049523
 21
16.5034486383
 31
0.0
 11
13.5160082467
 21
16.4853574716
 31
0.0
 11
13.5157195087
 21
16.4672657021
 31
0.0
  0
SPLINE
  5
3A2
100
AcDbEntity
  8
0
100
AcDbSpline
 62
6
  6
CONTINUOUS
 70
0
 71
3
 72
12
 73
8
 74
6
 42
0.0000001
 43
0.0000001
 44
0.0000000001
 12
0.0659554734
 22
-0.1264903345
 32
0.0
 13
0.0319032321
 23
-0.139039969
 33
0.0
 40
0.0
 40
0.0
 40
0.0
 40
0.0
 40
0.1247486031
 40
0.2495791198
 40
0.4994487163
 40
0.7496086102
 40
1.0
 40
1.0
 40
1.0
 40
1.0
 10
13.4526090593
 20
16.7444633794
 30
0.0
 10
13.455351677
 20
16.7392035486
 30
0.0
 10
13.4606680029
 20
16.7285902592
 30
0.0
 10
13.470611407
 20
16.7070192269
 30
0.0
 10
13.4817421882
 20
16.6794458387
 30
0.0
 10
13.4929774442
 20
16.6455542641
 30
0.0
 10
13.4990322498
 20
16.6225161248
 30
0.0
 10
13.5016950147
 20
16.6109113211
 30
0.0
 11
13.4526090593
 21
16.7444633794
 31
0.0
 11
13.4605794362
 21
16.7285522813
 31
0.0
 11
13.4680348877
 21
16.7123806324
 31
0.0
 11
13.4813822459
 21
16.6793292769
 31
0.0
 11
13.4926144566
 21
16.6454569364
 31
0.0
 11
13.5016950147
 21
16.6109113211
 31
0.0
  0
SPLINE
  5
3A3
100
AcDbEntity
  8
0
100
AcDbSpline
 62
6
  6
CONTINUOUS
 70
0
 71
3
 72
13
 73
9
 74
7
 42
0.0000001
 43
0.0000001
 44
0.0000000001
 12
-0.0481298181
 22
-0.1188773069
 32
0.0
 13
-0.0739807346
 23
-0.1047623234
 33
0.0
 40
0.0
 40
0.0
 40
0.0
 40
0.0
 40
0.1252547798
 40
0.2504428504
 40
0.3755640345
 40
0.50061643
 40
0.7504740832
 40
1.0
 40
1.0
 40
1.0
 40
1.0
 10
13.4750518663
 20
16.274925167
 30
0.0
 10
13.4730423697
 20
16.26996185
 30
0.0
 10
13.468879659
 20
16.2600957608
 30
0.0
 10
13.4622087966
 20
16.2454893859
 30
0.0
 10
13.455121526
 20
16.2310898556
 30
0.0
 10
13.4451317116
 20
16.2121884048
 30
0.0
 10
13.4316464487
 20
16.1891325593
 30
0.0
 10
13.4198264289
 20
16.1713385163
 30
0.0
 10
13.4136730587
 20
16.1626248781
 30
0.0
 11
13.4750518663
 21
16.274925167
 31
0.0
 11
13.4688070826
 21
16.2601246263
 31
0.0
 11
13.4621375515
 21
16.2455199736
 31
0.0
 11
13.4550515667
 21
16.2311223361
 31
0.0
 11
13.4475576488
 21
16.2169427282
 31
0.0
 11
13.4313800963
 21
16.1892816583
 31
0.0
 11
13.4136730587
 21
16.1626248781
 31
0.0
  0
SPLINE
  5
3A4
100
AcDbEntity
  8
0
100
AcDbSpline
 62
6
  6
CONTINUOUS
 70
0
 71
3
 72
15
 73
11
 74
9
 42
0.0000001
 43
0.0000001
 44
0.0000000001
 12
0.1116673046
 22
-0.0300582307
 32
0.0
 13
0.0888423649
 23
-0.0740278215
 33
0.0
 40
0.0
 40
0.0
 40
0.0
 40
0.0
 40
0.1319898544
 40
0.2619332478
 40
0.3898699696
 40
0.5158191005
 40
0.6397819415
 40
0.7617621105
 40
0.8818169815
 40
1.0
 40
1.0
 40
1.0
 40
1.0
 10
12.9176114617
 20
16.7527538075
 30
0.0
 10
12.9225244454
 20
16.751431347
 30
0.0
 10
12.9322053591
 20
16.7485425832
 30
0.0
 10
12.9463587975
 20
16.7434687061
 30
0.0
 10
12.9600033062
 20
16.7377282831
 30
0.0
 10
12.973110994
 20
16.731361599
 30
0.0
 10
12.9856553087
 20
16.7244084823
 30
0.0
 10
12.9976119511
 20
16.7169066043
 30
0.0
 10
13.00896466
 20
16.7089004694
 30
0.0
 10
13.0161794282
 20
16.7032103308
 30
0.0
 10
13.0196793145
 20
16.7002940537
 30
0.0
 11
12.9176114617
 21
16.7527538075
 31
0.0
 11
12.9322373312
 21
16.7483879466
 31
0.0
 11
12.9463822371
 21
16.7433154739
 31
0.0
 11
12.9600186425
 21
16.7375764427
 31
0.0
 11
12.9731190103
 21
16.7312109065
 31
0.0
 11
12.9856558036
 21
16.7242589185
 31
0.0
 11
12.997604004
 21
16.7167608662
 31
0.0
 11
13.0089490989
 21
16.70875853
 31
0.0
 11
13.0196793145
 21
16.7002940537
 31
0.0
  0
SPLINE
  5
3A5
100
AcDbEntity
  8
0
100
AcDbSpline
 62
6
  6
CONTINUOUS
 70
0
 71
3
 72
12
 73
8
 74
6
 42
0.0000001
 43
0.0000001
 44
0.0000000001
 12
0.0628320021
 22
-0.0029976197
 32
0.0
 13
0.0607414046
 23
-0.0163501677
 33
0.0
 40
0.0
 40
0.0
 40
0.0
 40
0.0
 40
0.2557896274
 40
0.5077155653
 40
0.7557826554
 40
0.8783748319
 40
1.0
 40
1.0
 40
1.0
 40
1.0
 10
12.8555659899
 20
16.7623839534
 30
0.0
 10
12.860923248
 20
16.7621283668
 30
0.0
 10
12.8715456459
 20
16.7613378392
 30
0.0
 10
12.887270298
 20
16.7593157235
 30
0.0
 10
12.900116763
 20
16.756956627
 30
0.0
 10
12.9101858632
 20
16.7546807304
 30
0.0
 10
12.9151489005
 20
16.7534166715
 30
0.0
 10
12.9176114617
 20
16.7527538075
 30
0.0
 11
12.8555659899
 21
16.7623839534
 31
0.0
 11
12.8716115124
 21
16.7611876848
 31
0.0
 11
12.8873287873
 21
16.7591640353
 31
0.0
 11
12.902675897
 21
16.7563427267
 31
0.0
 11
12.910197543
 21
16.7546422396
 31
0.0
 11
12.9176114617
 21
16.7527538075
 31
0.0
  0
SPLINE
  5
3A6
100
AcDbEntity
  8
0
100
AcDbSpline
 62
6
  6
CONTINUOUS
 70
0
 71
3
 72
13
 73
9
 74
7
 42
0.0000001
 43
0.0000001
 44
0.0000000001
 12
-0.144145446
 22
-0.0128062357
 32
0.0
 13
-0.1361145504
 23
-0.0491399882
 33
0.0
 40
0.0
 40
0.0
 40
0.0
 40
0.0
 40
0.2498944928
 40
0.4998801539
 40
0.624905167
 40
0.7499344693
 40
0.874965975
 40
1.0
 40
1.0
 40
1.0
 40
1.0
 10
12.8624577928
 20
17.0753443483
 30
0.0
 10
12.8504507418
 20
17.0742776124
 30
0.0
 10
12.8264937008
 20
17.0713779089
 30
0.0
 10
12.7968390234
 20
17.0658501377
 30
0.0
 10
12.7733637787
 20
17.0602916175
 30
0.0
 10
12.7558980371
 20
17.0555550005
 30
0.0
 10
12.7385954382
 20
17.0502528573
 30
0.0
 10
12.7271818672
 20
17.0463415541
 30
0.0
 10
12.7215088839
 20
17.0442934972
 30
0.0
 11
12.8624577928
 21
17.0753443483
 31
0.0
 11
12.8265568952
 21
17.0709980454
 31
0.0
 11
12.7909937012
 21
17.064366422
 31
0.0
 11
12.7733878645
 21
17.0601971518
 31
0.0
 11
12.7559253993
 21
17.0554607955
 31
0.0
 11
12.7386259542
 21
17.0501587677
 31
0.0
 11
12.7215088839
 21
17.0442934972
 31
0.0
  0
SPLINE
  5
3A7
100
AcDbEntity
  8
0
100
AcDbSpline
 62
6
  6
CONTINUOUS
 70
0
 71
3
 72
12
 73
8
 74
6
 42
0.0000001
 43
0.0000001
 44
0.0000000001
 12
-0.1303712107
 22
-0.0470665314
 32
0.0
 13
-0.1149329222
 23
-0.0774747335
 33
0.0
 40
0.0
 40
0.0
 40
0.0
 40
0.0
 40
0.2500862912
 40
0.3751381108
 40
0.5001777603
 40
0.7501608975
 40
1.0
 40
1.0
 40
1.0
 40
1.0
 10
12.7215088839
 20
17.0442934972
 30
0.0
 10
12.7106408664
 20
17.0403699325
 30
0.0
 10
12.6945164995
 20
17.0339729227
 30
0.0
 10
12.6734516622
 20
17.0244632241
 30
0.0
 10
12.6526932358
 20
17.0143109326
 30
0.0
 10
12.6273541437
 20
17.0004367596
 30
0.0
 10
12.6078029507
 20
16.9881155456
 30
0.0
 10
12.5982313713
 20
16.981663473
 30
0.0
 11
12.7215088839
 21
17.0442934972
 31
0.0
 11
12.6892868841
 21
17.0315139739
 31
0.0
 11
12.6734889198
 21
17.0243823981
 31
0.0
 11
12.6579197098
 21
17.0167681828
 31
0.0
 11
12.6275277444
 21
17.0001275429
 31
0.0
 11
12.5982313713
 21
16.981663473
 31
0.0
  0
SPLINE
  5
3A8
100
AcDbEntity
  8
0
100
AcDbSpline
 62
6
  6
CONTINUOUS
 70
0
 71
3
 72
13
 73
9
 74
7
 42
0.0000001
 43
0.0000001
 44
0.0000000001
 12
-0.0567228463
 22
0.1331331212
 32
0.0
 13
-0.0887966152
 23
0.1142675387
 33
0.0
 40
0.0
 40
0.0
 40
0.0
 40
0.0
 40
0.2498944928
 40
0.4998801539
 40
0.624905167
 40
0.7499344693
 40
0.874965975
 40
1.0
 40
1.0
 40
1.0
 40
1.0
 10
13.4647355761
 20
16.7246607768
 30
0.0
 10
13.4600106672
 20
16.7357505214
 30
0.0
 10
13.4498497525
 20
16.7576389636
 30
0.0
 10
13.4354287303
 20
16.7841340626
 30
0.0
 10
13.4228880139
 20
16.8047426699
 30
0.0
 10
13.4129860125
 20
16.8198898821
 30
0.0
 10
13.4025965776
 20
16.8347071791
 30
0.0
 10
13.3953497197
 20
16.844353471
 30
0.0
 10
13.3916488537
 20
16.8491159144
 30
0.0
 11
13.4647355761
 21
16.7246607768
 31
0.0
 11
13.449508009
 21
16.757461478
 31
0.0
 11
13.432211329
 21
16.789234801
 31
0.0
 11
13.4228056147
 21
16.8046905714
 31
0.0
 11
13.4129048736
 21
16.8198347481
 31
0.0
 11
13.402516523
 21
16.8346490814
 31
0.0
 11
13.3916488537
 21
16.8491159144
 31
0.0
  0
LINE
  5
3A9
100
AcDbEntity
  8
0
100
AcDbLine
 62
6
  6
CONTINUOUS
 10
13.3122684945
 20
16.9320885383
 11
13.3120122169
 21
16.9323066501
  0
SPLINE
  5
3AA
100
AcDbEntity
  8
0
100
AcDbSpline
 62
9
  6
CONTINUOUS
 70
0
 71
3
 72
39
 73
35
 74
33
 42
0.0000001
 43
0.0000001
 44
0.0000000001
 12
-0.0247196773
 22
0.1611309751
 32
0.0
 13
-0.1469672332
 23
-0.0705328713
 33
0.0
 40
0.0
 40
0.0
 40
0.0
 40
0.0
 40
0.0231584142
 40
0.0464687582
 40
0.0700651399
 40
0.094062642
 40
0.1185580734
 40
0.1436314354
 40
0.1957220019
 40
0.2228707561
 40
0.2507896133
 40
0.2795049889
 40
0.3090383578
 40
0.3241192735
 40
0.3394102206
 40
0.3706061016
 40
0.4025910944
 40
0.4353142039
 40
0.4687150875
 40
0.5027262611
 40
0.5372749581
 40
0.5722847226
 40
0.607676804
 40
0.6433714126
 40
0.6792888855
 40
0.7153508064
 40
0.7514811175
 40
0.7876069141
 40
0.8236549498
 40
0.8595488094
 40
0.8952098596
 40
0.9305583594
 40
0.9655145842
 40
1.0
 40
1.0
 40
1.0
 40
1.0
 10
13.2839654582
 20
16.6558825502
 30
0.0
 10
13.2837746354
 20
16.6571263961
 30
0.0
 10
13.2832614714
 20
16.6596041195
 30
0.0
 10
13.2821152636
 20
16.6632409383
 30
0.0
 10
13.2806033912
 20
16.6667911905
 30
0.0
 10
13.2787378387
 20
16.6702417158
 30
0.0
 10
13.276530089
 20
16.6735804478
 30
0.0
 10
13.273103627
 20
16.6779199738
 30
0.0
 10
13.2690601764
 20
16.6819295813
 30
0.0
 10
13.2645096783
 20
16.6855674136
 30
0.0
 10
13.2607632476
 20
16.6881608554
 30
0.0
 10
13.2567432813
 20
16.6905675602
 30
0.0
 10
13.2531990854
 20
16.6923946939
 30
0.0
 10
13.2502403714
 20
16.693752937
 30
0.0
 10
13.2471588724
 20
16.695056706
 30
0.0
 10
13.2431607918
 20
16.6965460986
 30
0.0
 10
13.2381844367
 20
16.698100837
 30
0.0
 10
13.2330201229
 20
16.6994326048
 30
0.0
 10
13.2276905816
 20
16.7005389967
 30
0.0
 10
13.2222184201
 20
16.7014176242
 30
0.0
 10
13.2166263101
 20
16.7020660591
 30
0.0
 10
13.2109369309
 20
16.7024818602
 30
0.0
 10
13.2051729789
 20
16.7026625728
 30
0.0
 10
13.19935716
 20
16.7026057368
 30
0.0
 10
13.1935121859
 20
16.7023088719
 30
0.0
 10
13.1876607735
 20
16.7017695378
 30
0.0
 10
13.181825648
 20
16.7009851095
 30
0.0
 10
13.1760298573
 20
16.6999536747
 30
0.0
 10
13.170294602
 20
16.6986848831
 30
0.0
 10
13.1646408054
 20
16.6971878012
 30
0.0
 10
13.1590894072
 20
16.6954716364
 30
0.0
 10
13.1536612972
 20
16.6935455274
 30
0.0
 10
13.1483775319
 20
16.6914186945
 30
0.0
 10
13.1449390452
 20
16.6898612335
 30
0.0
 10
13.1432496365
 20
16.6890504483
 30
0.0
 11
13.2839654582
 21
16.6558825502
 31
0.0
 11
13.2832017958
 21
16.6595796997
 31
0.0
 11
13.2820624445
 21
16.6632048325
 31
0.0
 11
13.2805586492
 21
16.6667452926
 31
0.0
 11
13.2787016546
 21
16.6701884242
 31
0.0
 11
13.2765027054
 21
16.6735215713
 31
0.0
 11
13.2739730463
 21
16.676732078
 31
0.0
 11
13.2679665774
 21
16.6827345468
 31
0.0
 11
13.2645122571
 21
16.6855011971
 31
0.0
 11
13.2607722057
 21
16.6880945833
 31
0.0
 11
13.2567576681
 21
16.6905020497
 31
0.0
 11
13.2524798889
 21
16.6927109403
 31
0.0
 11
13.2502457978
 21
16.6937369647
 31
0.0
 11
13.2479504028
 21
16.6947088542
 31
0.0
 11
13.2431865225
 21
16.6964884768
 31
0.0
 11
13.2382108854
 21
16.6980471794
 31
0.0
 11
13.2330463277
 21
16.6993825087
 31
0.0
 11
13.2277156854
 21
16.7004920112
 31
0.0
 11
13.2222417947
 21
16.7013732335
 31
0.0
 11
13.2166474919
 21
16.7020237222
 31
0.0
 11
13.2109556129
 21
16.7024410239
 31
0.0
 11
13.2051889939
 21
16.702622685
 31
0.0
 11
13.1993704712
 21
16.7025662523
 31
0.0
 11
13.1935228808
 21
16.7022692722
 31
0.0
 11
13.1876690588
 21
16.7017292913
 31
0.0
 11
13.1818318415
 21
16.7009438567
 31
0.0
 11
13.1760337078
 21
16.6999128418
 31
0.0
 11
13.1702959534
 21
16.6986438353
 31
0.0
 11
13.1646396288
 21
16.6971460236
 31
0.0
 11
13.1590857843
 21
16.6954285928
 31
0.0
 11
13.1536554704
 21
16.6935007291
 31
0.0
 11
13.1483697377
 21
16.6913716189
 31
0.0
 11
13.1432496365
 21
16.6890504483
 31
0.0
  0
SPLINE
  5
3AB
100
AcDbEntity
  8
0
100
AcDbSpline
 62
6
  6
CONTINUOUS
 70
0
 71
3
 72
50
 73
46
 74
44
 42
0.0000001
 43
0.0000001
 44
0.0000000001
 12
-0.0005479435
 22
-0.3016076946
 32
0.0
 13
-0.2265948301
 23
0.199053472
 33
0.0
 40
0.0
 40
0.0
 40
0.0
 40
0.0
 40
0.0254429328
 40
0.0503024706
 40
0.074592249
 40
0.0983257544
 40
0.1215455066
 40
0.1329904435
 40
0.1443408966
 40
0.1667990026
 40
0.1779477179
 40
0.1890694047
 40
0.2001917318
 40
0.2113459576
 40
0.2225619816
 40
0.2338717599
 40
0.245311103
 40
0.2569194317
 40
0.2687392219
 40
0.2808095779
 40
0.2931634583
 40
0.3058329529
 40
0.3188495703
 40
0.3322439413
 40
0.3460383423
 40
0.3602440116
 40
0.3748680063
 40
0.3899141618
 40
0.4212622902
 40
0.4375525121
 40
0.4542303837
 40
0.4712763629
 40
0.4886687091
 40
0.5063872244
 40
0.52441163
 40
0.5612831749
 40
0.5990882353
 40
0.6376627376
 40
0.6768659991
 40
0.7165452731
 40
0.7565853703
 40
0.7969068602
 40
0.8374246825
 40
0.9187311084
 40
1.0
 40
1.0
 40
1.0
 40
1.0
 10
21.2837319957
 20
17.3733056494
 30
0.0
 10
21.2837273486
 20
17.3707477213
 30
0.0
 10
21.283579334
 20
17.3656893354
 30
0.0
 10
21.2829035576
 20
17.358215766
 30
0.0
 10
21.2817565832
 20
17.350972475
 30
0.0
 10
21.2801096871
 20
17.3439945306
 30
0.0
 10
21.2782869905
 20
17.3384047186
 30
0.0
 10
21.2765490405
 20
17.3341155964
 30
0.0
 10
21.2746372815
 20
17.3299857218
 30
0.0
 10
21.272424766
 20
17.3260323992
 30
0.0
 10
21.2699014185
 20
17.3223077877
 30
0.0
 10
21.2678560318
 20
17.3196429558
 30
0.0
 10
21.2656500317
 20
17.3171086841
 30
0.0
 10
21.2632803023
 20
17.3147132051
 30
0.0
 10
21.260745008
 20
17.3124650208
 30
0.0
 10
21.2580427873
 20
17.3103731519
 30
0.0
 10
21.2551724404
 20
17.3084468216
 30
0.0
 10
21.2521328848
 20
17.3066951299
 30
0.0
 10
21.2489234374
 20
17.3051279157
 30
0.0
 10
21.2455459769
 20
17.3037531301
 30
0.0
 10
21.2420043955
 20
17.3025766415
 30
0.0
 10
21.2383028176
 20
17.3016052045
 30
0.0
 10
21.2344455188
 20
17.3008452073
 30
0.0
 10
21.2304374443
 20
17.3003040364
 30
0.0
 10
21.2262859153
 20
17.2999848083
 30
0.0
 10
21.2219998547
 20
17.2998865527
 30
0.0
 10
21.2175886178
 20
17.3000094843
 30
0.0
 10
21.21146979
 20
17.3004743082
 30
0.0
 10
21.2052249352
 20
17.3013871716
 30
0.0
 10
21.1988912068
 20
17.3026932409
 30
0.0
 10
21.194005985
 20
17.3038888806
 30
0.0
 10
21.1890582315
 20
17.3052812314
 30
0.0
 10
21.1840583426
 20
17.3068642383
 30
0.0
 10
21.1790156198
 20
17.3086295138
 30
0.0
 10
21.1721946182
 20
17.3112335139
 30
0.0
 10
21.1636211553
 20
17.3148983716
 30
0.0
 10
21.1533632842
 20
17.3198469351
 30
0.0
 10
21.1431064142
 20
17.3253142941
 30
0.0
 10
21.1328881795
 20
17.3312374695
 30
0.0
 10
21.1227373394
 20
17.3375580198
 30
0.0
 10
21.1126771536
 20
17.3442270067
 30
0.0
 10
21.1027245179
 20
17.3512030332
 30
0.0
 10
21.0895988601
 20
17.3608723492
 30
0.0
 10
21.0735527399
 20
17.3735082266
 30
0.0
 10
21.0610953775
 20
17.3840951515
 30
0.0
 10
21.0549570073
 20
17.3894874365
 30
0.0
 11
21.2837319957
 21
17.3733056494
 31
0.0
 11
21.2834988962
 21
17.3656353936
 31
0.0
 11
21.2828144322
 21
17.3581688604
 31
0.0
 11
21.2816571695
 21
17.3509348461
 31
0.0
 11
21.2800006992
 21
17.3439709238
 31
0.0
 11
21.2778174875
 21
17.3373166513
 31
0.0
 11
21.2765197493
 21
17.3341179957
 31
0.0
 11
21.2750799771
 21
17.3310120896
 31
0.0
 11
21.2717601169
 21
17.325107897
 31
0.0
 11
21.2698728939
 21
17.3223248967
 31
0.0
 11
21.2678293857
 21
17.3196648179
 31
0.0
 11
21.2656260248
 21
17.3171353039
 31
0.0
 11
21.2632595246
 21
17.3147441623
 31
0.0
 11
21.2607281478
 21
17.3125001103
 31
0.0
 11
21.2580306888
 21
17.3104121765
 31
0.0
 11
21.2551659427
 21
17.3084893903
 31
0.0
 11
21.2521327044
 21
17.3067407806
 31
0.0
 11
21.2489298585
 21
17.3051753367
 31
0.0
 11
21.2455587383
 21
17.3038009562
 31
0.0
 11
21.242023362
 21
17.30262434
 31
0.0
 11
21.2383278848
 21
17.3016521281
 31
0.0
 11
21.2344764617
 21
17.3008909602
 31
0.0
 11
21.2304733512
 21
17.3003473519
 31
0.0
 11
21.2263253749
 21
17.3000247233
 31
0.0
 11
21.2220420301
 21
17.2999232647
 31
0.0
 11
21.2176329394
 21
17.3000430148
 31
0.0
 11
21.2131077254
 21
17.3003840126
 31
0.0
 11
21.2037484456
 21
17.3017249506
 31
0.0
 11
21.1989358291
 21
17.302714339
 31
0.0
 11
21.1940492211
 21
17.3039075698
 31
0.0
 11
21.1890996186
 21
17.3052980532
 31
0.0
 11
21.1840978728
 21
17.306879077
 31
0.0
 11
21.1790531612
 21
17.3086425251
 31
0.0
 11
21.1739735918
 21
17.3105793841
 31
0.0
 11
21.1637422413
 21
17.3149372241
 31
0.0
 11
21.1534673312
 21
17.319880809
 31
0.0
 11
21.1431955934
 21
17.3253443553
 31
0.0
 11
21.1329615205
 21
17.3312664593
 31
0.0
 11
21.1227987568
 21
17.3375863914
 31
0.0
 11
21.1127300845
 21
17.3442543589
 31
0.0
 11
21.1027685476
 21
17.3512303749
 31
0.0
 11
21.0929268454
 21
17.3584747998
 31
0.0
 11
21.0736466937
 21
17.3736286042
 31
0.0
 11
21.0549570073
 21
17.3894874365
 31
0.0
  0
SPLINE
  5
3AC
100
AcDbEntity
  8
0
100
AcDbSpline
 62
6
  6
CONTINUOUS
 70
0
 71
3
 72
68
 73
64
 74
62
 42
0.0000001
 43
0.0000001
 44
0.0000000001
 12
-0.0005956931
 22
0.353175203
 32
0.0
 13
0.0
 23
-0.3531757053
 33
0.0
 40
0.0
 40
0.0
 40
0.0
 40
0.0
 40
0.0165641276
 40
0.0325071335
 40
0.0477825575
 40
0.0623496716
 40
0.0761904
 40
0.0893024227
 40
0.1016920159
 40
0.1133770565
 40
0.1244025522
 40
0.12969196
 40
0.1348459972
 40
0.1447927817
 40
0.1543480362
 40
0.16362803
 40
0.1727584874
 40
0.1818631735
 40
0.1910576471
 40
0.2004455732
 40
0.2101138878
 40
0.22012705
 40
0.2305343577
 40
0.2413729309
 40
0.252669444
 40
0.2644401775
 40
0.2766905186
 40
0.2894210567
 40
0.3026291817
 40
0.3163096295
 40
0.3304541375
 40
0.345049504
 40
0.3600814304
 40
0.3913967632
 40
0.4076541583
 40
0.4242857614
 40
0.4412701366
 40
0.4585880592
 40
0.4762227134
 40
0.4941580995
 40
0.5308183669
 40
0.5683696976
 40
0.6066468204
 40
0.625991787
 40
0.6454388856
 40
0.6551961995
 40
0.6649733863
 40
0.6845753619
 40
0.7042259861
 40
0.7239086682
 40
0.7436116852
 40
0.7633282484
 40
0.7830528044
 40
0.8027798249
 40
0.8225045364
 40
0.8422243973
 40
0.8619428065
 40
0.8816639178
 40
0.9013907031
 40
0.9211253094
 40
0.940864947
 40
0.960600351
 40
1.0
 40
1.0
 40
1.0
 40
1.0
 10
22.5607882356
 20
18.0651030864
 30
0.0
 10
22.5607849466
 20
18.0670530995
 30
0.0
 10
22.5607975294
 20
18.0708800932
 30
0.0
 10
22.5608955401
 20
18.0765046925
 30
0.0
 10
22.5610904143
 20
18.0818916908
 30
0.0
 10
22.5614008374
 20
18.0870255625
 30
0.0
 10
22.5618434609
 20
18.0918943352
 30
0.0
 10
22.5624342498
 20
18.0964893797
 30
0.0
 10
22.5631892154
 20
18.1008034786
 30
0.0
 10
22.5641261059
 20
18.1048305202
 30
0.0
 10
22.5650833795
 20
18.1079879285
 30
0.0
 10
22.5659533027
 20
18.1103615829
 30
0.0
 10
22.5668687235
 20
18.1125811793
 30
0.0
 10
22.5681430745
 20
18.1151936681
 30
0.0
 10
22.5699099438
 20
18.1180912084
 30
0.0
 10
22.5719047413
 20
18.1207178073
 30
0.0
 10
22.5741261175
 20
18.1230833992
 30
0.0
 10
22.5765714498
 20
18.1252008473
 30
0.0
 10
22.5792383424
 20
18.127083495
 30
0.0
 10
22.5821242295
 20
18.128745239
 30
0.0
 10
22.5852257983
 20
18.1301999916
 30
0.0
 10
22.5885390886
 20
18.1314609647
 30
0.0
 10
22.5920595822
 20
18.1325405787
 30
0.0
 10
22.5957827944
 20
18.1334509772
 30
0.0
 10
22.599704085
 20
18.1342042875
 30
0.0
 10
22.6038184203
 20
18.1348116213
 30
0.0
 10
22.6081208738
 20
18.1352771348
 30
0.0
 10
22.6126054977
 20
18.1356053294
 30
0.0
 10
22.6172662626
 20
18.1358005178
 30
0.0
 10
22.6220970006
 20
18.1358669769
 30
0.0
 10
22.6270911101
 20
18.1358092259
 30
0.0
 10
22.6322413301
 20
18.1356231871
 30
0.0
 10
22.6394033987
 20
18.1351923018
 30
0.0
 10
22.6467428769
 20
18.1344867041
 30
0.0
 10
22.6542383488
 20
18.1335091814
 30
0.0
 10
22.6600413074
 20
18.1326115025
 30
0.0
 10
22.6659428184
 20
18.1315463881
 30
0.0
 10
22.6719299538
 20
18.1303023376
 30
0.0
 10
22.6779895553
 20
18.1288676185
 30
0.0
 10
22.6862050495
 20
18.1266703257
 30
0.0
 10
22.6965514615
 20
18.1233818481
 30
0.0
 10
22.7088715531
 20
18.1184936573
 30
0.0
 10
22.7189402534
 20
18.1135458929
 30
0.0
 10
22.7268085659
 20
18.1090233047
 30
0.0
 10
22.7316301352
 20
18.1059497658
 30
0.0
 10
22.7354083593
 20
18.1033442527
 30
0.0
 10
22.7391354754
 20
18.1006349997
 30
0.0
 10
22.7436756031
 20
18.0970664524
 30
0.0
 10
22.7489063408
 20
18.0925035895
 30
0.0
 10
22.75389917
 20
18.0876640638
 30
0.0
 10
22.7586280116
 20
18.0825553904
 30
0.0
 10
22.7630680224
 20
18.077187282
 30
0.0
 10
22.7672051607
 20
18.071578964
 30
0.0
 10
22.7710245088
 20
18.0657483907
 30
0.0
 10
22.7745116457
 20
18.0597138028
 30
0.0
 10
22.7776514398
 20
18.0534925284
 30
0.0
 10
22.7804367345
 20
18.0471052208
 30
0.0
 10
22.7828623617
 20
18.0405720398
 30
0.0
 10
22.7849230725
 20
18.033912739
 30
0.0
 10
22.7866129372
 20
18.0271476868
 30
0.0
 10
22.7879286573
 20
18.0202986702
 30
0.0
 10
22.7891827572
 20
18.0110951608
 30
0.0
 10
22.789561834
 20
18.0041257695
 30
0.0
 10
22.789561834
 20
17.9994874365
 30
0.0
 11
22.5607882356
 21
18.0651030864
 31
0.0
 11
22.5608118154
 21
18.0709530863
 31
0.0
 11
22.560914863
 21
18.0765828257
 31
0.0
 11
22.5611157131
 21
18.0819739942
 31
0.0
 11
22.5614325491
 21
18.0871089797
 31
0.0
 11
22.5618821901
 21
18.0919764647
 31
0.0
 11
22.5624807313
 21
18.0965684687
 31
0.0
 11
22.5632442617
 21
18.1008770416
 31
0.0
 11
22.5641887807
 21
18.1048943741
 31
0.0
 11
22.5653266642
 21
18.1086183462
 31
0.0
 11
22.5659705085
 21
18.1103719784
 31
0.0
 11
22.5666654972
 21
18.1120543614
 31
0.0
 11
22.5682125357
 21
18.1152083396
 31
0.0
 11
22.5699750358
 21
18.1180862006
 31
0.0
 11
22.5719593908
 21
18.1206946741
 31
0.0
 11
22.5741666755
 21
18.1230454823
 31
0.0
 11
22.5765959403
 21
18.1251522474
 31
0.0
 11
22.5792462319
 21
18.1270285956
 31
0.0
 11
22.5821165961
 21
18.1286881526
 31
0.0
 11
22.5852052564
 21
18.1301440938
 31
0.0
 11
22.5885079912
 21
18.1314082567
 31
0.0
 11
22.5920201266
 21
18.1324922312
 31
0.0
 11
22.5957369888
 21
18.1334076071
 31
0.0
 11
22.5996539035
 21
18.1341659724
 31
0.0
 11
22.6037658536
 21
18.1347772461
 31
0.0
 11
22.608066844
 21
18.135246587
 31
0.0
 11
22.6125507068
 21
18.1355783113
 31
0.0
 11
22.6172112736
 21
18.135776735
 31
0.0
 11
22.6220423764
 21
18.1358461743
 31
0.0
 11
22.6270375541
 21
18.1357897299
 31
0.0
 11
22.6321889634
 21
18.1356047653
 31
0.0
 11
22.6374883533
 21
18.1352869529
 31
0.0
 11
22.6484980715
 21
18.134235474
 31
0.0
 11
22.6541915267
 21
18.1334925865
 31
0.0
 11
22.6599962473
 21
18.1325938862
 31
0.0
 11
22.6658992176
 21
18.1315277862
 31
0.0
 11
22.6718874125
 21
18.1302826861
 31
0.0
 11
22.6779478073
 21
18.1288469855
 31
0.0
 11
22.6840666822
 21
18.1272089175
 31
0.0
 11
22.6964014512
 21
18.1232729755
 31
0.0
 11
22.7087227047
 21
18.1183665379
 31
0.0
 11
22.720849092
 21
18.1123914295
 31
0.0
 11
22.7267713061
 21
18.1089846777
 31
0.0
 11
22.7325615114
 21
18.1052905904
 31
0.0
 11
22.7353981993
 21
18.1033339513
 31
0.0
 11
22.7381912513
 21
18.1013035531
 31
0.0
 11
22.7436334558
 21
18.0970245893
 31
0.0
 11
22.7488624419
 21
18.0924613654
 31
0.0
 11
22.7538525873
 21
18.0876218367
 31
0.0
 11
22.7585782765
 21
18.0825139653
 31
0.0
 11
22.7630166694
 21
18.077148356
 31
0.0
 11
22.767151934
 21
18.0715422877
 31
0.0
 11
22.7709693277
 21
18.0657140762
 31
0.0
 11
22.7744541076
 21
18.0596820376
 31
0.0
 11
22.7775924631
 21
18.0534646394
 31
0.0
 11
22.7803766237
 21
18.0470813311
 31
0.0
 11
22.7828012275
 21
18.0405519541
 31
0.0
 11
22.7848609189
 21
18.0338963507
 31
0.0
 11
22.7865504092
 21
18.0271344349
 31
0.0
 11
22.7878663528
 21
18.020288199
 31
0.0
 11
22.7888075958
 21
18.0133819792
 31
0.0
 11
22.789561834
 21
17.9994874365
 31
0.0
  0
SPLINE
  5
3AD
100
AcDbEntity
  8
0
100
AcDbSpline
 62
6
  6
CONTINUOUS
 70
0
 71
3
 72
40
 73
36
 74
34
 42
0.0000001
 43
0.0000001
 44
0.0000000001
 12
0.0
 22
0.2428800409
 32
0.0
 13
0.2428800409
 23
-0.0
 33
0.0
 40
0.0
 40
0.0
 40
0.0
 40
0.0
 40
0.0330695851
 40
0.0661033109
 40
0.0990032603
 40
0.1316766166
 40
0.1640529075
 40
0.1960836507
 40
0.2589495278
 40
0.2897728791
 40
0.305030963
 40
0.3201883573
 40
0.3502145318
 40
0.3799090335
 40
0.3946554064
 40
0.4093456686
 40
0.4239902118
 40
0.4386006091
 40
0.4677657289
 40
0.4969450917
 40
0.51157083
 40
0.5262330215
 40
0.5557037747
 40
0.5854351341
 40
0.6154786856
 40
0.6458656408
 40
0.6766153236
 40
0.7077323937
 40
0.7392042006
 40
0.7710060028
 40
0.8031139809
 40
0.8354987971
 40
0.8681233314
 40
0.9338972322
 40
1.0
 40
1.0
 40
1.0
 40
1.0
 10
21.7610861892
 20
17.9994874365
 30
0.0
 10
21.7610861892
 20
18.0021647506
 30
0.0
 10
21.7611932865
 20
18.0075171077
 30
0.0
 10
21.7616778711
 20
18.0155198778
 30
0.0
 10
21.7624901465
 20
18.0234640839
 30
0.0
 10
21.7636335053
 20
18.0313136808
 30
0.0
 10
21.7651147649
 20
18.0390356361
 30
0.0
 10
21.7675357769
 20
18.0490538502
 30
0.0
 10
21.7706731754
 20
18.05876148
 30
0.0
 10
21.7741071105
 20
18.0668911766
 30
0.0
 10
21.7762465731
 20
18.0713646083
 30
0.0
 10
21.7784978992
 20
18.0757101116
 30
0.0
 10
21.7815516634
 20
18.0809525075
 30
0.0
 10
21.7849403724
 20
18.0859452816
 30
0.0
 10
21.7878375482
 20
18.0897574501
 30
0.0
 10
21.7900989143
 20
18.0925194162
 30
0.0
 10
21.7924531585
 20
18.0951880342
 30
0.0
 10
21.7957128021
 20
18.098616355
 30
0.0
 10
21.8000178606
 20
18.1026684555
 30
0.0
 10
21.8046067177
 20
18.1063975821
 30
0.0
 10
21.8084343597
 20
18.1091838469
 30
0.0
 10
21.812376838
 20
18.1118475088
 30
0.0
 10
21.8175020247
 20
18.1149380124
 30
0.0
 10
21.8239191594
 20
18.1182681196
 30
0.0
 10
21.8305896545
 20
18.12124228
 30
0.0
 10
21.8374894965
 20
18.1238757375
 30
0.0
 10
21.8445943411
 20
18.126188089
 30
0.0
 10
21.851880351
 20
18.1282011499
 30
0.0
 10
21.8593245223
 20
18.129936382
 30
0.0
 10
21.8669051849
 20
18.1314155836
 30
0.0
 10
21.8746033322
 20
18.132655081
 30
0.0
 10
21.8824011023
 20
18.1336713666
 30
0.0
 10
21.8929348923
 20
18.1347537328
 30
0.0
 10
21.9062295937
 20
18.1356249924
 30
0.0
 10
21.9169077397
 20
18.135846338
 30
0.0
 10
21.9222594207
 20
18.135846338
 30
0.0
 11
21.7610861892
 21
17.9994874365
 31
0.0
 11
21.7612475169
 21
18.0075177583
 31
0.0
 11
21.7617338516
 21
18.0155262377
 31
0.0
 11
21.7625487211
 21
18.0234753213
 31
0.0
 11
21.7636958097
 21
18.0313276852
 31
0.0
 11
21.7651812986
 21
18.039049655
 31
0.0
 11
21.7670133714
 21
18.0466104833
 31
0.0
 11
21.7717496927
 21
18.0611261836
 31
0.0
 11
21.7746681684
 21
18.0680202635
 31
0.0
 11
21.7762677841
 21
18.0713631374
 31
0.0
 11
21.7779620438
 21
18.0746315316
 31
0.0
 11
21.7816364906
 21
18.0809309575
 31
0.0
 11
21.7856898427
 21
18.0868963737
 31
0.0
 11
21.7878573195
 21
18.0897476718
 31
0.0
 11
21.7901179756
 21
18.0925080802
 31
0.0
 11
21.7924712943
 21
18.0951751377
 31
0.0
 11
21.7949163661
 21
18.0977469076
 31
0.0
 11
21.8000735405
 21
18.102602966
 31
0.0
 11
21.805572088
 21
18.1070742909
 31
0.0
 11
21.8084438763
 21
18.109165144
 31
0.0
 11
21.8113943984
 21
18.1111591938
 31
0.0
 11
21.8175208773
 21
18.1148607048
 31
0.0
 11
21.8239274616
 21
18.1181924821
 31
0.0
 11
21.8305894766
 21
18.1211696383
 31
0.0
 11
21.8374823105
 21
18.1238076153
 31
0.0
 11
21.8445820311
 21
18.1261254211
 31
0.0
 11
21.8518651218
 21
18.1281442448
 31
0.0
 11
21.8593080721
 21
18.1298853066
 31
0.0
 11
21.8668882331
 21
18.1313691163
 31
0.0
 11
21.8745867724
 21
18.1326130348
 31
0.0
 11
21.882385914
 21
18.1336335519
 31
0.0
 11
21.8902678818
 21
18.1344471571
 31
0.0
 11
21.9062080159
 21
18.1355045642
 31
0.0
 11
21.9222594207
 21
18.135846338
 31
0.0
  0
SPLINE
  5
3AE
100
AcDbEntity
  8
0
100
AcDbSpline
 62
6
  6
CONTINUOUS
 70
0
 71
3
 72
15
 73
11
 74
9
 42
0.0000001
 43
0.0000001
 44
0.0000000001
 12
0.0124161785
 22
-0.0123340254
 32
0.0
 13
0.0049942747
 23
-0.0167733984
 33
0.0
 40
0.0
 40
0.0
 40
0.0
 40
0.0
 40
0.1056007894
 40
0.2167576446
 40
0.3334974048
 40
0.4558263197
 40
0.5837737238
 40
0.717322
 40
0.8562052864
 40
1.0
 40
1.0
 40
1.0
 40
1.0
 10
5.2002866866
 20
13.8427806879
 30
0.0
 10
5.2007237393
 20
13.8423465269
 30
0.0
 10
5.2015821955
 20
13.841415824
 30
0.0
 10
5.2027885976
 20
13.8398874388
 30
0.0
 10
5.2039400764
 20
13.83819782
 30
0.0
 10
5.2050299522
 20
13.8363533172
 30
0.0
 10
5.2060519711
 20
13.8343596369
 30
0.0
 10
5.2069995585
 20
13.8322235186
 30
0.0
 10
5.2078655469
 20
13.829953941
 30
0.0
 10
5.2083746681
 20
13.8283845843
 30
0.0
 10
5.2086140515
 20
13.8275806089
 30
0.0
 11
5.2002866866
 21
13.8427806879
 31
0.0
 11
5.2015425438
 21
13.8414248044
 31
0.0
 11
5.2027505317
 21
13.8398999328
 31
0.0
 11
5.2039035576
 21
13.8382133091
 31
0.0
 11
5.2049949217
 21
13.8363714746
 31
0.0
 11
5.2060185271
 21
13.8343799026
 31
0.0
 11
5.2069681984
 21
13.8322442893
 31
0.0
 11
5.2078362561
 21
13.8299739667
 31
0.0
 11
5.2086140515
 21
13.8275806089
 31
0.0
  0
SPLINE
  5
3AF
100
AcDbEntity
  8
0
100
AcDbSpline
 62
9
  6
CONTINUOUS
 70
0
 71
3
 72
23
 73
19
 74
17
 42
0.0000001
 43
0.0000001
 44
0.0000000001
 12
0.2586251585
 22
0.1284566629
 32
0.0
 13
0.258625068
 23
-0.128456845
 33
0.0
 40
0.0
 40
0.0
 40
0.0
 40
0.0
 40
0.0652680803
 40
0.129465148
 40
0.1927150585
 40
0.2551606607
 40
0.3169529407
 40
0.3782480441
 40
0.439208262
 40
0.5000001315
 40
0.5607920077
 40
0.6217522399
 40
0.683047349
 40
0.7448396293
 40
0.807285216
 40
0.8705350473
 40
0.934732003
 40
1.0
 40
1.0
 40
1.0
 40
1.0
 10
5.2002867019
 20
13.8427807417
 30
0.0
 10
5.2059133578
 20
13.8455754483
 30
0.0
 10
5.2172192178
 20
13.8508333618
 30
0.0
 10
5.2344429273
 20
13.8577454408
 30
0.0
 10
5.2517666304
 20
13.8636059967
 30
0.0
 10
5.2691730484
 20
13.8684090302
 30
0.0
 10
5.2866462112
 20
13.8721499044
 30
0.0
 10
5.3041696368
 20
13.8748246947
 30
0.0
 10
5.3217266107
 20
13.876430723
 30
0.0
 10
5.3393003816
 20
13.8769661694
 30
0.0
 10
5.356874154
 20
13.8764307206
 30
0.0
 10
5.3744311295
 20
13.8748246827
 30
0.0
 10
5.3919545573
 20
13.8721498939
 30
0.0
 10
5.4094277183
 20
13.8684090158
 30
0.0
 10
5.426834126
 20
13.8636059784
 30
0.0
 10
5.4441578061
 20
13.8577454172
 30
0.0
 10
5.4613814942
 20
13.8508333566
 30
0.0
 10
5.4726873365
 20
13.8455754487
 30
0.0
 10
5.4783139832
 20
13.8427807417
 30
0.0
 11
5.2002867019
 21
13.8427807417
 31
0.0
 11
5.2173800856
 21
13.8507207044
 31
0.0
 11
5.2345875636
 21
13.8576175861
 31
0.0
 11
5.2518912903
 21
13.863463897
 31
0.0
 11
5.2692756965
 21
13.868254551
 31
0.0
 11
5.2867250845
 21
13.8719852901
 31
0.0
 11
5.3042231455
 21
13.8746525699
 31
0.0
 11
5.3217536368
 21
13.8762539317
 31
0.0
 11
5.339300381
 21
13.8767878515
 31
0.0
 11
5.3568471269
 21
13.8762539282
 31
0.0
 11
5.3743776218
 21
13.8746525596
 31
0.0
 11
5.3918756843
 21
13.8719852785
 31
0.0
 11
5.4093250716
 21
13.868254536
 31
0.0
 11
5.4267094716
 21
13.8634638762
 31
0.0
 11
5.4440131741
 21
13.857617565
 31
0.0
 11
5.4612206233
 21
13.8507206984
 31
0.0
 11
5.4783139832
 21
13.8427807417
 31
0.0
  0
SPLINE
  5
3B0
100
AcDbEntity
  8
0
100
AcDbSpline
 62
9
  6
CONTINUOUS
 70
0
 71
3
 72
23
 73
19
 74
17
 42
0.0000001
 43
0.0000001
 44
0.0000000001
 12
0.25241839
 22
0.1253732804
 32
0.0
 13
0.2524184008
 23
-0.1253732586
 33
0.0
 40
0.0
 40
0.0
 40
0.0
 40
0.0
 40
0.0652681052
 40
0.1294652455
 40
0.1927151216
 40
0.2551606934
 40
0.3169529906
 40
0.3782481009
 40
0.4392083101
 40
0.5000001752
 40
0.5607920475
 40
0.6217522707
 40
0.6830473694
 40
0.7448396416
 40
0.807285223
 40
0.8705350492
 40
0.9347320028
 40
1.0
 40
1.0
 40
1.0
 40
1.0
 10
5.2195948093
 20
13.8159124298
 30
0.0
 10
5.2250864326
 20
13.8186400552
 30
0.0
 10
5.2361209479
 20
13.8237718083
 30
0.0
 10
5.2529312719
 20
13.8305180616
 30
0.0
 10
5.2698392183
 20
13.8362379384
 30
0.0
 10
5.2868278845
 20
13.8409256762
 30
0.0
 10
5.3038816877
 20
13.844576789
 30
0.0
 10
5.3209845532
 20
13.8471873926
 30
0.0
 10
5.3381201612
 20
13.8487548691
 30
0.0
 10
5.3552721611
 20
13.8492774665
 30
0.0
 10
5.372424163
 20
13.8487548732
 30
0.0
 10
5.3895597704
 20
13.8471873807
 30
0.0
 10
5.4066626344
 20
13.8445767851
 30
0.0
 10
5.4237164384
 20
13.8409256867
 30
0.0
 10
5.440705094
 20
13.8362379304
 30
0.0
 10
5.457613009
 20
13.8305180301
 30
0.0
 10
5.47442332
 20
13.8237718341
 30
0.0
 10
5.4854578213
 20
13.8186401149
 30
0.0
 10
5.4909494358
 20
13.8159124944
 30
0.0
 11
5.2195948093
 21
13.8159124298
 31
0.0
 11
5.2362779501
 21
13.8236618571
 31
0.0
 11
5.2530724519
 21
13.8303932644
 31
0.0
 11
5.2699608852
 21
13.8360992497
 31
0.0
 11
5.2869280631
 21
13.8407749104
 31
0.0
 11
5.3039586696
 21
13.8444161237
 31
0.0
 11
5.3210367794
 21
13.8470193964
 31
0.0
 11
5.3381465382
 21
13.8485823222
 31
0.0
 11
5.3552721606
 21
13.8491034287
 31
0.0
 11
5.372397785
 21
13.8485823231
 31
0.0
 11
5.3895075469
 21
13.8470193882
 31
0.0
 11
5.4065856542
 21
13.8444161206
 31
0.0
 11
5.4236162553
 21
13.840774916
 31
0.0
 11
5.4405834314
 21
13.8360992386
 31
0.0
 11
5.4574718458
 21
13.8303932412
 31
0.0
 11
5.474266311
 21
13.8236618838
 31
0.0
 11
5.4909494358
 21
13.8159124944
 31
0.0
  0
SPLINE
  5
3B1
100
AcDbEntity
  8
0
100
AcDbSpline
 62
6
  6
CONTINUOUS
 70
0
 71
3
 72
15
 73
11
 74
9
 42
0.0000001
 43
0.0000001
 44
0.0000000001
 12
-0.0124161736
 22
-0.0123340151
 32
0.0
 13
-0.0049942822
 23
-0.0167733849
 33
0.0
 40
0.0
 40
0.0
 40
0.0
 40
0.0
 40
0.1056005195
 40
0.2167568279
 40
0.3334963384
 40
0.4558254597
 40
0.5837732216
 40
0.7173217499
 40
0.8562051704
 40
1.0
 40
1.0
 40
1.0
 40
1.0
 10
4.6442321548
 20
13.842780684
 30
0.0
 10
4.6437951033
 20
13.8423465245
 30
0.0
 10
4.6429366537
 20
13.8414158228
 30
0.0
 10
4.6417302652
 20
13.8398874364
 30
0.0
 10
4.6405787942
 20
13.8381978183
 30
0.0
 10
4.6394889134
 20
13.836353318
 30
0.0
 10
4.6384668847
 20
13.8343596389
 30
0.0
 10
4.6375192911
 20
13.83222352
 30
0.0
 10
4.6366533011
 20
13.8299539415
 30
0.0
 10
4.6361441795
 20
13.8283845844
 30
0.0
 10
4.6359047956
 20
13.8275806091
 30
0.0
 11
4.6442321548
 21
13.842780684
 31
0.0
 11
4.6429763048
 21
13.8414248017
 31
0.0
 11
4.6417683312
 21
13.8398999325
 31
0.0
 11
4.6406153127
 21
13.8382133106
 31
0.0
 11
4.639523944
 21
13.8363714762
 31
0.0
 11
4.6385003292
 21
13.8343799036
 31
0.0
 11
4.6375506516
 21
13.8322442898
 31
0.0
 11
4.636682592
 21
13.829973967
 31
0.0
 11
4.6359047956
 21
13.8275806091
 31
0.0
  0
SPLINE
  5
3B2
100
AcDbEntity
  8
0
100
AcDbSpline
 62
9
  6
CONTINUOUS
 70
0
 71
3
 72
23
 73
19
 74
17
 42
0.0000001
 43
0.0000001
 44
0.0000000001
 12
0.2524183907
 22
0.1253732928
 32
0.0
 13
0.2524183588
 23
-0.1253733569
 33
0.0
 40
0.0
 40
0.0
 40
0.0
 40
0.0
 40
0.0652680021
 40
0.1294649591
 40
0.1927147846
 40
0.2551603647
 40
0.316952636
 40
0.3782477338
 40
0.4392079561
 40
0.4999998277
 40
0.5607916921
 40
0.6217519002
 40
0.6830470094
 40
0.7448393057
 40
0.8072848759
 40
0.8705347507
 40
0.9347318915
 40
1.0
 40
1.0
 40
1.0
 40
1.0
 10
4.3535694055
 20
13.8159124813
 30
0.0
 10
4.3590610202
 20
13.8186401028
 30
0.0
 10
4.3700955203
 20
13.8237718269
 30
0.0
 10
4.3869058296
 20
13.8305180305
 30
0.0
 10
4.403813745
 20
13.8362379313
 30
0.0
 10
4.4208024011
 20
13.8409256862
 30
0.0
 10
4.4378562053
 20
13.8445767841
 30
0.0
 10
4.4549590695
 20
13.8471873798
 30
0.0
 10
4.4720946769
 20
13.8487548727
 30
0.0
 10
4.489246679
 20
13.8492774655
 30
0.0
 10
4.506398679
 20
13.8487548677
 30
0.0
 10
4.5235342871
 20
13.8471873918
 30
0.0
 10
4.5406371528
 20
13.844576788
 30
0.0
 10
4.5576909557
 20
13.8409256743
 30
0.0
 10
4.5746796221
 20
13.8362379369
 30
0.0
 10
4.591587569
 20
13.8305180613
 30
0.0
 10
4.6083978939
 20
13.8237718082
 30
0.0
 10
4.6194324091
 20
13.8186400534
 30
0.0
 10
4.624924032
 20
13.8159124261
 30
0.0
 11
4.3535694055
 21
13.8159124813
 31
0.0
 11
4.3702525295
 21
13.8236618768
 31
0.0
 11
4.3870469935
 21
13.8303932406
 31
0.0
 11
4.4039354077
 21
13.8360992392
 31
0.0
 11
4.4209025841
 21
13.8407749157
 31
0.0
 11
4.4379331855
 21
13.8444161197
 31
0.0
 11
4.4550112929
 21
13.8470193873
 31
0.0
 11
4.4721210549
 21
13.8485823224
 31
0.0
 11
4.4892466795
 21
13.8491034277
 31
0.0
 11
4.5063723021
 21
13.8485823211
 31
0.0
 11
4.5234820609
 21
13.8470193955
 31
0.0
 11
4.5405601708
 21
13.8444161225
 31
0.0
 11
4.5575907773
 21
13.8407749087
 31
0.0
 11
4.5745579552
 21
13.8360992483
 31
0.0
 11
4.5914463888
 21
13.8303932639
 31
0.0
 11
4.6082408913
 21
13.8236618566
 31
0.0
 11
4.624924032
 21
13.8159124261
 31
0.0
  0
SPLINE
  5
3B3
100
AcDbEntity
  8
0
100
AcDbSpline
 62
9
  6
CONTINUOUS
 70
0
 71
3
 72
23
 73
19
 74
17
 42
0.0000001
 43
0.0000001
 44
0.0000000001
 12
0.2586250597
 22
0.1284568615
 32
0.0
 13
0.2586251349
 23
-0.1284567102
 33
0.0
 40
0.0
 40
0.0
 40
0.0
 40
0.0
 40
0.0652679966
 40
0.1294649502
 40
0.1927147822
 40
0.2551603699
 40
0.3169526499
 40
0.3782477588
 40
0.4392079909
 40
0.4999998667
 40
0.5607917358
 40
0.6217519536
 40
0.6830470564
 40
0.7448393354
 40
0.8072849376
 40
0.8705348498
 40
0.934731919
 40
1.0
 40
1.0
 40
1.0
 40
1.0
 10
4.3662048581
 20
13.8427807417
 30
0.0
 10
4.3718315046
 20
13.8455754491
 30
0.0
 10
4.3831373466
 20
13.8508333569
 30
0.0
 10
4.4003610349
 20
13.8577454168
 30
0.0
 10
4.4176847148
 20
13.8636059782
 30
0.0
 10
4.4350911226
 20
13.8684090158
 30
0.0
 10
4.4525642837
 20
13.8721498938
 30
0.0
 10
4.4700877114
 20
13.8748246826
 30
0.0
 10
4.4876446868
 20
13.8764307205
 30
0.0
 10
4.5052184591
 20
13.8769661692
 30
0.0
 10
4.52279223
 20
13.8764307228
 30
0.0
 10
4.5403492037
 20
13.8748246946
 30
0.0
 10
4.5578726292
 20
13.8721499044
 30
0.0
 10
4.5753457918
 20
13.8684090301
 30
0.0
 10
4.5927522098
 20
13.8636059963
 30
0.0
 10
4.6100759132
 20
13.8577454404
 30
0.0
 10
4.6272996238
 20
13.8508333631
 30
0.0
 10
4.638605484
 20
13.8455754494
 30
0.0
 10
4.6442321394
 20
13.8427807417
 30
0.0
 11
4.3662048581
 21
13.8427807417
 31
0.0
 11
4.3832982177
 21
13.8507206987
 31
0.0
 11
4.4005056666
 21
13.8576175647
 31
0.0
 11
4.4178093692
 21
13.863463876
 31
0.0
 11
4.4351937695
 21
13.8682545359
 31
0.0
 11
4.4526431567
 21
13.8719852784
 31
0.0
 11
4.4701412191
 21
13.8746525595
 31
0.0
 11
4.4876717139
 21
13.8762539281
 31
0.0
 11
4.5052184598
 21
13.8767878513
 31
0.0
 11
4.5227652038
 21
13.8762539316
 31
0.0
 11
4.5402956951
 21
13.8746525697
 31
0.0
 11
4.557793756
 21
13.87198529
 31
0.0
 11
4.5752431436
 21
13.8682545509
 31
0.0
 11
4.5926275498
 21
13.8634638967
 31
0.0
 11
4.609931277
 21
13.857617586
 31
0.0
 11
4.627138756
 21
13.8507207053
 31
0.0
 11
4.6442321394
 21
13.8427807417
 31
0.0
  0
LINE
  5
3B4
100
AcDbEntity
  8
0
100
AcDbLine
 62
6
  6
CONTINUOUS
 10
5.1936140472
 20
13.8159124194
 11
5.2086140515
 21
13.8275806089
  0
SPLINE
  5
3B5
100
AcDbEntity
  8
0
100
AcDbSpline
 62
6
  6
CONTINUOUS
 70
0
 71
3
 72
15
 73
11
 74
9
 42
0.0000001
 43
0.0000001
 44
0.0000000001
 12
0.012671874
 22
-0.0099287694
 32
0.0
 13
0.0086098948
 23
-0.0136024469
 33
0.0
 40
0.0
 40
0.0
 40
0.0
 40
0.0
 40
0.1367037243
 40
0.2702413523
 40
0.4004886628
 40
0.5273682864
 40
0.6507946032
 40
0.7706683633
 40
0.8870153611
 40
1.0
 40
1.0
 40
1.0
 40
1.0
 10
5.2086140515
 20
13.8275806089
 30
0.0
 10
5.2091914823
 20
13.8271281757
 30
0.0
 10
5.2103196061
 20
13.8262165218
 30
0.0
 10
5.2119438197
 20
13.8248085198
 30
0.0
 10
5.2134725393
 20
13.8233731399
 30
0.0
 10
5.2148999854
 20
13.8219119284
 30
0.0
 10
5.2162271301
 20
13.8204331356
 30
0.0
 10
5.2174556595
 20
13.8189439825
 30
0.0
 10
5.2185820701
 20
13.8174456088
 30
0.0
 10
5.2192705473
 20
13.8164247189
 30
0.0
 10
5.2195948093
 20
13.8159124298
 30
0.0
 11
5.2086140515
 21
13.8275806089
 31
0.0
 11
5.210324599
 21
13.8261960055
 31
0.0
 11
5.2119475337
 21
13.8247862378
 31
0.0
 11
5.2134750194
 21
13.823349847
 31
0.0
 11
5.2149022727
 21
13.8218886939
 31
0.0
 11
5.2162292718
 21
13.8204098148
 31
0.0
 11
5.217456131
 21
13.8189202418
 31
0.0
 11
5.2185797213
 21
13.8174216914
 31
0.0
 11
5.2195948093
 21
13.8159124298
 31
0.0
  0
SPLINE
  5
3B6
100
AcDbEntity
  8
0
100
AcDbSpline
 62
6
  6
CONTINUOUS
 70
0
 71
3
 72
15
 73
11
 74
9
 42
0.0000001
 43
0.0000001
 44
0.0000000001
 12
0.0086098995
 22
0.0136024519
 32
0.0
 13
0.01267188
 23
0.0099287726
 33
0.0
 40
0.0
 40
0.0
 40
0.0
 40
0.0
 40
0.1129846304
 40
0.2293316226
 40
0.34920538
 40
0.4726316966
 40
0.599511322
 40
0.7297586364
 40
0.8632962695
 40
1.0
 40
1.0
 40
1.0
 40
1.0
 10
4.624924032
 20
13.8159124261
 30
0.0
 10
4.6252482941
 20
13.8164247154
 30
0.0
 10
4.6259367717
 20
13.8174456056
 30
0.0
 10
4.6270631828
 20
13.8189439797
 30
0.0
 10
4.6282917129
 20
13.8204331333
 30
0.0
 10
4.6296188583
 20
13.8219119266
 30
0.0
 10
4.6310463052
 20
13.8233731386
 30
0.0
 10
4.6325750256
 20
13.8248085189
 30
0.0
 10
4.6341992401
 20
13.8262165214
 30
0.0
 10
4.6353273645
 20
13.8271281757
 30
0.0
 10
4.6359047956
 20
13.8275806091
 30
0.0
 11
4.624924032
 21
13.8159124261
 31
0.0
 11
4.6259391204
 21
13.8174216881
 31
0.0
 11
4.6270627114
 21
13.818920239
 31
0.0
 11
4.6282895712
 21
13.8204098125
 31
0.0
 11
4.629616571
 21
13.821888692
 31
0.0
 11
4.6310438251
 21
13.8233498457
 31
0.0
 11
4.6325713116
 21
13.8247862369
 31
0.0
 11
4.6341942472
 21
13.8261960051
 31
0.0
 11
4.6359047956
 21
13.8275806091
 31
0.0
  0
LINE
  5
3B7
100
AcDbEntity
  8
0
100
AcDbLine
 62
6
  6
CONTINUOUS
 10
4.6359047956
 20
13.8275806091
 11
4.6509047941
 21
13.8159124233
  0
SPLINE
  5
3B8
100
AcDbEntity
  8
0
100
AcDbSpline
 62
6
  6
CONTINUOUS
 70
0
 71
3
 72
29
 73
25
 74
23
 42
0.0000001
 43
0.0000001
 44
0.0000000001
 12
0.1913225139
 22
0.0
 32
0.0
 13
0.1130766995
 23
0.154330698
 33
0.0
 40
0.0
 40
0.0
 40
0.0
 40
0.0
 40
0.0681811771
 40
0.1022343398
 40
0.1361948506
 40
0.1700178459
 40
0.2036820507
 40
0.2371728224
 40
0.2704721102
 40
0.3035591846
 40
0.3364218882
 40
0.4014516761
 40
0.4655123184
 40
0.528563146
 40
0.5906358471
 40
0.6213097971
 40
0.6517396282
 40
0.7118948245
 40
0.771163974
 40
0.8004794289
 40
0.8295841884
 40
0.8871762251
 40
0.9439756201
 40
1.0
 40
1.0
 40
1.0
 40
1.0
 10
21.9222594207
 20
17.2999205074
 30
0.0
 10
21.9266076187
 20
17.2999205074
 30
0.0
 10
21.9331310832
 20
17.3001751283
 30
0.0
 10
21.9417781022
 20
17.3010081519
 30
0.0
 10
21.9482162299
 20
17.301875251
 30
0.0
 10
21.9545921676
 20
17.3029817489
 30
0.0
 10
21.9608931655
 20
17.3043185782
 30
0.0
 10
21.9671088656
 20
17.3058757058
 30
0.0
 10
21.9732296059
 20
17.3076434428
 30
0.0
 10
21.979246426
 20
17.3096126191
 30
0.0
 10
21.9870922875
 20
17.3124830714
 30
0.0
 10
21.9966096203
 20
17.3165158379
 30
0.0
 10
22.0075724655
 20
17.3220072716
 30
0.0
 10
22.0180191364
 20
17.3280570749
 30
0.0
 10
22.0263217415
 20
17.3335250339
 30
0.0
 10
22.0327007392
 20
17.3381107926
 30
0.0
 10
22.0388590431
 20
17.3427894431
 30
0.0
 10
22.0462426776
 20
17.3488638936
 30
0.0
 10
22.0532628665
 20
17.3552490843
 30
0.0
 10
22.058632257
 20
17.3604942357
 30
0.0
 10
22.0638044289
 20
17.3657853576
 30
0.0
 10
22.0699776017
 20
17.3725456128
 30
0.0
 10
22.0769469392
 20
17.3808890868
 30
0.0
 10
22.0813209681
 20
17.3866053426
 30
0.0
 10
22.0834326521
 20
17.3894874365
 30
0.0
 11
21.9222594207
 21
17.2999205074
 31
0.0
 11
21.9352942559
 21
17.3004249964
 31
0.0
 11
21.9417793825
 21
17.3010496073
 31
0.0
 11
21.9482186174
 21
17.3019171291
 31
0.0
 11
21.9545945233
 21
17.3030230069
 31
0.0
 11
21.9608951481
 21
17.3043590475
 31
0.0
 11
21.9671107516
 21
17.3059155901
 31
0.0
 11
21.9732315995
 21
17.3076829703
 31
0.0
 11
21.9792480426
 21
17.3096515074
 31
0.0
 11
21.9851529072
 21
17.311811058
 31
0.0
 11
21.9966105619
 21
17.3166605028
 31
0.0
 11
22.0075707877
 21
17.3221458421
 31
0.0
 11
22.0180118738
 21
17.3281874248
 31
0.0
 11
22.0279325501
 21
17.3347156181
 31
0.0
 11
22.0326979665
 21
17.3381407422
 31
0.0
 11
22.0373339207
 21
17.3416624726
 31
0.0
 11
22.0462234808
 21
17.3489723154
 31
0.0
 11
22.0546141827
 21
17.3565999556
 31
0.0
 11
22.0586265643
 21
17.360518933
 31
0.0
 11
22.0625191075
 21
17.3645007841
 31
0.0
 11
22.0699501233
 21
17.3726365522
 31
0.0
 11
22.076917802
 21
17.3809758093
 31
0.0
 11
22.0834326521
 21
17.3894874365
 31
0.0
  0
SPLINE
  5
3B9
100
AcDbEntity
  8
0
100
AcDbSpline
 62
9
  6
CONTINUOUS
 70
0
 71
3
 72
39
 73
35
 74
33
 42
0.0000001
 43
0.0000001
 44
0.0000000001
 12
-0.1608834642
 22
0.0262823995
 32
0.0
 13
0.0216653742
 23
-0.1615700007
 33
0.0
 40
0.0
 40
0.0
 40
0.0
 40
0.0
 40
0.0231584142
 40
0.0464687582
 40
0.0700651399
 40
0.094062642
 40
0.1185580734
 40
0.1436314354
 40
0.1957220019
 40
0.2228707561
 40
0.2507896133
 40
0.2795049889
 40
0.3090383578
 40
0.3241192735
 40
0.3394102206
 40
0.3706061016
 40
0.4025910944
 40
0.4353142039
 40
0.4687150875
 40
0.5027262611
 40
0.5372749581
 40
0.5722847226
 40
0.607676804
 40
0.6433714126
 40
0.6792888855
 40
0.7153508064
 40
0.7514811175
 40
0.7876069141
 40
0.8236549498
 40
0.8595488094
 40
0.8952098596
 40
0.9305583594
 40
0.9655145842
 40
1.0
 40
1.0
 40
1.0
 40
1.0
 10
12.8720087349
 20
16.8821681089
 30
0.0
 10
12.8707667996
 20
16.8823709951
 30
0.0
 10
12.8682517683
 20
16.8826486058
 30
0.0
 10
12.8644387504
 20
16.8826823362
 30
0.0
 10
12.8605950656
 20
16.8823415484
 30
0.0
 10
12.8567369336
 20
16.8816335734
 30
0.0
 10
12.8528793786
 20
16.8805656036
 30
0.0
 10
12.8476934091
 20
16.8786478319
 30
0.0
 10
12.8426305508
 20
16.8760413187
 30
0.0
 10
12.8377645855
 20
16.8728376899
 30
0.0
 10
12.834140365
 20
16.8700760401
 30
0.0
 10
12.8306092149
 20
16.8669965376
 30
0.0
 10
12.8277762907
 20
16.8641904224
 30
0.0
 10
12.8255702318
 20
16.8617962384
 30
0.0
 10
12.8233780383
 20
16.8592684454
 30
0.0
 10
12.8207260669
 20
16.8559262925
 30
0.0
 10
12.8177096444
 20
16.8516739381
 30
0.0
 10
12.8148471973
 20
16.8471739227
 30
0.0
 10
12.8121480373
 20
16.8424471216
 30
0.0
 10
12.8096214219
 20
16.8375142976
 30
0.0
 10
12.8072766667
 20
16.8323962623
 30
0.0
 10
12.8051231014
 20
16.8271138308
 30
0.0
 10
12.8031700744
 20
16.8216878299
 30
0.0
 10
12.8014269418
 20
16.8161390942
 30
0.0
 10
12.7999030807
 20
16.8104884572
 30
0.0
 10
12.7986078321
 20
16.8047567698
 30
0.0
 10
12.7975507148
 20
16.7989648341
 30
0.0
 10
12.7967406698
 20
16.7931339787
 30
0.0
 10
12.7961750709
 20
16.7872873486
 30
0.0
 10
12.7958517612
 20
16.7814476447
 30
0.0
 10
12.7957684546
 20
16.7756376272
 30
0.0
 10
12.7959229148
 20
16.7698799874
 30
0.0
 10
12.7963128798
 20
16.7641976005
 30
0.0
 10
12.7967315625
 20
16.7604461234
 30
0.0
 10
12.796980609
 20
16.7585888538
 30
0.0
 11
12.8720087349
 21
16.8821681089
 31
0.0
 11
12.8682565521
 21
16.8825843047
 31
0.0
 11
12.864456767
 21
16.8826209449
 31
0.0
 11
12.860624891
 21
16.882284813
 31
0.0
 11
12.8567764354
 21
16.8815826923
 31
0.0
 11
12.8529269115
 21
16.8805213664
 31
0.0
 11
12.8490918305
 21
16.8791076188
 31
0.0
 11
12.8415270425
 21
16.8752499923
 31
0.0
 11
12.837828358
 21
16.8728196803
 31
0.0
 11
12.8342061617
 21
16.8700640806
 31
0.0
 11
12.8306759648
 21
16.8669899764
 31
0.0
 11
12.8272532786
 21
16.8636041514
 31
0.0
 11
12.8255870992
 21
16.8617964635
 31
0.0
 11
12.8239534612
 21
16.8599137434
 31
0.0
 11
12.8207888197
 21
16.8559329577
 31
0.0
 11
12.817768849
 21
16.8516825112
 31
0.0
 11
12.8149029392
 21
16.8471833644
 31
0.0
 11
12.8122004806
 21
16.8424564774
 31
0.0
 11
12.8096708631
 21
16.8375228107
 31
0.0
 11
12.8073234769
 21
16.8324033246
 31
0.0
 11
12.8051677121
 21
16.8271189793
 31
0.0
 11
12.8032129589
 21
16.8216907351
 31
0.0
 11
12.8014686072
 21
16.8161395525
 31
0.0
 11
12.7999440472
 21
16.8104863916
 31
0.0
 11
12.7986486691
 21
16.8047522129
 31
0.0
 11
12.7975918624
 21
16.7989579766
 31
0.0
 11
12.7967806941
 21
16.7931250227
 31
0.0
 11
12.7962145273
 21
16.7872759494
 31
0.0
 11
12.7958911305
 21
16.7814336157
 31
0.0
 11
12.7958082719
 21
16.7756208804
 31
0.0
 11
12.7959637199
 21
16.7698606024
 31
0.0
 11
12.7963552428
 21
16.7641756406
 31
0.0
 11
12.796980609
 21
16.7585888538
 31
0.0
  0
SPLINE
  5
3BA
100
AcDbEntity
  8
0
100
AcDbSpline
 62
9
  6
CONTINUOUS
 70
0
 71
3
 72
43
 73
39
 74
37
 42
0.0000001
 43
0.0000001
 44
0.0000000001
 12
-0.2439220756
 22
-0.2312767208
 32
0.0
 13
-0.2315493551
 23
0.2436632855
 33
0.0
 40
0.0
 40
0.0
 40
0.0
 40
0.0
 40
0.0356840224
 40
0.0710790477
 40
0.1061289283
 40
0.1407822926
 40
0.174986938
 40
0.2086771737
 40
0.241794204
 40
0.2742921179
 40
0.3061250658
 40
0.3372555233
 40
0.3676728398
 40
0.3973916343
 40
0.4120030792
 40
0.4264585352
 40
0.4407692725
 40
0.4549493492
 40
0.4829768755
 40
0.5106939615
 40
0.5382701979
 40
0.5658838791
 40
0.5797599793
 40
0.5937052642
 40
0.6218658476
 40
0.65048452
 40
0.6649918237
 40
0.6796380651
 40
0.709362843
 40
0.7396799552
 40
0.7705760327
 40
0.8020240465
 40
0.8339938277
 40
0.8664402886
 40
0.8993089628
 40
0.9325557044
 40
0.9661360593
 40
1.0
 40
1.0
 40
1.0
 40
1.0
 10
4.6400326158
 20
13.6145906796
 30
0.0
 10
4.6371312422
 20
13.6118397184
 30
0.0
 10
4.6313224077
 20
13.6063911213
 30
0.0
 10
4.6225400729
 20
13.5983735209
 30
0.0
 10
4.613714356
 20
13.5905767542
 30
0.0
 10
4.6048411374
 20
13.583038176
 30
0.0
 10
4.5959182738
 20
13.5757973408
 30
0.0
 10
4.5869400974
 20
13.5689036305
 30
0.0
 10
4.5779034073
 20
13.5624083703
 30
0.0
 10
4.5688071773
 20
13.5563639175
 30
0.0
 10
4.5596518375
 20
13.5508265357
 30
0.0
 10
4.5504394363
 20
13.5458560321
 30
0.0
 10
4.5411740362
 20
13.5415149775
 30
0.0
 10
4.5333712163
 20
13.5384525874
 30
0.0
 10
4.5271177554
 20
13.5363800656
 30
0.0
 10
4.5224486368
 20
13.5350260462
 30
0.0
 10
4.5177760417
 20
13.5338706363
 30
0.0
 10
4.5115692132
 20
13.5326073302
 30
0.0
 10
4.5037971342
 20
13.5315364029
 30
0.0
 10
4.4944586583
 20
13.5310972812
 30
0.0
 10
4.4851661641
 20
13.5315314826
 30
0.0
 10
4.4774906125
 20
13.5326021417
 30
0.0
 10
4.4714079902
 20
13.5338677593
 30
0.0
 10
4.4653268337
 20
13.5354125348
 30
0.0
 10
4.4577767331
 20
13.5378495661
 30
0.0
 10
4.4503795551
 20
13.5408820541
 30
0.0
 10
4.4445245968
 20
13.5436448986
 30
0.0
 10
4.4386535376
 20
13.5466557838
 30
0.0
 10
4.4313886737
 20
13.5508198635
 30
0.0
 10
4.4228320097
 20
13.556359379
 30
0.0
 10
4.4143880733
 20
13.5624058385
 30
0.0
 10
4.4060505689
 20
13.5689026279
 30
0.0
 10
4.3978121303
 20
13.5757975326
 30
0.0
 10
4.3896634242
 20
13.5830393574
 30
0.0
 10
4.3815928064
 20
13.5905787461
 30
0.0
 10
4.3735930728
 20
13.5983760803
 30
0.0
 10
4.3656555038
 20
13.6063940519
 30
0.0
 10
4.3604181449
 20
13.6118419005
 30
0.0
 10
4.3578044203
 20
13.6145923669
 30
0.0
 11
4.6400326158
 21
13.6145906796
 31
0.0
 11
4.631280374
 21
13.6063888462
 31
0.0
 11
4.6224897386
 21
13.5983716396
 31
0.0
 11
4.6136560455
 21
13.5905761531
 31
0.0
 11
4.6047746309
 21
13.5830394806
 31
0.0
 11
4.5958412737
 21
13.5758017301
 31
0.0
 11
4.5868531854
 21
13.5689127524
 31
0.0
 11
4.5778078659
 21
13.5624243637
 31
0.0
 11
4.5687030507
 21
13.5563886835
 31
0.0
 11
4.5595402389
 21
13.550862687
 31
0.0
 11
4.5503239553
 21
13.5459072527
 31
0.0
 11
4.5410589852
 21
13.5415832156
 31
0.0
 11
4.5317545623
 21
13.5379474892
 31
0.0
 11
4.5270918955
 21
13.536404246
 31
0.0
 11
4.5224246177
 21
13.5350528449
 31
0.0
 11
4.5177545026
 21
13.5338998379
 31
0.0
 11
4.5130836023
 21
13.5329503729
 31
0.0
 11
4.5037495346
 21
13.5316732033
 31
0.0
 11
4.4944428048
 21
13.5312425279
 31
0.0
 11
4.485183448
 21
13.5316727221
 31
0.0
 11
4.47598979
 21
13.5329497903
 31
0.0
 11
4.4714231814
 21
13.5338991472
 31
0.0
 11
4.4668796524
 21
13.5350519773
 31
0.0
 11
4.4578673518
 21
13.5379466508
 31
0.0
 11
4.4489612464
 21
13.5415826882
 31
0.0
 11
4.4445504478
 21
13.5436621808
 31
0.0
 11
4.44016892
 21
13.5459070201
 31
0.0
 11
4.4314930256
 21
13.5508628082
 31
0.0
 11
4.422931028
 21
13.5563892484
 31
0.0
 11
4.4144800976
 21
13.5624254235
 31
0.0
 11
4.406135105
 21
13.5689140759
 31
0.0
 11
4.3978876424
 21
13.5758031639
 31
0.0
 11
4.3897290512
 21
13.5830410453
 31
0.0
 11
4.3816506
 21
13.5905778878
 31
0.0
 11
4.3736431729
 21
13.5983734449
 31
0.0
 11
4.3656975272
 21
13.6063906321
 31
0.0
 11
4.3578044203
 21
13.6145923669
 31
0.0
  0
SPLINE
  5
3BB
100
AcDbEntity
  8
0
100
AcDbSpline
 62
9
  6
CONTINUOUS
 70
0
 71
3
 72
47
 73
43
 74
41
 42
0.0000001
 43
0.0000001
 44
0.0000000001
 12
-0.2271805411
 22
-0.2390974941
 32
0.0
 13
-0.2271871346
 23
0.239091229
 33
0.0
 40
0.0
 40
0.0
 40
0.0
 40
0.0
 40
0.0348800706
 40
0.0694936849
 40
0.103784738
 40
0.137701821
 40
0.171192881
 40
0.2041883289
 40
0.2366243228
 40
0.2526174779
 40
0.2684533209
 40
0.2996224743
 40
0.3300899644
 40
0.3598448707
 40
0.3889068005
 40
0.4031949488
 40
0.4173330458
 40
0.4313354526
 40
0.4452199518
 40
0.4727090699
 40
0.499989781
 40
0.5136209717
 40
0.5272791278
 40
0.5409896854
 40
0.554776295
 40
0.5686607722
 40
0.5826630919
 40
0.5968010469
 40
0.6110890752
 40
0.6401510332
 40
0.6699063122
 40
0.7003740464
 40
0.7315437542
 40
0.7473801559
 40
0.7633738702
 40
0.795810314
 40
0.8288058257
 40
0.8622972182
 40
0.8962149606
 40
0.9305064853
 40
0.9651202466
 40
1.0
 40
1.0
 40
1.0
 40
1.0
 10
4.624924032
 20
13.6352568894
 30
0.0
 10
4.6222826743
 20
13.6324769769
 30
0.0
 10
4.616993063
 20
13.6269639881
 30
0.0
 10
4.608990025
 20
13.6188309206
 30
0.0
 10
4.6009365284
 20
13.6108976899
 30
0.0
 10
4.5928253893
 20
13.6032013475
 30
0.0
 10
4.5846519672
 20
13.5957809681
 30
0.0
 10
4.5764058418
 20
13.5886881455
 30
0.0
 10
4.569434452
 20
13.5830695201
 30
0.0
 10
4.5638094147
 20
13.5787937328
 30
0.0
 10
4.5582109641
 20
13.5747155925
 30
0.0
 10
4.5511619264
 20
13.569928876
 30
0.0
 10
4.5425634017
 20
13.5647208921
 30
0.0
 10
4.5338689481
 20
13.5601506626
 30
0.0
 10
4.52650438
 20
13.5569119074
 30
0.0
 10
4.5205769938
 20
13.5547141893
 30
0.0
 10
4.5161382511
 20
13.553275758
 30
0.0
 10
4.5116829472
 20
13.5520462801
 30
0.0
 10
4.5057438815
 20
13.550699835
 30
0.0
 10
4.4982705014
 20
13.5495563832
 30
0.0
 10
4.4907466735
 20
13.5491661744
 30
0.0
 10
4.4847470695
 20
13.5493211285
 30
0.0
 10
4.4802508693
 20
13.5496667245
 30
0.0
 10
4.4757607256
 20
13.5502383108
 30
0.0
 10
4.4712793444
 20
13.5510324627
 30
0.0
 10
4.4668095238
 20
13.552045612
 30
0.0
 10
4.4623542524
 20
13.5532747789
 30
0.0
 10
4.4579155018
 20
13.5547131478
 30
0.0
 10
4.4519881679
 20
13.5569109154
 30
0.0
 10
4.4446236795
 20
13.5601499392
 30
0.0
 10
4.4359292193
 20
13.5647203008
 30
0.0
 10
4.4273307325
 20
13.5699286051
 30
0.0
 10
4.4202817671
 20
13.5747156961
 30
0.0
 10
4.4146833787
 20
13.5787942343
 30
0.0
 10
4.409058404
 20
13.5830703881
 30
0.0
 10
4.4020870751
 20
13.5886892737
 30
0.0
 10
4.3938410375
 20
13.5957823424
 30
0.0
 10
4.3856677954
 20
13.6032030946
 30
0.0
 10
4.3775568737
 20
13.6108998992
 30
0.0
 10
4.3695034814
 20
13.6188334341
 30
0.0
 10
4.3615004919
 20
13.6269665945
 30
0.0
 10
4.3562108159
 20
13.6324794941
 30
0.0
 10
4.3535694055
 20
13.6352593085
 30
0.0
 11
4.624924032
 21
13.6352568894
 31
0.0
 11
4.6169553538
 21
13.6269597618
 31
0.0
 11
4.6089440613
 21
13.6188266753
 31
0.0
 11
4.6008825616
 21
13.6108943104
 31
0.0
 11
4.5927632614
 21
13.6031993475
 31
0.0
 11
4.5845786607
 21
13.595781534
 31
0.0
 11
4.5763216309
 21
13.5886929032
 31
0.0
 11
4.5679851368
 21
13.5819885645
 31
0.0
 11
4.5637848922
 21
13.5787977264
 31
0.0
 11
4.5595622737
 21
13.5757239125
 31
0.0
 11
4.5510492715
 21
13.5699611904
 31
0.0
 11
4.5424455705
 21
13.5647696561
 31
0.0
 11
4.5337508859
 21
13.5602188226
 31
0.0
 11
4.5249699668
 21
13.5563757233
 31
0.0
 11
4.5205506748
 21
13.5547395263
 31
0.0
 11
4.5161141189
 21
13.5533041624
 31
0.0
 11
4.5116617696
 21
13.5520775718
 31
0.0
 11
4.5071954932
 21
13.5510663144
 31
0.0
 11
4.4982320778
 21
13.5497039944
 31
0.0
 11
4.4892462416
 21
13.5492437382
 31
0.0
 11
4.4847519371
 21
13.549359111
 31
0.0
 11
4.4802604416
 21
13.5497034935
 31
0.0
 11
4.4757745498
 21
13.5502735035
 31
0.0
 11
4.4712970563
 21
13.5510657584
 31
0.0
 11
4.4668307557
 21
13.552076876
 31
0.0
 11
4.4623783704
 21
13.5533032278
 31
0.0
 11
4.4579418339
 21
13.5547384994
 31
0.0
 11
4.4535225936
 21
13.5563747219
 31
0.0
 11
4.444741763
 21
13.5602180467
 31
0.0
 11
4.4360470528
 21
13.5647690963
 31
0.0
 11
4.4274434293
 21
13.5699609148
 31
0.0
 11
4.418930514
 21
13.5757240916
 31
0.0
 11
4.4147078993
 21
13.5787982237
 31
0.0
 11
4.4105076525
 21
13.5819893639
 31
0.0
 11
4.4021712482
 21
13.588694051
 31
0.0
 11
4.3939143827
 21
13.5957829054
 31
0.0
 11
4.3857299595
 21
13.603201078
 31
0.0
 11
4.377610803
 21
13.6108965087
 31
0.0
 11
4.3695493973
 21
13.6188291909
 31
0.0
 11
4.3615381341
 21
13.6269623743
 31
0.0
 11
4.3535694055
 21
13.6352593085
 31
0.0
  0
SPLINE
  5
3BC
100
AcDbEntity
  8
0
100
AcDbSpline
 62
9
  6
CONTINUOUS
 70
0
 71
3
 72
15
 73
11
 74
9
 42
0.0000001
 43
0.0000001
 44
0.0000000001
 12
-0.0216424566
 22
0.0146470598
 32
0.0
 13
-0.0066399006
 23
0.0252753637
 33
0.0
 40
0.0
 40
0.0
 40
0.0
 40
0.0
 40
0.1272219378
 40
0.2552023994
 40
0.3830680491
 40
0.5101752486
 40
0.6359514798
 40
0.7598717253
 40
0.8814262499
 40
1.0
 40
1.0
 40
1.0
 40
1.0
 10
4.6400319212
 20
13.6145923656
 30
0.0
 10
4.6391141228
 20
13.6152135081
 30
0.0
 10
4.6373269165
 20
13.6165410655
 30
0.0
 10
4.6348244221
 20
13.6187542482
 30
0.0
 10
4.6325211885
 20
13.6211731356
 30
0.0
 10
4.6304455328
 20
13.6237653434
 30
0.0
 10
4.62862314
 20
13.6265003919
 30
0.0
 10
4.6270751769
 20
13.6293450194
 30
0.0
 10
4.6258234262
 20
13.6322636034
 30
0.0
 10
4.6251864719
 20
13.6342603102
 30
0.0
 10
4.6249240326
 20
13.6352593084
 30
0.0
 11
4.6400319212
 21
13.6145923656
 31
0.0
 11
4.6373620575
 21
13.6165736215
 31
0.0
 11
4.6348568575
 21
13.6187894103
 31
0.0
 11
4.6325527212
 21
13.6212094604
 31
0.0
 11
4.6304775716
 21
13.6238031782
 31
0.0
 11
4.6286564132
 21
13.6265394419
 31
0.0
 11
4.6271110528
 21
13.629385338
 31
0.0
 11
4.6258615323
 21
13.6323058459
 31
0.0
 11
4.6249240326
 21
13.6352593084
 31
0.0
  0
SPLINE
  5
3BD
100
AcDbEntity
  8
0
100
AcDbSpline
 62
9
  6
CONTINUOUS
 70
0
 71
3
 72
39
 73
35
 74
33
 42
0.0000001
 43
0.0000001
 44
0.0000000001
 12
-0.5316006359
 22
-0.2651532028
 32
0.0
 13
-0.5316006578
 23
0.2651531588
 33
0.0
 40
0.0
 40
0.0
 40
0.0
 40
0.0
 40
0.0624738826
 40
0.1249521414
 40
0.187438493
 40
0.2186830873
 40
0.2499324743
 40
0.2811853221
 40
0.3124373433
 40
0.3280647614
 40
0.3436940672
 40
0.3749533379
 40
0.3905834046
 40
0.4062133249
 40
0.4218439291
 40
0.4374757153
 40
0.4687383418
 40
0.5000000045
 40
0.5312616667
 40
0.5625242932
 40
0.5781560801
 40
0.5937866851
 40
0.6094166049
 40
0.6250466706
 40
0.6563059399
 40
0.6719352462
 40
0.6875626648
 40
0.7188146841
 40
0.7500675295
 40
0.7813169167
 40
0.8125615103
 40
0.8750478593
 40
0.9375261176
 40
1.0
 40
1.0
 40
1.0
 40
1.0
 10
5.2044862302
 20
13.6145906786
 30
0.0
 10
5.193415845
 20
13.6090689619
 30
0.0
 10
5.1711739161
 20
13.5982233261
 30
0.0
 10
5.1373894422
 20
13.5828408966
 30
0.0
 10
5.1087977477
 20
13.5710117168
 30
0.0
 10
5.0856124838
 20
13.5623487316
 30
0.0
 10
5.068058089
 20
13.5563037037
 30
0.0
 10
5.0503345979
 20
13.5507678331
 30
0.0
 10
5.0354232962
 20
13.5466294533
 30
0.0
 10
5.0234124339
 20
13.5436347267
 30
0.0
 10
5.0113472929
 20
13.5408608251
 30
0.0
 10
4.9992042971
 20
13.5384309883
 30
0.0
 10
4.9869960078
 20
13.5363718437
 30
0.0
 10
4.977809077
 20
13.535019197
 30
0.0
 10
4.9685946898
 20
13.5338652349
 30
0.0
 10
4.9562776248
 20
13.5325987961
 30
0.0
 10
4.9408323564
 20
13.5315314435
 30
0.0
 10
4.9222594199
 20
13.5310974698
 30
0.0
 10
4.9036864832
 20
13.5315314416
 30
0.0
 10
4.888241215
 20
13.5325987967
 30
0.0
 10
4.8759241496
 20
13.5338652351
 30
0.0
 10
4.866709762
 20
13.5350191955
 30
0.0
 10
4.8575228313
 20
13.5363718422
 30
0.0
 10
4.8453145427
 20
13.5384309876
 30
0.0
 10
4.8331715477
 20
13.5408608261
 30
0.0
 10
4.8211064068
 20
13.5436347278
 30
0.0
 10
4.8090955446
 20
13.5466294539
 30
0.0
 10
4.7941842436
 20
13.5507678335
 30
0.0
 10
4.7764607532
 20
13.5563037037
 30
0.0
 10
4.7589063588
 20
13.5623487309
 30
0.0
 10
4.7357210943
 20
13.571011713
 30
0.0
 10
4.7071293995
 20
13.5828408902
 30
0.0
 10
4.6733449293
 20
13.5982233263
 30
0.0
 10
4.6511030015
 20
13.6090689639
 30
0.0
 10
4.6400326158
 20
13.6145906796
 30
0.0
 11
5.2044862302
 21
13.6145906786
 31
0.0
 11
5.1711047454
 21
13.5983715069
 31
0.0
 11
5.137303698
 21
13.5830396047
 31
0.0
 11
5.1029762538
 21
13.5689129804
 31
0.0
 11
5.0855861623
 21
13.5624245498
 31
0.0
 11
5.0680307895
 21
13.556388856
 31
0.0
 11
5.0503062376
 21
13.5508627987
 31
0.0
 11
5.0324143044
 21
13.5459072417
 31
0.0
 11
5.0234061869
 21
13.5436624592
 31
0.0
 11
5.0143573196
 21
13.5415830242
 31
0.0
 11
4.9961469126
 21
13.5379471163
 31
0.0
 11
4.9869908976
 21
13.536403797
 31
0.0
 11
4.9778046915
 21
13.5350523366
 31
0.0
 11
4.968591068
 21
13.5338992894
 31
0.0
 11
4.9593535443
 21
13.5329497788
 31
0.0
 11
4.9408256859
 21
13.5316725739
 31
0.0
 11
4.9222594197
 21
13.5312421259
 31
0.0
 11
4.9036931539
 21
13.5316725728
 31
0.0
 11
4.8851652956
 21
13.5329497791
 31
0.0
 11
4.8759277714
 21
13.5338992894
 31
0.0
 11
4.8667141474
 21
13.5350523354
 31
0.0
 11
4.8575279414
 21
13.5364037956
 31
0.0
 11
4.8483719271
 21
13.5379471155
 31
0.0
 11
4.8301615214
 21
13.541583025
 31
0.0
 11
4.8211126537
 21
13.5436624602
 31
0.0
 11
4.8121045359
 21
13.5459072425
 31
0.0
 11
4.7942126038
 21
13.550862799
 31
0.0
 11
4.7764880532
 21
13.5563888558
 31
0.0
 11
4.75893268
 21
13.5624245489
 31
0.0
 11
4.7415425882
 21
13.5689129776
 31
0.0
 11
4.7072151449
 21
13.5830395998
 31
0.0
 11
4.6734140998
 21
13.5983715064
 31
0.0
 11
4.6400326158
 21
13.6145906796
 31
0.0
  0
LINE
  5
3BE
100
AcDbEntity
  8
0
100
AcDbLine
 62
9
  6
CONTINUOUS
 10
4.6400319212
 20
13.6145923656
 11
4.6509047929
 21
13.6352593085
  0
SPLINE
  5
3BF
100
AcDbEntity
  8
0
100
AcDbSpline
 62
9
  6
CONTINUOUS
 70
0
 71
3
 72
41
 73
37
 74
35
 42
0.0000001
 43
0.0000001
 44
0.0000000001
 12
-0.50896492
 22
-0.2678395215
 32
0.0
 13
-0.508964931
 23
0.2678395005
 33
0.0
 40
0.0
 40
0.0
 40
0.0
 40
0.0
 40
0.0624823693
 40
0.1249670121
 40
0.1874579753
 40
0.2187034173
 40
0.2499529521
 40
0.2812059434
 40
0.3124566769
 40
0.3280830127
 40
0.3437113696
 40
0.3749687722
 40
0.3905975519
 40
0.4062258176
 40
0.421854645
 40
0.4374848879
 40
0.4531157336
 40
0.468746455
 40
0.500003966
 40
0.5312614764
 40
0.5468921977
 40
0.5625230438
 40
0.5781532878
 40
0.5937821162
 40
0.6094103816
 40
0.6250391603
 40
0.6562965619
 40
0.67192492
 40
0.6875512563
 40
0.7500462924
 40
0.7656724364
 40
0.7812965873
 40
0.8125420286
 40
0.875032989
 40
0.9375176313
 40
1.0
 40
1.0
 40
1.0
 40
1.0
 10
5.1936140472
 20
13.6352566848
 30
0.0
 10
5.1830136025
 20
13.6296782689
 30
0.0
 10
5.1617209252
 20
13.6186923385
 30
0.0
 10
5.1293773692
 20
13.6030157848
 30
0.0
 10
5.1019926106
 20
13.590866983
 30
0.0
 10
5.0797637985
 20
13.5819151017
 30
0.0
 10
5.0629195847
 20
13.5756401982
 30
0.0
 10
5.0458955877
 20
13.5698662158
 30
0.0
 10
5.0315549624
 20
13.5655297991
 30
0.0
 10
5.0199922164
 20
13.562381242
 30
0.0
 10
5.0083692287
 20
13.5594581583
 30
0.0
 10
4.9966586906
 20
13.5568889046
 30
0.0
 10
4.9848736438
 20
13.5547055258
 30
0.0
 10
4.9759997674
 20
13.5532686947
 30
0.0
 10
4.9670942671
 20
13.552040882
 30
0.0
 10
4.9581611103
 20
13.5510291498
 30
0.0
 10
4.9492054371
 20
13.5502362747
 30
0.0
 10
4.9372429003
 20
13.5494755457
 30
0.0
 10
4.9222594191
 20
13.5490884455
 30
0.0
 10
4.9072759377
 20
13.5494755449
 30
0.0
 10
4.8953134011
 20
13.5502362757
 30
0.0
 10
4.8863577277
 20
13.5510291517
 30
0.0
 10
4.8774245705
 20
13.5520408835
 30
0.0
 10
4.8685190694
 20
13.5532686946
 30
0.0
 10
4.8596451938
 20
13.5547055254
 30
0.0
 10
4.8478601437
 20
13.5568889062
 30
0.0
 10
4.8361496294
 20
13.5594581521
 30
0.0
 10
4.8245265869
 20
13.5623812566
 30
0.0
 10
4.8071843544
 20
13.5671035403
 30
0.0
 10
4.790063534
 20
13.5726286976
 30
0.0
 10
4.773176421
 20
13.578778097
 30
0.0
 10
4.7619761009
 20
13.5830341259
 30
0.0
 10
4.7425261989
 20
13.590867067
 30
0.0
 10
4.7151414815
 20
13.6030157563
 30
0.0
 10
4.6827979137
 20
13.618692348
 30
0.0
 10
4.661505239
 20
13.6296782689
 30
0.0
 10
4.6509047941
 20
13.6352566843
 30
0.0
 11
5.1936140472
 21
13.6352566848
 31
0.0
 11
5.1616541061
 21
13.6188263611
 31
0.0
 11
5.1292923196
 21
13.6031993931
 31
0.0
 11
5.0964089624
 21
13.5886930685
 31
0.0
 11
5.0797360167
 21
13.5819886505
 31
0.0
 11
5.0628904035
 21
13.5757239666
 31
0.0
 11
5.0458644686
 21
13.569961159
 31
0.0
 11
5.0286571386
 21
13.5647694806
 31
0.0
 11
5.0199852155
 21
13.5624095651
 31
0.0
 11
5.0112679078
 21
13.5602184714
 31
0.0
 11
4.9937062163
 21
13.5563752159
 31
0.0
 11
4.9848676993
 21
13.5547389595
 31
0.0
 11
4.9759946496
 21
13.5533035533
 31
0.0
 11
4.9670900087
 21
13.5520769394
 31
0.0
 11
4.9581575327
 21
13.5510656442
 31
0.0
 11
4.9492026287
 21
13.550273323
 31
0.0
 11
4.9402309037
 21
13.5497032835
 31
0.0
 11
4.9222594189
 21
13.5492432815
 31
0.0
 11
4.9042879345
 21
13.5497032833
 31
0.0
 11
4.8953162096
 21
13.5502733239
 31
0.0
 11
4.8863613054
 21
13.5510656459
 31
0.0
 11
4.8774288287
 21
13.5520769408
 31
0.0
 11
4.8685241871
 21
13.5533035534
 31
0.0
 11
4.8596511376
 21
13.5547389593
 31
0.0
 11
4.8508126213
 21
13.5563752161
 31
0.0
 11
4.8332509305
 21
13.5602184727
 31
0.0
 11
4.8245336221
 21
13.5624095664
 31
0.0
 11
4.8158616987
 21
13.5647694817
 31
0.0
 11
4.7816284361
 21
13.5757239672
 31
0.0
 11
4.7731832569
 21
13.5787977948
 31
0.0
 11
4.7647828227
 21
13.581988652
 31
0.0
 11
4.7481098772
 21
13.5886930695
 31
0.0
 11
4.7152265213
 21
13.6031993933
 31
0.0
 11
4.6828647355
 21
13.6188263618
 31
0.0
 11
4.6509047941
 21
13.6352566843
 31
0.0
  0
LINE
  5
3C0
100
AcDbEntity
  8
0
100
AcDbLine
 62
9
  6
CONTINUOUS
 10
5.2044869202
 20
13.6145923656
 11
5.1936140486
 21
13.6352593084
  0
SPLINE
  5
3C1
100
AcDbEntity
  8
0
100
AcDbSpline
 62
9
  6
CONTINUOUS
 70
0
 71
3
 72
15
 73
11
 74
9
 42
0.0000001
 43
0.0000001
 44
0.0000000001
 12
0.0215960982
 22
0.0147157872
 32
0.0
 13
0.0065139571
 23
0.0253083822
 33
0.0
 40
0.0
 40
0.0
 40
0.0
 40
0.0
 40
0.1272054206
 40
0.2551891555
 40
0.3830516383
 40
0.5101667077
 40
0.6359528944
 40
0.7598454496
 40
0.8813169819
 40
1.0
 40
1.0
 40
1.0
 40
1.0
 10
5.2044869202
 20
13.6145923656
 30
0.0
 10
5.2054026337
 20
13.6152163416
 30
0.0
 10
5.2071890801
 20
13.6165442329
 30
0.0
 10
5.2096953079
 20
13.6187531047
 30
0.0
 10
5.2119988645
 20
13.6211720401
 30
0.0
 10
5.2140728582
 20
13.623765802
 30
0.0
 10
5.2158937506
 20
13.6265017359
 30
0.0
 10
5.2174427841
 20
13.6293445853
 30
0.0
 10
5.2187017932
 20
13.6322600276
 30
0.0
 10
5.21933711
 20
13.6342580834
 30
0.0
 10
5.2195948087
 20
13.6352593085
 30
0.0
 11
5.2044869202
 21
13.6145923656
 31
0.0
 11
5.2071546103
 21
13.6165758791
 31
0.0
 11
5.2096623181
 21
13.6187890087
 31
0.0
 11
5.211966929
 21
13.6212085384
 31
0.0
 11
5.2140408458
 21
13.6238035475
 31
0.0
 11
5.2158611412
 21
13.626540737
 31
0.0
 11
5.2174081453
 21
13.6293849529
 31
0.0
 11
5.2186614904
 21
13.6323014953
 31
0.0
 11
5.2195948087
 21
13.6352593085
 31
0.0
  0
SPLINE
  5
3C2
100
AcDbEntity
  8
0
100
AcDbSpline
 62
9
  6
CONTINUOUS
 70
0
 71
3
 72
43
 73
39
 74
37
 42
0.0000001
 43
0.0000001
 44
0.0000000001
 12
-0.2315487985
 22
-0.2436638171
 32
0.0
 13
-0.2439220498
 23
0.2312767507
 33
0.0
 40
0.0
 40
0.0
 40
0.0
 40
0.0
 40
0.0338640044
 40
0.0674443728
 40
0.1006910988
 40
0.1335597481
 40
0.1660061865
 40
0.1979759476
 40
0.2294239444
 40
0.2603200087
 40
0.2906371123
 40
0.3203618884
 40
0.3350081319
 40
0.3495154401
 40
0.3781341274
 40
0.4062947293
 40
0.4202400233
 40
0.4341161319
 40
0.4617298281
 40
0.4893060741
 40
0.5170231625
 40
0.5450506884
 40
0.5592307639
 40
0.5735414987
 40
0.5879969517
 40
0.6026083937
 40
0.6323271842
 40
0.6627444983
 40
0.693874951
 40
0.7257078965
 40
0.7582058143
 40
0.791322843
 40
0.8250130731
 40
0.8592177157
 40
0.8938710796
 40
0.9289209572
 40
0.9643159792
 40
1.0
 40
1.0
 40
1.0
 40
1.0
 10
5.486714421
 20
13.6145923669
 30
0.0
 10
5.4841006978
 20
13.6118418894
 30
0.0
 10
5.4788633399
 20
13.6063940276
 30
0.0
 10
5.4709257655
 20
13.5983760515
 30
0.0
 10
5.4629260276
 20
13.5905787258
 30
0.0
 10
5.4548554087
 20
13.5830393487
 30
0.0
 10
5.446706706
 20
13.5757975313
 30
0.0
 10
5.4384682722
 20
13.5689026313
 30
0.0
 10
5.4301307725
 20
13.562405845
 30
0.0
 10
5.4216868391
 20
13.5563593886
 30
0.0
 10
5.4131301761
 20
13.5508198761
 30
0.0
 10
5.4058653124
 20
13.546655798
 30
0.0
 10
5.3999942529
 20
13.5436449124
 30
0.0
 10
5.3941392927
 20
13.5408820661
 30
0.0
 10
5.3867421115
 20
13.5378495744
 30
0.0
 10
5.3791920078
 20
13.5354125375
 30
0.0
 10
5.3731108487
 20
13.5338677559
 30
0.0
 10
5.3670282235
 20
13.5326021337
 30
0.0
 10
5.3593526686
 20
13.5315314713
 30
0.0
 10
5.3500601717
 20
13.5310972637
 30
0.0
 10
5.340721694
 20
13.531536384
 30
0.0
 10
5.3329496155
 20
13.5326073155
 30
0.0
 10
5.3267427878
 20
13.5338706231
 30
0.0
 10
5.3220701933
 20
13.5350260329
 30
0.0
 10
5.3174010763
 20
13.5363800543
 30
0.0
 10
5.3111476177
 20
13.5384525798
 30
0.0
 10
5.3033448012
 20
13.5415149757
 30
0.0
 10
5.2940794034
 20
13.5458560321
 30
0.0
 10
5.2848670044
 20
13.5508265378
 30
0.0
 10
5.2757116662
 20
13.5563639216
 30
0.0
 10
5.266615437
 20
13.5624083757
 30
0.0
 10
5.2575787461
 20
13.5689036341
 30
0.0
 10
5.2486005689
 20
13.5757973416
 30
0.0
 10
5.2396777054
 20
13.5830381756
 30
0.0
 10
5.2308044879
 20
13.5905767541
 30
0.0
 10
5.2219787713
 20
13.59837352
 30
0.0
 10
5.2131964372
 20
13.60639112
 30
0.0
 10
5.2073876034
 20
13.6118397172
 30
0.0
 10
5.2044862302
 20
13.6145906786
 30
0.0
 11
5.486714421
 21
13.6145923669
 31
0.0
 11
5.4788213107
 21
13.6063906056
 31
0.0
 11
5.4708756621
 21
13.5983734148
 31
0.0
 11
5.4628682333
 21
13.5905778669
 31
0.0
 11
5.4547897826
 21
13.5830410361
 31
0.0
 11
5.4466311944
 21
13.5758031624
 31
0.0
 11
5.4383837365
 21
13.5689140794
 31
0.0
 11
5.4300387484
 21
13.5624254304
 31
0.0
 11
5.4215878211
 21
13.5563892584
 31
0.0
 11
5.413025825
 21
13.5508628212
 31
0.0
 11
5.4043499305
 21
13.5459070343
 31
0.0
 11
5.3999684021
 21
13.5436621946
 31
0.0
 11
5.3955576024
 21
13.5415827007
 31
0.0
 11
5.3866514934
 21
13.5379466589
 31
0.0
 11
5.3776391884
 21
13.5350519784
 31
0.0
 11
5.3730956574
 21
13.533899144
 31
0.0
 11
5.3685290465
 21
13.5329497836
 31
0.0
 11
5.359335384
 21
13.5316727104
 31
0.0
 11
5.3500760242
 21
13.5312425112
 31
0.0
 11
5.3407692935
 21
13.5316731854
 31
0.0
 11
5.3314352263
 21
13.5329503584
 31
0.0
 11
5.3267643267
 21
13.5338998245
 31
0.0
 11
5.3220942124
 21
13.5350528319
 31
0.0
 11
5.3174269363
 21
13.5364042347
 31
0.0
 11
5.3127642713
 21
13.5379474807
 31
0.0
 11
5.303459852
 21
13.5415832129
 31
0.0
 11
5.2941948842
 21
13.5459072528
 31
0.0
 11
5.2849786032
 21
13.5508626888
 31
0.0
 11
5.2758157933
 21
13.5563886871
 31
0.0
 11
5.2667109776
 21
13.5624243689
 31
0.0
 11
5.2576656577
 21
13.5689127562
 31
0.0
 11
5.2486775694
 21
13.5758017309
 31
0.0
 11
5.2397442124
 21
13.5830394802
 31
0.0
 11
5.230862798
 21
13.5905761529
 31
0.0
 11
5.2220291056
 21
13.5983716389
 31
0.0
 11
5.2132384711
 21
13.6063888449
 31
0.0
 11
5.2044862302
 21
13.6145906786
 31
0.0
  0
SPLINE
  5
3C3
100
AcDbEntity
  8
0
100
AcDbSpline
 62
9
  6
CONTINUOUS
 70
0
 71
3
 72
47
 73
43
 74
41
 42
0.0000001
 43
0.0000001
 44
0.0000000001
 12
-0.2271882267
 22
-0.2390942139
 32
0.0
 13
-0.2271825105
 23
0.2390996453
 33
0.0
 40
0.0
 40
0.0
 40
0.0
 40
0.0
 40
0.0348797869
 40
0.0694935562
 40
0.1037850843
 40
0.1377028448
 40
0.1711942861
 40
0.2041898733
 40
0.2366264082
 40
0.2526201705
 40
0.2684566217
 40
0.2996264339
 40
0.3300942739
 40
0.3598496529
 40
0.3889117037
 40
0.403199773
 40
0.4173377636
 40
0.4313401122
 40
0.4452246111
 40
0.4590112355
 40
0.472721801
 40
0.486379958
 40
0.5000111419
 40
0.5272918173
 40
0.5547808798
 40
0.5686653456
 40
0.5826677151
 40
0.5968057719
 40
0.611093879
 40
0.6401557276
 40
0.6699105561
 40
0.7003779673
 40
0.7315470503
 40
0.7473828643
 40
0.7633759918
 40
0.7958119261
 40
0.8288073156
 40
0.8622983269
 40
0.8962153687
 40
0.9305063816
 40
0.9651199595
 40
1.0
 40
1.0
 40
1.0
 40
1.0
 10
5.4909514965
 20
13.6352613635
 30
0.0
 10
5.4883100708
 20
13.6324815118
 30
0.0
 10
5.4830203603
 20
13.6269685454
 30
0.0
 10
5.4750173096
 20
13.6188352967
 30
0.0
 10
5.4669638547
 20
13.6109016782
 30
0.0
 10
5.4588528722
 20
13.6032047831
 30
0.0
 10
5.4506795767
 20
13.5957839214
 30
0.0
 10
5.4424334895
 20
13.5886907268
 30
0.0
 10
5.4354621208
 20
13.5830717271
 30
0.0
 10
5.4298371132
 20
13.5787954791
 30
0.0
 10
5.4242386909
 20
13.5747168458
 30
0.0
 10
5.4171896826
 20
13.5699296333
 30
0.0
 10
5.4085911437
 20
13.5647211782
 30
0.0
 10
5.3998966308
 20
13.56015066
 30
0.0
 10
5.3925320951
 20
13.5569115039
 30
0.0
 10
5.3866047211
 20
13.55471363
 30
0.0
 10
5.3821659405
 20
13.5532751824
 30
0.0
 10
5.3777106387
 20
13.5520459364
 30
0.0
 10
5.3732407861
 20
13.5510327121
 30
0.0
 10
5.3687593717
 20
13.550238489
 30
0.0
 10
5.3642691937
 20
13.5496668345
 30
0.0
 10
5.3597729583
 20
13.5493211732
 30
0.0
 10
5.3537733081
 20
13.5491661329
 30
0.0
 10
5.3462494189
 20
13.5495562486
 30
0.0
 10
5.3387759737
 20
13.5506996286
 30
0.0
 10
5.3328368553
 20
13.5520460222
 30
0.0
 10
5.3283815117
 20
13.5532754641
 30
0.0
 10
5.3239427301
 20
13.5547138672
 30
0.0
 10
5.3180152921
 20
13.5569115551
 30
0.0
 10
5.3106506592
 20
13.5601502857
 30
0.0
 10
5.3019561276
 20
13.5647204974
 30
0.0
 10
5.2933575271
 20
13.5699284801
 30
0.0
 10
5.2863084289
 20
13.5747152068
 30
0.0
 10
5.2807099307
 20
13.5787933621
 30
0.0
 10
5.275084845
 20
13.583069168
 30
0.0
 10
5.2681133955
 20
13.5886878199
 30
0.0
 10
5.2598672006
 20
13.5957806811
 30
0.0
 10
5.2516937118
 20
13.603201108
 30
0.0
 10
5.2435825069
 20
13.6108975039
 30
0.0
 10
5.235528944
 20
13.6188307913
 30
0.0
 10
5.2275258408
 20
13.6269639198
 30
0.0
 10
5.2222361877
 20
13.6324769519
 30
0.0
 10
5.2195948093
 20
13.635256887
 30
0.0
 11
5.4909514965
 21
13.6352613635
 31
0.0
 11
5.4829827141
 21
13.6269643246
 31
0.0
 11
5.4749713927
 21
13.6188310533
 31
0.0
 11
5.4669099271
 21
13.6108982877
 31
0.0
 11
5.4587907125
 21
13.603202766
 31
0.0
 11
5.450606235
 21
13.5957844837
 31
0.0
 11
5.4423493184
 21
13.5886955029
 31
0.0
 11
5.4340128643
 21
13.5819906789
 31
0.0
 11
5.4298125928
 21
13.5787994681
 31
0.0
 11
5.4255899527
 21
13.5757252645
 31
0.0
 11
5.4170769856
 21
13.5699619408
 31
0.0
 11
5.4084733091
 21
13.5647699707
 31
0.0
 11
5.3997785453
 21
13.5602187651
 31
0.0
 11
5.3909976579
 21
13.5563752825
 31
0.0
 11
5.386578388
 21
13.554738981
 31
0.0
 11
5.3821418213
 21
13.5533036306
 31
0.0
 11
5.3776894053
 21
13.5520772005
 31
0.0
 11
5.3732230728
 21
13.551066008
 31
0.0
 11
5.3687455461
 21
13.5502736818
 31
0.0
 11
5.36425962
 21
13.5497036038
 31
0.0
 11
5.3597680893
 21
13.5493591557
 31
0.0
 11
5.355273749
 21
13.5492437193
 31
0.0
 11
5.3462878392
 21
13.5497038646
 31
0.0
 11
5.3373243478
 21
13.5510660961
 31
0.0
 11
5.3328580324
 21
13.5520773146
 31
0.0
 11
5.3284056438
 21
13.5533038701
 31
0.0
 11
5.3239690492
 21
13.5547392054
 31
0.0
 11
5.3195497189
 21
13.5563753796
 31
0.0
 11
5.3107687228
 21
13.5602184476
 31
0.0
 11
5.3020739603
 21
13.5647692641
 31
0.0
 11
5.2934701845
 21
13.5699607959
 31
0.0
 11
5.2849571089
 21
13.5757235303
 31
0.0
 11
5.2807344536
 21
13.5787973559
 31
0.0
 11
5.2765341725
 21
13.5819882079
 31
0.0
 11
5.2681976076
 21
13.5886925781
 31
0.0
 11
5.2599405092
 21
13.5957812472
 31
0.0
 11
5.2517558411
 21
13.6031991079
 31
0.0
 11
5.2436364743
 21
13.6108941244
 31
0.0
 11
5.2355749086
 21
13.618826546
 31
0.0
 11
5.2275635513
 21
13.6269596934
 31
0.0
 11
5.2195948093
 21
13.635256887
 31
0.0
  0
LINE
  5
3C4
100
AcDbEntity
  8
0
100
AcDbLine
 62
9
  6
CONTINUOUS
 10
5.4949684192
 20
13.6352508599
 11
5.4909514963
 21
13.6352593063
  0
SPLINE
  5
3C5
100
AcDbEntity
  8
0
100
AcDbSpline
 62
9
  6
CONTINUOUS
 70
0
 71
3
 72
16
 73
12
 74
10
 42
0.0000001
 43
0.0000001
 44
0.0000000001
 12
0.015021557
 22
0.0159852276
 32
0.0
 13
-0.0055805508
 23
0.0212139607
 33
0.0
 40
0.0
 40
0.0
 40
0.0
 40
0.0
 40
0.1162478336
 40
0.2337982888
 40
0.2932939367
 40
0.3533464019
 40
0.4754366494
 40
0.6008509654
 40
0.7301216977
 40
0.8632899448
 40
1.0
 40
1.0
 40
1.0
 40
1.0
 10
5.4867817033
 20
13.6146631384
 30
0.0
 10
5.4873637778
 20
13.6152825544
 30
0.0
 10
5.4884442501
 20
13.6166162458
 30
0.0
 10
5.4895468371
 20
13.618464133
 30
0.0
 10
5.4902761704
 20
13.6200382363
 30
0.0
 10
5.4909069496
 20
13.6216899657
 30
0.0
 10
5.4914929833
 20
13.6238684605
 30
0.0
 10
5.4918642745
 20
13.6266052713
 30
0.0
 10
5.4919016244
 20
13.6294476412
 30
0.0
 10
5.4916093019
 20
13.6323570852
 30
0.0
 10
5.4912037414
 20
13.6342925877
 30
0.0
 10
5.4909494356
 20
13.6352593083
 30
0.0
 11
5.4867817033
 21
13.6146631384
 31
0.0
 11
5.4883884029
 21
13.6166432644
 31
0.0
 11
5.4897117577
 21
13.6188563293
 31
0.0
 11
5.49026067
 21
13.6200403583
 31
0.0
 11
5.4907310465
 21
13.6212708077
 31
0.0
 11
5.4914312421
 21
13.6238557892
 31
0.0
 11
5.4918055627
 21
13.6265812544
 31
0.0
 11
5.4918484836
 21
13.6294165728
 31
0.0
 11
5.4915612733
 21
13.632323557
 31
0.0
 11
5.4909494356
 21
13.6352593083
 31
0.0
  0
SPLINE
  5
3C6
100
AcDbEntity
  8
0
100
AcDbSpline
 62
9
  6
CONTINUOUS
 70
0
 71
3
 72
39
 73
35
 74
33
 42
0.0000001
 43
0.0000001
 44
0.0000000001
 12
-0.0747117719
 22
-0.1448875589
 32
0.0
 13
0.1603571709
 23
-0.0293228807
 33
0.0
 40
0.0
 40
0.0
 40
0.0
 40
0.0
 40
0.0231584142
 40
0.0464687582
 40
0.0700651399
 40
0.094062642
 40
0.1185580734
 40
0.1436314354
 40
0.1957220019
 40
0.2228707561
 40
0.2507896133
 40
0.2795049889
 40
0.3090383578
 40
0.3241192735
 40
0.3394102206
 40
0.3706061016
 40
0.4025910944
 40
0.4353142039
 40
0.4687150875
 40
0.5027262611
 40
0.5372749581
 40
0.5722847226
 40
0.607676804
 40
0.6433714126
 40
0.6792888855
 40
0.7153508064
 40
0.7514811175
 40
0.7876069141
 40
0.8236549498
 40
0.8595488094
 40
0.8952098596
 40
0.9305583594
 40
0.9655145842
 40
1.0
 40
1.0
 40
1.0
 40
1.0
 10
12.5294967513
 20
16.5603000659
 30
0.0
 10
12.5289200159
 20
16.5591816106
 30
0.0
 10
12.5278788051
 20
16.5568754601
 30
0.0
 10
12.5266684382
 20
16.5532594878
 30
0.0
 10
12.5258047828
 20
16.5494986171
 30
0.0
 10
12.5252858786
 20
16.5456105392
 30
0.0
 10
12.5251095282
 20
16.5416117656
 30
0.0
 10
12.5253308848
 20
16.5360869915
 30
0.0
 10
12.5262453169
 20
16.5304664702
 30
0.0
 10
12.527788483
 20
16.5248486864
 30
0.0
 10
12.5292950223
 20
16.5205484512
 30
0.0
 10
12.5311326177
 20
16.5162385093
 30
0.0
 10
12.5329259702
 20
16.512677101
 30
0.0
 10
12.5345212649
 20
16.5098391707
 30
0.0
 10
12.5362479137
 20
16.5069731398
 30
0.0
 10
12.5386069859
 20
16.5034181831
 30
0.0
 10
12.5417190894
 20
16.4992353451
 30
0.0
 10
12.5451143136
 20
16.4951224149
 30
0.0
 10
12.5487756822
 20
16.4910946993
 30
0.0
 10
12.5526863096
 20
16.4871674188
 30
0.0
 10
12.5568292811
 20
16.4833558642
 30
0.0
 10
12.5611876838
 20
16.4796753408
 30
0.0
 10
12.5657445988
 20
16.4761411752
 30
0.0
 10
12.5704831024
 20
16.472768704
 30
0.0
 10
12.5753862786
 20
16.4695732831
 30
0.0
 10
12.5804371834
 20
16.4665702397
 30
0.0
 10
12.5856189744
 20
16.4637750548
 30
0.0
 10
12.5909141297
 20
16.4612028228
 30
0.0
 10
12.5962998257
 20
16.4588581983
 30
0.0
 10
12.601753806
 20
16.4567461447
 30
0.0
 10
12.6072537178
 20
16.4548715212
 30
0.0
 10
12.6127772895
 20
16.4532392131
 30
0.0
 10
12.6183020664
 20
16.4518541378
 30
0.0
 10
12.6219993132
 20
16.4510930585
 30
0.0
 10
12.6238426411
 20
16.4507559879
 30
0.0
 11
12.5294967513
 21
16.5603000659
 31
0.0
 11
12.5279414373
 21
16.5568601396
 31
0.0
 11
12.5267323922
 21
16.5532576517
 31
0.0
 11
12.5258679579
 21
16.5495094506
 31
0.0
 11
12.5253464762
 21
16.5456323846
 31
0.0
 11
12.5251662887
 21
16.541643302
 31
0.0
 11
12.5253257374
 21
16.5375590512
 31
0.0
 11
12.5266569102
 21
16.5291724381
 31
0.0
 11
12.5278253179
 21
16.5249037725
 31
0.0
 11
12.5293267288
 21
16.5206073319
 31
0.0
 11
12.5311594847
 21
16.5162999647
 31
0.0
 11
12.5333219274
 21
16.5119985192
 31
0.0
 11
12.5345262631
 21
16.5098552821
 31
0.0
 11
12.5358120143
 21
16.5077198076
 31
0.0
 11
12.5386200386
 21
16.5034799242
 31
0.0
 11
12.5417292311
 21
16.4992943012
 31
0.0
 11
12.5451225592
 21
16.4951783462
 31
0.0
 11
12.5487829902
 21
16.4911474669
 31
0.0
 11
12.5526934913
 21
16.4872170709
 31
0.0
 11
12.5568370297
 21
16.4834025657
 31
0.0
 11
12.5611965728
 21
16.4797193591
 31
0.0
 11
12.5657550878
 21
16.4761828586
 31
0.0
 11
12.5704955419
 21
16.4728084718
 31
0.0
 11
12.5754009024
 21
16.4696116063
 31
0.0
 11
12.5804541366
 21
16.4666076698
 31
0.0
 11
12.5856382116
 21
16.4638120694
 31
0.0
 11
12.5909350156
 21
16.4612381206
 31
0.0
 11
12.5963228597
 21
16.458892201
 31
0.0
 11
12.6017793141
 21
16.4567792519
 31
0.0
 11
12.6072819492
 21
16.4549042147
 31
0.0
 11
12.6128083352
 21
16.4532720308
 31
0.0
 11
12.6183360424
 21
16.4518876414
 31
0.0
 11
12.6238426411
 21
16.4507559879
 31
0.0
  0
LINE
  5
3C7
100
AcDbEntity
  8
0
100
AcDbLine
 62
9
  6
CONTINUOUS
 10
4.3535694055
 20
13.6352593085
 11
4.3495504343
 21
13.6352509176
  0
SPLINE
  5
3C8
100
AcDbEntity
  8
0
100
AcDbSpline
 62
9
  6
CONTINUOUS
 70
0
 71
3
 72
16
 73
12
 74
10
 42
0.0000001
 43
0.0000001
 44
0.0000000001
 12
-0.0150217618
 22
0.0159849574
 32
0.0
 13
0.005579806
 23
0.021214098
 33
0.0
 40
0.0
 40
0.0
 40
0.0
 40
0.0
 40
0.1162485156
 40
0.2337994461
 40
0.2932952428
 40
0.3533477985
 40
0.4754380444
 40
0.6008521335
 40
0.7301224973
 40
0.8632903231
 40
1.0
 40
1.0
 40
1.0
 40
1.0
 10
4.3577373858
 20
13.614663299
 30
0.0
 10
4.3571553
 20
13.6152827082
 30
0.0
 10
4.3560748001
 20
13.6166163815
 30
0.0
 10
4.3549721641
 20
13.6184642435
 30
0.0
 10
4.3542427841
 20
13.6200383258
 30
0.0
 10
4.3536119531
 20
13.6216900324
 30
0.0
 10
4.3530258451
 20
13.6238684997
 30
0.0
 10
4.3526544542
 20
13.6266052853
 30
0.0
 10
4.3526169973
 20
13.6294476389
 30
0.0
 10
4.3529092103
 20
13.6323570778
 30
0.0
 10
4.3533146998
 20
13.6342925842
 30
0.0
 10
4.353568971
 20
13.6352593083
 30
0.0
 11
4.3577373858
 21
13.614663299
 31
0.0
 11
4.3561306436
 21
13.6166434011
 31
0.0
 11
4.3548072308
 21
13.6188564358
 31
0.0
 11
4.3542582837
 21
13.6200404485
 31
0.0
 11
4.3537878686
 21
13.6212708816
 31
0.0
 11
4.3530875853
 21
13.6238558321
 31
0.0
 11
4.3527131662
 21
13.6265812716
 31
0.0
 11
4.3526701394
 21
13.629416573
 31
0.0
 11
4.3529572406
 21
13.6323235511
 31
0.0
 11
4.353568971
 21
13.6352593083
 31
0.0
  0
SPLINE
  5
3C9
100
AcDbEntity
  8
0
100
AcDbSpline
 62
6
  6
CONTINUOUS
 70
0
 71
3
 72
33
 73
29
 74
27
 42
0.0000001
 43
0.0000001
 44
0.0000000001
 12
-0.6023706115
 22
0.3467770206
 32
0.0
 13
-0.6023706117
 23
-0.3467770203
 33
0.0
 40
0.0
 40
0.0
 40
0.0
 40
0.0
 40
0.0635205725
 40
0.095173582
 40
0.1267495193
 40
0.1896540929
 40
0.2209860038
 40
0.252239874
 40
0.3145063801
 40
0.3455396756
 40
0.3765118001
 40
0.4074311929
 40
0.4383108598
 40
0.4691629066
 40
0.500000048
 40
0.5308371855
 40
0.561689228
 40
0.5925688955
 40
0.6234882804
 40
0.6544603918
 40
0.685493682
 40
0.7477601672
 40
0.7790140296
 40
0.8103459341
 40
0.8732504861
 40
0.904826418
 40
0.9364794262
 40
1.0
 40
1.0
 40
1.0
 40
1.0
 10
13.5787594207
 20
13.5892149789
 30
0.0
 10
13.566005112
 20
13.5965574705
 30
0.0
 10
13.5466839874
 20
13.6072003284
 30
0.0
 10
13.5205057404
 20
13.6205118485
 30
0.0
 10
13.4941494832
 20
13.6331398238
 30
0.0
 10
13.4673878778
 20
13.6447361796
 30
0.0
 10
13.4402250815
 20
13.6551160238
 30
0.0
 10
13.4128919843
 20
13.6645944242
 30
0.0
 10
13.3851644965
 20
13.6726923714
 30
0.0
 10
13.3571142928
 20
13.6792112815
 30
0.0
 10
13.3359651052
 20
13.6832703396
 30
0.0
 10
13.314704718
 20
13.6864697027
 30
0.0
 10
13.2933562433
 20
13.6887730288
 30
0.0
 10
13.2719480716
 20
13.69016555
 30
0.0
 10
13.2505093881
 20
13.6906342671
 30
0.0
 10
13.2290707049
 20
13.6901655595
 30
0.0
 10
13.2076625367
 20
13.6887730125
 30
0.0
 10
13.1863140641
 20
13.6864696957
 30
0.0
 10
13.1650536803
 20
13.6832703398
 30
0.0
 10
13.1439045015
 20
13.6792112675
 30
0.0
 10
13.1158543066
 20
13.6726923612
 30
0.0
 10
13.088126826
 20
13.6645944164
 30
0.0
 10
13.060793738
 20
13.6551160146
 30
0.0
 10
13.0336309493
 20
13.6447361739
 30
0.0
 10
13.0068693511
 20
13.6331398208
 30
0.0
 10
12.9805131004
 20
13.6205118473
 30
0.0
 10
12.9543348544
 20
13.6072003278
 30
0.0
 10
12.9350137296
 20
13.5965574703
 30
0.0
 10
12.9222594207
 20
13.5892149786
 30
0.0
 11
13.5787594207
 21
13.5892149789
 31
0.0
 11
13.540065093
 21
13.6104755097
 31
0.0
 11
13.5204514764
 21
13.6204421983
 31
0.0
 11
13.5006561377
 21
13.6299194946
 31
0.0
 11
13.4605148811
 21
13.6472491681
 31
0.0
 11
13.4401694427
 21
13.6550158589
 31
0.0
 11
13.4196428235
 21
13.6621261795
 31
0.0
 11
13.3780826355
 21
13.67420113
 31
0.0
 11
13.3570713121
 21
13.6790781862
 31
0.0
 11
13.3359286841
 21
13.6831301351
 31
0.0
 11
13.3146763117
 21
13.6863221559
 31
0.0
 11
13.2933367551
 21
13.6886220728
 31
0.0
 11
13.2719378961
 21
13.6900118267
 31
0.0
 11
13.2505093871
 21
13.6904780548
 31
0.0
 11
13.2290808807
 21
13.6900118303
 31
0.0
 11
13.2076820256
 21
13.6886220625
 31
0.0
 11
13.1863424683
 21
13.6863221483
 31
0.0
 11
13.1650901009
 21
13.6831301315
 31
0.0
 11
13.1439474836
 21
13.6790781754
 31
0.0
 11
13.122936164
 21
13.6742011184
 31
0.0
 11
13.0813759902
 21
13.6621261714
 31
0.0
 11
13.0608493769
 21
13.6550158504
 31
0.0
 11
13.0405039427
 21
13.6472491609
 31
0.0
 11
13.0003627001
 21
13.6299194929
 31
0.0
 11
12.9805673652
 21
13.6204421976
 31
0.0
 11
12.9609537494
 21
13.6104755094
 31
0.0
 11
12.9222594207
 21
13.5892149786
 31
0.0
  0
SPLINE
  5
3CA
100
AcDbEntity
  8
0
100
AcDbSpline
 62
6
  6
CONTINUOUS
 70
0
 71
3
 72
37
 73
33
 74
31
 42
0.0000001
 43
0.0000001
 44
0.0000000001
 12
-0.6023784151
 22
0.3467815126
 32
0.0
 13
-0.6023786544
 23
-0.346781097
 33
0.0
 40
0.0
 40
0.0
 40
0.0
 40
0.0
 40
0.063522096
 40
0.0951753122
 40
0.1267513876
 40
0.1582470927
 40
0.1896603444
 40
0.2209933725
 40
0.2522468321
 40
0.2834212304
 40
0.3145222026
 40
0.3765133249
 40
0.4074328151
 40
0.4383115517
 40
0.4537402218
 40
0.4691636352
 40
0.5000001418
 40
0.5308366492
 40
0.5462600628
 40
0.5616887311
 40
0.5925674612
 40
0.623486946
 40
0.6854780468
 40
0.7165790136
 40
0.7477534056
 40
0.7790068539
 40
0.8103398704
 40
0.8417531152
 40
0.8732488121
 40
0.904824858
 40
0.936478015
 40
1.0
 40
1.0
 40
1.0
 40
1.0
 10
12.9222594207
 20
13.5892130536
 30
0.0
 10
12.9095046408
 20
13.5965558165
 30
0.0
 10
12.8901828358
 20
13.6071990675
 30
0.0
 10
12.8640044126
 20
13.6205114091
 30
0.0
 10
12.8442106268
 20
13.629996413
 30
0.0
 10
12.8242332502
 20
13.6389538035
 30
0.0
 10
12.8040705565
 20
13.6473413811
 30
0.0
 10
12.783723414
 20
13.6551163554
 30
0.0
 10
12.7631958113
 20
13.6622352584
 30
0.0
 10
12.7424938627
 20
13.6686540976
 30
0.0
 10
12.7147070463
 20
13.676208102
 30
0.0
 10
12.6865721614
 20
13.6822044203
 30
0.0
 10
12.6582037785
 20
13.6864675497
 30
0.0
 10
12.6404087007
 20
13.6883901455
 30
0.0
 10
12.6261463934
 20
13.6894717148
 30
0.0
 10
12.6118737785
 20
13.690244854
 30
0.0
 10
12.5940096603
 20
13.6906313996
 30
0.0
 10
12.5761455422
 20
13.6902448636
 30
0.0
 10
12.5618729262
 20
13.6894717487
 30
0.0
 10
12.5476106194
 20
13.688390197
 30
0.0
 10
12.5298155436
 20
13.6864676118
 30
0.0
 10
12.5014471642
 20
13.6822045111
 30
0.0
 10
12.4733122851
 20
13.6762082028
 30
0.0
 10
12.445525465
 20
13.6686542428
 30
0.0
 10
12.4248235066
 20
13.6622354531
 30
0.0
 10
12.4042959022
 20
13.6551165736
 30
0.0
 10
12.3839487862
 20
13.6473415469
 30
0.0
 10
12.3637861379
 20
13.6389538767
 30
0.0
 10
12.3438087728
 20
13.6299964903
 30
0.0
 10
12.3240148957
 20
13.6205117341
 30
0.0
 10
12.2978362
 20
13.6072000366
 30
0.0
 10
12.2785141833
 20
13.5965572336
 30
0.0
 10
12.2657594207
 20
13.5892144924
 30
0.0
 11
12.9222594207
 21
13.5892130536
 31
0.0
 11
12.8835637762
 21
13.6104745745
 31
0.0
 11
12.8639500238
 21
13.6204419424
 31
0.0
 11
12.8441547269
 21
13.6299202065
 31
0.0
 11
12.8241762113
 21
13.6388701349
 31
0.0
 11
12.8040138626
 21
13.647249636
 31
0.0
 11
12.7836673493
 21
13.6550164797
 31
0.0
 11
12.7631408363
 21
13.6621270944
 31
0.0
 11
12.742442284
 21
13.6685367769
 31
0.0
 11
12.7215803507
 21
13.6742011141
 31
0.0
 11
12.6794279817
 21
13.6831313102
 31
0.0
 11
12.6581749576
 21
13.686321321
 31
0.0
 11
12.6368359544
 21
13.6886229323
 31
0.0
 11
12.6261426694
 21
13.6894333228
 31
0.0
 11
12.6154380591
 21
13.6900130171
 31
0.0
 11
12.5940096605
 21
13.6904767936
 31
0.0
 11
12.572581261
 21
13.6900130342
 31
0.0
 11
12.5618766498
 21
13.6894333559
 31
0.0
 11
12.551183365
 21
13.6886229787
 31
0.0
 11
12.5298443645
 21
13.6863213846
 31
0.0
 11
12.5085913415
 21
13.683131392
 31
0.0
 11
12.4664389807
 21
13.6742012292
 31
0.0
 11
12.4455770424
 21
13.6685369247
 31
0.0
 11
12.4248784817
 21
13.6621272843
 31
0.0
 11
12.4043519715
 21
13.6550166852
 31
0.0
 11
12.3840054844
 21
13.6472497957
 31
0.0
 11
12.3638431702
 21
13.6388702239
 31
0.0
 11
12.3438646494
 21
13.6299203213
 31
0.0
 11
12.3240692579
 21
13.6204423021
 31
0.0
 11
12.3044553265
 21
13.6104753774
 31
0.0
 11
12.2657594207
 21
13.5892144924
 31
0.0
  0
SPLINE
  5
3CB
100
AcDbEntity
  8
0
100
AcDbSpline
 62
6
  6
CONTINUOUS
 70
0
 71
3
 72
38
 73
34
 74
32
 42
0.0000001
 43
0.0000001
 44
0.0000000001
 12
0.2428779312
 22
0.0
 32
0.0
 13
0.0
 23
-0.2428779312
 33
0.0
 40
0.0
 40
0.0
 40
0.0
 40
0.0
 40
0.0661038238
 40
0.1318794678
 40
0.1645050021
 40
0.1968906988
 40
0.2289993502
 40
0.2608015578
 40
0.2922737884
 40
0.3233914463
 40
0.3541416759
 40
0.3845289641
 40
0.4145729084
 40
0.4443047591
 40
0.473775884
 40
0.4884381378
 40
0.5030639624
 40
0.5322436628
 40
0.5614092657
 40
0.5760198614
 40
0.5906645675
 40
0.6200969086
 40
0.6497920278
 40
0.6798184309
 40
0.7102298595
 40
0.741052986
 40
0.8039182477
 40
0.8359484946
 40
0.8683241839
 40
0.9009969127
 40
0.9338965215
 40
0.9669302083
 40
1.0
 40
1.0
 40
1.0
 40
1.0
 10
21.9222594207
 20
18.135846338
 30
0.0
 10
21.9276111407
 20
18.135846338
 30
0.0
 10
21.9382894217
 20
18.135625053
 30
0.0
 10
21.9515843143
 20
18.1347537331
 30
0.0
 10
21.962118295
 20
18.1336712594
 30
0.0
 10
21.969916207
 20
18.1326549973
 30
0.0
 10
21.9776144504
 20
18.1314155198
 30
0.0
 10
21.985195155
 20
18.1299362419
 30
0.0
 10
21.9926393473
 20
18.1282008894
 30
0.0
 10
21.9999254055
 20
18.1261877781
 30
0.0
 10
22.0070302957
 20
18.1238753959
 30
0.0
 10
22.0139301877
 20
18.1212419561
 30
0.0
 10
22.0206006573
 20
18.1182676456
 30
0.0
 10
22.0270177482
 20
18.1149373711
 30
0.0
 10
22.0321429344
 20
18.1118468329
 30
0.0
 10
22.0360854853
 20
18.1091832759
 30
0.0
 10
22.0399130998
 20
18.1063969742
 30
0.0
 10
22.0445018476
 20
18.1026676641
 30
0.0
 10
22.0488067832
 20
18.0986154245
 30
0.0
 10
22.0520664979
 20
18.0951870791
 30
0.0
 10
22.0552104876
 20
18.0916234564
 30
0.0
 10
22.058911355
 20
18.0869284332
 30
0.0
 10
22.0629677296
 20
18.0809513127
 30
0.0
 10
22.0666435121
 20
18.0746412035
 30
0.0
 10
22.069934838
 20
18.068020536
 30
0.0
 10
22.0738459961
 20
18.0587606181
 30
0.0
 10
22.0769832657
 20
18.049052936
 30
0.0
 10
22.0794042011
 20
18.0390349758
 30
0.0
 10
22.0808854204
 20
18.0313132168
 30
0.0
 10
22.0820287242
 20
18.0234638119
 30
0.0
 10
22.0828409734
 20
18.0155197547
 30
0.0
 10
22.0833255534
 20
18.0075170683
 30
0.0
 10
22.0834326521
 20
18.0021647441
 30
0.0
 10
22.0834326521
 20
17.9994874365
 30
0.0
 11
21.9222594207
 21
18.135846338
 31
0.0
 11
21.9383109432
 21
18.1355046003
 31
0.0
 11
21.9542513581
 21
18.1344471268
 31
0.0
 11
21.9621334947
 21
18.1336334606
 31
0.0
 11
21.9699327835
 21
18.1326129471
 31
0.0
 11
21.9776314203
 21
18.1313690316
 31
0.0
 11
21.9852116009
 21
18.129885159
 31
0.0
 11
21.9926545659
 21
18.1281439994
 31
0.0
 11
21.999937719
 21
18.1261251121
 31
0.0
 11
22.007037501
 21
18.1238072753
 31
0.0
 11
22.0139303488
 21
18.1211692879
 31
0.0
 11
22.0205923437
 21
18.1181920082
 31
0.0
 11
22.0269989124
 21
18.1148600783
 31
0.0
 11
22.0331254117
 21
18.1111585467
 31
0.0
 11
22.0360759549
 21
18.1091645563
 31
0.0
 11
22.0389477215
 21
18.1070736903
 31
0.0
 11
22.0444461547
 21
18.1026021923
 31
0.0
 11
22.0496032551
 21
18.097745974
 31
0.0
 11
22.0520483558
 21
18.0951742076
 31
0.0
 11
22.0544017208
 21
18.0925071794
 31
0.0
 11
22.0588297887
 21
18.0868953363
 31
0.0
 11
22.0628830122
 21
18.0809297271
 31
0.0
 11
22.0665574471
 21
18.0746303033
 31
0.0
 11
22.0698512879
 21
18.0680191369
 31
0.0
 11
22.0727696104
 21
18.061125122
 31
0.0
 11
22.0775056641
 21
18.0466096312
 31
0.0
 11
22.0793376736
 21
18.0390489811
 31
0.0
 11
22.0808231138
 21
18.0313272203
 31
0.0
 11
22.0819701508
 21
18.0234750725
 31
0.0
 11
22.0827849936
 21
18.0155261391
 31
0.0
 11
22.083271323
 21
18.0075177387
 31
0.0
 11
22.0834326521
 21
17.9994874365
 31
0.0
  0
SPLINE
  5
3CC
100
AcDbEntity
  8
0
100
AcDbSpline
 62
9
  6
CONTINUOUS
 70
0
 71
3
 72
39
 73
35
 74
33
 42
0.0000001
 43
0.0000001
 44
0.0000000001
 12
0.1147090498
 22
-0.1158278354
 32
0.0
 13
0.0774408078
 23
0.1434474638
 33
0.0
 40
0.0
 40
0.0
 40
0.0
 40
0.0
 40
0.0231584142
 40
0.0464687582
 40
0.0700651399
 40
0.094062642
 40
0.1185580734
 40
0.1436314354
 40
0.1957220019
 40
0.2228707561
 40
0.2507896133
 40
0.2795049889
 40
0.3090383578
 40
0.3241192735
 40
0.3394102206
 40
0.3706061016
 40
0.4025910944
 40
0.4353142039
 40
0.4687150875
 40
0.5027262611
 40
0.5372749581
 40
0.5722847226
 40
0.607676804
 40
0.6433714126
 40
0.6792888855
 40
0.7153508064
 40
0.7514811175
 40
0.7876069141
 40
0.8236549498
 40
0.8595488094
 40
0.8952098596
 40
0.9305583594
 40
0.9655145842
 40
1.0
 40
1.0
 40
1.0
 40
1.0
 10
12.7297694272
 20
16.1350891168
 30
0.0
 10
12.7306549205
 20
16.1341949871
 30
0.0
 10
12.7325264481
 20
16.1324920971
 30
0.0
 10
12.7355914182
 20
16.1302235729
 30
0.0
 10
12.7389013345
 20
16.1282400148
 30
0.0
 10
12.7424387661
 20
16.1265450255
 30
0.0
 10
12.7461873305
 20
16.1251416173
 30
0.0
 10
12.7515101059
 20
16.1236448908
 30
0.0
 10
12.7571381143
 20
16.1227777308
 30
0.0
 10
12.7629578088
 20
16.1225093783
 30
0.0
 10
12.7675131218
 20
16.1226133366
 30
0.0
 10
12.7721799683
 20
16.1230291484
 30
0.0
 10
12.7761212453
 20
16.1236341923
 30
0.0
 10
12.7793132505
 20
16.124274439
 30
0.0
 10
12.7825725717
 20
16.1250309274
 30
0.0
 10
12.7866825299
 20
16.1261759963
 30
0.0
 10
12.7916223381
 20
16.1278432146
 30
0.0
 10
12.7965831491
 20
16.1298012993
 30
0.0
 10
12.8015451594
 20
16.1320388353
 30
0.0
 10
12.8064886754
 20
16.1345444665
 30
0.0
 10
12.8113939279
 20
16.1373068314
 30
0.0
 10
12.8162411342
 20
16.1403145745
 30
0.0
 10
12.8210104895
 20
16.1435563409
 30
0.0
 10
12.8256821784
 20
16.1470207747
 30
0.0
 10
12.830236369
 20
16.150696533
 30
0.0
 10
12.8346532485
 20
16.1545722375
 30
0.0
 10
12.8389128888
 20
16.158636654
 30
0.0
 10
12.8429955197
 20
16.1628777825
 30
0.0
 10
12.8468896617
 20
16.167275355
 30
0.0
 10
12.8505837166
 20
16.171809738
 30
0.0
 10
12.8540661558
 20
16.1764611745
 30
0.0
 10
12.8573254505
 20
16.1812099924
 30
0.0
 10
12.8603499854
 20
16.1860363556
 30
0.0
 10
12.862216327
 20
16.1893174599
 30
0.0
 10
12.8631065198
 20
16.1909664083
 30
0.0
 11
12.7297694272
 21
16.1350891168
 31
0.0
 11
12.7325603731
 21
16.1325469296
 31
0.0
 11
12.7356129272
 21
16.1302838294
 31
0.0
 11
12.7389105534
 21
16.1283034457
 31
0.0
 11
12.7424367156
 21
16.1266094078
 31
0.0
 11
12.7461748776
 21
16.125205345
 31
0.0
 11
12.7501085033
 21
16.1240948868
 31
0.0
 11
12.7584960013
 21
16.1227693014
 31
0.0
 11
12.7629168014
 21
16.1225614329
 31
0.0
 11
12.7674669207
 21
16.1226616864
 31
0.0
 11
12.7721298231
 21
16.1230736912
 31
0.0
 11
12.7768889725
 21
16.1238010767
 31
0.0
 11
12.7792994722
 21
16.1242841713
 31
0.0
 11
12.7817277481
 21
16.1248470955
 31
0.0
 11
12.7866278441
 21
16.1262074892
 31
0.0
 11
12.7915694014
 21
16.1278710784
 31
0.0
 11
12.7965325033
 21
16.1298264251
 31
0.0
 11
12.8014972327
 21
16.1320620917
 31
0.0
 11
12.8064436728
 21
16.13456664
 31
0.0
 11
12.8113519065
 21
16.1373286324
 31
0.0
 11
12.8162020171
 21
16.1403366308
 31
0.0
 11
12.8209740876
 21
16.1435791974
 31
0.0
 11
12.825648201
 21
16.1470448943
 31
0.0
 11
12.8302044405
 21
16.1507222836
 31
0.0
 11
12.8346228892
 21
16.1545999275
 31
0.0
 11
12.8388836303
 21
16.1586663877
 31
0.0
 11
12.8429684036
 21
16.1629085538
 31
0.0
 11
12.8468644412
 21
16.167307769
 31
0.0
 11
12.8505601123
 21
16.1718442284
 31
0.0
 11
12.8540437864
 21
16.176498127
 31
0.0
 11
12.8573038327
 21
16.1812496598
 31
0.0
 11
12.8603286208
 21
16.1860790219
 31
0.0
 11
12.8631065198
 21
16.1909664083
 31
0.0
  0
SPLINE
  5
3CD
100
AcDbEntity
  8
0
100
AcDbSpline
 62
6
  6
CONTINUOUS
 70
0
 71
3
 72
67
 73
63
 74
61
 42
0.0000001
 43
0.0000001
 44
0.0000000001
 12
0.0
 22
0.3531764924
 32
0.0
 13
-0.0005967628
 23
-0.3531759882
 33
0.0
 40
0.0
 40
0.0
 40
0.0
 40
0.0
 40
0.0393997073
 40
0.0591351156
 40
0.0788747426
 40
0.0986093285
 40
0.1183360986
 40
0.1380572029
 40
0.1577756151
 40
0.1774954922
 40
0.197220217
 40
0.2169472441
 40
0.2366718166
 40
0.2563884303
 40
0.2760915593
 40
0.2957743954
 40
0.3154251761
 40
0.3350272749
 40
0.344804501
 40
0.354561837
 40
0.3740089333
 40
0.3933538365
 40
0.431630658
 40
0.4691817722
 40
0.5058419205
 40
0.5237771493
 40
0.5414117321
 40
0.5757112224
 40
0.592342917
 40
0.608600312
 40
0.6399155713
 40
0.6549474596
 40
0.6695427719
 40
0.6836871917
 40
0.6973675604
 40
0.7105756512
 40
0.7233061785
 40
0.7355565018
 40
0.7473271694
 40
0.7586235876
 40
0.7694621129
 40
0.7798693975
 40
0.7898825316
 40
0.7995507734
 40
0.8089386604
 40
0.8181332448
 40
0.8272381359
 40
0.8363688511
 40
0.8456491329
 40
0.8552046809
 40
0.865151741
 40
0.8703059053
 40
0.8755954314
 40
0.8866211311
 40
0.8983063396
 40
0.9106961276
 40
0.9238083718
 40
0.9376493368
 40
0.9522166902
 40
0.9674923651
 40
0.983435627
 40
1.0
 40
1.0
 40
1.0
 40
1.0
 10
21.0549570073
 20
17.9994874365
 30
0.0
 10
21.0549570073
 20
18.0041257867
 30
0.0
 10
21.0553360839
 20
18.0110952011
 30
0.0
 10
21.0565901898
 20
18.0202987367
 30
0.0
 10
21.0579059172
 20
18.0271477647
 30
0.0
 10
21.0595957944
 20
18.0339128241
 30
0.0
 10
21.0616565135
 20
18.0405721334
 30
0.0
 10
21.0640821505
 20
18.0471053249
 30
0.0
 10
21.0668674572
 20
18.0534926459
 30
0.0
 10
21.0700072741
 20
18.0597139304
 30
0.0
 10
21.0734944193
 20
18.0657485359
 30
0.0
 10
21.0773137704
 20
18.071579131
 30
0.0
 10
21.0814509244
 20
18.077187468
 30
0.0
 10
21.0858909854
 20
18.0825555833
 30
0.0
 10
21.090619906
 20
18.0876642553
 30
0.0
 10
21.0956127973
 20
18.0925038099
 30
0.0
 10
21.1008435917
 20
18.0970667089
 30
0.0
 10
21.1053837603
 20
18.1006352857
 30
0.0
 10
21.1091109052
 20
18.1033445535
 30
0.0
 10
21.1128891471
 20
18.1059500712
 30
0.0
 10
21.1177107268
 20
18.1090236077
 30
0.0
 10
21.1255790285
 20
18.1135461696
 30
0.0
 10
21.1356477142
 20
18.1184938628
 30
0.0
 10
21.1479678051
 20
18.1233819559
 30
0.0
 10
21.1583141567
 20
18.1266704085
 30
0.0
 10
21.1665296771
 20
18.1288677438
 30
0.0
 10
21.1745347043
 20
18.1307630634
 30
0.0
 10
21.1824634981
 20
18.1322999381
 30
0.0
 10
21.1902809264
 20
18.1335092155
 30
0.0
 10
21.197776467
 20
18.1344868001
 30
0.0
 10
21.2051159311
 20
18.1351923493
 30
0.0
 10
21.2122780035
 20
18.1356231726
 30
0.0
 10
21.2174282136
 20
18.1358091825
 30
0.0
 10
21.2224223073
 20
18.1358669841
 30
0.0
 10
21.2272530333
 20
18.1358005537
 30
0.0
 10
21.2319137926
 20
18.1356053206
 30
0.0
 10
21.2363984149
 20
18.1352770673
 30
0.0
 10
21.2407008614
 20
18.1348115064
 30
0.0
 10
21.2448151863
 20
18.1342041901
 30
0.0
 10
21.2487364712
 20
18.1334509307
 30
0.0
 10
21.2524596677
 20
18.1325405097
 30
0.0
 10
21.2559801441
 20
18.1314608508
 30
0.0
 10
21.2592934072
 20
18.1301998244
 30
0.0
 10
21.2623949455
 20
18.1287450284
 30
0.0
 10
21.2652808207
 20
18.1270832503
 30
0.0
 10
21.2679477317
 20
18.1252005595
 30
0.0
 10
21.2703931027
 20
18.1230830415
 30
0.0
 10
21.2726145136
 20
18.1207173486
 30
0.0
 10
21.2746092953
 20
18.1180906026
 30
0.0
 10
21.2763761291
 20
18.1151929143
 30
0.0
 10
21.2776504567
 20
18.1125803162
 30
0.0
 10
21.2785658581
 20
18.1103606398
 30
0.0
 10
21.2794357603
 20
18.1079869154
 30
0.0
 10
21.2803930104
 20
18.1048294324
 30
0.0
 10
21.2813298811
 20
18.1008023082
 30
0.0
 10
21.2820848028
 20
18.0964881215
 30
0.0
 10
21.2826755422
 20
18.0918929829
 30
0.0
 10
21.2831181154
 20
18.0870241123
 30
0.0
 10
21.2834284971
 20
18.0818901411
 30
0.0
 10
21.2836233404
 20
18.0765030418
 30
0.0
 10
21.2837213271
 20
18.0708783409
 30
0.0
 10
21.2837338974
 20
18.0670512797
 30
0.0
 10
21.2837306024
 20
18.0651012334
 30
0.0
 11
21.0549570073
 21
17.9994874365
 31
0.0
 11
21.0557112479
 21
18.0133820308
 31
0.0
 11
21.0566524952
 21
18.0202882671
 31
0.0
 11
21.0579684463
 21
18.0271345137
 31
0.0
 11
21.0596579471
 21
18.0338964354
 31
0.0
 11
21.0617176475
 21
18.0405520467
 31
0.0
 11
21.0641422609
 21
18.047081434
 31
0.0
 11
21.0669264349
 21
18.0534647545
 31
0.0
 11
21.0700648099
 21
18.0596821667
 31
0.0
 11
21.0735495999
 21
18.0657142228
 31
0.0
 11
21.0773669981
 21
18.0715424527
 31
0.0
 11
21.0815022794
 21
18.0771485353
 31
0.0
 11
21.0859407188
 21
18.0825141494
 31
0.0
 11
21.0906664811
 21
18.0876220282
 31
0.0
 11
21.095656695
 21
18.0924615866
 31
0.0
 11
21.1008857416
 21
18.0970248488
 31
0.0
 11
21.1063279953
 21
18.1013038452
 31
0.0
 11
21.109121067
 21
18.1033342531
 31
0.0
 11
21.1119577703
 21
18.1052908972
 31
0.0
 11
21.1177479932
 21
18.1089849838
 31
0.0
 11
21.1236702086
 21
18.112391719
 31
0.0
 11
21.1357965556
 21
18.1183667365
 31
0.0
 11
21.1481177922
 21
18.1232730899
 31
0.0
 11
21.160452551
 21
18.1272090204
 31
0.0
 11
21.1665713814
 21
18.1288470942
 31
0.0
 11
21.1726317669
 21
18.130282785
 31
0.0
 11
21.184523027
 21
18.1325939419
 31
0.0
 11
21.1903277944
 21
18.1334926374
 31
0.0
 11
21.1960212595
 21
18.1342355471
 31
0.0
 11
21.2070309805
 21
18.1352869828
 31
0.0
 11
21.2123303713
 21
18.1356047532
 31
0.0
 11
21.2174817736
 21
18.1357897
 31
0.0
 11
21.2224769308
 21
18.1358461786
 31
0.0
 11
21.2273080168
 21
18.1357767587
 31
0.0
 11
21.2319685804
 21
18.1355782994
 31
0.0
 11
21.2364524453
 21
18.1352465202
 31
0.0
 11
21.2407534349
 21
18.1347771408
 31
0.0
 11
21.2448653729
 21
18.1341658807
 31
0.0
 11
21.2487822692
 21
18.1334075499
 31
0.0
 11
21.2524991189
 21
18.1324921588
 31
0.0
 11
21.2560112407
 21
18.1314081399
 31
0.0
 11
21.2593139534
 21
18.1301439252
 31
0.0
 11
21.262402576
 21
18.1286879462
 31
0.0
 11
21.2652729168
 21
18.1270283616
 31
0.0
 11
21.2679232312
 21
18.1251519654
 31
0.0
 11
21.2703525371
 21
18.1230451262
 31
0.0
 11
21.2725598526
 21
18.1206942122
 31
0.0
 11
21.2745442006
 21
18.1180855964
 31
0.0
 11
21.2763066718
 21
18.1152075874
 31
0.0
 11
21.2778536799
 21
18.1120534771
 31
0.0
 11
21.2785486534
 21
18.1103710349
 31
0.0
 11
21.279192483
 21
18.1086173483
 31
0.0
 11
21.2803303393
 21
18.1048932835
 31
0.0
 11
21.2812748314
 21
18.1008758743
 31
0.0
 11
21.2820383214
 21
18.0965672144
 31
0.0
 11
21.2826368142
 21
18.0919751149
 31
0.0
 11
21.2830864064
 21
18.0871075305
 31
0.0
 11
21.283403201
 21
18.0819724463
 31
0.0
 11
21.2836040193
 21
18.0765811759
 31
0.0
 11
21.2837070424
 21
18.0709513331
 31
0.0
 11
21.2837306024
 21
18.0651012334
 31
0.0
  0
SPLINE
  5
3CE
100
AcDbEntity
  8
0
100
AcDbSpline
 62
6
  6
CONTINUOUS
 70
0
 71
3
 72
50
 73
46
 74
44
 42
0.0000001
 43
0.0000001
 44
0.0000000001
 12
-0.226596699
 22
-0.1990551137
 32
0.0
 13
-0.0005426708
 23
0.3016101918
 33
0.0
 40
0.0
 40
0.0
 40
0.0
 40
0.0
 40
0.0812693212
 40
0.1625765262
 40
0.2030949401
 40
0.2434171144
 40
0.2834576088
 40
0.3231368296
 40
0.3623405549
 40
0.4009154504
 40
0.4387200932
 40
0.4755914893
 40
0.4936158795
 40
0.5113342859
 40
0.5287263384
 40
0.5457719688
 40
0.5624495178
 40
0.5787394584
 40
0.6100871391
 40
0.6251329926
 40
0.6397566365
 40
0.6539619758
 40
0.6677561228
 40
0.6811503259
 40
0.6941667406
 40
0.7068360174
 40
0.7191897032
 40
0.7312599181
 40
0.7430796272
 40
0.7546878731
 40
0.7661271369
 40
0.7774368537
 40
0.7886528462
 40
0.79980708
 40
0.8109294263
 40
0.8220511267
 40
0.8331998582
 40
0.8556580396
 40
0.8670085697
 40
0.8784535989
 40
0.9016735159
 40
0.9254071806
 40
0.9496971471
 40
0.9745568871
 40
1.0
 40
1.0
 40
1.0
 40
1.0
 10
22.789561834
 20
17.3894874365
 30
0.0
 10
22.7834233807
 20
17.3840950785
 30
0.0
 10
22.7709658337
 20
17.3735079747
 30
0.0
 10
22.7549194159
 20
17.360871909
 30
0.0
 10
22.7417934604
 20
17.3512024224
 30
0.0
 10
22.7318406081
 20
17.3442262376
 30
0.0
 10
22.7217802444
 20
17.3375571503
 30
0.0
 10
22.7116291905
 20
17.3312366025
 30
0.0
 10
22.7014107662
 20
17.3253133999
 30
0.0
 10
22.6911537543
 20
17.31984601
 30
0.0
 10
22.680895788
 20
17.3148974645
 30
0.0
 10
22.6723222504
 20
17.3112327332
 30
0.0
 10
22.6655011863
 20
17.3086288056
 30
0.0
 10
22.6604584455
 20
17.3068635769
 30
0.0
 10
22.6554585886
 20
17.3052805758
 30
0.0
 10
22.6505108691
 20
17.3038883028
 30
0.0
 10
22.6456256742
 20
17.30269278
 30
0.0
 10
22.6392919645
 20
17.3013868826
 30
0.0
 10
22.6330471567
 20
17.3004740695
 30
0.0
 10
22.6269283815
 20
17.3000093283
 30
0.0
 10
22.6225172031
 20
17.299886515
 30
0.0
 10
22.6182312039
 20
17.2999848974
 30
0.0
 10
22.614079726
 20
17.300304239
 30
0.0
 10
22.6100716883
 20
17.3008454606
 30
0.0
 10
22.6062144327
 20
17.3016055431
 30
0.0
 10
22.6025129122
 20
17.3025770802
 30
0.0
 10
22.5989713921
 20
17.3037536752
 30
0.0
 10
22.595593987
 20
17.305128564
 30
0.0
 10
22.5923845809
 20
17.3066958597
 30
0.0
 10
22.589345072
 20
17.308447642
 30
0.0
 10
22.5864747797
 20
17.3103740647
 30
0.0
 10
22.583772618
 20
17.3124660277
 30
0.0
 10
22.5812373824
 20
17.3147143074
 30
0.0
 10
22.5788677082
 20
17.3171098793
 30
0.0
 10
22.5766617616
 20
17.3196442396
 30
0.0
 10
22.5746164322
 20
17.3223091566
 30
0.0
 10
22.5720931646
 20
17.3260338798
 30
0.0
 10
22.569880735
 20
17.3299873128
 30
0.0
 10
22.5679690669
 20
17.3341172978
 30
0.0
 10
22.5662312053
 20
17.3384065332
 30
0.0
 10
22.564408613
 20
17.3439964736
 30
0.0
 10
22.5627618426
 20
17.3509745613
 30
0.0
 10
22.5616150063
 20
17.3582179913
 30
0.0
 10
22.5609393726
 20
17.3656916931
 30
0.0
 10
22.5607914467
 20
17.3707501616
 30
0.0
 10
22.5607868443
 20
17.373308129
 30
0.0
 11
22.789561834
 21
17.3894874365
 31
0.0
 11
22.7708718983
 21
17.3736283852
 31
0.0
 11
22.7515913813
 21
17.358474338
 31
0.0
 11
22.7417494409
 21
17.3512297658
 31
0.0
 11
22.7317876505
 21
17.344253577
 31
0.0
 11
22.7217187794
 21
17.3375855124
 31
0.0
 11
22.7115558973
 21
17.3312656141
 31
0.0
 11
22.7013215824
 21
17.3253434543
 31
0.0
 11
22.6910496323
 21
17.3198798504
 31
0.0
 11
22.6807747182
 21
17.3149363472
 31
0.0
 11
22.6705432675
 21
17.310578623
 31
0.0
 11
22.6654636369
 21
17.3086418116
 31
0.0
 11
22.6604189003
 21
17.3068784012
 31
0.0
 11
22.6554171926
 21
17.3052974071
 31
0.0
 11
22.6504676339
 21
17.303907
 31
0.0
 11
22.6455810555
 21
17.3027138831
 31
0.0
 11
22.64076846
 21
17.3017246125
 31
0.0
 11
22.6314092203
 21
17.3003837972
 31
0.0
 11
22.6268840549
 21
17.3000428691
 31
0.0
 11
22.6224750306
 21
17.2999232301
 31
0.0
 11
22.6181917529
 21
17.3000248114
 31
0.0
 11
22.6140438272
 21
17.3003475442
 31
0.0
 11
22.6100407433
 21
17.3008912209
 31
0.0
 11
22.6061893659
 21
17.301652471
 31
0.0
 11
22.6024939496
 21
17.3026247803
 31
0.0
 11
22.5989586371
 21
17.3038014995
 31
0.0
 11
22.5955875709
 21
17.3051759793
 31
0.0
 11
22.5923847631
 21
17.3067415125
 31
0.0
 11
22.5893515717
 21
17.3084902114
 31
0.0
 11
22.5864868813
 21
17.3104130887
 31
0.0
 11
22.5837894818
 21
17.312501115
 31
0.0
 11
22.5812581636
 21
17.3147452608
 31
0.0
 11
22.5788917162
 21
17.3171364971
 31
0.0
 11
22.5766884081
 21
17.3196661015
 31
0.0
 11
22.5746449576
 21
17.3223262646
 31
0.0
 11
22.5727577961
 21
17.325109346
 31
0.0
 11
22.5694380651
 21
17.3310137015
 31
0.0
 11
22.5679983585
 21
17.3341196947
 31
0.0
 11
22.5667006847
 21
17.3373184372
 31
0.0
 11
22.5645175994
 21
17.3439728643
 31
0.0
 11
22.5628612574
 21
17.3509369272
 31
0.0
 11
22.561704131
 21
17.358171082
 31
0.0
 11
22.5610198073
 21
17.3656377513
 31
0.0
 11
22.5607868443
 21
17.373308129
 31
0.0
  0
SPLINE
  5
3CF
100
AcDbEntity
  8
0
100
AcDbSpline
 62
9
  6
CONTINUOUS
 70
0
 71
3
 72
39
 73
35
 74
33
 42
0.0000001
 43
0.0000001
 44
0.0000000001
 12
0.1456058635
 22
0.0733020198
 32
0.0
 13
-0.1124961195
 23
0.117978289
 33
0.0
 40
0.0
 40
0.0
 40
0.0
 40
0.0
 40
0.0231584142
 40
0.0464687582
 40
0.0700651399
 40
0.094062642
 40
0.1185580734
 40
0.1436314354
 40
0.1957220019
 40
0.2228707561
 40
0.2507896133
 40
0.2795049889
 40
0.3090383578
 40
0.3241192735
 40
0.3394102206
 40
0.3706061016
 40
0.4025910944
 40
0.4353142039
 40
0.4687150875
 40
0.5027262611
 40
0.5372749581
 40
0.5722847226
 40
0.607676804
 40
0.6433714126
 40
0.6792888855
 40
0.7153508064
 40
0.7514811175
 40
0.7876069141
 40
0.8236549498
 40
0.8595488094
 40
0.8952098596
 40
0.9305583594
 40
0.9655145842
 40
1.0
 40
1.0
 40
1.0
 40
1.0
 10
13.1960567316
 20
16.1941623408
 30
0.0
 10
13.1971807319
 20
16.1947281937
 30
0.0
 10
13.1993786104
 20
16.1959819002
 30
0.0
 10
13.2024832329
 20
16.1981958475
 30
0.0
 10
13.2053925292
 20
16.2007308118
 30
0.0
 10
13.2080976863
 20
16.2035713287
 30
0.0
 10
13.2105907769
 20
16.2067027483
 30
0.0
 10
13.2136590764
 20
16.2113024946
 30
0.0
 10
13.2162229448
 20
16.2163870815
 30
0.0
 10
13.2182765477
 20
16.2218390144
 30
0.0
 10
13.2195853467
 20
16.2262034993
 30
0.0
 10
13.220632021
 20
16.2307704271
 30
0.0
 10
13.2212745117
 20
16.2347057731
 30
0.0
 10
13.2216519847
 20
16.2379393975
 30
0.0
 10
13.2219397072
 20
16.241272964
 30
0.0
 10
13.2221207289
 20
16.2455356122
 30
0.0
 10
13.2220615947
 20
16.2507488478
 30
0.0
 10
13.2217323204
 20
16.2560719409
 30
0.0
 10
13.2211376427
 20
16.2614825298
 30
0.0
 10
13.2202822763
 20
16.2669583755
 30
0.0
 10
13.2191709175
 20
16.2724771656
 30
0.0
 10
13.217808253
 20
16.2780165764
 30
0.0
 10
13.2161989618
 20
16.2835542638
 30
0.0
 10
13.2143477207
 20
16.2890678729
 30
0.0
 10
13.2122591891
 20
16.2945350373
 30
0.0
 10
13.2099380659
 20
16.2999333978
 30
0.0
 10
13.2073888773
 20
16.3052405303
 30
0.0
 10
13.2046169267
 20
16.3104339239
 30
0.0
 10
13.2016379429
 20
16.3154963976
 30
0.0
 10
13.1984670141
 20
16.320410854
 30
0.0
 10
13.195119368
 20
16.3251602233
 30
0.0
 10
13.1916101512
 20
16.3297274623
 30
0.0
 10
13.1879546397
 20
16.3340953942
 30
0.0
 10
13.1854108554
 20
16.3368843075
 30
0.0
 10
13.1841176969
 20
16.3382404842
 30
0.0
 11
13.1960567316
 21
16.1941623408
 31
0.0
 11
13.199336945
 21
16.196031109
 31
0.0
 11
13.2024325723
 21
16.1982349241
 31
0.0
 11
13.2053350517
 21
16.2007591808
 31
0.0
 11
13.2080358215
 21
16.2035892737
 31
0.0
 11
13.2105263201
 21
16.2067105978
 31
0.0
 11
13.2127979858
 21
16.2101085477
 31
0.0
 11
13.2166505719
 21
16.217675904
 31
0.0
 11
13.2182143689
 21
16.2218160998
 31
0.0
 11
13.2195250864
 21
16.2261745004
 31
0.0
 11
13.2205741626
 21
16.2307365006
 31
0.0
 11
13.2213530359
 21
16.2354874951
 31
0.0
 11
13.221638471
 21
16.237929301
 31
0.0
 11
13.2218534768
 21
16.2404126818
 31
0.0
 11
13.2220738785
 21
16.2454933348
 31
0.0
 11
13.2220187364
 21
16.2507071124
 31
0.0
 11
13.2216927739
 21
16.2560315382
 31
0.0
 11
13.2211007144
 21
16.2614441354
 31
0.0
 11
13.2202472814
 21
16.2669224274
 31
0.0
 11
13.2191371983
 21
16.2724439377
 31
0.0
 11
13.2177751884
 21
16.2779861896
 31
0.0
 11
13.2161659752
 21
16.2835267065
 31
0.0
 11
13.214314282
 21
16.2890430118
 31
0.0
 11
13.2122248323
 21
16.2945126289
 31
0.0
 11
13.2099023496
 21
16.2999130811
 31
0.0
 11
13.2073515575
 21
16.3052218921
 31
0.0
 11
13.2045792822
 21
16.3104176437
 31
0.0
 11
13.2015993217
 21
16.3154824279
 31
0.0
 11
13.1984269177
 21
16.320399063
 31
0.0
 11
13.1950773116
 21
16.3251503677
 31
0.0
 11
13.191565745
 21
16.3297191605
 31
0.0
 11
13.1879074596
 21
16.3340882598
 31
0.0
 11
13.1841176969
 21
16.3382404842
 31
0.0
  0
SPLINE
  5
3D0
100
AcDbEntity
  8
0
100
AcDbSpline
 62
6
  6
CONTINUOUS
 70
0
 71
3
 72
37
 73
33
 74
31
 42
0.0000001
 43
0.0000001
 44
0.0000000001
 12
-0.1819853645
 22
-0.0368518302
 32
0.0
 13
0.0958119603
 23
0.1590496731
 33
0.0
 40
0.0
 40
0.0
 40
0.0
 40
0.0
 40
0.0313194143
 40
0.0469938165
 40
0.0626607579
 40
0.0783199169
 40
0.0939725077
 40
0.125247032
 40
0.1408807139
 40
0.156505539
 40
0.1721221035
 40
0.1877320396
 40
0.2189214677
 40
0.250091359
 40
0.2812470593
 40
0.3123975162
 40
0.3746655587
 40
0.4369927445
 40
0.4682045714
 40
0.4994379377
 40
0.5619433053
 40
0.6245266071
 40
0.655850176
 40
0.6871821378
 40
0.7185162949
 40
0.7498481518
 40
0.7811728167
 40
0.8124836196
 40
0.8750430826
 40
0.9063214771
 40
0.9375882948
 40
1.0
 40
1.0
 40
1.0
 40
1.0
 10
12.9222594207
 20
14.7524546922
 30
0.0
 10
12.920359529
 20
14.7520699663
 30
0.0
 10
12.9174721868
 20
14.7516557817
 30
0.0
 10
12.9135989465
 20
14.7514328077
 30
0.0
 10
12.9106882657
 20
14.7514310539
 30
0.0
 10
12.9077835548
 20
14.7515928432
 30
0.0
 10
12.9039322472
 20
14.7520224624
 30
0.0
 10
12.9001237228
 20
14.7527696368
 30
0.0
 10
12.8963956972
 20
14.753814357
 30
0.0
 10
12.89364535
 20
14.7547421414
 30
0.0
 10
12.890947424
 20
14.7558084946
 30
0.0
 10
12.8874285495
 20
14.7574057894
 30
0.0
 10
12.8831844705
 20
14.7597194025
 30
0.0
 10
12.8783737506
 20
14.7629511905
 30
0.0
 10
12.8738670948
 20
14.7665908501
 30
0.0
 10
12.8682873332
 20
14.7719226959
 30
0.0
 10
12.8621312192
 20
14.7793925475
 30
0.0
 10
12.8571179896
 20
14.7876678873
 30
0.0
 10
12.8537948007
 20
14.7946439763
 30
0.0
 10
12.8509245654
 20
14.8018302974
 30
0.0
 10
12.8481870356
 20
14.8111369979
 30
0.0
 10
12.8465708683
 20
14.8207052027
 30
0.0
 10
12.8459357284
 20
14.8284339233
 30
0.0
 10
12.8457840771
 20
14.8342523921
 30
0.0
 10
12.8459535375
 20
14.8400706308
 30
0.0
 10
12.8464393992
 20
14.8458704896
 30
0.0
 10
12.8472368183
 20
14.8516344866
 30
0.0
 10
12.8487080954
 20
14.8592450415
 30
0.0
 10
12.8507860755
 20
14.8667251286
 30
0.0
 10
12.8534509585
 20
14.8739985277
 30
0.0
 10
12.8564985968
 20
14.8811095679
 30
0.0
 10
12.8592149486
 20
14.8862493637
 30
0.0
 10
12.8612082112
 20
14.8895582175
 30
0.0
 11
12.9222594207
 21
14.7524546922
 31
0.0
 11
12.9165031793
 21
14.7516275844
 31
0.0
 11
12.9135975771
 21
14.7514603834
 31
0.0
 11
12.9106885542
 21
14.7514583303
 31
0.0
 11
12.9077854543
 21
14.7516196529
 31
0.0
 11
12.9048969978
 21
14.7519417425
 31
0.0
 11
12.8991978308
 21
14.7530557636
 31
0.0
 11
12.8964025419
 21
14.7538386347
 31
0.0
 11
12.8936533764
 21
14.7547654956
 31
0.0
 11
12.890956469
 21
14.7558307537
 31
0.0
 11
12.888317015
 21
14.7570283475
 31
0.0
 11
12.8832300411
 21
14.759796196
 31
0.0
 11
12.8784233934
 21
14.7630199241
 31
0.0
 11
12.8739201416
 21
14.7666512482
 31
0.0
 11
12.8697357881
 21
14.7706444568
 31
0.0
 11
12.862362309
 21
14.7795500026
 31
0.0
 11
12.8563469796
 21
14.7894367013
 31
0.0
 11
12.8538525198
 21
14.7946677764
 31
0.0
 11
12.8516997229
 21
14.8000527848
 31
0.0
 11
12.8484126353
 21
14.8111835043
 31
0.0
 11
12.8464673085
 21
14.8226399289
 31
0.0
 11
12.8459899212
 21
14.8284364362
 31
0.0
 11
12.8458375984
 21
14.8342521323
 31
0.0
 11
12.8460062859
 21
14.8400677847
 31
0.0
 11
12.8464914043
 21
14.8458651943
 31
0.0
 11
12.8472880966
 21
14.8516267082
 31
0.0
 11
12.8483915403
 21
14.8573347937
 31
0.0
 11
12.8515013722
 21
14.8685267576
 31
0.0
 11
12.8534995124
 21
14.873979952
 31
0.0
 11
12.8557870663
 21
14.8793158707
 31
0.0
 11
12.8612082112
 21
14.8895582175
 31
0.0
  0
SPLINE
  5
3D1
100
AcDbEntity
  8
0
100
AcDbSpline
 62
6
  6
CONTINUOUS
 70
0
 71
3
 72
27
 73
23
 74
21
 42
0.0000001
 43
0.0000001
 44
0.0000000001
 12
0.1130752054
 22
-0.1543286588
 32
0.0
 13
0.1913199859
 23
-0.0
 33
0.0
 40
0.0
 40
0.0
 40
0.0
 40
0.0
 40
0.0560006142
 40
0.1127867526
 40
0.1703714708
 40
0.2287835366
 40
0.288061065
 40
0.3482234481
 40
0.4093051284
 40
0.4402129561
 40
0.4713770714
 40
0.5344571457
 40
0.5985083662
 40
0.6635259933
 40
0.7294909588
 40
0.7627939452
 40
0.7962882107
 40
0.8299640396
 40
0.8638093707
 40
0.8977843286
 40
0.9318408197
 40
1.0
 40
1.0
 40
1.0
 40
1.0
 10
21.7610861892
 20
17.3894874365
 30
0.0
 10
21.7631969495
 20
17.3866066033
 30
0.0
 10
21.7675691532
 20
17.3808920805
 30
0.0
 10
21.7745358975
 20
17.3725501978
 30
0.0
 10
21.7819682615
 20
17.3644101833
 30
0.0
 10
21.7898768304
 20
17.3565053264
 30
0.0
 10
21.7982696911
 20
17.3488695128
 30
0.0
 10
21.8071616714
 20
17.3415496459
 30
0.0
 10
21.814968145
 20
17.3357782184
 30
0.0
 10
21.8214692974
 20
17.3313699466
 30
0.0
 10
21.8281980711
 20
17.3270757864
 30
0.0
 10
21.8369387935
 20
17.3220126561
 30
0.0
 10
21.8479006264
 20
17.316518171
 30
0.0
 10
21.8593611241
 20
17.3116626044
 30
0.0
 10
21.8692690384
 20
17.3082289291
 30
0.0
 10
21.8774040878
 20
17.3058772045
 30
0.0
 10
21.8836206563
 20
17.3043186749
 30
0.0
 10
21.8899240161
 20
17.3029817802
 30
0.0
 10
21.8963034163
 20
17.3018776649
 30
0.0
 10
21.9027440065
 20
17.3010105707
 30
0.0
 10
21.9113905228
 20
17.3001765039
 30
0.0
 10
21.9179126829
 20
17.2999205074
 30
0.0
 10
21.9222594207
 20
17.2999205074
 30
0.0
 11
21.7610861892
 21
17.3894874365
 31
0.0
 11
21.7675978238
 21
17.3809792524
 31
0.0
 11
21.7745631316
 21
17.3726415065
 31
0.0
 11
21.781992862
 21
17.3645066578
 31
0.0
 11
21.7898977641
 21
17.3566071649
 31
0.0
 11
21.7982887445
 21
17.3489776706
 31
0.0
 11
21.8071775869
 21
17.3416650301
 31
0.0
 11
21.8165763803
 21
17.3347203418
 31
0.0
 11
21.8214707865
 21
17.3314019493
 31
0.0
 11
21.8264970891
 21
17.3281948447
 31
0.0
 11
21.8369424727
 21
17.3221498348
 31
0.0
 11
21.8478999421
 21
17.3166633781
 31
0.0
 11
21.8593554005
 21
17.3118151349
 31
0.0
 11
21.8712812076
 21
17.3076859666
 31
0.0
 11
21.8774022902
 21
17.3059171527
 31
0.0
 11
21.8836182242
 21
17.3043595273
 31
0.0
 11
21.8899210588
 21
17.3030235967
 31
0.0
 11
21.8963014468
 21
17.3019190577
 31
0.0
 11
21.9027434148
 21
17.3010517643
 31
0.0
 11
21.9092290252
 21
17.3004264315
 31
0.0
 11
21.9222594207
 21
17.2999205074
 31
0.0
  0
ENDSEC
  0
SECTION
  2
OBJECTS
  0
DICTIONARY
  5
C
100
AcDbDictionary
280
0
281
1
  3
ACAD_GROUP
350
D
  3
ACAD_MLINESTYLE
350
17
  3
ACAD_LAYOUT
350
1A
  3
ACAD_PLOTSETTINGS
350
19
  3
ACAD_PLOTSTYLENAME
350
E
  0
DICTIONARY
  5
D
102
{ACAD_REACTORS
330
C
102
}
100
AcDbDictionary
280
0
281
1
  0
ACDBDICTIONARYWDFLT
  5
E
102
{ACAD_REACTORS
330
C
102
}
100
AcDbDictionary
281
1
  3
Normal
350
F
100
AcDbDictionaryWithDefault
340
F
  0
DICTIONARY
  5
17
102
{ACAD_REACTORS
330
C
102
}
100
AcDbDictionary
280
0
281
1
  3
Standard
350
18
  0
DICTIONARY
  5
19
102
{ACAD_REACTORS
330
C
102
}
100
AcDbDictionary
281
1
  0
DICTIONARY
  5
1A
102
{ACAD_REACTORS
330
C
102
}
100
AcDbDictionary
281
1
  3
Model
350
3D2
  3
Layout1
350
3D3
  0
ACDBPLACEHOLDER
  5
F
102
{ACAD_REACTORS
330
E
102
}
  0
MLINESTYLE
  5
18
102
{ACAD_REACTORS
330
17
102
}
100
AcDbMlineStyle
  2
STANDARD
 70
0
  3

 62
256
 51
90.0
 52
90.0
 71
2
 49
0.5
 62
256
  6
BYLAYER
 49
-0.5
 62
256
  6
BYLAYER
  0
LAYOUT
  5
3D2
102
{ACAD_REACTORS
330
1A
102
}
100
AcDbPlotSettings
  1

  2
none_device
  4

  6

 40
0.0
 41
0.0
 42
0.0
 43
0.0
 44
594.0
 45
841.0
 46
0.0
 47
0.0
 48
0.0
 49
0.0
140
0.0
141
0.0
142
1.0
143
1.0
 70
1024
 72
0
 73
0
 74
0
  7

 75
0
147
1.0
148
0.0
149
0.0
100
AcDbLayout
  1
Model
 70
0
 71
0
 10
0.0
 20
0.0
 11
23.3858267717
 21
33.1102362205
 12
0.0
 22
0.0
 32
0.0
 14
0.0
 24
0.0
 34
0.0
 15
0.0
 25
0.0
 35
0.0
146
0.0
 13
0.0
 23
0.0
 33
0.0
 16
1.0
 26
0.0
 36
0.0
 17
0.0
 27
1.0
 37
0.0
 76
0
330
203
345
0
346
0
  0
LAYOUT
  5
3D3
102
{ACAD_REACTORS
330
1A
102
}
100
AcDbPlotSettings
  1

  2
none_device
  4

  6

 40
0.0
 41
0.0
 42
0.0
 43
0.0
 44
594.0
 45
841.0
 46
0.0
 47
0.0
 48
0.0
 49
0.0
140
0.0
141
0.0
142
1.0
143
1.0
 70
0
 72
0
 73
0
 74
0
  7

 75
0
147
1.0
148
0.0
149
0.0
100
AcDbLayout
  1
Layout1
 70
0
 71
1
 10
0.0
 20
0.0
 11
23.3858267717
 21
33.1102362205
 12
0.0
 22
0.0
 32
0.0
 14
0.0
 24
0.0
 34
0.0
 15
0.0
 25
0.0
 35
0.0
146
0.0
 13
0.0
 23
0.0
 33
0.0
 16
1.0
 26
0.0
 36
0.0
 17
0.0
 27
1.0
 37
0.0
 76
0
330
204
345
0
346
0
  0
ENDSEC
  0
EOF
