  0
SECTION
  2
HEADER
  9
$ACADVER
  1
AC1015
  9
$DWGCODEPAGE
  3
ANSI_1252
  9
$EXTMAX
 10
23.3858267717
 20
33.1102362205
 30
0.0
  9
$EXTMIN
 10
0.0
 20
0.0
 30
0.0
  9
$LIMMIN
 10
0.0
 20
0.0
  9
$LIMMAX
 10
23.3858267717
 20
33.1102362205
  9
$VIEWCTR
 10
11.6929133858
 20
16.5551181102
  9
$VIEWSIZE
 40
33.1102362205
  9
$CLAYER
  8
0
  9
$LTSCALE
 40
2.1582968796
  9
$CELTYPE
  6
BYLAYER
  9
$DIMSCALE
 40
1.0
  9
$DIMASZ
 40
0.1875
  9
$DIMEXO
 40
0.245261009
  9
$DIMDLI
 40
1.491186935
  9
$DIMEXE
 40
0.706351706
  9
$DIMCEN
 40
0.353175853
  9
$DIMLFAC
 40
1.0
  9
$DIMBLK
  1
_CLOSED
  9
$DIMTXT
 40
0.15625
  9
$DIMTOL
 70
0
  9
$DIMLIM
 70
0
  9
$DIMTFAC
 40
1.0
  9
$PDMODE
 70
3
  9
$PDSIZE
 40
0.3125
  9
$HANDSEED
  5
3CE
  9
$TILEMODE
 70
1
  9
$MEASUREMENT
 70
0
  9
$INSUNITS
 70
1
  0
ENDSEC
  0
SECTION
  2
CLASSES
  0
CLASS
  1
ACDBDICTIONARYWDFLT
  2
AcDbDictionaryWithDefault
  3
AutoCAD 2000
 90
0
280
0
281
0
  0
CLASS
  1
ACDBPLACEHOLDER
  2
AcDbPlaceHolder
  3
AutoCAD 2000
 90
0
280
0
281
0
  0
CLASS
  1
LAYOUT
  2
AcDbLayout
  3
AutoCAD 2000
 90
0
280
0
281
0
  0
ENDSEC
  0
SECTION
  2
TABLES
  0
TABLE
  2
VPORT
  5
8
100
AcDbSymbolTable
 70
2
  0
VPORT
  5
1F4
100
AcDbSymbolTableRecord
100
AcDbViewportTableRecord
  2
*ACTIVE
 70
0
 10
0.0
 20
0.0
 11
1.0
 21
1.0
 12
11.6929133858
 22
16.5551181102
 13
0.0
 23
0.0
 14
1.0
 24
1.0
 15
0.0
 25
0.0
 16
0.0
 26
0.0
 36
1.0
 17
0.0
 27
0.0
 37
0.0
 40
33.1102362205
 41
0.7063020214
 42
50.0
 43
0.0
 44
0.0
 50
0.0
 51
0.0
 71
0
 72
100
 73
1
 74
1
 75
0
 76
0
 77
0
 78
0
  0
ENDTAB
  0
TABLE
  2
LTYPE
  5
5
100
AcDbSymbolTable
 70
6
  0
LTYPE
  5
14
100
AcDbSymbolTableRecord
100
AcDbLinetypeTableRecord
  2
BYBLOCK
 70
0
  3

 72
65
 73
0
 40
0.0
  0
LTYPE
  5
15
100
AcDbSymbolTableRecord
100
AcDbLinetypeTableRecord
  2
BYLAYER
 70
0
  3

 72
65
 73
0
 40
0.0
  0
LTYPE
  5
16
100
AcDbSymbolTableRecord
100
AcDbLinetypeTableRecord
  2
CONTINUOUS
 70
64
  3
Solid line
 72
65
 73
0
 40
0.0
  0
LTYPE
  5
1F5
100
AcDbSymbolTableRecord
100
AcDbLinetypeTableRecord
  2
CENTER
 70
64
  3
____ _ ____ _ ____ _ ____ _ ____ _ ____ _ ____
 72
65
 73
4
 40
0.6
 49
0.375
 74
0
 49
-0.075
 74
0
 49
0.075
 74
0
 49
-0.075
 74
0
  0
LTYPE
  5
1F6
100
AcDbSymbolTableRecord
100
AcDbLinetypeTableRecord
  2
HIDDEN
 70
64
  3
- - - - - - - - - - - - - - - - - - - -
 72
65
 73
2
 40
0.2
 49
0.1
 74
0
 49
-0.1
 74
0
  0
LTYPE
  5
1F7
100
AcDbSymbolTableRecord
100
AcDbLinetypeTableRecord
  2
PHANTOM
 70
64
  3
_____ _ _ _____ _ _ _____ _ _ _____
 72
65
 73
6
 40
0.8
 49
0.45
 74
0
 49
-0.05
 74
0
 49
0.1
 74
0
 49
-0.05
 74
0
 49
0.1
 74
0
 49
-0.05
 74
0
  0
LTYPE
  5
1F8
100
AcDbSymbolTableRecord
100
AcDbLinetypeTableRecord
  2
DOT
 70
64
  3
. . . . . . . . . . . . . . . . . . . .
 72
65
 73
2
 40
0.2
 49
0.1
 74
0
 49
-0.1
 74
0
  0
LTYPE
  5
1F9
100
AcDbSymbolTableRecord
100
AcDbLinetypeTableRecord
  2
DASHED
 70
64
  3
- - - - - - - - - - - - - - - - - - - -
 72
65
 73
2
 40
0.2
 49
0.1
 74
0
 49
-0.1
 74
0
  0
ENDTAB
  0
TABLE
  2
LAYER
  5
2
100
AcDbSymbolTable
 70
36
  0
LAYER
  5
10
100
AcDbSymbolTableRecord
100
AcDbLayerTableRecord
  2
0
 70
0
 62
7
  6
CONTINUOUS
370
-3
390
F
  0
LAYER
  5
1FA
100
AcDbSymbolTableRecord
100
AcDbLayerTableRecord
  2
DEFAULT_1
 70
0
 62
7
  6
CENTER
370
-3
390
F
  0
LAYER
  5
1FB
100
AcDbSymbolTableRecord
100
AcDbLayerTableRecord
  2
DEFAULT_2
 70
0
 62
8
  6
HIDDEN
370
-3
390
F
  0
LAYER
  5
1FC
100
AcDbSymbolTableRecord
100
AcDbLayerTableRecord
  2
DEFAULT_3
 70
0
 62
7
  6
PHANTOM
370
-3
390
F
  0
LAYER
  5
1FD
100
AcDbSymbolTableRecord
100
AcDbLayerTableRecord
  2
DEFAULT_COORDINATE_SYSTEM
 70
0
 62
7
  6
CONTINUOUS
370
-3
390
F
  0
LAYER
  5
1FE
100
AcDbSymbolTableRecord
100
AcDbLayerTableRecord
  2
DEFAULT_DATUM_AXES
 70
0
 62
7
  6
CONTINUOUS
370
-3
390
F
  0
LAYER
  5
1FF
100
AcDbSymbolTableRecord
100
AcDbLayerTableRecord
  2
DEFAULT_DATUM_CURVES
 70
0
 62
7
  6
CONTINUOUS
370
-3
390
F
  0
LAYER
  5
200
100
AcDbSymbolTableRecord
100
AcDbLayerTableRecord
  2
DEFAULT_DATUM_PLANES
 70
0
 62
7
  6
CONTINUOUS
370
-3
390
F
  0
ENDTAB
  0
TABLE
  2
STYLE
  5
3
100
AcDbSymbolTable
 70
1
  0
STYLE
  5
11
100
AcDbSymbolTableRecord
100
AcDbTextStyleTableRecord
  2
STANDARD
 70
0
 40
0.0
 41
0.8
 50
0.0
 71
0
 42
0.2
  3
txt
  4

  0
STYLE
  5
201
100
AcDbSymbolTableRecord
100
AcDbTextStyleTableRecord
  2
TEXTSTYLE_1
 70
0
 40
0.0
 41
0.8
 50
0.0
 71
0
 42
0.2
  3
gdt
  4

  0
ENDTAB
  0
TABLE
  2
VIEW
  5
6
100
AcDbSymbolTable
 70
0
  0
ENDTAB
  0
TABLE
  2
UCS
  5
7
100
AcDbSymbolTable
 70
0
  0
ENDTAB
  0
TABLE
  2
APPID
  5
9
100
AcDbSymbolTable
 70
1
  0
APPID
  5
202
100
AcDbSymbolTableRecord
100
AcDbRegAppTableRecord
  2
ACAD
 70
0
  0
ENDTAB
  0
TABLE
  2
BLOCK_RECORD
  5
1
100
AcDbSymbolTable
 70
0
  0
BLOCK_RECORD
  5
203
100
AcDbSymbolTableRecord
100
AcDbBlockTableRecord
  2
*Model_Space
  0
BLOCK_RECORD
  5
204
100
AcDbSymbolTableRecord
100
AcDbBlockTableRecord
  2
*Paper_Space
  0
ENDTAB
  0
TABLE
  2
DIMSTYLE
  5
A
100
AcDbSymbolTable
 70
1
100
AcDbDimStyleTable
 71
0
  0
DIMSTYLE
105
205
100
AcDbSymbolTableRecord
100
AcDbDimStyleTableRecord
  2
STANDARD
 70
0
  3

  4

 40
1.0
 41
0.1875
 42
0.0625
 43
0.38
 44
0.18
 45
0.0
 46
0.0
 47
0.01
 48
0.01
140
0.15625
141
0.09
142
0.0
143
25.4
144
1.0
145
0.0
146
1.0
147
0.09
 71
0.0
 72
0.0
 73
1
 74
1
 75
0
 76
0
 77
0
 78
4
170
0
171
2
172
0
173
0
174
0
175
0
176
0
177
0
178
0
270
2
271
2
272
2
273
2
274
2
275
0
280
0
281
0
282
0
283
1
284
4
285
0
286
0
287
3
288
0
340
11
  0
ENDTAB
  0
ENDSEC
  0
SECTION
  2
BLOCKS
  0
BLOCK
  5
20
100
AcDbEntity
  8
0
100
AcDbBlockBegin
  2
*Model_Space
 70
0
 10
0.0
 20
0.0
 30
0.0
  3
*Model_Space
  1

  0
ENDBLK
  5
21
100
AcDbEntity
  8
0
100
AcDbBlockEnd
  0
BLOCK
  5
1C
100
AcDbEntity
  8
0
100
AcDbBlockBegin
  2
*Paper_Space
 70
0
 10
0.0
 20
0.0
 30
0.0
  3
*Paper_Space
  1

  0
ENDBLK
  5
1D
100
AcDbEntity
  8
0
100
AcDbBlockEnd
  0
ENDSEC
  0
SECTION
  2
ENTITIES
  0
LINE
  5
206
100
AcDbEntity
  8
0
100
AcDbLine
 62
6
  6
CONTINUOUS
 10
11.5824389868
 20
4.9354340721
 11
11.8995761811
 21
4.9354340721
  0
LINE
  5
207
100
AcDbEntity
  8
0
100
AcDbLine
 62
6
  6
CONTINUOUS
 10
11.8995761811
 20
5.8054340721
 11
11.5824389868
 21
5.8054340721
  0
LWPOLYLINE
  5
208
100
AcDbEntity
  8
0
100
AcDbPolyline
 62
6
  6
CONTINUOUS
 90
52
 70
0
 10
4.8956603702
 20
17.3931911387
 10
4.9036469594
 20
17.40717825
 10
4.9116097669
 20
17.4210949696
 10
4.9195435873
 20
17.434918306
 10
4.9274433265
 20
17.4486257859
 10
4.9353057775
 20
17.4621985951
 10
4.9431286618
 20
17.4756199162
 10
4.9509095592
 20
17.4888730975
 10
4.9586447551
 20
17.5019397564
 10
4.9663232733
 20
17.5147899796
 10
4.9739312721
 20
17.5273902734
 10
4.9814549816
 20
17.5397087861
 10
4.9888894371
 20
17.5517295215
 10
4.9962422107
 20
17.5634574324
 10
5.0035215693
 20
17.5748984921
 10
5.0107348983
 20
17.5860570517
 10
5.0178856153
 20
17.5969315105
 10
5.0249751375
 20
17.6075186565
 10
5.0320040893
 20
17.6178145728
 10
5.0389708732
 20
17.6278123483
 10
5.0458668525
 20
17.6374957111
 10
5.0526818842
 20
17.6468476679
 10
5.0594065411
 20
17.6558537653
 10
5.0660325338
 20
17.6645025854
 10
5.072558637
 20
17.6727930315
 10
5.0789845395
 20
17.6807256112
 10
5.085289606
 20
17.6882772078
 10
5.0914428344
 20
17.6954162729
 10
5.0974672278
 20
17.7021759211
 10
5.1034417198
 20
17.7086455406
 10
5.1094282087
 20
17.7148849566
 10
5.1153826635
 20
17.7208419419
 10
5.1212394758
 20
17.7264519265
 10
5.1270591951
 20
17.7317741124
 10
5.1329185124
 20
17.7368704959
 10
5.1385938882
 20
17.74154803
 10
5.1437471274
 20
17.7455671197
 10
5.1483977662
 20
17.7490000927
 10
5.1528064526
 20
17.7520761176
 10
5.1571099759
 20
17.7549027009
 10
5.1612834757
 20
17.7574684248
 10
5.1652930403
 20
17.7597606512
 10
5.1691344313
 20
17.7617873546
 10
5.1728458056
 20
17.7635765836
 10
5.1764606778
 20
17.7651471462
 10
5.1799859715
 20
17.7665012627
 10
5.1834061103
 20
17.7676324745
 10
5.186743751
 20
17.7685481128
 10
5.1900796776
 20
17.769267244
 10
5.1934846223
 20
17.7697942511
 10
5.1970473664
 20
17.7701222995
 10
5.2005995221
 20
17.770228453
  0
LWPOLYLINE
  5
209
100
AcDbEntity
  8
0
100
AcDbPolyline
 62
6
  6
CONTINUOUS
 90
53
 70
0
 10
4.730731688
 20
17.4824643525
 10
4.7060906658
 20
17.4392968896
 10
4.6980007082
 20
17.4251627559
 10
4.6899834489
 20
17.4111991443
 10
4.6820338757
 20
17.3974108442
 10
4.6741458233
 20
17.3838001659
 10
4.6663134638
 20
17.3703696577
 10
4.6585375231
 20
17.3571327444
 10
4.6508266912
 20
17.3441157184
 10
4.6431903653
 20
17.3313450074
 10
4.6356374322
 20
17.3188449818
 10
4.6281601104
 20
17.3066116051
 10
4.6207339338
 20
17.2946137873
 10
4.6133407793
 20
17.2828304191
 10
4.6059811137
 20
17.2712701564
 10
4.5986589791
 20
17.2599469784
 10
4.5913829533
 20
17.2488811779
 10
4.5841638405
 20
17.238095287
 10
4.5770105735
 20
17.2276077253
 10
4.5699310776
 20
17.2174342001
 10
4.5629346102
 20
17.2075910385
 10
4.5560315028
 20
17.1980945634
 10
4.5492274124
 20
17.1889532214
 10
4.5425219103
 20
17.1801664701
 10
4.5359237807
 20
17.1717450645
 10
4.5294633866
 20
17.1637245948
 10
4.5231555221
 20
17.1561174423
 10
4.5169284374
 20
17.1488337337
 10
4.5106948627
 20
17.1417764839
 10
4.5044844025
 20
17.1349857451
 10
4.4983400952
 20
17.1285096989
 10
4.4922553396
 20
17.1223404245
 10
4.4862270825
 20
17.116474517
 10
4.4802563801
 20
17.1109129209
 10
4.4743476851
 20
17.1056594766
 10
4.4685101389
 20
17.1007212578
 10
4.4628163882
 20
17.0961533956
 10
4.4574526981
 20
17.0920820207
 10
4.4525692207
 20
17.0885776721
 10
4.4480578774
 20
17.0855198561
 10
4.4437631265
 20
17.082776909
 10
4.4395472113
 20
17.0802520989
 10
4.4353310168
 20
17.0779028825
 10
4.4311218327
 20
17.0757430835
 10
4.4269394583
 20
17.0737898009
 10
4.422804423
 20
17.0720570968
 10
4.418718913
 20
17.0705488877
 10
4.4146641304
 20
17.0692619753
 10
4.4106032069
 20
17.0681914199
 10
4.4064780424
 20
17.0673340824
 10
4.4022082737
 20
17.0666937894
 10
4.3976953084
 20
17.0662877099
 10
4.3931353218
 20
17.0661515862
  0
LWPOLYLINE
  5
20A
100
AcDbEntity
  8
0
100
AcDbPolyline
 62
6
  6
CONTINUOUS
 90
49
 70
0
 10
4.5730960783
 20
17.4269454069
 10
4.5974413449
 20
17.4652090579
 10
4.6054899678
 20
17.4778256921
 10
4.6134895388
 20
17.4903242652
 10
4.6214180269
 20
17.5026566728
 10
4.629272078
 20
17.5148048605
 10
4.6370491958
 20
17.5267528679
 10
4.6447347962
 20
17.538467169
 10
4.6523155883
 20
17.5499176865
 10
4.6598108058
 20
17.5611243372
 10
4.6672515471
 20
17.572124049
 10
4.6746490525
 20
17.5829240439
 10
4.682000582
 20
17.5935115321
 10
4.6893028757
 20
17.603873435
 10
4.6965518574
 20
17.6139960449
 10
4.7037380307
 20
17.6238588916
 10
4.710849009
 20
17.633438858
 10
4.717873532
 20
17.6427159247
 10
4.7248046538
 20
17.6516772191
 10
4.7316362337
 20
17.660312104
 10
4.7383615854
 20
17.668610459
 10
4.744973233
 20
17.6765625149
 10
4.7514662592
 20
17.6841628855
 10
4.7578410923
 20
17.6914132994
 10
4.7641041029
 20
17.6983223338
 10
4.7702747749
 20
17.7049118397
 10
4.7763738538
 20
17.7112024456
 10
4.7824265479
 20
17.717217469
 10
4.7884402327
 20
17.7229612927
 10
4.7943909883
 20
17.728409009
 10
4.8002512825
 20
17.7335362782
 10
4.8059704607
 20
17.7383044075
 10
4.8114570063
 20
17.7426516708
 10
4.8165908408
 20
17.7465101149
 10
4.821329566
 20
17.7498828942
 10
4.8257696554
 20
17.7528698309
 10
4.8300088999
 20
17.755556382
 10
4.834117928
 20
17.7579970797
 10
4.8380905665
 20
17.7601940055
 10
4.8419056653
 20
17.7621426329
 10
4.8455938195
 20
17.7638649143
 10
4.8492030298
 20
17.7653840027
 10
4.8527348502
 20
17.7666971884
 10
4.8562023597
 20
17.7678060099
 10
4.8596232656
 20
17.7687137231
 10
4.8630295334
 20
17.7694244989
 10
4.8664761427
 20
17.7699411724
 10
4.8700355322
 20
17.7702588047
 10
4.8735196261
 20
17.7703601604
  0
LWPOLYLINE
  5
20B
100
AcDbEntity
  8
0
100
AcDbPolyline
 62
6
  6
CONTINUOUS
 90
47
 70
0
 10
4.4139187107
 20
17.5260348744
 10
4.4054643952
 20
17.5127796721
 10
4.3970999063
 20
17.4996982654
 10
4.3888339852
 20
17.4868182269
 10
4.3806764798
 20
17.4741674715
 10
4.3726271535
 20
17.461757464
 10
4.3646664587
 20
17.4495692733
 10
4.3567726925
 20
17.4375807895
 10
4.3489247358
 20
17.4257713234
 10
4.3411225655
 20
17.4141523037
 10
4.3333928373
 20
17.4027739076
 10
4.325758169
 20
17.391678138
 10
4.3182292471
 20
17.3808876399
 10
4.31081266
 20
17.3704177049
 10
4.3035032105
 20
17.3602660574
 10
4.2962921302
 20
17.3504253747
 10
4.2891629765
 20
17.3408783216
 10
4.2820945883
 20
17.3316009985
 10
4.2750782521
 20
17.3225859275
 10
4.2681221975
 20
17.3138474639
 10
4.2612362486
 20
17.3054008025
 10
4.2544291251
 20
17.2972584846
 10
4.2477055751
 20
17.2894272108
 10
4.2410698549
 20
17.2819123169
 10
4.2345265223
 20
17.2747186946
 10
4.2280806952
 20
17.2678509961
 10
4.2217379413
 20
17.2613134082
 10
4.2155039661
 20
17.2551092455
 10
4.2093780385
 20
17.249234721
 10
4.203344046
 20
17.2436720474
 10
4.1973728379
 20
17.2383944433
 10
4.1913902995
 20
17.2333423815
 10
4.1853305694
 20
17.2284722743
 10
4.1793019407
 20
17.2238789505
 10
4.1734745275
 20
17.2196823779
 10
4.1680111318
 20
17.2159695346
 10
4.1629580931
 20
17.2127317179
 10
4.1581918839
 20
17.2098570487
 10
4.1535845389
 20
17.2072503547
 10
4.1490269031
 20
17.2048453559
 10
4.1444842855
 20
17.2026278335
 10
4.1399559373
 20
17.2006043062
 10
4.135439164
 20
17.1987814225
 10
4.1309260714
 20
17.1971651457
 10
4.1263982599
 20
17.1957601393
 10
4.1218221339
 20
17.194570792
 10
4.1172430882
 20
17.1936215579
  0
LWPOLYLINE
  5
20C
100
AcDbEntity
  8
0
100
AcDbPolyline
 62
6
  6
CONTINUOUS
 90
42
 70
0
 10
4.2996275328
 20
17.4929550159
 10
4.3075198263
 20
17.5030002508
 10
4.315311035
 20
17.5128887519
 10
4.3230107174
 20
17.5226207854
 10
4.3306283641
 20
17.5321971044
 10
4.3381730449
 20
17.5416184039
 10
4.3456513469
 20
17.5508826613
 10
4.3530676416
 20
17.5599853129
 10
4.3604258813
 20
17.5689214484
 10
4.367729095
 20
17.5776851658
 10
4.3749688217
 20
17.5862571574
 10
4.3821264445
 20
17.5946072414
 10
4.3891897155
 20
17.6027142663
 10
4.3961544838
 20
17.6105676181
 10
4.4030155009
 20
17.6181563987
 10
4.409764826
 20
17.625467876
 10
4.4163978146
 20
17.6324941244
 10
4.4229194165
 20
17.6392380972
 10
4.4293411778
 20
17.6457093782
 10
4.4357002045
 20
17.651941495
 10
4.4420410074
 20
17.6579719508
 10
4.4483548569
 20
17.663786215
 10
4.4545912012
 20
17.6693342127
 10
4.4607453044
 20
17.6746108124
 10
4.4669028243
 20
17.6796845502
 10
4.4730375086
 20
17.684525625
 10
4.47883614
 20
17.6888965173
 10
4.484079844
 20
17.6926699007
 10
4.4889393339
 20
17.6960069005
 10
4.4936369359
 20
17.6990783762
 10
4.4981941934
 20
17.7019047967
 10
4.5025625185
 20
17.7044638852
 10
4.5067570356
 20
17.7067742135
 10
4.5108459622
 20
17.7088787539
 10
4.5148850625
 20
17.7108046087
 10
4.5188854706
 20
17.7125509051
 10
4.5228514427
 20
17.7141123295
 10
4.5267835246
 20
17.715482843
 10
4.5306801949
 20
17.7166556942
 10
4.5345531322
 20
17.7176277704
 10
4.5384317942
 20
17.7183978228
 10
4.5412401485
 20
17.7188011068
  0
LWPOLYLINE
  5
20D
100
AcDbEntity
  8
0
100
AcDbPolyline
 62
6
  6
CONTINUOUS
 90
10
 70
0
 10
4.2052838754
 20
17.3753531621
 10
4.2146282911
 20
17.3864895657
 10
4.2238965396
 20
17.3976967856
 10
4.2329108914
 20
17.4087349535
 10
4.241706623
 20
17.4196208419
 10
4.2503182513
 20
17.4303741781
 10
4.2587780831
 20
17.4410144214
 10
4.2671182266
 20
17.4515631341
 10
4.2753693133
 20
17.4620420422
 10
4.2996275328
 20
17.4929550159
  0
LWPOLYLINE
  5
20E
100
AcDbEntity
  8
0
100
AcDbPolyline
 62
6
  6
CONTINUOUS
 90
32
 70
0
 10
4.0620176588
 20
17.4962448536
 10
4.0539218975
 20
17.4867310883
 10
4.0455215078
 20
17.4770393572
 10
4.0371736451
 20
17.4675982311
 10
4.0288770505
 20
17.4584112149
 10
4.0206303532
 20
17.4494816527
 10
4.0124317834
 20
17.4408124606
 10
4.0042796649
 20
17.4324067011
 10
3.9961715939
 20
17.4242667784
 10
3.9880959523
 20
17.4163864053
 10
3.980034377
 20
17.4087539073
 10
3.9719666524
 20
17.4013558485
 10
3.963874291
 20
17.394181918
 10
3.9557400496
 20
17.3872251801
 10
3.947553908
 20
17.3804868083
 10
3.939342003
 20
17.3739973651
 10
3.9311211974
 20
17.3677770819
 10
3.9227836585
 20
17.3617558753
 10
3.9141714442
 20
17.3558454595
 10
3.905214946
 20
17.3500371861
 10
3.8961745333
 20
17.3445263809
 10
3.8873888938
 20
17.3395092875
 10
3.879000076
 20
17.3350292595
 10
3.8709137896
 20
17.3309996018
 10
3.862956661
 20
17.3273151491
 10
3.8549670786
 20
17.3238999851
 10
3.8468003237
 20
17.3207074358
 10
3.8383073229
 20
17.3177108715
 10
3.829350817
 20
17.3149091443
 10
3.8200242293
 20
17.3123797965
 10
3.8105245875
 20
17.3102041585
 10
3.8026920558
 20
17.3087355656
  0
LWPOLYLINE
  5
20F
100
AcDbEntity
  8
0
100
AcDbPolyline
 62
6
  6
CONTINUOUS
 90
53
 70
0
 10
5.0420277747
 20
17.4147077978
 10
5.0174516342
 20
17.3707191235
 10
5.009395193
 20
17.3563304986
 10
5.0014041494
 20
17.3420990399
 10
4.9934749254
 20
17.328032056
 10
4.9856046421
 20
17.3141375984
 10
4.9777965281
 20
17.30043396
 10
4.9700576014
 20
17.2869453159
 10
4.9623928781
 20
17.2736914374
 10
4.9547940158
 20
17.2606683847
 10
4.9472475769
 20
17.2478633171
 10
4.9397423947
 20
17.2352668192
 10
4.9322772632
 20
17.2228862802
 10
4.9248539579
 20
17.2107338067
 10
4.9174763319
 20
17.1988244558
 10
4.9101555907
 20
17.1871842864
 10
4.9029038519
 20
17.1758393659
 10
4.8957284462
 20
17.1648068297
 10
4.8886360392
 20
17.1541015984
 10
4.8816384463
 20
17.1437449287
 10
4.8747484623
 20
17.1337575827
 10
4.8679616155
 20
17.1241339919
 10
4.8612620797
 20
17.1148531106
 10
4.8546343542
 20
17.1058960089
 10
4.8480612525
 20
17.0972422663
 10
4.8415364394
 20
17.088885793
 10
4.8350742702
 20
17.0808466465
 10
4.828689922
 20
17.0731437257
 10
4.8223899828
 20
17.0657837076
 10
4.8161771958
 20
17.0587679112
 10
4.8100502554
 20
17.0520928257
 10
4.8040118927
 20
17.0457592598
 10
4.7980843653
 20
17.0397868184
 10
4.7922854265
 20
17.03418708
 10
4.7865583877
 20
17.0289014008
 10
4.7808335583
 20
17.0238698795
 10
4.7752817687
 20
17.0192405864
 10
4.770212823
 20
17.0152375125
 10
4.765638361
 20
17.0118162084
 10
4.7612383695
 20
17.008705597
 10
4.7568611654
 20
17.0057945797
 10
4.7525844909
 20
17.0031353598
 10
4.7484491896
 20
17.0007467879
 10
4.744434972
 20
16.9986096666
 10
4.7405212532
 20
16.9967087214
 10
4.7366908972
 20
16.9950343961
 10
4.7329406761
 20
16.9935858881
 10
4.7292716508
 20
16.9923643253
 10
4.7256661221
 20
16.9913649899
 10
4.7220822803
 20
16.9905804489
 10
4.7184524807
 20
16.9900063724
 10
4.7146864803
 20
16.9896489597
 10
4.7109267196
 20
16.989531564
  0
LWPOLYLINE
  5
210
100
AcDbEntity
  8
0
100
AcDbPolyline
 62
6
  6
CONTINUOUS
 90
53
 70
0
 10
5.184775051
 20
17.2857932466
 10
5.2096470878
 20
17.3303002118
 10
5.2176982147
 20
17.3446818638
 10
5.2256551384
 20
17.3588584478
 10
5.2335395944
 20
17.372855557
 10
5.2413702401
 20
17.3866934923
 10
5.2491631668
 20
17.4003881491
 10
5.2569276922
 20
17.4139437756
 10
5.2646628922
 20
17.4273467707
 10
5.2723668234
 20
17.4405820284
 10
5.2800371215
 20
17.4536340454
 10
5.2876671774
 20
17.4664805784
 10
5.2952467989
 20
17.4790941962
 10
5.3027654652
 20
17.4914480709
 10
5.3102126494
 20
17.5035166734
 10
5.3175795662
 20
17.515278678
 10
5.324858221
 20
17.5267153791
 10
5.3320406188
 20
17.537809465
 10
5.3391286465
 20
17.5485599384
 10
5.3461378267
 20
17.5589862409
 10
5.353084826
 20
17.5691082576
 10
5.359984107
 20
17.5789428644
 10
5.3668314462
 20
17.5884805664
 10
5.3736166214
 20
17.5977044631
 10
5.3803309676
 20
17.606601179
 10
5.386966757
 20
17.6151598674
 10
5.3935201781
 20
17.6233757709
 10
5.3999892694
 20
17.6312470551
 10
5.4063610832
 20
17.6387595749
 10
5.4126127964
 20
17.6458902448
 10
5.4187421483
 20
17.6526419765
 10
5.4247785517
 20
17.659051259
 10
5.4307525942
 20
17.6651511476
 10
5.4366891364
 20
17.6709640914
 10
5.4425614957
 20
17.6764608975
 10
5.4483100231
 20
17.6815881574
 10
5.4538878769
 20
17.6863154365
 10
5.4592531746
 20
17.6906264712
 10
5.4643950139
 20
17.6945350278
 10
5.469283992
 20
17.6980417328
 10
5.4739268676
 20
17.7011743247
 10
5.478339386
 20
17.7039645818
 10
5.4825658243
 20
17.7064576416
 10
5.4866563221
 20
17.7086940296
 10
5.4906703456
 20
17.7107097866
 10
5.4946603382
 20
17.7125265427
 10
5.498634864
 20
17.7141379459
 10
5.5025872688
 20
17.7155295043
 10
5.506526061
 20
17.7166914019
 10
5.5104946512
 20
17.7176195993
 10
5.5146349297
 20
17.7183199807
 10
5.5190877821
 20
17.7187716163
 10
5.5237058954
 20
17.7189238196
  0
LWPOLYLINE
  5
211
100
AcDbEntity
  8
0
100
AcDbPolyline
 62
6
  6
CONTINUOUS
 90
51
 70
0
 10
5.345285478
 20
17.3370779747
 10
5.3291826005
 20
17.3100440942
 10
5.3212087572
 20
17.2966805263
 10
5.3132926343
 20
17.2834478366
 10
5.3054379828
 20
17.2703655298
 10
5.2976405416
 20
17.257439194
 10
5.2898922543
 20
17.2446675754
 10
5.2821852889
 20
17.2320495625
 10
5.2745140696
 20
17.2195877424
 10
5.266884014
 20
17.2073023696
 10
5.2593042547
 20
17.1952190023
 10
5.2517838932
 20
17.1833622157
 10
5.2443305849
 20
17.1717532876
 10
5.2369511988
 20
17.1604112353
 10
5.2296527747
 20
17.1493542531
 10
5.2224437954
 20
17.138601496
 10
5.2153346435
 20
17.1281734888
 10
5.2083359065
 20
17.118089371
 10
5.2014489996
 20
17.108353647
 10
5.1946393612
 20
17.0989206848
 10
5.1878706043
 20
17.089745481
 10
5.1811482958
 20
17.0808406463
 10
5.1744919291
 20
17.0722355108
 10
5.1679104371
 20
17.0639436419
 10
5.1614079343
 20
17.05597143
 10
5.1549910758
 20
17.0483275141
 10
5.1486683854
 20
17.0410215459
 10
5.142445382
 20
17.0340584481
 10
5.136323993
 20
17.0274383156
 10
5.1303063049
 20
17.0211609321
 10
5.1243949123
 20
17.0152260967
 10
5.1185953119
 20
17.0096357945
 10
5.1129157048
 20
17.0043934283
 10
5.1073643782
 20
16.9995009845
 10
5.1019524847
 20
16.994961252
 10
5.0967422477
 20
16.9908143682
 10
5.0918574547
 20
16.9871336488
 10
5.087302125
 20
16.9838894834
 10
5.082956268
 20
16.9809716629
 10
5.078735853
 20
16.9783117895
 10
5.0746210937
 20
16.9758921412
 10
5.0706036989
 20
16.9737048756
 10
5.0666790706
 20
16.9717459961
 10
5.0628432762
 20
16.9700133268
 10
5.0590914322
 20
16.9685057573
 10
5.0554146399
 20
16.9672223307
 10
5.0518009513
 20
16.9661631208
 10
5.0482207061
 20
16.9653261709
 10
5.0446127091
 20
16.9647095918
 10
5.0408822534
 20
16.964320325
 10
5.0370199112
 20
16.9641849386
  0
LWPOLYLINE
  5
212
100
AcDbEntity
  8
0
100
AcDbPolyline
 62
6
  6
CONTINUOUS
 90
52
 70
0
 10
5.4924382407
 20
17.2177642756
 10
5.5176739379
 20
17.2600858309
 10
5.5259286616
 20
17.2738970962
 10
5.5340614038
 20
17.2874631266
 10
5.5420587401
 20
17.3007484279
 10
5.5499441159
 20
17.3137799362
 10
5.5577471584
 20
17.3265949722
 10
5.5654972142
 20
17.3392299212
 10
5.5732112054
 20
17.3517003601
 10
5.5808901234
 20
17.3639971387
 10
5.5885336867
 20
17.3761098738
 10
5.5961412007
 20
17.388027749
 10
5.6037074227
 20
17.3997331904
 10
5.6112227367
 20
17.4112026172
 10
5.6186775075
 20
17.4224135015
 10
5.6260625158
 20
17.4333451197
 10
5.6333684139
 20
17.4439778214
 10
5.6405859741
 20
17.4542934925
 10
5.6477061048
 20
17.4642756481
 10
5.6547209858
 20
17.4739110359
 10
5.6616230104
 20
17.4831881079
 10
5.6684049498
 20
17.4920972498
 10
5.6750625599
 20
17.500634062
 10
5.6816260164
 20
17.508837672
 10
5.6881481391
 20
17.5167712733
 10
5.6946488947
 20
17.5244551371
 10
5.7011027086
 20
17.5318559843
 10
5.707488384
 20
17.5389488913
 10
5.7138058801
 20
17.5457343592
 10
5.7200582432
 20
17.5522160682
 10
5.7262439773
 20
17.5583927981
 10
5.7323595141
 20
17.5642616042
 10
5.7384045361
 20
17.5698230166
 10
5.7443812886
 20
17.5750797982
 10
5.750287916
 20
17.5800309486
 10
5.7561151671
 20
17.5846699867
 10
5.7617610167
 20
17.5889240778
 10
5.7669660183
 20
17.5926290025
 10
5.7716265993
 20
17.5957619658
 10
5.7760777785
 20
17.598583269
 10
5.7805914174
 20
17.6012666376
 10
5.7851305328
 20
17.6037779802
 10
5.7896309299
 20
17.6060748277
 10
5.7940946388
 20
17.6081544839
 10
5.798537508
 20
17.6100188863
 10
5.8029801815
 20
17.6116683565
 10
5.8074470838
 20
17.6131003222
 10
5.8119719554
 20
17.6143101511
 10
5.816612324
 20
17.6152920849
 10
5.8214534313
 20
17.6160338328
 10
5.8266045611
 20
17.6165086196
 10
5.8318319374
 20
17.6166681668
  0
LWPOLYLINE
  5
213
100
AcDbEntity
  8
0
100
AcDbPolyline
 62
6
  6
CONTINUOUS
 90
46
 70
0
 10
5.6301835353
 20
17.2610360779
 10
5.6221862753
 20
17.249594579
 10
5.6142205236
 20
17.2382276186
 10
5.6062987839
 20
17.2269669267
 10
5.5984397906
 20
17.215852435
 10
5.5906528747
 20
17.2049098636
 10
5.5829427674
 20
17.194157621
 10
5.5753142985
 20
17.1836134259
 10
5.5677730456
 20
17.1732951214
 10
5.5603288776
 20
17.1632253186
 10
5.5529934123
 20
17.1534275774
 10
5.5457704652
 20
17.1439136313
 10
5.5386378041
 20
17.1346605761
 10
5.5315681873
 20
17.1256402602
 10
5.5245439466
 20
17.1168373067
 10
5.5175701584
 20
17.1082645926
 10
5.5106549797
 20
17.0999380197
 10
5.5038065171
 20
17.0918724372
 10
5.4970327915
 20
17.0840815327
 10
5.4903425672
 20
17.076578689
 10
5.4837457909
 20
17.0693772766
 10
5.4772494634
 20
17.0624860828
 10
5.4708539153
 20
17.0559059409
 10
5.4645589697
 20
17.0496368349
 10
5.4583649313
 20
17.043678949
 10
5.4522785266
 20
17.0380380138
 10
5.4463194472
 20
17.0327298676
 10
5.4405082222
 20
17.0277678706
 10
5.43486663
 20
17.0231629377
 10
5.4294233326
 20
17.0189274569
 10
5.424223118
 20
17.0150802024
 10
5.4193120481
 20
17.0116336857
 10
5.4146630043
 20
17.0085464696
 10
5.4102174899
 20
17.0057621729
 10
5.4059237046
 20
17.0032370734
 10
5.4017444113
 20
17.0009432202
 10
5.3976711259
 20
16.9988728709
 10
5.3936985536
 20
16.997021486
 10
5.3897982663
 20
16.9953766243
 10
5.3859427428
 20
16.9939319302
 10
5.3821413199
 20
16.9926981951
 10
5.3784033249
 20
16.991684582
 10
5.3747130039
 20
16.9908925864
 10
5.3710258894
 20
16.9903212666
 10
5.3672245639
 20
16.9899700708
 10
5.3634446715
 20
16.9898567762
  0
LWPOLYLINE
  5
214
100
AcDbEntity
  8
0
100
AcDbPolyline
 62
6
  6
CONTINUOUS
 90
11
 70
0
 10
4.0122233473
 20
17.472448225
 10
4.0221504566
 20
17.4808860057
 10
4.0318893995
 20
17.4891336684
 10
4.0414532067
 20
17.4971887488
 10
4.0508621102
 20
17.5050549767
 10
4.0601356948
 20
17.5127363421
 10
4.0692895479
 20
17.5202340594
 10
4.078320962
 20
17.527535004
 10
4.0872214055
 20
17.5346224837
 10
4.0959826433
 20
17.5414814103
 10
4.1040220886
 20
17.5476569281
  0
LWPOLYLINE
  5
215
100
AcDbEntity
  8
0
100
AcDbPolyline
 62
6
  6
CONTINUOUS
 90
20
 70
0
 10
3.8707925945
 20
17.5980565871
 10
3.8591869878
 20
17.5882114868
 10
3.8475649802
 20
17.5783922284
 10
3.8358733471
 20
17.5685753687
 10
3.8240557086
 20
17.558736704
 10
3.8121016176
 20
17.5488926057
 10
3.8002187645
 20
17.5392355277
 10
3.7886834907
 20
17.5299994355
 10
3.7777682038
 20
17.5213990917
 10
3.7674312472
 20
17.5133921295
 10
3.7572714809
 20
17.5056659457
 10
3.7470414872
 20
17.4980429744
 10
3.7368090802
 20
17.490588303
 10
3.7266394937
 20
17.4833607357
 10
3.7164788368
 20
17.4763323966
 10
3.7062549563
 20
17.4694650349
 10
3.6959403995
 20
17.462754023
 10
3.6855185155
 20
17.4562038844
 10
3.6749380781
 20
17.4498002541
 10
3.667992151
 20
17.4457353065
  0
LINE
  5
216
100
AcDbEntity
  8
0
100
AcDbLine
 62
6
  6
CONTINUOUS
 10
11.7260111532
 20
8.8017419962
 11
11.256007584
 21
9.0730986834
  0
LINE
  5
217
100
AcDbEntity
  8
0
100
AcDbLine
 62
9
  6
CONTINUOUS
 10
6.561007584
 20
17.0884417585
 11
6.561007584
 21
17.6524263856
  0
LINE
  5
218
100
AcDbEntity
  8
0
100
AcDbLine
 62
9
  6
CONTINUOUS
 10
6.6794649661
 20
17.0585429569
 11
6.6794649661
 21
17.6823251872
  0
LINE
  5
219
100
AcDbEntity
  8
0
100
AcDbLine
 62
9
  6
CONTINUOUS
 10
6.8155779128
 20
17.5957031917
 11
6.8155779128
 21
17.1451649525
  0
LINE
  5
21A
100
AcDbEntity
  8
0
100
AcDbLine
 62
9
  6
CONTINUOUS
 10
6.825007584
 20
17.5857136879
 11
6.825007584
 21
17.1551544562
  0
LINE
  5
21B
100
AcDbEntity
  8
0
100
AcDbLine
 62
6
  6
CONTINUOUS
 10
7.095529983
 20
17.5654340721
 11
7.3619771322
 21
18.0269340721
  0
LWPOLYLINE
  5
21C
100
AcDbEntity
  8
0
100
AcDbPolyline
 62
6
  6
CONTINUOUS
 90
28
 70
0
 10
5.8055188334
 20
17.1846702155
 10
5.8140217719
 20
17.1968029101
 10
5.8224455321
 20
17.2087866684
 10
5.8307765343
 20
17.2205884275
 10
5.8389962518
 20
17.2321693157
 10
5.8470843618
 20
17.2434890359
 10
5.8550291599
 20
17.2545208113
 10
5.8628466913
 20
17.2652776178
 10
5.8705585458
 20
17.2757801858
 10
5.8781817851
 20
17.2860427805
 10
5.8857086453
 20
17.2960464526
 10
5.8931223819
 20
17.3057617665
 10
5.9004071257
 20
17.315162423
 10
5.907575454
 20
17.3242600374
 10
5.9146658319
 20
17.33309826
 10
5.9216986324
 20
17.3416977811
 10
5.9286654435
 20
17.3500440425
 10
5.9355567237
 20
17.358122229
 10
5.9423667874
 20
17.3659231294
 10
5.949090469
 20
17.3734389846
 10
5.9557229988
 20
17.3806633109
 10
5.9622596598
 20
17.3875905097
 10
5.9686966917
 20
17.3942167969
 10
5.9750316136
 20
17.4005403889
 10
5.9812622293
 20
17.4065603621
 10
5.9873877377
 20
17.4122776238
 10
5.9934075906
 20
17.4176936658
 10
5.999143224
 20
17.4226593015
  0
LWPOLYLINE
  5
21D
100
AcDbEntity
  8
0
100
AcDbPolyline
 62
6
  6
CONTINUOUS
 90
4
 70
0
 10
5.9156899244
 20
17.2501058152
 10
5.887842394
 20
17.2200956977
 10
5.8788206931
 20
17.2104027527
 10
5.8702381933
 20
17.2012149243
  0
LWPOLYLINE
  5
21E
100
AcDbEntity
  8
0
100
AcDbPolyline
 62
6
  6
CONTINUOUS
 90
29
 70
0
 10
6.0483143976
 20
17.117578357
 10
6.0587183628
 20
17.1287521158
 10
6.0691031137
 20
17.1398713153
 10
6.079459832
 20
17.15090798
 10
6.0897802565
 20
17.161835087
 10
6.1000681098
 20
17.1726386343
 10
6.1103343501
 20
17.1833125622
 10
6.1205647735
 20
17.1938277231
 10
6.1306455215
 20
17.2040569156
 10
6.1404321693
 20
17.2138494549
 10
6.1498669745
 20
17.2231483151
 10
6.1591138393
 20
17.232114769
 10
6.1683350939
 20
17.2408993081
 10
6.1775351728
 20
17.2494953698
 10
6.1866783922
 20
17.257859782
 10
6.1957701561
 20
17.2659894462
 10
6.2048402374
 20
17.2739044941
 10
6.213905871
 20
17.2816125772
 10
6.2229663212
 20
17.2891051735
 10
6.232024542
 20
17.2963767916
 10
6.2411020066
 20
17.3034358771
 10
6.2502252894
 20
17.3102924582
 10
6.2594233459
 20
17.3169553392
 10
6.2687405761
 20
17.3234404604
 10
6.278234201
 20
17.3297681159
 10
6.2879622391
 20
17.3359539653
 10
6.297955916
 20
17.3419905221
 10
6.3082077995
 20
17.3478445157
 10
6.316901508
 20
17.3525382661
  0
LWPOLYLINE
  5
21F
100
AcDbEntity
  8
0
100
AcDbPolyline
 62
6
  6
CONTINUOUS
 90
4
 70
0
 10
6.0070294613
 20
17.0732710552
 10
6.0170710603
 20
17.0840070309
 10
6.0274821816
 20
17.095177897
 10
6.0483143976
 20
17.117578357
  0
LWPOLYLINE
  5
220
100
AcDbEntity
  8
0
100
AcDbPolyline
 62
6
  6
CONTINUOUS
 90
23
 70
0
 10
5.8702375174
 20
17.2012142023
 10
5.8631173937
 20
17.1936464655
 10
5.8558278653
 20
17.1859871971
 10
5.848592301
 20
17.1784842501
 10
5.8414213939
 20
17.1711574474
 10
5.834325776
 20
17.1640256259
 10
5.8273156649
 20
17.1571061535
 10
5.8203953106
 20
17.1504095182
 10
5.8135644823
 20
17.1439412334
 10
5.8068271548
 20
17.1377102403
 10
5.8002122505
 20
17.1317468688
 10
5.7937454128
 20
17.1260752746
 10
5.7873516116
 20
17.1206319272
 10
5.7809197774
 20
17.1153316147
 10
5.7744823427
 20
17.1102140343
 10
5.7681609088
 20
17.1053812088
 10
5.7620762846
 20
17.1009176978
 10
5.7563251058
 20
17.0968758566
 10
5.7509051708
 20
17.0932313854
 10
5.7457612817
 20
17.089928287
 10
5.7408282853
 20
17.086911179
 10
5.7360698872
 20
17.0841486078
 10
5.7336199717
 20
17.0828041354
  0
LWPOLYLINE
  5
221
100
AcDbEntity
  8
0
100
AcDbPolyline
 62
6
  6
CONTINUOUS
 90
25
 70
0
 10
5.8780920523
 20
17.5656695913
 10
5.8675858284
 20
17.5565012792
 10
5.8568014725
 20
17.5466416099
 10
5.8460380917
 20
17.5363584759
 10
5.8353270956
 20
17.5256975579
 10
5.8246983988
 20
17.5147082316
 10
5.8141770216
 20
17.5034391206
 10
5.8037754047
 20
17.4919281059
 10
5.7935034945
 20
17.4802114569
 10
5.7833712112
 20
17.4683261136
 10
5.7733815004
 20
17.456301003
 10
5.7635240566
 20
17.4441480191
 10
5.7537878163
 20
17.4318765719
 10
5.7441622258
 20
17.4194986794
 10
5.7346370804
 20
17.4070268542
 10
5.7252038622
 20
17.3944742032
 10
5.7158548419
 20
17.3818535058
 10
5.7065843071
 20
17.3691790928
 10
5.6974161801
 20
17.3565054764
 10
5.6884014011
 20
17.3439255637
 10
5.6795914626
 20
17.3315341572
 10
5.6710348665
 20
17.3194221421
 10
5.6627018035
 20
17.3075683794
 10
5.6544871285
 20
17.2958409402
 10
5.6301835353
 20
17.2610360779
  0
LINE
  5
222
100
AcDbEntity
  8
0
100
AcDbLine
 62
9
  6
CONTINUOUS
 10
5.999143224
 20
17.4226593015
 11
5.9991472793
 21
17.422662744
  0
LWPOLYLINE
  5
223
100
AcDbEntity
  8
0
100
AcDbPolyline
 62
6
  6
CONTINUOUS
 90
22
 70
0
 10
5.9991472799
 20
17.4226627446
 10
6.0054726464
 20
17.4279263414
 10
6.0127518422
 20
17.4337175633
 10
6.0204287628
 20
17.439514479
 10
6.0282339177
 20
17.4450789899
 10
6.0358981592
 20
17.450218175
 10
6.0431534308
 20
17.4547852433
 10
6.0497896956
 20
17.4587068381
 10
6.0560563433
 20
17.4621814013
 10
6.0623069041
 20
17.4654213804
 10
6.0687262607
 20
17.4685094552
 10
6.0753811384
 20
17.4714493698
 10
6.082333813
 20
17.4742321311
 10
6.0895685713
 20
17.4768123918
 10
6.0970568922
 20
17.4791437731
 10
6.1047447913
 20
17.4811803372
 10
6.1125558855
 20
17.4828848869
 10
6.120415899
 20
17.4842387704
 10
6.1282388506
 20
17.4852393172
 10
6.1359160873
 20
17.4858995222
 10
6.1433148388
 20
17.4862500326
 10
6.1495198091
 20
17.4863396962
  0
LWPOLYLINE
  5
224
100
AcDbEntity
  8
0
100
AcDbPolyline
 62
6
  6
CONTINUOUS
 90
18
 70
0
 10
4.0883023262
 20
17.76189861
 10
4.0746832045
 20
17.75417449
 10
4.0613956863
 20
17.7461724525
 10
4.0487186403
 20
17.7381283076
 10
4.0364575403
 20
17.7299885763
 10
4.024452546
 20
17.7216987667
 10
4.0125476697
 20
17.7131876309
 10
4.0006036866
 20
17.7043807338
 10
3.9886200321
 20
17.695298698
 10
3.976662502
 20
17.6860148821
 10
3.9647623627
 20
17.6765797031
 10
3.952895025
 20
17.6669998739
 10
3.9410377679
 20
17.6572821993
 10
3.9292083669
 20
17.6474663644
 10
3.9174363137
 20
17.6376026048
 10
3.9057211247
 20
17.6277163205
 10
3.8940495262
 20
17.6178213779
 10
3.8707925945
 20
17.5980565871
  0
LINE
  5
225
100
AcDbEntity
  8
0
100
AcDbLine
 62
9
  6
CONTINUOUS
 10
4.0883065582
 20
17.7619009325
 11
4.0883023262
 21
17.76189861
  0
LINE
  5
226
100
AcDbEntity
  8
0
100
AcDbLine
 62
6
  6
CONTINUOUS
 10
12.226007584
 20
9.6677694607
 11
11.756007584
 21
9.9391240872
  0
LWPOLYLINE
  5
227
100
AcDbEntity
  8
0
100
AcDbPolyline
 62
6
  6
CONTINUOUS
 90
5
 70
0
 10
4.156874677
 20
17.2515143965
 10
4.1473716505
 20
17.2617633121
 10
4.1377485513
 20
17.2721048141
 10
4.1280111549
 20
17.2825156332
 10
4.1237457413
 20
17.2870453524
  0
LINE
  5
228
100
AcDbEntity
  8
0
100
AcDbLine
 62
6
  6
CONTINUOUS
 10
4.1811434036
 20
17.2252819952
 11
4.156874677
 21
17.2515143965
  0
LWPOLYLINE
  5
229
100
AcDbEntity
  8
0
100
AcDbPolyline
 62
6
  6
CONTINUOUS
 90
9
 70
0
 10
4.1636601784
 20
17.3281910762
 10
4.1651752063
 20
17.3263075627
 10
4.1724042218
 20
17.317155797
 10
4.1797020024
 20
17.3077589096
 10
4.187076562
 20
17.2981117018
 10
4.1945384828
 20
17.288207344
 10
4.2020984138
 20
17.2780396222
 10
4.2097686776
 20
17.2675999618
 10
4.2174446559
 20
17.2570406544
  0
LWPOLYLINE
  5
22A
100
AcDbEntity
  8
0
100
AcDbPolyline
 62
6
  6
CONTINUOUS
 90
7
 70
0
 10
4.3379034308
 20
17.4094136391
 10
4.3284627115
 20
17.4217495003
 10
4.3188683495
 20
17.4340561268
 10
4.3091514917
 20
17.4462712548
 10
4.2992901215
 20
17.4583996655
 10
4.2892610964
 20
17.4704440844
 10
4.2854591945
 20
17.474893111
  0
LWPOLYLINE
  5
22B
100
AcDbEntity
  8
0
100
AcDbPolyline
 62
6
  6
CONTINUOUS
 90
11
 70
0
 10
4.5209944436
 20
17.1535896677
 10
4.5204183076
 20
17.1543507511
 10
4.5129834841
 20
17.1643086782
 10
4.5054543338
 20
17.1745199209
 10
4.4978413911
 20
17.1849614604
 10
4.4901548567
 20
17.1956094703
 10
4.4824039434
 20
17.2064404018
 10
4.4745976093
 20
17.2174301485
 10
4.4667447275
 20
17.2285539572
 10
4.4588512361
 20
17.2397906406
 10
4.4533010828
 20
17.2477208422
  0
LWPOLYLINE
  5
22C
100
AcDbEntity
  8
0
100
AcDbPolyline
 62
6
  6
CONTINUOUS
 90
4
 70
0
 10
4.3264508173
 20
17.1024287193
 10
4.3288876827
 20
17.09900268
 10
4.3380704003
 20
17.0861961105
 10
4.3412620355
 20
17.081787761
  0
LWPOLYLINE
  5
22D
100
AcDbEntity
  8
0
100
AcDbPolyline
 62
6
  6
CONTINUOUS
 90
11
 70
0
 10
4.8647930574
 20
17.1197445815
 10
4.8594264084
 20
17.1274704991
 10
4.8522875239
 20
17.137934383
 10
4.8450619502
 20
17.1487047494
 10
4.8377546452
 20
17.1597684861
 10
4.8303745636
 20
17.1711053072
 10
4.8229345237
 20
17.1826876097
 10
4.8154473994
 20
17.1944862635
 10
4.8079222044
 20
17.2064770553
 10
4.8003571513
 20
17.2186523899
 10
4.7971826655
 20
17.2238072912
  0
LWPOLYLINE
  5
22E
100
AcDbEntity
  8
0
100
AcDbPolyline
 62
6
  6
CONTINUOUS
 90
7
 70
0
 10
5.037212025
 20
17.0394851792
 10
5.040980865
 20
17.0339445755
 10
5.0506842973
 20
17.0200349391
 10
5.0604979157
 20
17.0063472434
 10
5.070412441
 20
16.9929230651
 10
5.0804029474
 20
16.9798231002
 10
5.0806457825
 20
16.979515503
  0
LWPOLYLINE
  5
22F
100
AcDbEntity
  8
0
100
AcDbPolyline
 62
6
  6
CONTINUOUS
 90
7
 70
0
 10
4.682403329
 20
17.055101696
 10
4.6879786449
 20
17.0466472909
 10
4.6973209905
 20
17.032728737
 10
4.7067583167
 20
17.0189394962
 10
4.7162891421
 20
17.0053076011
 10
4.7259025711
 20
16.9918746012
 10
4.7261734455
 20
16.9915056034
  0
LWPOLYLINE
  5
230
100
AcDbEntity
  8
0
100
AcDbPolyline
 62
6
  6
CONTINUOUS
 90
7
 70
0
 10
4.5125388622
 20
17.3332638352
 10
4.5167081824
 20
17.3264577681
 10
4.524539429
 20
17.3135812307
 10
4.5324644704
 20
17.3004700126
 10
4.5405098481
 20
17.2870916785
 10
4.5486896744
 20
17.2734348452
 10
4.5569874148
 20
17.2595404182
  0
LWPOLYLINE
  5
231
100
AcDbEntity
  8
0
100
AcDbPolyline
 62
6
  6
CONTINUOUS
 90
8
 70
0
 10
4.6786848151
 20
17.4209352265
 10
4.6700024564
 20
17.4351124223
 10
4.6612667528
 20
17.4492486776
 10
4.6524567382
 20
17.4633593702
 10
4.6435555947
 20
17.4774530314
 10
4.6345502817
 20
17.4915304414
 10
4.6254277334
 20
17.5055904628
 10
4.6243611086
 20
17.5072088598
  0
LINE
  5
232
100
AcDbEntity
  8
0
100
AcDbLine
 62
6
  6
CONTINUOUS
 10
4.6873631592
 20
17.4066543291
 11
4.6786848151
 21
17.4209352265
  0
LINE
  5
233
100
AcDbEntity
  8
0
100
AcDbLine
 62
6
  6
CONTINUOUS
 10
4.5569874148
 20
17.2595404182
 11
4.5764749353
 21
17.2268379914
  0
LWPOLYLINE
  5
234
100
AcDbEntity
  8
0
100
AcDbPolyline
 62
6
  6
CONTINUOUS
 90
3
 70
0
 10
5.3870059241
 20
17.4066708717
 10
5.3776642996
 20
17.4229082036
 10
5.3695949619
 20
17.436989527
  0
LWPOLYLINE
  5
235
100
AcDbEntity
  8
0
100
AcDbPolyline
 62
6
  6
CONTINUOUS
 90
9
 70
0
 10
5.2121108809
 20
17.3347012622
 10
5.2192930063
 20
17.3221958202
 10
5.2278762757
 20
17.3073150798
 10
5.2365364961
 20
17.2923825732
 10
5.24527007
 20
17.2774230662
 10
5.2540689572
 20
17.2624694091
 10
5.262926596
 20
17.2475521752
 10
5.2718399501
 20
17.2326962322
 10
5.2771742525
 20
17.2239091833
  0
LWPOLYLINE
  5
236
100
AcDbEntity
  8
0
100
AcDbPolyline
 62
6
  6
CONTINUOUS
 90
3
 70
0
 10
5.336597912
 20
17.4947536383
 10
5.328174646
 20
17.5094689044
 10
5.3213960903
 20
17.5212754518
  0
LWPOLYLINE
  5
237
100
AcDbEntity
  8
0
100
AcDbPolyline
 62
6
  6
CONTINUOUS
 90
3
 70
0
 10
5.3695949619
 20
17.436989527
 10
5.3532348349
 20
17.4656225541
 10
5.336597912
 20
17.4947536383
  0
LWPOLYLINE
  5
238
100
AcDbEntity
  8
0
100
AcDbPolyline
 62
6
  6
CONTINUOUS
 90
8
 70
0
 10
5.0241750266
 20
17.4293073649
 10
5.0158418187
 20
17.4441688841
 10
5.0074412547
 20
17.4590974625
 10
4.9989699138
 20
17.4740825564
 10
4.9904241085
 20
17.4891137749
 10
4.9818002246
 20
17.504179738
 10
4.9730964635
 20
17.5192649994
 10
4.9710978091
 20
17.5226975194
  0
LWPOLYLINE
  5
239
100
AcDbEntity
  8
0
100
AcDbPolyline
 62
6
  6
CONTINUOUS
 90
6
 70
0
 10
4.8897436571
 20
17.2855123847
 10
4.8982047606
 20
17.2703975958
 10
4.9066986197
 20
17.2552665162
 10
4.9152301674
 20
17.2401276485
 10
4.9238049307
 20
17.2249889342
 10
4.9285143606
 20
17.2167261437
  0
LINE
  5
23A
100
AcDbEntity
  8
0
100
AcDbLine
 62
6
  6
CONTINUOUS
 10
4.8622581061
 20
17.334697903
 11
4.8897436571
 21
17.2855123847
  0
LINE
  5
23B
100
AcDbEntity
  8
0
100
AcDbLine
 62
6
  6
CONTINUOUS
 10
5.0371842234
 20
17.4060380564
 11
5.0241750266
 21
17.4293073649
  0
LINE
  5
23C
100
AcDbEntity
  8
0
100
AcDbLine
 62
9
  6
CONTINUOUS
 10
7.291007584
 20
17.5654340721
 11
7.291007584
 21
17.1754340721
  0
LWPOLYLINE
  5
23D
100
AcDbEntity
  8
0
100
AcDbPolyline
 62
6
  6
CONTINUOUS
 90
14
 70
0
 10
6.3361364723
 20
17.1523511933
 10
6.3623145318
 20
17.1695380869
 10
6.3756223486
 20
17.1782353668
 10
6.3891667126
 20
17.1870277644
 10
6.4029305131
 20
17.195876667
 10
6.4167469184
 20
17.2046478239
 10
6.4304306569
 20
17.2132010943
 10
6.4437918667
 20
17.2214028039
 10
6.456641788
 20
17.229133632
 10
6.4688008898
 20
17.2362926545
 10
6.4803981652
 20
17.2429648435
 10
6.4919009402
 20
17.2494187918
 10
6.5036124737
 20
17.2558090578
 10
6.5132281036
 20
17.2609103102
  0
LWPOLYLINE
  5
23E
100
AcDbEntity
  8
0
100
AcDbPolyline
 62
6
  6
CONTINUOUS
 90
19
 70
0
 10
4.8568473696
 20
16.8472524073
 10
4.8594504385
 20
16.8451227928
 10
4.8703694528
 20
16.8367683594
 10
4.8813540786
 20
16.8289493063
 10
4.8923528554
 20
16.8217033141
 10
4.9033252324
 20
16.8150459175
 10
4.9142447809
 20
16.8089765132
 10
4.9250811891
 20
16.803491698
 10
4.9358206396
 20
16.7985760631
 10
4.9464663124
 20
16.7942064007
 10
4.9570200858
 20
16.7903621126
 10
4.9674815146
 20
16.7870252623
 10
4.9778475331
 20
16.7841801462
 10
4.9881144391
 20
16.781812293
 10
4.9982795978
 20
16.779908003
 10
5.0083475106
 20
16.7784537527
 10
5.0183266389
 20
16.7774378594
 10
5.0282267294
 20
16.7768512882
 10
5.0370187125
 20
16.776685201
  0
LWPOLYLINE
  5
23F
100
AcDbEntity
  8
0
100
AcDbPolyline
 62
6
  6
CONTINUOUS
 90
3
 70
0
 10
3.9894874316
 20
17.4177442388
 10
3.9789604479
 20
17.4266729813
 10
3.9684993907
 20
17.4352613843
  0
LWPOLYLINE
  5
240
100
AcDbEntity
  8
0
100
AcDbPolyline
 62
6
  6
CONTINUOUS
 90
22
 70
0
 10
4.4954649523
 20
16.8994387793
 10
4.4972012267
 20
16.8978259366
 10
4.5078584684
 20
16.8884014334
 10
4.518597381
 20
16.8793976465
 10
4.5294922504
 20
16.870780179
 10
4.5406015
 20
16.8625374925
 10
4.551892562
 20
16.854721324
 10
4.5632698928
 20
16.8474128302
 10
4.5746299471
 20
16.8406779511
 10
4.5859057122
 20
16.8345428918
 10
4.597075093
 20
16.8289998942
 10
4.608125556
 20
16.8240336303
 10
4.6190528143
 20
16.8196243234
 10
4.6298541342
 20
16.8157521293
 10
4.6405295641
 20
16.8123972702
 10
4.6510783857
 20
16.8095415976
 10
4.6615027056
 20
16.8071676935
 10
4.6718083028
 20
16.805259296
 10
4.6820018072
 20
16.8038023384
 10
4.6920909256
 20
16.8027850068
 10
4.7020838644
 20
16.8021978782
 10
4.710933554
 20
16.8020312327
  0
LWPOLYLINE
  5
241
100
AcDbEntity
  8
0
100
AcDbPolyline
 62
6
  6
CONTINUOUS
 90
26
 70
0
 10
4.1327486889
 20
17.0065199349
 10
4.1340280988
 20
17.0053057649
 10
4.1445036032
 20
16.9956475695
 10
4.1550722663
 20
16.98621194
 10
4.1656860175
 20
16.9770671556
 10
4.1762972509
 20
16.9682748343
 10
4.1868985021
 20
16.9598583158
 10
4.1975928166
 20
16.9517573087
 10
4.2085005246
 20
16.9439141011
 10
4.2197460354
 20
16.9362832636
 10
4.2313371323
 20
16.9289069303
 10
4.2431092822
 20
16.921926202
 10
4.2548820876
 20
16.9154617088
 10
4.2665097851
 20
16.9095850627
 10
4.2779776713
 20
16.9042844162
 10
4.2892935585
 20
16.8995365179
 10
4.300462121
 20
16.8953209322
 10
4.3114802621
 20
16.8916210366
 10
4.3223367904
 20
16.8884226643
 10
4.3330228963
 20
16.8857101373
 10
4.3435345155
 20
16.8834663806
 10
4.3538821646
 20
16.8816723875
 10
4.3640917413
 20
16.8803094466
 10
4.3741890595
 20
16.8793610624
 10
4.384216928
 20
16.8788143192
 10
4.3931381609
 20
16.8786610793
  0
LWPOLYLINE
  5
242
100
AcDbEntity
  8
0
100
AcDbPolyline
 62
6
  6
CONTINUOUS
 90
9
 70
0
 10
4.3502980854
 20
17.5565860001
 10
4.3541846316
 20
17.5526932081
 10
4.3604439255
 20
17.54618596
 10
4.366785563
 20
17.5393567568
 10
4.373205307
 20
17.5322089453
 10
4.3796993265
 20
17.5247460969
 10
4.3862666581
 20
17.5169689653
 10
4.392906862
 20
17.5088778853
 10
4.3984954911
 20
17.5018808509
  0
LWPOLYLINE
  5
243
100
AcDbEntity
  8
0
100
AcDbPolyline
 62
6
  6
CONTINUOUS
 90
4
 70
0
 10
4.5046486898
 20
17.666100968
 10
4.4971350712
 20
17.6742599775
 10
4.4865239753
 20
17.6853026146
 10
4.4811994532
 20
17.6905971638
  0
LWPOLYLINE
  5
244
100
AcDbEntity
  8
0
100
AcDbPolyline
 62
6
  6
CONTINUOUS
 90
11
 70
0
 10
5.5533314268
 20
17.1538790524
 10
5.5524935898
 20
17.1548496211
 10
5.5461990705
 20
17.1623734843
 10
5.5397822016
 20
17.1702736687
 10
5.533216681
 20
17.1785877183
 10
5.5265340905
 20
17.1872800855
 10
5.5197558468
 20
17.1963241986
 10
5.5128834947
 20
17.2057177652
 10
5.5059190754
 20
17.215457242
 10
5.4988718014
 20
17.2255281084
 10
5.4979068033
 20
17.2269356129
  0
LWPOLYLINE
  5
245
100
AcDbEntity
  8
0
100
AcDbPolyline
 62
6
  6
CONTINUOUS
 90
5
 70
0
 10
5.391987842
 20
17.0552663978
 10
5.3955204516
 20
17.0508038889
 10
5.4058320263
 20
17.0382340382
 10
5.4161275771
 20
17.0261531531
 10
5.4252680005
 20
17.0158532337
  0
LINE
  5
246
100
AcDbEntity
  8
0
100
AcDbLine
 62
6
  6
CONTINUOUS
 10
5.7722230583
 20
17.495732109
 11
5.7887761928
 21
17.4746662503
  0
LWPOLYLINE
  5
247
100
AcDbEntity
  8
0
100
AcDbPolyline
 62
6
  6
CONTINUOUS
 90
11
 70
0
 10
4.6926534316
 20
17.6085522122
 10
4.6940496959
 20
17.6067477331
 10
4.7007651289
 20
17.5978331548
 10
4.7075652987
 20
17.5885733694
 10
4.7144405241
 20
17.5789825559
 10
4.7213807834
 20
17.5690768875
 10
4.7283782869
 20
17.5588707217
 10
4.7354308887
 20
17.5483710572
 10
4.7425376392
 20
17.5375834835
 10
4.749699864
 20
17.5265110978
 10
4.752989082
 20
17.5213385848
  0
LWPOLYLINE
  5
248
100
AcDbEntity
  8
0
100
AcDbPolyline
 62
6
  6
CONTINUOUS
 90
6
 70
0
 10
4.859865847
 20
17.6975289967
 10
4.8532344518
 20
17.7066371223
 10
4.8433125314
 20
17.719862454
 10
4.8332466794
 20
17.7328536485
 10
4.8230412892
 20
17.7455749121
 10
4.8201516313
 20
17.7490445012
  0
LWPOLYLINE
  5
249
100
AcDbEntity
  8
0
100
AcDbPolyline
 62
6
  6
CONTINUOUS
 90
11
 70
0
 10
5.2095554119
 20
17.1198464932
 10
5.2065876743
 20
17.123955289
 10
5.1997489671
 20
17.133646586
 10
5.192803023
 20
17.1437094882
 10
5.1857603301
 20
17.1541275832
 10
5.1786285367
 20
17.164887014
 10
5.1714147381
 20
17.1759734159
 10
5.1641269744
 20
17.1873696919
 10
5.1567738349
 20
17.1990565908
 10
5.1493665791
 20
17.2110092778
 10
5.1458600137
 20
17.2167478379
  0
LWPOLYLINE
  5
24A
100
AcDbEntity
  8
0
100
AcDbPolyline
 62
6
  6
CONTINUOUS
 90
11
 70
0
 10
5.3816903554
 20
17.6083544861
 10
5.3851454556
 20
17.6035284711
 10
5.3923837964
 20
17.5932566189
 10
5.3996761334
 20
17.5827555595
 10
5.4070206509
 20
17.5720359521
 10
5.414416934
 20
17.5611068294
 10
5.42188114
 20
17.549953247
 10
5.4294414211
 20
17.538541915
 10
5.4371074366
 20
17.5268669132
 10
5.4448652736
 20
17.5149590063
 10
5.4499832238
 20
17.5070502226
  0
LWPOLYLINE
  5
24B
100
AcDbEntity
  8
0
100
AcDbPolyline
 62
6
  6
CONTINUOUS
 90
11
 70
0
 10
5.037155004
 20
17.6252064612
 10
5.0416169302
 20
17.6188185331
 10
5.0486945075
 20
17.608474953
 10
5.0558309396
 20
17.5978411037
 10
5.063020519
 20
17.5869309919
 10
5.0702578372
 20
17.5757589868
 10
5.0775424843
 20
17.5643323041
 10
5.0848833679
 20
17.5526436724
 10
5.092290765
 20
17.5406845772
 10
5.099773751
 20
17.5284486759
 10
5.1032695438
 20
17.5226655907
  0
LWPOLYLINE
  5
24C
100
AcDbEntity
  8
0
100
AcDbPolyline
 62
6
  6
CONTINUOUS
 90
8
 70
0
 10
5.7364736257
 20
17.4094315494
 10
5.7316278217
 20
17.4165703325
 10
5.7238615316
 20
17.4281418637
 10
5.7160784469
 20
17.4398566975
 10
5.708278637
 20
17.4517026288
 10
5.700424901
 20
17.4637246837
 10
5.6924786265
 20
17.475971471
 10
5.6844034743
 20
17.488488894
  0
LWPOLYLINE
  5
24D
100
AcDbEntity
  8
0
100
AcDbPolyline
 62
6
  6
CONTINUOUS
 90
6
 70
0
 10
5.569748474
 20
17.6658386537
 10
5.5618352905
 20
17.677518433
 10
5.5526695785
 20
17.6908586917
 10
5.5434148118
 20
17.7041207575
 10
5.5340469114
 20
17.7173160379
 10
5.5333881708
 20
17.7182264537
  0
LWPOLYLINE
  5
24E
100
AcDbEntity
  8
0
100
AcDbPolyline
 62
6
  6
CONTINUOUS
 90
8
 70
0
 10
5.561830019
 20
17.3332512772
 10
5.5697800866
 20
17.3213274619
 10
5.5789004993
 20
17.3078063468
 10
5.5881275995
 20
17.2943050341
 10
5.5974593562
 20
17.2808491583
 10
5.6068940482
 20
17.2674646609
 10
5.6164276611
 20
17.2541813547
 10
5.6210121828
 20
17.2479191737
  0
LWPOLYLINE
  5
24F
100
AcDbEntity
  8
0
100
AcDbPolyline
 62
6
  6
CONTINUOUS
 90
7
 70
0
 10
5.2145256088
 20
17.6974307929
 10
5.2132144904
 20
17.6994256768
 10
5.2038931217
 20
17.7133197452
 10
5.1944171783
 20
17.7271326086
 10
5.1847879537
 20
17.7408329219
 10
5.1750184823
 20
17.7543722723
 10
5.1694136791
 20
17.7619219781
  0
LINE
  5
250
100
AcDbEntity
  8
0
100
AcDbLine
 62
6
  6
CONTINUOUS
 10
5.6844034743
 20
17.488488894
 11
5.6759188131
 21
17.5017042858
  0
LINE
  5
251
100
AcDbEntity
  8
0
100
AcDbLine
 62
6
  6
CONTINUOUS
 10
8.4990684874
 20
17.3704340721
 11
8.1200380357
 21
16.7139340721
  0
LWPOLYLINE
  5
252
100
AcDbEntity
  8
0
100
AcDbPolyline
 62
6
  6
CONTINUOUS
 90
25
 70
0
 10
3.7893526908
 20
17.1185904144
 10
3.7931033602
 20
17.1161880331
 10
3.8059176575
 20
17.108102174
 10
3.8186684701
 20
17.1002019683
 10
3.8313382406
 20
17.0925200403
 10
3.8440162256
 20
17.0850251208
 10
3.8569268095
 20
17.0776153321
 10
3.8702779826
 20
17.0702157513
 10
3.8840641945
 20
17.0628843528
 10
3.8981820371
 20
17.0557292463
 10
3.9125167632
 20
17.0488535281
 10
3.9269478166
 20
17.0423514547
 10
3.9413432581
 20
17.0363071293
 10
3.955573925
 20
17.0307845013
 10
3.9695296777
 20
17.0258224816
 10
3.9831931104
 20
17.0214153451
 10
3.9965706167
 20
17.0175469943
 10
4.0096657725
 20
17.0142016429
 10
4.0224757694
 20
17.0113643744
 10
4.0349950237
 20
17.0090196605
 10
4.047218129
 20
17.0071503407
 10
4.0591782849
 20
17.005732355
 10
4.0709423238
 20
17.0047431592
 10
4.082576857
 20
17.004169488
 10
4.0929008189
 20
17.004005075
  0
LWPOLYLINE
  5
253
100
AcDbEntity
  8
0
100
AcDbPolyline
 62
6
  6
CONTINUOUS
 90
16
 70
0
 10
5.2175988108
 20
16.8473912896
 10
5.2179830793
 20
16.8471386443
 10
5.2290657075
 20
16.8404454261
 10
5.2399455491
 20
16.8344379001
 10
5.2506641291
 20
16.8290523511
 10
5.2612816033
 20
16.8242277332
 10
5.2718592872
 20
16.8199160474
 10
5.2824204153
 20
16.8160952204
 10
5.2929317611
 20
16.8127655323
 10
5.3033652105
 20
16.8099216602
 10
5.3137224422
 20
16.8075488867
 10
5.3240098643
 20
16.805633679
 10
5.3342300133
 20
16.8041656254
 10
5.3443843765
 20
16.8031362526
 10
5.3544756591
 20
16.8025385847
 10
5.3634503265
 20
16.802365345
  0
LINE
  5
254
100
AcDbEntity
  8
0
100
AcDbLine
 62
6
  6
CONTINUOUS
 10
3.8306187994
 20
17.3153057879
 11
3.8216109604
 21
17.3212544753
  0
LWPOLYLINE
  5
255
100
AcDbEntity
  8
0
100
AcDbPolyline
 62
6
  6
CONTINUOUS
 90
3
 70
0
 10
5.7479670521
 20
17.1028040197
 10
5.7497617681
 20
17.101171227
 10
5.7554288983
 20
17.096273229
  0
LWPOLYLINE
  5
256
100
AcDbEntity
  8
0
100
AcDbPolyline
 62
6
  6
CONTINUOUS
 90
23
 70
0
 10
5.7601980803
 20
17.794347899
 10
5.7516741826
 20
17.8022545312
 10
5.7410757125
 20
17.8116838803
 10
5.7303750045
 20
17.8207821935
 10
5.7195273547
 20
17.8295600655
 10
5.7084819494
 20
17.8380248938
 10
5.697173901
 20
17.8461847191
 10
5.6855825497
 20
17.8540095719
 10
5.6738529873
 20
17.861367378
 10
5.6621582024
 20
17.8681391907
 10
5.6506666111
 20
17.8742428556
 10
5.6394102357
 20
17.8796936622
 10
5.6283353316
 20
17.8845524037
 10
5.6173784117
 20
17.8888727953
 10
5.6064863113
 20
17.8926925069
 10
5.5956679037
 20
17.8960209695
 10
5.5849518697
 20
17.8988630183
 10
5.5743426194
 20
17.9012318776
 10
5.5638346729
 20
17.9031417336
 10
5.5534233663
 20
17.904604474
 10
5.5431041329
 20
17.9056300144
 10
5.5328716219
 20
17.9062264579
 10
5.5237038657
 20
17.9064015877
  0
LWPOLYLINE
  5
257
100
AcDbEntity
  8
0
100
AcDbPolyline
 62
6
  6
CONTINUOUS
 90
7
 70
0
 10
6.0848748585
 20
17.4178027765
 10
6.0848097691
 20
17.4178645658
 10
6.0767101971
 20
17.4257859933
 10
6.0685577419
 20
17.4339858617
 10
6.0603375555
 20
17.4424757459
 10
6.0520558271
 20
17.4512460554
 10
6.0468030263
 20
17.4569419135
  0
LWPOLYLINE
  5
258
100
AcDbEntity
  8
0
100
AcDbPolyline
 62
6
  6
CONTINUOUS
 90
6
 70
0
 10
5.9106900183
 20
17.3281423711
 10
5.9116020897
 20
17.3271463955
 10
5.9233575236
 20
17.3146560262
 10
5.9353054383
 20
17.3023294488
 10
5.9474403576
 20
17.2902006439
 10
5.9504454716
 20
17.287297797
  0
LWPOLYLINE
  5
259
100
AcDbEntity
  8
0
100
AcDbPolyline
 62
6
  6
CONTINUOUS
 90
8
 70
0
 10
5.7240114586
 20
17.5561635292
 10
5.7257377636
 20
17.5540550886
 10
5.7333267326
 20
17.5446940046
 10
5.7409770322
 20
17.5351765414
 10
5.7486854087
 20
17.52551796
 10
5.756457549
 20
17.5157226969
 10
5.7643008427
 20
17.5057932805
 10
5.7722230583
 20
17.495732109
  0
LINE
  5
25A
100
AcDbEntity
  8
0
100
AcDbLine
 62
6
  6
CONTINUOUS
 10
7.3619771322
 20
16.7139340721
 11
7.095529983
 21
17.1754340721
  0
LWPOLYLINE
  5
25B
100
AcDbEntity
  8
0
100
AcDbPolyline
 62
6
  6
CONTINUOUS
 90
5
 70
0
 10
4.0073159843
 20
17.4682684548
 10
4.0082780228
 20
17.4678270492
 10
4.0148949035
 20
17.4645237642
 10
4.0213580284
 20
17.4610487893
 10
4.0278583067
 20
17.4573081144
  0
LWPOLYLINE
  5
25C
100
AcDbEntity
  8
0
100
AcDbPolyline
 62
6
  6
CONTINUOUS
 90
17
 70
0
 10
5.0372620938
 20
17.8999361539
 10
5.029190734
 20
17.9056941158
 10
5.0181468576
 20
17.9129882341
 10
5.0070916988
 20
17.9197098464
 10
4.9961377914
 20
17.9258055099
 10
4.9853705804
 20
17.9312573626
 10
4.9747631725
 20
17.9361118141
 10
4.9642677924
 20
17.9404165614
 10
4.9538617762
 20
17.9442016994
 10
4.9435217422
 20
17.9474943424
 10
4.9332271855
 20
17.9503151062
 10
4.9229826756
 20
17.9526740368
 10
4.9127956101
 20
17.9545798711
 10
4.9026647025
 20
17.9560421252
 10
4.8925844914
 20
17.957068984
 10
4.8825483553
 20
17.957666435
 10
4.87351627
 20
17.9578400915
  0
LWPOLYLINE
  5
25D
100
AcDbEntity
  8
0
100
AcDbPolyline
 62
6
  6
CONTINUOUS
 90
8
 70
0
 10
5.8931426462
 20
17.2258040051
 10
5.8876471031
 20
17.2300357605
 10
5.881617698
 20
17.2349297132
 10
5.8756553603
 20
17.2400071655
 10
5.8696540405
 20
17.2453481041
 10
5.8635282066
 20
17.2510296801
 10
5.8572940043
 20
17.2570417448
 10
5.8570434423
 20
17.2572924339
  0
LWPOLYLINE
  5
25E
100
AcDbEntity
  8
0
100
AcDbPolyline
 62
6
  6
CONTINUOUS
 90
12
 70
0
 10
6.1141851428
 20
17.6721805453
 10
6.1062544092
 20
17.6785348687
 10
6.0944339875
 20
17.6878316643
 10
6.0825800634
 20
17.6969562092
 10
6.0707152807
 20
17.7058662097
 10
6.0588578224
 20
17.7145244428
 10
6.0469607276
 20
17.7229412334
 10
6.0349215658
 20
17.7311599974
 10
6.0226362418
 20
17.7392140425
 10
6.0099873585
 20
17.7471313981
 10
5.9968384442
 20
17.7549363431
 10
5.9834866879
 20
17.7623979865
  0
LWPOLYLINE
  5
25F
100
AcDbEntity
  8
0
100
AcDbPolyline
 62
6
  6
CONTINUOUS
 90
3
 70
0
 10
6.0903374365
 20
17.4479618597
 10
6.100954519
 20
17.4389747974
 10
6.1055923899
 20
17.4350661527
  0
LINE
  5
260
100
AcDbEntity
  8
0
100
AcDbLine
 62
6
  6
CONTINUOUS
 10
6.0670741313
 20
17.4677146872
 11
6.0903374365
 21
17.4479618597
  0
LWPOLYLINE
  5
261
100
AcDbEntity
  8
0
100
AcDbPolyline
 62
6
  6
CONTINUOUS
 90
20
 70
0
 10
5.3981509878
 20
17.8737963306
 10
5.3916898598
 20
17.8793701334
 10
5.380773978
 20
17.8882457634
 10
5.3696158556
 20
17.8967487031
 10
5.3582805182
 20
17.9047963667
 10
5.3469039161
 20
17.9122776769
 10
5.3356329888
 20
17.9191047207
 10
5.3245336399
 20
17.925263316
 10
5.3135841705
 20
17.9307943735
 10
5.3027686353
 20
17.9357317264
 10
5.2920848649
 20
17.9401030843
 10
5.2815144324
 20
17.9439411931
 10
5.2710370955
 20
17.9472740206
 10
5.2606328671
 20
17.9501240432
 10
5.2502923884
 20
17.9525063426
 10
5.2400183088
 20
17.9544308241
 10
5.2298136229
 20
17.9559063211
 10
5.2196806984
 20
17.956940834
 10
5.2096200884
 20
17.9575415514
 10
5.2005981946
 20
17.9577163924
  0
LINE
  5
262
100
AcDbEntity
  8
0
100
AcDbLine
 62
6
  6
CONTINUOUS
 10
8.1200380357
 20
18.0269340721
 11
8.4990684874
 21
17.3704340721
  0
LWPOLYLINE
  5
263
100
AcDbEntity
  8
0
100
AcDbPolyline
 62
6
  6
CONTINUOUS
 90
20
 70
0
 10
3.4605550099
 20
17.1848837915
 10
3.46774601
 20
17.1822451076
 10
3.4834827039
 20
17.1765450503
 10
3.4988757262
 20
17.1710725018
 10
3.5145966064
 20
17.1656184205
 10
3.5312863109
 20
17.1600121195
 10
3.5488624178
 20
17.1543501231
 10
3.5669555934
 20
17.1488151064
 10
3.5851947314
 20
17.1435722683
 10
3.6032168838
 20
17.1387586504
 10
3.6208190993
 20
17.1344403284
 10
3.6379490926
 20
17.1306307583
 10
3.6545579276
 20
17.1273350306
 10
3.6705978885
 20
17.1245503178
 10
3.6860818618
 20
17.1222577856
 10
3.7010786041
 20
17.1204299891
 10
3.7156591539
 20
17.1190415504
 10
3.7298971406
 20
17.1180726739
 10
3.7438676645
 20
17.1175104423
 10
3.756251075
 20
17.1173474799
  0
LWPOLYLINE
  5
264
100
AcDbEntity
  8
0
100
AcDbPolyline
 62
6
  6
CONTINUOUS
 90
11
 70
0
 10
5.5789151058
 20
16.8999031054
 10
5.5883636548
 20
16.8962070938
 10
5.5989013805
 20
16.8925497448
 10
5.6094028838
 20
16.8893578683
 10
5.6198778844
 20
16.8866177396
 10
5.6303204957
 20
16.8843219557
 10
5.6407231132
 20
16.8824639171
 10
5.6510856937
 20
16.8810363223
 10
5.661412147
 20
16.8800328818
 10
5.6717076053
 20
16.8794490879
 10
5.6808947802
 20
16.8792802767
  0
LWPOLYLINE
  5
265
100
AcDbEntity
  8
0
100
AcDbPolyline
 62
6
  6
CONTINUOUS
 90
23
 70
0
 10
6.4554423295
 20
17.5816813224
 10
6.4525969622
 20
17.583085689
 10
6.4383986527
 20
17.5900137698
 10
6.4242694561
 20
17.5968022849
 10
6.4101641379
 20
17.603446388
 10
6.3961606448
 20
17.6098833773
 10
6.3820997088
 20
17.6161594185
 10
6.3672836816
 20
17.6225388875
 10
6.3512689861
 20
17.6291319455
 10
6.3345904934
 20
17.635632013
 10
6.3179577305
 20
17.6417094103
 10
6.3018360717
 20
17.6471849567
 10
6.2861829968
 20
17.6520851541
 10
6.2708959333
 20
17.65645193
 10
6.2559193259
 20
17.6603070751
 10
6.2412951787
 20
17.6636471653
 10
6.2270795146
 20
17.6664728788
 10
6.2133044803
 20
17.6687978555
 10
6.1998762746
 20
17.6706589393
 10
6.186676313
 20
17.6720851333
 10
6.173672983
 20
17.6730860595
 10
6.1608740989
 20
17.6736666018
 10
6.1495039519
 20
17.6738348083
  0
LWPOLYLINE
  5
266
100
AcDbEntity
  8
0
100
AcDbPolyline
 62
6
  6
CONTINUOUS
 90
15
 70
0
 10
5.983482114
 20
17.76240046
 10
5.9721439841
 20
17.768310482
 10
5.9605856556
 20
17.7738799006
 10
5.9490998695
 20
17.7789575149
 10
5.9377011296
 20
17.7835451243
 10
5.9264070275
 20
17.7876456105
 10
5.9152377222
 20
17.7912634535
 10
5.904215678
 20
17.7944050906
 10
5.893353189
 20
17.797082033
 10
5.8826488437
 20
17.7993094804
 10
5.8721004201
 20
17.8011017373
 10
5.8617021638
 20
17.8024724006
 10
5.8514444631
 20
17.8034337708
 10
5.8413168489
 20
17.8039960777
 10
5.8318047451
 20
17.8041680638
  0
LINE
  5
267
100
AcDbEntity
  8
0
100
AcDbLine
 62
9
  6
CONTINUOUS
 10
5.9834866886
 20
17.7623979861
 11
5.983482114
 21
17.76240046
  0
LWPOLYLINE
  5
268
100
AcDbEntity
  8
0
100
AcDbPolyline
 62
6
  6
CONTINUOUS
 90
14
 70
0
 10
4.6762169641
 20
17.8740697494
 10
4.6735900204
 20
17.8754928331
 10
4.6627184225
 20
17.8808545918
 10
4.6519662183
 20
17.8856487216
 10
4.6413388341
 20
17.8898970256
 10
4.6308244596
 20
17.893626372
 10
4.6204108931
 20
17.8968599811
 10
4.6100849599
 20
17.8996175856
 10
4.5998371627
 20
17.9019144828
 10
4.5896727386
 20
17.9037625208
 10
4.5795733457
 20
17.9051775872
 10
4.5695104069
 20
17.9061719374
 10
4.5594539062
 20
17.9067519263
 10
4.5503550881
 20
17.9069200373
  0
LINE
  5
269
100
AcDbEntity
  8
0
100
AcDbLine
 62
9
  6
CONTINUOUS
 10
5.893715987
 20
17.5978437146
 11
5.8937244612
 21
17.597839112
  0
LWPOLYLINE
  5
26A
100
AcDbEntity
  8
0
100
AcDbPolyline
 62
6
  6
CONTINUOUS
 90
4
 70
0
 10
5.8937244629
 20
17.5978391111
 10
5.898959954
 20
17.5949417032
 10
5.9051326384
 20
17.5913906841
 10
5.9081641519
 20
17.5895761656
  0
LINE
  5
26B
100
AcDbEntity
  8
0
100
AcDbLine
 62
7
  6
CONTINUOUS
 10
11.739480895
 20
5.8204314823
 11
11.7394853054
 21
5.8191314898
  0
LINE
  5
26C
100
AcDbEntity
  8
0
100
AcDbLine
 62
6
  6
CONTINUOUS
 10
11.241007584
 20
9.6417886986
 11
11.241007584
 21
9.0990794455
  0
LINE
  5
26D
100
AcDbEntity
  8
0
100
AcDbLine
 62
6
  6
CONTINUOUS
 10
3.4507263558
 20
17.1906103284
 11
3.4564994783
 21
17.1897980735
  0
LWPOLYLINE
  5
26E
100
AcDbEntity
  8
0
100
AcDbPolyline
 62
6
  6
CONTINUOUS
 90
9
 70
0
 10
4.3142605757
 20
17.7950127657
 10
4.3139740628
 20
17.795097437
 10
4.3034580257
 20
17.7977749453
 10
4.2930258694
 20
17.8000100193
 10
4.2826846164
 20
17.8018129523
 10
4.272423244
 20
17.8031959228
 10
4.2622221287
 20
17.8041688427
 10
4.2520747685
 20
17.8047378699
 10
4.2424666743
 20
17.8049109609
  0
LINE
  5
26F
100
AcDbEntity
  8
0
100
AcDbLine
 62
6
  6
CONTINUOUS
 10
12.241007584
 20
9.6417886986
 11
12.241007584
 21
9.0990794455
  0
LWPOLYLINE
  5
270
100
AcDbEntity
  8
0
100
AcDbPolyline
 62
6
  6
CONTINUOUS
 90
43
 70
0
 10
19.3318339067
 20
17.7316798002
 10
19.3217652267
 20
17.729648567
 10
19.3112722441
 20
17.7271264874
 10
19.3006796847
 20
17.7241599137
 10
19.2900049907
 20
17.7207406199
 10
19.2792630378
 20
17.7168608783
 10
19.2684391212
 20
17.7125015875
 10
19.2574946008
 20
17.7076287276
 10
19.246390807
 20
17.702200221
 10
19.2351234989
 20
17.6961847166
 10
19.223842908
 20
17.6896417157
 10
19.2127314461
 20
17.6826788295
 10
19.2019396719
 20
17.6754157193
 10
19.1913969885
 20
17.6678384907
 10
19.1809310384
 20
17.6598433466
 10
19.1703826395
 20
17.6513062344
 10
19.1596725498
 20
17.6421442825
 10
19.1488651899
 20
17.6323979852
 10
19.138027022
 20
17.622126923
 10
19.1272173616
 20
17.6113965648
 10
19.116470134
 20
17.6002566947
 10
19.1058043524
 20
17.5887468948
 10
19.0952404691
 20
17.5769116771
 10
19.0848096075
 20
17.564811325
 10
19.0745455292
 20
17.5525137355
 10
19.0644614352
 20
17.5400652671
 10
19.0545246505
 20
17.5274540824
 10
19.0446978612
 20
17.5146568504
 10
19.0349604455
 20
17.5016673339
 10
19.0253124229
 20
17.4885074365
 10
19.0157545485
 20
17.475203356
 10
19.0062874069
 20
17.4617807987
 10
18.9969083865
 20
17.4482602099
 10
18.9876135586
 20
17.4346591533
 10
18.978399461
 20
17.4209948633
 10
18.969266247
 20
17.4072890838
 10
18.9602330185
 20
17.3935917365
 10
18.9513256182
 20
17.3799633503
 10
18.9425691344
 20
17.3664634435
 10
18.9339682827
 20
17.3531194772
 10
18.925505129
 20
17.339922192
 10
18.9171616346
 20
17.3268607305
 10
18.9089190896
 20
17.3139227372
  0
LINE
  5
271
100
AcDbEntity
  8
0
100
AcDbLine
 62
9
  6
CONTINUOUS
 10
19.3318339057
 20
17.7316798001
 11
19.3318413273
 21
17.7316811565
  0
LINE
  5
272
100
AcDbEntity
  8
0
100
AcDbLine
 62
9
  6
CONTINUOUS
 10
19.3647867305
 20
17.5472492328
 11
19.3647720828
 21
17.5472465868
  0
LWPOLYLINE
  5
273
100
AcDbEntity
  8
0
100
AcDbPolyline
 62
6
  6
CONTINUOUS
 90
5
 70
0
 10
19.3647867305
 20
17.5472492328
 10
19.3711775706
 20
17.5482394496
 10
19.3775573971
 20
17.5489089641
 10
19.3837178595
 20
17.5492692628
 10
19.3891082125
 20
17.5493669513
  0
LWPOLYLINE
  5
274
100
AcDbEntity
  8
0
100
AcDbPolyline
 62
6
  6
CONTINUOUS
 90
37
 70
0
 10
20.0255180615
 20
17.5510721722
 10
20.0063474342
 20
17.5496125786
 10
19.9870531524
 20
17.5476300127
 10
19.9682254856
 20
17.5451807594
 10
19.9497797261
 20
17.5422680777
 10
19.9316350304
 20
17.5388864972
 10
19.9137100809
 20
17.5350290165
 10
19.8959222741
 20
17.530680773
 10
19.878311369
 20
17.5258500814
 10
19.8611350695
 20
17.5206177582
 10
19.8446642081
 20
17.5150996867
 10
19.8290545437
 20
17.5094027907
 10
19.813682434
 20
17.5033473998
 10
19.7983216641
 20
17.4968603425
 10
19.7830314262
 20
17.4899740506
 10
19.7677976356
 20
17.482690093
 10
19.752575657
 20
17.474991079
 10
19.7373319136
 20
17.4668591946
 10
19.7220406515
 20
17.4582802512
 10
19.7067185697
 20
17.4492708604
 10
19.6914316018
 20
17.4398803315
 10
19.6762444871
 20
17.4301626858
 10
19.6612180384
 20
17.4201742808
 10
19.6464101654
 20
17.4099737931
 10
19.6318755766
 20
17.3996263417
 10
19.6176839839
 20
17.3892210274
 10
19.6039437971
 20
17.3788801675
 10
19.5907662129
 20
17.3687322194
 10
19.5782562979
 20
17.3589032959
 10
19.5663934984
 20
17.3494201219
 10
19.555003703
 20
17.340178656
 10
19.5439073419
 20
17.3310581725
 10
19.5329408469
 20
17.321944378
 10
19.5220602239
 20
17.3128208701
 10
19.5112918791
 20
17.3037291137
 10
19.500662509
 20
17.2947104067
 10
19.4697918207
 20
17.2684199191
  0
LWPOLYLINE
  5
275
100
AcDbEntity
  8
0
100
AcDbPolyline
 62
6
  6
CONTINUOUS
 90
47
 70
0
 10
5.0370178089
 20
16.7766852008
 10
5.0463648664
 20
16.7768768557
 10
5.0562670767
 20
16.777490682
 10
5.0662573318
 20
16.7785344052
 10
5.0763437569
 20
16.7800178619
 10
5.0865331503
 20
16.7819532451
 10
5.0968278977
 20
16.7843541773
 10
5.1072234674
 20
16.7872341324
 10
5.117714556
 20
16.7906071074
 10
5.1282979753
 20
16.7944885958
 10
5.1389807627
 20
16.7988995891
 10
5.149774446
 20
16.803866176
 10
5.160687581
 20
16.8094166676
 10
5.1716819484
 20
16.815555307
 10
5.1826949519
 20
16.8222643514
 10
5.1936730688
 20
16.8295199935
 10
5.2045862483
 20
16.8373045787
 10
5.2154203389
 20
16.8456062262
 10
5.2261863651
 20
16.8544280243
 10
5.2368822959
 20
16.8637534868
 10
5.2475211798
 20
16.8735767807
 10
5.2581196367
 20
16.8838976108
 10
5.2686865522
 20
16.8947101695
 10
5.2791894753
 20
16.9059643586
 10
5.2895823756
 20
16.9175878459
 10
5.2998240925
 20
16.9295054637
 10
5.3099122252
 20
16.9416827386
 10
5.3198642634
 20
16.9541106831
 10
5.3296966836
 20
16.9667824743
 10
5.3394241452
 20
16.9796919672
 10
5.3490567186
 20
16.9928293191
 10
5.3586012038
 20
17.00618011
 10
5.3680654399
 20
17.0197294708
 10
5.3774553958
 20
17.0334609198
 10
5.3867709799
 20
17.0473500651
 10
5.3960105634
 20
17.0613706805
 10
5.4051720667
 20
17.0754962603
 10
5.4142536175
 20
17.0897010767
 10
5.4232531744
 20
17.1039596708
 10
5.4321682379
 20
17.1182464327
 10
5.4409940731
 20
17.1325327326
 10
5.4497224367
 20
17.1467847453
 10
5.4583559811
 20
17.1609871249
 10
5.4669217073
 20
17.1751659849
 10
5.4754465943
 20
17.1893486214
 10
5.4839482778
 20
17.2035472358
 10
5.4924382407
 20
17.2177642756
  0
LWPOLYLINE
  5
276
100
AcDbEntity
  8
0
100
AcDbPolyline
 62
6
  6
CONTINUOUS
 90
45
 70
0
 10
18.6084990935
 20
16.7830280526
 10
18.6174852687
 20
16.7831988142
 10
18.6275676137
 20
16.7837962841
 10
18.637698621
 20
16.7848265892
 10
18.6478858745
 20
16.7862958909
 10
18.6581350971
 20
16.7882125546
 10
18.6684511944
 20
16.790587146
 10
18.6788387595
 20
16.7934325348
 10
18.6893119934
 20
16.796767333
 10
18.6998942101
 20
16.8006179166
 10
18.7105937479
 20
16.8050079099
 10
18.7214294
 20
16.8099666396
 10
18.7324092688
 20
16.8155224473
 10
18.743542011
 20
16.8217066154
 10
18.7548389161
 20
16.82855463
 10
18.7662509112
 20
16.836063522
 10
18.777613376
 20
16.8441348743
 10
18.7887634576
 20
16.8526362718
 10
18.7996130109
 20
16.8614615484
 10
18.8102346616
 20
16.8706263584
 10
18.8207446182
 20
16.8802016606
 10
18.8312526793
 20
16.8902744314
 10
18.8417954524
 20
16.9008766207
 10
18.8523293307
 20
16.9119588462
 10
18.8628093782
 20
16.9234560134
 10
18.8732004939
 20
16.9353043882
 10
18.8834907474
 20
16.9474619871
 10
18.8936773457
 20
16.9598964209
 10
18.9037565954
 20
16.972574096
 10
18.9137219871
 20
16.985457714
 10
18.9235618753
 20
16.9985028792
 10
18.9332631589
 20
17.0116625958
 10
18.9428126007
 20
17.0248892269
 10
18.9522154549
 20
17.0381613285
 10
18.9614969799
 20
17.0514883013
 10
18.9706828619
 20
17.0648836838
 10
18.9797977405
 20
17.0783624399
 10
18.9888566673
 20
17.091926077
 10
18.9978672448
 20
17.1055649434
 10
19.0068365737
 20
17.1192694533
 10
19.0157684136
 20
17.1330255741
 10
19.0246552491
 20
17.1468022085
 10
19.0334867027
 20
17.1605638712
 10
19.0422520645
 20
17.1742747437
 10
19.0509439364
 20
17.1879046064
  0
LWPOLYLINE
  5
277
100
AcDbEntity
  8
0
100
AcDbPolyline
 62
6
  6
CONTINUOUS
 90
49
 70
0
 10
4.7109319859
 20
16.8020312326
 10
4.7199121899
 20
16.8022031056
 10
4.7299264464
 20
16.8027972657
 10
4.7400167409
 20
16.8038221095
 10
4.7501863578
 20
16.8052857767
 10
4.7604372959
 20
16.8071979717
 10
4.7707715326
 20
16.8095701406
 10
4.7811926029
 20
16.8124160581
 10
4.7917012499
 20
16.8157508087
 10
4.8022817752
 20
16.8195850001
 10
4.8129160209
 20
16.8239270315
 10
4.8236170035
 20
16.8287984588
 10
4.8344182744
 20
16.8342356968
 10
4.8453537768
 20
16.8402835946
 10
4.8564461806
 20
16.8469885841
 10
4.8676177896
 20
16.8543350717
 10
4.8787461019
 20
16.8622587732
 10
4.8897109545
 20
16.8706668348
 10
4.9004985458
 20
16.8795227659
 10
4.9111726706
 20
16.8888524305
 10
4.9217909805
 20
16.89868862
 10
4.9324060848
 20
16.9090705561
 10
4.9430157999
 20
16.919989799
 10
4.953571437
 20
16.9313853506
 10
4.964024566
 20
16.943186219
 10
4.974334991
 20
16.9553216236
 10
4.9844934873
 20
16.9677519372
 10
4.9945109869
 20
16.9804622731
 10
5.0044101902
 20
16.9934558457
 10
5.0142123639
 20
17.0067377715
 10
5.0239343467
 20
17.0203065089
 10
5.0335774146
 20
17.0341383558
 10
5.0431343985
 20
17.0481974981
 10
5.0525974749
 20
17.0624465357
 10
5.0619593721
 20
17.0768484689
 10
5.0712161822
 20
17.0913714505
 10
5.0803642818
 20
17.1059844821
 10
5.089399542
 20
17.1206562707
 10
5.0983236213
 20
17.1353657123
 10
5.1071552761
 20
17.1501216279
 10
5.1159158759
 20
17.1649397825
 10
5.1246244291
 20
17.1798339297
 10
5.1332957087
 20
17.194810532
 10
5.1419438485
 20
17.2098755644
 10
5.1505748455
 20
17.2250216498
 10
5.1591773413
 20
17.2402110679
 10
5.1677428891
 20
17.2554110063
 10
5.176276924
 20
17.2706134541
 10
5.184775051
 20
17.2857932466
  0
LWPOLYLINE
  5
278
100
AcDbEntity
  8
0
100
AcDbPolyline
 62
6
  6
CONTINUOUS
 90
50
 70
0
 10
4.3931385303
 20
16.8786610795
 10
4.4023726214
 20
16.8788347342
 10
4.4126436828
 20
16.8794235189
 10
4.4229642975
 20
16.8804330328
 10
4.4333367463
 20
16.8818688435
 10
4.443762102
 20
16.8837378343
 10
4.4542415839
 20
16.8860484144
 10
4.4647778655
 20
16.8888110411
 10
4.475369608
 20
16.8920368587
 10
4.4859953964
 20
16.895730994
 10
4.4966333835
 20
16.8998962761
 10
4.5073107707
 20
16.9045556676
 10
4.518082545
 20
16.9097526445
 10
4.5290013871
 20
16.9155414959
 10
4.5400803029
 20
16.9219625047
 10
4.5512235943
 20
16.9289846171
 10
4.5623131247
 20
16.936541314
 10
4.5732470862
 20
16.9445536735
 10
4.58403103
 20
16.9530062949
 10
4.5947206265
 20
16.9619238311
 10
4.6053569713
 20
16.9713282237
 10
4.615973921
 20
16.9812424181
 10
4.6265510133
 20
16.9916410027
 10
4.6370404716
 20
17.0024653822
 10
4.6473964448
 20
17.0136496309
 10
4.6576534611
 20
17.02521157
 10
4.6679709202
 20
17.0373221865
 10
4.6783038152
 20
17.0499218036
 10
4.6885820169
 20
17.0629087043
 10
4.6987392395
 20
17.0761736244
 10
4.7087496358
 20
17.0896518227
 10
4.7186219315
 20
17.1033238145
 10
4.7283650335
 20
17.1171726158
 10
4.7379861197
 20
17.1311808607
 10
4.7474830816
 20
17.1453190449
 10
4.7568481527
 20
17.1595496147
 10
4.7660740026
 20
17.1738357707
 10
4.7751715843
 20
17.1881700439
 10
4.7841685581
 20
17.2025741342
 10
4.7930924466
 20
17.217072784
 10
4.8019640774
 20
17.2316798413
 10
4.8107923331
 20
17.2463896705
 10
4.8195844008
 20
17.2611947709
 10
4.8283437808
 20
17.2760821132
 10
4.8370569096
 20
17.2910097809
 10
4.8457086519
 20
17.3059328083
 10
4.8543079187
 20
17.3208479386
 10
4.8628649199
 20
17.335755029
 10
4.8713168567
 20
17.3505268764
 10
4.8956603702
 20
17.3931911387
  0
LWPOLYLINE
  5
279
100
AcDbEntity
  8
0
100
AcDbPolyline
 62
6
  6
CONTINUOUS
 90
49
 70
0
 10
18.2814171902
 20
16.7831517516
 10
18.2902819498
 20
16.7833172098
 10
18.3002298721
 20
16.7838999789
 10
18.3102104138
 20
16.7849054746
 10
18.3202252809
 20
16.7863379817
 10
18.3302751488
 20
16.7882031389
 10
18.3403701058
 20
16.7905104471
 10
18.3505457938
 20
16.7932801902
 10
18.360823042
 20
16.7965347637
 10
18.371205826
 20
16.8002926572
 10
18.3817029317
 20
16.8045760884
 10
18.3923344855
 20
16.8094158291
 10
18.403130203
 20
16.8148530562
 10
18.4141107618
 20
16.8209311129
 10
18.4252002914
 20
16.827638182
 10
18.4362752976
 20
16.8349150899
 10
18.4472396128
 20
16.8426967518
 10
18.4580575953
 20
16.8509448052
 10
18.4687338939
 20
16.8596451752
 10
18.479263438
 20
16.8687718026
 10
18.4896611497
 20
16.8783155711
 10
18.4999957078
 20
16.8883236937
 10
18.5103372583
 20
16.8988584769
 10
18.5207425405
 20
16.909980803
 10
18.5311613427
 20
16.9216349703
 10
18.5414941788
 20
16.9336924467
 10
18.5517002367
 20
16.9460777524
 10
18.561777204
 20
16.9587573915
 10
18.5717225787
 20
16.9716976627
 10
18.581534629
 20
16.9848660864
 10
18.591218703
 20
16.9982405339
 10
18.6007815397
 20
17.0118024545
 10
18.610228992
 20
17.0255337359
 10
18.6195681553
 20
17.0394196936
 10
18.6288119702
 20
17.0534562611
 10
18.63797354
 20
17.0676410517
 10
18.6470658065
 20
17.0819707061
 10
18.6560983876
 20
17.0964378462
 10
18.6650739764
 20
17.1110251929
 10
18.673994132
 20
17.1257142848
 10
18.6828599901
 20
17.1404865352
 10
18.6916687797
 20
17.1553172938
 10
18.7004120247
 20
17.1701724912
 10
18.7090813088
 20
17.1850182598
 10
18.717669414
 20
17.1998230823
 10
18.7261736752
 20
17.2145638373
 10
18.7346036564
 20
17.2292394739
 10
18.7429704509
 20
17.2438526333
 10
18.767766606
 20
17.2872891011
  0
LWPOLYLINE
  5
27A
100
AcDbEntity
  8
0
100
AcDbPolyline
 62
6
  6
CONTINUOUS
 90
51
 70
0
 10
18.9316603376
 20
16.8339481069
 10
18.940547894
 20
16.8341110934
 10
18.9505750079
 20
16.8346798245
 10
18.9606799755
 20
16.8356618271
 10
18.9708710096
 20
16.8370647171
 10
18.9811555254
 20
16.8388983068
 10
18.9915352272
 20
16.8411733707
 10
19.0020007413
 20
16.8438990608
 10
19.0125483122
 20
16.84708605
 10
19.0232019055
 20
16.8507557977
 10
19.0339926702
 20
16.8549381382
 10
19.0449476665
 20
16.8596677131
 10
19.0560830585
 20
16.8649767907
 10
19.067432515
 20
16.8709086123
 10
19.0790077547
 20
16.8774998882
 10
19.0906640517
 20
16.8846892735
 10
19.1022071313
 20
16.8923531554
 10
19.1134565304
 20
16.9003406574
 10
19.1243496357
 20
16.9085585397
 10
19.1349865926
 20
16.9170336465
 10
19.1454614541
 20
16.9258050988
 10
19.155865241
 20
16.9349251157
 10
19.1662501062
 20
16.9444237456
 10
19.1766079728
 20
16.9542800432
 10
19.1869234783
 20
16.9644636192
 10
19.1971795744
 20
16.9749358526
 10
19.2073642555
 20
16.9856591459
 10
19.2174661754
 20
16.9965952122
 10
19.2274732524
 20
17.0077039389
 10
19.2373737642
 20
17.0189448694
 10
19.2471590591
 20
17.0302807373
 10
19.2568202934
 20
17.041674199
 10
19.2663477958
 20
17.0530872786
 10
19.2757393114
 20
17.0644915971
 10
19.2850042294
 20
17.0758743047
 10
19.294152645
 20
17.0872251496
 10
19.3032022389
 20
17.0985449447
 10
19.3121785739
 20
17.1098458129
 10
19.3211069516
 20
17.1211407353
 10
19.3299958783
 20
17.1324223445
 10
19.3388351149
 20
17.1436598648
 10
19.3476132694
 20
17.1548213743
 10
19.3563363716
 20
17.1658975683
 10
19.3650359398
 20
17.1769117555
 10
19.3736864197
 20
17.18781511
 10
19.3821194535
 20
17.1983814303
 10
19.390181698
 20
17.2084101814
 10
19.3979145235
 20
17.2179481384
 10
19.4054225193
 20
17.2271195588
 10
19.4128118726
 20
17.2360474642
 10
19.4199976097
 20
17.2446234098
  0
LWPOLYLINE
  5
27B
100
AcDbEntity
  8
0
100
AcDbPolyline
 62
6
  6
CONTINUOUS
 90
43
 70
0
 10
5.3634506104
 20
16.8023653449
 10
5.3722977273
 20
16.8025264756
 10
5.3821942656
 20
16.8030958246
 10
5.3921874648
 20
16.8040859569
 10
5.4022879609
 20
16.8055097984
 10
5.4124912916
 20
16.807378174
 10
5.4228094749
 20
16.8097051306
 10
5.4332544404
 20
16.8125079741
 10
5.4438301623
 20
16.8158047577
 10
5.4545359976
 20
16.8196138837
 10
5.4653715898
 20
16.8239551588
 10
5.4763327018
 20
16.8288478425
 10
5.4874150056
 20
16.8343115748
 10
5.4986163672
 20
16.8403674288
 10
5.509930547
 20
16.847034307
 10
5.5212815408
 20
16.8542840288
 10
5.5325580177
 20
16.8620479618
 10
5.5436578182
 20
16.8702415906
 10
5.5545404664
 20
16.8788071951
 10
5.5652680585
 20
16.8877583264
 10
5.5759125227
 20
16.8971270403
 10
5.5865423844
 20
16.906954974
 10
5.5971764242
 20
16.917245889
 10
5.6077693
 20
16.9279397737
 10
5.6182718472
 20
16.9389644213
 10
5.6286372175
 20
16.9502423218
 10
5.6388474645
 20
16.9617224339
 10
5.6489047033
 20
16.973375632
 10
5.6588104412
 20
16.9851733494
 10
5.6685679511
 20
16.9970904474
 10
5.6782015511
 20
17.0091298376
 10
5.6877450725
 20
17.0213102086
 10
5.6972277588
 20
17.0336462468
 10
5.7066571969
 20
17.0461247274
 10
5.7160308793
 20
17.0587196452
 10
5.7253455525
 20
17.0714041415
 10
5.7345960105
 20
17.0841488627
 10
5.7437752868
 20
17.0969221969
 10
5.7528710654
 20
17.1096852584
 10
5.7618676584
 20
17.1223946226
 10
5.7707622302
 20
17.1350255745
 10
5.779565676
 20
17.1475739594
 10
5.8055188334
 20
17.1846702155
  0
LWPOLYLINE
  5
27C
100
AcDbEntity
  8
0
100
AcDbPolyline
 62
6
  6
CONTINUOUS
 90
51
 70
0
 10
17.958311535
 20
16.8344665563
 10
17.9673420029
 20
16.8346290798
 10
17.9774205628
 20
16.8352031807
 10
17.9875022752
 20
16.8361917729
 10
17.9976144539
 20
16.8376005084
 10
18.0077831017
 20
16.8394405041
 10
18.0180272388
 20
16.8417269263
 10
18.0283422812
 20
16.844471764
 10
18.0387320756
 20
16.8476879179
 10
18.0492119365
 20
16.8513943996
 10
18.0598034356
 20
16.8556171065
 10
18.0705283784
 20
16.8603875898
 10
18.0813872414
 20
16.8657321934
 10
18.0923275826
 20
16.871649135
 10
18.1032948312
 20
16.8781262972
 10
18.1142417796
 20
16.8851462109
 10
18.1251299691
 20
16.8926882009
 10
18.1359332203
 20
16.9007327998
 10
18.1466555371
 20
16.909278159
 10
18.1573090569
 20
16.9183260621
 10
18.1679249301
 20
16.9278970448
 10
18.1785356425
 20
16.9380143108
 10
18.1891697647
 20
16.9486999599
 10
18.1997927429
 20
16.9599127496
 10
18.210353266
 20
16.9715847216
 10
18.220805622
 20
16.9836438772
 10
18.231125317
 20
16.9960353089
 10
18.241294822
 20
17.0087086281
 10
18.2512963684
 20
17.0216104968
 10
18.2611232097
 20
17.0347001934
 10
18.2708026626
 20
17.0479842439
 10
18.2803673367
 20
17.061481912
 10
18.2898485431
 20
17.0752161244
 10
18.2992660602
 20
17.0891958408
 10
18.3086202625
 20
17.1033989114
 10
18.3179094056
 20
17.1177994846
 10
18.3271312307
 20
17.1323710414
 10
18.3362817795
 20
17.1470844909
 10
18.3453538083
 20
17.1619054379
 10
18.3543419283
 20
17.1768025015
 10
18.3632460223
 20
17.1917534522
 10
18.3720628763
 20
17.2067315371
 10
18.3807806545
 20
17.2216957073
 10
18.3893963563
 20
17.2366204158
 10
18.3979386867
 20
17.2515364928
 10
18.40643672
 20
17.2664776916
 10
18.4148942233
 20
17.2814342363
 10
18.4233077045
 20
17.2963827197
 10
18.4316735246
 20
17.3112995535
 10
18.4399873932
 20
17.3261603463
 10
18.4482441977
 20
17.340939659
  0
LWPOLYLINE
  5
27D
100
AcDbEntity
  8
0
100
AcDbPolyline
 62
6
  6
CONTINUOUS
 90
50
 70
0
 10
17.6502097318
 20
16.9367000802
 10
17.6592912577
 20
16.936861336
 10
17.6695116268
 20
16.9374214422
 10
17.6797963105
 20
16.9383875331
 10
17.6901461026
 20
16.9397658241
 10
17.7005606272
 20
16.9415634958
 10
17.7110400438
 20
16.9437889863
 10
17.7215865419
 20
16.9464526231
 10
17.7321954154
 20
16.9495643417
 10
17.7428451004
 20
16.9531288026
 10
17.7535250839
 20
16.9571529404
 10
17.7642586692
 20
16.9616582475
 10
17.7750745424
 20
16.9666743403
 10
17.7860010319
 20
16.9722373633
 10
17.7970267103
 20
16.9783674064
 10
17.8080667642
 20
16.9850379535
 10
17.8190308099
 20
16.9922025601
 10
17.8298410177
 20
16.9998006048
 10
17.8405429907
 20
17.0078468968
 10
17.8512047056
 20
17.0163792994
 10
17.8618760168
 20
17.0254321656
 10
17.872588943
 20
17.0350326019
 10
17.8832996925
 20
17.045140009
 10
17.8939450543
 20
17.0556853662
 10
17.9044651557
 20
17.0665911534
 10
17.9148324529
 20
17.0778046788
 10
17.9250775921
 20
17.0893354266
 10
17.9352364502
 20
17.101204704
 10
17.9453430363
 20
17.113437724
 10
17.9554070753
 20
17.1260329199
 10
17.9654107087
 20
17.1389480297
 10
17.9753365603
 20
17.1521370862
 10
17.9851675145
 20
17.1655520523
 10
17.9948942992
 20
17.1791540077
 10
18.0045150378
 20
17.1929141218
 10
18.0140275656
 20
17.2068036397
 10
18.0234275877
 20
17.2207911657
 10
18.0327085107
 20
17.2348422244
 10
18.0418634562
 20
17.2489222286
 10
18.0508935729
 20
17.2630096494
 10
18.059811429
 20
17.2771023229
 10
18.0686300283
 20
17.2912007768
 10
18.0773651145
 20
17.3053117622
 10
18.0860402987
 20
17.3194553077
 10
18.0946759951
 20
17.3336460136
 10
18.1032789946
 20
17.3478770616
 10
18.1118401424
 20
17.362115583
 10
18.120295352
 20
17.3762368357
 10
18.1285812053
 20
17.3901163693
 10
18.1448056453
 20
17.4173511938
  0
LWPOLYLINE
  5
27E
100
AcDbEntity
  8
0
100
AcDbPolyline
 62
6
  6
CONTINUOUS
 90
32
 70
0
 10
5.6808951417
 20
16.8792802766
 10
5.689926801
 20
16.8794386594
 10
5.6999870357
 20
16.8799909012
 10
5.7100976185
 20
16.8809416369
 10
5.7202739711
 20
16.8822965634
 10
5.7305309189
 20
16.8840646038
 10
5.7408916953
 20
16.8862599821
 10
5.7514065227
 20
16.8889088186
 10
5.7621128999
 20
16.8920396911
 10
5.7730028547
 20
16.895670501
 10
5.7840473342
 20
16.8998103116
 10
5.7952530304
 20
16.9044796596
 10
5.8066469163
 20
16.9097104287
 10
5.8182579811
 20
16.9155404677
 10
5.8300751512
 20
16.9219900033
 10
5.8419074811
 20
16.9289669909
 10
5.8535258921
 20
16.93632021
 10
5.8647198023
 20
16.9438717301
 10
5.8754865353
 20
16.9515618084
 10
5.8859955217
 20
16.9594620757
 10
5.8964031912
 20
16.9676599717
 10
5.9068453563
 20
16.9762459039
 10
5.9173342529
 20
16.9852169216
 10
5.9278134991
 20
16.9945082893
 10
5.9382258204
 20
17.0040467085
 10
5.9485187795
 20
17.0137568084
 10
5.9586752582
 20
17.0235928748
 10
5.9686918339
 20
17.033522235
 10
5.9785640494
 20
17.0435119695
 10
5.988286843
 20
17.0535293761
 10
5.9978545322
 20
17.0635420263
 10
6.0070289712
 20
17.0732705325
  0
LWPOLYLINE
  5
27F
100
AcDbEntity
  8
0
100
AcDbPolyline
 62
6
  6
CONTINUOUS
 90
16
 70
0
 10
19.2395487144
 20
16.9359571833
 10
19.2480470969
 20
16.936099228
 10
19.2577263581
 20
16.9365938039
 10
19.2675154487
 20
16.9374489066
 10
19.2774227529
 20
16.9386724864
 10
19.28745617
 20
16.9402741564
 10
19.2976209284
 20
16.942264694
 10
19.3079182556
 20
16.9446552771
 10
19.3183490788
 20
16.9474578551
 10
19.3289097035
 20
16.9506837082
 10
19.3395811104
 20
16.954338709
 10
19.3503428902
 20
16.9584259418
 10
19.3611769769
 20
16.9629469246
 10
19.3720673419
 20
16.9679017262
 10
19.3830006177
 20
16.9732894689
 10
19.3937086103
 20
16.9789672119
  0
LWPOLYLINE
  5
280
100
AcDbEntity
  8
0
100
AcDbPolyline
 62
6
  6
CONTINUOUS
 90
31
 70
0
 10
19.5572437272
 20
17.066362508
 10
19.5687279869
 20
17.0665334413
 10
19.5816688882
 20
17.0671264316
 10
19.5948019144
 20
17.0681489441
 10
19.6081881809
 20
17.0696137467
 10
19.6218900958
 20
17.0715410704
 10
19.6359647432
 20
17.0739565461
 10
19.6504624565
 20
17.0768874962
 10
19.6653808684
 20
17.0803520931
 10
19.6806852844
 20
17.0843574245
 10
19.6963429407
 20
17.0889050587
 10
19.7123353894
 20
17.0939953472
 10
19.7286584302
 20
17.099629181
 10
19.7452948206
 20
17.1057989361
 10
19.7619322286
 20
17.1123699859
 10
19.7780021722
 20
17.1190661462
 10
19.7929821404
 20
17.1255887935
 10
19.807108073
 20
17.1319587184
 10
19.8211734992
 20
17.1384839975
 10
19.8355164329
 20
17.1452965797
 10
19.8499837562
 20
17.1523009589
 10
19.8645267653
 20
17.1594466215
 10
19.8792429763
 20
17.1667540107
 10
19.8941577026
 20
17.174207929
 10
19.9092832674
 20
17.1817853554
 10
19.9246339799
 20
17.1894628128
 10
19.9402630508
 20
17.1972361837
 10
19.9563694693
 20
17.2051718362
 10
19.9731611787
 20
17.2133332374
 10
19.9903728003
 20
17.2215490952
 10
20.005641556
 20
17.2286869783
  0
LWPOLYLINE
  5
281
100
AcDbEntity
  8
0
100
AcDbPolyline
 62
6
  6
CONTINUOUS
 90
24
 70
0
 10
17.3325121422
 20
17.0670333357
 10
17.3436890576
 20
17.0671956574
 10
17.35607737
 20
17.0677614713
 10
17.3683785937
 20
17.0687308268
 10
17.3806124855
 20
17.070103417
 10
17.3928002479
 20
17.0718797631
 10
17.4049563491
 20
17.0740622256
 10
17.4170799655
 20
17.076652501
 10
17.4291666673
 20
17.0796522043
 10
17.4412068797
 20
17.0830618259
 10
17.4531933466
 20
17.0868823321
 10
17.4651318247
 20
17.0911195232
 10
17.4770321915
 20
17.0957827303
 10
17.4889153628
 20
17.1008886755
 10
17.5008314498
 20
17.1064703846
 10
17.5128374926
 20
17.1125698126
 10
17.5248564088
 20
17.119162369
 10
17.5366352913
 20
17.1261042938
 10
17.5480934138
 20
17.1333221762
 10
17.5594096176
 20
17.1409056488
 10
17.5706961737
 20
17.1489232365
 10
17.5819488394
 20
17.1573720462
 10
17.5931520864
 20
17.1662396886
 10
17.6039204276
 20
17.1751962634
  0
LWPOLYLINE
  5
282
100
AcDbEntity
  8
0
100
AcDbPolyline
 62
6
  6
CONTINUOUS
 90
44
 70
0
 10
16.9930834292
 20
17.1582192769
 10
17.0087760068
 20
17.158425943
 10
17.0255969352
 20
17.159118124
 10
17.0421143816
 20
17.1602808521
 10
17.0583594126
 20
17.1619008178
 10
17.074361064
 20
17.1639690547
 10
17.0901459836
 20
17.1664807174
 10
17.1057398574
 20
17.1694351241
 10
17.1211667027
 20
17.172835193
 10
17.1364578251
 20
17.176684396
 10
17.1516581516
 20
17.1809910321
 10
17.1668131217
 20
17.185770697
 10
17.1819344496
 20
17.1910341069
 10
17.1968385335
 20
17.1967172076
 10
17.2112847542
 20
17.2027076578
 10
17.2252476134
 20
17.2089609552
 10
17.238967938
 20
17.2155571163
 10
17.2526521708
 20
17.2225803579
 10
17.2663354422
 20
17.2300430659
 10
17.2799901959
 20
17.2379256996
 10
17.293618008
 20
17.2462242666
 10
17.3072342174
 20
17.254944917
 10
17.3208466551
 20
17.2640915052
 10
17.3344585467
 20
17.2736654739
 10
17.3480660826
 20
17.2836567107
 10
17.361609209
 20
17.2940080114
 10
17.3750046905
 20
17.30463692
 10
17.3881895528
 20
17.3154693304
 10
17.4011737733
 20
17.3264883567
 10
17.4139856866
 20
17.3376957542
 10
17.426652186
 20
17.3490958268
 10
17.4391572776
 20
17.3606515096
 10
17.4514214815
 20
17.3722583179
 10
17.4633623459
 20
17.3838034665
 10
17.4749041963
 20
17.3951771247
 10
17.4860393029
 20
17.4063361183
 10
17.496804936
 20
17.4172858076
 10
17.5072431631
 20
17.4280408623
 10
17.5174234362
 20
17.4386495241
 10
17.5274263134
 20
17.4491753348
 10
17.537320771
 20
17.4596706871
 10
17.5471126009
 20
17.4701231963
 10
17.5567832571
 20
17.4804953751
 10
17.5663252435
 20
17.4907623289
  0
LWPOLYLINE
  5
283
100
AcDbEntity
  8
0
100
AcDbPolyline
 62
6
  6
CONTINUOUS
 90
10
 70
0
 10
19.8965932294
 20
17.1577999058
 10
19.9101981122
 20
17.1579536688
 10
19.9255377454
 20
17.1584792885
 10
19.9412536489
 20
17.1593840214
 10
19.9574533099
 20
17.1606820559
 10
19.9742421623
 20
17.1623952786
 10
19.9917232529
 20
17.1645510316
 10
20.0100011893
 20
17.1671783415
 10
20.0291813188
 20
17.1703095874
 10
20.0389974835
 20
17.1720487899
  0
LINE
  5
284
100
AcDbEntity
  8
0
100
AcDbLine
 62
6
  6
CONTINUOUS
 10
16.1200380357
 20
16.7139340721
 11
15.3619771322
 21
16.7139340721
  0
LINE
  5
285
100
AcDbEntity
  8
0
100
AcDbLine
 62
6
  6
CONTINUOUS
 10
8.1200380357
 20
16.7139340721
 11
7.3619771322
 21
16.7139340721
  0
LWPOLYLINE
  5
286
100
AcDbEntity
  8
0
100
AcDbPolyline
 62
6
  6
CONTINUOUS
 90
11
 70
0
 10
4.0929043427
 20
17.1915011928
 10
4.0860820884
 20
17.1916532594
 10
4.0788386612
 20
17.1921407296
 10
4.0717289042
 20
17.1929340554
 10
4.0647348582
 20
17.1940058852
 10
4.0578430375
 20
17.1953308938
 10
4.0510544906
 20
17.1968822609
 10
4.0443827745
 20
17.1986307797
 10
4.0378304097
 20
17.2005506871
 10
4.0313186781
 20
17.2026451767
 10
4.0252473937
 20
17.2047609365
  0
LWPOLYLINE
  5
287
100
AcDbEntity
  8
0
100
AcDbPolyline
 62
6
  6
CONTINUOUS
 90
18
 70
0
 10
4.3931370911
 20
17.0661515871
 10
4.3889929239
 20
17.0662591665
 10
4.3846894683
 20
17.0666061619
 10
4.380503023
 20
17.0671759019
 10
4.3763351782
 20
17.0679665186
 10
4.3721381042
 20
17.0689762949
 10
4.3679030571
 20
17.0701987886
 10
4.3636416944
 20
17.0716212403
 10
4.3593814778
 20
17.0732228182
 10
4.3551172957
 20
17.074993402
 10
4.3507895138
 20
17.076950542
 10
4.3463572417
 20
17.0791116768
 10
4.3418153807
 20
17.0814809008
 10
4.3371525839
 20
17.0840666767
 10
4.3323412254
 20
17.0868888096
 10
4.3273481832
 20
17.0899740334
 10
4.3221358353
 20
17.0933560181
 10
4.3187541908
 20
17.0956541396
  0
LWPOLYLINE
  5
288
100
AcDbEntity
  8
0
100
AcDbPolyline
 62
6
  6
CONTINUOUS
 90
17
 70
0
 10
4.7109317652
 20
16.9895315642
 10
4.707235461
 20
16.9896448617
 10
4.7034312844
 20
16.9900006002
 10
4.6996913202
 20
16.9905833299
 10
4.6959466198
 20
16.9913893573
 10
4.6921527842
 20
16.9924202024
 10
4.6882929
 20
16.9936752194
 10
4.6843752535
 20
16.9951461445
 10
4.6804167173
 20
16.9968193391
 10
4.6763922914
 20
16.9986994047
 10
4.6722641614
 20
17.000802984
 10
4.668027055
 20
17.003135002
 10
4.6636833304
 20
17.0056969838
 10
4.6591986277
 20
17.0085142305
 10
4.6545122402
 20
17.0116355487
 10
4.6495548724
 20
17.0151251871
 10
4.6490427097
 20
17.0155053377
  0
LWPOLYLINE
  5
289
100
AcDbEntity
  8
0
100
AcDbPolyline
 62
6
  6
CONTINUOUS
 90
6
 70
0
 10
5.3634471937
 20
16.9898567752
 10
5.3596106444
 20
16.9899766074
 10
5.3557738063
 20
16.9903386921
 10
5.3521019952
 20
16.9909159808
 10
5.3484976347
 20
16.9917003725
 10
5.3482741272
 20
16.9917619846
  0
LWPOLYLINE
  5
28A
100
AcDbEntity
  8
0
100
AcDbPolyline
 62
6
  6
CONTINUOUS
 90
13
 70
0
 10
5.0370236009
 20
16.9641849394
 10
5.033332828
 20
16.9643073914
 10
5.0296417531
 20
16.9646798128
 10
5.0260767367
 20
16.9652759789
 10
5.0225424885
 20
16.9660889042
 10
5.0189759525
 20
16.9671209814
 10
5.0153451368
 20
16.9683752516
 10
5.0116362523
 20
16.9698529361
 10
5.0078351647
 20
16.971558138
 10
5.0039303064
 20
16.9734967531
 10
4.9999151565
 20
16.9756745114
 10
4.9958060921
 20
16.9780849438
 10
4.9936878032
 20
16.9794178068
  0
LWPOLYLINE
  5
28B
100
AcDbEntity
  8
0
100
AcDbPolyline
 62
6
  6
CONTINUOUS
 90
4
 70
0
 10
3.6188734511
 20
17.5821020619
 10
3.6178730865
 20
17.5821726514
 10
3.6011278009
 20
17.5828617614
 10
3.5854231617
 20
17.5830682384
  0
LWPOLYLINE
  5
28C
100
AcDbEntity
  8
0
100
AcDbPolyline
 62
6
  6
CONTINUOUS
 90
4
 70
0
 10
6.2849720976
 20
17.1191262683
 10
6.2902151352
 20
17.118725938
 10
6.3047215131
 20
17.1180834229
 10
6.3180248294
 20
17.1178964129
  0
LWPOLYLINE
  5
28D
100
AcDbEntity
  8
0
100
AcDbPolyline
 62
6
  6
CONTINUOUS
 90
4
 70
0
 10
3.9601130532
 20
17.6728265791
 10
3.9494366635
 20
17.67370593
 10
3.9365770471
 20
17.6743235711
 10
3.9247722424
 20
17.6745056362
  0
LWPOLYLINE
  5
28E
100
AcDbEntity
  8
0
100
AcDbPolyline
 62
6
  6
CONTINUOUS
 90
6
 70
0
 10
6.561007584
 20
17.5786238055
 10
6.5537915014
 20
17.5793990075
 10
6.5365299778
 20
17.5808591452
 10
6.5198306335
 20
17.5818776418
 10
6.5035612854
 20
17.5824716679
 10
6.4889313746
 20
17.5826488672
  0
LWPOLYLINE
  5
28F
100
AcDbEntity
  8
0
100
AcDbPolyline
 62
6
  6
CONTINUOUS
 90
5
 70
0
 10
5.9416747359
 20
17.0073003224
 10
5.9514851703
 20
17.0062195082
 10
5.9618182454
 20
17.0054200324
 10
5.972198946
 20
17.0049556153
 10
5.9813675508
 20
17.0048253498
  0
LWPOLYLINE
  5
290
100
AcDbEntity
  8
0
100
AcDbPolyline
 62
6
  6
CONTINUOUS
 90
14
 70
0
 10
17.1458786956
 20
17.5885169508
 10
17.1197006361
 20
17.5713300572
 10
17.1063928193
 20
17.5626327773
 10
17.0928484554
 20
17.5538403797
 10
17.0790846549
 20
17.5449914771
 10
17.0652682495
 20
17.5362203202
 10
17.051584511
 20
17.5276670498
 10
17.0382233012
 20
17.5194653402
 10
17.0253733799
 20
17.5117345121
 10
17.0132142781
 20
17.5045754896
 10
17.0016170027
 20
17.4979033006
 10
16.9901142277
 20
17.4914493523
 10
16.9784026942
 20
17.4850590863
 10
16.9687870643
 20
17.4799578339
  0
LWPOLYLINE
  5
291
100
AcDbEntity
  8
0
100
AcDbPolyline
 62
6
  6
CONTINUOUS
 90
37
 70
0
 10
3.4564971064
 20
17.1897959719
 10
3.4756677337
 20
17.1912555655
 10
3.4949620155
 20
17.1932381314
 10
3.5137896823
 20
17.1956873847
 10
3.5322354418
 20
17.1986000664
 10
3.5503801375
 20
17.2019816469
 10
3.568305087
 20
17.2058391277
 10
3.5860928938
 20
17.2101873711
 10
3.6037037989
 20
17.2150180627
 10
3.6208800984
 20
17.2202503859
 10
3.6373509598
 20
17.2257684574
 10
3.6529606242
 20
17.2314653534
 10
3.6683327339
 20
17.2375207444
 10
3.6836935038
 20
17.2440078016
 10
3.6989837417
 20
17.2508940935
 10
3.7142175324
 20
17.2581780511
 10
3.7294395109
 20
17.2658770652
 10
3.7446832543
 20
17.2740089495
 10
3.7599745164
 20
17.2825878929
 10
3.7752965982
 20
17.2915972837
 10
3.7905835661
 20
17.3009878126
 10
3.8057706808
 20
17.3107054583
 10
3.8207971295
 20
17.3206938633
 10
3.8356050025
 20
17.330894351
 10
3.8501395913
 20
17.3412418024
 10
3.864331184
 20
17.3516471167
 10
3.8780713708
 20
17.3619879766
 10
3.891248955
 20
17.3721359247
 10
3.90375887
 20
17.3819648482
 10
3.9156216695
 20
17.3914480222
 10
3.9270114649
 20
17.4006894881
 10
3.938107826
 20
17.4098099717
 10
3.949074321
 20
17.4189237661
 10
3.959954944
 20
17.428047274
 10
3.9707232888
 20
17.4371390304
 10
3.9813526589
 20
17.4461577374
 10
4.0122233473
 20
17.472448225
  0
LINE
  5
292
100
AcDbEntity
  8
0
100
AcDbLine
 62
9
  6
CONTINUOUS
 10
4.1501738406
 20
17.0091869877
 11
4.13365133
 21
17.0087280345
  0
LINE
  5
293
100
AcDbEntity
  8
0
100
AcDbLine
 62
9
  6
CONTINUOUS
 10
19.3318413273
 20
17.7316811565
 11
19.3483638379
 21
17.7321401096
  0
LWPOLYLINE
  5
294
100
AcDbEntity
  8
0
100
AcDbPolyline
 62
6
  6
CONTINUOUS
 90
47
 70
0
 10
18.444997359
 20
17.9641829433
 10
18.4356503015
 20
17.9639912884
 10
18.4257480912
 20
17.9633774621
 10
18.4157578361
 20
17.9623337389
 10
18.4056714111
 20
17.9608502822
 10
18.3954820176
 20
17.958914899
 10
18.3851872702
 20
17.9565139668
 10
18.3747917005
 20
17.9536340117
 10
18.3643006119
 20
17.9502610367
 10
18.3537171926
 20
17.9463795483
 10
18.3430344053
 20
17.941968555
 10
18.3322407219
 20
17.9370019681
 10
18.3213275869
 20
17.9314514765
 10
18.3103332195
 20
17.9253128371
 10
18.299320216
 20
17.9186037927
 10
18.2883420991
 20
17.9113481506
 10
18.2774289196
 20
17.9035635654
 10
18.266594829
 20
17.8952619179
 10
18.2558288029
 20
17.8864401198
 10
18.2451328721
 20
17.8771146574
 10
18.2344939881
 20
17.8672913634
 10
18.2238955313
 20
17.8569705333
 10
18.2133286157
 20
17.8461579746
 10
18.2028256926
 20
17.8349037855
 10
18.1924327923
 20
17.8232802983
 10
18.1821910754
 20
17.8113626804
 10
18.1721029428
 20
17.7991854055
 10
18.1621509045
 20
17.786757461
 10
18.1523184843
 20
17.7740856698
 10
18.1425910227
 20
17.7611761769
 10
18.1329584493
 20
17.748038825
 10
18.1234139641
 20
17.7346880341
 10
18.113949728
 20
17.7211386733
 10
18.1045597721
 20
17.7074072243
 10
18.095244188
 20
17.6935180791
 10
18.0860046045
 20
17.6794974636
 10
18.0768431013
 20
17.6653718838
 10
18.0677615504
 20
17.6511670674
 10
18.0587619935
 20
17.6369084734
 10
18.04984693
 20
17.6226217114
 10
18.0410210948
 20
17.6083354115
 10
18.0322927313
 20
17.5940833988
 10
18.0236591869
 20
17.5798810192
 10
18.0150934606
 20
17.5657021592
 10
18.0065685736
 20
17.5515195227
 10
17.9980668901
 20
17.5373209083
 10
17.9895769273
 20
17.5231038686
  0
LWPOLYLINE
  5
295
100
AcDbEntity
  8
0
100
AcDbPolyline
 62
6
  6
CONTINUOUS
 90
50
 70
0
 10
18.771083182
 20
17.9388369115
 10
18.762102978
 20
17.9386650385
 10
18.7520887215
 20
17.9380708784
 10
18.741998427
 20
17.9370460346
 10
18.7318288101
 20
17.9355823674
 10
18.721577872
 20
17.9336701724
 10
18.7112436354
 20
17.9312980035
 10
18.700822565
 20
17.928452086
 10
18.690313918
 20
17.9251173354
 10
18.6797333928
 20
17.921283144
 10
18.669099147
 20
17.9169411126
 10
18.6583981644
 20
17.9120696853
 10
18.6475968935
 20
17.9066324473
 10
18.6366613911
 20
17.9005845495
 10
18.6255689873
 20
17.89387956
 10
18.6143973783
 20
17.8865330724
 10
18.603269066
 20
17.8786093709
 10
18.5923042134
 20
17.8702013093
 10
18.5815166221
 20
17.8613453782
 10
18.5708424973
 20
17.8520157136
 10
18.5602241874
 20
17.8421795241
 10
18.5496090831
 20
17.8317975881
 10
18.538999368
 20
17.8208783451
 10
18.5284437309
 20
17.8094827935
 10
18.517990602
 20
17.7976819251
 10
18.5076801769
 20
17.7855465206
 10
18.4975216806
 20
17.7731162069
 10
18.487504181
 20
17.760405871
 10
18.4776049777
 20
17.7474122985
 10
18.467802804
 20
17.7341303726
 10
18.4580808212
 20
17.7205616352
 10
18.4484377533
 20
17.7067297883
 10
18.4388807695
 20
17.692670646
 10
18.429417693
 20
17.6784216084
 10
18.4200557958
 20
17.6640196752
 10
18.4107989857
 20
17.6494966936
 10
18.4016508861
 20
17.634883662
 10
18.3926156259
 20
17.6202118734
 10
18.3836915466
 20
17.6055024318
 10
18.3748598918
 20
17.5907465162
 10
18.366099292
 20
17.5759283616
 10
18.3573907388
 20
17.5610342144
 10
18.3487194592
 20
17.5460576121
 10
18.3400713194
 20
17.5309925797
 10
18.3314403224
 20
17.5158464943
 10
18.3228378266
 20
17.5006570762
 10
18.3142722788
 20
17.4854571378
 10
18.3057382439
 20
17.47025469
 10
18.2972401169
 20
17.4550748975
 10
18.2723680801
 20
17.4105679323
  0
LWPOLYLINE
  5
296
100
AcDbEntity
  8
0
100
AcDbPolyline
 62
6
  6
CONTINUOUS
 90
50
 70
0
 10
19.0888766376
 20
17.8622070646
 10
19.0796425465
 20
17.8620334099
 10
19.0693714851
 20
17.8614446252
 10
19.0590508704
 20
17.8604351113
 10
19.0486784216
 20
17.8589993006
 10
19.0382530659
 20
17.8571303098
 10
19.027773584
 20
17.8548197297
 10
19.0172373024
 20
17.852057103
 10
19.0066455599
 20
17.8488312854
 10
18.9960197715
 20
17.8451371501
 10
18.9853817844
 20
17.840971868
 10
18.9747043972
 20
17.8363124765
 10
18.9639326229
 20
17.8311154997
 10
18.9530137808
 20
17.8253266482
 10
18.941934865
 20
17.8189056394
 10
18.9307915736
 20
17.8118835271
 10
18.9197020432
 20
17.8043268301
 10
18.9087680817
 20
17.7963144706
 10
18.897984138
 20
17.7878618492
 10
18.8872945414
 20
17.778944313
 10
18.8766581966
 20
17.7695399204
 10
18.8660412469
 20
17.7596257261
 10
18.8554641546
 20
17.7492271414
 10
18.8449746963
 20
17.7384027619
 10
18.8346187231
 20
17.7272185132
 10
18.8243617069
 20
17.7156565741
 10
18.8140442477
 20
17.7035459576
 10
18.8037113527
 20
17.6909463405
 10
18.793433151
 20
17.6779594399
 10
18.7832759284
 20
17.6646945197
 10
18.7732655321
 20
17.6512163214
 10
18.7633932364
 20
17.6375443296
 10
18.7536501344
 20
17.6236955283
 10
18.7440290483
 20
17.6096872834
 10
18.7345320863
 20
17.5955490992
 10
18.7251670152
 20
17.5813185294
 10
18.7159411653
 20
17.5670323734
 10
18.7068435836
 20
17.5526981002
 10
18.6978466098
 20
17.5382940099
 10
18.6889227213
 20
17.5237953601
 10
18.6800510905
 20
17.5091883028
 10
18.6712228349
 20
17.4944784736
 10
18.6624307671
 20
17.4796733732
 10
18.6536713871
 20
17.4647860309
 10
18.6449582583
 20
17.4498583632
 10
18.636306516
 20
17.4349353358
 10
18.6277072492
 20
17.4200202055
 10
18.619150248
 20
17.4051131151
 10
18.6106983112
 20
17.3903412677
 10
18.6024437129
 20
17.375883857
  0
LWPOLYLINE
  5
297
100
AcDbEntity
  8
0
100
AcDbPolyline
 62
6
  6
CONTINUOUS
 90
51
 70
0
 10
4.5503548304
 20
17.9069200372
 10
4.5414672739
 20
17.9067570507
 10
4.53144016
 20
17.9061883196
 10
4.5213351924
 20
17.905206317
 10
4.5111441583
 20
17.903803427
 10
4.5008596425
 20
17.9019698373
 10
4.4904799407
 20
17.8996947734
 10
4.4800144266
 20
17.8969690834
 10
4.4694668557
 20
17.8937820941
 10
4.4588132624
 20
17.8901123464
 10
4.4480224977
 20
17.8859300059
 10
4.4370675015
 20
17.8812004311
 10
4.4259321094
 20
17.8758913534
 10
4.4145826529
 20
17.8699595318
 10
4.4030074132
 20
17.863368256
 10
4.3913511162
 20
17.8561788706
 10
4.3798080367
 20
17.8485149887
 10
4.3685586376
 20
17.8405274868
 10
4.3576655322
 20
17.8323096044
 10
4.3470285754
 20
17.8238344976
 10
4.3365537138
 20
17.8150630454
 10
4.3261499269
 20
17.8059430284
 10
4.3157650617
 20
17.7964443985
 10
4.3054071951
 20
17.7865881009
 10
4.2950916896
 20
17.7764045249
 10
4.2848355936
 20
17.7659322915
 10
4.2746509124
 20
17.7552089982
 10
4.2645489925
 20
17.7442729319
 10
4.2545419156
 20
17.7331642052
 10
4.2446414037
 20
17.7219232747
 10
4.2348561088
 20
17.7105874068
 10
4.2251948745
 20
17.6991939451
 10
4.2156673721
 20
17.6877808655
 10
4.2062758565
 20
17.6763765471
 10
4.1970109385
 20
17.6649938394
 10
4.1878625229
 20
17.6536429945
 10
4.1788129291
 20
17.6423231994
 10
4.1698365941
 20
17.6310223312
 10
4.1609082163
 20
17.6197274088
 10
4.1520192896
 20
17.6084457996
 10
4.143180053
 20
17.5972082793
 10
4.1344018985
 20
17.5860467698
 10
4.1256787963
 20
17.5749705758
 10
4.1169792281
 20
17.5639563886
 10
4.1083287482
 20
17.5530530341
 10
4.0998957144
 20
17.5424867138
 10
4.0918334699
 20
17.5324579627
 10
4.0841006444
 20
17.5229200057
 10
4.0765926486
 20
17.5137485853
 10
4.0692032953
 20
17.5048206799
 10
4.0620175582
 20
17.4962447343
  0
LWPOLYLINE
  5
298
100
AcDbEntity
  8
0
100
AcDbPolyline
 62
6
  6
CONTINUOUS
 90
43
 70
0
 10
18.1185645575
 20
17.9385027992
 10
18.1097174406
 20
17.9383416685
 10
18.0998209024
 20
17.9377723195
 10
18.0898277031
 20
17.9367821872
 10
18.079727207
 20
17.9353583457
 10
18.0695238763
 20
17.9334899701
 10
18.059205693
 20
17.9311630135
 10
18.0487607275
 20
17.92836017
 10
18.0381850057
 20
17.9250633864
 10
18.0274791704
 20
17.9212542604
 10
18.0166435781
 20
17.9169129853
 10
18.0056824662
 20
17.9120203016
 10
17.9946001623
 20
17.9065565693
 10
17.9833988007
 20
17.9005007154
 10
17.9720846209
 20
17.8938338371
 10
17.9607336271
 20
17.8865841153
 10
17.9494571502
 20
17.8788201823
 10
17.9383573497
 20
17.8706265535
 10
17.9274747015
 20
17.862060949
 10
17.9167471094
 20
17.8531098177
 10
17.9061026452
 20
17.8437411038
 10
17.8954727835
 20
17.8339131701
 10
17.8848387438
 20
17.8236222551
 10
17.8742458679
 20
17.8129283704
 10
17.8637433207
 20
17.8019037228
 10
17.8533779504
 20
17.7906258223
 10
17.8431677034
 20
17.7791457102
 10
17.8331104646
 20
17.7674925121
 10
17.8232047267
 20
17.7556947947
 10
17.8134472169
 20
17.7437776967
 10
17.8038136168
 20
17.7317383065
 10
17.7942700954
 20
17.7195579355
 10
17.7847874091
 20
17.7072218973
 10
17.775357971
 20
17.6947434167
 10
17.7659842886
 20
17.6821484989
 10
17.7566696154
 20
17.6694640026
 10
17.7474191574
 20
17.6567192815
 10
17.7382398811
 20
17.6439459472
 10
17.7291441025
 20
17.6311828858
 10
17.7201475095
 20
17.6184735215
 10
17.7112529377
 20
17.6058425696
 10
17.7024494919
 20
17.5932941848
 10
17.6764963345
 20
17.5561979286
  0
LWPOLYLINE
  5
299
100
AcDbEntity
  8
0
100
AcDbPolyline
 62
6
  6
CONTINUOUS
 90
50
 70
0
 10
5.5237036329
 20
17.9064015878
 10
5.514673165
 20
17.9062390644
 10
5.5045946051
 20
17.9056649634
 10
5.4945128927
 20
17.9046763712
 10
5.484400714
 20
17.9032676357
 10
5.4742320662
 20
17.90142764
 10
5.4639879291
 20
17.8991412178
 10
5.4536728867
 20
17.8963963801
 10
5.4432830923
 20
17.8931802262
 10
5.4328032314
 20
17.8894737445
 10
5.4222117323
 20
17.8852510377
 10
5.4114867895
 20
17.8804805543
 10
5.4006279266
 20
17.8751359507
 10
5.3896875854
 20
17.8692190091
 10
5.3787203367
 20
17.8627418469
 10
5.3677733884
 20
17.8557219332
 10
5.3568851988
 20
17.8481799432
 10
5.3460819477
 20
17.8401353443
 10
5.3353596308
 20
17.8315899851
 10
5.324706111
 20
17.822542082
 10
5.3140902378
 20
17.8129710993
 10
5.3034795255
 20
17.8028538333
 10
5.2928454032
 20
17.7921681842
 10
5.282222425
 20
17.7809553945
 10
5.271661902
 20
17.7692834225
 10
5.2612095459
 20
17.757224267
 10
5.250889851
 20
17.7448328352
 10
5.2407203459
 20
17.732159516
 10
5.2307187996
 20
17.7192576473
 10
5.2208919582
 20
17.7061679507
 10
5.2112125053
 20
17.6928839002
 10
5.2016478312
 20
17.6793862321
 10
5.1921666248
 20
17.6656520197
 10
5.1827491077
 20
17.6516723033
 10
5.1733949054
 20
17.6374692327
 10
5.1641057623
 20
17.6230686595
 10
5.1548839372
 20
17.6084971027
 10
5.1457333884
 20
17.5937836533
 10
5.1366613596
 20
17.5789627062
 10
5.1276732396
 20
17.5640656426
 10
5.1187691456
 20
17.549114692
 10
5.1099522916
 20
17.5341366071
 10
5.1012345134
 20
17.5191724369
 10
5.0926188117
 20
17.5042477283
 10
5.0840764812
 20
17.4893316513
 10
5.0755784479
 20
17.4743904525
 10
5.0671209446
 20
17.4594339078
 10
5.0587074634
 20
17.4444854244
 10
5.0503416433
 20
17.4295685906
 10
5.0420277747
 20
17.4147077978
  0
LWPOLYLINE
  5
29A
100
AcDbEntity
  8
0
100
AcDbPolyline
 62
6
  6
CONTINUOUS
 90
50
 70
0
 10
5.8318054361
 20
17.804168064
 10
5.8227239102
 20
17.8040068081
 10
5.8125035411
 20
17.8034467019
 10
5.8022188575
 20
17.802480611
 10
5.7918690654
 20
17.80110232
 10
5.7814545407
 20
17.7993046483
 10
5.7709751241
 20
17.7970791578
 10
5.760428626
 20
17.794415521
 10
5.7498197525
 20
17.7913038024
 10
5.7391700675
 20
17.7877393416
 10
5.728490084
 20
17.7837152037
 10
5.7177564987
 20
17.7792098966
 10
5.7069406255
 20
17.7741938038
 10
5.696014136
 20
17.7686307809
 10
5.6849884576
 20
17.7625007378
 10
5.6739484037
 20
17.7558301906
 10
5.662984358
 20
17.748665584
 10
5.6521741502
 20
17.7410675393
 10
5.6414721772
 20
17.7330212473
 10
5.6308104623
 20
17.7244888447
 10
5.6201391511
 20
17.7154359785
 10
5.6094262249
 20
17.7058355422
 10
5.5987154754
 20
17.6957281351
 10
5.5880701136
 20
17.6851827779
 10
5.5775500122
 20
17.6742769907
 10
5.567182715
 20
17.6630634653
 10
5.5569375758
 20
17.6515327176
 10
5.5467787177
 20
17.6396634401
 10
5.5366721316
 20
17.6274304201
 10
5.5266080926
 20
17.6148352242
 10
5.5166044592
 20
17.6019201144
 10
5.5066786076
 20
17.5887310579
 10
5.4968476534
 20
17.5753160918
 10
5.4871208687
 20
17.5617141364
 10
5.4775001301
 20
17.5479540223
 10
5.4679876023
 20
17.5340645044
 10
5.4585875802
 20
17.5200769785
 10
5.4493066572
 20
17.5060259197
 10
5.4401517117
 20
17.4919459155
 10
5.4311215951
 20
17.4778584947
 10
5.4222037389
 20
17.4637658212
 10
5.4133851396
 20
17.4496673673
 10
5.4046500535
 20
17.4355563819
 10
5.3959748692
 20
17.4214128365
 10
5.3873391728
 20
17.4072221305
 10
5.3787361733
 20
17.3929910825
 10
5.3701750255
 20
17.3787525611
 10
5.3617198159
 20
17.3646313084
 10
5.3534339626
 20
17.3507517748
 10
5.345285478
 20
17.3370779747
  0
LWPOLYLINE
  5
29B
100
AcDbEntity
  8
0
100
AcDbPolyline
 62
6
  6
CONTINUOUS
 90
32
 70
0
 10
17.8011200262
 20
17.8615878675
 10
17.792088367
 20
17.8614294847
 10
17.7820281322
 20
17.860877243
 10
17.7719175494
 20
17.8599265073
 10
17.7617411968
 20
17.8585715807
 10
17.751484249
 20
17.8568035403
 10
17.7411234726
 20
17.854608162
 10
17.7306086452
 20
17.8519593255
 10
17.719902268
 20
17.8488284531
 10
17.7090123132
 20
17.8451976431
 10
17.6979678337
 20
17.8410578325
 10
17.6867621375
 20
17.8363884845
 10
17.6753682516
 20
17.8311577154
 10
17.6637571868
 20
17.8253276765
 10
17.6519400167
 20
17.8188781408
 10
17.6401076868
 20
17.8119011532
 10
17.6284892758
 20
17.8045479342
 10
17.6172953656
 20
17.796996414
 10
17.6065286326
 20
17.7893063357
 10
17.5960196462
 20
17.7814060684
 10
17.5856119767
 20
17.7732081724
 10
17.5751698116
 20
17.7646222403
 10
17.564680915
 20
17.7556512225
 10
17.5542016688
 20
17.7463598548
 10
17.5437893476
 20
17.7368214356
 10
17.5334963884
 20
17.7271113357
 10
17.5233399098
 20
17.7172752693
 10
17.513323334
 20
17.7073459091
 10
17.5034511185
 20
17.6973561746
 10
17.4937283249
 20
17.687338768
 10
17.4841606357
 20
17.6773261178
 10
17.4749861967
 20
17.6675976116
  0
LWPOLYLINE
  5
29C
100
AcDbEntity
  8
0
100
AcDbPolyline
 62
6
  6
CONTINUOUS
 90
16
 70
0
 10
4.2424664536
 20
17.8049109608
 10
4.233968071
 20
17.8047689161
 10
4.2242888098
 20
17.8042743402
 10
4.2144997193
 20
17.8034192375
 10
4.204592415
 20
17.8021956577
 10
4.1945589979
 20
17.8005939877
 10
4.1843942395
 20
17.7986034501
 10
4.1740969123
 20
17.796212867
 10
4.1636660891
 20
17.793410289
 10
4.1531054644
 20
17.7901844359
 10
4.1424340576
 20
17.7865294351
 10
4.1316722777
 20
17.7824422023
 10
4.120838191
 20
17.7779212195
 10
4.109947826
 20
17.7729664179
 10
4.0990145502
 20
17.7675786752
 10
4.0883065576
 20
17.7619009322
  0
LWPOLYLINE
  5
29D
100
AcDbEntity
  8
0
100
AcDbPolyline
 62
6
  6
CONTINUOUS
 90
28
 70
0
 10
5.9813683605
 20
17.0048253499
 10
5.9918871701
 20
17.0049959503
 10
6.0036658689
 20
17.0055846813
 10
6.015597009
 20
17.0065994571
 10
6.0277185263
 20
17.0080516172
 10
6.0400690732
 20
17.0099579353
 10
6.0526827635
 20
17.0123395857
 10
6.0655813412
 20
17.0152189124
 10
6.0787849213
 20
17.018618063
 10
6.0923037875
 20
17.0225573864
 10
6.1061220429
 20
17.0270485885
 10
6.1202224028
 20
17.0320993358
 10
6.1345661308
 20
17.0377045506
 10
6.1490854114
 20
17.0438393577
 10
6.1637053214
 20
17.0504648514
 10
6.178273878
 20
17.0574923834
 10
6.1925976928
 20
17.064792026
 10
6.2064875009
 20
17.0722161039
 10
6.2198092618
 20
17.079630502
 10
6.2327144816
 20
17.0870615404
 10
6.2454748085
 20
17.0946245853
 10
6.2583134776
 20
17.1024250344
 10
6.271239934
 20
17.1104464306
 10
6.2842073365
 20
17.118636333
 10
6.297178956
 20
17.1269464487
 10
6.3101537453
 20
17.1353502796
 10
6.3231375784
 20
17.143825809
 10
6.3361364723
 20
17.1523511933
  0
LWPOLYLINE
  5
29E
100
AcDbEntity
  8
0
100
AcDbPolyline
 62
6
  6
CONTINUOUS
 90
28
 70
0
 10
17.5006468074
 20
17.7360427942
 10
17.4901279978
 20
17.7358721938
 10
17.478349299
 20
17.7352834628
 10
17.466418159
 20
17.734268687
 10
17.4542966416
 20
17.7328165269
 10
17.4419460947
 20
17.7309102088
 10
17.4293324044
 20
17.7285285585
 10
17.4164338267
 20
17.7256492317
 10
17.4032302466
 20
17.7222500811
 10
17.3897113804
 20
17.7183107577
 10
17.375893125
 20
17.7138195557
 10
17.3617927651
 20
17.7087688084
 10
17.3474490371
 20
17.7031635935
 10
17.3329297565
 20
17.6970287864
 10
17.3183098465
 20
17.6904032927
 10
17.3037412899
 20
17.6833757607
 10
17.2894174751
 20
17.6760761181
 10
17.275527667
 20
17.6686520402
 10
17.2622059061
 20
17.6612376421
 10
17.2493006863
 20
17.6538066037
 10
17.2365403594
 20
17.6462435588
 10
17.2237016903
 20
17.6384431097
 10
17.2107752339
 20
17.6304217135
 10
17.1978078315
 20
17.6222318111
 10
17.1848362119
 20
17.6139216954
 10
17.1718614226
 20
17.6055178645
 10
17.1588775895
 20
17.5970423351
 10
17.1458786956
 20
17.5885169508
  0
LWPOLYLINE
  5
29F
100
AcDbEntity
  8
0
100
AcDbPolyline
 62
6
  6
CONTINUOUS
 90
31
 70
0
 10
3.9247714407
 20
17.6745056361
 10
3.913287181
 20
17.6743347028
 10
3.9003462797
 20
17.6737417125
 10
3.8872132535
 20
17.6727192
 10
3.873826987
 20
17.6712543974
 10
3.8601250721
 20
17.6693270737
 10
3.8460504248
 20
17.666911598
 10
3.8315527114
 20
17.6639806479
 10
3.8166342995
 20
17.660516051
 10
3.8013298835
 20
17.6565107197
 10
3.7856722272
 20
17.6519630854
 10
3.7696797785
 20
17.6468727969
 10
3.7533567377
 20
17.6412389631
 10
3.7367203473
 20
17.635069208
 10
3.7200829393
 20
17.6284981583
 10
3.7040129957
 20
17.6218019979
 10
3.6890330275
 20
17.6152793506
 10
3.6749070949
 20
17.6089094257
 10
3.6608416687
 20
17.6023841466
 10
3.646498735
 20
17.5955715645
 10
3.6320314117
 20
17.5885671852
 10
3.6174884026
 20
17.5814215226
 10
3.6027721916
 20
17.5741141334
 10
3.5878574653
 20
17.5666602151
 10
3.5727319005
 20
17.5590827887
 10
3.557381188
 20
17.5514053313
 10
3.5417521171
 20
17.5436319604
 10
3.5256456986
 20
17.5356963079
 10
3.5088539892
 20
17.5275349067
 10
3.4916423676
 20
17.5193190489
 10
3.4763736119
 20
17.5121811658
  0
LWPOLYLINE
  5
2A0
100
AcDbEntity
  8
0
100
AcDbPolyline
 62
6
  6
CONTINUOUS
 90
24
 70
0
 10
6.1495030257
 20
17.6738348084
 10
6.1383261103
 20
17.6736724867
 10
6.1259377979
 20
17.6731066729
 10
6.1136365742
 20
17.6721373173
 10
6.1014026824
 20
17.6707647271
 10
6.08921492
 20
17.668988381
 10
6.0770588188
 20
17.6668059185
 10
6.0649352024
 20
17.6642156431
 10
6.0528485006
 20
17.6612159398
 10
6.0408082882
 20
17.6578063182
 10
6.0288218213
 20
17.6539858121
 10
6.0168833432
 20
17.649748621
 10
6.0049829764
 20
17.6450854138
 10
5.9930998051
 20
17.6399794686
 10
5.9811837181
 20
17.6343977595
 10
5.9691776753
 20
17.6282983315
 10
5.9571587591
 20
17.6217057751
 10
5.9453798767
 20
17.6147638503
 10
5.9339217541
 20
17.6075459679
 10
5.9226055503
 20
17.5999624953
 10
5.9113189942
 20
17.5919449076
 10
5.9000663285
 20
17.5834960979
 10
5.8888630815
 20
17.5746284555
 10
5.8780947403
 20
17.5656718808
  0
LWPOLYLINE
  5
2A1
100
AcDbEntity
  8
0
100
AcDbPolyline
 62
6
  6
CONTINUOUS
 90
36
 70
0
 10
3.7562522606
 20
17.1173474798
 10
3.7695601927
 20
17.1175370376
 10
3.7839661233
 20
17.1181784175
 10
3.7982300849
 20
17.1192694105
 10
3.8123879263
 20
17.1208064458
 10
3.8264752532
 20
17.1227902285
 10
3.8404867247
 20
17.1252193736
 10
3.8544014295
 20
17.1280895281
 10
3.868203993
 20
17.131396233
 10
3.8818926939
 20
17.1351381506
 10
3.8954696569
 20
17.1393161258
 10
3.9089700991
 20
17.143944313
 10
3.9224586501
 20
17.1490522572
 10
3.9359425123
 20
17.1546499585
 10
3.9493390497
 20
17.1607064997
 10
3.9625608741
 20
17.1671769464
 10
3.9755340225
 20
17.1740109176
 10
3.9882129656
 20
17.1811615749
 10
4.0006650873
 20
17.1886418628
 10
4.0130678671
 20
17.1965470739
 10
4.0255834078
 20
17.2049875441
 10
4.0382171505
 20
17.2139779795
 10
4.0508789924
 20
17.2234587416
 10
4.0634884154
 20
17.233364857
 10
4.0760044321
 20
17.2436531911
 10
4.0884067873
 20
17.2542933747
 10
4.1007140439
 20
17.2652880882
 10
4.1129495191
 20
17.2766476476
 10
4.1250981726
 20
17.2883478619
 10
4.1371340762
 20
17.300345735
 10
4.1490306373
 20
17.3125910061
 10
4.1607571374
 20
17.325026249
 10
4.1722885696
 20
17.3375975457
 10
4.1836170733
 20
17.3502686415
 10
4.1947379805
 20
17.3630073625
 10
4.2052839907
 20
17.3753532984
  0
LWPOLYLINE
  5
2A2
100
AcDbEntity
  8
0
100
AcDbPolyline
 62
6
  6
CONTINUOUS
 90
36
 70
0
 10
19.7257629073
 20
17.6235206643
 10
19.7124549752
 20
17.6233311066
 10
19.6980490446
 20
17.6226897266
 10
19.683785083
 20
17.6215987336
 10
19.6696272416
 20
17.6200616983
 10
19.6555399147
 20
17.6180779157
 10
19.6415284432
 20
17.6156487705
 10
19.6276137384
 20
17.612778616
 10
19.6138111749
 20
17.6094719111
 10
19.600122474
 20
17.6057299935
 10
19.586545511
 20
17.6015520183
 10
19.5730450689
 20
17.5969238311
 10
19.5595565178
 20
17.5918158869
 10
19.5460726556
 20
17.5862181856
 10
19.5326761182
 20
17.5801616444
 10
19.5194542938
 20
17.5736911977
 10
19.5064811454
 20
17.5668572265
 10
19.4938022023
 20
17.5597065692
 10
19.4813500806
 20
17.5522262813
 10
19.4689473008
 20
17.5443210702
 10
19.4564317602
 20
17.5358806001
 10
19.4437980174
 20
17.5268901646
 10
19.4311361756
 20
17.5174094025
 10
19.4185267525
 20
17.5075032871
 10
19.4060107358
 20
17.497214953
 10
19.3936083806
 20
17.4865747694
 10
19.3813011241
 20
17.4755800559
 10
19.3690656488
 20
17.4642204965
 10
19.3569169953
 20
17.4525202822
 10
19.3448810917
 20
17.4405224091
 10
19.3329845307
 20
17.428277138
 10
19.3212580305
 20
17.4158418951
 10
19.3097265984
 20
17.4032705984
 10
19.2983980946
 20
17.3905995026
 10
19.2872771874
 20
17.3778607816
 10
19.2767311773
 20
17.3655148457
  0
LWPOLYLINE
  5
2A3
100
AcDbEntity
  8
0
100
AcDbPolyline
 62
6
  6
CONTINUOUS
 90
7
 70
0
 10
4.0929016964
 20
17.004005075
 10
4.1016825366
 20
17.0041252849
 10
4.1115762151
 20
17.0045499117
 10
4.121429083
 20
17.0052796873
 10
4.1312337518
 20
17.0063126881
 10
4.1409808183
 20
17.007646109
 10
4.1501738406
 20
17.0091869877
  0
LWPOLYLINE
  5
2A4
100
AcDbEntity
  8
0
100
AcDbPolyline
 62
6
  6
CONTINUOUS
 90
16
 70
0
 10
6.3180259373
 20
17.1178964131
 10
6.3308377249
 20
17.1180712214
 10
6.3450727294
 20
17.1186585399
 10
6.359531337
 20
17.1196608183
 10
6.3742941027
 20
17.1210873823
 10
6.3894412544
 20
17.1229553404
 10
6.4050546321
 20
17.1252893885
 10
6.4212108278
 20
17.1281191383
 10
6.4379817752
 20
17.1314746948
 10
6.4554429414
 20
17.1353897575
 10
6.4736720845
 20
17.1399016084
 10
6.4926130155
 20
17.1450119931
 10
6.5117785563
 20
17.1505825765
 10
6.5306047183
 20
17.1564072975
 10
6.5486183488
 20
17.1622714804
 10
6.561007584
 20
17.1664692297
  0
LWPOLYLINE
  5
2A5
100
AcDbEntity
  8
0
100
AcDbPolyline
 62
6
  6
CONTINUOUS
 90
16
 70
0
 10
17.1639892306
 20
17.622971731
 10
17.151177443
 20
17.6227969227
 10
17.1369424385
 20
17.6222096042
 10
17.1224838309
 20
17.6212073258
 10
17.1077210653
 20
17.6197807618
 10
17.0925739135
 20
17.6179128037
 10
17.0769605359
 20
17.6155787556
 10
17.0608043401
 20
17.6127490058
 10
17.0440333927
 20
17.6093934493
 10
17.0265722266
 20
17.6054783866
 10
17.0083430834
 20
17.6009665357
 10
16.9894021524
 20
17.595856151
 10
16.9702366116
 20
17.5902855676
 10
16.9514104496
 20
17.5844608466
 10
16.9333968191
 20
17.5785966637
 10
16.921007584
 20
17.5743989144
  0
LWPOLYLINE
  5
2A6
100
AcDbEntity
  8
0
100
AcDbPolyline
 62
6
  6
CONTINUOUS
 90
7
 70
0
 10
19.3891134715
 20
17.7368630691
 10
19.3803326313
 20
17.7367428592
 10
19.3704389528
 20
17.7363182324
 10
19.3605860849
 20
17.7355884568
 10
19.3507814161
 20
17.7345554561
 10
19.3410343496
 20
17.7332220351
 10
19.3318413273
 20
17.7316811565
  0
LWPOLYLINE
  5
2A7
100
AcDbEntity
  8
0
100
AcDbPolyline
 62
6
  6
CONTINUOUS
 90
44
 70
0
 10
6.4889317387
 20
17.5826488672
 10
6.4732391611
 20
17.5824422011
 10
6.4564182327
 20
17.5817500201
 10
6.4399007863
 20
17.580587292
 10
6.4236557553
 20
17.5789673263
 10
6.4076541039
 20
17.5768990894
 10
6.3918691844
 20
17.5743874267
 10
6.3762753105
 20
17.57143302
 10
6.3608484653
 20
17.5680329511
 10
6.3455573428
 20
17.5641837481
 10
6.3303570163
 20
17.559877112
 10
6.3152020463
 20
17.5550974471
 10
6.3000807183
 20
17.5498340372
 10
6.2851766344
 20
17.5441509365
 10
6.2707304137
 20
17.5381604863
 10
6.2567675545
 20
17.5319071889
 10
6.2430472299
 20
17.5253110278
 10
6.2293629971
 20
17.5182877862
 10
6.2156797257
 20
17.5108250782
 10
6.202024972
 20
17.5029424445
 10
6.1883971599
 20
17.4946438775
 10
6.1747809505
 20
17.4859232272
 10
6.1611685128
 20
17.4767766389
 10
6.1475566212
 20
17.4672026702
 10
6.1339490853
 20
17.4572114334
 10
6.1204059589
 20
17.4468601327
 10
6.1070104774
 20
17.4362312241
 10
6.0938256151
 20
17.4253988137
 10
6.0808413946
 20
17.4143797874
 10
6.0680294813
 20
17.4031723899
 10
6.0553629819
 20
17.3917723173
 10
6.0428578903
 20
17.3802166345
 10
6.0305936864
 20
17.3686098262
 10
6.0186528221
 20
17.3570646776
 10
6.0071109716
 20
17.3456910194
 10
5.995975865
 20
17.3345320258
 10
5.9852102319
 20
17.3235823365
 10
5.9747720049
 20
17.3128272818
 10
5.9645917318
 20
17.30221862
 10
5.9545888545
 20
17.2916928093
 10
5.9446943969
 20
17.2811974571
 10
5.934902567
 20
17.2707449478
 10
5.9252319109
 20
17.260372769
 10
5.9156899244
 20
17.2501058152
  0
LWPOLYLINE
  5
2A8
100
AcDbEntity
  8
0
100
AcDbPolyline
 62
6
  6
CONTINUOUS
 90
10
 70
0
 10
3.5854219385
 20
17.5830682383
 10
3.5718170557
 20
17.5829144753
 10
3.5564774225
 20
17.5823888556
 10
3.540761519
 20
17.5814841228
 10
3.524561858
 20
17.5801860882
 10
3.5077730056
 20
17.5784728655
 10
3.4902919151
 20
17.5763171125
 10
3.4720139786
 20
17.5736898026
 10
3.4528338491
 20
17.5705585567
 10
3.4430176844
 20
17.5688193542
  0
LINE
  5
2A9
100
AcDbEntity
  8
0
100
AcDbLine
 62
6
  6
CONTINUOUS
 10
16.657007584
 20
17.1754340721
 11
15.741007584
 21
17.1754340721
  0
LINE
  5
2AA
100
AcDbEntity
  8
0
100
AcDbLine
 62
6
  6
CONTINUOUS
 10
6.825007584
 20
17.1754340721
 11
7.741007584
 21
17.1754340721
  0
LINE
  5
2AB
100
AcDbEntity
  8
0
100
AcDbLine
 62
6
  6
CONTINUOUS
 10
16.657007584
 20
17.5654340721
 11
15.741007584
 21
17.5654340721
  0
LINE
  5
2AC
100
AcDbEntity
  8
0
100
AcDbLine
 62
6
  6
CONTINUOUS
 10
6.825007584
 20
17.5654340721
 11
7.741007584
 21
17.5654340721
  0
LINE
  5
2AD
100
AcDbEntity
  8
0
100
AcDbLine
 62
6
  6
CONTINUOUS
 10
7.3619771322
 20
18.0269340721
 11
8.1200380357
 21
18.0269340721
  0
LINE
  5
2AE
100
AcDbEntity
  8
0
100
AcDbLine
 62
6
  6
CONTINUOUS
 10
15.3619771322
 20
18.0269340721
 11
16.1200380357
 21
18.0269340721
  0
LWPOLYLINE
  5
2AF
100
AcDbEntity
  8
0
100
AcDbPolyline
 62
6
  6
CONTINUOUS
 90
4
 70
0
 10
17.3324912772
 20
17.254528448
 10
17.3238579323
 20
17.254697451
 10
17.3147902572
 20
17.2552293772
 10
17.3085539434
 20
17.2558316788
  0
LWPOLYLINE
  5
2B0
100
AcDbEntity
  8
0
100
AcDbPolyline
 62
6
  6
CONTINUOUS
 90
4
 70
0
 10
6.1495238907
 20
17.4863396961
 10
6.1581572356
 20
17.4861706931
 10
6.1672249107
 20
17.4856387669
 10
6.1734612245
 20
17.4850364653
  0
LWPOLYLINE
  5
2B1
100
AcDbEntity
  8
0
100
AcDbPolyline
 62
6
  6
CONTINUOUS
 90
11
 70
0
 10
19.3891108252
 20
17.5493669513
 10
19.3959330795
 20
17.5492148847
 10
19.4031765068
 20
17.5487274146
 10
19.4102862637
 20
17.5479340887
 10
19.4172803097
 20
17.5468622589
 10
19.4241721304
 20
17.5455372503
 10
19.4309606773
 20
17.5439858832
 10
19.4376323934
 20
17.5422373644
 10
19.4441847582
 20
17.540317457
 10
19.4506964898
 20
17.5382229674
 10
19.4567677742
 20
17.5361072076
  0
LWPOLYLINE
  5
2B2
100
AcDbEntity
  8
0
100
AcDbPolyline
 62
6
  6
CONTINUOUS
 90
18
 70
0
 10
19.0888780768
 20
17.674716557
 10
19.093022244
 20
17.6746089776
 10
19.0973256996
 20
17.6742619822
 10
19.1015121449
 20
17.6736922422
 10
19.1056799897
 20
17.6729016255
 10
19.1098770637
 20
17.6718918492
 10
19.1141121109
 20
17.6706693555
 10
19.1183734736
 20
17.6692469038
 10
19.1226336901
 20
17.6676453259
 10
19.1268978722
 20
17.6658747421
 10
19.1312256541
 20
17.6639176021
 10
19.1356579263
 20
17.6617564673
 10
19.1401997872
 20
17.6593872433
 10
19.1448625841
 20
17.6568014674
 10
19.1496739425
 20
17.6539793345
 10
19.1546669847
 20
17.6508941107
 10
19.1598793326
 20
17.647512126
 10
19.1632609771
 20
17.6452140045
  0
LWPOLYLINE
  5
2B3
100
AcDbEntity
  8
0
100
AcDbPolyline
 62
6
  6
CONTINUOUS
 90
15
 70
0
 10
17.6501863721
 20
17.1241999783
 10
17.6454887034
 20
17.1243246335
 10
17.6408357529
 20
17.1246956325
 10
17.6363247474
 20
17.1252853627
 10
17.631904459
 20
17.1260754211
 10
17.6275368413
 20
17.1270532469
 10
17.6231970954
 20
17.1282089752
 10
17.6188711207
 20
17.129533497
 10
17.6145506724
 20
17.1310182076
 10
17.6102319617
 20
17.1326545728
 10
17.6059127772
 20
17.1344346391
 10
17.6015768932
 20
17.1363579291
 10
17.5971936198
 20
17.1384336546
 10
17.592727106
 20
17.1406776966
 10
17.5882991809
 20
17.1430244295
  0
LWPOLYLINE
  5
2B4
100
AcDbEntity
  8
0
100
AcDbPolyline
 62
6
  6
CONTINUOUS
 90
15
 70
0
 10
5.8318287958
 20
17.6166681658
 10
5.8365264645
 20
17.6165435106
 10
5.8411794151
 20
17.6161725116
 10
5.8456904205
 20
17.6155827814
 10
5.8501107089
 20
17.614792723
 10
5.8544783266
 20
17.6138148972
 10
5.8588180725
 20
17.6126591689
 10
5.8631440473
 20
17.6113346471
 10
5.8674644955
 20
17.6098499365
 10
5.8717832062
 20
17.6082135713
 10
5.8761023907
 20
17.606433505
 10
5.8804382747
 20
17.604510215
 10
5.8848215481
 20
17.6024344895
 10
5.889288062
 20
17.6001904475
 10
5.893715987
 20
17.5978437146
  0
LWPOLYLINE
  5
2B5
100
AcDbEntity
  8
0
100
AcDbPolyline
 62
6
  6
CONTINUOUS
 90
11
 70
0
 10
18.608497625
 20
16.9705079836
 10
18.6049304781
 20
16.9706149587
 10
18.6013553523
 20
16.9709423165
 10
18.5979253442
 20
16.9714682832
 10
18.5945573508
 20
16.972186059
 10
18.5911873717
 20
16.9730985299
 10
18.5877754896
 20
16.9742114108
 10
18.5843056486
 20
16.9755273904
 10
18.5807594896
 20
16.9770516836
 10
18.5771147144
 20
16.9787926059
 10
18.5770387709
 20
16.9788323461
  0
LWPOLYLINE
  5
2B6
100
AcDbEntity
  8
0
100
AcDbPolyline
 62
6
  6
CONTINUOUS
 90
11
 70
0
 10
4.8735175429
 20
17.7703601605
 10
4.8770846898
 20
17.7702531854
 10
4.8806598156
 20
17.7699258276
 10
4.8840898237
 20
17.7693998609
 10
4.8874578171
 20
17.7686820852
 10
4.8908277962
 20
17.7677696142
 10
4.8942396784
 20
17.7666567333
 10
4.8977095193
 20
17.7653407537
 10
4.9012556783
 20
17.7638164605
 10
4.9049004535
 20
17.7620755382
 10
4.904976397
 20
17.762035798
  0
LWPOLYLINE
  5
2B7
100
AcDbEntity
  8
0
100
AcDbPolyline
 62
6
  6
CONTINUOUS
 90
18
 70
0
 10
17.9583126868
 20
17.0219443229
 10
17.9541160033
 20
17.0220712405
 10
17.9498501856
 20
17.022457939
 10
17.9457091774
 20
17.023080015
 10
17.9416206782
 20
17.0239262884
 10
17.9375326666
 20
17.0249931995
 10
17.9334153358
 20
17.0262788817
 10
17.9292589314
 20
17.0277788013
 10
17.9250752551
 20
17.0294808873
 10
17.9208952394
 20
17.0313624992
 10
17.9167432986
 20
17.0334002923
 10
17.9125690271
 20
17.0356093077
 10
17.9082874806
 20
17.0380316216
 10
17.90385255
 20
17.0406972483
 10
17.8992985492
 20
17.0435902361
 10
17.8946420541
 20
17.0467022235
 10
17.8896900407
 20
17.0501730167
 10
17.8889379945
 20
17.0507253437
  0
LWPOLYLINE
  5
2B8
100
AcDbEntity
  8
0
100
AcDbPolyline
 62
6
  6
CONTINUOUS
 90
18
 70
0
 10
5.5237024811
 20
17.7189238212
 10
5.5278991646
 20
17.7187969036
 10
5.5321649823
 20
17.7184102051
 10
5.5363059905
 20
17.7177881291
 10
5.5403944898
 20
17.7169418557
 10
5.5444825013
 20
17.7158749446
 10
5.5485998321
 20
17.7145892624
 10
5.5527562365
 20
17.7130893428
 10
5.5569399128
 20
17.7113872568
 10
5.5611199285
 20
17.7095056449
 10
5.5652718693
 20
17.7074678518
 10
5.5694461408
 20
17.7052588364
 10
5.5737276873
 20
17.7028365225
 10
5.5781626179
 20
17.7001708958
 10
5.5827166187
 20
17.697277908
 10
5.5873731139
 20
17.6941659206
 10
5.5923251272
 20
17.6906951275
 10
5.5930771734
 20
17.6901428004
  0
LWPOLYLINE
  5
2B9
100
AcDbEntity
  8
0
100
AcDbPolyline
 62
6
  6
CONTINUOUS
 90
17
 70
0
 10
18.7710834027
 20
17.7513365799
 10
18.7747797069
 20
17.7512232824
 10
18.7785838835
 20
17.7508675439
 10
18.7823238477
 20
17.7502848142
 10
18.7860685481
 20
17.7494787868
 10
18.7898623837
 20
17.7484479417
 10
18.7937222679
 20
17.7471929247
 10
18.7976399144
 20
17.7457219996
 10
18.8015984506
 20
17.744048805
 10
18.8056228765
 20
17.7421687394
 10
18.8097510065
 20
17.7400651601
 10
18.8139881129
 20
17.7377331422
 10
18.8183318375
 20
17.7351711603
 10
18.8228165403
 20
17.7323539137
 10
18.8275029277
 20
17.7292325954
 10
18.8324602956
 20
17.725742957
 10
18.8329724582
 20
17.7253628064
  0
LWPOLYLINE
  5
2BA
100
AcDbEntity
  8
0
100
AcDbPolyline
 62
6
  6
CONTINUOUS
 90
16
 70
0
 10
18.2814180169
 20
16.9706396906
 10
18.2777829669
 20
16.9707515827
 10
18.2741097693
 20
16.97109431
 10
18.2705500847
 20
16.9716481782
 10
18.2670243034
 20
16.972407956
 10
18.2634744961
 20
16.9733767429
 10
18.2598683071
 20
16.9745588003
 10
18.2561977906
 20
16.9759537847
 10
18.2524737466
 20
16.9775538822
 10
18.2487065849
 20
16.9793494976
 10
18.2448936857
 20
16.9813352054
 10
18.2410098465
 20
16.9835193985
 10
18.2370005712
 20
16.985933894
 10
18.2328049707
 20
16.9886238078
 10
18.2283571624
 20
16.9916472554
 10
18.2278027562
 20
16.9920457254
  0
LWPOLYLINE
  5
2BB
100
AcDbEntity
  8
0
100
AcDbPolyline
 62
6
  6
CONTINUOUS
 90
16
 70
0
 10
5.2005971511
 20
17.7702284535
 10
5.2042322011
 20
17.7701165614
 10
5.2079053986
 20
17.7697738341
 10
5.2114650833
 20
17.7692199659
 10
5.2149908645
 20
17.7684601881
 10
5.2185406718
 20
17.7674914012
 10
5.2221468608
 20
17.7663093438
 10
5.2258173773
 20
17.7649143594
 10
5.2295414213
 20
17.7633142619
 10
5.2333085831
 20
17.7615186465
 10
5.2371214822
 20
17.7595329387
 10
5.2410053215
 20
17.7573487456
 10
5.2450145967
 20
17.7549342502
 10
5.2492101972
 20
17.7522443363
 10
5.2536580055
 20
17.7492208887
 10
5.2542124117
 20
17.7488224187
  0
LWPOLYLINE
  5
2BC
100
AcDbEntity
  8
0
100
AcDbPolyline
 62
6
  6
CONTINUOUS
 90
6
 70
0
 10
18.1185679742
 20
17.7510113689
 10
18.1224045235
 20
17.7508915367
 10
18.1262413617
 20
17.7505294521
 10
18.1299131727
 20
17.7499521633
 10
18.1335175332
 20
17.7491677716
 10
18.1337410407
 20
17.7491061595
  0
LWPOLYLINE
  5
2BD
100
AcDbEntity
  8
0
100
AcDbPolyline
 62
6
  6
CONTINUOUS
 90
13
 70
0
 10
18.4449915671
 20
17.7766832047
 10
18.4486823399
 20
17.7765607527
 10
18.4523734148
 20
17.7761883313
 10
18.4559384312
 20
17.7755921652
 10
18.4594726794
 20
17.7747792399
 10
18.4630392154
 20
17.7737471627
 10
18.4666700312
 20
17.7724928925
 10
18.4703789156
 20
17.771015208
 10
18.4741800032
 20
17.7693100061
 10
18.4780848616
 20
17.767371391
 10
18.4821000114
 20
17.7651936327
 10
18.4862090758
 20
17.7627832003
 10
18.4883273647
 20
17.7614503373
  0
LWPOLYLINE
  5
2BE
100
AcDbEntity
  8
0
100
AcDbPolyline
 62
6
  6
CONTINUOUS
 90
4
 70
0
 10
19.8631417168
 20
17.1587660822
 10
19.8641420814
 20
17.1586954927
 10
19.880887367
 20
17.1580063827
 10
19.8965920062
 20
17.1577999057
  0
LWPOLYLINE
  5
2BF
100
AcDbEntity
  8
0
100
AcDbPolyline
 62
6
  6
CONTINUOUS
 90
4
 70
0
 10
17.1970430703
 20
17.6217418759
 10
17.1918000327
 20
17.6221422062
 10
17.1772936548
 20
17.6227847212
 10
17.1639903385
 20
17.6229717312
  0
LWPOLYLINE
  5
2C0
100
AcDbEntity
  8
0
100
AcDbPolyline
 62
6
  6
CONTINUOUS
 90
4
 70
0
 10
19.5219021147
 20
17.068041565
 10
19.5325785044
 20
17.0671622141
 10
19.5454381209
 20
17.066544573
 10
19.5572429255
 20
17.0663625079
  0
LWPOLYLINE
  5
2C1
100
AcDbEntity
  8
0
100
AcDbPolyline
 62
6
  6
CONTINUOUS
 90
6
 70
0
 10
16.921007584
 20
17.1622443386
 10
16.9282236665
 20
17.1614691367
 10
16.9454851901
 20
17.1600089989
 10
16.9621845344
 20
17.1589905024
 10
16.9784538826
 20
17.1583964762
 10
16.9930837934
 20
17.1582192769
  0
LINE
  5
2C2
100
AcDbEntity
  8
0
100
AcDbLine
 62
6
  6
CONTINUOUS
 10
14.9829466805
 20
17.3704340721
 11
15.3619771322
 21
18.0269340721
  0
LWPOLYLINE
  5
2C3
100
AcDbEntity
  8
0
100
AcDbPolyline
 62
6
  6
CONTINUOUS
 90
25
 70
0
 10
17.6039231157
 20
17.1751985528
 10
17.6144293396
 20
17.184366865
 10
17.6252136954
 20
17.1942265342
 10
17.6359770762
 20
17.2045096682
 10
17.6466880723
 20
17.2151705862
 10
17.6573167691
 20
17.2261599125
 10
17.6678381463
 20
17.2374290235
 10
17.6782397633
 20
17.2489400382
 10
17.6885116734
 20
17.2606566873
 10
17.6986439567
 20
17.2725420305
 10
17.7086336675
 20
17.2845671411
 10
17.7184911113
 20
17.296720125
 10
17.7282273517
 20
17.3089915722
 10
17.7378529421
 20
17.3213694647
 10
17.7473780875
 20
17.3338412899
 10
17.7568113057
 20
17.3463939409
 10
17.766160326
 20
17.3590146383
 10
17.7754308608
 20
17.3716890513
 10
17.7845989878
 20
17.3843626677
 10
17.7936137668
 20
17.3969425804
 10
17.8024237053
 20
17.4093339869
 10
17.8109803014
 20
17.421446002
 10
17.8193133644
 20
17.4332997647
 10
17.8275280395
 20
17.4450272039
 10
17.8356880059
 20
17.4567041673
  0
LINE
  5
2C4
100
AcDbEntity
  8
0
100
AcDbLine
 62
9
  6
CONTINUOUS
 10
17.4828719439
 20
17.3182088426
 11
17.4828678886
 21
17.3182054001
  0
LWPOLYLINE
  5
2C5
100
AcDbEntity
  8
0
100
AcDbPolyline
 62
6
  6
CONTINUOUS
 90
22
 70
0
 10
17.482867888
 20
17.3182053995
 10
17.4765425215
 20
17.3129418027
 10
17.4692633257
 20
17.3071505808
 10
17.4615864051
 20
17.3013536651
 10
17.4537812502
 20
17.2957891542
 10
17.4461170087
 20
17.2906499691
 10
17.4388617371
 20
17.2860829008
 10
17.4322254723
 20
17.2821613061
 10
17.4259588246
 20
17.2786867429
 10
17.4197082638
 20
17.2754467637
 10
17.4132889072
 20
17.2723586889
 10
17.4066340295
 20
17.2694187744
 10
17.399681355
 20
17.266636013
 10
17.3924465966
 20
17.2640557523
 10
17.3849582757
 20
17.261724371
 10
17.3772703766
 20
17.2596878069
 10
17.3694592824
 20
17.2579832573
 10
17.3615992689
 20
17.2566293737
 10
17.3537763173
 20
17.2556288269
 10
17.3460990806
 20
17.2549686219
 10
17.3387003291
 20
17.2546181115
 10
17.3324953588
 20
17.2545284479
  0
LWPOLYLINE
  5
2C6
100
AcDbEntity
  8
0
100
AcDbPolyline
 62
6
  6
CONTINUOUS
 90
18
 70
0
 10
19.3937128417
 20
16.9789695341
 10
19.4073319634
 20
16.9866936541
 10
19.4206194816
 20
16.9946956916
 10
19.4332965276
 20
17.0027398365
 10
19.4455576276
 20
17.0108795678
 10
19.4575626219
 20
17.0191693774
 10
19.4694674982
 20
17.0276805132
 10
19.4814114814
 20
17.0364874103
 10
19.4933951358
 20
17.0455694461
 10
19.5053526659
 20
17.0548532621
 10
19.5172528052
 20
17.064288441
 10
19.5291201429
 20
17.0738682702
 10
19.5409774
 20
17.0835859448
 10
19.552806801
 20
17.0934017798
 10
19.5645788542
 20
17.1032655393
 10
19.5762940432
 20
17.1131518236
 10
19.5879656418
 20
17.1230467662
 10
19.6112225734
 20
17.142811557
  0
LINE
  5
2C7
100
AcDbEntity
  8
0
100
AcDbLine
 62
9
  6
CONTINUOUS
 10
19.3937086097
 20
16.9789672116
 11
19.3937128417
 21
16.9789695341
  0
LWPOLYLINE
  5
2C8
100
AcDbEntity
  8
0
100
AcDbPolyline
 62
6
  6
CONTINUOUS
 90
43
 70
0
 10
4.1501812612
 20
17.0091883439
 10
4.1602499412
 20
17.0112195771
 10
4.1707429238
 20
17.0137416568
 10
4.1813354832
 20
17.0167082304
 10
4.1920101772
 20
17.0201275242
 10
4.2027521301
 20
17.0240072658
 10
4.2135760467
 20
17.0283665566
 10
4.2245205671
 20
17.0332394166
 10
4.2356243609
 20
17.0386679231
 10
4.246891669
 20
17.0446834275
 10
4.2581722599
 20
17.0512264284
 10
4.2692837218
 20
17.0581893146
 10
4.2800754961
 20
17.0654524249
 10
4.2906181794
 20
17.0730296534
 10
4.3010841295
 20
17.0810247975
 10
4.3116325284
 20
17.0895619097
 10
4.3223426181
 20
17.0987238616
 10
4.333149978
 20
17.1084701589
 10
4.3439881459
 20
17.1187412211
 10
4.3547978063
 20
17.1294715793
 10
4.3655450339
 20
17.1406114494
 10
4.3762108155
 20
17.1521212494
 10
4.3867746988
 20
17.163956467
 10
4.3972055604
 20
17.1760568191
 10
4.4074696387
 20
17.1883544086
 10
4.4175537327
 20
17.200802877
 10
4.4274905174
 20
17.2134140617
 10
4.4373173067
 20
17.2262112937
 10
4.4470547224
 20
17.2392008102
 10
4.456702745
 20
17.2523607076
 10
4.4662606194
 20
17.2656647881
 10
4.475727761
 20
17.2790873454
 10
4.4851067814
 20
17.2926079342
 10
4.4944016093
 20
17.3062089908
 10
4.503615707
 20
17.3198732808
 10
4.5127489209
 20
17.3335790604
 10
4.5217821494
 20
17.3472764076
 10
4.5306895497
 20
17.3609047938
 10
4.5394460335
 20
17.3744047006
 10
4.5480468852
 20
17.3877486669
 10
4.5565100389
 20
17.4009459521
 10
4.5648535333
 20
17.4140074136
 10
4.5730960783
 20
17.4269454069
  0
LINE
  5
2C9
100
AcDbEntity
  8
0
100
AcDbLine
 62
9
  6
CONTINUOUS
 10
4.1501812622
 20
17.0091883441
 11
4.1501738406
 21
17.0091869877
  0
LINE
  5
2CA
100
AcDbEntity
  8
0
100
AcDbLine
 62
9
  6
CONTINUOUS
 10
4.1172284375
 20
17.1936189113
 11
4.1172430851
 21
17.1936215573
  0
LWPOLYLINE
  5
2CB
100
AcDbEntity
  8
0
100
AcDbPolyline
 62
6
  6
CONTINUOUS
 90
5
 70
0
 10
4.1172284375
 20
17.1936189113
 10
4.1108375973
 20
17.1926286945
 10
4.1044577708
 20
17.19195918
 10
4.0982973084
 20
17.1915988813
 10
4.0929069554
 20
17.1915011928
  0
LWPOLYLINE
  5
2CC
100
AcDbEntity
  8
0
100
AcDbPolyline
 62
6
  6
CONTINUOUS
 90
45
 70
0
 10
4.8735160744
 20
17.9578400915
 10
4.8645298992
 20
17.9576693299
 10
4.8544475542
 20
17.95707186
 10
4.8443165469
 20
17.9560415549
 10
4.8341292934
 20
17.9545722532
 10
4.8238800709
 20
17.9526555895
 10
4.8135639736
 20
17.9502809981
 10
4.8031764084
 20
17.9474356093
 10
4.7927031745
 20
17.9441008111
 10
4.7821209579
 20
17.9402502275
 10
4.77142142
 20
17.9358602342
 10
4.7605857679
 20
17.9309015045
 10
4.7496058991
 20
17.9253456968
 10
4.7384731569
 20
17.9191615287
 10
4.7271762518
 20
17.9123135141
 10
4.7157642568
 20
17.9048046222
 10
4.7044017919
 20
17.8967332699
 10
4.6932517103
 20
17.8882318723
 10
4.6824021571
 20
17.8794065957
 10
4.6717805063
 20
17.8702417857
 10
4.6612705497
 20
17.8606664835
 10
4.6507624886
 20
17.8505937127
 10
4.6402197155
 20
17.8399915234
 10
4.6296858372
 20
17.8289092979
 10
4.6192057897
 20
17.8174121307
 10
4.608814674
 20
17.8055637559
 10
4.5985244206
 20
17.793406157
 10
4.5883378222
 20
17.7809717232
 10
4.5782585725
 20
17.7682940482
 10
4.5682931809
 20
17.7554104301
 10
4.5584532926
 20
17.742365265
 10
4.548752009
 20
17.7292055483
 10
4.5392025673
 20
17.7159789172
 10
4.529799713
 20
17.7027068156
 10
4.520518188
 20
17.6893798428
 10
4.511332306
 20
17.6759844603
 10
4.5022174274
 20
17.6625057042
 10
4.4931585006
 20
17.6489420671
 10
4.4841479231
 20
17.6353032007
 10
4.4751785942
 20
17.6215986908
 10
4.4662467543
 20
17.6078425701
 10
4.4573599188
 20
17.5940659356
 10
4.4485284652
 20
17.580304273
 10
4.4397631035
 20
17.5665934004
 10
4.4139187107
 20
17.5260348744
  0
LWPOLYLINE
  5
2CD
100
AcDbEntity
  8
0
100
AcDbPolyline
 62
6
  6
CONTINUOUS
 90
49
 70
0
 10
5.2005979777
 20
17.9577163925
 10
5.1917332181
 20
17.9575509343
 10
5.1817852958
 20
17.9569681652
 10
5.1718047541
 20
17.9559626695
 10
5.161789887
 20
17.9545301624
 10
5.1517400191
 20
17.9526650052
 10
5.1416450621
 20
17.950357697
 10
5.1314693741
 20
17.9475879539
 10
5.1211921259
 20
17.9443333804
 10
5.1108093419
 20
17.9405754869
 10
5.1003122362
 20
17.9362920557
 10
5.0896806824
 20
17.931452315
 10
5.0788849649
 20
17.9260150879
 10
5.0679044061
 20
17.9199370312
 10
5.0568148765
 20
17.9132299622
 10
5.0457398703
 20
17.9059530542
 10
5.0347755551
 20
17.8981713923
 10
5.0239575727
 20
17.8899233389
 10
5.013281274
 20
17.8812229689
 10
5.0027517299
 20
17.8720963416
 10
4.9923540183
 20
17.862552573
 10
4.9820194601
 20
17.8525444504
 10
4.9716779096
 20
17.8420096672
 10
4.9612726274
 20
17.8308873411
 10
4.9508538252
 20
17.8192331738
 10
4.9405209891
 20
17.8071756974
 10
4.9303149312
 20
17.7947903917
 10
4.920237964
 20
17.7821107526
 10
4.9102925892
 20
17.7691704814
 10
4.900480539
 20
17.7560020577
 10
4.8907964649
 20
17.7426276102
 10
4.8812336282
 20
17.7290656896
 10
4.871786176
 20
17.7153344082
 10
4.8624470126
 20
17.7014484505
 10
4.8532031977
 20
17.687411883
 10
4.8440416279
 20
17.6732270924
 10
4.8349493614
 20
17.658897438
 10
4.8259167803
 20
17.6444302979
 10
4.8169411915
 20
17.6298429512
 10
4.8080210359
 20
17.6151538593
 10
4.7991551778
 20
17.6003816089
 10
4.7903463882
 20
17.5855508503
 10
4.7816031432
 20
17.5706956529
 10
4.7729338591
 20
17.5558498843
 10
4.7643457539
 20
17.5410450618
 10
4.7558414927
 20
17.5263043068
 10
4.7474115115
 20
17.5116286702
 10
4.739044717
 20
17.4970155108
 10
4.730731688
 20
17.4824643525
  0
LWPOLYLINE
  5
2CE
100
AcDbEntity
  8
0
100
AcDbPolyline
 62
6
  6
CONTINUOUS
 90
5
 70
0
 10
17.540340432
 20
17.7335678217
 10
17.5305299977
 20
17.7346486359
 10
17.5201969225
 20
17.7354481117
 10
17.509816222
 20
17.7359125288
 10
17.5006476171
 20
17.7360427943
  0
LINE
  5
2CF
100
AcDbEntity
  8
0
100
AcDbLine
 62
6
  6
CONTINUOUS
 10
20.0312888121
 20
17.5502578157
 11
20.0255156896
 21
17.5510700706
  0
LINE
  5
2D0
100
AcDbEntity
  8
0
100
AcDbLine
 62
6
  6
CONTINUOUS
 10
16.3864851849
 20
17.1754340721
 11
16.1200380357
 21
16.7139340721
  0
LWPOLYLINE
  5
2D1
100
AcDbEntity
  8
0
100
AcDbPolyline
 62
6
  6
CONTINUOUS
 90
4
 70
0
 10
17.5663252435
 20
17.4907623289
 10
17.5941727739
 20
17.5207724464
 10
17.6031944748
 20
17.5304653914
 10
17.6117769746
 20
17.5396532198
  0
LWPOLYLINE
  5
2D2
100
AcDbEntity
  8
0
100
AcDbPolyline
 62
6
  6
CONTINUOUS
 90
29
 70
0
 10
17.4337007703
 20
17.6232897871
 10
17.4232968051
 20
17.6121160283
 10
17.4129120542
 20
17.6009968288
 10
17.4025553359
 20
17.5899601641
 10
17.3922349114
 20
17.5790330571
 10
17.3819470581
 20
17.5682295098
 10
17.3716808178
 20
17.5575555819
 10
17.3614503945
 20
17.547040421
 10
17.3513696464
 20
17.5368112285
 10
17.3415829986
 20
17.5270186892
 10
17.3321481934
 20
17.517719829
 10
17.3229013286
 20
17.5087533751
 10
17.313680074
 20
17.4999688361
 10
17.3044799951
 20
17.4913727743
 10
17.2953367757
 20
17.4830083621
 10
17.2862450118
 20
17.4748786979
 10
17.2771749305
 20
17.46696365
 10
17.2681092969
 20
17.4592555669
 10
17.2590488468
 20
17.4517629706
 10
17.249990626
 20
17.4444913525
 10
17.2409131613
 20
17.4374322671
 10
17.2317898785
 20
17.430575686
 10
17.222591822
 20
17.4239128049
 10
17.2132745918
 20
17.4174276837
 10
17.2037809669
 20
17.4111000283
 10
17.1940529288
 20
17.4049141788
 10
17.1840592519
 20
17.398877622
 10
17.1738073685
 20
17.3930236284
 10
17.16511366
 20
17.388329878
  0
LWPOLYLINE
  5
2D3
100
AcDbEntity
  8
0
100
AcDbPolyline
 62
6
  6
CONTINUOUS
 90
4
 70
0
 10
17.4749857066
 20
17.6675970889
 10
17.4649441076
 20
17.6568611132
 10
17.4545329863
 20
17.6456902472
 10
17.4337007703
 20
17.6232897871
  0
LWPOLYLINE
  5
2D4
100
AcDbEntity
  8
0
100
AcDbPolyline
 62
6
  6
CONTINUOUS
 90
23
 70
0
 10
17.6117776505
 20
17.5396539418
 10
17.6188977742
 20
17.5472216786
 10
17.6261873026
 20
17.554880947
 10
17.6334228669
 20
17.562383894
 10
17.640593774
 20
17.5697106967
 10
17.6476893919
 20
17.5768425182
 10
17.654699503
 20
17.5837619906
 10
17.6616198573
 20
17.5904586259
 10
17.6684506856
 20
17.5969269107
 10
17.6751880131
 20
17.6031579038
 10
17.6818029174
 20
17.6091212753
 10
17.6882697551
 20
17.6147928695
 10
17.6946635564
 20
17.6202362169
 10
17.7010953906
 20
17.6255365294
 10
17.7075328252
 20
17.6306541098
 10
17.7138542591
 20
17.6354869353
 10
17.7199388834
 20
17.6399504464
 10
17.7256900621
 20
17.6439922875
 10
17.7311099971
 20
17.6476367587
 10
17.7362538862
 20
17.6509398571
 10
17.7411868826
 20
17.6539569651
 10
17.7459452807
 20
17.6567195363
 10
17.7483951962
 20
17.6580640087
  0
LWPOLYLINE
  5
2D5
100
AcDbEntity
  8
0
100
AcDbPolyline
 62
6
  6
CONTINUOUS
 90
9
 70
0
 10
19.1677545922
 20
16.9458553784
 10
19.1680411051
 20
16.9457707071
 10
19.1785571422
 20
16.9430931989
 10
19.1889892985
 20
16.9408581248
 10
19.1993305516
 20
16.9390551918
 10
19.2095919239
 20
16.9376722213
 10
19.2197930393
 20
16.9366993014
 10
19.2299403995
 20
16.9361302742
 10
19.2395484936
 20
16.9359571832
  0
LWPOLYLINE
  5
2D6
100
AcDbEntity
  8
0
100
AcDbPolyline
 62
6
  6
CONTINUOUS
 90
23
 70
0
 10
17.0265728385
 20
17.1591868217
 10
17.0294182057
 20
17.1577824551
 10
17.0436165152
 20
17.1508543743
 10
17.0577457118
 20
17.1440658592
 10
17.07185103
 20
17.1374217562
 10
17.0858545231
 20
17.1309847668
 10
17.0999154591
 20
17.1247087256
 10
17.1147314863
 20
17.1183292566
 10
17.1307461818
 20
17.1117361986
 10
17.1474246745
 20
17.1052361311
 10
17.1640574374
 20
17.0991587339
 10
17.1801790962
 20
17.0936831874
 10
17.1958321711
 20
17.08878299
 10
17.2111192346
 20
17.0844162142
 10
17.2260958421
 20
17.080561069
 10
17.2407199892
 20
17.0772209788
 10
17.2549356533
 20
17.0743952653
 10
17.2687106876
 20
17.0720702886
 10
17.2821388933
 20
17.0702092048
 10
17.2953388549
 20
17.0687830108
 10
17.3083421849
 20
17.0677820846
 10
17.321141069
 20
17.0672015423
 10
17.332511216
 20
17.0670333358
  0
LWPOLYLINE
  5
2D7
100
AcDbEntity
  8
0
100
AcDbPolyline
 62
6
  6
CONTINUOUS
 90
15
 70
0
 10
17.4985330539
 20
16.9784676841
 10
17.5098711838
 20
16.9725576621
 10
17.5214295123
 20
16.9669882436
 10
17.5329152984
 20
16.9619106292
 10
17.5443140383
 20
16.9573230198
 10
17.5556081404
 20
16.9532225336
 10
17.5667774457
 20
16.9496046906
 10
17.57779949
 20
16.9464630535
 10
17.5886619789
 20
16.9437861111
 10
17.5993663242
 20
16.9415586637
 10
17.6099147478
 20
16.9397664069
 10
17.6203130042
 20
16.9383957435
 10
17.6305707048
 20
16.9374343733
 10
17.640698319
 20
16.9368720664
 10
17.6502104228
 20
16.9367000803
  0
LINE
  5
2D8
100
AcDbEntity
  8
0
100
AcDbLine
 62
9
  6
CONTINUOUS
 10
17.4985284793
 20
16.978470158
 11
17.4985330539
 21
16.9784676841
  0
LINE
  5
2D9
100
AcDbEntity
  8
0
100
AcDbLine
 62
9
  6
CONTINUOUS
 10
17.5882991809
 20
17.1430244295
 11
17.5882907067
 21
17.1430290321
  0
LWPOLYLINE
  5
2DA
100
AcDbEntity
  8
0
100
AcDbPolyline
 62
6
  6
CONTINUOUS
 90
4
 70
0
 10
17.588290705
 20
17.143029033
 10
17.5830552139
 20
17.1459264409
 10
17.5768825295
 20
17.14947746
 10
17.573851016
 20
17.1512919785
  0
LINE
  5
2DB
100
AcDbEntity
  8
0
100
AcDbLine
 62
6
  6
CONTINUOUS
 10
15.3619771322
 20
16.7139340721
 11
14.9829466805
 21
17.3704340721
  0
LINE
  5
2DC
100
AcDbEntity
  8
0
100
AcDbLine
 62
9
  6
CONTINUOUS
 10
16.191007584
 20
17.1754340721
 11
16.191007584
 21
17.5654340721
  0
LWPOLYLINE
  5
2DD
100
AcDbEntity
  8
0
100
AcDbPolyline
 62
6
  6
CONTINUOUS
 90
51
 70
0
 10
18.1448056453
 20
17.4173511938
 10
18.1528325675
 20
17.4308240499
 10
18.1608064107
 20
17.4441876178
 10
18.1687225336
 20
17.4574203075
 10
18.1765771852
 20
17.4705026143
 10
18.1843746263
 20
17.4834289501
 10
18.1921229136
 20
17.4962005687
 10
18.199829879
 20
17.5088185816
 10
18.2075010983
 20
17.5212804017
 10
18.2151311539
 20
17.5335657745
 10
18.2227109132
 20
17.5456491419
 10
18.2302312748
 20
17.5575059284
 10
18.237684583
 20
17.5691148565
 10
18.2450639691
 20
17.5804569088
 10
18.2523623932
 20
17.591513891
 10
18.2595713725
 20
17.6022666481
 10
18.2666805244
 20
17.6126946553
 10
18.2736792614
 20
17.6227787731
 10
18.2805661683
 20
17.6325144971
 10
18.2873758067
 20
17.6419474593
 10
18.2941445636
 20
17.6511226631
 10
18.3008668721
 20
17.6600274978
 10
18.3075232389
 20
17.6686326333
 10
18.3141047308
 20
17.6769245022
 10
18.3206072336
 20
17.6848967141
 10
18.3270240922
 20
17.69254063
 10
18.3333467825
 20
17.6998465982
 10
18.3395697859
 20
17.706809696
 10
18.345691175
 20
17.7134298285
 10
18.351708863
 20
17.719707212
 10
18.3576202557
 20
17.7256420474
 10
18.363419856
 20
17.7312323496
 10
18.3690994631
 20
17.7364747158
 10
18.3746507898
 20
17.7413671596
 10
18.3800626832
 20
17.7459068921
 10
18.3852729202
 20
17.7500537759
 10
18.3901577133
 20
17.7537344953
 10
18.394713043
 20
17.7569786607
 10
18.3990588999
 20
17.7598964812
 10
18.4032793149
 20
17.7625563546
 10
18.4073940742
 20
17.7649760029
 10
18.411411469
 20
17.7671632685
 10
18.4153360973
 20
17.769122148
 10
18.4191718917
 20
17.7708548173
 10
18.4229237358
 20
17.7723623868
 10
18.426600528
 20
17.7736458134
 10
18.4302142166
 20
17.7747050233
 10
18.4337944618
 20
17.7755419732
 10
18.4374024588
 20
17.7761585523
 10
18.4411329145
 20
17.7765478191
 10
18.4449952568
 20
17.7766832055
  0
LWPOLYLINE
  5
2DE
100
AcDbEntity
  8
0
100
AcDbPolyline
 62
6
  6
CONTINUOUS
 90
52
 70
0
 10
17.9895769273
 20
17.5231038686
 10
17.96434123
 20
17.4807823132
 10
17.9560865063
 20
17.4669710479
 10
17.9479537641
 20
17.4534050175
 10
17.9399564278
 20
17.4401197162
 10
17.932071052
 20
17.427088208
 10
17.9242680095
 20
17.4142731719
 10
17.9165179537
 20
17.4016382229
 10
17.9088039625
 20
17.389167784
 10
17.9011250445
 20
17.3768710054
 10
17.8934814812
 20
17.3647582703
 10
17.8858739673
 20
17.3528403951
 10
17.8783077452
 20
17.3411349538
 10
17.8707924312
 20
17.3296655269
 10
17.8633376605
 20
17.3184546426
 10
17.8559526521
 20
17.3075230244
 10
17.848646754
 20
17.2968903227
 10
17.8414291938
 20
17.2865746516
 10
17.8343090631
 20
17.276592496
 10
17.8272941821
 20
17.2669571082
 10
17.8203921575
 20
17.2576800363
 10
17.8136102182
 20
17.2487708943
 10
17.806952608
 20
17.2402340821
 10
17.8003891515
 20
17.2320304721
 10
17.7938670289
 20
17.2240968708
 10
17.7873662732
 20
17.216413007
 10
17.7809124593
 20
17.2090121598
 10
17.7745267839
 20
17.2019192528
 10
17.7682092878
 20
17.1951337849
 10
17.7619569247
 20
17.1886520759
 10
17.7557711907
 20
17.182475346
 10
17.7496556538
 20
17.1766065399
 10
17.7436106318
 20
17.1710451276
 10
17.7376338793
 20
17.1657883459
 10
17.7317272519
 20
17.1608371955
 10
17.7259000008
 20
17.1561981574
 10
17.7202541512
 20
17.1519440663
 10
17.7150491496
 20
17.1482391416
 10
17.7103885686
 20
17.1451061783
 10
17.7059373894
 20
17.1422848751
 10
17.7014237505
 20
17.1396015065
 10
17.6968846351
 20
17.1370901639
 10
17.6923842381
 20
17.1347933165
 10
17.6879205291
 20
17.1327136602
 10
17.6834776599
 20
17.1308492578
 10
17.6790349864
 20
17.1291997876
 10
17.6745680842
 20
17.1277678219
 10
17.6700432125
 20
17.126557993
 10
17.6654028439
 20
17.1255760592
 10
17.6605617366
 20
17.1248343113
 10
17.6554106069
 20
17.1243595245
 10
17.6501832305
 20
17.1241999773
  0
LWPOLYLINE
  5
2DF
100
AcDbEntity
  8
0
100
AcDbPolyline
 62
6
  6
CONTINUOUS
 90
46
 70
0
 10
17.8356880059
 20
17.4567041673
 10
17.8598288926
 20
17.4912735651
 10
17.8677946443
 20
17.5026405255
 10
17.875716384
 20
17.5139012174
 10
17.8835753773
 20
17.5250157091
 10
17.8913622932
 20
17.5359582805
 10
17.8990724005
 20
17.5467105231
 10
17.9067008694
 20
17.5572547182
 10
17.9142421223
 20
17.5675730227
 10
17.9216862903
 20
17.5776428255
 10
17.9290217557
 20
17.5874405667
 10
17.9362447027
 20
17.5969545129
 10
17.9433773638
 20
17.606207568
 10
17.9504469806
 20
17.615227884
 10
17.9574712213
 20
17.6240308374
 10
17.9644450095
 20
17.6326035515
 10
17.9713601882
 20
17.6409301245
 10
17.9782086508
 20
17.6489957069
 10
17.9849823764
 20
17.6567866114
 10
17.9916726007
 20
17.6642894551
 10
17.998269377
 20
17.6714908676
 10
18.0047657045
 20
17.6783820613
 10
18.0111612526
 20
17.6849622032
 10
18.0174561982
 20
17.6912313092
 10
18.0236502366
 20
17.6971891951
 10
18.0297366413
 20
17.7028301304
 10
18.0356957207
 20
17.7081382765
 10
18.0415069458
 20
17.7131002735
 10
18.0471485379
 20
17.7177052064
 10
18.0525918353
 20
17.7219406872
 10
18.0577920499
 20
17.7257879417
 10
18.0627031199
 20
17.7292344584
 10
18.0673521636
 20
17.7323216745
 10
18.071797678
 20
17.7351059712
 10
18.0760914633
 20
17.7376310707
 10
18.0802707566
 20
17.7399249239
 10
18.0843440421
 20
17.7419952732
 10
18.0883166143
 20
17.7438466581
 10
18.0922169016
 20
17.7454915198
 10
18.0960724252
 20
17.7469362139
 10
18.099873848
 20
17.748169949
 10
18.103611843
 20
17.7491835622
 10
18.107302164
 20
17.7499755577
 10
18.1109892785
 20
17.7505468775
 10
18.114790604
 20
17.7508980733
 10
18.1185704964
 20
17.7510113679
  0
LWPOLYLINE
  5
2E0
100
AcDbEntity
  8
0
100
AcDbPolyline
 62
6
  6
CONTINUOUS
 90
28
 70
0
 10
17.6764963345
 20
17.5561979286
 10
17.667993396
 20
17.544065234
 10
17.6595696358
 20
17.5320814757
 10
17.6512386336
 20
17.5202797166
 10
17.6430189161
 20
17.5086988284
 10
17.6349308061
 20
17.4973791082
 10
17.626986008
 20
17.4863473328
 10
17.6191684766
 20
17.4755905263
 10
17.6114566221
 20
17.4650879583
 10
17.6038333828
 20
17.4548253636
 10
17.5963065226
 20
17.4448216915
 10
17.588892786
 20
17.4351063776
 10
17.5816080422
 20
17.4257057211
 10
17.574439714
 20
17.4166081067
 10
17.567349336
 20
17.4077698841
 10
17.5603165355
 20
17.399170363
 10
17.5533497245
 20
17.3908241016
 10
17.5464584442
 20
17.3827459151
 10
17.5396483806
 20
17.3749450147
 10
17.5329246989
 20
17.3674291595
 10
17.5262921691
 20
17.3602048332
 10
17.5197555081
 20
17.3532776344
 10
17.5133184762
 20
17.3466513472
 10
17.5069835543
 20
17.3403277552
 10
17.5007529387
 20
17.334307782
 10
17.4946274302
 20
17.3285905203
 10
17.4886075773
 20
17.3231744783
 10
17.4828719439
 20
17.3182088426
  0
LWPOLYLINE
  5
2E1
100
AcDbEntity
  8
0
100
AcDbPolyline
 62
6
  6
CONTINUOUS
 90
10
 70
0
 10
19.2767312926
 20
17.3655149821
 10
19.2673868768
 20
17.3543785785
 10
19.2581186283
 20
17.3431713585
 10
19.2491042765
 20
17.3321331906
 10
19.240308545
 20
17.3212473022
 10
19.2316969166
 20
17.310493966
 10
19.2232370848
 20
17.2998537227
 10
19.2148969413
 20
17.28930501
 10
19.2066458546
 20
17.278826102
 10
19.1823876351
 20
17.2479131282
  0
LWPOLYLINE
  5
2E2
100
AcDbEntity
  8
0
100
AcDbPolyline
 62
6
  6
CONTINUOUS
 90
11
 70
0
 10
19.4697918207
 20
17.2684199191
 10
19.4598647113
 20
17.2599821384
 10
19.4501257684
 20
17.2517344757
 10
19.4405619612
 20
17.2436793953
 10
19.4311530577
 20
17.2358131674
 10
19.4218794731
 20
17.228131802
 10
19.41272562
 20
17.2206340847
 10
19.4036942059
 20
17.2133331401
 10
19.3947937624
 20
17.2062456604
 10
19.3860325246
 20
17.1993867339
 10
19.3779930793
 20
17.193211216
  0
LWPOLYLINE
  5
2E3
100
AcDbEntity
  8
0
100
AcDbPolyline
 62
6
  6
CONTINUOUS
 90
20
 70
0
 10
19.6112225734
 20
17.142811557
 10
19.6228281801
 20
17.1526566573
 10
19.6344501877
 20
17.1624759157
 10
19.6461418208
 20
17.1722927754
 10
19.6579594593
 20
17.1821314401
 10
19.6699135503
 20
17.1919755384
 10
19.6817964034
 20
17.2016326164
 10
19.6933316773
 20
17.2108687086
 10
19.7042469641
 20
17.2194690524
 10
19.7145839207
 20
17.2274760147
 10
19.724743687
 20
17.2352021984
 10
19.7349736807
 20
17.2428251697
 10
19.7452060877
 20
17.2502798411
 10
19.7553756742
 20
17.2575074084
 10
19.7655363311
 20
17.2645357475
 10
19.7757602116
 20
17.2714031092
 10
19.7860747685
 20
17.2781141211
 10
19.7964966524
 20
17.2846642597
 10
19.8070770898
 20
17.29106789
 10
19.814023017
 20
17.2951328376
  0
LWPOLYLINE
  5
2E4
100
AcDbEntity
  8
0
100
AcDbPolyline
 62
6
  6
CONTINUOUS
 90
20
 70
0
 10
20.021460158
 20
17.5559843526
 10
20.014269158
 20
17.5586230365
 10
19.998532464
 20
17.5643230938
 10
19.9831394417
 20
17.5697956423
 10
19.9674185615
 20
17.5752497236
 10
19.950728857
 20
17.5808560247
 10
19.9331527501
 20
17.586518021
 10
19.9150595746
 20
17.5920530377
 10
19.8968204365
 20
17.5972958758
 10
19.8787982842
 20
17.6021094937
 10
19.8611960686
 20
17.6064278157
 10
19.8440660753
 20
17.6102373858
 10
19.8274572403
 20
17.6135331135
 10
19.8114172794
 20
17.6163178263
 10
19.7959333061
 20
17.6186103585
 10
19.7809365638
 20
17.620438155
 10
19.766356014
 20
17.6218265937
 10
19.7521180273
 20
17.6227954702
 10
19.7381475034
 20
17.6233577018
 10
19.7257640929
 20
17.6235206642
  0
LWPOLYLINE
  5
2E5
100
AcDbEntity
  8
0
100
AcDbPolyline
 62
6
  6
CONTINUOUS
 90
11
 70
0
 10
17.9031000621
 20
17.8409650388
 10
17.8936515131
 20
17.8446610503
 10
17.8831137874
 20
17.8483183993
 10
17.8726122841
 20
17.8515102758
 10
17.8621372835
 20
17.8542504045
 10
17.8516946722
 20
17.8565461884
 10
17.8412920547
 20
17.858404227
 10
17.8309294742
 20
17.8598318218
 10
17.8206030209
 20
17.8608352623
 10
17.8103075627
 20
17.8614190562
 10
17.8011203877
 20
17.8615878674
  0
LWPOLYLINE
  5
2E6
100
AcDbEntity
  8
0
100
AcDbPolyline
 62
6
  6
CONTINUOUS
 90
5
 70
0
 10
19.4746991836
 20
17.2725996893
 10
19.4737371451
 20
17.2730410949
 10
19.4671202644
 20
17.2763443799
 10
19.4606571395
 20
17.2798193548
 10
19.4541568612
 20
17.2835600297
  0
LWPOLYLINE
  5
2E7
100
AcDbEntity
  8
0
100
AcDbPolyline
 62
6
  6
CONTINUOUS
 90
14
 70
0
 10
18.8057982038
 20
16.8667983948
 10
18.8084251475
 20
16.865375311
 10
18.8192967454
 20
16.8600135523
 10
18.8300489496
 20
16.8552194225
 10
18.8406763338
 20
16.8509711185
 10
18.8511907083
 20
16.8472417721
 10
18.8616042748
 20
16.844008163
 10
18.871930208
 20
16.8412505585
 10
18.8821780052
 20
16.8389536613
 10
18.8923424293
 20
16.8371056233
 10
18.9024418223
 20
16.8356905569
 10
18.912504761
 20
16.8346962067
 10
18.9225612617
 20
16.8341162178
 10
18.9316600798
 20
16.8339481068
  0
LWPOLYLINE
  5
2E8
100
AcDbEntity
  8
0
100
AcDbPolyline
 62
6
  6
CONTINUOUS
 90
17
 70
0
 10
18.4447530741
 20
16.8409319902
 10
18.452824434
 20
16.8351740283
 10
18.4638683103
 20
16.82787991
 10
18.4749234691
 20
16.8211582977
 10
18.4858773765
 20
16.8150626342
 10
18.4966445875
 20
16.8096107815
 10
18.5072519954
 20
16.80475633
 10
18.5177473755
 20
16.8004515827
 10
18.5281533917
 20
16.7966664447
 10
18.5384934257
 20
16.7933738017
 10
18.5487879824
 20
16.7905530379
 10
18.5590324923
 20
16.7881941073
 10
18.5692195579
 20
16.7862882731
 10
18.5793504655
 20
16.7848260189
 10
18.5894306765
 20
16.7837991601
 10
18.5994668126
 20
16.7832017091
 10
18.6084988979
 20
16.7830280526
  0
LWPOLYLINE
  5
2E9
100
AcDbEntity
  8
0
100
AcDbPolyline
 62
6
  6
CONTINUOUS
 90
8
 70
0
 10
17.5888725218
 20
17.515064139
 10
17.5943680648
 20
17.5108323836
 10
17.6003974699
 20
17.505938431
 10
17.6063598077
 20
17.5008609786
 10
17.6123611274
 20
17.49552004
 10
17.6184869613
 20
17.489838464
 10
17.6247211636
 20
17.4838263993
 10
17.6249717256
 20
17.4835757102
  0
LWPOLYLINE
  5
2EA
100
AcDbEntity
  8
0
100
AcDbPolyline
 62
6
  6
CONTINUOUS
 90
12
 70
0
 10
17.3678300251
 20
17.0686875988
 10
17.3757607588
 20
17.0623332754
 10
17.3875811804
 20
17.0530364798
 10
17.3994351046
 20
17.0439119349
 10
17.4112998872
 20
17.0350019344
 10
17.4231573455
 20
17.0263437013
 10
17.4350544403
 20
17.0179269107
 10
17.4470936021
 20
17.0097081467
 10
17.4593789261
 20
17.0016541016
 10
17.4720278094
 20
16.993736746
 10
17.4851767237
 20
16.9859318011
 10
17.49852848
 20
16.9784701576
  0
LWPOLYLINE
  5
2EB
100
AcDbEntity
  8
0
100
AcDbPolyline
 62
6
  6
CONTINUOUS
 90
3
 70
0
 10
17.3916777315
 20
17.2929062844
 10
17.3810606489
 20
17.3018933467
 10
17.376422778
 20
17.3058019914
  0
LINE
  5
2EC
100
AcDbEntity
  8
0
100
AcDbLine
 62
6
  6
CONTINUOUS
 10
17.4149410366
 20
17.2731534569
 11
17.3916777315
 21
17.2929062844
  0
LWPOLYLINE
  5
2ED
100
AcDbEntity
  8
0
100
AcDbPolyline
 62
6
  6
CONTINUOUS
 90
20
 70
0
 10
18.0838641801
 20
16.8670718136
 10
18.0903253081
 20
16.8614980107
 10
18.1012411899
 20
16.8526223808
 10
18.1123993123
 20
16.844119441
 10
18.1237346498
 20
16.8360717774
 10
18.1351112518
 20
16.8285904672
 10
18.1463821791
 20
16.8217634234
 10
18.157481528
 20
16.8156048281
 10
18.1684309974
 20
16.8100737706
 10
18.1792465326
 20
16.8051364177
 10
18.189930303
 20
16.8007650598
 10
18.2005007355
 20
16.796926951
 10
18.2109780724
 20
16.7935941235
 10
18.2213823008
 20
16.790744101
 10
18.2317227795
 20
16.7883618016
 10
18.2419968591
 20
16.78643732
 10
18.252201545
 20
16.784961823
 10
18.2623344695
 20
16.7839273101
 10
18.2723950795
 20
16.7833265927
 10
18.2814169734
 20
16.7831517517
  0
LWPOLYLINE
  5
2EE
100
AcDbEntity
  8
0
100
AcDbPolyline
 62
6
  6
CONTINUOUS
 90
23
 70
0
 10
17.7218170876
 20
16.9465202451
 10
17.7303409853
 20
16.9386136129
 10
17.7409394554
 20
16.9291842638
 10
17.7516401634
 20
16.9200859507
 10
17.7624878132
 20
16.9113080786
 10
17.7735332185
 20
16.9028432503
 10
17.7848412669
 20
16.894683425
 10
17.7964326182
 20
16.8868585722
 10
17.8081621806
 20
16.8795007661
 10
17.8198569655
 20
16.8727289534
 10
17.8313485568
 20
16.8666252885
 10
17.8426049323
 20
16.8611744819
 10
17.8536798363
 20
16.8563157404
 10
17.8646367562
 20
16.8519953488
 10
17.8755288566
 20
16.8481756372
 10
17.8863472642
 20
16.8448471746
 10
17.8970632982
 20
16.8420051258
 10
17.9076725485
 20
16.8396362665
 10
17.918180495
 20
16.8377264105
 10
17.9285918016
 20
16.8362636701
 10
17.938911035
 20
16.8352381297
 10
17.949143546
 20
16.8346416862
 10
17.9583113022
 20
16.8344665564
  0
LWPOLYLINE
  5
2EF
100
AcDbEntity
  8
0
100
AcDbPolyline
 62
6
  6
CONTINUOUS
 90
7
 70
0
 10
17.3971403094
 20
17.3230653676
 10
17.3972053989
 20
17.3230035783
 10
17.4053049708
 20
17.3150821508
 10
17.413457426
 20
17.3068822824
 10
17.4216776125
 20
17.2983923982
 10
17.4299593408
 20
17.2896220887
 10
17.4352121416
 20
17.2839262306
  0
LINE
  5
2F0
100
AcDbEntity
  8
0
100
AcDbLine
 62
6
  6
CONTINUOUS
 10
16.1200380357
 20
18.0269340721
 11
16.3864851849
 21
17.5654340721
  0
LINE
  5
2F1
100
AcDbEntity
  8
0
100
AcDbLine
 62
9
  6
CONTINUOUS
 10
16.657007584
 20
17.1551544562
 11
16.657007584
 21
17.5857136879
  0
LINE
  5
2F2
100
AcDbEntity
  8
0
100
AcDbLine
 62
9
  6
CONTINUOUS
 10
16.6664372551
 20
17.1451649525
 11
16.6664372551
 21
17.5957031917
  0
LINE
  5
2F3
100
AcDbEntity
  8
0
100
AcDbLine
 62
9
  6
CONTINUOUS
 10
16.8025502018
 20
17.0585429569
 11
16.8025502018
 21
17.6823251872
  0
LINE
  5
2F4
100
AcDbEntity
  8
0
100
AcDbLine
 62
9
  6
CONTINUOUS
 10
16.921007584
 20
17.0884417585
 11
16.921007584
 21
17.6524263856
  0
LWPOLYLINE
  5
2F5
100
AcDbEntity
  8
0
100
AcDbPolyline
 62
6
  6
CONTINUOUS
 90
53
 70
0
 10
18.4482441977
 20
17.340939659
 10
18.4645635337
 20
17.3701490206
 10
18.4726199749
 20
17.3845376455
 10
18.4806110185
 20
17.3987691042
 10
18.4885402425
 20
17.4128360881
 10
18.4964105258
 20
17.4267305457
 10
18.5042186398
 20
17.4404341841
 10
18.5119575665
 20
17.4539228282
 10
18.5196222898
 20
17.4671767067
 10
18.5272211521
 20
17.4801997594
 10
18.534767591
 20
17.4930048271
 10
18.5422727733
 20
17.5056013249
 10
18.5497379047
 20
17.5179818639
 10
18.55716121
 20
17.5301343374
 10
18.564538836
 20
17.5420436883
 10
18.5718595772
 20
17.5536838578
 10
18.579111316
 20
17.5650287782
 10
18.5862867217
 20
17.5760613144
 10
18.5933791287
 20
17.5867665458
 10
18.6003767216
 20
17.5971232154
 10
18.6072667056
 20
17.6071105615
 10
18.6140535524
 20
17.6167341523
 10
18.6207530882
 20
17.6260150336
 10
18.6273808137
 20
17.6349721352
 10
18.6339539154
 20
17.6436258779
 10
18.6404787285
 20
17.6519823512
 10
18.6469408977
 20
17.6600214976
 10
18.6533252459
 20
17.6677244184
 10
18.6596251851
 20
17.6750844365
 10
18.6658379721
 20
17.6821002329
 10
18.6719649125
 20
17.6887753184
 10
18.6780032752
 20
17.6951088843
 10
18.6839308026
 20
17.7010813257
 10
18.6897297414
 20
17.7066810641
 10
18.6954567802
 20
17.7119667433
 10
18.7011816096
 20
17.7169982646
 10
18.7067333992
 20
17.7216275577
 10
18.7118023449
 20
17.7256306316
 10
18.7163768069
 20
17.7290519357
 10
18.7207767984
 20
17.7321625471
 10
18.7251540025
 20
17.7350735644
 10
18.729430677
 20
17.7377327843
 10
18.7335659783
 20
17.7401213562
 10
18.7375801959
 20
17.7422584775
 10
18.7414939147
 20
17.7441594227
 10
18.7453242707
 20
17.745833748
 10
18.7490744918
 20
17.747282256
 10
18.7527435171
 20
17.7485038188
 10
18.7563490458
 20
17.7495031542
 10
18.7599328876
 20
17.7502876952
 10
18.7635626872
 20
17.7508617717
 10
18.7673286877
 20
17.7512191844
 10
18.7710884483
 20
17.7513365801
  0
LWPOLYLINE
  5
2F6
100
AcDbEntity
  8
0
100
AcDbPolyline
 62
6
  6
CONTINUOUS
 90
52
 70
0
 10
18.2723680801
 20
17.4105679323
 10
18.2643169532
 20
17.3961862803
 10
18.2563600295
 20
17.3820096963
 10
18.2484755735
 20
17.3680125872
 10
18.2406449278
 20
17.3541746518
 10
18.2328520011
 20
17.340479995
 10
18.2250874757
 20
17.3269243685
 10
18.2173522757
 20
17.3135213734
 10
18.2096483445
 20
17.3002861157
 10
18.2019780464
 20
17.2872340987
 10
18.1943479906
 20
17.2743875657
 10
18.186768369
 20
17.2617739479
 10
18.1792497027
 20
17.2494200732
 10
18.1718025185
 20
17.2373514707
 10
18.1644356018
 20
17.2255894661
 10
18.1571569469
 20
17.214152765
 10
18.1499745491
 20
17.2030586791
 10
18.1428865214
 20
17.1923082057
 10
18.1358773412
 20
17.1818819033
 10
18.1289303419
 20
17.1717598865
 10
18.1220310609
 20
17.1619252797
 10
18.1151837217
 20
17.1523875777
 10
18.1083985465
 20
17.1431636811
 10
18.1016842003
 20
17.1342669652
 10
18.0950484109
 20
17.1257082767
 10
18.0884949898
 20
17.1174923732
 10
18.0820258985
 20
17.109621089
 10
18.0756540848
 20
17.1021085692
 10
18.0694023715
 20
17.0949778993
 10
18.0632730196
 20
17.0882261676
 10
18.0572366162
 20
17.0818168852
 10
18.0512625737
 20
17.0757169965
 10
18.0453260315
 20
17.0699040527
 10
18.0394536722
 20
17.0644072466
 10
18.0337051448
 20
17.0592799867
 10
18.028127291
 20
17.0545527076
 10
18.0227619934
 20
17.0502416729
 10
18.017620154
 20
17.0463331163
 10
18.0127311759
 20
17.0428264113
 10
18.0080883003
 20
17.0396938194
 10
18.003675782
 20
17.0369035623
 10
17.9994493436
 20
17.0344105025
 10
17.9953588458
 20
17.0321741145
 10
17.9913448223
 20
17.0301583575
 10
17.9873548297
 20
17.0283416015
 10
17.9833803039
 20
17.0267301982
 10
17.9794278991
 20
17.0253386398
 10
17.9754891069
 20
17.0241767422
 10
17.9715205167
 20
17.0232485448
 10
17.9673802382
 20
17.0225481634
 10
17.9629273858
 20
17.0220965278
 10
17.9583092725
 20
17.0219443245
  0
LWPOLYLINE
  5
2F7
100
AcDbEntity
  8
0
100
AcDbPolyline
 62
6
  6
CONTINUOUS
 90
52
 70
0
 10
18.6024437129
 20
17.375883857
 10
18.5783682085
 20
17.3336898941
 10
18.570405401
 20
17.3197731745
 10
18.5624715806
 20
17.3059498381
 10
18.5545718414
 20
17.2922423582
 10
18.5467093904
 20
17.278669549
 10
18.5388865061
 20
17.265248228
 10
18.5311056087
 20
17.2519950466
 10
18.5233704128
 20
17.2389283877
 10
18.5156918946
 20
17.2260781646
 10
18.5080838958
 20
17.2134778707
 10
18.5005601863
 20
17.201159358
 10
18.4931257308
 20
17.1891386226
 10
18.4857729572
 20
17.1774107117
 10
18.4784935986
 20
17.165969652
 10
18.4712802696
 20
17.1548110925
 10
18.4641295526
 20
17.1439366336
 10
18.4570400304
 20
17.1333494876
 10
18.4500110786
 20
17.1230535714
 10
18.4430442948
 20
17.1130557958
 10
18.4361483154
 20
17.103372433
 10
18.4293332838
 20
17.0940204762
 10
18.4226086268
 20
17.0850143788
 10
18.4159826342
 20
17.0763655587
 10
18.4094565309
 20
17.0680751127
 10
18.4030306284
 20
17.0601425329
 10
18.3967255619
 20
17.0525909363
 10
18.3905723335
 20
17.0454518713
 10
18.3845479401
 20
17.038692223
 10
18.3785734481
 20
17.0322226035
 10
18.3725869593
 20
17.0259831875
 10
18.3666325044
 20
17.0200262022
 10
18.3607756921
 20
17.0144162176
 10
18.3549559729
 20
17.0090940317
 10
18.3490966556
 20
17.0039976482
 10
18.3434212797
 20
16.9993201141
 10
18.3382680405
 20
16.9953010244
 10
18.3336174017
 20
16.9918680515
 10
18.3292087153
 20
16.9887920265
 10
18.324905192
 20
16.9859654432
 10
18.3207316922
 20
16.9833997193
 10
18.3167221276
 20
16.9811074929
 10
18.3128807367
 20
16.9790807895
 10
18.3091693623
 20
16.9772915605
 10
18.3055544901
 20
16.9757209979
 10
18.3020291965
 20
16.9743668814
 10
18.2986090576
 20
16.9732356696
 10
18.2952714169
 20
16.9723200313
 10
18.2919354903
 20
16.9716009001
 10
18.2885305456
 20
16.971073893
 10
18.2849678015
 20
16.9707458446
 10
18.2814156458
 20
16.9706396911
  0
LWPOLYLINE
  5
2F8
100
AcDbEntity
  8
0
100
AcDbPolyline
 62
6
  6
CONTINUOUS
 90
53
 70
0
 10
18.767766606
 20
17.2872891011
 10
18.7759245021
 20
17.3015712545
 10
18.7840144597
 20
17.3157053882
 10
18.792031719
 20
17.3296689998
 10
18.7999812922
 20
17.3434572999
 10
18.8078693446
 20
17.3570679782
 10
18.8157017042
 20
17.3704984864
 10
18.8234776448
 20
17.3837353997
 10
18.8311884767
 20
17.3967524257
 10
18.8388248026
 20
17.4095231367
 10
18.8463777357
 20
17.4220231624
 10
18.8538550576
 20
17.434256539
 10
18.8612812341
 20
17.4462543569
 10
18.8686743886
 20
17.458037725
 10
18.8760340542
 20
17.4695979877
 10
18.8833561888
 20
17.4809211657
 10
18.8906322146
 20
17.4919869662
 10
18.8978513274
 20
17.5027728572
 10
18.9050045944
 20
17.5132604188
 10
18.9120840903
 20
17.523433944
 10
18.9190805577
 20
17.5332771057
 10
18.9259836651
 20
17.5427735807
 10
18.9327877555
 20
17.5519149227
 10
18.9394932576
 20
17.560701674
 10
18.9460913872
 20
17.5691230797
 10
18.9525517813
 20
17.5771435493
 10
18.9588596458
 20
17.5847507018
 10
18.9650867305
 20
17.5920344105
 10
18.9713203052
 20
17.5990916602
 10
18.9775307654
 20
17.605882399
 10
18.9836750728
 20
17.6123584452
 10
18.9897598283
 20
17.6185277196
 10
18.9957880854
 20
17.6243936271
 10
19.0017587878
 20
17.6299552232
 10
19.0076674828
 20
17.6352086675
 10
19.0135050291
 20
17.6401468863
 10
19.0191987797
 20
17.6447147485
 10
19.0245624698
 20
17.6487861234
 10
19.0294459472
 20
17.652290472
 10
19.0339572905
 20
17.655348288
 10
19.0382520414
 20
17.6580912351
 10
19.0424679566
 20
17.6606160452
 10
19.0466841511
 20
17.6629652616
 10
19.0508933352
 20
17.6651250606
 10
19.0550757096
 20
17.6670783432
 10
19.0592107449
 20
17.6688110473
 10
19.0632962549
 20
17.6703192564
 10
19.0673510375
 20
17.6716061688
 10
19.071411961
 20
17.6726767242
 10
19.0755371255
 20
17.6735340617
 10
19.0798068942
 20
17.6741743547
 10
19.0843198595
 20
17.6745804342
 10
19.0888798461
 20
17.6747165579
  0
LWPOLYLINE
  5
2F9
100
AcDbEntity
  8
0
100
AcDbPolyline
 62
6
  6
CONTINUOUS
 90
49
 70
0
 10
18.9089190896
 20
17.3139227372
 10
18.884573823
 20
17.2756590862
 10
18.8765252001
 20
17.263042452
 10
18.8685256291
 20
17.2505438789
 10
18.8605971411
 20
17.2382114713
 10
18.8527430899
 20
17.2260632836
 10
18.8449659721
 20
17.2141152762
 10
18.8372803717
 20
17.2024009751
 10
18.8296995797
 20
17.1909504576
 10
18.8222043621
 20
17.179743807
 10
18.8147636208
 20
17.1687440951
 10
18.8073661154
 20
17.1579441002
 10
18.800014586
 20
17.147356612
 10
18.7927122922
 20
17.1369947091
 10
18.7854633105
 20
17.1268720992
 10
18.7782771372
 20
17.1170092525
 10
18.7711661589
 20
17.1074292861
 10
18.7641416359
 20
17.0981522195
 10
18.7572105141
 20
17.089190925
 10
18.7503789342
 20
17.0805560402
 10
18.7436535825
 20
17.0722576852
 10
18.7370419349
 20
17.0643056292
 10
18.7305489087
 20
17.0567052586
 10
18.7241740756
 20
17.0494548447
 10
18.717911065
 20
17.0425458103
 10
18.711740393
 20
17.0359563044
 10
18.7056413141
 20
17.0296656986
 10
18.6995886201
 20
17.0236506751
 10
18.6935749352
 20
17.0179068514
 10
18.6876241796
 20
17.0124591352
 10
18.6817638854
 20
17.0073318659
 10
18.6760447072
 20
17.0025637366
 10
18.6705581616
 20
16.9982164733
 10
18.6654243271
 20
16.9943580293
 10
18.6606856019
 20
16.99098525
 10
18.6562455125
 20
16.9879983132
 10
18.652006268
 20
16.9853117621
 10
18.6478972399
 20
16.9828710644
 10
18.6439246014
 20
16.9806741386
 10
18.6401095026
 20
16.9787255112
 10
18.6364213484
 20
16.9770032298
 10
18.6328121381
 20
16.9754841415
 10
18.6292803177
 20
16.9741709557
 10
18.6258128082
 20
16.9730621342
 10
18.6223919023
 20
16.972154421
 10
18.6189856345
 20
16.9714436452
 10
18.6155390252
 20
16.9709269717
 10
18.6119796357
 20
16.9706093394
 10
18.6084955418
 20
16.9705079837
  0
LWPOLYLINE
  5
2FA
100
AcDbEntity
  8
0
100
AcDbPolyline
 62
6
  6
CONTINUOUS
 90
47
 70
0
 10
19.0509439364
 20
17.1879046064
 10
19.0765507727
 20
17.228088472
 10
19.0849152616
 20
17.2411698787
 10
19.0931811828
 20
17.2540499172
 10
19.1013386881
 20
17.2667006726
 10
19.1093880144
 20
17.2791106801
 10
19.1173487092
 20
17.2912988708
 10
19.1252424755
 20
17.3032873546
 10
19.1330904321
 20
17.3150968207
 10
19.1408926025
 20
17.3267158404
 10
19.1486223306
 20
17.3380942365
 10
19.156256999
 20
17.3491900061
 10
19.1637859208
 20
17.3599805042
 10
19.1712025079
 20
17.3704504393
 10
19.1785119574
 20
17.3806020867
 10
19.1857230377
 20
17.3904427694
 10
19.1928521914
 20
17.3999898225
 10
19.1999205796
 20
17.4092671456
 10
19.2069369159
 20
17.4182822166
 10
19.2138929705
 20
17.4270206802
 10
19.2207789193
 20
17.4354673417
 10
19.2275860428
 20
17.4436096595
 10
19.2343095929
 20
17.4514409333
 10
19.240945313
 20
17.4589558272
 10
19.2474886456
 20
17.4661494495
 10
19.2539344727
 20
17.473017148
 10
19.2602772266
 20
17.479554736
 10
19.2665112018
 20
17.4857588986
 10
19.2726371294
 20
17.4916334232
 10
19.2786711219
 20
17.4971960967
 10
19.28464233
 20
17.5024737009
 10
19.2906248684
 20
17.5075257626
 10
19.2966845985
 20
17.5123958698
 10
19.3027132272
 20
17.5169891936
 10
19.3085406404
 20
17.5211857662
 10
19.3140040361
 20
17.5248986095
 10
19.3190570748
 20
17.5281364262
 10
19.323823284
 20
17.5310110954
 10
19.328430629
 20
17.5336177894
 10
19.3329882648
 20
17.5360227882
 10
19.3375308824
 20
17.5382403106
 10
19.3420592306
 20
17.5402638379
 10
19.3465760039
 20
17.5420867216
 10
19.3510890966
 20
17.5437029984
 10
19.355616908
 20
17.5451080049
 10
19.360193034
 20
17.5462973521
 10
19.3647720797
 20
17.5472465862
  0
LWPOLYLINE
  5
2FB
100
AcDbEntity
  8
0
100
AcDbPolyline
 62
6
  6
CONTINUOUS
 90
42
 70
0
 10
19.1823876351
 20
17.2479131282
 10
19.1744953416
 20
17.2378678933
 10
19.1667041329
 20
17.2279793922
 10
19.1590044505
 20
17.2182473587
 10
19.1513868038
 20
17.2086710397
 10
19.143842123
 20
17.1992497402
 10
19.136363821
 20
17.1899854828
 10
19.1289475263
 20
17.1808828312
 10
19.1215892866
 20
17.1719466957
 10
19.1142860729
 20
17.1631829783
 10
19.1070463462
 20
17.1546109867
 10
19.0998887235
 20
17.1462609027
 10
19.0928254524
 20
17.1381538778
 10
19.0858606841
 20
17.130300526
 10
19.078999667
 20
17.1227117454
 10
19.0722503419
 20
17.1154002681
 10
19.0656173533
 20
17.1083740197
 10
19.0590957514
 20
17.1016300469
 10
19.0526739901
 20
17.0951587659
 10
19.0463149635
 20
17.0889266491
 10
19.0399741605
 20
17.0828961934
 10
19.033660311
 20
17.0770819291
 10
19.0274239667
 20
17.0715339314
 10
19.0212698635
 20
17.0662573317
 10
19.0151123436
 20
17.0611835939
 10
19.0089776593
 20
17.0563425192
 10
19.003179028
 20
17.0519716268
 10
18.9979353239
 20
17.0481982434
 10
18.993075834
 20
17.0448612436
 10
18.9883782321
 20
17.0417897679
 10
18.9838209745
 20
17.0389633474
 10
18.9794526494
 20
17.0364042589
 10
18.9752581323
 20
17.0340939306
 10
18.9711692058
 20
17.0319893902
 10
18.9671301054
 20
17.0300635354
 10
18.9631296973
 20
17.028317239
 10
18.9591637252
 20
17.0267558146
 10
18.9552316433
 20
17.0253853011
 10
18.951334973
 20
17.0242124499
 10
18.9474620357
 20
17.0232403737
 10
18.9435833737
 20
17.0224703213
 10
18.9407750194
 20
17.0220670373
  0
LWPOLYLINE
  5
2FC
100
AcDbEntity
  8
0
100
AcDbPolyline
 62
6
  6
CONTINUOUS
 90
32
 70
0
 10
19.4199975091
 20
17.2446232905
 10
19.4280932704
 20
17.2541370558
 10
19.4364936601
 20
17.2638287869
 10
19.4448415228
 20
17.273269913
 10
19.4531381175
 20
17.2824569292
 10
19.4613848147
 20
17.2913864914
 10
19.4695833845
 20
17.3000556835
 10
19.477735503
 20
17.308461443
 10
19.485843574
 20
17.3166013657
 10
19.4939192156
 20
17.3244817388
 10
19.5019807909
 20
17.3321142368
 10
19.5100485155
 20
17.3395122957
 10
19.5181408769
 20
17.3466862261
 10
19.5262751183
 20
17.3536429641
 10
19.5344612599
 20
17.3603813358
 10
19.5426731649
 20
17.366870779
 10
19.5508939705
 20
17.3730910622
 10
19.5592315095
 20
17.3791122688
 10
19.5678437237
 20
17.3850226846
 10
19.5768002219
 20
17.390830958
 10
19.5858406346
 20
17.3963417632
 10
19.5946262741
 20
17.4013588566
 10
19.6030150919
 20
17.4058388846
 10
19.6111013783
 20
17.4098685423
 10
19.6190585069
 20
17.413552995
 10
19.6270480894
 20
17.416968159
 10
19.6352148442
 20
17.4201607083
 10
19.6437078451
 20
17.4231572726
 10
19.6526643509
 20
17.4259589998
 10
19.6619909386
 20
17.4284883476
 10
19.6714905804
 20
17.4306639856
 10
19.6793231121
 20
17.4321325785
  0
LINE
  5
2FD
100
AcDbEntity
  8
0
100
AcDbLine
 62
6
  6
CONTINUOUS
 10
11.726007584
 20
9.9391240872
 11
11.256007584
 21
9.6677694607
  0
LWPOLYLINE
  5
2FE
100
AcDbEntity
  8
0
100
AcDbPolyline
 62
6
  6
CONTINUOUS
 90
25
 70
0
 10
19.6926624771
 20
17.6222777297
 10
19.6889118077
 20
17.6246801111
 10
19.6760975104
 20
17.6327659701
 10
19.6633466978
 20
17.6406661758
 10
19.6506769273
 20
17.6483481038
 10
19.6379989423
 20
17.6558430233
 10
19.6250883584
 20
17.663252812
 10
19.6117371853
 20
17.6706523928
 10
19.5979509734
 20
17.6779837913
 10
19.5838331308
 20
17.6851388978
 10
19.5694984048
 20
17.6920146161
 10
19.5550673513
 20
17.6985166894
 10
19.5406719098
 20
17.7045610148
 10
19.5264412429
 20
17.7100836428
 10
19.5124854902
 20
17.7150456625
 10
19.4988220575
 20
17.719452799
 10
19.4854445512
 20
17.7233211498
 10
19.4723493954
 20
17.7266665012
 10
19.4595393985
 20
17.7295037698
 10
19.4470201442
 20
17.7318484836
 10
19.434797039
 20
17.7337178034
 10
19.422836883
 20
17.7351357891
 10
19.4110728441
 20
17.7361249849
 10
19.3994383109
 20
17.7366986561
 10
19.389114349
 20
17.7368630691
  0
LWPOLYLINE
  5
2FF
100
AcDbEntity
  8
0
100
AcDbPolyline
 62
6
  6
CONTINUOUS
 90
16
 70
0
 10
18.2644163571
 20
17.8934768545
 10
18.2640320886
 20
17.8937294998
 10
18.2529494604
 20
17.900422718
 10
18.2420696188
 20
17.906430244
 10
18.2313510388
 20
17.911815793
 10
18.2207335646
 20
17.9166404109
 10
18.2101558807
 20
17.9209520967
 10
18.1995947526
 20
17.9247729237
 10
18.1890834068
 20
17.9281026118
 10
18.1786499574
 20
17.9309464839
 10
18.1682927257
 20
17.9333192574
 10
18.1580053036
 20
17.9352344651
 10
18.1477851546
 20
17.9367025187
 10
18.1376307914
 20
17.9377318915
 10
18.1275395088
 20
17.9383295594
 10
18.1185648414
 20
17.9385027991
  0
LINE
  5
300
100
AcDbEntity
  8
0
100
AcDbLine
 62
6
  6
CONTINUOUS
 10
19.6513963686
 20
17.4255623562
 11
19.6604042075
 21
17.4196136688
  0
LWPOLYLINE
  5
301
100
AcDbEntity
  8
0
100
AcDbPolyline
 62
6
  6
CONTINUOUS
 90
19
 70
0
 10
18.6251677983
 20
17.8936157368
 10
18.6225647294
 20
17.8957453513
 10
18.6116457151
 20
17.9040997847
 10
18.6006610893
 20
17.9119188378
 10
18.5896623125
 20
17.91916483
 10
18.5786899355
 20
17.9258222266
 10
18.567770387
 20
17.931891631
 10
18.5569339788
 20
17.9373764461
 10
18.5461945283
 20
17.942292081
 10
18.5355488555
 20
17.9466617434
 10
18.5249950821
 20
17.9505060315
 10
18.5145336533
 20
17.9538428818
 10
18.5041676349
 20
17.9566879979
 10
18.4939007288
 20
17.9590558511
 10
18.4837355701
 20
17.9609601411
 10
18.4736676573
 20
17.9624143914
 10
18.463688529
 20
17.9634302847
 10
18.4537884385
 20
17.9640168559
 10
18.4449964554
 20
17.9641829431
  0
LWPOLYLINE
  5
302
100
AcDbEntity
  8
0
100
AcDbPolyline
 62
6
  6
CONTINUOUS
 90
3
 70
0
 10
17.7340481158
 20
17.6380641244
 10
17.7322533998
 20
17.6396969171
 10
17.7265862696
 20
17.6445949151
  0
LWPOLYLINE
  5
303
100
AcDbEntity
  8
0
100
AcDbPolyline
 62
6
  6
CONTINUOUS
 90
6
 70
0
 10
17.5713251496
 20
17.412725773
 10
17.5704130782
 20
17.4137217487
 10
17.5586576443
 20
17.4262121179
 10
17.5467097296
 20
17.4385386953
 10
17.5345748103
 20
17.4506675003
 10
17.5315696963
 20
17.4535703471
  0
LWPOLYLINE
  5
304
100
AcDbEntity
  8
0
100
AcDbPolyline
 62
6
  6
CONTINUOUS
 90
11
 70
0
 10
17.9286837411
 20
17.5869890918
 10
17.9295215781
 20
17.586018523
 10
17.9358160974
 20
17.5784946598
 10
17.9422329663
 20
17.5705944754
 10
17.9487984869
 20
17.5622804258
 10
17.9554810774
 20
17.5535880586
 10
17.9622593212
 20
17.5445439455
 10
17.9691316733
 20
17.5351503789
 10
17.9760960926
 20
17.5254109021
 10
17.9831433665
 20
17.5153400357
 10
17.9841083646
 20
17.5139325312
  0
LWPOLYLINE
  5
305
100
AcDbEntity
  8
0
100
AcDbPolyline
 62
6
  6
CONTINUOUS
 90
8
 70
0
 10
17.7580037093
 20
17.1847046149
 10
17.7562774043
 20
17.1868130555
 10
17.7486884354
 20
17.1961741395
 10
17.7410381357
 20
17.2056916027
 10
17.7333297593
 20
17.2153501841
 10
17.7255576189
 20
17.2251454472
 10
17.7177143252
 20
17.2350748636
 10
17.7097921096
 20
17.2451360351
  0
LINE
  5
306
100
AcDbEntity
  8
0
100
AcDbLine
 62
6
  6
CONTINUOUS
 10
17.7097921096
 20
17.2451360351
 11
17.6932389751
 21
17.2662018938
  0
LWPOLYLINE
  5
307
100
AcDbEntity
  8
0
100
AcDbPolyline
 62
6
  6
CONTINUOUS
 90
11
 70
0
 10
18.1003248125
 20
17.1325136581
 10
18.0968697123
 20
17.137339673
 10
18.0896313715
 20
17.1476115252
 10
18.0823390345
 20
17.1581125846
 10
18.074994517
 20
17.1688321921
 10
18.0675982339
 20
17.1797613147
 10
18.0601340279
 20
17.1909148971
 10
18.0525737468
 20
17.2023262291
 10
18.0449077313
 20
17.2140012309
 10
18.0371498943
 20
17.2259091378
 10
18.0320319441
 20
17.2338179215
  0
LWPOLYLINE
  5
308
100
AcDbEntity
  8
0
100
AcDbPolyline
 62
6
  6
CONTINUOUS
 90
8
 70
0
 10
17.7455415422
 20
17.3314365947
 10
17.7503873462
 20
17.3242978116
 10
17.7581536363
 20
17.3127262804
 10
17.765936721
 20
17.3010114466
 10
17.7737365309
 20
17.2891655153
 10
17.7815902669
 20
17.2771434604
 10
17.7895365414
 20
17.2648966731
 10
17.7976116936
 20
17.2523792501
  0
LWPOLYLINE
  5
309
100
AcDbEntity
  8
0
100
AcDbPolyline
 62
6
  6
CONTINUOUS
 90
6
 70
0
 10
17.9122666939
 20
17.0750294904
 10
17.9201798774
 20
17.0633497111
 10
17.9293455894
 20
17.0500094524
 10
17.9386003561
 20
17.0367473866
 10
17.9479682565
 20
17.0235521062
 10
17.9486269972
 20
17.0226416905
  0
LINE
  5
30A
100
AcDbEntity
  8
0
100
AcDbLine
 62
6
  6
CONTINUOUS
 10
17.7976116936
 20
17.2523792501
 11
17.8060963548
 21
17.2391638583
  0
LINE
  5
30B
100
AcDbEntity
  8
0
100
AcDbLine
 62
6
  6
CONTINUOUS
 10
12.226007584
 20
9.0730986834
 11
11.756007584
 21
8.8017440569
  0
LWPOLYLINE
  5
30C
100
AcDbEntity
  8
0
100
AcDbPolyline
 62
6
  6
CONTINUOUS
 90
3
 70
0
 10
19.4925277363
 20
17.3231239054
 10
19.50305472
 20
17.3141951628
 10
19.5135157772
 20
17.3056067598
  0
LWPOLYLINE
  5
30D
100
AcDbEntity
  8
0
100
AcDbPolyline
 62
6
  6
CONTINUOUS
 90
22
 70
0
 10
18.9865502156
 20
17.8414293648
 10
18.9848139412
 20
17.8430422075
 10
18.9741566995
 20
17.8524667107
 10
18.9634177869
 20
17.8614704976
 10
18.9525229175
 20
17.8700879651
 10
18.9414136679
 20
17.8783306516
 10
18.9301226059
 20
17.8861468202
 10
18.9187452751
 20
17.8934553139
 10
18.9073852208
 20
17.900190193
 10
18.8961094557
 20
17.9063252523
 10
18.884940075
 20
17.9118682499
 10
18.8738896119
 20
17.9168345138
 10
18.8629623536
 20
17.9212438207
 10
18.8521610338
 20
17.9251160148
 10
18.8414856039
 20
17.9284708739
 10
18.8309367822
 20
17.9313265465
 10
18.8205124623
 20
17.9337004506
 10
18.8102068651
 20
17.9356088481
 10
18.8000133607
 20
17.9370658057
 10
18.7899242423
 20
17.9380831373
 10
18.7799313035
 20
17.9386702659
 10
18.7710816139
 20
17.9388369114
  0
LWPOLYLINE
  5
30E
100
AcDbEntity
  8
0
100
AcDbPolyline
 62
6
  6
CONTINUOUS
 90
26
 70
0
 10
19.349266479
 20
17.7343482092
 10
19.3479870691
 20
17.7355623793
 10
19.3375115647
 20
17.7452205746
 10
19.3269429017
 20
17.7546562042
 10
19.3163291504
 20
17.7638009885
 10
19.305717917
 20
17.7725933098
 10
19.2951166658
 20
17.7810098283
 10
19.2844223513
 20
17.7891108354
 10
19.2735146433
 20
17.7969540431
 10
19.2622691325
 20
17.8045848805
 10
19.2506780357
 20
17.8119612138
 10
19.2389058857
 20
17.8189419421
 10
19.2271330803
 20
17.8254064353
 10
19.2155053828
 20
17.8312830814
 10
19.2040374966
 20
17.8365837279
 10
19.1927216094
 20
17.8413316262
 10
19.1815530469
 20
17.8455472119
 10
19.1705349058
 20
17.8492471076
 10
19.1596783775
 20
17.8524454798
 10
19.1489922717
 20
17.8551580068
 10
19.1384806524
 20
17.8574017635
 10
19.1281330033
 20
17.8591957567
 10
19.1179234267
 20
17.8605586975
 10
19.1078261085
 20
17.8615070817
 10
19.0977982399
 20
17.8620538249
 10
19.088877007
 20
17.8622070648
  0
LWPOLYLINE
  5
30F
100
AcDbEntity
  8
0
100
AcDbPolyline
 62
6
  6
CONTINUOUS
 90
9
 70
0
 10
19.1317170825
 20
17.184282144
 10
19.1278305363
 20
17.188174936
 10
19.1215712424
 20
17.1946821841
 10
19.1152296049
 20
17.2015113873
 10
19.1088098609
 20
17.2086591988
 10
19.1023158414
 20
17.2161220472
 10
19.0957485099
 20
17.2238991788
 10
19.089108306
 20
17.2319902588
 10
19.0835196768
 20
17.2389872932
  0
LWPOLYLINE
  5
310
100
AcDbEntity
  8
0
100
AcDbPolyline
 62
6
  6
CONTINUOUS
 90
5
 70
0
 10
19.3251404909
 20
17.4893537477
 10
19.3346435174
 20
17.479104832
 10
19.3442666166
 20
17.46876333
 10
19.354004013
 20
17.4583525109
 10
19.3582694266
 20
17.4538227917
  0
LINE
  5
311
100
AcDbEntity
  8
0
100
AcDbLine
 62
6
  6
CONTINUOUS
 10
19.3008717643
 20
17.5155861489
 11
19.3251404909
 21
17.4893537477
  0
LWPOLYLINE
  5
312
100
AcDbEntity
  8
0
100
AcDbPolyline
 62
6
  6
CONTINUOUS
 90
4
 70
0
 10
18.9773664781
 20
17.0747671761
 10
18.9848800967
 20
17.0666081666
 10
18.9954911926
 20
17.0555655295
 10
19.0008157147
 20
17.0502709803
  0
LWPOLYLINE
  5
313
100
AcDbEntity
  8
0
100
AcDbPolyline
 62
6
  6
CONTINUOUS
 90
9
 70
0
 10
19.3183549895
 20
17.4126770679
 10
19.3168399616
 20
17.4145605814
 10
19.3096109461
 20
17.4237123471
 10
19.3023131655
 20
17.4331092345
 10
19.2949386059
 20
17.4427564423
 10
19.2874766851
 20
17.4526608002
 10
19.2799167541
 20
17.462828522
 10
19.2722464903
 20
17.4732681823
 10
19.2645705121
 20
17.4838274897
  0
LWPOLYLINE
  5
314
100
AcDbEntity
  8
0
100
AcDbPolyline
 62
6
  6
CONTINUOUS
 90
5
 70
0
 10
18.0900273259
 20
17.6856017463
 10
18.0864947163
 20
17.6900642552
 10
18.0761831416
 20
17.7026341059
 10
18.0658875908
 20
17.714714991
 10
18.0567471674
 20
17.7250149104
  0
LWPOLYLINE
  5
315
100
AcDbEntity
  8
0
100
AcDbPolyline
 62
6
  6
CONTINUOUS
 90
11
 70
0
 10
18.7893617363
 20
17.1323159319
 10
18.787965472
 20
17.134120411
 10
18.781250039
 20
17.1430349893
 10
18.7744498692
 20
17.1522947747
 10
18.7675746438
 20
17.1618855882
 10
18.7606343845
 20
17.1717912566
 10
18.753636881
 20
17.1819974224
 10
18.7465842792
 20
17.1924970869
 10
18.7394775287
 20
17.2032846606
 10
18.7323153039
 20
17.2143570463
 10
18.7290260859
 20
17.2195295593
  0
LWPOLYLINE
  5
316
100
AcDbEntity
  8
0
100
AcDbPolyline
 62
6
  6
CONTINUOUS
 90
7
 70
0
 10
19.1441117372
 20
17.331454505
 10
19.1535524564
 20
17.3191186438
 10
19.1631468184
 20
17.3068120173
 10
19.1728636762
 20
17.2945968893
 10
19.1827250464
 20
17.2824684786
 10
19.1927540715
 20
17.2704240597
 10
19.1965559734
 20
17.2659750331
  0
LWPOLYLINE
  5
317
100
AcDbEntity
  8
0
100
AcDbPolyline
 62
6
  6
CONTINUOUS
 90
11
 70
0
 10
18.9610207243
 20
17.5872784764
 10
18.9615968603
 20
17.586517393
 10
18.9690316838
 20
17.5765594659
 10
18.9765608341
 20
17.5663482233
 10
18.9841737768
 20
17.5559066837
 10
18.9918603112
 20
17.5452586738
 10
18.9996112245
 20
17.5344277423
 10
19.0074175586
 20
17.5234379956
 10
19.0152704404
 20
17.5123141869
 10
19.0231639318
 20
17.5010775035
 10
19.0287140851
 20
17.4931473019
  0
LWPOLYLINE
  5
318
100
AcDbEntity
  8
0
100
AcDbPolyline
 62
6
  6
CONTINUOUS
 90
6
 70
0
 10
18.6221493209
 20
17.0433391474
 10
18.6287807161
 20
17.0342310218
 10
18.6387026365
 20
17.0210056901
 10
18.6487684886
 20
17.0080144956
 10
18.6589738787
 20
16.995293232
 10
18.6618635367
 20
16.9918236429
  0
LWPOLYLINE
  5
319
100
AcDbEntity
  8
0
100
AcDbPolyline
 62
6
  6
CONTINUOUS
 90
11
 70
0
 10
18.272459756
 20
17.6210216509
 10
18.2754274936
 20
17.6169128551
 10
18.2822662008
 20
17.6072215581
 10
18.2892121449
 20
17.5971586559
 10
18.2962548378
 20
17.5867405609
 10
18.3033866312
 20
17.5759811301
 10
18.3106004298
 20
17.5648947282
 10
18.3178881935
 20
17.5534984522
 10
18.325241333
 20
17.5418115533
 10
18.3326485888
 20
17.5298588663
 10
18.3361551542
 20
17.5241203062
  0
LWPOLYLINE
  5
31A
100
AcDbEntity
  8
0
100
AcDbPolyline
 62
6
  6
CONTINUOUS
 90
11
 70
0
 10
18.4448601639
 20
17.115661683
 10
18.4403982377
 20
17.122049611
 10
18.4333206604
 20
17.1323931911
 10
18.4261842283
 20
17.1430270404
 10
18.4189946489
 20
17.1539371522
 10
18.4117573308
 20
17.1651091573
 10
18.4044726836
 20
17.17653584
 10
18.3971318
 20
17.1882244717
 10
18.3897244029
 20
17.2001835669
 10
18.3822414169
 20
17.2124194682
 10
18.3787456241
 20
17.2182025534
  0
LWPOLYLINE
  5
31B
100
AcDbEntity
  8
0
100
AcDbPolyline
 62
6
  6
CONTINUOUS
 90
11
 70
0
 10
18.6172221106
 20
17.6211235626
 10
18.6225887595
 20
17.613397645
 10
18.6297276441
 20
17.6029337611
 10
18.6369532177
 20
17.5921633947
 10
18.6442605227
 20
17.581099658
 10
18.6516406044
 20
17.5697628369
 10
18.6590806443
 20
17.5581805344
 10
18.6665677685
 20
17.5463818806
 10
18.6740929635
 20
17.5343910888
 10
18.6816580166
 20
17.5222157542
 10
18.6848325024
 20
17.5170608529
  0
LWPOLYLINE
  5
31C
100
AcDbEntity
  8
0
100
AcDbPolyline
 62
6
  6
CONTINUOUS
 90
7
 70
0
 10
18.4448031429
 20
17.7013829649
 10
18.4410343029
 20
17.7069235686
 10
18.4313308706
 20
17.720833205
 10
18.4215172522
 20
17.7345209007
 10
18.4116027269
 20
17.747945079
 10
18.4016122205
 20
17.761045044
 10
18.4013693854
 20
17.7613526411
  0
LWPOLYLINE
  5
31D
100
AcDbEntity
  8
0
100
AcDbPolyline
 62
6
  6
CONTINUOUS
 90
8
 70
0
 10
17.9201851489
 20
17.4076168669
 10
17.9122350813
 20
17.4195406822
 10
17.9031146686
 20
17.4330617973
 10
17.8938875684
 20
17.44656311
 10
17.8845558118
 20
17.4600189859
 10
17.8751211197
 20
17.4734034832
 10
17.8655875069
 20
17.4866867894
 10
17.8610029851
 20
17.4929489704
  0
LWPOLYLINE
  5
31E
100
AcDbEntity
  8
0
100
AcDbPolyline
 62
6
  6
CONTINUOUS
 90
7
 70
0
 10
18.2674895591
 20
17.0434373512
 10
18.2688006775
 20
17.0414424673
 10
18.2781220462
 20
17.027548399
 10
18.2875979896
 20
17.0137355355
 10
18.2972272142
 20
17.0000352222
 10
18.3069966856
 20
16.9864958718
 10
18.3126014888
 20
16.978946166
  0
LWPOLYLINE
  5
31F
100
AcDbEntity
  8
0
100
AcDbPolyline
 62
6
  6
CONTINUOUS
 90
8
 70
0
 10
18.8033303528
 20
17.3199329176
 10
18.8120127115
 20
17.3057557219
 10
18.8207484151
 20
17.2916194665
 10
18.8295584297
 20
17.277508774
 10
18.8384595732
 20
17.2634151128
 10
18.8474648862
 20
17.2493377027
 10
18.8565874345
 20
17.2352776813
 10
18.8576540593
 20
17.2336592843
  0
LINE
  5
320
100
AcDbEntity
  8
0
100
AcDbLine
 62
6
  6
CONTINUOUS
 10
18.7946520087
 20
17.334213815
 11
18.8033303528
 21
17.3199329176
  0
LWPOLYLINE
  5
321
100
AcDbEntity
  8
0
100
AcDbPolyline
 62
6
  6
CONTINUOUS
 90
3
 70
0
 10
18.0950092438
 20
17.3341972724
 10
18.1043508683
 20
17.3179599405
 10
18.112420206
 20
17.3038786171
  0
LWPOLYLINE
  5
322
100
AcDbEntity
  8
0
100
AcDbPolyline
 62
6
  6
CONTINUOUS
 90
9
 70
0
 10
18.269904287
 20
17.4061668819
 10
18.2627221616
 20
17.4186723239
 10
18.2541388923
 20
17.4335530643
 10
18.2454786718
 20
17.4484855709
 10
18.2367450979
 20
17.4634450779
 10
18.2279462107
 20
17.478398735
 10
18.2190885719
 20
17.4933159689
 10
18.2101752178
 20
17.5081719119
 10
18.2048409154
 20
17.5169589608
  0
LWPOLYLINE
  5
323
100
AcDbEntity
  8
0
100
AcDbPolyline
 62
6
  6
CONTINUOUS
 90
3
 70
0
 10
18.1454172559
 20
17.2461145058
 10
18.1538405219
 20
17.2313992397
 10
18.1606190776
 20
17.2195926923
  0
LWPOLYLINE
  5
324
100
AcDbEntity
  8
0
100
AcDbPolyline
 62
6
  6
CONTINUOUS
 90
3
 70
0
 10
18.112420206
 20
17.3038786171
 10
18.128780333
 20
17.27524559
 10
18.1454172559
 20
17.2461145058
  0
LWPOLYLINE
  5
325
100
AcDbEntity
  8
0
100
AcDbPolyline
 62
6
  6
CONTINUOUS
 90
8
 70
0
 10
18.4578401413
 20
17.3115607792
 10
18.4661733492
 20
17.29669926
 10
18.4745739132
 20
17.2817706816
 10
18.4830452542
 20
17.2667855877
 10
18.4915910594
 20
17.2517543692
 10
18.5002149434
 20
17.2366884061
 10
18.5089187044
 20
17.2216031447
 10
18.5109173589
 20
17.2181706247
  0
LWPOLYLINE
  5
326
100
AcDbEntity
  8
0
100
AcDbPolyline
 62
6
  6
CONTINUOUS
 90
6
 70
0
 10
18.5922715108
 20
17.4553557595
 10
18.5838104073
 20
17.4704705483
 10
18.5753165482
 20
17.485601628
 10
18.5667850006
 20
17.5007404956
 10
18.5582102372
 20
17.5158792099
 10
18.5535008073
 20
17.5241420004
  0
LINE
  5
327
100
AcDbEntity
  8
0
100
AcDbLine
 62
6
  6
CONTINUOUS
 10
18.4448309446
 20
17.3348300877
 11
18.4578401413
 21
17.3115607792
  0
LINE
  5
328
100
AcDbEntity
  8
0
100
AcDbLine
 62
6
  6
CONTINUOUS
 10
18.6197570618
 20
17.4061702411
 11
18.5922715108
 21
17.4553557595
  0
LWPOLYLINE
  5
329
100
AcDbEntity
  8
0
100
AcDbPolyline
 62
6
  6
CONTINUOUS
 90
4
 70
0
 10
19.1555643506
 20
17.6384394248
 10
19.1531274852
 20
17.6418654641
 10
19.1439447676
 20
17.6546720336
 10
19.1407531324
 20
17.6590803831
  0
LWPOLYLINE
  5
32A
100
AcDbEntity
  8
0
100
AcDbPolyline
 62
6
  6
CONTINUOUS
 90
7
 70
0
 10
18.7996118389
 20
17.6857664481
 10
18.794036523
 20
17.6942208532
 10
18.7846941774
 20
17.7081394071
 10
18.7752568512
 20
17.7219286479
 10
18.7657260258
 20
17.735560543
 10
18.7561125968
 20
17.7489935429
 10
18.7558417225
 20
17.7493625407
  0
LWPOLYLINE
  5
32B
100
AcDbEntity
  8
0
100
AcDbPolyline
 62
6
  6
CONTINUOUS
 90
7
 70
0
 10
18.9694763057
 20
17.4076043089
 10
18.9653069855
 20
17.414410376
 10
18.9574757389
 20
17.4272869134
 10
18.9495506975
 20
17.4403981316
 10
18.9415053198
 20
17.4537764656
 10
18.9333254935
 20
17.4674332989
 10
18.9250277531
 20
17.4813277259
  0
LINE
  5
32C
100
AcDbEntity
  8
0
100
AcDbLine
 62
6
  6
CONTINUOUS
 10
18.9250277531
 20
17.4813277259
 11
18.9055402326
 21
17.5140301527
  0
ARC
  5
32D
100
AcDbEntity
  8
0
100
AcDbCircle
 62
6
  6
CONTINUOUS
 10
11.271007584
 20
9.0990794455
 40
0.03
100
AcDbArc
 50
180.0
 51
240.0
  0
ARC
  5
32E
100
AcDbEntity
  8
0
100
AcDbCircle
 62
6
  6
CONTINUOUS
 10
11.271007584
 20
9.6417886986
 40
0.03
100
AcDbArc
 50
120.0
 51
180.0
  0
ARC
  5
32F
100
AcDbEntity
  8
0
100
AcDbCircle
 62
6
  6
CONTINUOUS
 10
3.3266439855
 20
17.3704340721
 40
0.23
100
AcDbArc
 50
59.6028715785
 51
308.39704216
  0
ARC
  5
330
100
AcDbEntity
  8
0
100
AcDbCircle
 62
6
  6
CONTINUOUS
 10
6.825007584
 20
16.9800965721
 40
0.1653375
100
AcDbArc
 50
93.269516506
 51
151.6756638894
  0
ARC
  5
331
100
AcDbEntity
  8
0
100
AcDbCircle
 62
6
  6
CONTINUOUS
 10
6.825007584
 20
17.7607715721
 40
0.1653375
100
AcDbArc
 50
208.3243361106
 51
266.730483494
  0
ARC
  5
332
100
AcDbEntity
  8
0
100
AcDbCircle
 62
6
  6
CONTINUOUS
 10
6.624007584
 20
17.0884340721
 40
0.063
100
AcDbArc
 50
180.0
 51
331.6756638894
  0
ARC
  5
333
100
AcDbEntity
  8
0
100
AcDbCircle
 62
6
  6
CONTINUOUS
 10
6.624007584
 20
17.6524340721
 40
0.063
100
AcDbArc
 50
28.3243361106
 51
180.0
  0
ARC
  5
334
100
AcDbEntity
  8
0
100
AcDbCircle
 62
6
  6
CONTINUOUS
 10
6.815007584
 20
17.1551486755
 40
0.01
100
AcDbArc
 50
273.2695179893
 51
0.000023165
  0
ARC
  5
335
100
AcDbEntity
  8
0
100
AcDbCircle
 62
6
  6
CONTINUOUS
 10
6.815007584
 20
17.5857194687
 40
0.01
100
AcDbArc
 50
359.999976835
 51
86.7304820107
  0
ARC
  5
336
100
AcDbEntity
  8
0
100
AcDbCircle
 62
6
  6
CONTINUOUS
 10
7.741007584
 20
17.3704340721
 40
1.18
100
AcDbArc
 50
196.9640995599
 51
163.0359004401
  0
ARC
  5
337
100
AcDbEntity
  8
0
100
AcDbCircle
 62
6
  6
CONTINUOUS
 10
7.741007584
 20
17.3704340721
 40
1.0000026738
100
AcDbArc
 50
193.5803982449
 51
166.419601755
  0
ARC
  5
338
100
AcDbEntity
  8
0
100
AcDbCircle
 62
9
  6
CONTINUOUS
 10
7.741007584
 20
17.3704340721
 40
0.8130026738
100
AcDbArc
 50
193.8928771445
 51
166.1071228555
  0
ARC
  5
339
100
AcDbEntity
  8
0
100
AcDbCircle
 62
6
  6
CONTINUOUS
 10
7.741007584
 20
17.3704340721
 40
0.741
100
AcDbArc
 50
2.552739714
 51
57.4538323819
  0
ARC
  5
33A
100
AcDbEntity
  8
0
100
AcDbCircle
 62
6
  6
CONTINUOUS
 10
7.741007584
 20
17.3704340721
 40
0.741
100
AcDbArc
 50
62.5461676181
 51
117.4538323819
  0
ARC
  5
33B
100
AcDbEntity
  8
0
100
AcDbCircle
 62
6
  6
CONTINUOUS
 10
7.741007584
 20
17.3704340721
 40
0.741
100
AcDbArc
 50
122.5461676181
 51
164.7205779326
  0
ARC
  5
33C
100
AcDbEntity
  8
0
100
AcDbCircle
 62
6
  6
CONTINUOUS
 10
7.741007584
 20
17.3704340721
 40
0.741
100
AcDbArc
 50
302.5461676181
 51
357.447260286
  0
ARC
  5
33D
100
AcDbEntity
  8
0
100
AcDbCircle
 62
6
  6
CONTINUOUS
 10
7.741007584
 20
17.3704340721
 40
0.741
100
AcDbArc
 50
242.5461676181
 51
297.4538323819
  0
ARC
  5
33E
100
AcDbEntity
  8
0
100
AcDbCircle
 62
6
  6
CONTINUOUS
 10
7.741007584
 20
17.3704340721
 40
0.741
100
AcDbArc
 50
195.2794220674
 51
237.4538323819
  0
ARC
  5
33F
100
AcDbEntity
  8
0
100
AcDbCircle
 62
6
  6
CONTINUOUS
 10
7.741007584
 20
17.3704340721
 40
0.6515
100
AcDbArc
 50
197.4172876963
 51
162.5827123036
  0
ARC
  5
340
100
AcDbEntity
  8
0
100
AcDbCircle
 62
9
  6
CONTINUOUS
 10
7.741007584
 20
17.3704340721
 40
0.6146339942
100
AcDbArc
 50
198.5381573567
 51
161.4618426433
  0
ARC
  5
341
100
AcDbEntity
  8
0
100
AcDbCircle
 62
9
  6
CONTINUOUS
 10
7.741007584
 20
17.3704340721
 40
0.5405
100
AcDbArc
 50
201.2103314457
 51
158.7896685543
  0
ARC
  5
342
100
AcDbEntity
  8
0
100
AcDbCircle
 62
9
  6
CONTINUOUS
 10
7.741007584
 20
17.3704340721
 40
0.4297397274
100
AcDbArc
 50
207.0403434174
 51
152.9591376845
  0
ARC
  5
343
100
AcDbEntity
  8
0
100
AcDbCircle
 62
9
  6
CONTINUOUS
 10
7.741007584
 20
17.3704340721
 40
0.398848868
100
AcDbArc
 50
209.3612748175
 51
150.6393239357
  0
ARC
  5
344
100
AcDbEntity
  8
0
100
AcDbCircle
 62
6
  6
CONTINUOUS
 10
7.741007584
 20
17.3704340721
 40
0.3525
100
AcDbArc
 50
213.6886998261
 51
146.3113001739
  0
ARC
  5
345
100
AcDbEntity
  8
0
100
AcDbCircle
 62
6
  6
CONTINUOUS
 10
7.741007584
 20
17.3704340721
 40
0.35
100
AcDbArc
 50
213.8613063733
 51
146.1386936266
  0
ARC
  5
346
100
AcDbEntity
  8
0
100
AcDbCircle
 62
9
  6
CONTINUOUS
 10
7.741007584
 20
17.3704340721
 40
0.3152411111
100
AcDbArc
 50
218.3897086139
 51
141.6102913861
  0
ARC
  5
347
100
AcDbEntity
  8
0
100
AcDbCircle
 62
6
  6
CONTINUOUS
 10
7.741007584
 20
17.3704340721
 40
0.3125
100
AcDbArc
 50
218.6125217086
 51
141.3874782913
  0
ARC
  5
348
100
AcDbEntity
  8
0
100
AcDbCircle
 62
9
  6
CONTINUOUS
 10
7.741007584
 20
17.3704340721
 40
0.2525
100
AcDbArc
 50
230.8962611038
 51
129.1037388962
  0
ARC
  5
349
100
AcDbEntity
  8
0
100
AcDbCircle
 62
9
  6
CONTINUOUS
 10
7.741007584
 20
17.3704340721
 40
0.195
100
AcDbArc
 50
270.0
 51
90.0
  0
ARC
  5
34A
100
AcDbEntity
  8
0
100
AcDbCircle
 62
6
  6
CONTINUOUS
 10
10.541007584
 20
26.3704340721
 40
0.21
100
AcDbArc
 50
309.870833936
 51
50.129166064
  0
ARC
  5
34B
100
AcDbEntity
  8
0
100
AcDbCircle
 62
6
  6
CONTINUOUS
 10
10.8924794465
 20
25.5219059346
 40
0.21
100
AcDbArc
 50
354.870833936
 51
95.129166064
  0
ARC
  5
34C
100
AcDbEntity
  8
0
100
AcDbCircle
 62
6
  6
CONTINUOUS
 10
10.8924794465
 20
27.2189622095
 40
0.21
100
AcDbArc
 50
264.870833936
 51
5.129166064
  0
CIRCLE
  5
34D
100
AcDbEntity
  8
0
100
AcDbCircle
 62
6
  6
CONTINUOUS
 10
11.741007584
 20
5.3704340721
 40
0.79
  0
CIRCLE
  5
34E
100
AcDbEntity
  8
0
100
AcDbCircle
 62
9
  6
CONTINUOUS
 10
11.741007584
 20
5.3704340721
 40
0.5001842084
  0
CIRCLE
  5
34F
100
AcDbEntity
  8
0
100
AcDbCircle
 62
7
  6
CONTINUOUS
 10
11.741007584
 20
5.3704340721
 40
0.47
  0
ARC
  5
350
100
AcDbEntity
  8
0
100
AcDbCircle
 62
7
  6
CONTINUOUS
 10
11.741007584
 20
5.3704340721
 40
0.463
100
AcDbArc
 50
69.9719116677
 51
110.0280883323
  0
ARC
  5
351
100
AcDbEntity
  8
0
100
AcDbCircle
 62
7
  6
CONTINUOUS
 10
11.741007584
 20
5.3704340721
 40
0.463
100
AcDbArc
 50
249.9719116677
 51
290.0280883323
  0
ARC
  5
352
100
AcDbEntity
  8
0
100
AcDbCircle
 62
9
  6
CONTINUOUS
 10
11.741007584
 20
5.3704340721
 40
0.463
100
AcDbArc
 50
110.0280883323
 51
249.9719116677
  0
ARC
  5
353
100
AcDbEntity
  8
0
100
AcDbCircle
 62
9
  6
CONTINUOUS
 10
11.741007584
 20
5.3704340721
 40
0.463
100
AcDbArc
 50
290.0280883323
 51
69.9719116677
  0
ARC
  5
354
100
AcDbEntity
  8
0
100
AcDbCircle
 62
9
  6
CONTINUOUS
 10
11.741007584
 20
5.3704340721
 40
0.4595
100
AcDbArc
 50
108.7943249773
 51
251.2056750227
  0
ARC
  5
355
100
AcDbEntity
  8
0
100
AcDbCircle
 62
9
  6
CONTINUOUS
 10
11.741007584
 20
5.3704340721
 40
0.4595
100
AcDbArc
 50
288.7943249773
 51
71.2056750227
  0
ARC
  5
356
100
AcDbEntity
  8
0
100
AcDbCircle
 62
7
  6
CONTINUOUS
 10
11.741007584
 20
5.3704340721
 40
0.45
100
AcDbArc
 50
255.8841049514
 51
283.973168208
  0
ARC
  5
357
100
AcDbEntity
  8
0
100
AcDbCircle
 62
7
  6
CONTINUOUS
 10
11.741007584
 20
5.3704340721
 40
0.45
100
AcDbArc
 50
75.9982965479
 51
90.1943844492
  0
ARC
  5
358
100
AcDbEntity
  8
0
100
AcDbCircle
 62
7
  6
CONTINUOUS
 10
11.741037635
 20
5.3701554796
 40
0.4489785902
100
AcDbArc
 50
90.1980987338
 51
103.4057504936
  0
CIRCLE
  5
359
100
AcDbEntity
  8
0
100
AcDbCircle
 62
6
  6
CONTINUOUS
 10
11.741007584
 20
9.3704340721
 40
0.656
  0
ARC
  5
35A
100
AcDbEntity
  8
0
100
AcDbCircle
 62
7
  6
CONTINUOUS
 10
11.741007584
 20
9.9131433251
 40
0.03
100
AcDbArc
 50
60.0
 51
120.0
  0
ARC
  5
35B
100
AcDbEntity
  8
0
100
AcDbCircle
 62
7
  6
CONTINUOUS
 10
11.741007584
 20
8.827724819
 40
0.03
100
AcDbArc
 50
240.0
 51
300.0
  0
ARC
  5
35C
100
AcDbEntity
  8
0
100
AcDbCircle
 62
6
  6
CONTINUOUS
 10
12.211007584
 20
9.6417886986
 40
0.03
100
AcDbArc
 50
0.0
 51
60.0
  0
ARC
  5
35D
100
AcDbEntity
  8
0
100
AcDbCircle
 62
6
  6
CONTINUOUS
 10
12.211007584
 20
9.0990794455
 40
0.03
100
AcDbArc
 50
300.0
 51
360.0
  0
ARC
  5
35E
100
AcDbEntity
  8
0
100
AcDbCircle
 62
6
  6
CONTINUOUS
 10
15.741007584
 20
17.3704340721
 40
1.18
100
AcDbArc
 50
16.9640995599
 51
343.0359004401
  0
ARC
  5
35F
100
AcDbEntity
  8
0
100
AcDbCircle
 62
6
  6
CONTINUOUS
 10
15.741007584
 20
17.3704340721
 40
1.0000026738
100
AcDbArc
 50
13.5803982449
 51
346.419601755
  0
ARC
  5
360
100
AcDbEntity
  8
0
100
AcDbCircle
 62
9
  6
CONTINUOUS
 10
15.741007584
 20
17.3704340721
 40
0.8130026738
100
AcDbArc
 50
13.8928771445
 51
346.1071228555
  0
ARC
  5
361
100
AcDbEntity
  8
0
100
AcDbCircle
 62
6
  6
CONTINUOUS
 10
15.741007584
 20
17.3704340721
 40
0.741
100
AcDbArc
 50
15.2794220674
 51
57.4538323819
  0
ARC
  5
362
100
AcDbEntity
  8
0
100
AcDbCircle
 62
6
  6
CONTINUOUS
 10
15.741007584
 20
17.3704340721
 40
0.741
100
AcDbArc
 50
62.5461676181
 51
117.4538323819
  0
ARC
  5
363
100
AcDbEntity
  8
0
100
AcDbCircle
 62
6
  6
CONTINUOUS
 10
15.741007584
 20
17.3704340721
 40
0.741
100
AcDbArc
 50
122.5461676181
 51
177.447260286
  0
ARC
  5
364
100
AcDbEntity
  8
0
100
AcDbCircle
 62
6
  6
CONTINUOUS
 10
15.741007584
 20
17.3704340721
 40
0.741
100
AcDbArc
 50
302.5461676181
 51
344.7205779326
  0
ARC
  5
365
100
AcDbEntity
  8
0
100
AcDbCircle
 62
6
  6
CONTINUOUS
 10
15.741007584
 20
17.3704340721
 40
0.741
100
AcDbArc
 50
242.5461676181
 51
297.4538323819
  0
ARC
  5
366
100
AcDbEntity
  8
0
100
AcDbCircle
 62
6
  6
CONTINUOUS
 10
15.741007584
 20
17.3704340721
 40
0.741
100
AcDbArc
 50
182.552739714
 51
237.4538323819
  0
ARC
  5
367
100
AcDbEntity
  8
0
100
AcDbCircle
 62
6
  6
CONTINUOUS
 10
15.741007584
 20
17.3704340721
 40
0.6515
100
AcDbArc
 50
17.4172876963
 51
342.5827123036
  0
ARC
  5
368
100
AcDbEntity
  8
0
100
AcDbCircle
 62
9
  6
CONTINUOUS
 10
15.741007584
 20
17.3704340721
 40
0.6146339942
100
AcDbArc
 50
18.5381573567
 51
341.4618426433
  0
ARC
  5
369
100
AcDbEntity
  8
0
100
AcDbCircle
 62
9
  6
CONTINUOUS
 10
15.741007584
 20
17.3704340721
 40
0.5405
100
AcDbArc
 50
21.2103314457
 51
338.7896685543
  0
ARC
  5
36A
100
AcDbEntity
  8
0
100
AcDbCircle
 62
9
  6
CONTINUOUS
 10
15.741007584
 20
17.3704340721
 40
0.4297397274
100
AcDbArc
 50
27.0403434174
 51
332.9591376845
  0
ARC
  5
36B
100
AcDbEntity
  8
0
100
AcDbCircle
 62
9
  6
CONTINUOUS
 10
15.741007584
 20
17.3704340721
 40
0.398848868
100
AcDbArc
 50
29.3612748175
 51
330.6393239357
  0
ARC
  5
36C
100
AcDbEntity
  8
0
100
AcDbCircle
 62
6
  6
CONTINUOUS
 10
15.741007584
 20
17.3704340721
 40
0.3525
100
AcDbArc
 50
33.6886998261
 51
326.3113001739
  0
ARC
  5
36D
100
AcDbEntity
  8
0
100
AcDbCircle
 62
6
  6
CONTINUOUS
 10
15.741007584
 20
17.3704340721
 40
0.35
100
AcDbArc
 50
33.8613063733
 51
326.1386936266
  0
ARC
  5
36E
100
AcDbEntity
  8
0
100
AcDbCircle
 62
9
  6
CONTINUOUS
 10
15.741007584
 20
17.3704340721
 40
0.3152411111
100
AcDbArc
 50
38.3897086139
 51
321.6102913861
  0
ARC
  5
36F
100
AcDbEntity
  8
0
100
AcDbCircle
 62
6
  6
CONTINUOUS
 10
15.741007584
 20
17.3704340721
 40
0.3125
100
AcDbArc
 50
38.6125217086
 51
321.3874782913
  0
ARC
  5
370
100
AcDbEntity
  8
0
100
AcDbCircle
 62
9
  6
CONTINUOUS
 10
15.741007584
 20
17.3704340721
 40
0.2525
100
AcDbArc
 50
50.8962611038
 51
309.1037388962
  0
ARC
  5
371
100
AcDbEntity
  8
0
100
AcDbCircle
 62
9
  6
CONTINUOUS
 10
15.741007584
 20
17.3704340721
 40
0.195
100
AcDbArc
 50
90.0
 51
270.0
  0
ARC
  5
372
100
AcDbEntity
  8
0
100
AcDbCircle
 62
6
  6
CONTINUOUS
 10
11.741007584
 20
26.3704340721
 40
1.0775
100
AcDbArc
 50
278.6026297634
 51
306.3973702366
  0
ARC
  5
373
100
AcDbEntity
  8
0
100
AcDbCircle
 62
6
  6
CONTINUOUS
 10
11.741007584
 20
26.3704340721
 40
1.0775
100
AcDbArc
 50
233.6026297634
 51
261.3973702366
  0
ARC
  5
374
100
AcDbEntity
  8
0
100
AcDbCircle
 62
6
  6
CONTINUOUS
 10
11.741007584
 20
26.3704340721
 40
1.0775
100
AcDbArc
 50
188.6026297634
 51
216.3973702366
  0
ARC
  5
375
100
AcDbEntity
  8
0
100
AcDbCircle
 62
6
  6
CONTINUOUS
 10
11.741007584
 20
26.3704340721
 40
1.0775
100
AcDbArc
 50
323.6026297634
 51
351.3973702366
  0
ARC
  5
376
100
AcDbEntity
  8
0
100
AcDbCircle
 62
6
  6
CONTINUOUS
 10
11.741007584
 20
26.3704340721
 40
1.0775
100
AcDbArc
 50
143.6026297634
 51
171.3973702366
  0
ARC
  5
377
100
AcDbEntity
  8
0
100
AcDbCircle
 62
6
  6
CONTINUOUS
 10
11.741007584
 20
26.3704340721
 40
1.0775
100
AcDbArc
 50
98.6026297634
 51
126.3973702366
  0
ARC
  5
378
100
AcDbEntity
  8
0
100
AcDbCircle
 62
6
  6
CONTINUOUS
 10
11.741007584
 20
26.3704340721
 40
1.0775
100
AcDbArc
 50
53.6026297634
 51
81.3973702366
  0
ARC
  5
379
100
AcDbEntity
  8
0
100
AcDbCircle
 62
6
  6
CONTINUOUS
 10
11.741007584
 20
26.3704340721
 40
1.0775
100
AcDbArc
 50
8.6026297634
 51
36.3973702366
  0
ARC
  5
37A
100
AcDbEntity
  8
0
100
AcDbCircle
 62
6
  6
CONTINUOUS
 10
11.741007584
 20
26.3704340721
 40
1.0125
100
AcDbArc
 50
310.480163986
 51
319.5185219598
  0
ARC
  5
37B
100
AcDbEntity
  8
0
100
AcDbCircle
 62
6
  6
CONTINUOUS
 10
11.741007584
 20
26.3704340721
 40
1.0125
100
AcDbArc
 50
265.4263455106
 51
274.5718694491
  0
ARC
  5
37C
100
AcDbEntity
  8
0
100
AcDbCircle
 62
6
  6
CONTINUOUS
 10
11.741007584
 20
26.3704340721
 40
1.0125
100
AcDbArc
 50
220.4806288144
 51
229.5193797113
  0
ARC
  5
37D
100
AcDbEntity
  8
0
100
AcDbCircle
 62
6
  6
CONTINUOUS
 10
11.741007584
 20
26.3704340721
 40
1.0125
100
AcDbArc
 50
355.4689602386
 51
4.530121467
  0
ARC
  5
37E
100
AcDbEntity
  8
0
100
AcDbCircle
 62
6
  6
CONTINUOUS
 10
11.741007584
 20
26.3704340721
 40
1.0125
100
AcDbArc
 50
40.4806288144
 51
49.5193797113
  0
ARC
  5
37F
100
AcDbEntity
  8
0
100
AcDbCircle
 62
6
  6
CONTINUOUS
 10
11.741007584
 20
26.3704340721
 40
1.0125
100
AcDbArc
 50
85.4263455106
 51
94.5718694491
  0
ARC
  5
380
100
AcDbEntity
  8
0
100
AcDbCircle
 62
6
  6
CONTINUOUS
 10
11.741007584
 20
26.3704340721
 40
1.0125
100
AcDbArc
 50
130.480163986
 51
139.5185219598
  0
ARC
  5
381
100
AcDbEntity
  8
0
100
AcDbCircle
 62
6
  6
CONTINUOUS
 10
11.741007584
 20
26.3704340721
 40
1.0125
100
AcDbArc
 50
175.4689602386
 51
184.530121467
  0
CIRCLE
  5
382
100
AcDbEntity
  8
0
100
AcDbCircle
 62
6
  6
CONTINUOUS
 10
11.741007584
 20
26.3704340721
 40
0.935
  0
CIRCLE
  5
383
100
AcDbEntity
  8
0
100
AcDbCircle
 62
9
  6
CONTINUOUS
 10
11.741007584
 20
26.3704340721
 40
0.909136433
  0
ARC
  5
384
100
AcDbEntity
  8
0
100
AcDbCircle
 62
6
  6
CONTINUOUS
 10
11.741007584
 20
25.1704340721
 40
0.21
100
AcDbArc
 50
39.870833936
 51
140.129166064
  0
ARC
  5
385
100
AcDbEntity
  8
0
100
AcDbCircle
 62
6
  6
CONTINUOUS
 10
12.941007584
 20
26.3704340721
 40
0.21
100
AcDbArc
 50
129.870833936
 51
230.129166064
  0
ARC
  5
386
100
AcDbEntity
  8
0
100
AcDbCircle
 62
6
  6
CONTINUOUS
 10
11.741007584
 20
27.5704340721
 40
0.21
100
AcDbArc
 50
219.870833936
 51
320.129166064
  0
ARC
  5
387
100
AcDbEntity
  8
0
100
AcDbCircle
 62
6
  6
CONTINUOUS
 10
12.5895357214
 20
25.5219059346
 40
0.21
100
AcDbArc
 50
84.870833936
 51
185.129166064
  0
ARC
  5
388
100
AcDbEntity
  8
0
100
AcDbCircle
 62
6
  6
CONTINUOUS
 10
12.5895357214
 20
27.2189622095
 40
0.21
100
AcDbArc
 50
174.870833936
 51
275.129166064
  0
ARC
  5
389
100
AcDbEntity
  8
0
100
AcDbCircle
 62
6
  6
CONTINUOUS
 10
20.1553711824
 20
17.3704340721
 40
0.23
100
AcDbArc
 50
239.6028715785
 51
128.39704216
  0
ARC
  5
38A
100
AcDbEntity
  8
0
100
AcDbCircle
 62
6
  6
CONTINUOUS
 10
16.657007584
 20
17.7607715721
 40
0.1653375
100
AcDbArc
 50
273.269516506
 51
331.6756638894
  0
ARC
  5
38B
100
AcDbEntity
  8
0
100
AcDbCircle
 62
6
  6
CONTINUOUS
 10
16.657007584
 20
16.9800965721
 40
0.1653375
100
AcDbArc
 50
28.3243361106
 51
86.730483494
  0
ARC
  5
38C
100
AcDbEntity
  8
0
100
AcDbCircle
 62
6
  6
CONTINUOUS
 10
16.858007584
 20
17.6524340721
 40
0.063
100
AcDbArc
 50
0.0
 51
151.6756638894
  0
ARC
  5
38D
100
AcDbEntity
  8
0
100
AcDbCircle
 62
6
  6
CONTINUOUS
 10
16.858007584
 20
17.0884340721
 40
0.063
100
AcDbArc
 50
208.3243361106
 51
360.0
  0
ARC
  5
38E
100
AcDbEntity
  8
0
100
AcDbCircle
 62
6
  6
CONTINUOUS
 10
16.667007584
 20
17.5857194687
 40
0.01
100
AcDbArc
 50
93.2695179893
 51
180.000023165
  0
ARC
  5
38F
100
AcDbEntity
  8
0
100
AcDbCircle
 62
6
  6
CONTINUOUS
 10
16.667007584
 20
17.1551486755
 40
0.01
100
AcDbArc
 50
179.999976835
 51
266.7304820107
  0
SPLINE
  5
390
100
AcDbEntity
  8
0
100
AcDbSpline
 62
7
  6
CONTINUOUS
 70
0
 71
3
 72
25
 73
21
 74
19
 42
0.0000001
 43
0.0000001
 44
0.0000000001
 12
-0.0119555202
 22
0.0166098348
 32
0.0
 13
-0.0177233125
 23
-0.0102325592
 33
0.0
 40
0.0
 40
0.0
 40
0.0
 40
0.0
 40
0.1931300604
 40
0.2844581856
 40
0.3715602593
 40
0.4539368248
 40
0.5312488631
 40
0.6032088845
 40
0.6695508837
 40
0.7300575964
 40
0.7580898361
 40
0.7846305506
 40
0.8332317503
 40
0.8759593165
 40
0.9131085398
 40
0.929797187
 40
0.9453703859
 40
0.973751031
 40
0.9870249126
 40
1.0
 40
1.0
 40
1.0
 40
1.0
 10
11.741007584
 20
9.9264886293
 30
0.0
 10
11.7402379272
 20
9.9275579155
 30
0.0
 10
11.7390727165
 20
9.9291106669
 30
0.0
 10
11.7374803011
 20
9.9310829172
 30
0.0
 10
11.7363273926
 20
9.9324382685
 30
0.0
 10
11.7352000723
 20
9.9336889853
 30
0.0
 10
11.7341048344
 20
9.9348285306
 30
0.0
 10
11.7330474121
 20
9.935851466
 30
0.0
 10
11.7320332796
 20
9.9367526173
 30
0.0
 10
11.7312085961
 20
9.9374140539
 30
0.0
 10
11.7305736329
 20
9.9378759399
 30
0.0
 10
11.7299905087
 20
9.9382702228
 30
0.0
 10
11.7292996498
 20
9.9386836691
 30
0.0
 10
11.7285062462
 20
9.9390597703
 30
0.0
 10
11.7278772768
 20
9.9392646241
 30
0.0
 10
11.7274109352
 20
9.9393509001
 30
0.0
 10
11.7269984027
 20
9.9393860167
 30
0.0
 10
11.7266042013
 20
9.9393546934
 30
0.0
 10
11.7262465572
 20
9.939245919
 30
0.0
 10
11.7260842352
 20
9.9391683418
 30
0.0
 10
11.7260075813
 20
9.9391240857
 30
0.0
 11
11.741007584
 21
9.9264886293
 31
0.0
 11
11.7386308619
 21
9.9296466179
 31
0.0
 11
11.7374558882
 21
9.9311001484
 31
0.0
 11
11.736299906
 21
9.9324570584
 31
0.0
 11
11.7351701349
 21
9.9337083355
 31
0.0
 11
11.7340724737
 21
9.9348478516
 31
0.0
 11
11.7330124911
 21
9.9358701994
 31
0.0
 11
11.7319957559
 21
9.9367699717
 31
0.0
 11
11.7310277024
 21
9.9375421132
 31
0.0
 11
11.7305634702
 21
9.9378791603
 31
0.0
 11
11.7301132283
 21
9.9381829758
 31
0.0
 11
11.7292570972
 21
9.9386892632
 31
0.0
 11
11.7284640725
 21
9.9390576793
 31
0.0
 11
11.7277387502
 21
9.9392855118
 31
0.0
 11
11.7274027145
 21
9.9393465553
 31
0.0
 11
11.7270850556
 21
9.9393723849
 31
0.0
 11
11.7265067467
 21
9.9393185068
 31
0.0
 11
11.7262470362
 21
9.9392388511
 31
0.0
 11
11.7260075813
 21
9.9391240857
 31
0.0
  0
SPLINE
  5
391
100
AcDbEntity
  8
0
100
AcDbSpline
 62
7
  6
CONTINUOUS
 70
0
 71
3
 72
24
 73
20
 74
18
 42
0.0000001
 43
0.0000001
 44
0.0000000001
 12
0.0119555431
 22
0.0166098667
 32
0.0
 13
0.0177233665
 23
-0.0102325443
 33
0.0
 40
0.0
 40
0.0
 40
0.0
 40
0.0
 40
0.1932713926
 40
0.3715702746
 40
0.453896524
 40
0.5311990768
 40
0.6031606028
 40
0.6695190737
 40
0.730067914
 40
0.7581150954
 40
0.784656896
 40
0.8332321198
 40
0.8759355689
 40
0.9130828493
 40
0.9297694622
 40
0.9453409252
 40
0.9737267115
 40
0.987010273
 40
1.0
 40
1.0
 40
1.0
 40
1.0
 10
11.741007584
 20
9.9264886288
 30
0.0
 10
11.7417778054
 20
9.9275586994
 30
0.0
 10
11.743299652
 20
9.9295868117
 30
0.0
 10
11.7452713912
 20
9.9319761619
 30
0.0
 10
11.746814945
 20
9.9336887976
 30
0.0
 10
11.7479097788
 20
9.9348281889
 30
0.0
 10
11.7489673116
 20
9.9358511046
 30
0.0
 10
11.7499819393
 20
9.9367523143
 30
0.0
 10
11.7508068824
 20
9.9374142227
 30
0.0
 10
11.751442069
 20
9.9378764816
 30
0.0
 10
11.7520251333
 20
9.9382707352
 30
0.0
 10
11.7527158227
 20
9.9386838423
 30
0.0
 10
11.7535089458
 20
9.9390596171
 30
0.0
 10
11.7541375045
 20
9.9392650962
 30
0.0
 10
11.7546037851
 20
9.9393515455
 30
0.0
 10
11.7550163329
 20
9.9393866644
 30
0.0
 10
11.7554106218
 20
9.9393551163
 30
0.0
 10
11.7557683959
 20
9.9392460852
 30
0.0
 10
11.7559308434
 20
9.9391683932
 30
0.0
 10
11.756007584
 20
9.9391240872
 30
0.0
 11
11.741007584
 21
9.9264886288
 31
0.0
 11
11.7433859378
 21
9.9296490187
 31
0.0
 11
11.7457155826
 21
9.9324574585
 31
0.0
 11
11.7468446747
 21
9.9337079658
 31
0.0
 11
11.7479421182
 21
9.9348474261
 31
0.0
 11
11.7490021839
 21
9.9358697362
 31
0.0
 11
11.7500192754
 21
9.9367696185
 31
0.0
 11
11.7509878993
 21
9.9375424312
 31
0.0
 11
11.75145232
 21
9.9378797411
 31
0.0
 11
11.7519025779
 21
9.9381835744
 31
0.0
 11
11.7527583484
 21
9.938689431
 31
0.0
 11
11.753550917
 21
9.9390576614
 31
0.0
 11
11.7542760354
 21
9.9392860147
 31
0.0
 11
11.7546120069
 21
9.9393471817
 31
0.0
 11
11.754929631
 21
9.9393730091
 31
0.0
 11
11.7555080231
 21
9.9393188781
 31
0.0
 11
11.7557678842
 21
9.939239036
 31
0.0
 11
11.756007584
 21
9.9391240872
 31
0.0
  0
SPLINE
  5
392
100
AcDbEntity
  8
0
100
AcDbSpline
 62
7
  6
CONTINUOUS
 70
0
 71
3
 72
25
 73
21
 74
19
 42
0.0000001
 43
0.0000001
 44
0.0000000001
 12
0.0119555202
 22
-0.0166098348
 32
0.0
 13
0.0177233125
 23
0.0102325592
 33
0.0
 40
0.0
 40
0.0
 40
0.0
 40
0.0
 40
0.1931300604
 40
0.2844581856
 40
0.3715602593
 40
0.4539368248
 40
0.5312488631
 40
0.6032088845
 40
0.6695508837
 40
0.7300575964
 40
0.7580898361
 40
0.7846305506
 40
0.8332317503
 40
0.8759593165
 40
0.9131085398
 40
0.929797187
 40
0.9453703859
 40
0.973751031
 40
0.9870249126
 40
1.0
 40
1.0
 40
1.0
 40
1.0
 10
11.741007584
 20
8.8143795148
 30
0.0
 10
11.7417772407
 20
8.8133102286
 30
0.0
 10
11.7429424514
 20
8.8117574772
 30
0.0
 10
11.7445348669
 20
8.8097852269
 30
0.0
 10
11.7456877753
 20
8.8084298756
 30
0.0
 10
11.7468150956
 20
8.8071791588
 30
0.0
 10
11.7479103335
 20
8.8060396135
 30
0.0
 10
11.7489677558
 20
8.8050166781
 30
0.0
 10
11.7499818884
 20
8.8041155268
 30
0.0
 10
11.7508065718
 20
8.8034540902
 30
0.0
 10
11.751441535
 20
8.8029922042
 30
0.0
 10
11.7520246592
 20
8.8025979213
 30
0.0
 10
11.7527155181
 20
8.802184475
 30
0.0
 10
11.7535089217
 20
8.8018083738
 30
0.0
 10
11.7541378911
 20
8.80160352
 30
0.0
 10
11.7546042328
 20
8.801517244
 30
0.0
 10
11.7550167652
 20
8.8014821275
 30
0.0
 10
11.7554109666
 20
8.8015134507
 30
0.0
 10
11.7557686107
 20
8.8016222251
 30
0.0
 10
11.7559309328
 20
8.8016998023
 30
0.0
 10
11.7560075866
 20
8.8017440584
 30
0.0
 11
11.741007584
 21
8.8143795148
 31
0.0
 11
11.743384306
 21
8.8112215262
 31
0.0
 11
11.7445592797
 21
8.8097679958
 31
0.0
 11
11.7457152619
 21
8.8084110858
 31
0.0
 11
11.7468450331
 21
8.8071598086
 31
0.0
 11
11.7479426942
 21
8.8060202925
 31
0.0
 11
11.7490026768
 21
8.8049979447
 31
0.0
 11
11.750019412
 21
8.8040981724
 31
0.0
 11
11.7509874655
 21
8.8033260309
 31
0.0
 11
11.7514516977
 21
8.8029889838
 31
0.0
 11
11.7519019396
 21
8.8026851683
 31
0.0
 11
11.7527580707
 21
8.8021788809
 31
0.0
 11
11.7535510954
 21
8.8018104648
 31
0.0
 11
11.7542764177
 21
8.8015826323
 31
0.0
 11
11.7546124534
 21
8.8015215888
 31
0.0
 11
11.7549301123
 21
8.8014957592
 31
0.0
 11
11.7555084212
 21
8.8015496373
 31
0.0
 11
11.7557681317
 21
8.801629293
 31
0.0
 11
11.7560075866
 21
8.8017440584
 31
0.0
  0
SPLINE
  5
393
100
AcDbEntity
  8
0
100
AcDbSpline
 62
7
  6
CONTINUOUS
 70
0
 71
3
 72
24
 73
20
 74
18
 42
0.0000001
 43
0.0000001
 44
0.0000000001
 12
-0.0119555431
 22
-0.0166098667
 32
0.0
 13
-0.0177233665
 23
0.0102325443
 33
0.0
 40
0.0
 40
0.0
 40
0.0
 40
0.0
 40
0.1932713926
 40
0.3715702746
 40
0.453896524
 40
0.5311990768
 40
0.6031606028
 40
0.6695190737
 40
0.730067914
 40
0.7581150954
 40
0.784656896
 40
0.8332321198
 40
0.8759355689
 40
0.9130828493
 40
0.9297694622
 40
0.9453409252
 40
0.9737267115
 40
0.987010273
 40
1.0
 40
1.0
 40
1.0
 40
1.0
 10
11.741007584
 20
8.8143795154
 30
0.0
 10
11.7402373625
 20
8.8133094447
 30
0.0
 10
11.7387155159
 20
8.8112813324
 30
0.0
 10
11.7367437767
 20
8.8088919822
 30
0.0
 10
11.735200223
 20
8.8071793465
 30
0.0
 10
11.7341053891
 20
8.8060399552
 30
0.0
 10
11.7330478563
 20
8.8050170395
 30
0.0
 10
11.7320332286
 20
8.8041158298
 30
0.0
 10
11.7312082855
 20
8.8034539214
 30
0.0
 10
11.730573099
 20
8.8029916625
 30
0.0
 10
11.7299900346
 20
8.8025974089
 30
0.0
 10
11.7292993452
 20
8.8021843018
 30
0.0
 10
11.7285062221
 20
8.8018085271
 30
0.0
 10
11.7278776634
 20
8.8016030479
 30
0.0
 10
11.7274113828
 20
8.8015165986
 30
0.0
 10
11.726998835
 20
8.8014814797
 30
0.0
 10
11.7266045461
 20
8.8015130278
 30
0.0
 10
11.726246772
 20
8.8016220589
 30
0.0
 10
11.7260843245
 20
8.8016997509
 30
0.0
 10
11.726007584
 20
8.8017440569
 30
0.0
 11
11.741007584
 21
8.8143795154
 31
0.0
 11
11.7386292301
 21
8.8112191254
 31
0.0
 11
11.7362995853
 21
8.8084106856
 31
0.0
 11
11.7351704932
 21
8.8071601783
 31
0.0
 11
11.7340730497
 21
8.806020718
 31
0.0
 11
11.733012984
 21
8.8049984079
 31
0.0
 11
11.7319958925
 21
8.8040985256
 31
0.0
 11
11.7310272686
 21
8.8033257129
 31
0.0
 11
11.7305628479
 21
8.802988403
 31
0.0
 11
11.73011259
 21
8.8026845697
 31
0.0
 11
11.7292568195
 21
8.8021787131
 31
0.0
 11
11.7284642509
 21
8.8018104827
 31
0.0
 11
11.7277391325
 21
8.8015821294
 31
0.0
 11
11.727403161
 21
8.8015209624
 31
0.0
 11
11.7270855369
 21
8.801495135
 31
0.0
 11
11.7265071448
 21
8.801549266
 31
0.0
 11
11.7262472837
 21
8.8016291081
 31
0.0
 11
11.726007584
 21
8.8017440569
 31
0.0
  0
SPLINE
  5
394
100
AcDbEntity
  8
0
100
AcDbSpline
 62
6
  6
CONTINUOUS
 70
0
 71
3
 72
43
 73
39
 74
37
 42
0.0000001
 43
0.0000001
 44
0.0000000001
 12
-0.0736588862
 22
-0.1377757053
 32
0.0
 13
0.1443308283
 23
-0.0598029139
 33
0.0
 40
0.0
 40
0.0
 40
0.0
 40
0.0
 40
0.0782143315
 40
0.157873702
 40
0.2380012621
 40
0.2780005447
 40
0.3178318641
 40
0.3574054246
 40
0.3966362142
 40
0.4354393213
 40
0.4737296782
 40
0.5484088117
 40
0.584610345
 40
0.6199292019
 40
0.6542703577
 40
0.6875229405
 40
0.7195759692
 40
0.7503241041
 40
0.7796691068
 40
0.8075188375
 40
0.8337897322
 40
0.8584121237
 40
0.8700898475
 40
0.8813386974
 40
0.8921549726
 40
0.9025359687
 40
0.9124825184
 40
0.9219998883
 40
0.9310987701
 40
0.9397964627
 40
0.948118236
 40
0.9560987904
 40
0.9637820205
 40
0.9712208753
 40
0.9784802087
 40
0.9856368568
 40
0.9927782952
 40
1.0
 40
1.0
 40
1.0
 40
1.0
 10
3.4858178315
 20
17.3362648563
 30
0.0
 10
3.483897438
 20
17.3326728447
 30
0.0
 10
3.4801533069
 20
17.3253512464
 30
0.0
 10
3.4748573573
 20
17.3141435602
 30
0.0
 10
3.4706761296
 20
17.3046150998
 30
0.0
 10
3.467468229
 20
17.296927326
 30
0.0
 10
3.4651388704
 20
17.2911617917
 30
0.0
 10
3.4628870296
 20
17.2854085169
 30
0.0
 10
3.460716911
 20
17.2796811484
 30
0.0
 10
3.4586322526
 20
17.2739932251
 30
0.0
 10
3.4559935492
 20
17.2665428083
 30
0.0
 10
3.453522959
 20
17.2591767783
 30
0.0
 10
3.4512540341
 20
17.2519088904
 30
0.0
 10
3.4496927068
 20
17.2466214328
 30
0.0
 10
3.4482637336
 20
17.2414557974
 30
0.0
 10
3.446979356
 20
17.236427585
 30
0.0
 10
3.4458521993
 20
17.231553567
 30
0.0
 10
3.4448947672
 20
17.2268507222
 30
0.0
 10
3.4441201438
 20
17.2223360934
 30
0.0
 10
3.4435382659
 20
17.218027515
 30
0.0
 10
3.4431577272
 20
17.2139432572
 30
0.0
 10
3.4430131706
 20
17.2106862343
 30
0.0
 10
3.4430130738
 20
17.2082096944
 30
0.0
 10
3.4430692151
 20
17.2064530419
 30
0.0
 10
3.4431829244
 20
17.2047667957
 30
0.0
 10
3.4433560677
 20
17.2031537225
 30
0.0
 10
3.4435904248
 20
17.2016166928
 30
0.0
 10
3.4438878256
 20
17.200158566
 30
0.0
 10
3.4442501289
 20
17.198782193
 30
0.0
 10
3.4446792493
 20
17.1974904281
 30
0.0
 10
3.4451771517
 20
17.1962861431
 30
0.0
 10
3.4457458735
 20
17.1951723698
 30
0.0
 10
3.4463871768
 20
17.194152359
 30
0.0
 10
3.4471024327
 20
17.1932295026
 30
0.0
 10
3.44789295
 20
17.1924075211
 30
0.0
 10
3.4487599231
 20
17.1916902656
 30
0.0
 10
3.4497040632
 20
17.191081755
 30
0.0
 10
3.4503789176
 20
17.190754288
 30
0.0
 10
3.4507263558
 20
17.1906103284
 30
0.0
 11
3.4858178315
 21
17.3362648563
 31
0.0
 11
3.4802443147
 21
17.325390573
 31
0.0
 11
3.474920326
 21
17.314141684
 31
0.0
 11
3.4698830112
 21
17.3026815889
 31
0.0
 11
3.4674758121
 21
17.2969147497
 31
0.0
 11
3.4651443724
 21
17.2911451608
 31
0.0
 11
3.4628910347
 21
17.2853878459
 31
0.0
 11
3.4607194945
 21
17.2796564132
 31
0.0
 11
3.4586335162
 21
17.2739643993
 31
0.0
 11
3.456636892
 21
17.2683253402
 31
0.0
 11
3.4529381357
 21
17.257260047
 31
0.0
 11
3.4512544563
 21
17.2518607082
 31
0.0
 11
3.4496937491
 21
17.246568168
 31
0.0
 11
3.4482659958
 21
17.2413965167
 31
0.0
 11
3.4469834449
 21
17.2363622761
 31
0.0
 11
3.4458588787
 21
17.2314825406
 31
0.0
 11
3.4449050795
 21
17.2267744045
 31
0.0
 11
3.444134628
 21
17.2222550403
 31
0.0
 11
3.4435579105
 21
17.2179424713
 31
0.0
 11
3.4431839664
 21
17.213855243
 31
0.0
 11
3.4430218157
 21
17.2100119088
 31
0.0
 11
3.4430229814
 21
17.2081874997
 31
0.0
 11
3.443080491
 21
17.2064310344
 31
0.0
 11
3.4431957913
 21
17.2047451472
 31
0.0
 11
3.4433706393
 21
17.2031327781
 31
0.0
 11
3.4436068056
 21
17.2015968807
 31
0.0
 11
3.4439060609
 21
17.2001404087
 31
0.0
 11
3.444270176
 21
17.1987663157
 31
0.0
 11
3.4447009216
 21
17.1974775554
 31
0.0
 11
3.4452000682
 21
17.1962770814
 31
0.0
 11
3.445769382
 21
17.1951678499
 31
0.0
 11
3.4464103508
 21
17.194152961
 31
0.0
 11
3.4471240337
 21
17.1932357374
 31
0.0
 11
3.4479114532
 21
17.1924195207
 31
0.0
 11
3.4487736317
 21
17.1917076526
 31
0.0
 11
3.4497115918
 21
17.1911034746
 31
0.0
 11
3.4507263558
 21
17.1906103284
 31
0.0
  0
LINE
  5
395
100
AcDbEntity
  8
0
100
AcDbLine
 62
6
  6
CONTINUOUS
 10
3.4507263558
 20
17.5581655717
 11
3.4845258989
 21
17.5160278559
  0
SPLINE
  5
396
100
AcDbEntity
  8
0
100
AcDbSpline
 62
9
  6
CONTINUOUS
 70
0
 71
3
 72
42
 73
38
 74
36
 42
0.0000001
 43
0.0000001
 44
0.0000000001
 12
0.1275939547
 22
0.1083350237
 32
0.0
 13
-0.1440988038
 23
0.0851600221
 33
0.0
 40
0.0
 40
0.0
 40
0.0
 40
0.0
 40
0.0203367613
 40
0.0305794187
 40
0.0409010904
 40
0.0618643516
 40
0.083405956
 40
0.0944451409
 40
0.1056837679
 40
0.1288152055
 40
0.1529212014
 40
0.178100054
 40
0.1911213486
 40
0.2044407562
 40
0.2319760599
 40
0.2606988001
 40
0.2905729197
 40
0.3215453399
 40
0.3535502179
 40
0.3865122732
 40
0.4203494147
 40
0.4549748515
 40
0.4902988327
 40
0.5262301232
 40
0.5626773019
 40
0.5995486005
 40
0.6367396243
 40
0.6741351039
 40
0.7116160345
 40
0.7490609939
 40
0.7863473031
 40
0.8233521497
 40
0.8599537327
 40
0.8960324851
 40
0.931472442
 40
0.9661628333
 40
1.0
 40
1.0
 40
1.0
 40
1.0
 10
5.9991472793
 20
17.422662744
 30
0.0
 10
6.0000122286
 20
17.4233971386
 30
0.0
 10
6.0012465296
 20
17.4245829826
 30
0.0
 10
6.002744294
 20
17.4263059335
 30
0.0
 10
6.0041596722
 20
17.4281419442
 30
0.0
 10
6.0057526675
 20
17.4306297818
 30
0.0
 10
6.0070794301
 20
17.4333131048
 30
0.0
 10
6.0079907564
 20
17.4355827139
 30
0.0
 10
6.0088155185
 20
17.4379792802
 30
0.0
 10
6.0096478944
 20
17.4411394683
 30
0.0
 10
6.0103173773
 20
17.4451290545
 30
0.0
 10
6.0105991107
 20
17.4485981965
 30
0.0
 10
6.010662276
 20
17.4514725598
 30
0.0
 10
6.010612359
 20
17.4544787737
 30
0.0
 10
6.0103336312
 20
17.4583541723
 30
0.0
 10
6.0096767676
 20
17.4631177043
 30
0.0
 10
6.0087023316
 20
17.4680219458
 30
0.0
 10
6.0074188068
 20
17.4730433694
 30
0.0
 10
6.0058345806
 20
17.4781585881
 30
0.0
 10
6.0039580321
 20
17.4833440582
 30
0.0
 10
6.0017975323
 20
17.4885761943
 30
0.0
 10
5.9993614497
 20
17.4938313557
 30
0.0
 10
5.9966581786
 20
17.4990858866
 30
0.0
 10
5.9936960361
 20
17.5043160481
 30
0.0
 10
5.9904836955
 20
17.5094982522
 30
0.0
 10
5.9870291536
 20
17.5146072875
 30
0.0
 10
5.983350016
 20
17.519622668
 30
0.0
 10
5.9794670421
 20
17.5245253127
 30
0.0
 10
5.9754004585
 20
17.5292953399
 30
0.0
 10
5.9711706948
 20
17.5339129962
 30
0.0
 10
5.9667981298
 20
17.5383584885
 30
0.0
 10
5.9623031568
 20
17.5426120363
 30
0.0
 10
5.9577061549
 20
17.5466538662
 30
0.0
 10
5.9530275064
 20
17.5504642077
 30
0.0
 10
5.9482875174
 20
17.5540233383
 30
0.0
 10
5.9435066598
 20
17.5573114308
 30
0.0
 10
5.9402619394
 20
17.5593369603
 30
0.0
 10
5.9386366409
 20
17.5602974849
 30
0.0
 11
5.9991472793
 21
17.422662744
 31
0.0
 11
6.0016033204
 21
17.4250196732
 31
0.0
 11
6.0027284611
 21
17.4263132522
 31
0.0
 11
6.0037836016
 21
17.4276812765
 31
0.0
 11
6.0056796417
 21
17.4306337672
 31
0.0
 11
6.0072829597
 21
17.4338633583
 31
0.0
 11
6.0079721976
 21
17.4355777581
 31
0.0
 11
6.0085850745
 21
17.4373562628
 31
0.0
 11
6.0095775049
 21
17.4410986938
 31
0.0
 11
6.0102517698
 21
17.4450768644
 31
0.0
 11
6.0105993882
 21
17.4492769876
 31
0.0
 11
6.0106480545
 21
17.451455973
 31
0.0
 11
6.0106121579
 21
17.4536851115
 31
0.0
 11
6.0102895981
 21
17.4582827213
 31
0.0
 11
6.0096397501
 21
17.4630462654
 31
0.0
 11
6.0086710949
 21
17.4679519327
 31
0.0
 11
6.0073921137
 21
17.4729759117
 31
0.0
 11
6.0058112876
 21
17.4780943911
 31
0.0
 11
6.0039370976
 21
17.4832835595
 31
0.0
 11
6.001778025
 21
17.4885196058
 31
0.0
 11
5.9993425508
 21
17.4937787184
 31
0.0
 11
5.9966391561
 21
17.4990370861
 31
0.0
 11
5.9936763221
 21
17.5042708975
 31
0.0
 11
5.9904625298
 21
17.5094563413
 31
0.0
 11
5.9870070415
 21
17.5145698617
 31
0.0
 11
5.9833263647
 21
17.5195902734
 31
0.0
 11
5.9794409359
 21
17.5244976761
 31
0.0
 11
5.9753712301
 21
17.5292721826
 31
0.0
 11
5.9711377227
 21
17.5338939055
 31
0.0
 11
5.9667608887
 21
17.5383429574
 31
0.0
 11
5.9622612035
 21
17.5425994509
 31
0.0
 11
5.9576591423
 21
17.5466434986
 31
0.0
 11
5.9529751802
 21
17.5504552133
 31
0.0
 11
5.9482297925
 21
17.5540147075
 31
0.0
 11
5.9434434543
 21
17.5573020938
 31
0.0
 11
5.9386366409
 21
17.5602974849
 31
0.0
  0
SPLINE
  5
397
100
AcDbEntity
  8
0
100
AcDbSpline
 62
9
  6
CONTINUOUS
 70
0
 71
3
 72
34
 73
30
 74
28
 42
0.0000001
 43
0.0000001
 44
0.0000000001
 12
-0.1079704604
 22
0.0800857194
 32
0.0
 13
0.0918634486
 23
0.0981450436
 33
0.0
 40
0.0
 40
0.0
 40
0.0
 40
0.0
 40
0.0796444631
 40
0.1610629936
 40
0.2432349736
 40
0.325128017
 40
0.4057092221
 40
0.4451901855
 40
0.4839616923
 40
0.5219000197
 40
0.5588863578
 40
0.5948296214
 40
0.6296557809
 40
0.663292314
 40
0.6956686258
 40
0.7267168974
 40
0.7563731789
 40
0.7845788294
 40
0.8112824529
 40
0.8364425471
 40
0.8600311864
 40
0.8820391976
 40
0.9024834723
 40
0.9214176749
 40
0.9389665661
 40
0.9553334828
 40
0.9707650418
 40
0.9855477164
 40
1.0
 40
1.0
 40
1.0
 40
1.0
 10
5.9386366409
 20
17.0944650875
 30
0.0
 10
5.9357702245
 20
17.0965912155
 30
0.0
 10
5.9300762783
 20
17.1010307606
 30
0.0
 10
5.9217746131
 20
17.1080976954
 30
0.0
 10
5.9136929958
 20
17.1155647108
 30
0.0
 10
5.9059428417
 20
17.1233219804
 30
0.0
 10
5.8998112646
 20
17.1299817394
 30
0.0
 10
5.8951647038
 20
17.1353736721
 30
0.0
 10
5.891856624
 20
17.1393947853
 30
0.0
 10
5.8887154225
 20
17.1434065609
 30
0.0
 10
5.8857547607
 20
17.1473966945
 30
0.0
 10
5.8829835619
 20
17.1513515713
 30
0.0
 10
5.8804076744
 20
17.155257786
 30
0.0
 10
5.878032905
 20
17.1591028405
 30
0.0
 10
5.8758649342
 20
17.1628741813
 30
0.0
 10
5.8739094528
 20
17.1665592935
 30
0.0
 10
5.872172125
 20
17.1701456862
 30
0.0
 10
5.8706585951
 20
17.1736209127
 30
0.0
 10
5.869374482
 20
17.1769725914
 30
0.0
 10
5.8683253979
 20
17.1801884403
 30
0.0
 10
5.8675169306
 20
17.1832563226
 30
0.0
 10
5.8669548264
 20
17.1861643246
 30
0.0
 10
5.8666446714
 20
17.1889008162
 30
0.0
 10
5.866593569
 20
17.1914555653
 30
0.0
 10
5.866805885
 20
17.1938196475
 30
0.0
 10
5.8672765199
 20
17.1959867521
 30
0.0
 10
5.8680019666
 20
17.1979520377
 30
0.0
 10
5.8689774732
 20
17.1997088577
 30
0.0
 10
5.8697949719
 20
17.2007413956
 30
0.0
 10
5.8702375174
 20
17.2012142023
 30
0.0
 11
5.9386366409
 21
17.0944650875
 31
0.0
 11
5.930187125
 21
17.1010405383
 31
0.0
 11
5.9218493198
 21
17.1081310617
 31
0.0
 11
5.9137349363
 21
17.1156263083
 31
0.0
 11
5.9059556852
 21
17.1234159283
 31
0.0
 11
5.8986232773
 21
17.1313895723
 31
0.0
 11
5.8951595492
 21
17.135410919
 31
0.0
 11
5.8918494235
 21
17.1394368906
 31
0.0
 11
5.888706864
 21
17.1434536935
 31
0.0
 11
5.8857454198
 21
17.1474475951
 31
0.0
 11
5.8829739199
 21
17.1514055599
 31
0.0
 11
5.8803981964
 21
17.1553149949
 31
0.0
 11
5.8780240332
 21
17.1591633143
 31
0.0
 11
5.8758572144
 21
17.1629379321
 31
0.0
 11
5.8739035239
 21
17.1666262624
 31
0.0
 11
5.8721687457
 21
17.1702157193
 31
0.0
 11
5.870658664
 21
17.1736937169
 31
0.0
 11
5.8693790626
 21
17.1770476694
 31
0.0
 11
5.8683357257
 21
17.1802649907
 31
0.0
 11
5.8675344372
 21
17.1833330949
 31
0.0
 11
5.8669809811
 21
17.1862393963
 31
0.0
 11
5.8666811416
 21
17.1889713088
 31
0.0
 11
5.8666406232
 21
17.1915163053
 31
0.0
 11
5.866860755
 21
17.1938651045
 31
0.0
 11
5.8673362943
 21
17.1960132992
 31
0.0
 11
5.8680614572
 21
17.1979568841
 31
0.0
 11
5.8690304596
 21
17.1996918536
 31
0.0
 11
5.8702375174
 21
17.2012142023
 31
0.0
  0
SPLINE
  5
398
100
AcDbEntity
  8
0
100
AcDbSpline
 62
9
  6
CONTINUOUS
 70
0
 71
3
 72
47
 73
43
 74
41
 42
0.0000001
 43
0.0000001
 44
0.0000000001
 12
-0.241646922
 22
0.030545412
 32
0.0
 13
0.2396845939
 23
0.043330735
 33
0.0
 40
0.0
 40
0.0
 40
0.0
 40
0.0
 40
0.0272665053
 40
0.0550907004
 40
0.0835674652
 40
0.1127510952
 40
0.142665041
 40
0.1733109645
 40
0.2046768601
 40
0.2206276036
 40
0.2367512384
 40
0.253045503
 40
0.2695081001
 40
0.2861329234
 40
0.3029102109
 40
0.3368689333
 40
0.3712821231
 40
0.4060256804
 40
0.4409667105
 40
0.4759697643
 40
0.5109028055
 40
0.5283069747
 40
0.5456488666
 40
0.5629157618
 40
0.5800972344
 40
0.6141600885
 40
0.6477623862
 40
0.6808189612
 40
0.713246443
 40
0.7449698648
 40
0.775930148
 40
0.8060927933
 40
0.835458067
 40
0.8640811588
 40
0.8781531229
 40
0.8920807968
 40
0.9195485833
 40
0.9466074159
 40
0.9600253591
 40
0.9733858303
 40
0.9867050246
 40
1.0
 40
1.0
 40
1.0
 40
1.0
 10
4.13365133
 20
17.0087280345
 30
0.0
 10
4.131455041
 20
17.0090056567
 30
0.0
 10
4.1270481217
 20
17.0098395666
 30
0.0
 10
4.1205556917
 20
17.0118537109
 30
0.0
 10
4.1141708979
 20
17.0146064888
 30
0.0
 10
4.1079448164
 20
17.0180629643
 30
0.0
 10
4.1019269041
 20
17.0221890918
 30
0.0
 10
4.0961676321
 20
17.0269508975
 30
0.0
 10
4.091650371
 20
17.0313967878
 30
0.0
 10
4.0882127394
 20
17.0352340925
 30
0.0
 10
4.0857160284
 20
17.0382668296
 30
0.0
 10
4.0833220031
 20
17.0414334327
 30
0.0
 10
4.081037704
 20
17.0447296959
 30
0.0
 10
4.0788665454
 20
17.048148076
 30
0.0
 10
4.0761148267
 20
17.0528757143
 30
0.0
 10
4.0729773684
 20
17.0590436599
 30
0.0
 10
4.0697207464
 20
17.066763418
 30
0.0
 10
4.0669774579
 20
17.0747644635
 30
0.0
 10
4.0647685492
 20
17.0829786929
 30
0.0
 10
4.0631150859
 20
17.0913380359
 30
0.0
 10
4.062216481
 20
17.0983782946
 30
0.0
 10
4.0617975496
 20
17.1040210036
 30
0.0
 10
4.0616361888
 20
17.1082418075
 30
0.0
 10
4.0616304891
 20
17.1124476595
 30
0.0
 10
4.0618301545
 20
17.1180075423
 30
0.0
 10
4.0624576354
 20
17.1248744345
 30
0.0
 10
4.063801542
 20
17.1329482533
 30
0.0
 10
4.065712962
 20
17.1407706271
 30
0.0
 10
4.0681708971
 20
17.1482788255
 30
0.0
 10
4.0711545989
 20
17.155410546
 30
0.0
 10
4.0746437286
 20
17.1621033387
 30
0.0
 10
4.0786182753
 20
17.1682949198
 30
0.0
 10
4.0830598242
 20
17.1739224321
 30
0.0
 10
4.0871575395
 20
17.1781154285
 30
0.0
 10
4.0906275916
 20
17.1811338452
 30
0.0
 10
4.0941820172
 20
17.1839022254
 30
0.0
 10
4.0988409194
 20
17.1869545268
 30
0.0
 10
4.1037748272
 20
17.189449764
 30
0.0
 10
4.107831744
 20
17.1910822545
 30
0.0
 10
4.1109185586
 20
17.1921226533
 30
0.0
 10
4.1140507445
 20
17.1929794853
 30
0.0
 10
4.1161662372
 20
17.1934268843
 30
0.0
 10
4.1172284375
 20
17.1936189113
 30
0.0
 11
4.13365133
 21
17.0087280345
 31
0.0
 11
4.1271238131
 21
17.0099521094
 31
0.0
 11
4.1206476632
 21
17.0119493648
 31
0.0
 11
4.1142742471
 21
17.0146859283
 31
0.0
 11
4.1080549318
 21
17.0181279273
 31
0.0
 11
4.1020410842
 21
17.0222414892
 31
0.0
 11
4.0962840714
 21
17.0269927417
 31
0.0
 11
4.0908352601
 21
17.0323478121
 31
0.0
 11
4.0882424823
 21
17.0352411939
 31
0.0
 11
4.0857460174
 21
17.038272828
 31
0.0
 11
4.0833522865
 21
17.0414384803
 31
0.0
 11
4.0810674633
 21
17.0447336303
 31
0.0
 11
4.0788954468
 21
17.0481511172
 31
0.0
 11
4.0768389084
 21
17.0516823563
 31
0.0
 11
4.0730829045
 21
17.0590516959
 31
0.0
 11
4.0698207285
 21
17.06677286
 31
0.0
 11
4.0670736573
 21
17.074777059
 31
0.0
 11
4.0648629678
 21
17.0829955035
 31
0.0
 11
4.0632099369
 21
17.0913594043
 31
0.0
 11
4.0621358413
 21
17.0997999718
 31
0.0
 11
4.0618225434
 21
17.104027509
 31
0.0
 11
4.0616619581
 21
17.1082484169
 31
0.0
 11
4.0616566554
 21
17.1124541081
 31
0.0
 11
4.0618067707
 21
17.116636303
 31
0.0
 11
4.0625630218
 21
17.1248984478
 31
0.0
 11
4.0639095694
 21
17.1329714238
 31
0.0
 11
4.0658251366
 21
17.1407918207
 31
0.0
 11
4.0682884466
 21
17.1482962281
 31
0.0
 11
4.0712782224
 21
17.1554212355
 31
0.0
 11
4.0747731873
 21
17.1621034328
 31
0.0
 11
4.0787520643
 21
17.1682794094
 31
0.0
 11
4.0831935715
 21
17.173885762
 31
0.0
 11
4.0880697807
 21
17.1788684804
 31
0.0
 11
4.0906562194
 21
17.1811175091
 31
0.0
 11
4.0933329865
 21
17.1832015032
 31
0.0
 11
4.098931822
 21
17.1868639442
 31
0.0
 11
4.1048149203
 21
17.1898349168
 31
0.0
 11
4.1078470158
 21
17.1910545755
 31
0.0
 11
4.1109309144
 21
17.1920935346
 31
0.0
 11
4.1140601953
 21
17.1929491835
 31
0.0
 11
4.1172284375
 21
17.1936189113
 31
0.0
  0
SPLINE
  5
399
100
AcDbEntity
  8
0
100
AcDbSpline
 62
9
  6
CONTINUOUS
 70
0
 71
3
 72
24
 73
20
 74
18
 42
0.0000001
 43
0.0000001
 44
0.0000000001
 12
-0.055581459
 22
0.0328477278
 32
0.0
 13
-0.0491534939
 23
-0.0418593579
 33
0.0
 40
0.0
 40
0.0
 40
0.0
 40
0.0
 40
0.0796985209
 40
0.1571692242
 40
0.2323305295
 40
0.3051082549
 40
0.3754393344
 40
0.4432762974
 40
0.5085927152
 40
0.5713898416
 40
0.6317046858
 40
0.6896196964
 40
0.7452740791
 40
0.7988764138
 40
0.825004673
 40
0.8507376892
 40
0.9012237531
 40
0.9508216451
 40
1.0
 40
1.0
 40
1.0
 40
1.0
 10
5.9386366409
 20
17.5602974849
 30
0.0
 10
5.9371600543
 20
17.5611701233
 30
0.0
 10
5.934209635
 20
17.5628269085
 30
0.0
 10
5.9297398064
 20
17.5650713622
 30
0.0
 10
5.9253030046
 20
17.5670375926
 30
0.0
 10
5.9209158491
 20
17.5687220908
 30
0.0
 10
5.9165947806
 20
17.5701214196
 30
0.0
 10
5.9123562265
 20
17.5712320968
 30
0.0
 10
5.9082165495
 20
17.5720506052
 30
0.0
 10
5.9041920426
 20
17.5725733533
 30
0.0
 10
5.9002989641
 20
17.5727966488
 30
0.0
 10
5.8965534319
 20
17.572716598
 30
0.0
 10
5.8929719265
 20
17.5723291952
 30
0.0
 10
5.8901128332
 20
17.5717413632
 30
0.0
 10
5.8879315749
 20
17.5711105021
 30
0.0
 10
5.8858512623
 20
17.5703840706
 30
0.0
 10
5.8833719279
 20
17.5692802373
 30
0.0
 10
5.880599533
 20
17.5676448121
 30
0.0
 10
5.8789005033
 20
17.5663580725
 30
0.0
 10
5.8780947407
 20
17.565671881
 30
0.0
 11
5.9386366409
 21
17.5602974849
 31
0.0
 11
5.9341489467
 21
17.5628147959
 31
0.0
 11
5.9296779098
 21
17.5650568011
 31
0.0
 11
5.9252401877
 21
17.5670199911
 31
0.0
 11
5.9208524379
 21
17.5687008566
 31
0.0
 11
5.9165313177
 21
17.5700958882
 31
0.0
 11
5.9122934846
 21
17.5712015767
 31
0.0
 11
5.908155596
 21
17.5720144126
 31
0.0
 11
5.9041343092
 21
17.5725308867
 31
0.0
 11
5.9002462818
 21
17.5727474896
 31
0.0
 11
5.896508171
 21
17.572660712
 31
0.0
 11
5.8929366343
 21
17.5722670446
 31
0.0
 11
5.8895483292
 21
17.5715629779
 31
0.0
 11
5.8879280939
 21
17.5710934483
 31
0.0
 11
5.8863597805
 21
17.5705452028
 31
0.0
 11
5.8833832519
 21
17.5692168405
 31
0.0
 11
5.8806259387
 21
17.5675886612
 31
0.0
 11
5.8780947407
 21
17.565671881
 31
0.0
  0
SPLINE
  5
39A
100
AcDbEntity
  8
0
100
AcDbSpline
 62
9
  6
CONTINUOUS
 70
0
 71
3
 72
37
 73
33
 74
31
 42
0.0000001
 43
0.0000001
 44
0.0000000001
 12
-0.0815388909
 22
0.0670807843
 32
0.0
 13
0.0680746307
 23
0.0807110092
 33
0.0
 40
0.0
 40
0.0
 40
0.0
 40
0.0
 40
0.092399401
 40
0.1848650628
 40
0.2764175948
 40
0.3660771681
 40
0.4528645633
 40
0.5358024103
 40
0.6139168865
 40
0.6862494382
 40
0.7200083223
 40
0.7520808859
 40
0.7824099494
 40
0.8109391769
 40
0.837613396
 40
0.8623790597
 40
0.885184935
 40
0.9059831654
 40
0.9247309766
 40
0.941393546
 40
0.948936195
 40
0.9559510374
 40
0.9624390309
 40
0.96840365
 40
0.9738518825
 40
0.9787957145
 40
0.9832543588
 40
0.9872575873
 40
0.9908512945
 40
0.9941062556
 40
0.9971172038
 40
1.0
 40
1.0
 40
1.0
 40
1.0
 10
4.13365133
 20
17.4206847578
 30
0.0
 10
4.1311399485
 20
17.4227508326
 30
0.0
 10
4.1261438351
 20
17.4269191678
 30
0.0
 10
4.1187557793
 20
17.4332490666
 30
0.0
 10
4.1115223696
 20
17.4396100493
 30
0.0
 10
4.1045212867
 20
17.4459313754
 30
0.0
 10
4.0978300931
 20
17.4521422384
 30
0.0
 10
4.0915263126
 20
17.4581718484
 30
0.0
 10
4.0856868194
 20
17.463949236
 30
0.0
 10
4.081169663
 20
17.4686005593
 30
0.0
 10
4.0778464757
 20
17.4721507306
 30
0.0
 10
4.0755657997
 20
17.4746514147
 30
0.0
 10
4.0734430257
 20
17.4770465757
 30
0.0
 10
4.071482123
 20
17.479330848
 30
0.0
 10
4.0696870511
 20
17.4814988675
 30
0.0
 10
4.0680617364
 20
17.483545272
 30
0.0
 10
4.0666100786
 20
17.4854647018
 30
0.0
 10
4.0653358676
 20
17.487251821
 30
0.0
 10
4.0642429381
 20
17.4889013023
 30
0.0
 10
4.0634619961
 20
17.4901965324
 30
0.0
 10
4.0629355859
 20
17.4911612095
 30
0.0
 10
4.062602013
 20
17.4918227197
 30
0.0
 10
4.0623167927
 20
17.4924459057
 30
0.0
 10
4.062080391
 20
17.4930301675
 30
0.0
 10
4.0618932522
 20
17.4935749295
 30
0.0
 10
4.0617558242
 20
17.4940796802
 30
0.0
 10
4.0616686042
 20
17.4945439949
 30
0.0
 10
4.0616321513
 20
17.4949676125
 30
0.0
 10
4.0616474635
 20
17.4953504733
 30
0.0
 10
4.061715091
 20
17.4956925646
 30
0.0
 10
4.0618354633
 20
17.4959933877
 30
0.0
 10
4.0619521432
 20
17.4961671766
 30
0.0
 10
4.0620175583
 20
17.4962447344
 30
0.0
 11
4.13365133
 21
17.4206847578
 31
0.0
 11
4.1261593816
 21
17.4269339201
 31
0.0
 11
4.1187451953
 21
17.4332859058
 31
0.0
 11
4.1114865333
 21
17.4396699804
 31
0.0
 11
4.1044611577
 21
17.4460154096
 31
0.0
 11
4.0977468307
 21
17.4522514588
 31
0.0
 11
4.0914213145
 21
17.4583073936
 31
0.0
 11
4.085562371
 21
17.4641124794
 31
0.0
 11
4.0802469176
 21
17.4695964997
 31
0.0
 11
4.0778117166
 21
17.4721994273
 31
0.0
 11
4.0755305882
 21
17.4747022798
 31
0.0
 11
4.0734075586
 21
17.4770997044
 31
0.0
 11
4.0714466541
 21
17.4793863487
 31
0.0
 11
4.069651901
 21
17.48155686
 31
0.0
 11
4.0680273255
 21
17.4836058858
 31
0.0
 11
4.0665769538
 21
17.4855280734
 31
0.0
 11
4.0653048124
 21
17.4873180703
 31
0.0
 11
4.0642149274
 21
17.4889705239
 31
0.0
 11
4.0633113251
 21
17.4904800816
 31
0.0
 11
4.0629306382
 21
17.4911796018
 31
0.0
 11
4.0625980318
 21
17.4918413909
 31
0.0
 11
4.0623140092
 21
17.4924647796
 31
0.0
 11
4.0620790737
 21
17.493049099
 31
0.0
 11
4.0618937285
 21
17.49359368
 31
0.0
 11
4.061758477
 21
17.4940978535
 31
0.0
 11
4.0616738225
 21
17.4945609504
 31
0.0
 11
4.0616402682
 21
17.4949823017
 31
0.0
 11
4.061658215
 21
17.4953613226
 31
0.0
 11
4.0617274142
 21
17.4956979625
 31
0.0
 11
4.0618473631
 21
17.4959923801
 31
0.0
 11
4.0620175583
 21
17.4962447344
 31
0.0
  0
SPLINE
  5
39B
100
AcDbEntity
  8
0
100
AcDbSpline
 62
9
  6
CONTINUOUS
 70
0
 71
3
 72
31
 73
27
 74
25
 42
0.0000001
 43
0.0000001
 44
0.0000000001
 12
0.0803467683
 22
0.1148010024
 32
0.0
 13
-0.1232515143
 23
0.0666628649
 33
0.0
 40
0.0
 40
0.0
 40
0.0
 40
0.0
 40
0.0359252589
 40
0.0719702978
 40
0.1080866036
 40
0.1442221047
 40
0.2163190664
 40
0.2878221098
 40
0.3582742587
 40
0.4272356349
 40
0.4610381978
 40
0.4943243807
 40
0.5270561984
 40
0.559203485
 40
0.5907552394
 40
0.6217114921
 40
0.6818214722
 40
0.7395833178
 40
0.7950791615
 40
0.8484773294
 40
0.8744920247
 40
0.9001056271
 40
0.9253811701
 40
0.9503943512
 40
0.9752350117
 40
1.0
 40
1.0
 40
1.0
 40
1.0
 10
5.9871040227
 20
17.6364930936
 30
0.0
 10
5.9880661822
 20
17.6378678455
 30
0.0
 10
5.9899400301
 20
17.6406599702
 30
0.0
 10
5.9925871466
 20
17.6449602554
 30
0.0
 10
5.9950726901
 20
17.6493672834
 30
0.0
 10
5.9981623805
 20
17.6553613884
 30
0.0
 10
6.0015922301
 20
17.6630329546
 30
0.0
 10
6.004995987
 20
17.6724431805
 30
0.0
 10
6.0076501362
 20
17.6819399703
 30
0.0
 10
6.0092185579
 20
17.6898868748
 30
0.0
 10
6.0100560128
 20
17.6961877647
 30
0.0
 10
6.0104691887
 20
17.70083344
 30
0.0
 10
6.0106674064
 20
17.7054159486
 30
0.0
 10
6.0106451329
 20
17.7099217895
 30
0.0
 10
6.0104032683
 20
17.7143383207
 30
0.0
 10
6.0098009622
 20
17.7200357687
 30
0.0
 10
6.0085383853
 20
17.7268859745
 30
0.0
 10
6.0062029281
 20
17.7346575307
 30
0.0
 10
6.0030959432
 20
17.7418152605
 30
0.0
 10
5.9998602474
 20
17.7472465923
 30
0.0
 10
5.9969173611
 20
17.7511759639
 30
0.0
 10
5.9945580283
 20
17.7538890712
 30
0.0
 10
5.992032279
 20
17.7563819581
 30
0.0
 10
5.9893440673
 20
17.7586436318
 30
0.0
 10
5.9864988394
 20
17.7606630656
 30
0.0
 10
5.9845041294
 20
17.7618476845
 30
0.0
 10
5.9834866886
 20
17.7623979861
 30
0.0
 11
5.9871040227
 21
17.6364930936
 31
0.0
 11
5.9899091927
 21
17.6406730773
 31
0.0
 11
5.9925576831
 21
17.6449737757
 31
0.0
 11
5.9950443234
 21
17.649381508
 31
0.0
 11
5.9973646403
 21
17.6538820464
 31
0.0
 11
6.0014884109
 21
17.6631046293
 31
0.0
 11
6.0048932088
 21
17.6725277008
 31
0.0
 11
6.0075432477
 21
17.6820374375
 31
0.0
 11
6.0094027416
 21
17.6915200156
 31
0.0
 11
6.010024851
 21
17.6962155504
 31
0.0
 11
6.0104359043
 21
17.7008616116
 31
0.0
 11
6.0106314283
 21
17.7054439715
 31
0.0
 11
6.0106072871
 21
17.709948529
 31
0.0
 11
6.0103642112
 21
17.7143630154
 31
0.0
 11
6.009906585
 21
17.7186765374
 31
0.0
 11
6.0083655745
 21
17.7269572501
 31
0.0
 11
6.0060200419
 21
17.7347037895
 31
0.0
 11
6.0029057733
 21
17.7418292784
 31
0.0
 11
5.9990585549
 21
17.7482468393
 31
0.0
 11
5.9968712727
 21
17.7511629975
 31
0.0
 11
5.9945141728
 21
17.7538695948
 31
0.0
 11
5.9919917285
 21
17.7563557714
 31
0.0
 11
5.9893084139
 21
17.7586106688
 31
0.0
 11
5.9864700655
 21
17.7606255243
 31
0.0
 11
5.9834866886
 21
17.7623979861
 31
0.0
  0
SPLINE
  5
39C
100
AcDbEntity
  8
0
100
AcDbSpline
 62
9
  6
CONTINUOUS
 70
0
 71
3
 72
15
 73
11
 74
9
 42
0.0000001
 43
0.0000001
 44
0.0000000001
 12
-0.0437127744
 22
0.01670011
 32
0.0
 13
-0.041023623
 23
-0.0225113899
 33
0.0
 40
0.0
 40
0.0
 40
0.0
 40
0.0
 40
0.1375273707
 40
0.2705556058
 40
0.3994628122
 40
0.5246751318
 40
0.6466885163
 40
0.7660911104
 40
0.883584342
 40
1.0
 40
1.0
 40
1.0
 40
1.0
 10
4.13365133
 20
17.7631967414
 30
0.0
 10
4.1316474291
 20
17.7639623155
 30
0.0
 10
4.127635345
 20
17.7652936886
 30
0.0
 10
4.1215541249
 20
17.7666926583
 30
0.0
 10
4.1155543699
 20
17.7674632948
 30
0.0
 10
4.1096783754
 20
17.7676088917
 30
0.0
 10
4.1039678876
 20
17.7671328127
 30
0.0
 10
4.0984647608
 20
17.7660378755
 30
0.0
 10
4.0932125354
 20
17.7643274603
 30
0.0
 10
4.0898984889
 20
17.762774492
 30
0.0
 10
4.0883065582
 20
17.7619009325
 30
0.0
 11
4.13365133
 21
17.7631967414
 31
0.0
 11
4.1275410529
 21
17.765216647
 31
0.0
 11
4.1214728882
 21
17.7666049675
 31
0.0
 11
4.1154889484
 21
17.7673657982
 31
0.0
 11
4.109631346
 21
17.7675032341
 31
0.0
 11
4.1039421933
 21
17.7670213704
 31
0.0
 11
4.0984636028
 21
17.7659243021
 31
0.0
 11
4.0932376869
 21
17.7642161245
 31
0.0
 11
4.0883065582
 21
17.7619009325
 31
0.0
  0
SPLINE
  5
39D
100
AcDbEntity
  8
0
100
AcDbSpline
 62
6
  6
CONTINUOUS
 70
0
 71
3
 72
26
 73
22
 74
20
 42
0.0000001
 43
0.0000001
 44
0.0000000001
 12
0.2455778085
 22
0.1290820864
 32
0.0
 13
0.2591364156
 23
0.0990906815
 33
0.0
 40
0.0
 40
0.0
 40
0.0
 40
0.0
 40
0.0157231818
 40
0.0315567348
 40
0.0634425485
 40
0.0955090378
 40
0.1276745174
 40
0.1598881395
 40
0.1921154226
 40
0.2243314366
 40
0.2565172087
 40
0.3207406862
 40
0.3846929111
 40
0.4483052946
 40
0.5115245818
 40
0.5743078697
 40
0.6366240046
 40
0.6984514601
 40
0.7597766586
 40
0.8808927565
 40
1.0
 40
1.0
 40
1.0
 40
1.0
 10
6.3169015021
 20
17.3525382164
 30
0.0
 10
6.3181885903
 20
17.3532147434
 30
0.0
 10
6.3207625796
 20
17.354590138
 30
0.0
 10
6.3259067333
 20
17.357411703
 30
0.0
 10
6.3323293907
 20
17.3610443212
 30
0.0
 10
6.3400149129
 20
17.3655104412
 30
0.0
 10
6.3476905686
 20
17.3700532186
 30
0.0
 10
6.3553544335
 20
17.3746447785
 30
0.0
 10
6.3630064464
 20
17.3792650812
 30
0.0
 10
6.3706473727
 20
17.3838987153
 30
0.0
 10
6.3808142679
 20
17.390073444
 30
0.0
 10
6.3934943226
 20
17.3977640684
 30
0.0
 10
6.4086989638
 20
17.4068963478
 30
0.0
 10
6.4238893087
 20
17.4158713958
 30
0.0
 10
6.4390738234
 20
17.4246424283
 30
0.0
 10
6.4542617393
 20
17.4331655473
 30
0.0
 10
6.4694565413
 20
17.4414100195
 30
0.0
 10
6.4846609558
 20
17.4493499598
 30
0.0
 10
6.5048650145
 20
17.4594559258
 30
0.0
 10
6.5301571554
 20
17.4712212351
 30
0.0
 10
6.5507099973
 20
17.4796802099
 30
0.0
 10
6.5609983387
 20
17.4836143492
 30
0.0
 11
6.3169015021
 21
17.3525382164
 31
0.0
 11
6.3207497901
 21
17.3545922961
 31
0.0
 11
6.3246020841
 21
17.3567033334
 31
0.0
 11
6.3323062732
 21
17.3610509672
 31
0.0
 11
6.3400010093
 21
17.3655160374
 31
0.0
 11
6.3476826469
 21
17.3700578062
 31
0.0
 11
6.3553507072
 21
17.3746485177
 31
0.0
 11
6.3630058572
 21
17.3792680654
 31
0.0
 11
6.3706492473
 21
17.3839010159
 31
0.0
 11
6.3782822304
 21
17.3885349453
 31
0.0
 11
6.3935224205
 21
17.3977660864
 31
0.0
 11
6.4087368819
 21
17.4068941426
 31
0.0
 11
6.4239352866
 21
17.4158648132
 31
0.0
 11
6.4391267955
 21
17.4246309389
 31
0.0
 11
6.4543194973
 21
17.433150339
 31
0.0
 11
6.469517876
 21
17.4413910576
 31
0.0
 11
6.4847249171
 21
17.4493268327
 31
0.0
 11
6.4999435132
 21
17.4569336712
 31
0.0
 11
6.5304284197
 21
17.471067364
 31
0.0
 11
6.5609983387
 21
17.4836143492
 31
0.0
  0
SPLINE
  5
39E
100
AcDbEntity
  8
0
100
AcDbSpline
 62
9
  6
CONTINUOUS
 70
0
 71
3
 72
11
 73
7
 74
5
 42
0.0000001
 43
0.0000001
 44
0.0000000001
 12
0.0175229443
 22
-0.0095146071
 32
0.0
 13
0.0198875166
 23
-0.0014380573
 33
0.0
 40
0.0
 40
0.0
 40
0.0
 40
0.0
 40
0.2459094204
 40
0.4936304999
 40
0.7445847397
 40
1.0
 40
1.0
 40
1.0
 40
1.0
 10
5.8937244612
 20
17.597839112
 30
0.0
 10
5.8951608136
 20
17.5970592015
 30
0.0
 10
5.8981355202
 20
17.5956561024
 30
0.0
 10
5.9028256788
 20
17.5940479861
 30
0.0
 10
5.9077215714
 20
17.5929343537
 30
0.0
 10
5.9110691634
 20
17.5925275174
 30
0.0
 10
5.9127623551
 20
17.5924050835
 30
0.0
 11
5.8937244612
 21
17.597839112
 31
0.0
 11
5.8981580273
 21
17.5957448799
 31
0.0
 11
5.9028291149
 21
17.5941390123
 31
0.0
 11
5.9077073491
 21
17.5930246875
 31
0.0
 11
5.9127623551
 21
17.5924050835
 31
0.0
  0
SPLINE
  5
39F
100
AcDbEntity
  8
0
100
AcDbSpline
 62
6
  6
CONTINUOUS
 70
0
 71
3
 72
31
 73
27
 74
25
 42
0.0000001
 43
0.0000001
 44
0.0000000001
 12
-0.0129182872
 22
-0.002502377
 32
0.0
 13
0.008066838
 23
-0.0103956799
 33
0.0
 40
0.0
 40
0.0
 40
0.0
 40
0.0
 40
0.0002691557
 40
0.0005328714
 40
0.0009027576
 40
0.0019752696
 40
0.0035014656
 40
0.0054866867
 40
0.007934213
 40
0.014225774
 40
0.0223931846
 40
0.0324512996
 40
0.0444142842
 40
0.0582959981
 40
0.0741101519
 40
0.0918703797
 40
0.133283336
 40
0.1826438722
 40
0.2400615404
 40
0.3056465242
 40
0.3795096318
 40
0.4617622904
 40
0.5524923036
 40
0.651699893
 40
0.7593659578
 40
1.0
 40
1.0
 40
1.0
 40
1.0
 10
3.4430176857
 20
17.5688193468
 30
0.0
 10
3.4430165267
 20
17.5688191222
 30
0.0
 10
3.4430157177
 20
17.5688159821
 30
0.0
 10
3.4430165669
 20
17.5688123799
 30
0.0
 10
3.443018558
 20
17.5688050152
 30
0.0
 10
3.4430236481
 20
17.5687930988
 30
0.0
 10
3.4430323054
 20
17.5687749098
 30
0.0
 10
3.4430444559
 20
17.5687517786
 30
0.0
 10
3.4430671991
 20
17.568710595
 30
0.0
 10
3.4431046774
 20
17.5686466023
 30
0.0
 10
3.4431606136
 20
17.5685547559
 30
0.0
 10
3.4432308971
 20
17.5684425347
 30
0.0
 10
3.4433157041
 20
17.5683098449
 30
0.0
 10
3.4434152356
 20
17.5681566093
 30
0.0
 10
3.4435296752
 20
17.5679827413
 30
0.0
 10
3.4437119428
 20
17.5677089571
 30
0.0
 10
3.4439785625
 20
17.5673145741
 30
0.0
 10
3.4443466924
 20
17.5667788777
 30
0.0
 10
3.4447792845
 20
17.5661588591
 30
0.0
 10
3.4452780662
 20
17.565454
 30
0.0
 10
3.4458447861
 20
17.5646637956
 30
0.0
 10
3.4464811203
 20
17.5637878204
 30
0.0
 10
3.4471884572
 20
17.5628260495
 30
0.0
 10
3.4479679401
 20
17.561778998
 30
0.0
 10
3.4491491221
 20
17.5602113413
 30
0.0
 10
3.4500793039
 20
17.5589994232
 30
0.0
 10
3.4507263558
 20
17.5581655717
 30
0.0
 11
3.4430176857
 21
17.5688193468
 31
0.0
 11
3.4430160437
 21
17.5688162087
 31
0.0
 11
3.4430164919
 21
17.5688127677
 31
0.0
 11
3.4430177899
 21
17.5688080769
 31
0.0
 11
3.4430229472
 21
17.5687949404
 31
0.0
 11
3.4430315382
 21
17.5687767884
 31
0.0
 11
3.4430435859
 21
17.5687536101
 31
0.0
 11
3.4430591129
 21
17.5687253947
 31
0.0
 11
3.4431006962
 21
17.568653809
 31
0.0
 11
3.4431564706
 21
17.5685619446
 31
0.0
 11
3.4432266183
 21
17.5684497148
 31
0.0
 11
3.4433113217
 21
17.5683170328
 31
0.0
 11
3.4434107632
 21
17.5681638121
 31
0.0
 11
3.443525125
 21
17.5679899658
 31
0.0
 11
3.4436545896
 21
17.5677954073
 31
0.0
 11
3.4439595601
 21
17.5673438094
 31
0.0
 11
3.4443272617
 21
17.5668084082
 31
0.0
 11
3.4447594255
 21
17.5661886874
 31
0.0
 11
3.4452577905
 21
17.5654841363
 31
0.0
 11
3.4458240961
 21
17.5646942438
 31
0.0
 11
3.4464600813
 21
17.5638184992
 31
0.0
 11
3.4471673157
 21
17.5628566623
 31
0.0
 11
3.44794675
 21
17.56180948
 31
0.0
 11
3.4487991947
 21
17.5606779233
 31
0.0
 11
3.4507263558
 21
17.5581655717
 31
0.0
  0
LINE
  5
3A0
100
AcDbEntity
  8
0
100
AcDbLine
 62
6
  6
CONTINUOUS
 10
11.2594502319
 20
9.6484613379
 11
11.245026821
 21
9.6567886972
  0
LINE
  5
3A1
100
AcDbEntity
  8
0
100
AcDbLine
 62
9
  6
CONTINUOUS
 10
11.2594502069
 20
9.6484613533
 11
11.2594502069
 21
9.0924067908
  0
LINE
  5
3A2
100
AcDbEntity
  8
0
100
AcDbLine
 62
6
  6
CONTINUOUS
 10
11.2594502332
 20
9.0924068102
 11
11.2450268243
 21
9.0840794412
  0
LINE
  5
3A3
100
AcDbEntity
  8
0
100
AcDbLine
 62
9
  6
CONTINUOUS
 10
11.741007584
 20
9.9264886346
 11
11.2594502069
 21
9.6484613533
  0
LINE
  5
3A4
100
AcDbEntity
  8
0
100
AcDbLine
 62
6
  6
CONTINUOUS
 10
12.2225649423
 20
9.648461338
 11
12.2369883436
 21
9.6567887029
  0
LINE
  5
3A5
100
AcDbEntity
  8
0
100
AcDbLine
 62
9
  6
CONTINUOUS
 10
12.222564961
 20
9.6484613533
 11
11.741007584
 21
9.9264886346
  0
LINE
  5
3A6
100
AcDbEntity
  8
0
100
AcDbLine
 62
6
  6
CONTINUOUS
 10
12.2225649361
 20
9.0924068062
 11
12.2369883469
 21
9.084079447
  0
LINE
  5
3A7
100
AcDbEntity
  8
0
100
AcDbLine
 62
9
  6
CONTINUOUS
 10
12.222564961
 20
9.0924067908
 11
12.222564961
 21
9.6484613533
  0
LINE
  5
3A8
100
AcDbEntity
  8
0
100
AcDbLine
 62
9
  6
CONTINUOUS
 10
11.741007584
 20
8.8143795095
 11
12.222564961
 21
9.0924067908
  0
LINE
  5
3A9
100
AcDbEntity
  8
0
100
AcDbLine
 62
9
  6
CONTINUOUS
 10
11.2594502069
 20
9.0924067908
 11
11.741007584
 21
8.8143795095
  0
SPLINE
  5
3AA
100
AcDbEntity
  8
0
100
AcDbSpline
 62
6
  6
CONTINUOUS
 70
0
 71
3
 72
19
 73
15
 74
13
 42
0.0000001
 43
0.0000001
 44
0.0000000001
 12
-0.1840877956
 22
-0.1062490051
 32
0.0
 13
-0.1854082454
 23
-0.1039276194
 33
0.0
 40
0.0
 40
0.0
 40
0.0
 40
0.0
 40
0.061877796
 40
0.1240250926
 40
0.186395091
 40
0.248942712
 40
0.3744023689
 40
0.5000939126
 40
0.5629387558
 40
0.6257393454
 40
0.6884642149
 40
0.7510831087
 40
0.8759017283
 40
1.0
 40
1.0
 40
1.0
 40
1.0
 10
3.6679921436
 20
17.4457353181
 30
0.0
 10
3.6641951613
 20
17.4435438334
 30
0.0
 10
3.6566076241
 20
17.4391114622
 30
0.0
 10
3.6452593635
 20
17.4323572652
 30
0.0
 10
3.6339129367
 20
17.425507767
 30
0.0
 10
3.6187691879
 20
17.4162694513
 30
0.0
 10
3.599852098
 20
17.4046024529
 30
0.0
 10
3.580935393
 20
17.3928949238
 30
0.0
 10
3.5657730902
 20
17.3835568284
 30
0.0
 10
3.5543910971
 20
17.3765878895
 30
0.0
 10
3.5429977746
 20
17.3696682356
 30
0.0
 10
3.5278069219
 20
17.3605370829
 30
0.0
 10
3.508797941
 20
17.3493181405
 30
0.0
 10
3.4934874457
 20
17.3405639356
 30
0.0
 10
3.4858178315
 20
17.3362648563
 30
0.0
 11
3.6679921436
 21
17.4457353181
 31
0.0
 11
3.6566332064
 21
17.4391057127
 31
0.0
 11
3.6452799883
 21
17.4323535573
 31
0.0
 11
3.6339290449
 21
17.4255054904
 31
0.0
 11
3.6225780951
 21
17.4185846325
 31
0.0
 11
3.5998697358
 21
17.4046051938
 31
0.0
 11
3.5771423576
 21
17.3905627003
 31
0.0
 11
3.5657673743
 21
17.3835601423
 31
0.0
 11
3.5543823499
 21
17.3765919226
 31
0.0
 11
3.5429860936
 21
17.3696730493
 31
0.0
 11
3.5315778058
 21
17.3628176623
 31
0.0
 11
3.5087232273
 21
17.3493449341
 31
0.0
 11
3.4858178315
 21
17.3362648563
 31
0.0
  0
SPLINE
  5
3AB
100
AcDbEntity
  8
0
100
AcDbSpline
 62
9
  6
CONTINUOUS
 70
0
 71
3
 72
35
 73
31
 74
29
 42
0.0000001
 43
0.0000001
 44
0.0000000001
 12
-0.0556189061
 22
-0.0657629268
 32
0.0
 13
-0.0665132396
 23
0.0547194134
 33
0.0
 40
0.0
 40
0.0
 40
0.0
 40
0.0
 40
0.0031053646
 40
0.0063171595
 40
0.0097290051
 40
0.0134175261
 40
0.0174419428
 40
0.0218464668
 40
0.0266635109
 40
0.0319166339
 40
0.0376228779
 40
0.0437945072
 40
0.0575639757
 40
0.0732703234
 40
0.0909304325
 40
0.1105463253
 40
0.1321106973
 40
0.1556101478
 40
0.1810271521
 40
0.2083413125
 40
0.2375301809
 40
0.3014197224
 40
0.3722241614
 40
0.4492278966
 40
0.5316968568
 40
0.618890589
 40
0.7100647967
 40
0.8044729405
 40
0.9013673387
 40
1.0
 40
1.0
 40
1.0
 40
1.0
 10
4.2052838753
 20
17.3753531619
 30
0.0
 10
4.2052263029
 20
17.3752850893
 30
0.0
 10
4.2050955671
 20
17.3751575694
 30
0.0
 10
4.2048622341
 20
17.3750015915
 30
0.0
 10
4.2045914045
 20
17.3748791234
 30
0.0
 10
4.2042838877
 20
17.3747896326
 30
0.0
 10
4.203940036
 20
17.3747325174
 30
0.0
 10
4.2035600722
 20
17.3747073809
 30
0.0
 10
4.2031441757
 20
17.3747139554
 30
0.0
 10
4.2026925516
 20
17.3747520711
 30
0.0
 10
4.2022054292
 20
17.374821583
 30
0.0
 10
4.2014822261
 20
17.3749612557
 30
0.0
 10
4.2004909674
 20
17.3752199848
 30
0.0
 10
4.1992048156
 20
17.375642766
 30
0.0
 10
4.1977842943
 20
17.3761881308
 30
0.0
 10
4.1962319952
 20
17.3768553961
 30
0.0
 10
4.1945505032
 20
17.3776439488
 30
0.0
 10
4.1927425027
 20
17.3785530628
 30
0.0
 10
4.1908106986
 20
17.3795819855
 30
0.0
 10
4.1887578091
 20
17.3807299241
 30
0.0
 10
4.1857718499
 20
17.3824712132
 30
0.0
 10
4.1817670819
 20
17.3849422813
 30
0.0
 10
4.1766769475
 20
17.3882642829
 30
0.0
 10
4.171215554
 20
17.3919907135
 30
0.0
 10
4.1654359262
 20
17.3960835125
 30
0.0
 10
4.1593910347
 20
17.4005040998
 30
0.0
 10
4.1531338868
 20
17.4052137999
 30
0.0
 10
4.1467174423
 20
17.4101738379
 30
0.0
 10
4.1401946597
 20
17.4153453712
 30
0.0
 10
4.1358381226
 20
17.4188857173
 30
0.0
 10
4.13365133
 20
17.4206847578
 30
0.0
 11
4.2052838753
 21
17.3753531619
 31
0.0
 11
4.2050927507
 21
17.375166059
 31
0.0
 11
4.2048634813
 21
17.3750112716
 31
0.0
 11
4.2045964095
 21
17.3748886913
 31
0.0
 11
4.2042918779
 21
17.37479821
 31
0.0
 11
4.2039502291
 21
17.3747397195
 31
0.0
 11
4.2035718056
 21
17.3747131115
 31
0.0
 11
4.20315695
 21
17.3747182778
 31
0.0
 11
4.2027060048
 21
17.3747551101
 31
0.0
 11
4.2022193126
 21
17.3748235002
 31
0.0
 11
4.201697216
 21
17.37492334
 31
0.0
 11
4.2005481797
 21
17.3752169352
 31
0.0
 11
4.1992616363
 21
17.3756350301
 31
0.0
 11
4.1978403263
 21
17.3761767587
 31
0.0
 11
4.1962869901
 21
17.3768412551
 31
0.0
 11
4.1946043682
 21
17.3776276536
 31
0.0
 11
4.1927952011
 21
17.3785350882
 31
0.0
 11
4.1908622292
 21
17.3795626931
 31
0.0
 11
4.1888081929
 21
17.3807096025
 31
0.0
 11
4.1866358328
 21
17.3819749504
 31
0.0
 11
4.1819479519
 21
17.3848566218
 31
0.0
 11
4.1768371216
 21
17.388183628
 31
0.0
 11
4.1713557924
 21
17.3919175206
 31
0.0
 11
4.1655568926
 21
17.3960193581
 31
0.0
 11
4.1594933506
 21
17.4004501987
 31
0.0
 11
4.153218095
 21
17.4051711007
 31
0.0
 11
4.146784054
 21
17.4101431223
 31
0.0
 11
4.1402441562
 21
17.415327322
 31
0.0
 11
4.13365133
 21
17.4206847578
 31
0.0
  0
SPLINE
  5
3AC
100
AcDbEntity
  8
0
100
AcDbSpline
 62
6
  6
CONTINUOUS
 70
0
 71
3
 72
10
 73
6
 74
4
 42
0.0000001
 43
0.0000001
 44
0.0000000001
 12
0.0482024144
 22
0.0252303911
 32
0.0
 13
0.0474124011
 23
0.026685382
 33
0.0
 40
0.0
 40
0.0
 40
0.0
 40
0.0
 40
0.2479683528
 40
0.4973625116
 40
1.0
 40
1.0
 40
1.0
 40
1.0
 10
6.5132280766
 20
17.260910211
 30
0.0
 10
6.517212301
 20
17.2629956571
 30
0.0
 10
6.5251826892
 20
17.2672187099
 30
0.0
 10
6.5411332762
 20
17.275848794
 30
0.0
 10
6.5530545559
 20
17.2824747856
 30
0.0
 10
6.560998306
 20
17.28694581
 30
0.0
 11
6.5132280766
 21
17.260910211
 31
0.0
 11
6.5251506024
 21
17.2672238113
 31
0.0
 11
6.5370857508
 21
17.2736782281
 31
0.0
 11
6.560998306
 21
17.28694581
 31
0.0
  0
SPLINE
  5
3AD
100
AcDbEntity
  8
0
100
AcDbSpline
 62
6
  6
CONTINUOUS
 70
0
 71
3
 72
36
 73
32
 74
30
 42
0.0000001
 43
0.0000001
 44
0.0000000001
 12
0.04781551
 22
-0.1317592522
 32
0.0
 13
-0.1272857485
 23
-0.0586955004
 33
0.0
 40
0.0
 40
0.0
 40
0.0
 40
0.0
 40
0.0395464148
 40
0.0793992543
 40
0.1193882922
 40
0.1593280665
 40
0.2385015786
 40
0.2775951367
 40
0.3162457912
 40
0.391916112
 40
0.4288168378
 40
0.4650019742
 40
0.5004179738
 40
0.5350203866
 40
0.5687643474
 40
0.6016084009
 40
0.6645161164
 40
0.6945616204
 40
0.7236433266
 40
0.7517532826
 40
0.7788881079
 40
0.8050468409
 40
0.8302319427
 40
0.8544529098
 40
0.877727717
 40
0.9000835805
 40
0.9215587504
 40
0.9422054611
 40
0.962094886
 40
0.9813204025
 40
1.0
 40
1.0
 40
1.0
 40
1.0
 10
20.0312888121
 20
17.3576390541
 30
0.0
 10
20.0319191227
 20
17.3559021855
 30
0.0
 10
20.033093684
 20
17.352381372
 30
0.0
 10
20.0346047231
 20
17.3470099408
 30
0.0
 10
20.0358802529
 20
17.3415588712
 30
0.0
 10
20.0372711035
 20
17.3342548428
 30
0.0
 10
20.0382226389
 20
17.326916029
 30
0.0
 10
20.0387694008
 20
17.3196037547
 30
0.0
 10
20.0390562526
 20
17.3124404521
 30
0.0
 10
20.0389852859
 20
17.305369147
 30
0.0
 10
20.0385689746
 20
17.2984304323
 30
0.0
 10
20.0380985426
 20
17.2933818552
 30
0.0
 10
20.0374739824
 20
17.2884583084
 30
0.0
 10
20.0367015913
 20
17.283671277
 30
0.0
 10
20.0357878072
 20
17.2790314972
 30
0.0
 10
20.034408173
 20
17.2731396087
 30
0.0
 10
20.032766143
 20
17.2674897482
 30
0.0
 10
20.0308756551
 20
17.2621094808
 30
0.0
 10
20.02938438
 20
17.258315092
 30
0.0
 10
20.0278037421
 20
17.2547050358
 30
0.0
 10
20.0261389138
 20
17.2512841868
 30
0.0
 10
20.0243950669
 20
17.2480573763
 30
0.0
 10
20.0225774908
 20
17.2450291081
 30
0.0
 10
20.0206892749
 20
17.242204896
 30
0.0
 10
20.0187330069
 20
17.2395904706
 30
0.0
 10
20.0167112503
 20
17.2371915475
 30
0.0
 10
20.0146267032
 20
17.2350136116
 30
0.0
 10
20.0124807569
 20
17.2330631638
 30
0.0
 10
20.0102734626
 20
17.2313480434
 30
0.0
 10
20.008005544
 20
17.2298762519
 30
0.0
 10
20.0064339989
 20
17.2290525972
 30
0.0
 10
20.0056414501
 20
17.2286871278
 30
0.0
 11
20.0312888121
 21
17.3576390541
 31
0.0
 11
20.0330470668
 21
17.3523821939
 31
0.0
 11
20.0345630609
 21
17.3470057819
 31
0.0
 11
20.0358426259
 21
17.3415486394
 31
0.0
 11
20.0368916023
 21
17.3360495506
 31
0.0
 11
20.0383295975
 21
17.3250455876
 31
0.0
 11
20.0387392039
 21
17.3195812865
 31
0.0
 11
20.0389564684
 21
17.3141680936
 31
0.0
 11
20.0388486091
 21
17.3035621506
 31
0.0
 11
20.0385383344
 21
17.2983991966
 31
0.0
 11
20.0380669531
 21
17.2933491822
 31
0.0
 11
20.0374411976
 21
17.288424621
 31
0.0
 11
20.036667408
 21
17.2836366233
 31
0.0
 11
20.0357519179
 21
17.2789962753
 31
0.0
 11
20.0347014402
 21
17.2745140715
 31
0.0
 11
20.0322333816
 21
17.2660489285
 31
0.0
 11
20.0308362487
 21
17.2620760402
 31
0.0
 11
20.0293433718
 21
17.2582829499
 31
0.0
 11
20.0277610445
 21
17.2546745481
 31
0.0
 11
20.0260945095
 21
17.2512556897
 31
0.0
 11
20.024349009
 21
17.2480312296
 31
0.0
 11
20.0225295695
 21
17.2450060997
 31
0.0
 11
20.0206396633
 21
17.2421857865
 31
0.0
 11
20.018682081
 21
17.2395760196
 31
0.0
 11
20.0166596104
 21
17.2371825299
 31
0.0
 11
20.0145749998
 21
17.2350110838
 31
0.0
 11
20.0124300558
 21
17.2330683038
 31
0.0
 11
20.0102256185
 21
17.2313616908
 31
0.0
 11
20.0079624844
 21
17.2298987854
 31
0.0
 11
20.0056414501
 21
17.2286871278
 31
0.0
  0
SPLINE
  5
3AE
100
AcDbEntity
  8
0
100
AcDbSpline
 62
6
  6
CONTINUOUS
 70
0
 71
3
 72
15
 73
11
 74
9
 42
0.0000001
 43
0.0000001
 44
0.0000000001
 12
0.0497333243
 22
-0.0327754923
 32
0.0
 13
0.0203185248
 23
-0.055989231
 33
0.0
 40
0.0
 40
0.0
 40
0.0
 40
0.0
 40
0.1070806519
 40
0.2198796613
 40
0.3381714997
 40
0.4617034628
 40
0.5901963485
 40
0.723204682
 40
0.8601784223
 40
1.0
 40
1.0
 40
1.0
 40
1.0
 10
19.9961973364
 20
17.4046032879
 30
0.0
 10
19.9979724954
 20
17.4034334142
 30
0.0
 10
20.001498838
 20
17.4008472605
 30
0.0
 10
20.0065470231
 20
17.3964094067
 30
0.0
 10
20.0114437541
 20
17.3913399342
 30
0.0
 10
20.0161302267
 20
17.3856656994
 30
0.0
 10
20.0205464464
 20
17.379417252
 30
0.0
 10
20.0246194889
 20
17.372625999
 30
0.0
 10
20.0282631983
 20
17.3653428562
 30
0.0
 10
20.0303418227
 20
17.360248555
 30
0.0
 10
20.0312888121
 20
17.3576390541
 30
0.0
 11
19.9961973364
 21
17.4046032879
 31
0.0
 11
20.0013492598
 21
17.4008435233
 31
0.0
 11
20.0064033825
 21
17.3964169436
 31
0.0
 11
20.0113046813
 21
17.3913554021
 31
0.0
 11
20.0159956565
 21
17.3856868749
 31
0.0
 11
20.020415852
 21
17.3794390876
 31
0.0
 11
20.0244917902
 21
17.3726458017
 31
0.0
 11
20.0281442193
 21
17.3653506098
 31
0.0
 11
20.0312888121
 21
17.3576390541
 31
0.0
  0
SPLINE
  5
3AF
100
AcDbEntity
  8
0
100
AcDbSpline
 62
6
  6
CONTINUOUS
 70
0
 71
3
 72
43
 73
39
 74
37
 42
0.0000001
 43
0.0000001
 44
0.0000000001
 12
0.0736588862
 22
0.1377757053
 32
0.0
 13
-0.1443308283
 23
0.0598029139
 33
0.0
 40
0.0
 40
0.0
 40
0.0
 40
0.0
 40
0.0782143315
 40
0.157873702
 40
0.2380012621
 40
0.2780005447
 40
0.3178318641
 40
0.3574054246
 40
0.3966362142
 40
0.4354393213
 40
0.4737296782
 40
0.5484088117
 40
0.584610345
 40
0.6199292019
 40
0.6542703577
 40
0.6875229405
 40
0.7195759692
 40
0.7503241041
 40
0.7796691068
 40
0.8075188375
 40
0.8337897322
 40
0.8584121237
 40
0.8700898475
 40
0.8813386974
 40
0.8921549726
 40
0.9025359687
 40
0.9124825184
 40
0.9219998883
 40
0.9310987701
 40
0.9397964627
 40
0.948118236
 40
0.9560987904
 40
0.9637820205
 40
0.9712208753
 40
0.9784802087
 40
0.9856368568
 40
0.9927782952
 40
1.0
 40
1.0
 40
1.0
 40
1.0
 10
19.9961973364
 20
17.4046032879
 30
0.0
 10
19.9981177299
 20
17.4081952994
 30
0.0
 10
20.001861861
 20
17.4155168977
 30
0.0
 10
20.0071578106
 20
17.4267245839
 30
0.0
 10
20.0113390383
 20
17.4362530443
 30
0.0
 10
20.0145469389
 20
17.4439408181
 30
0.0
 10
20.0168762975
 20
17.4497063524
 30
0.0
 10
20.0191281383
 20
17.4554596272
 30
0.0
 10
20.0212982569
 20
17.4611869958
 30
0.0
 10
20.0233829153
 20
17.466874919
 30
0.0
 10
20.0260216187
 20
17.4743253358
 30
0.0
 10
20.0284922089
 20
17.4816913659
 30
0.0
 10
20.0307611338
 20
17.4889592537
 30
0.0
 10
20.0323224611
 20
17.4942467113
 30
0.0
 10
20.0337514343
 20
17.4994123467
 30
0.0
 10
20.035035812
 20
17.5044405591
 30
0.0
 10
20.0361629686
 20
17.5093145771
 30
0.0
 10
20.0371204007
 20
17.5140174219
 30
0.0
 10
20.0378950241
 20
17.5185320507
 30
0.0
 10
20.038476902
 20
17.5228406291
 30
0.0
 10
20.0388574407
 20
17.526924887
 30
0.0
 10
20.0390019973
 20
17.5301819098
 30
0.0
 10
20.0390020941
 20
17.5326584497
 30
0.0
 10
20.0389459528
 20
17.5344151022
 30
0.0
 10
20.0388322436
 20
17.5361013484
 30
0.0
 10
20.0386591002
 20
17.5377144216
 30
0.0
 10
20.0384247431
 20
17.5392514513
 30
0.0
 10
20.0381273424
 20
17.5407095781
 30
0.0
 10
20.037765039
 20
17.5420859511
 30
0.0
 10
20.0373359186
 20
17.543377716
 30
0.0
 10
20.0368380162
 20
17.544582001
 30
0.0
 10
20.0362692945
 20
17.5456957743
 30
0.0
 10
20.0356279911
 20
17.5467157851
 30
0.0
 10
20.0349127352
 20
17.5476386415
 30
0.0
 10
20.0341222179
 20
17.548460623
 30
0.0
 10
20.0332552448
 20
17.5491778785
 30
0.0
 10
20.0323111047
 20
17.5497863891
 30
0.0
 10
20.0316362503
 20
17.5501138561
 30
0.0
 10
20.0312888121
 20
17.5502578157
 30
0.0
 11
19.9961973364
 21
17.4046032879
 31
0.0
 11
20.0017708532
 21
17.4154775711
 31
0.0
 11
20.0070948419
 21
17.4267264601
 31
0.0
 11
20.0121321567
 21
17.4381865552
 31
0.0
 11
20.0145393558
 21
17.4439533944
 31
0.0
 11
20.0168707955
 21
17.4497229833
 31
0.0
 11
20.0191241333
 21
17.4554802982
 31
0.0
 11
20.0212956734
 21
17.4612117309
 31
0.0
 11
20.0233816517
 21
17.4669037448
 31
0.0
 11
20.0253782759
 21
17.472542804
 31
0.0
 11
20.0290770322
 21
17.4836080971
 31
0.0
 11
20.0307607117
 21
17.4890074359
 31
0.0
 11
20.0323214188
 21
17.4942999761
 31
0.0
 11
20.0337491721
 21
17.4994716274
 31
0.0
 11
20.035031723
 21
17.504505868
 31
0.0
 11
20.0361562892
 21
17.5093856035
 31
0.0
 11
20.0371100884
 21
17.5140937396
 31
0.0
 11
20.0378805399
 21
17.5186131038
 31
0.0
 11
20.0384572574
 21
17.5229256728
 31
0.0
 11
20.0388312015
 21
17.5270129011
 31
0.0
 11
20.0389933523
 21
17.5308562354
 31
0.0
 11
20.0389921865
 21
17.5326806444
 31
0.0
 11
20.0389346769
 21
17.5344371097
 31
0.0
 11
20.0388193766
 21
17.5361229969
 31
0.0
 11
20.0386445286
 21
17.5377353661
 31
0.0
 11
20.0384083623
 21
17.5392712634
 31
0.0
 11
20.038109107
 21
17.5407277354
 31
0.0
 11
20.0377449919
 21
17.5421018284
 31
0.0
 11
20.0373142463
 21
17.5433905887
 31
0.0
 11
20.0368150997
 21
17.5445910627
 31
0.0
 11
20.0362457859
 21
17.5457002943
 31
0.0
 11
20.0356048171
 21
17.5467151832
 31
0.0
 11
20.0348911342
 21
17.5476324067
 31
0.0
 11
20.0341037147
 21
17.5484486234
 31
0.0
 11
20.0332415362
 21
17.5491604915
 31
0.0
 11
20.0323035761
 21
17.5497646695
 31
0.0
 11
20.0312888121
 21
17.5502578157
 31
0.0
  0
LINE
  5
3B0
100
AcDbEntity
  8
0
100
AcDbLine
 62
6
  6
CONTINUOUS
 10
20.0312888121
 20
17.1827025724
 11
19.997489269
 21
17.2248402882
  0
LINE
  5
3B1
100
AcDbEntity
  8
0
100
AcDbLine
 62
9
  6
CONTINUOUS
 10
11.7456094144
 20
8.8084550765
 11
11.741007584
 21
8.8059790717
  0
LINE
  5
3B2
100
AcDbEntity
  8
0
100
AcDbLine
 62
9
  6
CONTINUOUS
 10
11.741007584
 20
9.9348890724
 11
11.7456475895
 21
9.9323925187
  0
SPLINE
  5
3B3
100
AcDbEntity
  8
0
100
AcDbSpline
 62
9
  6
CONTINUOUS
 70
0
 71
3
 72
25
 73
21
 74
19
 42
0.0000001
 43
0.0000001
 44
0.0000000001
 12
-0.0226469521
 22
0.117088474
 32
0.0
 13
-0.1114051981
 23
0.0425614499
 33
0.0
 40
0.0
 40
0.0
 40
0.0
 40
0.0
 40
0.0629988321
 40
0.1270018616
 40
0.1917684942
 40
0.2570508283
 40
0.322600846
 40
0.3881773175
 40
0.4209073103
 40
0.4535604389
 40
0.4861124937
 40
0.5185391977
 40
0.5829086039
 40
0.6464695655
 40
0.7090133687
 40
0.770336164
 40
0.8302469897
 40
0.8885770615
 40
0.9451909076
 40
1.0
 40
1.0
 40
1.0
 40
1.0
 10
4.2036597556
 20
17.6723574953
 30
0.0
 10
4.2031841784
 20
17.6748163077
 30
0.0
 10
4.2020695557
 20
17.679744206
 30
0.0
 10
4.1999481046
 20
17.6870706746
 30
0.0
 10
4.1973779935
 20
17.6943485642
 30
0.0
 10
4.194375562
 20
17.7015256404
 30
0.0
 10
4.1909571388
 20
17.7085499241
 30
0.0
 10
4.1877729369
 20
17.7142369738
 30
0.0
 10
4.185030345
 20
17.7186627587
 30
0.0
 10
4.1828802609
 20
17.7219091292
 30
0.0
 10
4.1806404816
 20
17.7250795147
 30
0.0
 10
4.1775492193
 20
17.729189283
 30
0.0
 10
4.1734921326
 20
17.7341115117
 30
0.0
 10
4.1683341429
 20
17.7396608861
 30
0.0
 10
4.1629377195
 20
17.744805063
 30
0.0
 10
4.1573423654
 20
17.749510042
 30
0.0
 10
4.1515873712
 20
17.7537419519
 30
0.0
 10
4.1457116265
 20
17.7574669359
 30
0.0
 10
4.1397546346
 20
17.7606507238
 30
0.0
 10
4.1356866693
 20
17.7624191566
 30
0.0
 10
4.13365133
 20
17.7631967414
 30
0.0
 11
4.2036597556
 21
17.6723574953
 31
0.0
 11
4.2020069264
 21
17.6796865841
 31
0.0
 11
4.1998871425
 21
17.6870192359
 31
0.0
 11
4.1973169114
 21
17.6943030308
 31
0.0
 11
4.1943127404
 21
17.7014855494
 31
0.0
 11
4.1908911371
 21
17.7085143719
 31
0.0
 11
4.1870686088
 21
17.7153370788
 31
0.0
 11
4.1850121564
 21
17.7186547576
 31
0.0
 11
4.1828619041
 21
17.7219014371
 31
0.0
 11
4.1806219881
 21
17.7250721711
 31
0.0
 11
4.1782973856
 21
17.7281626655
 31
0.0
 11
4.1734140472
 21
17.7340857726
 31
0.0
 11
4.1682517414
 21
17.7396364324
 31
0.0
 11
4.1628503206
 21
17.7447803189
 31
0.0
 11
4.1572496375
 21
17.749483106
 31
0.0
 11
4.1514895443
 21
17.7537104678
 31
0.0
 11
4.1456098937
 21
17.7574280783
 31
0.0
 11
4.1396505381
 21
17.7606016115
 31
0.0
 11
4.13365133
 21
17.7631967414
 31
0.0
  0
SPLINE
  5
3B4
100
AcDbEntity
  8
0
100
AcDbSpline
 62
6
  6
CONTINUOUS
 70
0
 71
3
 72
10
 73
6
 74
4
 42
0.0000001
 43
0.0000001
 44
0.0000000001
 12
-0.0482024144
 22
-0.0252303911
 32
0.0
 13
-0.0474124011
 23
-0.026685382
 33
0.0
 40
0.0
 40
0.0
 40
0.0
 40
0.0
 40
0.2479683528
 40
0.4973625116
 40
1.0
 40
1.0
 40
1.0
 40
1.0
 10
16.9687870913
 20
17.4799579332
 30
0.0
 10
16.9648028669
 20
17.477872487
 30
0.0
 10
16.9568324787
 20
17.4736494342
 30
0.0
 10
16.9408818917
 20
17.4650193501
 30
0.0
 10
16.928960612
 20
17.4583933586
 30
0.0
 10
16.9210168619
 20
17.4539223341
 30
0.0
 11
16.9687870913
 21
17.4799579332
 31
0.0
 11
16.9568645656
 21
17.4736443328
 31
0.0
 11
16.9449294171
 21
17.467189916
 31
0.0
 11
16.9210168619
 21
17.4539223341
 31
0.0
  0
SPLINE
  5
3B5
100
AcDbEntity
  8
0
100
AcDbSpline
 62
9
  6
CONTINUOUS
 70
0
 71
3
 72
19
 73
15
 74
13
 42
0.0000001
 43
0.0000001
 44
0.0000000001
 12
0.0127457773
 22
0.0104768704
 32
0.0
 13
0.014288435
 23
-0.0082498653
 33
0.0
 40
0.0
 40
0.0
 40
0.0
 40
0.0
 40
0.162879813
 40
0.3148377273
 40
0.4548723645
 40
0.5827186772
 40
0.6423270357
 40
0.6992391746
 40
0.7536717491
 40
0.8059001392
 40
0.8562495739
 40
0.9050937077
 40
0.9528548512
 40
1.0
 40
1.0
 40
1.0
 40
1.0
 10
11.7410075839
 20
9.9348892839
 30
0.0
 10
11.7416995939
 20
9.9354581074
 30
0.0
 10
11.7430782355
 20
9.9365092057
 30
0.0
 10
11.7451914358
 20
9.9378544225
 30
0.0
 10
11.747255703
 20
9.9388983461
 30
0.0
 10
11.7489533435
 20
9.9395170772
 30
0.0
 10
11.7502597873
 20
9.9398372238
 30
0.0
 10
11.7511887865
 20
9.9399887348
 30
0.0
 10
11.7520870806
 20
9.94005629
 30
0.0
 10
11.7529518122
 20
9.9400393334
 30
0.0
 10
11.753779995
 20
9.9399385396
 30
0.0
 10
11.7545686755
 20
9.9397543523
 30
0.0
 10
11.7553146307
 20
9.9394873834
 30
0.0
 10
11.7557830408
 20
9.9392537341
 30
0.0
 10
11.7560075843
 20
9.939124087
 30
0.0
 11
11.7410075839
 21
9.9348892839
 31
0.0
 11
11.7431485436
 21
9.9365135479
 31
0.0
 11
11.7452682675
 21
9.9378524472
 31
0.0
 11
11.7473351756
 21
9.9388849376
 31
0.0
 11
11.749321239
 21
9.9395954974
 31
0.0
 11
11.7502768853
 21
9.9398278318
 31
0.0
 11
11.7512039326
 21
9.9399771649
 31
0.0
 11
11.7520996237
 21
9.9400427278
 31
0.0
 11
11.7529611471
 21
9.9400243011
 31
0.0
 11
11.7537856074
 21
9.9399225176
 31
0.0
 11
11.754570102
 21
9.9397380834
 31
0.0
 11
11.7553117285
 21
9.9394717045
 31
0.0
 11
11.7560075843
 21
9.939124087
 31
0.0
  0
SPLINE
  5
3B6
100
AcDbEntity
  8
0
100
AcDbSpline
 62
9
  6
CONTINUOUS
 70
0
 71
3
 72
34
 73
30
 74
28
 42
0.0000001
 43
0.0000001
 44
0.0000000001
 12
0.1079704604
 22
-0.0800857194
 32
0.0
 13
-0.0918634486
 23
-0.0981450436
 33
0.0
 40
0.0
 40
0.0
 40
0.0
 40
0.0
 40
0.0796444631
 40
0.1610629936
 40
0.2432349736
 40
0.325128017
 40
0.4057092221
 40
0.4451901855
 40
0.4839616923
 40
0.5219000197
 40
0.5588863578
 40
0.5948296214
 40
0.6296557809
 40
0.663292314
 40
0.6956686258
 40
0.7267168974
 40
0.7563731789
 40
0.7845788294
 40
0.8112824529
 40
0.8364425471
 40
0.8600311864
 40
0.8820391976
 40
0.9024834723
 40
0.9214176749
 40
0.9389665661
 40
0.9553334828
 40
0.9707650418
 40
0.9855477164
 40
1.0
 40
1.0
 40
1.0
 40
1.0
 10
17.543378527
 20
17.6464030566
 30
0.0
 10
17.5462449434
 20
17.6442769286
 30
0.0
 10
17.5519388896
 20
17.6398373835
 30
0.0
 10
17.5602405548
 20
17.6327704487
 30
0.0
 10
17.5683221721
 20
17.6253034333
 30
0.0
 10
17.5760723262
 20
17.6175461637
 30
0.0
 10
17.5822039033
 20
17.6108864047
 30
0.0
 10
17.5868504641
 20
17.605494472
 30
0.0
 10
17.5901585439
 20
17.6014733588
 30
0.0
 10
17.5932997454
 20
17.5974615832
 30
0.0
 10
17.5962604072
 20
17.5934714496
 30
0.0
 10
17.5990316061
 20
17.5895165728
 30
0.0
 10
17.6016074935
 20
17.5856103581
 30
0.0
 10
17.6039822629
 20
17.5817653036
 30
0.0
 10
17.6061502337
 20
17.5779939628
 30
0.0
 10
17.6081057151
 20
17.5743088506
 30
0.0
 10
17.6098430429
 20
17.5707224579
 30
0.0
 10
17.6113565728
 20
17.5672472315
 30
0.0
 10
17.6126406859
 20
17.5638955527
 30
0.0
 10
17.61368977
 20
17.5606797038
 30
0.0
 10
17.6144982373
 20
17.5576118216
 30
0.0
 10
17.6150603415
 20
17.5547038196
 30
0.0
 10
17.6153704965
 20
17.5519673279
 30
0.0
 10
17.6154215989
 20
17.5494125788
 30
0.0
 10
17.6152092829
 20
17.5470484966
 30
0.0
 10
17.614738648
 20
17.544881392
 30
0.0
 10
17.6140132013
 20
17.5429161064
 30
0.0
 10
17.6130376948
 20
17.5411592864
 30
0.0
 10
17.612220196
 20
17.5401267485
 30
0.0
 10
17.6117776505
 20
17.5396539418
 30
0.0
 11
17.543378527
 21
17.6464030566
 31
0.0
 11
17.5518280429
 21
17.6398276058
 31
0.0
 11
17.5601658481
 21
17.6327370824
 31
0.0
 11
17.5682802316
 21
17.6252418358
 31
0.0
 11
17.5760594827
 21
17.6174522158
 31
0.0
 11
17.5833918906
 21
17.6094785718
 31
0.0
 11
17.5868556187
 21
17.6054572251
 31
0.0
 11
17.5901657444
 21
17.6014312535
 31
0.0
 11
17.5933083039
 21
17.5974144506
 31
0.0
 11
17.5962697482
 21
17.593420549
 31
0.0
 11
17.599041248
 21
17.5894625842
 31
0.0
 11
17.6016169715
 21
17.5855531492
 31
0.0
 11
17.6039911347
 21
17.5817048298
 31
0.0
 11
17.6061579535
 21
17.577930212
 31
0.0
 11
17.608111644
 21
17.5742418817
 31
0.0
 11
17.6098464222
 21
17.5706524248
 31
0.0
 11
17.6113565039
 21
17.5671744272
 31
0.0
 11
17.6126361053
 21
17.5638204747
 31
0.0
 11
17.6136794422
 21
17.5606031534
 31
0.0
 11
17.6144807307
 21
17.5575350492
 31
0.0
 11
17.6150341868
 21
17.5546287478
 31
0.0
 11
17.6153340264
 21
17.5518968353
 31
0.0
 11
17.6153745448
 21
17.5493518388
 31
0.0
 11
17.615154413
 21
17.5470030396
 31
0.0
 11
17.6146788736
 21
17.5448548449
 31
0.0
 11
17.6139537107
 21
17.54291126
 31
0.0
 11
17.6129847084
 21
17.5411762905
 31
0.0
 11
17.6117776505
 21
17.5396539418
 31
0.0
  0
SPLINE
  5
3B7
100
AcDbEntity
  8
0
100
AcDbSpline
 62
9
  6
CONTINUOUS
 70
0
 71
3
 72
47
 73
43
 74
41
 42
0.0000001
 43
0.0000001
 44
0.0000000001
 12
0.241646922
 22
-0.030545412
 32
0.0
 13
-0.2396845939
 23
-0.043330735
 33
0.0
 40
0.0
 40
0.0
 40
0.0
 40
0.0
 40
0.0272665053
 40
0.0550907004
 40
0.0835674652
 40
0.1127510952
 40
0.142665041
 40
0.1733109645
 40
0.2046768601
 40
0.2206276036
 40
0.2367512384
 40
0.253045503
 40
0.2695081001
 40
0.2861329234
 40
0.3029102109
 40
0.3368689333
 40
0.3712821231
 40
0.4060256804
 40
0.4409667105
 40
0.4759697643
 40
0.5109028055
 40
0.5283069747
 40
0.5456488666
 40
0.5629157618
 40
0.5800972344
 40
0.6141600885
 40
0.6477623862
 40
0.6808189612
 40
0.713246443
 40
0.7449698648
 40
0.775930148
 40
0.8060927933
 40
0.835458067
 40
0.8640811588
 40
0.8781531229
 40
0.8920807968
 40
0.9195485833
 40
0.9466074159
 40
0.9600253591
 40
0.9733858303
 40
0.9867050246
 40
1.0
 40
1.0
 40
1.0
 40
1.0
 10
19.3483638379
 20
17.7321401096
 30
0.0
 10
19.3505601269
 20
17.7318624874
 30
0.0
 10
19.3549670462
 20
17.7310285775
 30
0.0
 10
19.3614594762
 20
17.7290144332
 30
0.0
 10
19.36784427
 20
17.7262616553
 30
0.0
 10
19.3740703516
 20
17.7228051798
 30
0.0
 10
19.3800882638
 20
17.7186790523
 30
0.0
 10
19.3858475358
 20
17.7139172466
 30
0.0
 10
19.3903647969
 20
17.7094713563
 30
0.0
 10
19.3938024286
 20
17.7056340517
 30
0.0
 10
19.3962991395
 20
17.7026013145
 30
0.0
 10
19.3986931648
 20
17.6994347114
 30
0.0
 10
19.4009774639
 20
17.6961384482
 30
0.0
 10
19.4031486226
 20
17.6927200681
 30
0.0
 10
19.4059003412
 20
17.6879924298
 30
0.0
 10
19.4090377996
 20
17.6818244842
 30
0.0
 10
19.4122944215
 20
17.6741047261
 30
0.0
 10
19.41503771
 20
17.6661036806
 30
0.0
 10
19.4172466187
 20
17.6578894512
 30
0.0
 10
19.418900082
 20
17.6495301082
 30
0.0
 10
19.4197986869
 20
17.6424898495
 30
0.0
 10
19.4202176184
 20
17.6368471405
 30
0.0
 10
19.4203789791
 20
17.6326263366
 30
0.0
 10
19.4203846788
 20
17.6284204846
 30
0.0
 10
19.4201850134
 20
17.6228606018
 30
0.0
 10
19.4195575325
 20
17.6159937096
 30
0.0
 10
19.4182136259
 20
17.6079198908
 30
0.0
 10
19.4163022059
 20
17.600097517
 30
0.0
 10
19.4138442708
 20
17.5925893186
 30
0.0
 10
19.4108605691
 20
17.5854575981
 30
0.0
 10
19.4073714393
 20
17.5787648054
 30
0.0
 10
19.4033968926
 20
17.5725732243
 30
0.0
 10
19.3989553437
 20
17.566945712
 30
0.0
 10
19.3948576284
 20
17.5627527156
 30
0.0
 10
19.3913875763
 20
17.5597342989
 30
0.0
 10
19.3878331508
 20
17.5569659187
 30
0.0
 10
19.3831742485
 20
17.5539136174
 30
0.0
 10
19.3782403407
 20
17.5514183801
 30
0.0
 10
19.3741834239
 20
17.5497858896
 30
0.0
 10
19.3710966093
 20
17.5487454908
 30
0.0
 10
19.3679644234
 20
17.5478886588
 30
0.0
 10
19.3658489307
 20
17.5474412598
 30
0.0
 10
19.3647867305
 20
17.5472492328
 30
0.0
 11
19.3483638379
 21
17.7321401096
 31
0.0
 11
19.3548913548
 21
17.7309160347
 31
0.0
 11
19.3613675047
 21
17.7289187793
 31
0.0
 11
19.3677409208
 21
17.7261822158
 31
0.0
 11
19.3739602361
 21
17.7227402168
 31
0.0
 11
19.3799740837
 21
17.7186266549
 31
0.0
 11
19.3857310965
 21
17.7138754024
 31
0.0
 11
19.3911799078
 21
17.708520332
 31
0.0
 11
19.3937726856
 21
17.7056269502
 31
0.0
 11
19.3962691505
 21
17.7025953161
 31
0.0
 11
19.3986628815
 21
17.6994296638
 31
0.0
 11
19.4009477046
 21
17.6961345138
 31
0.0
 11
19.4031197211
 21
17.6927170269
 31
0.0
 11
19.4051762595
 21
17.6891857878
 31
0.0
 11
19.4089322634
 21
17.6818164482
 31
0.0
 11
19.4121944394
 21
17.6740952841
 31
0.0
 11
19.4149415106
 21
17.6660910852
 31
0.0
 11
19.4171522001
 21
17.6578726406
 31
0.0
 11
19.418805231
 21
17.6495087398
 31
0.0
 11
19.4198793266
 21
17.6410681723
 31
0.0
 11
19.4201926245
 21
17.6368406351
 31
0.0
 11
19.4203532098
 21
17.6326197273
 31
0.0
 11
19.4203585125
 21
17.628414036
 31
0.0
 11
19.4202083972
 21
17.6242318411
 31
0.0
 11
19.4194521461
 21
17.6159696963
 31
0.0
 11
19.4181055986
 21
17.6078967203
 31
0.0
 11
19.4161900313
 21
17.6000763234
 31
0.0
 11
19.4137267214
 21
17.592571916
 31
0.0
 11
19.4107369455
 21
17.5854469086
 31
0.0
 11
19.4072419806
 21
17.5787647113
 31
0.0
 11
19.4032631036
 21
17.5725887347
 31
0.0
 11
19.3988215964
 21
17.5669823821
 31
0.0
 11
19.3939453872
 21
17.5619996638
 31
0.0
 11
19.3913589485
 21
17.559750635
 31
0.0
 11
19.3886821814
 21
17.5576666409
 31
0.0
 11
19.3830833459
 21
17.5540041999
 31
0.0
 11
19.3772002476
 21
17.5510332273
 31
0.0
 11
19.3741681521
 21
17.5498135686
 31
0.0
 11
19.3710842535
 21
17.5487746095
 31
0.0
 11
19.3679549727
 21
17.5479189606
 31
0.0
 11
19.3647867305
 21
17.5472492328
 31
0.0
  0
SPLINE
  5
3B8
100
AcDbEntity
  8
0
100
AcDbSpline
 62
6
  6
CONTINUOUS
 70
0
 71
3
 72
31
 73
27
 74
25
 42
0.0000001
 43
0.0000001
 44
0.0000000001
 12
0.0129182872
 22
0.002502377
 32
0.0
 13
-0.008066838
 23
0.0103956799
 33
0.0
 40
0.0
 40
0.0
 40
0.0
 40
0.0
 40
0.0002691557
 40
0.0005328714
 40
0.0009027576
 40
0.0019752696
 40
0.0035014656
 40
0.0054866867
 40
0.007934213
 40
0.014225774
 40
0.0223931846
 40
0.0324512996
 40
0.0444142842
 40
0.0582959981
 40
0.0741101519
 40
0.0918703797
 40
0.133283336
 40
0.1826438722
 40
0.2400615404
 40
0.3056465242
 40
0.3795096318
 40
0.4617622904
 40
0.5524923036
 40
0.651699893
 40
0.7593659578
 40
1.0
 40
1.0
 40
1.0
 40
1.0
 10
20.0389974823
 20
17.1720487974
 30
0.0
 10
20.0389986413
 20
17.1720490219
 30
0.0
 10
20.0389994503
 20
17.172052162
 30
0.0
 10
20.038998601
 20
17.1720557642
 30
0.0
 10
20.0389966099
 20
17.1720631289
 30
0.0
 10
20.0389915198
 20
17.1720750453
 30
0.0
 10
20.0389828626
 20
17.1720932343
 30
0.0
 10
20.038970712
 20
17.1721163655
 30
0.0
 10
20.0389479688
 20
17.1721575491
 30
0.0
 10
20.0389104905
 20
17.1722215418
 30
0.0
 10
20.0388545544
 20
17.1723133882
 30
0.0
 10
20.0387842708
 20
17.1724256094
 30
0.0
 10
20.0386994638
 20
17.1725582992
 30
0.0
 10
20.0385999323
 20
17.1727115348
 30
0.0
 10
20.0384854927
 20
17.1728854028
 30
0.0
 10
20.0383032251
 20
17.1731591871
 30
0.0
 10
20.0380366055
 20
17.17355357
 30
0.0
 10
20.0376684755
 20
17.1740892664
 30
0.0
 10
20.0372358834
 20
17.174709285
 30
0.0
 10
20.0367371017
 20
17.1754141441
 30
0.0
 10
20.0361703818
 20
17.1762043485
 30
0.0
 10
20.0355340476
 20
17.1770803237
 30
0.0
 10
20.0348267107
 20
17.1780420946
 30
0.0
 10
20.0340472278
 20
17.1790891461
 30
0.0
 10
20.0328660458
 20
17.1806568029
 30
0.0
 10
20.031935864
 20
17.1818687209
 30
0.0
 10
20.0312888121
 20
17.1827025724
 30
0.0
 11
20.0389974823
 21
17.1720487974
 31
0.0
 11
20.0389991242
 21
17.1720519354
 31
0.0
 11
20.0389986761
 21
17.1720553764
 31
0.0
 11
20.038997378
 21
17.1720600672
 31
0.0
 11
20.0389922207
 21
17.1720732037
 31
0.0
 11
20.0389836297
 21
17.1720913557
 31
0.0
 11
20.0389715821
 21
17.172114534
 31
0.0
 11
20.038956055
 21
17.1721427494
 31
0.0
 11
20.0389144717
 21
17.1722143351
 31
0.0
 11
20.0388586973
 21
17.1723061995
 31
0.0
 11
20.0387885496
 21
17.1724184294
 31
0.0
 11
20.0387038462
 21
17.1725511113
 31
0.0
 11
20.0386044047
 21
17.172704332
 31
0.0
 11
20.0384900429
 21
17.1728781783
 31
0.0
 11
20.0383605784
 21
17.1730727368
 31
0.0
 11
20.0380556078
 21
17.1735243347
 31
0.0
 11
20.0376879062
 21
17.1740597359
 31
0.0
 11
20.0372557425
 21
17.1746794567
 31
0.0
 11
20.0367573774
 21
17.1753840078
 31
0.0
 11
20.0361910718
 21
17.1761739003
 31
0.0
 11
20.0355550866
 21
17.1770496449
 31
0.0
 11
20.0348478523
 21
17.1780114818
 31
0.0
 11
20.0340684179
 21
17.1790586641
 31
0.0
 11
20.0332159732
 21
17.1801902208
 31
0.0
 11
20.0312888121
 21
17.1827025724
 31
0.0
  0
SPLINE
  5
3B9
100
AcDbEntity
  8
0
100
AcDbSpline
 62
9
  6
CONTINUOUS
 70
0
 71
3
 72
19
 73
15
 74
13
 42
0.0000001
 43
0.0000001
 44
0.0000000001
 12
-0.0127459471
 22
0.0104771375
 32
0.0
 13
-0.0142893613
 23
-0.0082488625
 33
0.0
 40
0.0
 40
0.0
 40
0.0
 40
0.0
 40
0.1628782552
 40
0.3148354381
 40
0.454870182
 40
0.5827172821
 40
0.6423261722
 40
0.6992388681
 40
0.7536719665
 40
0.8059007802
 40
0.8562504651
 40
0.9050946093
 40
0.9528554683
 40
1.0
 40
1.0
 40
1.0
 40
1.0
 10
11.741007584
 20
9.9348890724
 30
0.0
 10
11.7403155714
 20
9.935457905
 30
0.0
 10
11.7389369236
 20
9.9365090261
 30
0.0
 10
11.7368237145
 20
9.9378542907
 30
0.0
 10
11.7347594322
 20
9.9388982784
 30
0.0
 10
11.7330617741
 20
9.9395170774
 30
0.0
 10
11.7317553099
 20
9.9398372862
 30
0.0
 10
11.7308262925
 20
9.9399888459
 30
0.0
 10
11.7299279776
 20
9.9400564523
 30
0.0
 10
11.7290632228
 20
9.9400395489
 30
0.0
 10
11.7282350144
 20
9.9399388099
 30
0.0
 10
11.7274463061
 20
9.939754678
 30
0.0
 10
11.726700321
 20
9.9394877648
 30
0.0
 10
11.7262318879
 20
9.9392541513
 30
0.0
 10
11.7260073328
 20
9.9391245217
 30
0.0
 11
11.741007584
 21
9.9348890724
 31
0.0
 11
11.7388666197
 21
9.9365133689
 31
0.0
 11
11.736746887
 21
9.9378523172
 31
0.0
 11
11.7346799628
 21
9.9388848736
 31
0.0
 11
11.7326938741
 21
9.9395955153
 31
0.0
 11
11.7317382115
 21
9.9398278957
 31
0.0
 11
11.7308111454
 21
9.9399772775
 31
0.0
 11
11.729915433
 21
9.9400428915
 31
0.0
 11
11.7290538858
 21
9.9400245178
 31
0.0
 11
11.7282293994
 21
9.9399227885
 31
0.0
 11
11.7274448765
 21
9.9397384091
 31
0.0
 11
11.7267032201
 21
9.939472085
 31
0.0
 11
11.7260073328
 21
9.9391245217
 31
0.0
  0
LINE
  5
3BA
100
AcDbEntity
  8
0
100
AcDbLine
 62
9
  6
CONTINUOUS
 10
11.7364057535
 20
9.9324130676
 11
11.741007584
 21
9.9348890724
  0
SPLINE
  5
3BB
100
AcDbEntity
  8
0
100
AcDbSpline
 62
6
  6
CONTINUOUS
 70
0
 71
3
 72
26
 73
22
 74
20
 42
0.0000001
 43
0.0000001
 44
0.0000000001
 12
-0.2455778085
 22
-0.1290820864
 32
0.0
 13
-0.2591364156
 23
-0.0990906815
 33
0.0
 40
0.0
 40
0.0
 40
0.0
 40
0.0
 40
0.0157231818
 40
0.0315567348
 40
0.0634425485
 40
0.0955090378
 40
0.1276745174
 40
0.1598881395
 40
0.1921154226
 40
0.2243314366
 40
0.2565172087
 40
0.3207406862
 40
0.3846929111
 40
0.4483052946
 40
0.5115245818
 40
0.5743078697
 40
0.6366240046
 40
0.6984514601
 40
0.7597766586
 40
0.8808927565
 40
1.0
 40
1.0
 40
1.0
 40
1.0
 10
17.1651136658
 20
17.3883299277
 30
0.0
 10
17.1638265776
 20
17.3876534007
 30
0.0
 10
17.1612525884
 20
17.3862780061
 30
0.0
 10
17.1561084346
 20
17.3834564411
 30
0.0
 10
17.1496857772
 20
17.3798238229
 30
0.0
 10
17.142000255
 20
17.3753577029
 30
0.0
 10
17.1343245993
 20
17.3708149255
 30
0.0
 10
17.1266607344
 20
17.3662233656
 30
0.0
 10
17.1190087215
 20
17.3616030629
 30
0.0
 10
17.1113677953
 20
17.3569694288
 30
0.0
 10
17.1012009
 20
17.3507947001
 30
0.0
 10
17.0885208454
 20
17.3431040757
 30
0.0
 10
17.0733162041
 20
17.3339717963
 30
0.0
 10
17.0581258592
 20
17.3249967483
 30
0.0
 10
17.0429413445
 20
17.3162257158
 30
0.0
 10
17.0277534286
 20
17.3077025968
 30
0.0
 10
17.0125586266
 20
17.2994581246
 30
0.0
 10
16.9973542121
 20
17.2915181843
 30
0.0
 10
16.9771501534
 20
17.2814122183
 30
0.0
 10
16.9518580125
 20
17.269646909
 30
0.0
 10
16.9313051706
 20
17.2611879342
 30
0.0
 10
16.9210168293
 20
17.2572537949
 30
0.0
 11
17.1651136658
 21
17.3883299277
 31
0.0
 11
17.1612653778
 21
17.3862758481
 31
0.0
 11
17.1574130838
 21
17.3841648107
 31
0.0
 11
17.1497088947
 21
17.3798171769
 31
0.0
 11
17.1420141586
 21
17.3753521067
 31
0.0
 11
17.134332521
 21
17.3708103379
 31
0.0
 11
17.1266644607
 21
17.3662196264
 31
0.0
 11
17.1190093108
 21
17.3616000787
 31
0.0
 11
17.1113659206
 21
17.3569671282
 31
0.0
 11
17.1037329375
 21
17.3523331988
 31
0.0
 11
17.0884927474
 21
17.3431020578
 31
0.0
 11
17.073278286
 21
17.3339740015
 31
0.0
 11
17.0580798813
 21
17.325003331
 31
0.0
 11
17.0428883724
 21
17.3162372052
 31
0.0
 11
17.0276956706
 21
17.3077178051
 31
0.0
 11
17.0124972919
 21
17.2994770865
 31
0.0
 11
16.9972902508
 21
17.2915413114
 31
0.0
 11
16.9820716547
 21
17.2839344729
 31
0.0
 11
16.9515867483
 21
17.2698007801
 31
0.0
 11
16.9210168293
 21
17.2572537949
 31
0.0
  0
SPLINE
  5
3BC
100
AcDbEntity
  8
0
100
AcDbSpline
 62
9
  6
CONTINUOUS
 70
0
 71
3
 72
24
 73
20
 74
18
 42
0.0000001
 43
0.0000001
 44
0.0000000001
 12
0.055581459
 22
-0.0328477278
 32
0.0
 13
0.0491534939
 23
0.0418593579
 33
0.0
 40
0.0
 40
0.0
 40
0.0
 40
0.0
 40
0.0796985209
 40
0.1571692242
 40
0.2323305295
 40
0.3051082549
 40
0.3754393344
 40
0.4432762974
 40
0.5085927152
 40
0.5713898416
 40
0.6317046858
 40
0.6896196964
 40
0.7452740791
 40
0.7988764138
 40
0.825004673
 40
0.8507376892
 40
0.9012237531
 40
0.9508216451
 40
1.0
 40
1.0
 40
1.0
 40
1.0
 10
17.543378527
 20
17.1805706592
 30
0.0
 10
17.5448551137
 20
17.1796980208
 30
0.0
 10
17.5478055329
 20
17.1780412356
 30
0.0
 10
17.5522753615
 20
17.1757967819
 30
0.0
 10
17.5567121633
 20
17.1738305515
 30
0.0
 10
17.5610993188
 20
17.1721460533
 30
0.0
 10
17.5654203873
 20
17.1707467245
 30
0.0
 10
17.5696589414
 20
17.1696360473
 30
0.0
 10
17.5737986184
 20
17.1688175389
 30
0.0
 10
17.5778231253
 20
17.1682947908
 30
0.0
 10
17.5817162038
 20
17.1680714953
 30
0.0
 10
17.585461736
 20
17.1681515462
 30
0.0
 10
17.5890432415
 20
17.1685389489
 30
0.0
 10
17.5919023347
 20
17.1691267809
 30
0.0
 10
17.594083593
 20
17.169757642
 30
0.0
 10
17.5961639056
 20
17.1704840735
 30
0.0
 10
17.5986432401
 20
17.1715879068
 30
0.0
 10
17.6014156349
 20
17.1732233321
 30
0.0
 10
17.6031146646
 20
17.1745100716
 30
0.0
 10
17.6039204272
 20
17.1751962631
 30
0.0
 11
17.543378527
 21
17.1805706592
 31
0.0
 11
17.5478662213
 21
17.1780533482
 31
0.0
 11
17.5523372581
 21
17.175811343
 31
0.0
 11
17.5567749802
 21
17.173848153
 31
0.0
 11
17.56116273
 21
17.1721672875
 31
0.0
 11
17.5654838502
 21
17.1707722559
 31
0.0
 11
17.5697216833
 21
17.1696665674
 31
0.0
 11
17.5738595719
 21
17.1688537315
 31
0.0
 11
17.5778808587
 21
17.1683372574
 31
0.0
 11
17.5817688862
 21
17.1681206545
 31
0.0
 11
17.5855069969
 21
17.1682074321
 31
0.0
 11
17.5890785336
 21
17.1686010995
 31
0.0
 11
17.5924668387
 21
17.1693051662
 31
0.0
 11
17.594087074
 21
17.1697746959
 31
0.0
 11
17.5956553874
 21
17.1703229413
 31
0.0
 11
17.598631916
 21
17.1716513036
 31
0.0
 11
17.6013892292
 21
17.173279483
 31
0.0
 11
17.6039204272
 21
17.1751962631
 31
0.0
  0
SPLINE
  5
3BD
100
AcDbEntity
  8
0
100
AcDbSpline
 62
9
  6
CONTINUOUS
 70
0
 71
3
 72
31
 73
27
 74
25
 42
0.0000001
 43
0.0000001
 44
0.0000000001
 12
0.0519459617
 22
0.0554045986
 32
0.0
 13
0.0609992287
 23
-0.0452454041
 33
0.0
 40
0.0
 40
0.0
 40
0.0
 40
0.0
 40
0.0170094589
 40
0.03419693
 40
0.0517288656
 40
0.0697606369
 40
0.1078384024
 40
0.12815788
 40
0.1494523666
 40
0.1718048641
 40
0.1952865444
 40
0.2199583157
 40
0.245872313
 40
0.2730664674
 40
0.3015449291
 40
0.331296766
 40
0.3623036331
 40
0.3945412434
 40
0.4279805265
 40
0.4983234827
 40
0.5730414921
 40
0.6518024722
 40
0.7342519238
 40
0.8200207805
 40
0.9087310386
 40
1.0
 40
1.0
 40
1.0
 40
1.0
 10
17.4749861967
 20
17.6675976116
 30
0.0
 10
17.4752807209
 20
17.6679117457
 30
0.0
 10
17.4759080099
 20
17.6685113353
 30
0.0
 10
17.4769486723
 20
17.6693101548
 30
0.0
 10
17.4780892859
 20
17.6700093817
 30
0.0
 10
17.4797701007
 20
17.6708217426
 30
0.0
 10
17.4816258218
 20
17.671409815
 30
0.0
 10
17.483608619
 20
17.6717881808
 30
0.0
 10
17.4852188796
 20
17.6719737008
 30
0.0
 10
17.4869175648
 20
17.6720534427
 30
0.0
 10
17.4887033442
 20
17.6720264598
 30
0.0
 10
17.4905744953
 20
17.6718916289
 30
0.0
 10
17.4925292425
 20
17.671647829
 30
0.0
 10
17.4945649074
 20
17.6712942235
 30
0.0
 10
17.4966783321
 20
17.6708328804
 30
0.0
 10
17.4988656414
 20
17.6702657686
 30
0.0
 10
17.5011227825
 20
17.6695949127
 30
0.0
 10
17.5034457106
 20
17.6688223398
 30
0.0
 10
17.5066799721
 20
17.6676391755
 30
0.0
 10
17.5108575699
 20
17.6659106088
 30
0.0
 10
17.5159863211
 20
17.6634976084
 30
0.0
 10
17.521279792
 20
17.6607277
 30
0.0
 10
17.5267051633
 20
17.6576169404
 30
0.0
 10
17.5322297012
 20
17.6541813098
 30
0.0
 10
17.5378204879
 20
17.6504369681
 30
0.0
 10
17.5415227482
 20
17.647779557
 30
0.0
 10
17.543378527
 20
17.6464030566
 30
0.0
 11
17.4749861967
 21
17.6675976116
 31
0.0
 11
17.4759197551
 21
17.6684905233
 31
0.0
 11
17.4769545468
 21
17.6692862253
 31
0.0
 11
17.4780888649
 21
17.6699835357
 31
0.0
 11
17.4793210024
 21
17.6705812724
 31
0.0
 11
17.4820719087
 21
17.6714732967
 31
0.0
 11
17.4835872638
 21
17.6717652203
 31
0.0
 11
17.4851936109
 21
17.6719528422
 31
0.0
 11
17.4868892433
 21
17.6720349804
 31
0.0
 11
17.4886724542
 21
17.6720104529
 31
0.0
 11
17.4905415366
 21
17.6718780777
 31
0.0
 11
17.4924947837
 21
17.6716366728
 31
0.0
 11
17.494530064
 21
17.6712856233
 31
0.0
 11
17.4966436378
 21
17.6708264631
 31
0.0
 11
17.4988313841
 21
17.6702612346
 31
0.0
 11
17.5010891824
 21
17.6695919804
 31
0.0
 11
17.503412912
 21
17.6688207428
 31
0.0
 11
17.5057984521
 21
17.6679495643
 31
0.0
 11
17.5107384811
 21
17.6659155546
 31
0.0
 11
17.5158763039
 21
17.6635062911
 31
0.0
 11
17.5211789548
 21
17.6607381135
 31
0.0
 11
17.5266134681
 21
17.6576273615
 31
0.0
 11
17.5321468784
 21
17.6541903748
 31
0.0
 11
17.5377462199
 21
17.6504434933
 31
0.0
 11
17.543378527
 21
17.6464030566
 31
0.0
  0
SPLINE
  5
3BE
100
AcDbEntity
  8
0
100
AcDbSpline
 62
9
  6
CONTINUOUS
 70
0
 71
3
 72
37
 73
33
 74
31
 42
0.0000001
 43
0.0000001
 44
0.0000000001
 12
0.0815388909
 22
-0.0670807843
 32
0.0
 13
-0.0680746307
 23
-0.0807110092
 33
0.0
 40
0.0
 40
0.0
 40
0.0
 40
0.0
 40
0.092399401
 40
0.1848650628
 40
0.2764175948
 40
0.3660771681
 40
0.4528645633
 40
0.5358024103
 40
0.6139168865
 40
0.6862494382
 40
0.7200083223
 40
0.7520808859
 40
0.7824099494
 40
0.8109391769
 40
0.837613396
 40
0.8623790597
 40
0.885184935
 40
0.9059831654
 40
0.9247309766
 40
0.941393546
 40
0.948936195
 40
0.9559510374
 40
0.9624390309
 40
0.96840365
 40
0.9738518825
 40
0.9787957145
 40
0.9832543588
 40
0.9872575873
 40
0.9908512945
 40
0.9941062556
 40
0.9971172038
 40
1.0
 40
1.0
 40
1.0
 40
1.0
 10
19.3483638379
 20
17.3201833863
 30
0.0
 10
19.3508752194
 20
17.3181173115
 30
0.0
 10
19.3558713328
 20
17.3139489763
 30
0.0
 10
19.3632593886
 20
17.3076190775
 30
0.0
 10
19.3704927983
 20
17.3012580948
 30
0.0
 10
19.3774938812
 20
17.2949367687
 30
0.0
 10
19.3841850748
 20
17.2887259057
 30
0.0
 10
19.3904888553
 20
17.2826962957
 30
0.0
 10
19.3963283485
 20
17.2769189081
 30
0.0
 10
19.4008455049
 20
17.2722675848
 30
0.0
 10
19.4041686923
 20
17.2687174135
 30
0.0
 10
19.4064493683
 20
17.2662167294
 30
0.0
 10
19.4085721422
 20
17.2638215684
 30
0.0
 10
19.4105330449
 20
17.2615372962
 30
0.0
 10
19.4123281168
 20
17.2593692766
 30
0.0
 10
19.4139534315
 20
17.2573228721
 30
0.0
 10
19.4154050893
 20
17.2554034423
 30
0.0
 10
19.4166793003
 20
17.2536163231
 30
0.0
 10
19.4177722298
 20
17.2519668418
 30
0.0
 10
19.4185531718
 20
17.2506716117
 30
0.0
 10
19.419079582
 20
17.2497069346
 30
0.0
 10
19.4194131549
 20
17.2490454244
 30
0.0
 10
19.4196983752
 20
17.2484222384
 30
0.0
 10
19.4199347769
 20
17.2478379766
 30
0.0
 10
19.4201219157
 20
17.2472932146
 30
0.0
 10
19.4202593438
 20
17.2467884639
 30
0.0
 10
19.4203465637
 20
17.2463241493
 30
0.0
 10
19.4203830166
 20
17.2459005316
 30
0.0
 10
19.4203677044
 20
17.2455176708
 30
0.0
 10
19.4203000769
 20
17.2451755795
 30
0.0
 10
19.4201797046
 20
17.2448747564
 30
0.0
 10
19.4200630247
 20
17.2447009675
 30
0.0
 10
19.4199976096
 20
17.2446234097
 30
0.0
 11
19.3483638379
 21
17.3201833863
 31
0.0
 11
19.3558557863
 21
17.313934224
 31
0.0
 11
19.3632699726
 21
17.3075822383
 31
0.0
 11
19.3705286346
 21
17.3011981637
 31
0.0
 11
19.3775540102
 21
17.2948527345
 31
0.0
 11
19.3842683372
 21
17.2886166853
 31
0.0
 11
19.3905938535
 21
17.2825607505
 31
0.0
 11
19.3964527969
 21
17.2767556647
 31
0.0
 11
19.4017682503
 21
17.2712716444
 31
0.0
 11
19.4042034513
 21
17.2686687168
 31
0.0
 11
19.4064845797
 21
17.2661658643
 31
0.0
 11
19.4086076093
 21
17.2637684397
 31
0.0
 11
19.4105685138
 21
17.2614817954
 31
0.0
 11
19.412363267
 21
17.2593112841
 31
0.0
 11
19.4139878425
 21
17.2572622583
 31
0.0
 11
19.4154382141
 21
17.2553400707
 31
0.0
 11
19.4167103555
 21
17.2535500738
 31
0.0
 11
19.4178002405
 21
17.2518976202
 31
0.0
 11
19.4187038428
 21
17.2503880625
 31
0.0
 11
19.4190845297
 21
17.2496885423
 31
0.0
 11
19.4194171362
 21
17.2490267533
 31
0.0
 11
19.4197011588
 21
17.2484033645
 31
0.0
 11
19.4199360943
 21
17.2478190451
 31
0.0
 11
19.4201214394
 21
17.2472744641
 31
0.0
 11
19.4202566909
 21
17.2467702906
 31
0.0
 11
19.4203413454
 21
17.2463071937
 31
0.0
 11
19.4203748997
 21
17.2458858424
 31
0.0
 11
19.4203569529
 21
17.2455068215
 31
0.0
 11
19.4202877537
 21
17.2451701816
 31
0.0
 11
19.4201678048
 21
17.244875764
 31
0.0
 11
19.4199976096
 21
17.2446234097
 31
0.0
  0
LINE
  5
3BF
100
AcDbEntity
  8
0
100
AcDbLine
 62
9
  6
CONTINUOUS
 10
11.741007584
 20
8.8059790717
 11
11.7363675785
 21
8.8084756254
  0
SPLINE
  5
3C0
100
AcDbEntity
  8
0
100
AcDbSpline
 62
9
  6
CONTINUOUS
 70
0
 71
3
 72
19
 73
15
 74
13
 42
0.0000001
 43
0.0000001
 44
0.0000000001
 12
-0.0127457773
 22
-0.0104768704
 32
0.0
 13
-0.014288435
 23
0.0082498653
 33
0.0
 40
0.0
 40
0.0
 40
0.0
 40
0.0
 40
0.162879813
 40
0.3148377273
 40
0.4548723645
 40
0.5827186772
 40
0.6423270357
 40
0.6992391746
 40
0.7536717491
 40
0.8059001392
 40
0.8562495739
 40
0.9050937077
 40
0.9528548512
 40
1.0
 40
1.0
 40
1.0
 40
1.0
 10
11.741007584
 20
8.8059788602
 30
0.0
 10
11.740315574
 20
8.8054100367
 30
0.0
 10
11.7389369324
 20
8.8043589384
 30
0.0
 10
11.7368237321
 20
8.8030137216
 30
0.0
 10
11.7347594649
 20
8.801969798
 30
0.0
 10
11.7330618244
 20
8.8013510669
 30
0.0
 10
11.7317553806
 20
8.8010309204
 30
0.0
 10
11.7308263815
 20
8.8008794093
 30
0.0
 10
11.7299280873
 20
8.8008118541
 30
0.0
 10
11.7290633558
 20
8.8008288108
 30
0.0
 10
11.7282351729
 20
8.8009296045
 30
0.0
 10
11.7274464924
 20
8.8011137918
 30
0.0
 10
11.7267005372
 20
8.8013807607
 30
0.0
 10
11.7262321271
 20
8.80161441
 30
0.0
 10
11.7260075837
 20
8.8017440571
 30
0.0
 11
11.741007584
 21
8.8059788602
 31
0.0
 11
11.7388666243
 21
8.8043545962
 31
0.0
 11
11.7367469004
 21
8.8030156969
 31
0.0
 11
11.7346799923
 21
8.8019832065
 31
0.0
 11
11.7326939289
 21
8.8012726467
 31
0.0
 11
11.7317382827
 21
8.8010403123
 31
0.0
 11
11.7308112353
 21
8.8008909792
 31
0.0
 11
11.7299155442
 21
8.8008254163
 31
0.0
 11
11.7290540209
 21
8.800843843
 31
0.0
 11
11.7282295606
 21
8.8009456265
 31
0.0
 11
11.7274450659
 21
8.8011300607
 31
0.0
 11
11.7267034394
 21
8.8013964396
 31
0.0
 11
11.7260075837
 21
8.8017440571
 31
0.0
  0
SPLINE
  5
3C1
100
AcDbEntity
  8
0
100
AcDbSpline
 62
9
  6
CONTINUOUS
 70
0
 71
3
 72
42
 73
38
 74
36
 42
0.0000001
 43
0.0000001
 44
0.0000000001
 12
-0.1275939547
 22
-0.1083350237
 32
0.0
 13
0.1440988038
 23
-0.0851600221
 33
0.0
 40
0.0
 40
0.0
 40
0.0
 40
0.0
 40
0.0203367613
 40
0.0305794187
 40
0.0409010904
 40
0.0618643516
 40
0.083405956
 40
0.0944451409
 40
0.1056837679
 40
0.1288152055
 40
0.1529212014
 40
0.178100054
 40
0.1911213486
 40
0.2044407562
 40
0.2319760599
 40
0.2606988001
 40
0.2905729197
 40
0.3215453399
 40
0.3535502179
 40
0.3865122732
 40
0.4203494147
 40
0.4549748515
 40
0.4902988327
 40
0.5262301232
 40
0.5626773019
 40
0.5995486005
 40
0.6367396243
 40
0.6741351039
 40
0.7116160345
 40
0.7490609939
 40
0.7863473031
 40
0.8233521497
 40
0.8599537327
 40
0.8960324851
 40
0.931472442
 40
0.9661628333
 40
1.0
 40
1.0
 40
1.0
 40
1.0
 10
17.4828678886
 20
17.3182054001
 30
0.0
 10
17.4820029393
 20
17.3174710056
 30
0.0
 10
17.4807686383
 20
17.3162851615
 30
0.0
 10
17.4792708739
 20
17.3145622106
 30
0.0
 10
17.4778554957
 20
17.3127261999
 30
0.0
 10
17.4762625004
 20
17.3102383623
 30
0.0
 10
17.4749357378
 20
17.3075550393
 30
0.0
 10
17.4740244116
 20
17.3052854302
 30
0.0
 10
17.4731996494
 20
17.302888864
 30
0.0
 10
17.4723672735
 20
17.2997286758
 30
0.0
 10
17.4716977906
 20
17.2957390896
 30
0.0
 10
17.4714160572
 20
17.2922699476
 30
0.0
 10
17.4713528919
 20
17.2893955843
 30
0.0
 10
17.471402809
 20
17.2863893704
 30
0.0
 10
17.4716815368
 20
17.2825139718
 30
0.0
 10
17.4723384003
 20
17.2777504398
 30
0.0
 10
17.4733128363
 20
17.2728461984
 30
0.0
 10
17.4745963611
 20
17.2678247747
 30
0.0
 10
17.4761805873
 20
17.2627095561
 30
0.0
 10
17.4780571358
 20
17.2575240859
 30
0.0
 10
17.4802176356
 20
17.2522919498
 30
0.0
 10
17.4826537182
 20
17.2470367884
 30
0.0
 10
17.4853569893
 20
17.2417822575
 30
0.0
 10
17.4883191318
 20
17.236552096
 30
0.0
 10
17.4915314724
 20
17.2313698919
 30
0.0
 10
17.4949860143
 20
17.2262608566
 30
0.0
 10
17.4986651519
 20
17.2212454761
 30
0.0
 10
17.5025481258
 20
17.2163428314
 30
0.0
 10
17.5066147094
 20
17.2115728042
 30
0.0
 10
17.5108444732
 20
17.2069551479
 30
0.0
 10
17.5152170381
 20
17.2025096556
 30
0.0
 10
17.5197120111
 20
17.1982561078
 30
0.0
 10
17.524309013
 20
17.1942142779
 30
0.0
 10
17.5289876615
 20
17.1904039364
 30
0.0
 10
17.5337276505
 20
17.1868448058
 30
0.0
 10
17.5385085081
 20
17.1835567133
 30
0.0
 10
17.5417532285
 20
17.1815311839
 30
0.0
 10
17.543378527
 20
17.1805706592
 30
0.0
 11
17.4828678886
 21
17.3182054001
 31
0.0
 11
17.4804118475
 21
17.315848471
 31
0.0
 11
17.4792867069
 21
17.3145548919
 31
0.0
 11
17.4782315663
 21
17.3131868676
 31
0.0
 11
17.4763355262
 21
17.3102343769
 31
0.0
 11
17.4747322082
 21
17.3070047858
 31
0.0
 11
17.4740429703
 21
17.305290386
 31
0.0
 11
17.4734300934
 21
17.3035118813
 31
0.0
 11
17.472437663
 21
17.2997694503
 31
0.0
 11
17.4717633981
 21
17.2957912797
 31
0.0
 11
17.4714157797
 21
17.2915911565
 31
0.0
 11
17.4713671134
 21
17.2894121711
 31
0.0
 11
17.47140301
 21
17.2871830326
 31
0.0
 11
17.4717255698
 21
17.2825854228
 31
0.0
 11
17.4723754179
 21
17.2778218787
 31
0.0
 11
17.473344073
 21
17.2729162114
 31
0.0
 11
17.4746230542
 21
17.2678922324
 31
0.0
 11
17.4762038804
 21
17.262773753
 31
0.0
 11
17.4780780703
 21
17.2575845846
 31
0.0
 11
17.4802371429
 21
17.2523485384
 31
0.0
 11
17.4826726171
 21
17.2470894257
 31
0.0
 11
17.4853760118
 21
17.2418310581
 31
0.0
 11
17.4883388458
 21
17.2365972466
 31
0.0
 11
17.4915526381
 21
17.2314118028
 31
0.0
 11
17.4950081264
 21
17.2262982824
 31
0.0
 11
17.4986888032
 21
17.2212778707
 31
0.0
 11
17.502574232
 21
17.216370468
 31
0.0
 11
17.5066439378
 21
17.2115959615
 31
0.0
 11
17.5108774453
 21
17.2069742386
 31
0.0
 11
17.5152542792
 21
17.2025251867
 31
0.0
 11
17.5197539644
 21
17.1982686932
 31
0.0
 11
17.5243560256
 21
17.1942246455
 31
0.0
 11
17.5290399877
 21
17.1904129308
 31
0.0
 11
17.5337853755
 21
17.1868534366
 31
0.0
 11
17.5385717136
 21
17.1835660503
 31
0.0
 11
17.543378527
 21
17.1805706592
 31
0.0
  0
SPLINE
  5
3C2
100
AcDbEntity
  8
0
100
AcDbSpline
 62
9
  6
CONTINUOUS
 70
0
 71
3
 72
31
 73
27
 74
25
 42
0.0000001
 43
0.0000001
 44
0.0000000001
 12
-0.0803467683
 22
-0.1148010024
 32
0.0
 13
0.1232515143
 23
-0.0666628649
 33
0.0
 40
0.0
 40
0.0
 40
0.0
 40
0.0
 40
0.0359252589
 40
0.0719702978
 40
0.1080866036
 40
0.1442221047
 40
0.2163190664
 40
0.2878221098
 40
0.3582742587
 40
0.4272356349
 40
0.4610381978
 40
0.4943243807
 40
0.5270561984
 40
0.559203485
 40
0.5907552394
 40
0.6217114921
 40
0.6818214722
 40
0.7395833178
 40
0.7950791615
 40
0.8484773294
 40
0.8744920247
 40
0.9001056271
 40
0.9253811701
 40
0.9503943512
 40
0.9752350117
 40
1.0
 40
1.0
 40
1.0
 40
1.0
 10
17.4949111452
 20
17.1043750505
 30
0.0
 10
17.4939489857
 20
17.1030002986
 30
0.0
 10
17.4920751378
 20
17.1002081739
 30
0.0
 10
17.4894280213
 20
17.0959078887
 30
0.0
 10
17.4869424778
 20
17.0915008607
 30
0.0
 10
17.4838527874
 20
17.0855067557
 30
0.0
 10
17.4804229378
 20
17.0778351895
 30
0.0
 10
17.4770191809
 20
17.0684249636
 30
0.0
 10
17.4743650317
 20
17.0589281739
 30
0.0
 10
17.47279661
 20
17.0509812693
 30
0.0
 10
17.4719591551
 20
17.0446803794
 30
0.0
 10
17.4715459792
 20
17.0400347041
 30
0.0
 10
17.4713477615
 20
17.0354521955
 30
0.0
 10
17.471370035
 20
17.0309463546
 30
0.0
 10
17.4716118996
 20
17.0265298234
 30
0.0
 10
17.4722142057
 20
17.0208323754
 30
0.0
 10
17.4734767826
 20
17.0139821696
 30
0.0
 10
17.4758122398
 20
17.0062106134
 30
0.0
 10
17.4789192247
 20
16.9990528836
 30
0.0
 10
17.4821549205
 20
16.9936215518
 30
0.0
 10
17.4850978069
 20
16.9896921802
 30
0.0
 10
17.4874571396
 20
16.9869790729
 30
0.0
 10
17.4899828889
 20
16.984486186
 30
0.0
 10
17.4926711006
 20
16.9822245123
 30
0.0
 10
17.4955163285
 20
16.9802050785
 30
0.0
 10
17.4975110386
 20
16.9790204597
 30
0.0
 10
17.4985284793
 20
16.978470158
 30
0.0
 11
17.4949111452
 21
17.1043750505
 31
0.0
 11
17.4921059752
 21
17.1001950668
 31
0.0
 11
17.4894574848
 21
17.0958943684
 31
0.0
 11
17.4869708445
 21
17.0914866361
 31
0.0
 11
17.4846505276
 21
17.0869860978
 31
0.0
 11
17.480526757
 21
17.0777635148
 31
0.0
 11
17.4771219592
 21
17.0683404433
 31
0.0
 11
17.4744719202
 21
17.0588307066
 31
0.0
 11
17.4726124263
 21
17.0493481285
 31
0.0
 11
17.4719903169
 21
17.0446525937
 31
0.0
 11
17.4715792636
 21
17.0400065325
 31
0.0
 11
17.4713837396
 21
17.0354241726
 31
0.0
 11
17.4714078808
 21
17.0309196151
 31
0.0
 11
17.4716509567
 21
17.0265051288
 31
0.0
 11
17.4721085829
 21
17.0221916067
 31
0.0
 11
17.4736495934
 21
17.013910894
 31
0.0
 11
17.475995126
 21
17.0061643546
 31
0.0
 11
17.4791093946
 21
16.9990388658
 31
0.0
 11
17.482956613
 21
16.9926213049
 31
0.0
 11
17.4851438953
 21
16.9897051466
 31
0.0
 11
17.4875009952
 21
16.9869985493
 31
0.0
 11
17.4900234394
 21
16.9845123727
 31
0.0
 11
17.492706754
 21
16.9822574753
 31
0.0
 11
17.4955451024
 21
16.9802426198
 31
0.0
 11
17.4985284793
 21
16.978470158
 31
0.0
  0
SPLINE
  5
3C3
100
AcDbEntity
  8
0
100
AcDbSpline
 62
9
  6
CONTINUOUS
 70
0
 71
3
 72
15
 73
11
 74
9
 42
0.0000001
 43
0.0000001
 44
0.0000000001
 12
0.0437127744
 22
-0.01670011
 32
0.0
 13
0.041023623
 23
0.0225113899
 33
0.0
 40
0.0
 40
0.0
 40
0.0
 40
0.0
 40
0.1375273707
 40
0.2705556058
 40
0.3994628122
 40
0.5246751318
 40
0.6466885163
 40
0.7660911104
 40
0.883584342
 40
1.0
 40
1.0
 40
1.0
 40
1.0
 10
19.3483638379
 20
16.9776714027
 30
0.0
 10
19.3503677389
 20
16.9769058286
 30
0.0
 10
19.3543798229
 20
16.9755744555
 30
0.0
 10
19.3604610431
 20
16.9741754858
 30
0.0
 10
19.366460798
 20
16.9734048493
 30
0.0
 10
19.3723367925
 20
16.9732592525
 30
0.0
 10
19.3780472803
 20
16.9737353314
 30
0.0
 10
19.3835504071
 20
16.9748302687
 30
0.0
 10
19.3888026325
 20
16.9765406838
 30
0.0
 10
19.392116679
 20
16.9780936522
 30
0.0
 10
19.3937086097
 20
16.9789672116
 30
0.0
 11
19.3483638379
 21
16.9776714027
 31
0.0
 11
19.354474115
 21
16.9756514971
 31
0.0
 11
19.3605422797
 21
16.9742631766
 31
0.0
 11
19.3665262195
 21
16.9735023459
 31
0.0
 11
19.3723838219
 21
16.97336491
 31
0.0
 11
19.3780729746
 21
16.9738467737
 31
0.0
 11
19.3835515651
 21
16.974943842
 31
0.0
 11
19.388777481
 21
16.9766520196
 31
0.0
 11
19.3937086097
 21
16.9789672116
 31
0.0
  0
SPLINE
  5
3C4
100
AcDbEntity
  8
0
100
AcDbSpline
 62
9
  6
CONTINUOUS
 70
0
 71
3
 72
35
 73
31
 74
29
 42
0.0000001
 43
0.0000001
 44
0.0000000001
 12
0.0556189061
 22
0.0657629268
 32
0.0
 13
0.0665132396
 23
-0.0547194134
 33
0.0
 40
0.0
 40
0.0
 40
0.0
 40
0.0
 40
0.0031053646
 40
0.0063171595
 40
0.0097290051
 40
0.0134175261
 40
0.0174419428
 40
0.0218464668
 40
0.0266635109
 40
0.0319166339
 40
0.0376228779
 40
0.0437945072
 40
0.0575639757
 40
0.0732703234
 40
0.0909304325
 40
0.1105463253
 40
0.1321106973
 40
0.1556101478
 40
0.1810271521
 40
0.2083413125
 40
0.2375301809
 40
0.3014197224
 40
0.3722241614
 40
0.4492278966
 40
0.5316968568
 40
0.618890589
 40
0.7100647967
 40
0.8044729405
 40
0.9013673387
 40
1.0
 40
1.0
 40
1.0
 40
1.0
 10
19.2767312927
 20
17.3655149822
 30
0.0
 10
19.276788865
 20
17.3655830548
 30
0.0
 10
19.2769196008
 20
17.3657105747
 30
0.0
 10
19.2771529339
 20
17.3658665526
 30
0.0
 10
19.2774237634
 20
17.3659890207
 30
0.0
 10
19.2777312802
 20
17.3660785115
 30
0.0
 10
19.2780751319
 20
17.3661356267
 30
0.0
 10
19.2784550957
 20
17.3661607632
 30
0.0
 10
19.2788709922
 20
17.3661541887
 30
0.0
 10
19.2793226163
 20
17.366116073
 30
0.0
 10
19.2798097387
 20
17.3660465611
 30
0.0
 10
19.2805329418
 20
17.3659068884
 30
0.0
 10
19.2815242005
 20
17.3656481594
 30
0.0
 10
19.2828103523
 20
17.3652253781
 30
0.0
 10
19.2842308736
 20
17.3646800133
 30
0.0
 10
19.2857831727
 20
17.364012748
 30
0.0
 10
19.2874646647
 20
17.3632241953
 30
0.0
 10
19.2892726652
 20
17.3623150813
 30
0.0
 10
19.2912044693
 20
17.3612861587
 30
0.0
 10
19.2932573588
 20
17.36013822
 30
0.0
 10
19.296243318
 20
17.3583969309
 30
0.0
 10
19.300248086
 20
17.3559258628
 30
0.0
 10
19.3053382204
 20
17.3526038612
 30
0.0
 10
19.3107996139
 20
17.3488774306
 30
0.0
 10
19.3165792417
 20
17.3447846316
 30
0.0
 10
19.3226241332
 20
17.3403640443
 30
0.0
 10
19.3288812811
 20
17.3356543442
 30
0.0
 10
19.3352977256
 20
17.3306943062
 30
0.0
 10
19.3418205082
 20
17.3255227729
 30
0.0
 10
19.3461770453
 20
17.3219824268
 30
0.0
 10
19.3483638379
 20
17.3201833863
 30
0.0
 11
19.2767312927
 21
17.3655149822
 31
0.0
 11
19.2769224172
 21
17.3657020851
 31
0.0
 11
19.2771516867
 21
17.3658568725
 31
0.0
 11
19.2774187585
 21
17.3659794528
 31
0.0
 11
19.27772329
 21
17.3660699341
 31
0.0
 11
19.2780649389
 21
17.3661284246
 31
0.0
 11
19.2784433623
 21
17.3661550326
 31
0.0
 11
19.2788582179
 21
17.3661498663
 31
0.0
 11
19.2793091631
 21
17.366113034
 31
0.0
 11
19.2797958553
 21
17.3660446439
 31
0.0
 11
19.2803179519
 21
17.3659448042
 31
0.0
 11
19.2814669882
 21
17.3656512089
 31
0.0
 11
19.2827535316
 21
17.365233114
 31
0.0
 11
19.2841748416
 21
17.3646913854
 31
0.0
 11
19.2857281778
 21
17.364026889
 31
0.0
 11
19.2874107997
 21
17.3632404905
 31
0.0
 11
19.2892199668
 21
17.3623330559
 31
0.0
 11
19.2911529387
 21
17.361305451
 31
0.0
 11
19.293206975
 21
17.3601585416
 31
0.0
 11
19.2953793351
 21
17.3588931937
 31
0.0
 11
19.300067216
 21
17.3560115223
 31
0.0
 11
19.3051780463
 21
17.3526845162
 31
0.0
 11
19.3106593755
 21
17.3489506235
 31
0.0
 11
19.3164582753
 21
17.344848786
 31
0.0
 11
19.3225218173
 21
17.3404179454
 31
0.0
 11
19.3287970729
 21
17.3356970434
 31
0.0
 11
19.3352311139
 21
17.3307250218
 31
0.0
 11
19.3417710117
 21
17.3255408222
 31
0.0
 11
19.3483638379
 21
17.3201833863
 31
0.0
  0
SPLINE
  5
3C5
100
AcDbEntity
  8
0
100
AcDbSpline
 62
9
  6
CONTINUOUS
 70
0
 71
3
 72
19
 73
15
 74
13
 42
0.0000001
 43
0.0000001
 44
0.0000000001
 12
0.0127459471
 22
-0.0104771375
 32
0.0
 13
0.0142893613
 23
0.0082488625
 33
0.0
 40
0.0
 40
0.0
 40
0.0
 40
0.0
 40
0.1628782552
 40
0.3148354381
 40
0.454870182
 40
0.5827172821
 40
0.6423261722
 40
0.6992388681
 40
0.7536719665
 40
0.8059007802
 40
0.8562504651
 40
0.9050946093
 40
0.9528554683
 40
1.0
 40
1.0
 40
1.0
 40
1.0
 10
11.741007584
 20
8.8059790717
 30
0.0
 10
11.7416995965
 20
8.8054102391
 30
0.0
 10
11.7430782443
 20
8.804359118
 30
0.0
 10
11.7451914534
 20
8.8030138534
 30
0.0
 10
11.7472557357
 20
8.8019698657
 30
0.0
 10
11.7489533938
 20
8.8013510668
 30
0.0
 10
11.7502598581
 20
8.8010308579
 30
0.0
 10
11.7511888754
 20
8.8008792982
 30
0.0
 10
11.7520871903
 20
8.8008116918
 30
0.0
 10
11.7529519451
 20
8.8008285952
 30
0.0
 10
11.7537801535
 20
8.8009293342
 30
0.0
 10
11.7545688619
 20
8.8011134661
 30
0.0
 10
11.7553148469
 20
8.8013803793
 30
0.0
 10
11.75578328
 20
8.8016139928
 30
0.0
 10
11.7560078351
 20
8.8017436224
 30
0.0
 11
11.741007584
 21
8.8059790717
 31
0.0
 11
11.7431485482
 21
8.8043547752
 31
0.0
 11
11.7452682809
 21
8.8030158269
 31
0.0
 11
11.7473352051
 21
8.8019832705
 31
0.0
 11
11.7493212938
 21
8.8012726288
 31
0.0
 11
11.7502769564
 21
8.8010402484
 31
0.0
 11
11.7512040225
 21
8.8008908666
 31
0.0
 11
11.7520997349
 21
8.8008252526
 31
0.0
 11
11.7529612821
 21
8.8008436264
 31
0.0
 11
11.7537857685
 21
8.8009453557
 31
0.0
 11
11.7545702914
 21
8.8011297351
 31
0.0
 11
11.7553119478
 21
8.8013960591
 31
0.0
 11
11.7560078351
 21
8.8017436224
 31
0.0
  0
SPLINE
  5
3C6
100
AcDbEntity
  8
0
100
AcDbSpline
 62
9
  6
CONTINUOUS
 70
0
 71
3
 72
11
 73
7
 74
5
 42
0.0000001
 43
0.0000001
 44
0.0000000001
 12
-0.0175229443
 22
0.0095146071
 32
0.0
 13
-0.0198875166
 23
0.0014380573
 33
0.0
 40
0.0
 40
0.0
 40
0.0
 40
0.0
 40
0.2459094204
 40
0.4936304999
 40
0.7445847397
 40
1.0
 40
1.0
 40
1.0
 40
1.0
 10
17.5882907067
 20
17.1430290321
 30
0.0
 10
17.5868543543
 20
17.1438089426
 30
0.0
 10
17.5838796477
 20
17.1452120417
 30
0.0
 10
17.5791894891
 20
17.146820158
 30
0.0
 10
17.5742935965
 20
17.1479337904
 30
0.0
 10
17.5709460046
 20
17.1483406267
 30
0.0
 10
17.5692528128
 20
17.1484630606
 30
0.0
 11
17.5882907067
 21
17.1430290321
 31
0.0
 11
17.5838571406
 21
17.1451232642
 31
0.0
 11
17.5791860531
 21
17.1467291318
 31
0.0
 11
17.5743078188
 21
17.1478434566
 31
0.0
 11
17.5692528128
 21
17.1484630606
 31
0.0
  0
SPLINE
  5
3C7
100
AcDbEntity
  8
0
100
AcDbSpline
 62
9
  6
CONTINUOUS
 70
0
 71
3
 72
25
 73
21
 74
19
 42
0.0000001
 43
0.0000001
 44
0.0000000001
 12
0.0226469521
 22
-0.117088474
 32
0.0
 13
0.1114051981
 23
-0.0425614499
 33
0.0
 40
0.0
 40
0.0
 40
0.0
 40
0.0
 40
0.0629988321
 40
0.1270018616
 40
0.1917684942
 40
0.2570508283
 40
0.322600846
 40
0.3881773175
 40
0.4209073103
 40
0.4535604389
 40
0.4861124937
 40
0.5185391977
 40
0.5829086039
 40
0.6464695655
 40
0.7090133687
 40
0.770336164
 40
0.8302469897
 40
0.8885770615
 40
0.9451909076
 40
1.0
 40
1.0
 40
1.0
 40
1.0
 10
19.2783554123
 20
17.0685106488
 30
0.0
 10
19.2788309895
 20
17.0660518364
 30
0.0
 10
19.2799456122
 20
17.0611239382
 30
0.0
 10
19.2820670633
 20
17.0537974695
 30
0.0
 10
19.2846371744
 20
17.0465195799
 30
0.0
 10
19.2876396059
 20
17.0393425037
 30
0.0
 10
19.2910580291
 20
17.03231822
 30
0.0
 10
19.294242231
 20
17.0266311703
 30
0.0
 10
19.2969848229
 20
17.0222053854
 30
0.0
 10
19.299134907
 20
17.0189590149
 30
0.0
 10
19.3013746864
 20
17.0157886294
 30
0.0
 10
19.3044659486
 20
17.0116788611
 30
0.0
 10
19.3085230353
 20
17.0067566324
 30
0.0
 10
19.313681025
 20
17.001207258
 30
0.0
 10
19.3190774485
 20
16.9960630811
 30
0.0
 10
19.3246728025
 20
16.9913581021
 30
0.0
 10
19.3304277967
 20
16.9871261922
 30
0.0
 10
19.3363035415
 20
16.9834012082
 30
0.0
 10
19.3422605333
 20
16.9802174203
 30
0.0
 10
19.3463284986
 20
16.9784489875
 30
0.0
 10
19.3483638379
 20
16.9776714027
 30
0.0
 11
19.2783554123
 21
17.0685106488
 31
0.0
 11
19.2800082415
 21
17.06118156
 31
0.0
 11
19.2821280254
 21
17.0538489083
 31
0.0
 11
19.2846982565
 21
17.0465651133
 31
0.0
 11
19.2877024275
 21
17.0393825947
 31
0.0
 11
19.2911240308
 21
17.0323537722
 31
0.0
 11
19.2949465591
 21
17.0255310654
 31
0.0
 11
19.2970030115
 21
17.0222133865
 31
0.0
 11
19.2991532638
 21
17.018966707
 31
0.0
 11
19.3013931798
 21
17.015795973
 31
0.0
 11
19.3037177823
 21
17.0127054786
 31
0.0
 11
19.3086011207
 21
17.0067823715
 31
0.0
 11
19.3137634265
 21
17.0012317117
 31
0.0
 11
19.3191648473
 21
16.9960878252
 31
0.0
 11
19.3247655305
 21
16.9913850381
 31
0.0
 11
19.3305256236
 21
16.9871576763
 31
0.0
 11
19.3364052742
 21
16.9834400658
 31
0.0
 11
19.3423646298
 21
16.9802665326
 31
0.0
 11
19.3483638379
 21
16.9776714027
 31
0.0
  0
SPLINE
  5
3C8
100
AcDbEntity
  8
0
100
AcDbSpline
 62
6
  6
CONTINUOUS
 70
0
 71
3
 72
19
 73
15
 74
13
 42
0.0000001
 43
0.0000001
 44
0.0000000001
 12
0.1840877956
 22
0.1062490051
 32
0.0
 13
0.1854082454
 23
0.1039276194
 33
0.0
 40
0.0
 40
0.0
 40
0.0
 40
0.0
 40
0.061877796
 40
0.1240250926
 40
0.186395091
 40
0.248942712
 40
0.3744023689
 40
0.5000939126
 40
0.5629387558
 40
0.6257393454
 40
0.6884642149
 40
0.7510831087
 40
0.8759017283
 40
1.0
 40
1.0
 40
1.0
 40
1.0
 10
19.8140230243
 20
17.295132826
 30
0.0
 10
19.8178200066
 20
17.2973243107
 30
0.0
 10
19.8254075439
 20
17.3017566819
 30
0.0
 10
19.8367558044
 20
17.3085108789
 30
0.0
 10
19.8481022312
 20
17.3153603771
 30
0.0
 10
19.86324598
 20
17.3245986928
 30
0.0
 10
19.8821630699
 20
17.3362656912
 30
0.0
 10
19.9010797749
 20
17.3479732203
 30
0.0
 10
19.9162420777
 20
17.3573113157
 30
0.0
 10
19.9276240708
 20
17.3642802546
 30
0.0
 10
19.9390173933
 20
17.3711999085
 30
0.0
 10
19.9542082461
 20
17.3803310612
 30
0.0
 10
19.9732172269
 20
17.3915500036
 30
0.0
 10
19.9885277222
 20
17.4003042085
 30
0.0
 10
19.9961973364
 20
17.4046032879
 30
0.0
 11
19.8140230243
 21
17.295132826
 31
0.0
 11
19.8253819615
 21
17.3017624315
 31
0.0
 11
19.8367351796
 21
17.3085145868
 31
0.0
 11
19.848086123
 21
17.3153626538
 31
0.0
 11
19.8594370729
 21
17.3222835116
 31
0.0
 11
19.8821454321
 21
17.3362629503
 31
0.0
 11
19.9048728103
 21
17.3503054438
 31
0.0
 11
19.9162477936
 21
17.3573080018
 31
0.0
 11
19.927632818
 21
17.3642762215
 31
0.0
 11
19.9390290743
 21
17.3711950948
 31
0.0
 11
19.9504373621
 21
17.3780504818
 31
0.0
 11
19.9732919406
 21
17.39152321
 31
0.0
 11
19.9961973364
 21
17.4046032879
 31
0.0
  0
SPLINE
  5
3C9
100
AcDbEntity
  8
0
100
AcDbSpline
 62
9
  6
CONTINUOUS
 70
0
 71
3
 72
31
 73
27
 74
25
 42
0.0000001
 43
0.0000001
 44
0.0000000001
 12
-0.0519459617
 22
-0.0554045986
 32
0.0
 13
-0.0609992287
 23
0.0452454041
 33
0.0
 40
0.0
 40
0.0
 40
0.0
 40
0.0
 40
0.0170094589
 40
0.03419693
 40
0.0517288656
 40
0.0697606369
 40
0.1078384024
 40
0.12815788
 40
0.1494523666
 40
0.1718048641
 40
0.1952865444
 40
0.2199583157
 40
0.245872313
 40
0.2730664674
 40
0.3015449291
 40
0.331296766
 40
0.3623036331
 40
0.3945412434
 40
0.4279805265
 40
0.4983234827
 40
0.5730414921
 40
0.6518024722
 40
0.7342519238
 40
0.8200207805
 40
0.9087310386
 40
1.0
 40
1.0
 40
1.0
 40
1.0
 10
6.0070289712
 20
17.0732705325
 30
0.0
 10
6.006734447
 20
17.0729563984
 30
0.0
 10
6.006107158
 20
17.0723568088
 30
0.0
 10
6.0050664956
 20
17.0715579893
 30
0.0
 10
6.003925882
 20
17.0708587624
 30
0.0
 10
6.0022450672
 20
17.0700464015
 30
0.0
 10
6.0003893461
 20
17.0694583291
 30
0.0
 10
5.9984065489
 20
17.0690799633
 30
0.0
 10
5.9967962883
 20
17.0688944433
 30
0.0
 10
5.9950976031
 20
17.0688147014
 30
0.0
 10
5.9933118237
 20
17.0688416843
 30
0.0
 10
5.9914406726
 20
17.0689765152
 30
0.0
 10
5.9894859255
 20
17.0692203151
 30
0.0
 10
5.9874502605
 20
17.0695739206
 30
0.0
 10
5.9853368358
 20
17.0700352638
 30
0.0
 10
5.9831495265
 20
17.0706023755
 30
0.0
 10
5.9808923854
 20
17.0712732314
 30
0.0
 10
5.9785694573
 20
17.0720458043
 30
0.0
 10
5.9753351958
 20
17.0732289686
 30
0.0
 10
5.971157598
 20
17.0749575353
 30
0.0
 10
5.9660288468
 20
17.0773705357
 30
0.0
 10
5.9607353759
 20
17.0801404441
 30
0.0
 10
5.9553100046
 20
17.0832512037
 30
0.0
 10
5.9497854667
 20
17.0866868343
 30
0.0
 10
5.94419468
 20
17.090431176
 30
0.0
 10
5.9404924197
 20
17.0930885871
 30
0.0
 10
5.9386366409
 20
17.0944650875
 30
0.0
 11
6.0070289712
 21
17.0732705325
 31
0.0
 11
6.0060954128
 21
17.0723776208
 31
0.0
 11
6.0050606211
 21
17.0715819188
 31
0.0
 11
6.0039263031
 21
17.0708846084
 31
0.0
 11
6.0026941655
 21
17.0702868717
 31
0.0
 11
5.9999432592
 21
17.0693948474
 31
0.0
 11
5.9984279042
 21
17.0691029238
 31
0.0
 11
5.996821557
 21
17.0689153019
 31
0.0
 11
5.9951259246
 21
17.0688331637
 31
0.0
 11
5.9933427138
 21
17.0688576912
 31
0.0
 11
5.9914736314
 21
17.0689900664
 31
0.0
 11
5.9895203842
 21
17.0692314714
 31
0.0
 11
5.9874851039
 21
17.0695825208
 31
0.0
 11
5.9853715302
 21
17.070041681
 31
0.0
 11
5.9831837838
 21
17.0706069095
 31
0.0
 11
5.9809259855
 21
17.0712761637
 31
0.0
 11
5.9786022559
 21
17.0720474013
 31
0.0
 11
5.9762167158
 21
17.0729185798
 31
0.0
 11
5.9712766868
 21
17.0749525895
 31
0.0
 11
5.966138864
 21
17.077361853
 31
0.0
 11
5.9608362131
 21
17.0801300307
 31
0.0
 11
5.9554016998
 21
17.0832407827
 31
0.0
 11
5.9498682895
 21
17.0866777693
 31
0.0
 11
5.9442689481
 21
17.0904246508
 31
0.0
 11
5.9386366409
 21
17.0944650875
 31
0.0
  0
SPLINE
  5
3CA
100
AcDbEntity
  8
0
100
AcDbSpline
 62
6
  6
CONTINUOUS
 70
0
 71
3
 72
36
 73
32
 74
30
 42
0.0000001
 43
0.0000001
 44
0.0000000001
 12
-0.04781551
 22
0.1317592522
 32
0.0
 13
0.1272857485
 23
0.0586955004
 33
0.0
 40
0.0
 40
0.0
 40
0.0
 40
0.0
 40
0.0395464148
 40
0.0793992543
 40
0.1193882922
 40
0.1593280665
 40
0.2385015786
 40
0.2775951367
 40
0.3162457912
 40
0.391916112
 40
0.4288168378
 40
0.4650019742
 40
0.5004179738
 40
0.5350203866
 40
0.5687643474
 40
0.6016084009
 40
0.6645161164
 40
0.6945616204
 40
0.7236433266
 40
0.7517532826
 40
0.7788881079
 40
0.8050468409
 40
0.8302319427
 40
0.8544529098
 40
0.877727717
 40
0.9000835805
 40
0.9215587504
 40
0.9422054611
 40
0.962094886
 40
0.9813204025
 40
1.0
 40
1.0
 40
1.0
 40
1.0
 10
3.4507263558
 20
17.38322909
 30
0.0
 10
3.4500960452
 20
17.3849659586
 30
0.0
 10
3.4489214839
 20
17.3884867722
 30
0.0
 10
3.4474104449
 20
17.3938582033
 30
0.0
 10
3.446134915
 20
17.3993092729
 30
0.0
 10
3.4447440645
 20
17.4066133013
 30
0.0
 10
3.443792529
 20
17.4139521151
 30
0.0
 10
3.4432457672
 20
17.4212643894
 30
0.0
 10
3.4429589153
 20
17.428427692
 30
0.0
 10
3.443029882
 20
17.4354989971
 30
0.0
 10
3.4434461933
 20
17.4424377118
 30
0.0
 10
3.4439166253
 20
17.4474862889
 30
0.0
 10
3.4445411855
 20
17.4524098357
 30
0.0
 10
3.4453135766
 20
17.4571968671
 30
0.0
 10
3.4462273608
 20
17.4618366469
 30
0.0
 10
3.4476069949
 20
17.4677285354
 30
0.0
 10
3.4492490249
 20
17.4733783959
 30
0.0
 10
3.4511395128
 20
17.4787586633
 30
0.0
 10
3.4526307879
 20
17.4825530521
 30
0.0
 10
3.4542114258
 20
17.4861631083
 30
0.0
 10
3.4558762541
 20
17.4895839573
 30
0.0
 10
3.457620101
 20
17.4928107678
 30
0.0
 10
3.4594376771
 20
17.495839036
 30
0.0
 10
3.461325893
 20
17.4986632481
 30
0.0
 10
3.463282161
 20
17.5012776735
 30
0.0
 10
3.4653039176
 20
17.5036765966
 30
0.0
 10
3.4673884647
 20
17.5058545325
 30
0.0
 10
3.469534411
 20
17.5078049804
 30
0.0
 10
3.4717417053
 20
17.5095201007
 30
0.0
 10
3.474009624
 20
17.5109918922
 30
0.0
 10
3.475581169
 20
17.5118155469
 30
0.0
 10
3.4763737178
 20
17.5121810163
 30
0.0
 11
3.4507263558
 21
17.38322909
 31
0.0
 11
3.4489681011
 21
17.3884859502
 31
0.0
 11
3.447452107
 21
17.3938623622
 31
0.0
 11
3.446172542
 21
17.3993195047
 31
0.0
 11
3.4451235656
 21
17.4048185935
 31
0.0
 11
3.4436855704
 21
17.4158225565
 31
0.0
 11
3.443275964
 21
17.4212868576
 31
0.0
 11
3.4430586995
 21
17.4267000505
 31
0.0
 11
3.4431665588
 21
17.4373059936
 31
0.0
 11
3.4434768335
 21
17.4424689475
 31
0.0
 11
3.4439482148
 21
17.4475189619
 31
0.0
 11
3.4445739703
 21
17.4524435231
 31
0.0
 11
3.4453477599
 21
17.4572315208
 31
0.0
 11
3.44626325
 21
17.4618718688
 31
0.0
 11
3.4473137277
 21
17.4663540726
 31
0.0
 11
3.4497817863
 21
17.4748192156
 31
0.0
 11
3.4511789193
 21
17.478792104
 31
0.0
 11
3.4526717961
 21
17.4825851942
 31
0.0
 11
3.4542541234
 21
17.486193596
 31
0.0
 11
3.4559206584
 21
17.4896124544
 31
0.0
 11
3.4576661589
 21
17.4928369145
 31
0.0
 11
3.4594855984
 21
17.4958620444
 31
0.0
 11
3.4613755046
 21
17.4986823576
 31
0.0
 11
3.4633330869
 21
17.5012921245
 31
0.0
 11
3.4653555576
 21
17.5036856142
 31
0.0
 11
3.4674401681
 21
17.5058570604
 31
0.0
 11
3.4695851121
 21
17.5077998403
 31
0.0
 11
3.4717895494
 21
17.5095064533
 31
0.0
 11
3.4740526835
 21
17.5109693587
 31
0.0
 11
3.4763737178
 21
17.5121810163
 31
0.0
  0
SPLINE
  5
3CB
100
AcDbEntity
  8
0
100
AcDbSpline
 62
6
  6
CONTINUOUS
 70
0
 71
3
 72
15
 73
11
 74
9
 42
0.0000001
 43
0.0000001
 44
0.0000000001
 12
-0.0497333243
 22
0.0327754923
 32
0.0
 13
-0.0203185248
 23
0.055989231
 33
0.0
 40
0.0
 40
0.0
 40
0.0
 40
0.0
 40
0.1070806519
 40
0.2198796613
 40
0.3381714997
 40
0.4617034628
 40
0.5901963485
 40
0.723204682
 40
0.8601784223
 40
1.0
 40
1.0
 40
1.0
 40
1.0
 10
3.4858178315
 20
17.3362648563
 30
0.0
 10
3.4840426725
 20
17.33743473
 30
0.0
 10
3.4805163299
 20
17.3400208836
 30
0.0
 10
3.4754681448
 20
17.3444587375
 30
0.0
 10
3.4705714138
 20
17.3495282099
 30
0.0
 10
3.4658849413
 20
17.3552024447
 30
0.0
 10
3.4614687215
 20
17.3614508921
 30
0.0
 10
3.457395679
 20
17.3682421451
 30
0.0
 10
3.4537519696
 20
17.3755252879
 30
0.0
 10
3.4516733452
 20
17.3806195891
 30
0.0
 10
3.4507263558
 20
17.38322909
 30
0.0
 11
3.4858178315
 21
17.3362648563
 31
0.0
 11
3.4806659082
 21
17.3400246208
 31
0.0
 11
3.4756117854
 21
17.3444512005
 31
0.0
 11
3.4707104866
 21
17.349512742
 31
0.0
 11
3.4660195114
 21
17.3551812692
 31
0.0
 11
3.461599316
 21
17.3614290565
 31
0.0
 11
3.4575233777
 21
17.3682223424
 31
0.0
 11
3.4538709486
 21
17.3755175344
 31
0.0
 11
3.4507263558
 21
17.38322909
 31
0.0
  0
ENDSEC
  0
SECTION
  2
OBJECTS
  0
DICTIONARY
  5
C
100
AcDbDictionary
280
0
281
1
  3
ACAD_GROUP
350
D
  3
ACAD_MLINESTYLE
350
17
  3
ACAD_LAYOUT
350
1A
  3
ACAD_PLOTSETTINGS
350
19
  3
ACAD_PLOTSTYLENAME
350
E
  0
DICTIONARY
  5
D
102
{ACAD_REACTORS
330
C
102
}
100
AcDbDictionary
280
0
281
1
  0
ACDBDICTIONARYWDFLT
  5
E
102
{ACAD_REACTORS
330
C
102
}
100
AcDbDictionary
281
1
  3
Normal
350
F
100
AcDbDictionaryWithDefault
340
F
  0
DICTIONARY
  5
17
102
{ACAD_REACTORS
330
C
102
}
100
AcDbDictionary
280
0
281
1
  3
Standard
350
18
  0
DICTIONARY
  5
19
102
{ACAD_REACTORS
330
C
102
}
100
AcDbDictionary
281
1
  0
DICTIONARY
  5
1A
102
{ACAD_REACTORS
330
C
102
}
100
AcDbDictionary
281
1
  3
Model
350
3CC
  3
Layout1
350
3CD
  0
ACDBPLACEHOLDER
  5
F
102
{ACAD_REACTORS
330
E
102
}
  0
MLINESTYLE
  5
18
102
{ACAD_REACTORS
330
17
102
}
100
AcDbMlineStyle
  2
STANDARD
 70
0
  3

 62
256
 51
90.0
 52
90.0
 71
2
 49
0.5
 62
256
  6
BYLAYER
 49
-0.5
 62
256
  6
BYLAYER
  0
LAYOUT
  5
3CC
102
{ACAD_REACTORS
330
1A
102
}
100
AcDbPlotSettings
  1

  2
none_device
  4

  6

 40
0.0
 41
0.0
 42
0.0
 43
0.0
 44
594.0
 45
841.0
 46
0.0
 47
0.0
 48
0.0
 49
0.0
140
0.0
141
0.0
142
1.0
143
1.0
 70
1024
 72
0
 73
0
 74
0
  7

 75
0
147
1.0
148
0.0
149
0.0
100
AcDbLayout
  1
Model
 70
0
 71
0
 10
0.0
 20
0.0
 11
23.3858267717
 21
33.1102362205
 12
0.0
 22
0.0
 32
0.0
 14
0.0
 24
0.0
 34
0.0
 15
0.0
 25
0.0
 35
0.0
146
0.0
 13
0.0
 23
0.0
 33
0.0
 16
1.0
 26
0.0
 36
0.0
 17
0.0
 27
1.0
 37
0.0
 76
0
330
203
345
0
346
0
  0
LAYOUT
  5
3CD
102
{ACAD_REACTORS
330
1A
102
}
100
AcDbPlotSettings
  1

  2
none_device
  4

  6

 40
0.0
 41
0.0
 42
0.0
 43
0.0
 44
594.0
 45
841.0
 46
0.0
 47
0.0
 48
0.0
 49
0.0
140
0.0
141
0.0
142
1.0
143
1.0
 70
0
 72
0
 73
0
 74
0
  7

 75
0
147
1.0
148
0.0
149
0.0
100
AcDbLayout
  1
Layout1
 70
0
 71
1
 10
0.0
 20
0.0
 11
23.3858267717
 21
33.1102362205
 12
0.0
 22
0.0
 32
0.0
 14
0.0
 24
0.0
 34
0.0
 15
0.0
 25
0.0
 35
0.0
146
0.0
 13
0.0
 23
0.0
 33
0.0
 16
1.0
 26
0.0
 36
0.0
 17
0.0
 27
1.0
 37
0.0
 76
0
330
204
345
0
346
0
  0
ENDSEC
  0
EOF
