999
DXF file: 2142_right.dxf
999
Pro/ENGINEER 2018400 by Parametric Technology Corporation
  0
SECTION
  2
HEADER
  9
$ACADVER
  1
AC1027
  9
$DWGCODEPAGE
  3
ANSI_1252
  9
$EXTMAX
 10
11.0
 20
8.5
 30
0.0
  9
$EXTMIN
 10
0.0
 20
0.0
 30
0.0
  9
$LIMMIN
 10
0.0
 20
0.0
  9
$LIMMAX
 10
11.0
 20
8.5
  9
$VIEWCTR
 10
5.5
 20
4.25
  9
$VIEWSIZE
 40
8.5
  9
$CLAYER
  8
0
  9
$LTSCALE
 40
0.605
  9
$CELTYPE
  6
BYLAYER
  9
$DIMSCALE
 40
1.0
  9
$DIMASZ
 40
0.1
  9
$DIMEXO
 40
0.0625
  9
$DIMDLI
 40
0.418
  9
$DIMEXE
 40
0.125
  9
$DIMCEN
 40
0.099
  9
$DIMLFAC
 40
1.0
  9
$DIMBLK
  1
_FILLED
  9
$DIMALT
 70
1
  9
$DIMALTD
 70
1
  9
$DIMALTTD
 70
2
  9
$DIMALTF
 40
25.4
  9
$DIMTXT
 40
0.08
  9
$DIMTOL
 70
1
  9
$DIMLIM
 70
0
  9
$DIMTFAC
 40
1.0
  9
$DIMTP
 40
0.01
  9
$DIMTM
 40
0.01
  9
$DIMGAP
 40
0.09
  9
$DIMDSEP
 70
46
  9
$AUNITS
 70
0
  9
$PDMODE
 70
3
  9
$PDSIZE
 40
0.3125
  9
$HANDSEED
  5
55B
  9
$TILEMODE
 70
1
  9
$MEASUREMENT
 70
0
  9
$INSUNITS
 70
1
  0
ENDSEC
  0
SECTION
  2
CLASSES
  0
CLASS
  1
ACDBDICTIONARYWDFLT
  2
AcDbDictionaryWithDefault
  3
AutoCAD 2000
 90
0
 91
1
280
0
281
0
  0
CLASS
  1
ACDBPLACEHOLDER
  2
AcDbPlaceHolder
  3
AutoCAD 2000
 90
0
 91
1
280
0
281
0
  0
CLASS
  1
LAYOUT
  2
AcDbLayout
  3
AutoCAD 2000
 90
0
 91
0
280
0
281
0
  0
ENDSEC
  0
SECTION
  2
TABLES
  0
TABLE
  2
VPORT
  5
8
100
AcDbSymbolTable
 70
2
  0
VPORT
  5
1F4
100
AcDbSymbolTableRecord
100
AcDbViewportTableRecord
  2
*ACTIVE
 70
0
 10
0.0
 20
0.0
 11
1.0
 21
1.0
 12
5.5
 22
4.25
 13
0.0
 23
0.0
 14
1.0
 24
1.0
 15
0.0
 25
0.0
 16
0.0
 26
0.0
 36
1.0
 17
0.0
 27
0.0
 37
0.0
 40
8.5
 41
1.2941176471
 42
50.0
 43
0.0
 44
0.0
 50
0.0
 51
0.0
 71
0
 72
100
 73
1
 74
1
 75
0
 76
0
 77
0
 78
0
  0
ENDTAB
  0
TABLE
  2
LTYPE
  5
5
100
AcDbSymbolTable
 70
6
  0
LTYPE
  5
14
100
AcDbSymbolTableRecord
100
AcDbLinetypeTableRecord
  2
BYBLOCK
 70
0
  3

 72
65
 73
0
 40
0.0
  0
LTYPE
  5
15
100
AcDbSymbolTableRecord
100
AcDbLinetypeTableRecord
  2
BYLAYER
 70
0
  3

 72
65
 73
0
 40
0.0
  0
LTYPE
  5
16
100
AcDbSymbolTableRecord
100
AcDbLinetypeTableRecord
  2
CONTINUOUS
 70
64
  3
Solid line
 72
65
 73
0
 40
0.0
  0
LTYPE
  5
1F5
100
AcDbSymbolTableRecord
100
AcDbLinetypeTableRecord
  2
CENTER
 70
64
  3
____ _ ____ _ ____ _ ____ _ ____ _ ____ _ ____
 72
65
 73
4
 40
0.6
 49
0.375
 74
0
 49
-0.075
 74
0
 49
0.075
 74
0
 49
-0.075
 74
0
  0
LTYPE
  5
1F6
100
AcDbSymbolTableRecord
100
AcDbLinetypeTableRecord
  2
HIDDEN
 70
64
  3
- - - - - - - - - - - - - - - - - - - -
 72
65
 73
2
 40
0.2
 49
0.1
 74
0
 49
-0.1
 74
0
  0
LTYPE
  5
1F7
100
AcDbSymbolTableRecord
100
AcDbLinetypeTableRecord
  2
PHANTOM
 70
64
  3
_____ _ _ _____ _ _ _____ _ _ _____
 72
65
 73
6
 40
0.8
 49
0.45
 74
0
 49
-0.05
 74
0
 49
0.1
 74
0
 49
-0.05
 74
0
 49
0.1
 74
0
 49
-0.05
 74
0
  0
LTYPE
  5
1F8
100
AcDbSymbolTableRecord
100
AcDbLinetypeTableRecord
  2
DOT
 70
64
  3
. . . . . . . . . . . . . . . . . . . .
 72
65
 73
2
 40
0.2
 49
0.1
 74
0
 49
-0.1
 74
0
  0
LTYPE
  5
1F9
100
AcDbSymbolTableRecord
100
AcDbLinetypeTableRecord
  2
DASHED
 70
64
  3
- - - - - - - - - - - - - - - - - - - -
 72
65
 73
2
 40
0.2
 49
0.1
 74
0
 49
-0.1
 74
0
  0
ENDTAB
  0
TABLE
  2
LAYER
  5
2
100
AcDbSymbolTable
 70
36
  0
LAYER
  5
10
100
AcDbSymbolTableRecord
100
AcDbLayerTableRecord
  2
0
 70
0
 62
7
  6
CONTINUOUS
370
-3
390
F
  0
LAYER
  5
1FA
100
AcDbSymbolTableRecord
100
AcDbLayerTableRecord
  2
DEFAULT_1
 70
0
 62
7
  6
CENTER
370
-3
390
F
  0
LAYER
  5
1FB
100
AcDbSymbolTableRecord
100
AcDbLayerTableRecord
  2
DEFAULT_2
 70
0
 62
8
  6
HIDDEN
370
-3
390
F
  0
LAYER
  5
1FC
100
AcDbSymbolTableRecord
100
AcDbLayerTableRecord
  2
DEFAULT_3
 70
0
 62
7
  6
PHANTOM
370
-3
390
F
  0
LAYER
  5
1FD
100
AcDbSymbolTableRecord
100
AcDbLayerTableRecord
  2
01___PRT_ALL_DTM_PLN
 70
0
 62
7
  6
CONTINUOUS
370
-3
390
F
  0
LAYER
  5
1FE
100
AcDbSymbolTableRecord
100
AcDbLayerTableRecord
  2
01___PRT_DEF_DTM_PLN
 70
0
 62
7
  6
CONTINUOUS
370
-3
390
F
  0
LAYER
  5
1FF
100
AcDbSymbolTableRecord
100
AcDbLayerTableRecord
  2
02___PRT_ALL_AXES
 70
0
 62
7
  6
CONTINUOUS
370
-3
390
F
  0
LAYER
  5
200
100
AcDbSymbolTableRecord
100
AcDbLayerTableRecord
  2
03___PRT_ALL_CURVES
 70
0
 62
7
  6
CONTINUOUS
370
-3
390
F
  0
LAYER
  5
201
100
AcDbSymbolTableRecord
100
AcDbLayerTableRecord
  2
04___PRT_ALL_DTM_PNT
 70
0
 62
7
  6
CONTINUOUS
370
-3
390
F
  0
LAYER
  5
202
100
AcDbSymbolTableRecord
100
AcDbLayerTableRecord
  2
05___PRT_ALL_DTM_CSYS
 70
0
 62
7
  6
CONTINUOUS
370
-3
390
F
  0
LAYER
  5
203
100
AcDbSymbolTableRecord
100
AcDbLayerTableRecord
  2
05___PRT_DEF_DTM_CSYS
 70
0
 62
7
  6
CONTINUOUS
370
-3
390
F
  0
LAYER
  5
204
100
AcDbSymbolTableRecord
100
AcDbLayerTableRecord
  2
06___PRT_ALL_SURFS
 70
0
 62
7
  6
CONTINUOUS
370
-3
390
F
  0
LAYER
  5
205
100
AcDbSymbolTableRecord
100
AcDbLayerTableRecord
  2
ALL_FEATURES
 70
0
 62
7
  6
CONTINUOUS
370
-3
390
F
  0
LAYER
  5
206
100
AcDbSymbolTableRecord
100
AcDbLayerTableRecord
  2
AXES_FEATURES
 70
0
 62
7
  6
CONTINUOUS
370
-3
390
F
  0
LAYER
  5
207
100
AcDbSymbolTableRecord
100
AcDbLayerTableRecord
  2
CHAMFER_FEATURES
 70
0
 62
7
  6
CONTINUOUS
370
-3
390
F
  0
LAYER
  5
208
100
AcDbSymbolTableRecord
100
AcDbLayerTableRecord
  2
CUT_FEATURES
 70
0
 62
7
  6
CONTINUOUS
370
-3
390
F
  0
LAYER
  5
209
100
AcDbSymbolTableRecord
100
AcDbLayerTableRecord
  2
DATUM_CURVES
 70
0
 62
7
  6
CONTINUOUS
370
-3
390
F
  0
LAYER
  5
20A
100
AcDbSymbolTableRecord
100
AcDbLayerTableRecord
  2
DATUM_PLANES
 70
0
 62
7
  6
CONTINUOUS
370
-3
390
F
  0
LAYER
  5
20B
100
AcDbSymbolTableRecord
100
AcDbLayerTableRecord
  2
DATUM_POINTS
 70
0
 62
7
  6
CONTINUOUS
370
-3
390
F
  0
LAYER
  5
20C
100
AcDbSymbolTableRecord
100
AcDbLayerTableRecord
  2
DEFAULT_COORDINATE_SYSTEM
 70
0
 62
7
  6
CONTINUOUS
370
-3
390
F
  0
LAYER
  5
20D
100
AcDbSymbolTableRecord
100
AcDbLayerTableRecord
  2
DEFAULT_DATUM_AXES
 70
0
 62
7
  6
CONTINUOUS
370
-3
390
F
  0
LAYER
  5
20E
100
AcDbSymbolTableRecord
100
AcDbLayerTableRecord
  2
DEFAULT_DATUM_CURVES
 70
0
 62
7
  6
CONTINUOUS
370
-3
390
F
  0
LAYER
  5
20F
100
AcDbSymbolTableRecord
100
AcDbLayerTableRecord
  2
DEFAULT_DATUM_PLANES
 70
0
 62
7
  6
CONTINUOUS
370
-3
390
F
  0
LAYER
  5
210
100
AcDbSymbolTableRecord
100
AcDbLayerTableRecord
  2
DEFAULT_SURFACES
 70
0
 62
7
  6
CONTINUOUS
370
-3
390
F
  0
LAYER
  5
211
100
AcDbSymbolTableRecord
100
AcDbLayerTableRecord
  2
DIMENSIONS
 70
0
 62
7
  6
CONTINUOUS
370
-3
390
F
  0
LAYER
  5
212
100
AcDbSymbolTableRecord
100
AcDbLayerTableRecord
  2
HOLE_FEATURES
 70
0
 62
7
  6
CONTINUOUS
370
-3
390
F
  0
LAYER
  5
213
100
AcDbSymbolTableRecord
100
AcDbLayerTableRecord
  2
NOTES
 70
0
 62
7
  6
CONTINUOUS
370
-3
390
F
  0
LAYER
  5
214
100
AcDbSymbolTableRecord
100
AcDbLayerTableRecord
  2
PART_REFERENCE_DIMENSIONS
 70
0
 62
7
  6
CONTINUOUS
370
-3
390
F
  0
LAYER
  5
215
100
AcDbSymbolTableRecord
100
AcDbLayerTableRecord
  2
PLATED_SURFACE_AREA
 70
0
 62
7
  6
CONTINUOUS
370
-3
390
F
  0
LAYER
  5
216
100
AcDbSymbolTableRecord
100
AcDbLayerTableRecord
  2
POINTS
 70
0
 62
7
  6
CONTINUOUS
370
-3
390
F
  0
LAYER
  5
217
100
AcDbSymbolTableRecord
100
AcDbLayerTableRecord
  2
PROTRUSION_FEATURES
 70
0
 62
7
  6
CONTINUOUS
370
-3
390
F
  0
LAYER
  5
218
100
AcDbSymbolTableRecord
100
AcDbLayerTableRecord
  2
REFERENCE_DIMENSIONS
 70
0
 62
7
  6
CONTINUOUS
370
-3
390
F
  0
LAYER
  5
219
100
AcDbSymbolTableRecord
100
AcDbLayerTableRecord
  2
ROUND_FEATURES
 70
0
 62
7
  6
CONTINUOUS
370
-3
390
F
  0
LAYER
  5
21A
100
AcDbSymbolTableRecord
100
AcDbLayerTableRecord
  2
WETTED_SURFACE_AREA
 70
0
 62
7
  6
CONTINUOUS
370
-3
390
F
  0
ENDTAB
  0
TABLE
  2
STYLE
  5
3
100
AcDbSymbolTable
 70
1
  0
STYLE
  5
11
100
AcDbSymbolTableRecord
100
AcDbTextStyleTableRecord
  2
STANDARD
 70
0
 40
0.0
 41
0.8
 50
0.0
 71
0
 42
0.2
  3
txt
  4

  0
STYLE
  5
21B
100
AcDbSymbolTableRecord
100
AcDbTextStyleTableRecord
  2
TEXTSTYLE_1
 70
0
 40
0.0
 41
0.8
 50
0.0
 71
0
 42
0.2
  3
gdt
  4

  0
ENDTAB
  0
TABLE
  2
VIEW
  5
6
100
AcDbSymbolTable
 70
0
  0
ENDTAB
  0
TABLE
  2
UCS
  5
7
100
AcDbSymbolTable
 70
0
  0
ENDTAB
  0
TABLE
  2
APPID
  5
9
100
AcDbSymbolTable
 70
1
  0
APPID
  5
21C
100
AcDbSymbolTableRecord
100
AcDbRegAppTableRecord
  2
ACAD
 70
0
  0
ENDTAB
  0
TABLE
  2
BLOCK_RECORD
  5
1
100
AcDbSymbolTable
 70
0
  0
BLOCK_RECORD
  5
21D
100
AcDbSymbolTableRecord
100
AcDbBlockTableRecord
  2
*Model_Space
  0
BLOCK_RECORD
  5
21E
100
AcDbSymbolTableRecord
100
AcDbBlockTableRecord
  2
*Paper_Space
  0
BLOCK_RECORD
  5
21F
100
AcDbSymbolTableRecord
100
AcDbBlockTableRecord
  2
_FILLED
  0
ENDTAB
  0
TABLE
  2
DIMSTYLE
  5
A
100
AcDbSymbolTable
 70
1
100
AcDbDimStyleTable
 71
0
  0
DIMSTYLE
105
220
100
AcDbSymbolTableRecord
100
AcDbDimStyleTableRecord
  2
STANDARD
 70
0
  3

  4

 40
1.0
 41
0.1
 42
0.0625
 43
0.38
 44
0.125
 45
0.0
 46
0.0
 47
0.01
 48
0.01
140
0.08
141
0.09
142
0.0
143
25.4
144
1.0
145
0.0
146
1.0
147
0.09
 71
1.0
 72
0.0
 73
1
 74
1
 75
0
 76
0
 77
0
 78
4
 79
1
170
1
171
1
172
0
173
0
174
0
175
0
176
0
177
0
178
0
270
2
179
2
271
2
272
2
273
2
274
2
275
0
280
0
281
0
282
0
283
1
284
4
285
0
286
0
287
3
288
0
340
11
278
46
341
21F
342
21F
343
21F
344
21F
  0
ENDTAB
  0
ENDSEC
  0
SECTION
  2
BLOCKS
  0
BLOCK
  5
20
100
AcDbEntity
  8
0
100
AcDbBlockBegin
  2
*Model_Space
 70
0
 10
0.0
 20
0.0
 30
0.0
  3
*Model_Space
  1

  0
ENDBLK
  5
21
100
AcDbEntity
  8
0
100
AcDbBlockEnd
  0
BLOCK
  5
1C
100
AcDbEntity
  8
0
100
AcDbBlockBegin
  2
*Paper_Space
 70
0
 10
0.0
 20
0.0
 30
0.0
  3
*Paper_Space
  1

  0
ENDBLK
  5
1D
100
AcDbEntity
  8
0
100
AcDbBlockEnd
  0
BLOCK
  5
221
100
AcDbEntity
  8
0
100
AcDbBlockBegin
  2
_FILLED
 70
64
 10
0.0
 20
0.0
  3
_FILLED
  1

  0
SOLID
  5
222
100
AcDbEntity
  8
0
  6
BYBLOCK
 62
0
100
AcDbTrace
 10
0.0
 20
0.0
 11
-1.0
 21
0.2
 12
-1.0
 22
-0.2
 13
-1.0
 23
-0.2
  0
ENDBLK
  5
223
100
AcDbEntity
  8
0
  6
BYBLOCK
 62
0
100
AcDbBlockEnd
  0
ENDSEC
  0
SECTION
  2
ENTITIES
  0
MTEXT
  5
224
100
AcDbEntity
  8
0
100
AcDbMText
 62
2
  6
CONTINUOUS
  7
STANDARD
 71
3
 72
1
 10
5.3844437886
 20
1.8735069623
 30
0.0
 11
1.0
 21
0.0
 31
0.0
 73
2
 44
0.9
  1
SCALE  1.000
 40
0.08
 41
0.768
  0
LINE
  5
225
100
AcDbEntity
  8
0
100
AcDbLine
 62
7
  6
CONTINUOUS
 10
0.0
 20
0.0
 11
0.0
 21
8.5
  0
LINE
  5
226
100
AcDbEntity
  8
0
100
AcDbLine
 62
7
  6
CONTINUOUS
 10
0.0
 20
0.0
 11
11.0
 21
0.0
  0
LINE
  5
227
100
AcDbEntity
  8
0
100
AcDbLine
 62
7
  6
CONTINUOUS
 10
0.0
 20
8.5
 11
11.0
 21
8.5
  0
LINE
  5
228
100
AcDbEntity
  8
0
100
AcDbLine
 62
7
  6
CONTINUOUS
 10
11.0
 20
0.0
 11
11.0
 21
8.5
  0
LINE
  5
229
100
AcDbEntity
  8
02___PRT_ALL_AXES
100
AcDbLine
 62
7
  6
CONTINUOUS
 10
2.0541149068
 20
3.0897491984
 11
2.0541149068
 21
3.0197491984
  0
LINE
  5
22A
100
AcDbEntity
  8
02___PRT_ALL_AXES
100
AcDbLine
 62
7
  6
CONTINUOUS
 10
2.4459611989
 20
3.9960460958
 11
2.4316149068
 21
3.5197491984
  0
LINE
  5
22B
100
AcDbEntity
  8
0
100
AcDbLine
 62
7
  6
CONTINUOUS
 10
2.8272399068
 20
2.9697491984
 11
2.8280740455
 21
2.9586273491
  0
LINE
  5
22C
100
AcDbEntity
  8
0
100
AcDbLine
 62
7
  6
CONTINUOUS
 10
2.8768448532
 20
2.9697491984
 11
2.8776789919
 21
2.9586273491
  0
LINE
  5
22D
100
AcDbEntity
  8
02___PRT_ALL_AXES
100
AcDbLine
 62
7
  6
CONTINUOUS
 10
2.7391149068
 20
4.2264709298
 11
2.7391149068
 21
4.2057491984
  0
LINE
  5
22E
100
AcDbEntity
  8
0
100
AcDbLine
 62
7
  6
CONTINUOUS
 10
3.023491718
 20
2.9697491984
 11
3.0243258567
 21
2.9586273491
  0
LINE
  5
22F
100
AcDbEntity
  8
0
100
AcDbLine
 62
7
  6
CONTINUOUS
 10
3.2558174149
 20
2.9537157576
 11
3.2580740455
 21
2.9236273491
  0
LINE
  5
230
100
AcDbEntity
  8
0
100
AcDbLine
 62
7
  6
CONTINUOUS
 10
3.2607713296
 20
2.9697491984
 11
3.2616054683
 21
2.9586273491
  0
LINE
  5
231
100
AcDbEntity
  8
0
100
AcDbLine
 62
7
  6
CONTINUOUS
 10
3.3191863865
 20
2.9447491984
 11
3.3207705252
 21
2.9236273491
  0
LINE
  5
232
100
AcDbEntity
  8
0
100
AcDbLine
 62
7
  6
CONTINUOUS
 10
2.9905948532
 20
2.9697491984
 11
2.9897607145
 21
2.9586273491
  0
LINE
  5
233
100
AcDbEntity
  8
0
100
AcDbLine
 62
7
  6
CONTINUOUS
 10
3.137241718
 20
2.9697491984
 11
3.1364075793
 21
2.9586273491
  0
LINE
  5
234
100
AcDbEntity
  8
0
100
AcDbLine
 62
7
  6
CONTINUOUS
 10
3.5023305377
 20
2.9537175467
 11
3.5045873026
 21
2.9236273491
  0
LINE
  5
235
100
AcDbEntity
  8
0
100
AcDbLine
 62
7
  6
CONTINUOUS
 10
3.5783134304
 20
2.9697491984
 11
3.5791475691
 21
2.9586273491
  0
LINE
  5
236
100
AcDbEntity
  8
0
100
AcDbLine
 62
7
  6
CONTINUOUS
 10
3.3745213296
 20
2.9697491984
 11
3.3736871909
 21
2.9586273491
  0
LINE
  5
237
100
AcDbEntity
  8
0
100
AcDbLine
 62
7
  6
CONTINUOUS
 10
5.3391149068
 20
2.8804505712
 11
5.3510268923
 21
2.8814137461
  0
LINE
  5
238
100
AcDbEntity
  8
0
100
AcDbLine
 62
7
  6
CONTINUOUS
 10
7.0451330564
 20
2.9531618243
 11
7.0566149068
 21
2.954039433
  0
LINE
  5
239
100
AcDbEntity
  8
0
100
AcDbLine
 62
7
  6
CONTINUOUS
 10
6.5369984141
 20
2.9190353731
 11
6.6182414946
 21
2.9237383897
  0
LINE
  5
23A
100
AcDbEntity
  8
0
100
AcDbLine
 62
7
  6
CONTINUOUS
 10
6.5719591806
 20
2.9210590781
 11
6.5782424262
 21
2.921421397
  0
LINE
  5
23B
100
AcDbEntity
  8
0
100
AcDbLine
 62
7
  6
CONTINUOUS
 10
6.5903489195
 20
2.9221236361
 11
6.5960198786
 21
2.9224504234
  0
LINE
  5
23C
100
AcDbEntity
  8
0
100
AcDbLine
 62
7
  6
CONTINUOUS
 10
6.6062962943
 20
2.9230468465
 11
6.6266149068
 21
2.9242235953
  0
LINE
  5
23D
100
AcDbEntity
  8
0
100
AcDbLine
 62
7
  6
CONTINUOUS
 10
6.0809420724
 20
2.8973810869
 11
6.1717641569
 21
2.9010319308
  0
LINE
  5
23E
100
AcDbEntity
  8
0
100
AcDbLine
 62
7
  6
CONTINUOUS
 10
6.1247200722
 20
2.8991407959
 11
6.1369391755
 21
2.8996328924
  0
LWPOLYLINE
  5
23F
100
AcDbEntity
  8
0
100
AcDbPolyline
 62
7
  6
CONTINUOUS
 90
3
 70
0
 10
6.1492076879
 20
2.9001242442
 10
6.161021088
 20
2.900600055
 10
6.1776629867
 20
2.9012690694
  0
LINE
  5
240
100
AcDbEntity
  8
0
100
AcDbLine
 62
7
  6
CONTINUOUS
 10
6.0924582587
 20
2.8978439815
 11
6.1187212166
 21
2.8989006317
  0
LINE
  5
241
100
AcDbEntity
  8
0
100
AcDbLine
 62
7
  6
CONTINUOUS
 10
6.0716149068
 20
2.8970533539
 11
6.075924113
 21
2.8971929709
  0
LINE
  5
242
100
AcDbEntity
  8
0
100
AcDbLine
 62
7
  6
CONTINUOUS
 10
5.7014563914
 20
2.8859689931
 11
5.7666149068
 21
2.8874383756
  0
LINE
  5
243
100
AcDbEntity
  8
0
100
AcDbLine
 62
7
  6
CONTINUOUS
 10
5.7248088138
 20
2.8864961294
 11
5.7306777418
 21
2.8866280391
  0
LINE
  5
244
100
AcDbEntity
  8
0
100
AcDbLine
 62
7
  6
CONTINUOUS
 10
5.746466119
 20
2.8869840432
 11
5.7548303812
 21
2.8871711106
  0
LINE
  5
245
100
AcDbEntity
  8
0
100
AcDbLine
 62
7
  6
CONTINUOUS
 10
6.0718530884
 20
2.8970580959
 11
6.0716149068
 21
2.8970533539
  0
LINE
  5
246
100
AcDbEntity
  8
0
100
AcDbLine
 62
7
  6
CONTINUOUS
 10
5.7451977785
 20
2.8447491984
 11
5.6630320352
 21
2.8447491984
  0
LINE
  5
247
100
AcDbEntity
  8
0
100
AcDbLine
 62
7
  6
CONTINUOUS
 10
5.4701977785
 20
2.8447491984
 11
5.3880320352
 21
2.8447491984
  0
LINE
  5
248
100
AcDbEntity
  8
0
100
AcDbLine
 62
7
  6
CONTINUOUS
 10
4.9201977785
 20
2.8447491984
 11
4.8380320352
 21
2.8447491984
  0
LINE
  5
249
100
AcDbEntity
  8
0
100
AcDbLine
 62
7
  6
CONTINUOUS
 10
4.6451977785
 20
2.8447491984
 11
4.5630320352
 21
2.8447491984
  0
LINE
  5
24A
100
AcDbEntity
  8
0
100
AcDbLine
 62
7
  6
CONTINUOUS
 10
6.1751977785
 20
2.8547491984
 11
6.0930320352
 21
2.8547491984
  0
LINE
  5
24B
100
AcDbEntity
  8
0
100
AcDbLine
 62
7
  6
CONTINUOUS
 10
6.0439026742
 20
2.8547491984
 11
5.9617369309
 21
2.8547491984
  0
LINE
  5
24C
100
AcDbEntity
  8
0
100
AcDbLine
 62
7
  6
CONTINUOUS
 10
5.6851977785
 20
2.8547491984
 11
5.6030320352
 21
2.8547491984
  0
LINE
  5
24D
100
AcDbEntity
  8
0
100
AcDbLine
 62
7
  6
CONTINUOUS
 10
5.1951977785
 20
2.8547491984
 11
5.1130320352
 21
2.8547491984
  0
LINE
  5
24E
100
AcDbEntity
  8
0
100
AcDbLine
 62
7
  6
CONTINUOUS
 10
4.7051977785
 20
2.8547491984
 11
4.6230320352
 21
2.8547491984
  0
LINE
  5
24F
100
AcDbEntity
  8
0
100
AcDbLine
 62
7
  6
CONTINUOUS
 10
4.3464928828
 20
2.8547491984
 11
4.2643271395
 21
2.8547491984
  0
LINE
  5
250
100
AcDbEntity
  8
0
100
AcDbLine
 62
7
  6
CONTINUOUS
 10
4.2151977785
 20
2.8547491984
 11
4.1330320352
 21
2.8547491984
  0
LINE
  5
251
100
AcDbEntity
  8
0
100
AcDbLine
 62
7
  6
CONTINUOUS
 10
5.7601557681
 20
2.8586273491
 11
5.6952505014
 21
2.858627349
  0
LINE
  5
252
100
AcDbEntity
  8
0
100
AcDbLine
 62
7
  6
CONTINUOUS
 10
5.4851557681
 20
2.8586273491
 11
5.3730740455
 21
2.8586273491
  0
LINE
  5
253
100
AcDbEntity
  8
0
100
AcDbLine
 62
7
  6
CONTINUOUS
 10
4.9351557681
 20
2.8586273491
 11
4.8230740455
 21
2.8586273491
  0
LINE
  5
254
100
AcDbEntity
  8
0
100
AcDbLine
 62
7
  6
CONTINUOUS
 10
4.6129793121
 20
2.8586273491
 11
4.5480740455
 21
2.8586273491
  0
LINE
  5
255
100
AcDbEntity
  8
0
100
AcDbLine
 62
7
  6
CONTINUOUS
 10
6.1901557681
 20
2.8686273491
 11
6.0780740455
 21
2.8686273491
  0
LINE
  5
256
100
AcDbEntity
  8
0
100
AcDbLine
 62
7
  6
CONTINUOUS
 10
6.0588606638
 20
2.8686273491
 11
5.9467789412
 21
2.8686273491
  0
LINE
  5
257
100
AcDbEntity
  8
0
100
AcDbLine
 62
7
  6
CONTINUOUS
 10
5.7001557681
 20
2.8686273491
 11
5.5880740455
 21
2.8686273491
  0
LINE
  5
258
100
AcDbEntity
  8
0
100
AcDbLine
 62
7
  6
CONTINUOUS
 10
5.2101557681
 20
2.8686273491
 11
5.0980740455
 21
2.8686273491
  0
LINE
  5
259
100
AcDbEntity
  8
0
100
AcDbLine
 62
7
  6
CONTINUOUS
 10
4.7201557681
 20
2.8686273491
 11
4.6080740455
 21
2.8686273491
  0
LINE
  5
25A
100
AcDbEntity
  8
0
100
AcDbLine
 62
7
  6
CONTINUOUS
 10
4.3614508724
 20
2.8686273491
 11
4.2493691498
 21
2.8686273491
  0
LINE
  5
25B
100
AcDbEntity
  8
0
100
AcDbLine
 62
7
  6
CONTINUOUS
 10
4.2301557681
 20
2.8686273491
 11
4.1180740455
 21
2.8686273491
  0
LINE
  5
25C
100
AcDbEntity
  8
0
100
AcDbLine
 62
7
  6
CONTINUOUS
 10
6.6051977785
 20
2.8797491984
 11
6.5230320352
 21
2.8797491984
  0
LINE
  5
25D
100
AcDbEntity
  8
0
100
AcDbLine
 62
7
  6
CONTINUOUS
 10
6.5201643738
 20
2.8797491984
 11
6.4379986305
 21
2.8797491984
  0
LINE
  5
25E
100
AcDbEntity
  8
0
100
AcDbLine
 62
7
  6
CONTINUOUS
 10
6.2753204433
 20
2.8797491984
 11
6.1931547
 21
2.8797491984
  0
LINE
  5
25F
100
AcDbEntity
  8
0
100
AcDbLine
 62
7
  6
CONTINUOUS
 10
5.9001977785
 20
2.8797491984
 11
5.8180320352
 21
2.8797491984
  0
LINE
  5
260
100
AcDbEntity
  8
0
100
AcDbLine
 62
7
  6
CONTINUOUS
 10
5.440041709
 20
2.8797491984
 11
5.3578759657
 21
2.8797491984
  0
LINE
  5
261
100
AcDbEntity
  8
0
100
AcDbLine
 62
7
  6
CONTINUOUS
 10
4.950353848
 20
2.8797491984
 11
4.8681881047
 21
2.8797491984
  0
LINE
  5
262
100
AcDbEntity
  8
0
100
AcDbLine
 62
7
  6
CONTINUOUS
 10
4.4901977785
 20
2.8797491984
 11
4.4080320352
 21
2.8797491984
  0
LINE
  5
263
100
AcDbEntity
  8
0
100
AcDbLine
 62
7
  6
CONTINUOUS
 10
4.1150751137
 20
2.8797491984
 11
4.0329093704
 21
2.8797491984
  0
LINE
  5
264
100
AcDbEntity
  8
0
100
AcDbLine
 62
7
  6
CONTINUOUS
 10
3.8702311832
 20
2.8797491984
 11
3.7880654399
 21
2.8797491984
  0
LINE
  5
265
100
AcDbEntity
  8
0
100
AcDbLine
 62
7
  6
CONTINUOUS
 10
3.7851977785
 20
2.8797491984
 11
3.7030320352
 21
2.8797491984
  0
LINE
  5
266
100
AcDbEntity
  8
0
100
AcDbLine
 62
7
  6
CONTINUOUS
 10
4.9691149068
 20
2.8804505712
 11
5.0971873039
 21
2.8804505712
  0
LINE
  5
267
100
AcDbEntity
  8
0
100
AcDbLine
 62
7
  6
CONTINUOUS
 10
5.2110425098
 20
2.8804505712
 11
5.3391149068
 21
2.8804505712
  0
LINE
  5
268
100
AcDbEntity
  8
0
100
AcDbLine
 62
7
  6
CONTINUOUS
 10
4.726489184
 20
2.8836570489
 11
4.821196818
 21
2.8836570489
  0
LINE
  5
269
100
AcDbEntity
  8
0
100
AcDbLine
 62
7
  6
CONTINUOUS
 10
4.9604385817
 20
2.8836570489
 11
5.096946818
 21
2.8836570489
  0
LINE
  5
26A
100
AcDbEntity
  8
0
100
AcDbLine
 62
7
  6
CONTINUOUS
 10
5.2112829956
 20
2.8836570489
 11
5.347791232
 21
2.8836570489
  0
LINE
  5
26B
100
AcDbEntity
  8
0
100
AcDbLine
 62
7
  6
CONTINUOUS
 10
5.4870329956
 20
2.8836570489
 11
5.5817406297
 21
2.8836570489
  0
LINE
  5
26C
100
AcDbEntity
  8
0
100
AcDbLine
 62
7
  6
CONTINUOUS
 10
4.7212955217
 20
2.8838240633
 11
4.8211842923
 21
2.8838240589
  0
LINE
  5
26D
100
AcDbEntity
  8
0
100
AcDbLine
 62
7
  6
CONTINUOUS
 10
4.9606185862
 20
2.8838240586
 11
5.0969342923
 21
2.8838240587
  0
LINE
  5
26E
100
AcDbEntity
  8
0
100
AcDbLine
 62
7
  6
CONTINUOUS
 10
5.2112955214
 20
2.8838240586
 11
5.3476112275
 21
2.8838240586
  0
LINE
  5
26F
100
AcDbEntity
  8
0
100
AcDbLine
 62
7
  6
CONTINUOUS
 10
5.4870455214
 20
2.8838240588
 11
5.5869342919
 21
2.8838240637
  0
LINE
  5
270
100
AcDbEntity
  8
0
100
AcDbLine
 62
7
  6
CONTINUOUS
 10
5.769433563
 20
2.8875093192
 11
5.7015719158
 21
2.8875093174
  0
LINE
  5
271
100
AcDbEntity
  8
0
100
AcDbLine
 62
7
  6
CONTINUOUS
 10
5.5866578978
 20
2.8875093185
 11
5.4531779735
 21
2.887509319
  0
LINE
  5
272
100
AcDbEntity
  8
0
100
AcDbLine
 62
7
  6
CONTINUOUS
 10
5.3447397012
 20
2.8875093191
 11
5.2115719159
 21
2.8875093192
  0
LINE
  5
273
100
AcDbEntity
  8
0
100
AcDbLine
 62
7
  6
CONTINUOUS
 10
5.0966578978
 20
2.8875093192
 11
4.9634901125
 21
2.8875093192
  0
LINE
  5
274
100
AcDbEntity
  8
0
100
AcDbLine
 62
7
  6
CONTINUOUS
 10
4.8550518402
 20
2.8875093191
 11
4.7215719159
 21
2.8875093187
  0
LINE
  5
275
100
AcDbEntity
  8
0
100
AcDbLine
 62
7
  6
CONTINUOUS
 10
4.6066578979
 20
2.8875093177
 11
4.5387962506
 21
2.8875093192
  0
LINE
  5
276
100
AcDbEntity
  8
0
100
AcDbLine
 62
7
  6
CONTINUOUS
 10
4.2363767252
 20
2.8970580959
 11
4.2366149068
 21
2.8970533539
  0
LINE
  5
277
100
AcDbEntity
  8
0
100
AcDbLine
 62
7
  6
CONTINUOUS
 10
4.5416149068
 20
2.8874383756
 11
4.6067755653
 21
2.885969107
  0
LINE
  5
278
100
AcDbEntity
  8
0
100
AcDbLine
 62
7
  6
CONTINUOUS
 10
4.5443596846
 20
2.8873764835
 11
4.5464553126
 21
2.8873293521
  0
LINE
  5
279
100
AcDbEntity
  8
0
100
AcDbLine
 62
7
  6
CONTINUOUS
 10
4.2344833991
 20
2.8971198666
 11
4.2366149068
 21
2.8970533539
  0
LINE
  5
27A
100
AcDbEntity
  8
0
100
AcDbLine
 62
7
  6
CONTINUOUS
 10
4.1305501469
 20
2.9012697399
 11
4.2272877412
 21
2.8973810869
  0
LINE
  5
27B
100
AcDbEntity
  8
0
100
AcDbLine
 62
7
  6
CONTINUOUS
 10
4.1394652127
 20
2.9009113466
 11
4.1453653629
 21
2.9006749162
  0
LINE
  5
27C
100
AcDbEntity
  8
0
100
AcDbLine
 62
7
  6
CONTINUOUS
 10
4.1581088339
 20
2.900161874
 11
4.1783795758
 21
2.8993470174
  0
LINE
  5
27D
100
AcDbEntity
  8
0
100
AcDbLine
 62
7
  6
CONTINUOUS
 10
4.1850311039
 20
2.8990808314
 11
4.1977623927
 21
2.8985678796
  0
LINE
  5
27E
100
AcDbEntity
  8
0
100
AcDbLine
 62
7
  6
CONTINUOUS
 10
4.2037361137
 20
2.8983288569
 11
4.2145747611
 21
2.8978920872
  0
LINE
  5
27F
100
AcDbEntity
  8
0
100
AcDbLine
 62
7
  6
CONTINUOUS
 10
4.2193337773
 20
2.8977034436
 11
4.2272877412
 21
2.8973810869
  0
LINE
  5
280
100
AcDbEntity
  8
0
100
AcDbLine
 62
7
  6
CONTINUOUS
 10
3.6816149068
 20
2.9242235953
 11
3.7712329554
 21
2.9190352831
  0
LINE
  5
281
100
AcDbEntity
  8
0
100
AcDbLine
 62
7
  6
CONTINUOUS
 10
3.7053229047
 20
2.9228515424
 11
3.7105550744
 21
2.9225464463
  0
LINE
  5
282
100
AcDbEntity
  8
0
100
AcDbLine
 62
7
  6
CONTINUOUS
 10
3.6840588555
 20
2.9240794539
 11
3.6960860674
 21
2.923383635
  0
LINE
  5
283
100
AcDbEntity
  8
0
100
AcDbLine
 62
7
  6
CONTINUOUS
 10
3.7220485063
 20
2.9218833463
 11
3.7281904618
 21
2.9215253424
  0
LINE
  5
284
100
AcDbEntity
  8
0
100
AcDbLine
 62
7
  6
CONTINUOUS
 10
3.7407868615
 20
2.9207990684
 11
3.7471058415
 21
2.9204307984
  0
LINE
  5
285
100
AcDbEntity
  8
0
100
AcDbLine
 62
7
  6
CONTINUOUS
 10
3.7595174481
 20
2.9197147606
 11
3.7654867956
 21
2.9193669927
  0
LINE
  5
286
100
AcDbEntity
  8
0
100
AcDbLine
 62
7
  6
CONTINUOUS
 10
3.2516149068
 20
2.954039433
 11
3.2630939203
 21
2.9531674559
  0
LINE
  5
287
100
AcDbEntity
  8
0
100
AcDbLine
 62
7
  6
CONTINUOUS
 10
4.9691149068
 20
2.8804505712
 11
4.9572029213
 21
2.8814137461
  0
LINE
  5
288
100
AcDbEntity
  8
0
100
AcDbLine
 62
7
  6
CONTINUOUS
 10
3.6857976685
 20
2.9239790431
 11
3.6880740455
 21
2.8936273491
  0
LINE
  5
289
100
AcDbEntity
  8
0
100
AcDbLine
 62
7
  6
CONTINUOUS
 10
3.7708128774
 20
2.9242216532
 11
3.7731074502
 21
2.8936273491
  0
LINE
  5
28A
100
AcDbEntity
  8
0
100
AcDbLine
 62
7
  6
CONTINUOUS
 10
3.7947970535
 20
2.9529675445
 11
3.7969975681
 21
2.9236273491
  0
LINE
  5
28B
100
AcDbEntity
  8
0
100
AcDbLine
 62
7
  6
CONTINUOUS
 10
3.4344637302
 20
2.9451137812
 11
3.4328522478
 21
2.9236273491
  0
LINE
  5
28C
100
AcDbEntity
  8
0
100
AcDbLine
 62
7
  6
CONTINUOUS
 10
3.6182531639
 20
2.9447491984
 11
3.6166690252
 21
2.9236273491
  0
LINE
  5
28D
100
AcDbEntity
  8
0
100
AcDbLine
 62
7
  6
CONTINUOUS
 10
6.6201557681
 20
2.8936273491
 11
6.4230406408
 21
2.8936273491
  0
LINE
  5
28E
100
AcDbEntity
  8
0
100
AcDbLine
 62
7
  6
CONTINUOUS
 10
6.2902784329
 20
2.8936273491
 11
6.1781967103
 21
2.8936273491
  0
LINE
  5
28F
100
AcDbEntity
  8
0
100
AcDbLine
 62
7
  6
CONTINUOUS
 10
5.9151557681
 20
2.8936273491
 11
5.8030740455
 21
2.8936273491
  0
LINE
  5
290
100
AcDbEntity
  8
0
100
AcDbLine
 62
7
  6
CONTINUOUS
 10
5.4549996987
 20
2.8936273491
 11
5.342917976
 21
2.8936273491
  0
LINE
  5
291
100
AcDbEntity
  8
0
100
AcDbLine
 62
7
  6
CONTINUOUS
 10
4.9653118376
 20
2.8936273491
 11
4.853230115
 21
2.8936273491
  0
LINE
  5
292
100
AcDbEntity
  8
0
100
AcDbLine
 62
7
  6
CONTINUOUS
 10
4.5051557681
 20
2.8936273491
 11
4.3930740455
 21
2.8936273491
  0
LINE
  5
293
100
AcDbEntity
  8
0
100
AcDbLine
 62
7
  6
CONTINUOUS
 10
4.1300331033
 20
2.8936273491
 11
4.0179513807
 21
2.8936273491
  0
LINE
  5
294
100
AcDbEntity
  8
0
100
AcDbLine
 62
7
  6
CONTINUOUS
 10
3.8851891728
 20
2.8936273491
 11
3.6880740455
 21
2.8936273491
  0
LINE
  5
295
100
AcDbEntity
  8
0
100
AcDbLine
 62
7
  6
CONTINUOUS
 10
4.3678823407
 20
2.8966584368
 11
4.3930740455
 21
2.8966584368
  0
LINE
  5
296
100
AcDbEntity
  8
0
100
AcDbLine
 62
7
  6
CONTINUOUS
 10
4.5051557681
 20
2.8966584368
 11
4.605971714
 21
2.8966584368
  0
LINE
  5
297
100
AcDbEntity
  8
0
100
AcDbLine
 62
7
  6
CONTINUOUS
 10
4.7222580997
 20
2.8966584368
 11
4.853230115
 21
2.8966584368
  0
LINE
  5
298
100
AcDbEntity
  8
0
100
AcDbLine
 62
7
  6
CONTINUOUS
 10
4.9653118376
 20
2.8966584368
 11
5.095971714
 21
2.8966584368
  0
LINE
  5
299
100
AcDbEntity
  8
0
100
AcDbLine
 62
7
  6
CONTINUOUS
 10
5.2122580997
 20
2.8966584368
 11
5.342917976
 21
2.8966584368
  0
LINE
  5
29A
100
AcDbEntity
  8
0
100
AcDbLine
 62
7
  6
CONTINUOUS
 10
5.4549996987
 20
2.8966584368
 11
5.585971714
 21
2.8966584368
  0
LINE
  5
29B
100
AcDbEntity
  8
0
100
AcDbLine
 62
7
  6
CONTINUOUS
 10
5.7022580997
 20
2.8966584368
 11
5.8030740455
 21
2.8966584368
  0
LINE
  5
29C
100
AcDbEntity
  8
0
100
AcDbLine
 62
7
  6
CONTINUOUS
 10
5.9151557681
 20
2.8966584368
 11
5.9403198025
 21
2.8966584368
  0
LINE
  5
29D
100
AcDbEntity
  8
0
100
AcDbLine
 62
7
  6
CONTINUOUS
 10
4.2272877412
 20
2.8973810869
 11
4.2472126195
 21
2.8973810869
  0
LINE
  5
29E
100
AcDbEntity
  8
0
100
AcDbLine
 62
7
  6
CONTINUOUS
 10
4.3678823407
 20
2.8973810869
 11
4.3930740455
 21
2.8973810869
  0
LINE
  5
29F
100
AcDbEntity
  8
0
100
AcDbLine
 62
7
  6
CONTINUOUS
 10
4.5051557681
 20
2.8973810869
 11
4.6059175152
 21
2.8973810869
  0
LINE
  5
2A0
100
AcDbEntity
  8
0
100
AcDbLine
 62
7
  6
CONTINUOUS
 10
4.7266149068
 20
2.8973810869
 11
4.853230115
 21
2.8973810869
  0
LINE
  5
2A1
100
AcDbEntity
  8
0
100
AcDbLine
 62
7
  6
CONTINUOUS
 10
4.9653118376
 20
2.8973810869
 11
5.0916149068
 21
2.8973810869
  0
LINE
  5
2A2
100
AcDbEntity
  8
0
100
AcDbLine
 62
7
  6
CONTINUOUS
 10
5.2166149068
 20
2.8973810869
 11
5.342917976
 21
2.8973810869
  0
LINE
  5
2A3
100
AcDbEntity
  8
0
100
AcDbLine
 62
7
  6
CONTINUOUS
 10
5.4549996987
 20
2.8973810869
 11
5.5816149068
 21
2.8973810869
  0
LINE
  5
2A4
100
AcDbEntity
  8
0
100
AcDbLine
 62
7
  6
CONTINUOUS
 10
5.7023122985
 20
2.8973810869
 11
5.8030740455
 21
2.8973810869
  0
LINE
  5
2A5
100
AcDbEntity
  8
0
100
AcDbLine
 62
7
  6
CONTINUOUS
 10
5.9151557681
 20
2.8973810869
 11
5.940347473
 21
2.8973810869
  0
LINE
  5
2A6
100
AcDbEntity
  8
0
100
AcDbLine
 62
7
  6
CONTINUOUS
 10
6.0610171942
 20
2.8973810869
 11
6.0809420724
 21
2.8973810869
  0
LINE
  5
2A7
100
AcDbEntity
  8
0
100
AcDbLine
 62
7
  6
CONTINUOUS
 10
5.8024408479
 20
2.9020699843
 11
5.4556328963
 21
2.9020699846
  0
LINE
  5
2A8
100
AcDbEntity
  8
0
100
AcDbLine
 62
7
  6
CONTINUOUS
 10
5.3422847784
 20
2.9020699847
 11
4.9659450353
 21
2.9020699848
  0
LINE
  5
2A9
100
AcDbEntity
  8
0
100
AcDbLine
 62
7
  6
CONTINUOUS
 10
4.8525969173
 20
2.9020699847
 11
4.5057889658
 21
2.9020699845
  0
LINE
  5
2AA
100
AcDbEntity
  8
0
100
AcDbLine
 62
7
  6
CONTINUOUS
 10
6.177563512
 20
2.9020699933
 11
5.9157889657
 21
2.9020699835
  0
LINE
  5
2AB
100
AcDbEntity
  8
0
100
AcDbLine
 62
7
  6
CONTINUOUS
 10
4.3924408479
 20
2.9020699838
 11
4.1306663016
 21
2.9020699928
  0
LINE
  5
2AC
100
AcDbEntity
  8
0
100
AcDbLine
 62
7
  6
CONTINUOUS
 10
7.0351977785
 20
2.9097491984
 11
6.8903355555
 21
2.9097491984
  0
LINE
  5
2AD
100
AcDbEntity
  8
0
100
AcDbLine
 62
7
  6
CONTINUOUS
 10
6.7886845215
 20
2.9097491984
 11
6.7065187781
 21
2.9097491984
  0
LINE
  5
2AE
100
AcDbEntity
  8
0
100
AcDbLine
 62
7
  6
CONTINUOUS
 10
6.4962742559
 20
2.9097491984
 11
6.4141085126
 21
2.9097491984
  0
LINE
  5
2AF
100
AcDbEntity
  8
0
100
AcDbLine
 62
7
  6
CONTINUOUS
 10
6.1151977785
 20
2.9097491984
 11
6.0330320352
 21
2.9097491984
  0
LINE
  5
2B0
100
AcDbEntity
  8
0
100
AcDbLine
 62
7
  6
CONTINUOUS
 10
5.6714248215
 20
2.9097491984
 11
5.5892590782
 21
2.9097491984
  0
LINE
  5
2B1
100
AcDbEntity
  8
0
100
AcDbLine
 62
7
  6
CONTINUOUS
 10
5.1951977785
 20
2.9097491984
 11
5.1130320352
 21
2.9097491984
  0
LINE
  5
2B2
100
AcDbEntity
  8
0
100
AcDbLine
 62
7
  6
CONTINUOUS
 10
4.7189707355
 20
2.9097491984
 11
4.6368049922
 21
2.9097491984
  0
LINE
  5
2B3
100
AcDbEntity
  8
0
100
AcDbLine
 62
7
  6
CONTINUOUS
 10
4.2751977785
 20
2.9097491984
 11
4.1930320352
 21
2.9097491984
  0
LINE
  5
2B4
100
AcDbEntity
  8
0
100
AcDbLine
 62
7
  6
CONTINUOUS
 10
3.8941213011
 20
2.9097491984
 11
3.8119555578
 21
2.9097491984
  0
LINE
  5
2B5
100
AcDbEntity
  8
0
100
AcDbLine
 62
7
  6
CONTINUOUS
 10
3.6017110355
 20
2.9097491984
 11
3.5195452922
 21
2.9097491984
  0
LINE
  5
2B6
100
AcDbEntity
  8
0
100
AcDbLine
 62
7
  6
CONTINUOUS
 10
3.4178942581
 20
2.9097491984
 11
3.2730320352
 21
2.9097491984
  0
LINE
  5
2B7
100
AcDbEntity
  8
0
100
AcDbLine
 62
7
  6
CONTINUOUS
 10
3.9062083245
 20
2.9158750796
 11
4.0162828009
 21
2.9158750796
  0
LINE
  5
2B8
100
AcDbEntity
  8
0
100
AcDbLine
 62
7
  6
CONTINUOUS
 10
4.1317016831
 20
2.9158750796
 11
4.1809450118
 21
2.9158750796
  0
LINE
  5
2B9
100
AcDbEntity
  8
0
100
AcDbLine
 62
7
  6
CONTINUOUS
 10
4.2872848019
 20
2.9158750796
 11
4.3914054657
 21
2.9158750796
  0
LINE
  5
2BA
100
AcDbEntity
  8
0
100
AcDbLine
 62
7
  6
CONTINUOUS
 10
4.5068243479
 20
2.9158750796
 11
4.6247179688
 21
2.9158750796
  0
LINE
  5
2BB
100
AcDbEntity
  8
0
100
AcDbLine
 62
7
  6
CONTINUOUS
 10
4.7310577589
 20
2.9158750796
 11
4.8515615352
 21
2.9158750796
  0
LINE
  5
2BC
100
AcDbEntity
  8
0
100
AcDbLine
 62
7
  6
CONTINUOUS
 10
4.9669804174
 20
2.9158750796
 11
5.1009450118
 21
2.9158750796
  0
LINE
  5
2BD
100
AcDbEntity
  8
0
100
AcDbLine
 62
7
  6
CONTINUOUS
 10
5.2072848019
 20
2.9158750796
 11
5.3412493963
 21
2.9158750796
  0
LINE
  5
2BE
100
AcDbEntity
  8
0
100
AcDbLine
 62
7
  6
CONTINUOUS
 10
5.4566682784
 20
2.9158750796
 11
5.5771720548
 21
2.9158750796
  0
LINE
  5
2BF
100
AcDbEntity
  8
0
100
AcDbLine
 62
7
  6
CONTINUOUS
 10
5.6835118449
 20
2.9158750796
 11
5.8014054657
 21
2.9158750796
  0
LINE
  5
2C0
100
AcDbEntity
  8
0
100
AcDbLine
 62
7
  6
CONTINUOUS
 10
5.9168243479
 20
2.9158750796
 11
6.0209450118
 21
2.9158750796
  0
LINE
  5
2C1
100
AcDbEntity
  8
0
100
AcDbLine
 62
7
  6
CONTINUOUS
 10
6.1272848019
 20
2.9158750796
 11
6.1765281305
 21
2.9158750796
  0
LINE
  5
2C2
100
AcDbEntity
  8
0
100
AcDbLine
 62
7
  6
CONTINUOUS
 10
6.2919470127
 20
2.9158750796
 11
6.4020214892
 21
2.9158750796
  0
LINE
  5
2C3
100
AcDbEntity
  8
0
100
AcDbLine
 62
7
  6
CONTINUOUS
 10
3.9072036795
 20
2.9174189913
 11
4.0164785259
 21
2.9174189913
  0
LINE
  5
2C4
100
AcDbEntity
  8
0
100
AcDbLine
 62
7
  6
CONTINUOUS
 10
4.1351882065
 20
2.9174189913
 11
4.1799496568
 21
2.9174189913
  0
LINE
  5
2C5
100
AcDbEntity
  8
0
100
AcDbLine
 62
7
  6
CONTINUOUS
 10
4.2882801569
 20
2.9174189913
 11
4.3912896724
 21
2.9174189913
  0
LINE
  5
2C6
100
AcDbEntity
  8
0
100
AcDbLine
 62
7
  6
CONTINUOUS
 10
4.5116149068
 20
2.9174189913
 11
4.6237226138
 21
2.9174189913
  0
LINE
  5
2C7
100
AcDbEntity
  8
0
100
AcDbLine
 62
7
  6
CONTINUOUS
 10
4.7320531139
 20
2.9174189913
 11
4.8514457418
 21
2.9174189913
  0
LINE
  5
2C8
100
AcDbEntity
  8
0
100
AcDbLine
 62
7
  6
CONTINUOUS
 10
4.9670962108
 20
2.9174189913
 11
5.0999496568
 21
2.9174189913
  0
LINE
  5
2C9
100
AcDbEntity
  8
0
100
AcDbLine
 62
7
  6
CONTINUOUS
 10
5.2082801569
 20
2.9174189913
 11
5.3411336029
 21
2.9174189913
  0
LINE
  5
2CA
100
AcDbEntity
  8
0
100
AcDbLine
 62
7
  6
CONTINUOUS
 10
5.4567840718
 20
2.9174189913
 11
5.5761766998
 21
2.9174189913
  0
LINE
  5
2CB
100
AcDbEntity
  8
0
100
AcDbLine
 62
7
  6
CONTINUOUS
 10
5.6845071999
 20
2.9174189913
 11
5.7966149068
 21
2.9174189913
  0
LINE
  5
2CC
100
AcDbEntity
  8
0
100
AcDbLine
 62
7
  6
CONTINUOUS
 10
5.9169401413
 20
2.9174189913
 11
6.0199496568
 21
2.9174189913
  0
LINE
  5
2CD
100
AcDbEntity
  8
0
100
AcDbLine
 62
7
  6
CONTINUOUS
 10
6.1282801569
 20
2.9174189913
 11
6.1730416072
 21
2.9174189913
  0
LINE
  5
2CE
100
AcDbEntity
  8
0
100
AcDbLine
 62
7
  6
CONTINUOUS
 10
6.2918227704
 20
2.9174189913
 11
6.4010261342
 21
2.9174189913
  0
LINE
  5
2CF
100
AcDbEntity
  8
0
100
AcDbLine
 62
7
  6
CONTINUOUS
 10
7.0501557681
 20
2.9236273491
 11
6.8753775659
 21
2.9236273491
  0
LINE
  5
2D0
100
AcDbEntity
  8
0
100
AcDbLine
 62
7
  6
CONTINUOUS
 10
6.8036425111
 20
2.9236273491
 11
6.6915607885
 21
2.9236273491
  0
LINE
  5
2D1
100
AcDbEntity
  8
0
100
AcDbLine
 62
7
  6
CONTINUOUS
 10
6.5112322455
 20
2.9236273491
 11
6.3991505229
 21
2.9236273491
  0
LINE
  5
2D2
100
AcDbEntity
  8
0
100
AcDbLine
 62
7
  6
CONTINUOUS
 10
6.1301557681
 20
2.9236273491
 11
6.0180740455
 21
2.9236273491
  0
LINE
  5
2D3
100
AcDbEntity
  8
0
100
AcDbLine
 62
7
  6
CONTINUOUS
 10
5.6863828111
 20
2.9236273491
 11
5.5743010885
 21
2.9236273491
  0
LINE
  5
2D4
100
AcDbEntity
  8
0
100
AcDbLine
 62
7
  6
CONTINUOUS
 10
5.2101557681
 20
2.9236273491
 11
5.0980740455
 21
2.9236273491
  0
LINE
  5
2D5
100
AcDbEntity
  8
0
100
AcDbLine
 62
7
  6
CONTINUOUS
 10
4.7339287252
 20
2.9236273491
 11
4.6218470025
 21
2.9236273491
  0
LINE
  5
2D6
100
AcDbEntity
  8
0
100
AcDbLine
 62
7
  6
CONTINUOUS
 10
4.2901557681
 20
2.9236273491
 11
4.1780740455
 21
2.9236273491
  0
LINE
  5
2D7
100
AcDbEntity
  8
0
100
AcDbLine
 62
7
  6
CONTINUOUS
 10
3.9090792908
 20
2.9236273491
 11
3.7969975681
 21
2.9236273491
  0
LINE
  5
2D8
100
AcDbEntity
  8
0
100
AcDbLine
 62
7
  6
CONTINUOUS
 10
3.6166690252
 20
2.9236273491
 11
3.5045873026
 21
2.9236273491
  0
LINE
  5
2D9
100
AcDbEntity
  8
0
100
AcDbLine
 62
7
  6
CONTINUOUS
 10
3.4328522478
 20
2.9236273491
 11
3.2580740455
 21
2.9236273491
  0
LINE
  5
2DA
100
AcDbEntity
  8
0
100
AcDbLine
 62
7
  6
CONTINUOUS
 10
6.6256265624
 20
2.9241659431
 11
6.5406700435
 21
2.9241659431
  0
LINE
  5
2DB
100
AcDbEntity
  8
0
100
AcDbLine
 62
7
  6
CONTINUOUS
 10
6.5330970584
 20
2.9241659431
 11
6.5112322455
 21
2.9241659431
  0
LINE
  5
2DC
100
AcDbEntity
  8
0
100
AcDbLine
 62
7
  6
CONTINUOUS
 10
6.3991505229
 20
2.9241659431
 11
6.2884745117
 21
2.9241659431
  0
LINE
  5
2DD
100
AcDbEntity
  8
0
100
AcDbLine
 62
7
  6
CONTINUOUS
 10
6.2742419553
 20
2.9241659431
 11
6.1301557681
 21
2.9241659431
  0
LINE
  5
2DE
100
AcDbEntity
  8
0
100
AcDbLine
 62
7
  6
CONTINUOUS
 10
6.0180740455
 20
2.9241659431
 11
5.8994584703
 21
2.9241659431
  0
LINE
  5
2DF
100
AcDbEntity
  8
0
100
AcDbLine
 62
7
  6
CONTINUOUS
 10
5.8802829989
 20
2.9241659431
 11
5.6863828111
 21
2.9241659431
  0
LINE
  5
2E0
100
AcDbEntity
  8
0
100
AcDbLine
 62
7
  6
CONTINUOUS
 10
5.5743010885
 20
2.9241659431
 11
5.420542995
 21
2.9241659431
  0
LINE
  5
2E1
100
AcDbEntity
  8
0
100
AcDbLine
 62
7
  6
CONTINUOUS
 10
5.3987374535
 20
2.9241659431
 11
5.2101557681
 21
2.9241659431
  0
LINE
  5
2E2
100
AcDbEntity
  8
0
100
AcDbLine
 62
7
  6
CONTINUOUS
 10
5.0980740455
 20
2.9241659431
 11
4.9094923602
 21
2.9241659431
  0
LINE
  5
2E3
100
AcDbEntity
  8
0
100
AcDbLine
 62
7
  6
CONTINUOUS
 10
4.8876868187
 20
2.9241659431
 11
4.7339287252
 21
2.9241659431
  0
LINE
  5
2E4
100
AcDbEntity
  8
0
100
AcDbLine
 62
7
  6
CONTINUOUS
 10
4.6218470025
 20
2.9241659431
 11
4.4279468147
 21
2.9241659431
  0
LINE
  5
2E5
100
AcDbEntity
  8
0
100
AcDbLine
 62
7
  6
CONTINUOUS
 10
4.4087713434
 20
2.9241659431
 11
4.2901557681
 21
2.9241659431
  0
LINE
  5
2E6
100
AcDbEntity
  8
0
100
AcDbLine
 62
7
  6
CONTINUOUS
 10
4.1780740455
 20
2.9241659431
 11
4.0339878583
 21
2.9241659431
  0
LINE
  5
2E7
100
AcDbEntity
  8
0
100
AcDbLine
 62
7
  6
CONTINUOUS
 10
4.0197553019
 20
2.9241659431
 11
3.9090792908
 21
2.9241659431
  0
LINE
  5
2E8
100
AcDbEntity
  8
0
100
AcDbLine
 62
7
  6
CONTINUOUS
 10
3.7969975681
 20
2.9241659431
 11
3.7751327553
 21
2.9241659431
  0
LINE
  5
2E9
100
AcDbEntity
  8
0
100
AcDbLine
 62
7
  6
CONTINUOUS
 10
3.7675597702
 20
2.9241659431
 11
3.6826032513
 21
2.9241659431
  0
LINE
  5
2EA
100
AcDbEntity
  8
0
100
AcDbLine
 62
7
  6
CONTINUOUS
 10
3.4440917208
 20
2.9423181781
 11
3.5031854904
 21
2.9423181781
  0
LINE
  5
2EB
100
AcDbEntity
  8
0
100
AcDbLine
 62
7
  6
CONTINUOUS
 10
3.6180708373
 20
2.9423181781
 11
3.795595756
 21
2.9423181781
  0
LINE
  5
2EC
100
AcDbEntity
  8
0
100
AcDbLine
 62
7
  6
CONTINUOUS
 10
3.9104811029
 20
2.9423181781
 11
4.1766722334
 21
2.9423181781
  0
LINE
  5
2ED
100
AcDbEntity
  8
0
100
AcDbLine
 62
7
  6
CONTINUOUS
 10
4.2915575803
 20
2.9423181781
 11
4.6204451904
 21
2.9423181781
  0
LINE
  5
2EE
100
AcDbEntity
  8
0
100
AcDbLine
 62
7
  6
CONTINUOUS
 10
4.7353305373
 20
2.9423181781
 11
5.0966722334
 21
2.9423181781
  0
LINE
  5
2EF
100
AcDbEntity
  8
0
100
AcDbLine
 62
7
  6
CONTINUOUS
 10
5.2115575803
 20
2.9423181781
 11
5.5728992763
 21
2.9423181781
  0
LINE
  5
2F0
100
AcDbEntity
  8
0
100
AcDbLine
 62
7
  6
CONTINUOUS
 10
5.6877846233
 20
2.9423181781
 11
6.0166722334
 21
2.9423181781
  0
LINE
  5
2F1
100
AcDbEntity
  8
0
100
AcDbLine
 62
7
  6
CONTINUOUS
 10
6.1315575803
 20
2.9423181781
 11
6.3977487107
 21
2.9423181781
  0
LINE
  5
2F2
100
AcDbEntity
  8
0
100
AcDbLine
 62
7
  6
CONTINUOUS
 10
6.5126340577
 20
2.9423181781
 11
6.6901589763
 21
2.9423181781
  0
LINE
  5
2F3
100
AcDbEntity
  8
0
100
AcDbLine
 62
7
  6
CONTINUOUS
 10
6.8050443233
 20
2.9423181781
 11
6.8641380929
 21
2.9423181781
  0
LINE
  5
2F4
100
AcDbEntity
  8
0
100
AcDbLine
 62
7
  6
CONTINUOUS
 10
7.4651977785
 20
2.9447491984
 11
7.3334270888
 21
2.9447491984
  0
LINE
  5
2F5
100
AcDbEntity
  8
0
100
AcDbLine
 62
7
  6
CONTINUOUS
 10
7.2689459673
 20
2.9447491984
 11
7.186780224
 21
2.9447491984
  0
LINE
  5
2F6
100
AcDbEntity
  8
0
100
AcDbLine
 62
7
  6
CONTINUOUS
 10
7.0316663557
 20
2.9447491984
 11
6.9495006124
 21
2.9447491984
  0
LINE
  5
2F7
100
AcDbEntity
  8
0
100
AcDbLine
 62
7
  6
CONTINUOUS
 10
6.7141242549
 20
2.9447491984
 11
6.6319585116
 21
2.9447491984
  0
LINE
  5
2F8
100
AcDbEntity
  8
0
100
AcDbLine
 62
7
  6
CONTINUOUS
 10
6.3301977785
 20
2.9447491984
 11
6.2480320352
 21
2.9447491984
  0
LINE
  5
2F9
100
AcDbEntity
  8
0
100
AcDbLine
 62
7
  6
CONTINUOUS
 10
5.8966663557
 20
2.9447491984
 11
5.8145006124
 21
2.9447491984
  0
LINE
  5
2FA
100
AcDbEntity
  8
0
100
AcDbLine
 62
7
  6
CONTINUOUS
 10
5.4324773901
 20
2.9447491984
 11
5.3503116468
 21
2.9447491984
  0
LINE
  5
2FB
100
AcDbEntity
  8
0
100
AcDbLine
 62
7
  6
CONTINUOUS
 10
4.9579181669
 20
2.9447491984
 11
4.8757524236
 21
2.9447491984
  0
LINE
  5
2FC
100
AcDbEntity
  8
0
100
AcDbLine
 62
7
  6
CONTINUOUS
 10
4.4937292013
 20
2.9447491984
 11
4.4115634579
 21
2.9447491984
  0
LINE
  5
2FD
100
AcDbEntity
  8
0
100
AcDbLine
 62
7
  6
CONTINUOUS
 10
4.0601977785
 20
2.9447491984
 11
3.9780320352
 21
2.9447491984
  0
LINE
  5
2FE
100
AcDbEntity
  8
0
100
AcDbLine
 62
7
  6
CONTINUOUS
 10
3.6762713021
 20
2.9447491984
 11
3.5941055587
 21
2.9447491984
  0
LINE
  5
2FF
100
AcDbEntity
  8
0
100
AcDbLine
 62
7
  6
CONTINUOUS
 10
3.3587292013
 20
2.9447491984
 11
3.2765634579
 21
2.9447491984
  0
LINE
  5
300
100
AcDbEntity
  8
0
100
AcDbLine
 62
7
  6
CONTINUOUS
 10
3.1214495896
 20
2.9447491984
 11
3.0392838463
 21
2.9447491984
  0
LINE
  5
301
100
AcDbEntity
  8
0
100
AcDbLine
 62
7
  6
CONTINUOUS
 10
2.9748027248
 20
2.9447491984
 11
2.8430320352
 21
2.9447491984
  0
LINE
  5
302
100
AcDbEntity
  8
0
100
AcDbLine
 62
7
  6
CONTINUOUS
 10
3.4385345103
 20
2.9449921885
 11
3.5029849396
 21
2.9449921885
  0
LINE
  5
303
100
AcDbEntity
  8
0
100
AcDbLine
 62
7
  6
CONTINUOUS
 10
3.678906783
 20
2.9449921885
 11
3.7953952052
 21
2.9449921885
  0
LINE
  5
304
100
AcDbEntity
  8
0
100
AcDbLine
 62
7
  6
CONTINUOUS
 10
3.9155384294
 20
2.9449921885
 11
3.9753965543
 21
2.9449921885
  0
LINE
  5
305
100
AcDbEntity
  8
0
100
AcDbLine
 62
7
  6
CONTINUOUS
 10
4.0628332594
 20
2.9449921885
 11
4.1764716826
 21
2.9449921885
  0
LINE
  5
306
100
AcDbEntity
  8
0
100
AcDbLine
 62
7
  6
CONTINUOUS
 10
4.2966149068
 20
2.9449921885
 11
4.4082575908
 21
2.9449921885
  0
LINE
  5
307
100
AcDbEntity
  8
0
100
AcDbLine
 62
7
  6
CONTINUOUS
 10
4.4963646822
 20
2.9449921885
 11
4.6202446396
 21
2.9449921885
  0
LINE
  5
308
100
AcDbEntity
  8
0
100
AcDbLine
 62
7
  6
CONTINUOUS
 10
4.7355310881
 20
2.9449921885
 11
4.8731169426
 21
2.9449921885
  0
LINE
  5
309
100
AcDbEntity
  8
0
100
AcDbLine
 62
7
  6
CONTINUOUS
 10
4.9605536478
 20
2.9449921885
 11
5.0964716826
 21
2.9449921885
  0
LINE
  5
30A
100
AcDbEntity
  8
0
100
AcDbLine
 62
7
  6
CONTINUOUS
 10
5.2117581311
 20
2.9449921885
 11
5.3476761659
 21
2.9449921885
  0
LINE
  5
30B
100
AcDbEntity
  8
0
100
AcDbLine
 62
7
  6
CONTINUOUS
 10
5.435112871
 20
2.9449921885
 11
5.5726987256
 21
2.9449921885
  0
LINE
  5
30C
100
AcDbEntity
  8
0
100
AcDbLine
 62
7
  6
CONTINUOUS
 10
5.6879851741
 20
2.9449921885
 11
5.8118651315
 21
2.9449921885
  0
LINE
  5
30D
100
AcDbEntity
  8
0
100
AcDbLine
 62
7
  6
CONTINUOUS
 10
5.8999717828
 20
2.9449921885
 11
6.0116149068
 21
2.9449921885
  0
LINE
  5
30E
100
AcDbEntity
  8
0
100
AcDbLine
 62
7
  6
CONTINUOUS
 10
6.1317581311
 20
2.9449921885
 11
6.2453965543
 21
2.9449921885
  0
LINE
  5
30F
100
AcDbEntity
  8
0
100
AcDbLine
 62
7
  6
CONTINUOUS
 10
6.3328332594
 20
2.9449921885
 11
6.3926913842
 21
2.9449921885
  0
LINE
  5
310
100
AcDbEntity
  8
0
100
AcDbLine
 62
7
  6
CONTINUOUS
 10
6.5128346085
 20
2.9449921885
 11
6.6293230307
 21
2.9449921885
  0
LINE
  5
311
100
AcDbEntity
  8
0
100
AcDbLine
 62
7
  6
CONTINUOUS
 10
6.8052448741
 20
2.9449921885
 11
6.8696953033
 21
2.9449921885
  0
LINE
  5
312
100
AcDbEntity
  8
0
100
AcDbLine
 62
7
  6
CONTINUOUS
 10
7.0537664255
 20
2.9538202862
 11
7.0454355524
 21
2.9538202862
  0
LINE
  5
313
100
AcDbEntity
  8
0
100
AcDbLine
 62
7
  6
CONTINUOUS
 10
6.9357314158
 20
2.9538202862
 11
6.80858804
 21
2.9538202862
  0
LINE
  5
314
100
AcDbEntity
  8
0
100
AcDbLine
 62
7
  6
CONTINUOUS
 10
6.7899347206
 20
2.9538202862
 11
6.7278934516
 21
2.9538202862
  0
LINE
  5
315
100
AcDbEntity
  8
0
100
AcDbLine
 62
7
  6
CONTINUOUS
 10
6.618189315
 20
2.9538202862
 11
6.5105612662
 21
2.9538202862
  0
LINE
  5
316
100
AcDbEntity
  8
0
100
AcDbLine
 62
7
  6
CONTINUOUS
 10
6.4841814889
 20
2.9538202862
 11
6.3439669751
 21
2.9538202862
  0
LINE
  5
317
100
AcDbEntity
  8
0
100
AcDbLine
 62
7
  6
CONTINUOUS
 10
6.2342628385
 20
2.9538202862
 11
6.1200949146
 21
2.9538202862
  0
LINE
  5
318
100
AcDbEntity
  8
0
100
AcDbLine
 62
7
  6
CONTINUOUS
 10
6.0877864177
 20
2.9538202862
 11
5.9104355524
 21
2.9538202862
  0
LINE
  5
319
100
AcDbEntity
  8
0
100
AcDbLine
 62
7
  6
CONTINUOUS
 10
5.8007314158
 20
2.9538202862
 11
5.6637986218
 21
2.9538202862
  0
LINE
  5
31A
100
AcDbEntity
  8
0
100
AcDbLine
 62
7
  6
CONTINUOUS
 10
5.627763176
 20
2.9538202862
 11
5.4462465867
 21
2.9538202862
  0
LINE
  5
31B
100
AcDbEntity
  8
0
100
AcDbLine
 62
7
  6
CONTINUOUS
 10
5.3365424502
 20
2.9538202862
 11
5.1727682262
 21
2.9538202862
  0
LINE
  5
31C
100
AcDbEntity
  8
0
100
AcDbLine
 62
7
  6
CONTINUOUS
 10
5.1354615875
 20
2.9538202862
 11
4.9716873635
 21
2.9538202862
  0
LINE
  5
31D
100
AcDbEntity
  8
0
100
AcDbLine
 62
7
  6
CONTINUOUS
 10
4.8619832269
 20
2.9538202862
 11
4.6804666377
 21
2.9538202862
  0
LINE
  5
31E
100
AcDbEntity
  8
0
100
AcDbLine
 62
7
  6
CONTINUOUS
 10
4.6444311918
 20
2.9538202862
 11
4.5074983979
 21
2.9538202862
  0
LINE
  5
31F
100
AcDbEntity
  8
0
100
AcDbLine
 62
7
  6
CONTINUOUS
 10
4.3977942613
 20
2.9538202862
 11
4.2204433959
 21
2.9538202862
  0
LINE
  5
320
100
AcDbEntity
  8
0
100
AcDbLine
 62
7
  6
CONTINUOUS
 10
4.1881348991
 20
2.9538202862
 11
4.0739669751
 21
2.9538202862
  0
LINE
  5
321
100
AcDbEntity
  8
0
100
AcDbLine
 62
7
  6
CONTINUOUS
 10
3.9642628385
 20
2.9538202862
 11
3.8240483247
 21
2.9538202862
  0
LINE
  5
322
100
AcDbEntity
  8
0
100
AcDbLine
 62
7
  6
CONTINUOUS
 10
3.7976685475
 20
2.9538202862
 11
3.6900404987
 21
2.9538202862
  0
LINE
  5
323
100
AcDbEntity
  8
0
100
AcDbLine
 62
7
  6
CONTINUOUS
 10
3.5803363621
 20
2.9538202862
 11
3.518295093
 21
2.9538202862
  0
LINE
  5
324
100
AcDbEntity
  8
0
100
AcDbLine
 62
7
  6
CONTINUOUS
 10
3.4996417737
 20
2.9538202862
 11
3.3724983979
 21
2.9538202862
  0
LINE
  5
325
100
AcDbEntity
  8
0
100
AcDbLine
 62
7
  6
CONTINUOUS
 10
3.2627942613
 20
2.9538202862
 11
3.2544633882
 21
2.9538202862
  0
LINE
  5
326
100
AcDbEntity
  8
0
100
AcDbLine
 62
7
  6
CONTINUOUS
 10
7.4801557681
 20
2.9586273491
 11
7.3184690992
 21
2.9586273491
  0
LINE
  5
327
100
AcDbEntity
  8
0
100
AcDbLine
 62
7
  6
CONTINUOUS
 10
7.283903957
 20
2.9586273491
 11
7.1718222344
 21
2.9586273491
  0
LINE
  5
328
100
AcDbEntity
  8
0
100
AcDbLine
 62
7
  6
CONTINUOUS
 10
7.0466243454
 20
2.9586273491
 11
6.9345426228
 21
2.9586273491
  0
LINE
  5
329
100
AcDbEntity
  8
0
100
AcDbLine
 62
7
  6
CONTINUOUS
 10
6.7290822446
 20
2.9586273491
 11
6.617000522
 21
2.9586273491
  0
LINE
  5
32A
100
AcDbEntity
  8
0
100
AcDbLine
 62
7
  6
CONTINUOUS
 10
6.3451557681
 20
2.9586273491
 11
6.2330740455
 21
2.9586273491
  0
LINE
  5
32B
100
AcDbEntity
  8
0
100
AcDbLine
 62
7
  6
CONTINUOUS
 10
5.9116243454
 20
2.9586273491
 11
5.7995426228
 21
2.9586273491
  0
LINE
  5
32C
100
AcDbEntity
  8
0
100
AcDbLine
 62
7
  6
CONTINUOUS
 10
5.4474353798
 20
2.9586273491
 11
5.3353536571
 21
2.9586273491
  0
LINE
  5
32D
100
AcDbEntity
  8
0
100
AcDbLine
 62
7
  6
CONTINUOUS
 10
4.9728761565
 20
2.9586273491
 11
4.8607944339
 21
2.9586273491
  0
LINE
  5
32E
100
AcDbEntity
  8
0
100
AcDbLine
 62
7
  6
CONTINUOUS
 10
4.5086871909
 20
2.9586273491
 11
4.3966054683
 21
2.9586273491
  0
LINE
  5
32F
100
AcDbEntity
  8
0
100
AcDbLine
 62
7
  6
CONTINUOUS
 10
4.0751557681
 20
2.9586273491
 11
3.9630740455
 21
2.9586273491
  0
LINE
  5
330
100
AcDbEntity
  8
0
100
AcDbLine
 62
7
  6
CONTINUOUS
 10
3.6912292917
 20
2.9586273491
 11
3.5791475691
 21
2.9586273491
  0
LINE
  5
331
100
AcDbEntity
  8
0
100
AcDbLine
 62
7
  6
CONTINUOUS
 10
3.3736871909
 20
2.9586273491
 11
3.2616054683
 21
2.9586273491
  0
LINE
  5
332
100
AcDbEntity
  8
0
100
AcDbLine
 62
7
  6
CONTINUOUS
 10
3.1364075793
 20
2.9586273491
 11
3.0243258567
 21
2.9586273491
  0
LINE
  5
333
100
AcDbEntity
  8
0
100
AcDbLine
 62
7
  6
CONTINUOUS
 10
2.9897607145
 20
2.9586273491
 11
2.8280740455
 21
2.9586273491
  0
LINE
  5
334
100
AcDbEntity
  8
0
100
AcDbLine
 62
7
  6
CONTINUOUS
 10
8.2041149068
 20
2.9697491984
 11
2.1041149068
 21
2.9697491984
  0
LINE
  5
335
100
AcDbEntity
  8
0
100
AcDbLine
 62
7
  6
CONTINUOUS
 10
2.0541149068
 20
3.0197491984
 11
8.2541149068
 21
3.0197491984
  0
LINE
  5
336
100
AcDbEntity
  8
02___PRT_ALL_AXES
100
AcDbLine
 62
7
  6
CONTINUOUS
 10
2.0541149068
 20
3.0897491984
 11
8.2541149068
 21
3.0897491984
  0
LINE
  5
337
100
AcDbEntity
  8
0
100
AcDbLine
 62
7
  6
CONTINUOUS
 10
3.9622399068
 20
2.9697491984
 11
3.9630740455
 21
2.9586273491
  0
LINE
  5
338
100
AcDbEntity
  8
0
100
AcDbLine
 62
7
  6
CONTINUOUS
 10
4.0156968467
 20
2.9236878033
 11
4.0179513807
 21
2.8936273491
  0
LINE
  5
339
100
AcDbEntity
  8
0
100
AcDbLine
 62
7
  6
CONTINUOUS
 10
4.1172281948
 20
2.8799053592
 11
4.1180740455
 21
2.8686273491
  0
LINE
  5
33A
100
AcDbEntity
  8
0
100
AcDbLine
 62
7
  6
CONTINUOUS
 10
3.6920634304
 20
2.9697491984
 11
3.6912292917
 21
2.9586273491
  0
LINE
  5
33B
100
AcDbEntity
  8
0
100
AcDbLine
 62
7
  6
CONTINUOUS
 10
3.8863983115
 20
2.9097491984
 11
3.8851891728
 21
2.8936273491
  0
LINE
  5
33C
100
AcDbEntity
  8
02___PRT_ALL_AXES
100
AcDbLine
 62
7
  6
CONTINUOUS
 10
2.1141422239
 20
3.1667491984
 11
8.1940875898
 21
3.1667491984
  0
LINE
  5
33D
100
AcDbEntity
  8
02___PRT_ALL_AXES
100
AcDbLine
 62
7
  6
CONTINUOUS
 10
2.2141149068
 20
3.2107491984
 11
8.0941149068
 21
3.2107491984
  0
LINE
  5
33E
100
AcDbEntity
  8
0
100
AcDbLine
 62
7
  6
CONTINUOUS
 10
4.1759464895
 20
2.9519947632
 11
4.1780740455
 21
2.9236273491
  0
LINE
  5
33F
100
AcDbEntity
  8
0
100
AcDbLine
 62
7
  6
CONTINUOUS
 10
4.2468668681
 20
2.9019911056
 11
4.2493691498
 21
2.8686273491
  0
LINE
  5
340
100
AcDbEntity
  8
0
100
AcDbLine
 62
7
  6
CONTINUOUS
 10
3.9107815592
 20
2.9463242619
 11
3.9090792908
 21
2.9236273491
  0
LINE
  5
341
100
AcDbEntity
  8
0
100
AcDbLine
 62
7
  6
CONTINUOUS
 10
4.0759899068
 20
2.9697491984
 11
4.0751557681
 21
2.9586273491
  0
LINE
  5
342
100
AcDbEntity
  8
02___PRT_ALL_AXES
100
AcDbLine
 62
7
  6
CONTINUOUS
 10
2.4316149068
 20
3.5197491984
 11
7.8766149068
 21
3.5197491984
  0
LINE
  5
343
100
AcDbEntity
  8
0
100
AcDbLine
 62
7
  6
CONTINUOUS
 10
4.3908911143
 20
2.9227330988
 11
4.3930740455
 21
2.8936273491
  0
LINE
  5
344
100
AcDbEntity
  8
0
100
AcDbLine
 62
7
  6
CONTINUOUS
 10
4.3957713296
 20
2.9697491984
 11
4.3966054683
 21
2.9586273491
  0
LINE
  5
345
100
AcDbEntity
  8
0
100
AcDbLine
 62
7
  6
CONTINUOUS
 10
4.5459204696
 20
2.8873416948
 11
4.5480740455
 21
2.8586273491
  0
LINE
  5
346
100
AcDbEntity
  8
ALL_FEATURES
100
AcDbLine
 62
7
  6
CONTINUOUS
 10
4.4441149068
 20
4.7297491984
 11
4.4441149068
 21
4.7783868823
  0
LINE
  5
347
100
AcDbEntity
  8
ALL_FEATURES
100
AcDbLine
 62
7
  6
CONTINUOUS
 10
4.4441149068
 20
5.0851115145
 11
4.4441149068
 21
5.1297491984
  0
LINE
  5
348
100
AcDbEntity
  8
0
100
AcDbLine
 62
7
  6
CONTINUOUS
 10
4.1318748584
 20
2.9181840838
 11
4.1300331033
 21
2.8936273491
  0
LINE
  5
349
100
AcDbEntity
  8
0
100
AcDbLine
 62
7
  6
CONTINUOUS
 10
4.2322982028
 20
2.8971931443
 11
4.2301557681
 21
2.8686273491
  0
LINE
  5
34A
100
AcDbEntity
  8
0
100
AcDbLine
 62
7
  6
CONTINUOUS
 10
4.2920320139
 20
2.9486439595
 11
4.2901557681
 21
2.9236273491
  0
LINE
  5
34B
100
AcDbEntity
  8
0
100
AcDbLine
 62
7
  6
CONTINUOUS
 10
4.6056404339
 20
2.9010755044
 11
4.6080740455
 21
2.8686273491
  0
LINE
  5
34C
100
AcDbEntity
  8
0
100
AcDbLine
 62
7
  6
CONTINUOUS
 10
4.619710737
 20
2.9521108892
 11
4.6218470025
 21
2.9236273491
  0
LINE
  5
34D
100
AcDbEntity
  8
0
100
AcDbLine
 62
7
  6
CONTINUOUS
 10
4.8209417741
 20
2.8870576345
 11
4.8230740455
 21
2.8586273491
  0
LINE
  5
34E
100
AcDbEntity
  8
0
100
AcDbLine
 62
7
  6
CONTINUOUS
 10
4.6041149068
 20
5.7010194352
 11
4.6041149068
 21
5.790949445
  0
LINE
  5
34F
100
AcDbEntity
  8
0
100
AcDbLine
 62
7
  6
CONTINUOUS
 10
4.6041149068
 20
6.0410194352
 11
4.6041149068
 21
6.1310194352
  0
LINE
  5
350
100
AcDbEntity
  8
0
100
AcDbLine
 62
7
  6
CONTINUOUS
 10
4.6227241608
 20
5.0454010791
 11
4.6227241608
 21
4.8180973176
  0
LINE
  5
351
100
AcDbEntity
  8
0
100
AcDbLine
 62
7
  6
CONTINUOUS
 10
4.6773683538
 20
4.8180973176
 11
4.6773683538
 21
5.0454010791
  0
LINE
  5
352
100
AcDbEntity
  8
ALL_FEATURES
100
AcDbLine
 62
7
  6
CONTINUOUS
 10
4.7166149068
 20
5.6810194352
 11
4.7166149068
 21
5.5088915849
  0
LINE
  5
353
100
AcDbEntity
  8
0
100
AcDbLine
 62
7
  6
CONTINUOUS
 10
4.3636313148
 20
2.8976999138
 11
4.3614508724
 21
2.8686273491
  0
LINE
  5
354
100
AcDbEntity
  8
0
100
AcDbLine
 62
7
  6
CONTINUOUS
 10
4.5095213296
 20
2.9697491984
 11
4.5086871909
 21
2.9586273491
  0
LINE
  5
355
100
AcDbEntity
  8
0
100
AcDbLine
 62
7
  6
CONTINUOUS
 10
4.5070691016
 20
2.919138462
 11
4.5051557681
 21
2.8936273491
  0
LINE
  5
356
100
AcDbEntity
  8
0
100
AcDbLine
 62
7
  6
CONTINUOUS
 10
2.4459611989
 20
3.9960460958
 11
7.8622686147
 21
3.9960460958
  0
LINE
  5
357
100
AcDbEntity
  8
0
100
AcDbLine
 62
7
  6
CONTINUOUS
 10
2.466514075
 20
4.0236211039
 11
7.8417157387
 21
4.0236211039
  0
LINE
  5
358
100
AcDbEntity
  8
0
100
AcDbLine
 62
7
  6
CONTINUOUS
 10
4.851135244
 20
2.9215589621
 11
4.853230115
 21
2.8936273491
  0
LINE
  5
359
100
AcDbEntity
  8
0
100
AcDbLine
 62
7
  6
CONTINUOUS
 10
4.8599602952
 20
2.9697491984
 11
4.8607944339
 21
2.9586273491
  0
LINE
  5
35A
100
AcDbEntity
  8
0
100
AcDbLine
 62
7
  6
CONTINUOUS
 10
4.7366038767
 20
4.8180973176
 11
4.7366038767
 21
5.0454010791
  0
LINE
  5
35B
100
AcDbEntity
  8
0
100
AcDbLine
 62
7
  6
CONTINUOUS
 10
4.7998602591
 20
4.8180973176
 11
4.7998602591
 21
5.0454010791
  0
LINE
  5
35C
100
AcDbEntity
  8
0
100
AcDbLine
 62
7
  6
CONTINUOUS
 10
4.8665283074
 20
4.8180973176
 11
4.8665283074
 21
5.0454010791
  0
LINE
  5
35D
100
AcDbEntity
  8
0
100
AcDbLine
 62
7
  6
CONTINUOUS
 10
4.9359659719
 20
4.8180973176
 11
4.9359659719
 21
5.0454010791
  0
LINE
  5
35E
100
AcDbEntity
  8
0
100
AcDbLine
 62
7
  6
CONTINUOUS
 10
4.7224021418
 20
2.8985789975
 11
4.7201557681
 21
2.8686273491
  0
LINE
  5
35F
100
AcDbEntity
  8
0
100
AcDbLine
 62
7
  6
CONTINUOUS
 10
4.7358963578
 20
2.9498624513
 11
4.7339287252
 21
2.9236273491
  0
LINE
  5
360
100
AcDbEntity
  8
ALL_FEATURES
100
AcDbLine
 62
7
  6
CONTINUOUS
 10
5.5365509817
 20
5.37595551
 11
5.5244112571
 21
5.3638157854
  0
LINE
  5
361
100
AcDbEntity
  8
0
100
AcDbLine
 62
7
  6
CONTINUOUS
 10
2.6379045852
 20
4.1611312118
 11
7.6703252285
 21
4.1611312118
  0
LINE
  5
362
100
AcDbEntity
  8
0
100
AcDbLine
 62
7
  6
CONTINUOUS
 10
2.6636610147
 20
4.1757491984
 11
7.6445687963
 21
4.1757491984
  0
LINE
  5
363
100
AcDbEntity
  8
0
100
AcDbLine
 62
7
  6
CONTINUOUS
 10
7.5691149068
 20
4.2057491984
 11
2.7391149068
 21
4.2057491984
  0
LINE
  5
364
100
AcDbEntity
  8
0
100
AcDbLine
 62
7
  6
CONTINUOUS
 10
2.7391149068
 20
4.2264709298
 11
7.5691149068
 21
4.2264709298
  0
LINE
  5
365
100
AcDbEntity
  8
0
100
AcDbLine
 62
7
  6
CONTINUOUS
 10
2.7672394567
 20
4.2564122505
 11
7.5409903569
 21
4.2564122505
  0
LINE
  5
366
100
AcDbEntity
  8
0
100
AcDbLine
 62
7
  6
CONTINUOUS
 10
5.0957340357
 20
2.8998274804
 11
5.0980740455
 21
2.8686273491
  0
LINE
  5
367
100
AcDbEntity
  8
0
100
AcDbLine
 62
7
  6
CONTINUOUS
 10
5.0960184543
 20
2.9510352322
 11
5.0980740455
 21
2.9236273491
  0
LINE
  5
368
100
AcDbEntity
  8
0
100
AcDbLine
 62
7
  6
CONTINUOUS
 10
5.0075045298
 20
4.8180973176
 11
5.0075045298
 21
5.0454010791
  0
LINE
  5
369
100
AcDbEntity
  8
0
100
AcDbLine
 62
7
  6
CONTINUOUS
 10
5.0804550259
 20
4.8180973176
 11
5.0804550259
 21
5.0454010791
  0
LINE
  5
36A
100
AcDbEntity
  8
0
100
AcDbLine
 62
7
  6
CONTINUOUS
 10
5.1541149068
 20
4.8180973176
 11
5.1541149068
 21
5.0454010791
  0
LINE
  5
36B
100
AcDbEntity
  8
0
100
AcDbLine
 62
7
  6
CONTINUOUS
 10
4.9367399068
 20
2.8797491984
 11
4.9351557681
 21
2.8586273491
  0
LINE
  5
36C
100
AcDbEntity
  8
0
100
AcDbLine
 62
7
  6
CONTINUOUS
 10
4.9673131979
 20
2.9203121528
 11
4.9653118376
 21
2.8936273491
  0
LINE
  5
36D
100
AcDbEntity
  8
0
100
AcDbLine
 62
7
  6
CONTINUOUS
 10
4.9737102952
 20
2.9697491984
 11
4.9728761565
 21
2.9586273491
  0
LINE
  5
36E
100
AcDbEntity
  8
0
100
AcDbLine
 62
7
  6
CONTINUOUS
 10
5.3345195184
 20
2.9697491984
 11
5.3353536571
 21
2.9586273491
  0
LINE
  5
36F
100
AcDbEntity
  8
0
100
AcDbLine
 62
7
  6
CONTINUOUS
 10
5.340916708
 20
2.9203109235
 11
5.342917976
 21
2.8936273491
  0
LINE
  5
370
100
AcDbEntity
  8
0
100
AcDbLine
 62
7
  6
CONTINUOUS
 10
5.3714899068
 20
2.8797491984
 11
5.3730740455
 21
2.8586273491
  0
LINE
  5
371
100
AcDbEntity
  8
0
100
AcDbLine
 62
7
  6
CONTINUOUS
 10
5.2277747878
 20
4.8180973176
 11
5.2277747878
 21
5.0454010791
  0
LINE
  5
372
100
AcDbEntity
  8
0
100
AcDbLine
 62
7
  6
CONTINUOUS
 10
5.3007252838
 20
4.8180973176
 11
5.3007252838
 21
5.0454010791
  0
LINE
  5
373
100
AcDbEntity
  8
0
100
AcDbLine
 62
7
  6
CONTINUOUS
 10
5.3722638418
 20
4.8180973176
 11
5.3722638418
 21
5.0454010791
  0
LINE
  5
374
100
AcDbEntity
  8
0
100
AcDbLine
 62
7
  6
CONTINUOUS
 10
5.2122118485
 20
2.951041754
 11
5.2101557681
 21
2.9236273491
  0
LINE
  5
375
100
AcDbEntity
  8
0
100
AcDbLine
 62
7
  6
CONTINUOUS
 10
5.2124957287
 20
2.8998268231
 11
5.2101557681
 21
2.8686273491
  0
LINE
  5
376
100
AcDbEntity
  8
0
100
AcDbLine
 62
7
  6
CONTINUOUS
 10
4.3984722486
 20
4.7152824338
 11
5.9097575651
 21
4.7152824338
  0
LINE
  5
377
100
AcDbEntity
  8
0
100
AcDbLine
 62
7
  6
CONTINUOUS
 10
4.4441206902
 20
4.7297491984
 11
5.8641091234
 21
4.7297491984
  0
LINE
  5
378
100
AcDbEntity
  8
0
100
AcDbLine
 62
7
  6
CONTINUOUS
 10
5.5723335475
 20
2.9498612291
 11
5.5743010885
 21
2.9236273491
  0
LINE
  5
379
100
AcDbEntity
  8
0
100
AcDbLine
 62
7
  6
CONTINUOUS
 10
5.5858276744
 20
2.8985789645
 11
5.5880740455
 21
2.8686273491
  0
LINE
  5
37A
100
AcDbEntity
  8
0
100
AcDbLine
 62
7
  6
CONTINUOUS
 10
5.4417015063
 20
4.8180973176
 11
5.4417015063
 21
5.0454010791
  0
LINE
  5
37B
100
AcDbEntity
  8
0
100
AcDbLine
 62
7
  6
CONTINUOUS
 10
5.5083695546
 20
4.8180973176
 11
5.5083695546
 21
5.0454010791
  0
LINE
  5
37C
100
AcDbEntity
  8
0
100
AcDbLine
 62
7
  6
CONTINUOUS
 10
5.5716259369
 20
4.8180973176
 11
5.5716259369
 21
5.0454010791
  0
LINE
  5
37D
100
AcDbEntity
  8
ALL_FEATURES
100
AcDbLine
 62
7
  6
CONTINUOUS
 10
5.5916149068
 20
5.6810194352
 11
5.5916149068
 21
5.5088915849
  0
LINE
  5
37E
100
AcDbEntity
  8
0
100
AcDbLine
 62
7
  6
CONTINUOUS
 10
5.6308614599
 20
4.8180973176
 11
5.6308614599
 21
5.0454010791
  0
LINE
  5
37F
100
AcDbEntity
  8
0
100
AcDbLine
 62
7
  6
CONTINUOUS
 10
5.4482695184
 20
2.9697491984
 11
5.4474353798
 21
2.9586273491
  0
LINE
  5
380
100
AcDbEntity
  8
0
100
AcDbLine
 62
7
  6
CONTINUOUS
 10
5.4570946209
 20
2.9215596458
 11
5.4549996987
 21
2.8936273491
  0
LINE
  5
381
100
AcDbEntity
  8
0
100
AcDbLine
 62
7
  6
CONTINUOUS
 10
5.4872880322
 20
2.8870575369
 11
5.4851557681
 21
2.8586273491
  0
LINE
  5
382
100
AcDbEntity
  8
0
100
AcDbLine
 62
7
  6
CONTINUOUS
 10
4.4441149068
 20
4.7783868823
 11
5.8641149068
 21
4.7783868823
  0
LINE
  5
383
100
AcDbEntity
  8
ALL_FEATURES
100
AcDbLine
 62
7
  6
CONTINUOUS
 10
4.771678832
 20
5.37595551
 11
4.7838185566
 21
5.3638157854
  0
LINE
  5
384
100
AcDbEntity
  8
0
100
AcDbLine
 62
7
  6
CONTINUOUS
 10
5.8011607329
 20
2.9191381835
 11
5.8030740455
 21
2.8936273491
  0
LINE
  5
385
100
AcDbEntity
  8
0
100
AcDbLine
 62
7
  6
CONTINUOUS
 10
5.7987084841
 20
2.9697491984
 11
5.7995426228
 21
2.9586273491
  0
LINE
  5
386
100
AcDbEntity
  8
0
100
AcDbLine
 62
7
  6
CONTINUOUS
 10
5.9446010304
 20
2.8976661598
 11
5.9467789412
 21
2.8686273491
  0
LINE
  5
387
100
AcDbEntity
  8
0
100
AcDbLine
 62
7
  6
CONTINUOUS
 10
5.6855056529
 20
4.8180973176
 11
5.6855056529
 21
5.0454010791
  0
LINE
  5
388
100
AcDbEntity
  8
0
100
AcDbLine
 62
7
  6
CONTINUOUS
 10
5.7041149068
 20
5.7010194352
 11
5.7041149068
 21
5.790949445
  0
LINE
  5
389
100
AcDbEntity
  8
0
100
AcDbLine
 62
7
  6
CONTINUOUS
 10
5.7041149068
 20
6.0410194352
 11
5.7041149068
 21
6.1310194352
  0
LINE
  5
38A
100
AcDbEntity
  8
ALL_FEATURES
100
AcDbLine
 62
7
  6
CONTINUOUS
 10
5.8641149068
 20
4.7297491984
 11
5.8641149068
 21
4.7783868823
  0
LINE
  5
38B
100
AcDbEntity
  8
ALL_FEATURES
100
AcDbLine
 62
7
  6
CONTINUOUS
 10
5.8641149068
 20
5.0851115145
 11
5.8641149068
 21
5.1297491984
  0
LINE
  5
38C
100
AcDbEntity
  8
0
100
AcDbLine
 62
7
  6
CONTINUOUS
 10
5.6885183971
 20
2.9521018281
 11
5.6863828111
 21
2.9236273491
  0
LINE
  5
38D
100
AcDbEntity
  8
0
100
AcDbLine
 62
7
  6
CONTINUOUS
 10
5.7025894234
 20
2.9010760858
 11
5.7001557681
 21
2.8686273491
  0
LINE
  5
38E
100
AcDbEntity
  8
0
100
AcDbLine
 62
7
  6
CONTINUOUS
 10
5.7623093205
 20
2.8873413803
 11
5.7601557681
 21
2.8586273491
  0
LINE
  5
38F
100
AcDbEntity
  8
0
100
AcDbLine
 62
7
  6
CONTINUOUS
 10
4.4441149068
 20
5.0851115145
 11
5.8641149068
 21
5.0851115145
  0
LINE
  5
390
100
AcDbEntity
  8
0
100
AcDbLine
 62
7
  6
CONTINUOUS
 10
4.4441149068
 20
5.1297491984
 11
5.8641149068
 21
5.1297491984
  0
LINE
  5
391
100
AcDbEntity
  8
0
100
AcDbLine
 62
7
  6
CONTINUOUS
 10
4.5041203232
 20
5.1897491984
 11
5.8041149068
 21
5.1897491984
  0
LINE
  5
392
100
AcDbEntity
  8
0
100
AcDbLine
 62
7
  6
CONTINUOUS
 10
6.0161977719
 20
2.9486443314
 11
6.0180740455
 21
2.9236273491
  0
LINE
  5
393
100
AcDbEntity
  8
0
100
AcDbLine
 62
7
  6
CONTINUOUS
 10
6.0759316109
 20
2.8971931443
 11
6.0780740455
 21
2.8686273491
  0
LINE
  5
394
100
AcDbEntity
  8
0
100
AcDbLine
 62
7
  6
CONTINUOUS
 10
6.1763550168
 20
2.9181832626
 11
6.1781967103
 21
2.8936273491
  0
LINE
  5
395
100
AcDbEntity
  8
0
100
AcDbLine
 62
7
  6
CONTINUOUS
 10
6.2322399068
 20
2.9697491984
 11
6.2330740455
 21
2.9586273491
  0
LINE
  5
396
100
AcDbEntity
  8
0
100
AcDbLine
 62
7
  6
CONTINUOUS
 10
5.9124584841
 20
2.9697491984
 11
5.9116243454
 21
2.9586273491
  0
LINE
  5
397
100
AcDbEntity
  8
0
100
AcDbLine
 62
7
  6
CONTINUOUS
 10
5.9173387054
 20
2.9227331797
 11
5.9151557681
 21
2.8936273491
  0
LINE
  5
398
100
AcDbEntity
  8
ALL_FEATURES
100
AcDbLine
 62
7
  6
CONTINUOUS
 10
4.7872661677
 20
5.2543505389
 11
5.5209636459
 21
5.2543505389
  0
LINE
  5
399
100
AcDbEntity
  8
ALL_FEATURES
100
AcDbLine
 62
7
  6
CONTINUOUS
 10
4.7838185566
 20
5.3638157854
 11
5.5244112571
 21
5.3638157854
  0
LINE
  5
39A
100
AcDbEntity
  8
ALL_FEATURES
100
AcDbLine
 62
7
  6
CONTINUOUS
 10
4.7716788319
 20
5.3759555101
 11
5.5365509818
 21
5.3759555101
  0
LINE
  5
39B
100
AcDbEntity
  8
0
100
AcDbLine
 62
7
  6
CONTINUOUS
 10
6.3974484456
 20
2.9463217138
 11
6.3991505229
 21
2.9236273491
  0
LINE
  5
39C
100
AcDbEntity
  8
0
100
AcDbLine
 62
7
  6
CONTINUOUS
 10
6.4218315021
 20
2.9097491984
 11
6.4230406408
 21
2.8936273491
  0
LINE
  5
39D
100
AcDbEntity
  8
0
100
AcDbLine
 62
7
  6
CONTINUOUS
 10
6.0613629445
 20
2.9019910916
 11
6.0588606638
 21
2.8686273491
  0
LINE
  5
39E
100
AcDbEntity
  8
0
100
AcDbLine
 62
7
  6
CONTINUOUS
 10
6.1322834528
 20
2.9519964782
 11
6.1301557681
 21
2.9236273491
  0
LINE
  5
39F
100
AcDbEntity
  8
0
100
AcDbLine
 62
7
  6
CONTINUOUS
 10
6.1910016189
 20
2.8799053592
 11
6.1901557681
 21
2.8686273491
  0
LINE
  5
3A0
100
AcDbEntity
  8
ALL_FEATURES
100
AcDbLine
 62
7
  6
CONTINUOUS
 10
4.7166149068
 20
5.508891585
 11
5.5916149068
 21
5.508891585
  0
LINE
  5
3A1
100
AcDbEntity
  8
0
100
AcDbLine
 62
7
  6
CONTINUOUS
 10
4.6241149068
 20
5.6810194352
 11
5.6841149068
 21
5.6810194352
  0
LINE
  5
3A2
100
AcDbEntity
  8
0
100
AcDbLine
 62
7
  6
CONTINUOUS
 10
6.6161663833
 20
2.9697491984
 11
6.617000522
 21
2.9586273491
  0
LINE
  5
3A3
100
AcDbEntity
  8
0
100
AcDbLine
 62
7
  6
CONTINUOUS
 10
6.6899766498
 20
2.9447491984
 11
6.6915607885
 21
2.9236273491
  0
LINE
  5
3A4
100
AcDbEntity
  8
0
100
AcDbLine
 62
7
  6
CONTINUOUS
 10
6.2925331431
 20
2.923690151
 11
6.2902784329
 21
2.8936273491
  0
LINE
  5
3A5
100
AcDbEntity
  8
0
100
AcDbLine
 62
7
  6
CONTINUOUS
 10
6.3459899068
 20
2.9697491984
 11
6.3451557681
 21
2.9586273491
  0
LINE
  5
3A6
100
AcDbEntity
  8
0
100
AcDbLine
 62
7
  6
CONTINUOUS
 10
4.6041149068
 20
5.7010194352
 11
5.7041149068
 21
5.7010194352
  0
LINE
  5
3A7
100
AcDbEntity
  8
0
100
AcDbLine
 62
7
  6
CONTINUOUS
 10
5.7041149068
 20
5.790949445
 11
4.6041149068
 21
5.790949445
  0
LINE
  5
3A8
100
AcDbEntity
  8
0
100
AcDbLine
 62
7
  6
CONTINUOUS
 10
6.8737660911
 20
2.9451136801
 11
6.8753775659
 21
2.9236273491
  0
LINE
  5
3A9
100
AcDbEntity
  8
0
100
AcDbLine
 62
7
  6
CONTINUOUS
 10
6.9337084841
 20
2.9697491984
 11
6.9345426228
 21
2.9586273491
  0
LINE
  5
3AA
100
AcDbEntity
  8
0
100
AcDbLine
 62
7
  6
CONTINUOUS
 10
6.5134328378
 20
2.952968579
 11
6.5112322455
 21
2.9236273491
  0
LINE
  5
3AB
100
AcDbEntity
  8
0
100
AcDbLine
 62
7
  6
CONTINUOUS
 10
6.5374169504
 20
2.9242218416
 11
6.5351223634
 21
2.8936273491
  0
LINE
  5
3AC
100
AcDbEntity
  8
0
100
AcDbLine
 62
7
  6
CONTINUOUS
 10
6.6224322993
 20
2.923981098
 11
6.6201557681
 21
2.8936273491
  0
LINE
  5
3AD
100
AcDbEntity
  8
0
100
AcDbLine
 62
7
  6
CONTINUOUS
 10
5.9403198025
 20
2.8973450677
 11
5.940347473
 21
2.8973810869
  0
LINE
  5
3AE
100
AcDbEntity
  8
0
100
AcDbLine
 62
7
  6
CONTINUOUS
 10
5.7041149068
 20
6.0410194352
 11
4.6041149068
 21
6.0410194352
  0
LINE
  5
3AF
100
AcDbEntity
  8
0
100
AcDbLine
 62
7
  6
CONTINUOUS
 10
4.6041149068
 20
6.1310194352
 11
5.7041149068
 21
6.1310194352
  0
LINE
  5
3B0
100
AcDbEntity
  8
0
100
AcDbLine
 62
7
  6
CONTINUOUS
 10
4.6241149068
 20
6.1510194352
 11
5.6841149068
 21
6.1510194352
  0
LINE
  5
3B1
100
AcDbEntity
  8
0
100
AcDbLine
 62
7
  6
CONTINUOUS
 10
7.1709880957
 20
2.9697491984
 11
7.1718222344
 21
2.9586273491
  0
LINE
  5
3B2
100
AcDbEntity
  8
0
100
AcDbLine
 62
7
  6
CONTINUOUS
 10
6.7299163833
 20
2.9697491984
 11
6.7290822446
 21
2.9586273491
  0
LINE
  5
3B3
100
AcDbEntity
  8
0
100
AcDbLine
 62
7
  6
CONTINUOUS
 10
6.805899116
 20
2.9537154144
 11
6.8036425111
 21
2.9236273491
  0
LINE
  5
3B4
100
AcDbEntity
  8
0
100
AcDbLine
 62
7
  6
CONTINUOUS
 10
7.3176349605
 20
2.9697491984
 11
7.3184690992
 21
2.9586273491
  0
LINE
  5
3B5
100
AcDbEntity
  8
0
100
AcDbLine
 62
7
  6
CONTINUOUS
 10
6.9890434272
 20
2.9447491984
 11
6.9874592885
 21
2.9236273491
  0
LINE
  5
3B6
100
AcDbEntity
  8
0
100
AcDbLine
 62
7
  6
CONTINUOUS
 10
7.0474584841
 20
2.9697491984
 11
7.0466243454
 21
2.9586273491
  0
LINE
  5
3B7
100
AcDbEntity
  8
0
100
AcDbLine
 62
7
  6
CONTINUOUS
 10
7.0524125497
 20
2.95371777
 11
7.0501557681
 21
2.9236273491
  0
LINE
  5
3B8
100
AcDbEntity
  8
0
100
AcDbLine
 62
7
  6
CONTINUOUS
 10
7.2847380957
 20
2.9697491984
 11
7.283903957
 21
2.9586273491
  0
LINE
  5
3B9
100
AcDbEntity
  8
02___PRT_ALL_AXES
100
AcDbLine
 62
7
  6
CONTINUOUS
 10
7.5691149068
 20
4.2264709298
 11
7.5691149068
 21
4.2057491984
  0
LINE
  5
3BA
100
AcDbEntity
  8
0
100
AcDbLine
 62
7
  6
CONTINUOUS
 10
7.4313849605
 20
2.9697491984
 11
7.4305508218
 21
2.9586273491
  0
LINE
  5
3BB
100
AcDbEntity
  8
0
100
AcDbLine
 62
7
  6
CONTINUOUS
 10
7.4809899068
 20
2.9697491984
 11
7.4801557681
 21
2.9586273491
  0
LINE
  5
3BC
100
AcDbEntity
  8
02___PRT_ALL_AXES
100
AcDbLine
 62
7
  6
CONTINUOUS
 10
7.8622686147
 20
3.9960460958
 11
7.8766149068
 21
3.5197491984
  0
LINE
  5
3BD
100
AcDbEntity
  8
02___PRT_ALL_AXES
100
AcDbLine
 62
7
  6
CONTINUOUS
 10
8.2541149068
 20
3.0897491984
 11
8.2541149068
 21
3.0197491984
  0
ARC
  5
3BE
100
AcDbEntity
  8
0
100
AcDbCircle
 62
7
  6
CONTINUOUS
 10
3.4440917208
 20
3.9423181781
 40
1.0
100
AcDbArc
 50
269.4373403101
 51
270.0
  0
ARC
  5
3BF
100
AcDbEntity
  8
0
100
AcDbCircle
 62
7
  6
CONTINUOUS
 10
3.3322335515
 20
3.9507844526
 40
1.0
100
AcDbArc
 50
258.8320692449
 51
265.3758736767
  0
ARC
  5
3C0
100
AcDbEntity
  8
02___PRT_ALL_AXES
100
AcDbCircle
 62
7
  6
CONTINUOUS
 10
1.9300442172
 20
3.6417491984
 40
0.5161948825
100
AcDbArc
 50
303.3887459958
 51
346.3290898985
  0
ARC
  5
3C1
100
AcDbEntity
  8
02___PRT_ALL_AXES
100
AcDbCircle
 62
7
  6
CONTINUOUS
 10
2.0345173985
 20
3.4832395639
 40
0.326352975
100
AcDbArc
 50
284.1217849628
 51
303.3887459958
  0
ARC
  5
3C2
100
AcDbEntity
  8
02___PRT_ALL_AXES
100
AcDbCircle
 62
7
  6
CONTINUOUS
 10
2.3674620676
 20
4.3226423404
 40
0.315
100
AcDbArc
 50
288.3276633269
 51
329.1539047059
  0
ARC
  5
3C3
100
AcDbEntity
  8
02___PRT_ALL_AXES
100
AcDbCircle
 62
7
  6
CONTINUOUS
 10
2.1335144141
 20
3.0897491984
 40
0.0793995073
100
AcDbArc
 50
104.1217849628
 51
180.0
  0
ARC
  5
3C4
100
AcDbEntity
  8
0
100
AcDbCircle
 62
7
  6
CONTINUOUS
 10
3.5132101873
 20
3.0189784409
 40
0.0675849556
100
AcDbArc
 50
259.7879687528
 51
260.7594844498
  0
ARC
  5
3C5
100
AcDbEntity
  8
0
100
AcDbCircle
 62
7
  6
CONTINUOUS
 10
2.1041149068
 20
3.0197491984
 40
0.05
100
AcDbArc
 50
180.0
 51
270.0
  0
ARC
  5
3C6
100
AcDbEntity
  8
0
100
AcDbCircle
 62
7
  6
CONTINUOUS
 10
2.4759475995
 20
3.995142891
 40
0.03
100
AcDbArc
 50
108.3276633269
 51
178.2747451245
  0
ARC
  5
3C7
100
AcDbEntity
  8
0
100
AcDbCircle
 62
7
  6
CONTINUOUS
 10
2.6636610147
 20
4.1457491984
 40
0.03
100
AcDbArc
 50
90.0
 51
149.1539047059
  0
ARC
  5
3C8
100
AcDbEntity
  8
0
100
AcDbCircle
 62
7
  6
CONTINUOUS
 10
2.7691149068
 20
4.2264709298
 40
0.03
100
AcDbArc
 50
93.584183011
 51
180.0
  0
ARC
  5
3C9
100
AcDbEntity
  8
0
100
AcDbCircle
 62
7
  6
CONTINUOUS
 10
2.7091149068
 20
4.2057491984
 40
0.03
100
AcDbArc
 50
270.0
 51
360.0
  0
ARC
  5
3CA
100
AcDbEntity
  8
0
100
AcDbCircle
 62
7
  6
CONTINUOUS
 10
3.2730320352
 20
2.9247491984
 40
0.015
100
AcDbArc
 50
184.2891533288
 51
270.0
  0
ARC
  5
3CB
100
AcDbEntity
  8
0
100
AcDbCircle
 62
7
  6
CONTINUOUS
 10
2.8430320352
 20
2.9597491984
 40
0.015
100
AcDbArc
 50
184.2891533288
 51
270.0
  0
ARC
  5
3CC
100
AcDbEntity
  8
0
100
AcDbCircle
 62
7
  6
CONTINUOUS
 10
2.9748027248
 20
2.9597491984
 40
0.015
100
AcDbArc
 50
270.0
 51
355.7108466712
  0
ARC
  5
3CD
100
AcDbEntity
  8
0
100
AcDbCircle
 62
7
  6
CONTINUOUS
 10
2.8926369815
 20
2.9597491984
 40
0.015
100
AcDbArc
 50
184.2891533288
 51
270.0
  0
ARC
  5
3CE
100
AcDbEntity
  8
0
100
AcDbCircle
 62
7
  6
CONTINUOUS
 10
3.4178942581
 20
2.9247491984
 40
0.015
100
AcDbArc
 50
270.0
 51
355.7108466712
  0
ARC
  5
3CF
100
AcDbEntity
  8
0
100
AcDbCircle
 62
7
  6
CONTINUOUS
 10
3.3357285148
 20
2.9247491984
 40
0.015
100
AcDbArc
 50
184.2891533288
 51
270.0
  0
ARC
  5
3D0
100
AcDbEntity
  8
0
100
AcDbCircle
 62
7
  6
CONTINUOUS
 10
3.5195452922
 20
2.9247491984
 40
0.015
100
AcDbArc
 50
184.2891533288
 51
270.0
  0
ARC
  5
3D1
100
AcDbEntity
  8
0
100
AcDbCircle
 62
7
  6
CONTINUOUS
 10
3.1214495896
 20
2.9597491984
 40
0.015
100
AcDbArc
 50
270.0
 51
355.7108466712
  0
ARC
  5
3D2
100
AcDbEntity
  8
0
100
AcDbCircle
 62
7
  6
CONTINUOUS
 10
3.0392838463
 20
2.9597491984
 40
0.015
100
AcDbArc
 50
184.2891533288
 51
270.0
  0
ARC
  5
3D3
100
AcDbEntity
  8
0
100
AcDbCircle
 62
7
  6
CONTINUOUS
 10
3.3587292013
 20
2.9597491984
 40
0.015
100
AcDbArc
 50
270.0
 51
355.7108466712
  0
ARC
  5
3D4
100
AcDbEntity
  8
0
100
AcDbCircle
 62
7
  6
CONTINUOUS
 10
3.2765634579
 20
2.9597491984
 40
0.015
100
AcDbArc
 50
184.2891533288
 51
270.0
  0
ARC
  5
3D5
100
AcDbEntity
  8
02___PRT_ALL_AXES
100
AcDbCircle
 62
7
  6
CONTINUOUS
 10
2.5151149068
 20
8.2815484089
 40
4.0330246567
100
AcDbArc
 50
273.584183011
 51
297.8386883916
  0
ARC
  5
3D6
100
AcDbEntity
  8
0
100
AcDbCircle
 62
7
  6
CONTINUOUS
 10
3.7202060493
 20
1.1199821573
 40
1.8050671466
100
AcDbArc
 50
87.5616078058
 51
87.7124510669
  0
ARC
  5
3D7
100
AcDbEntity
  8
0
100
AcDbCircle
 62
7
  6
CONTINUOUS
 10
4.1534676963
 20
3.9011551583
 40
1.0
100
AcDbArc
 50
260.1653035467
 51
262.1379931168
  0
ARC
  5
3D8
100
AcDbEntity
  8
0
100
AcDbCircle
 62
7
  6
CONTINUOUS
 10
4.2647161201
 20
3.8966584368
 40
1.0
100
AcDbArc
 50
268.3897070968
 51
268.9990420042
  0
ARC
  5
3D9
100
AcDbEntity
  8
0
100
AcDbCircle
 62
7
  6
CONTINUOUS
 10
3.7428738154
 20
3.9223455048
 40
1.0
100
AcDbArc
 50
262.7998254021
 51
266.4879241395
  0
ARC
  5
3DA
100
AcDbEntity
  8
0
100
AcDbCircle
 62
7
  6
CONTINUOUS
 10
4.2644381218
 20
3.8210492694
 40
0.9244149638
100
AcDbArc
 50
267.7559382112
 51
268.0101475743
  0
ARC
  5
3DB
100
AcDbEntity
  8
0
100
AcDbCircle
 62
7
  6
CONTINUOUS
 10
4.2643440854
 20
3.8196255895
 40
0.9229888782
100
AcDbArc
 50
268.0129128229
 51
268.1460341134
  0
ARC
  5
3DC
100
AcDbEntity
  8
0
100
AcDbCircle
 62
7
  6
CONTINUOUS
 10
3.906665905
 20
3.0000792112
 40
0.0552904198
100
AcDbArc
 50
274.2167558838
 51
274.9160725049
  0
ARC
  5
3DD
100
AcDbEntity
  8
0
100
AcDbCircle
 62
7
  6
CONTINUOUS
 10
3.9071239829
 20
2.9947565913
 40
0.0499481245
100
AcDbArc
 50
274.9157704304
 51
275.3516465683
  0
ARC
  5
3DE
100
AcDbEntity
  8
0
100
AcDbCircle
 62
7
  6
CONTINUOUS
 10
4.2151977785
 20
2.8697491984
 40
0.015
100
AcDbArc
 50
270.0
 51
355.7108466712
  0
ARC
  5
3DF
100
AcDbEntity
  8
0
100
AcDbCircle
 62
7
  6
CONTINUOUS
 10
4.1330320352
 20
2.8697491984
 40
0.015
100
AcDbArc
 50
184.2891533288
 51
270.0
  0
ARC
  5
3E0
100
AcDbEntity
  8
0
100
AcDbCircle
 62
7
  6
CONTINUOUS
 10
3.7851977785
 20
2.8947491984
 40
0.015
100
AcDbArc
 50
270.0
 51
275.4886018814
  0
ARC
  5
3E1
100
AcDbEntity
  8
0
100
AcDbCircle
 62
7
  6
CONTINUOUS
 10
3.7030320352
 20
2.8947491984
 40
0.015
100
AcDbArc
 50
184.2891533288
 51
270.0
  0
ARC
  5
3E2
100
AcDbEntity
  8
0
100
AcDbCircle
 62
7
  6
CONTINUOUS
 10
3.8702311832
 20
2.8947491984
 40
0.015
100
AcDbArc
 50
270.0
 51
355.7108466712
  0
ARC
  5
3E3
100
AcDbEntity
  8
0
100
AcDbCircle
 62
7
  6
CONTINUOUS
 10
3.7880654399
 20
2.8947491984
 40
0.015
100
AcDbArc
 50
184.2891533288
 51
270.0
  0
ARC
  5
3E4
100
AcDbEntity
  8
0
100
AcDbCircle
 62
7
  6
CONTINUOUS
 10
4.3464928828
 20
2.8697491984
 40
0.015
100
AcDbArc
 50
270.0
 51
355.7108466712
  0
ARC
  5
3E5
100
AcDbEntity
  8
0
100
AcDbCircle
 62
7
  6
CONTINUOUS
 10
4.2643271395
 20
2.8697491984
 40
0.015
100
AcDbArc
 50
184.2891533288
 51
270.0
  0
ARC
  5
3E6
100
AcDbEntity
  8
0
100
AcDbCircle
 62
7
  6
CONTINUOUS
 10
4.1150751137
 20
2.8947491984
 40
0.015
100
AcDbArc
 50
270.0
 51
355.7108466712
  0
ARC
  5
3E7
100
AcDbEntity
  8
0
100
AcDbCircle
 62
7
  6
CONTINUOUS
 10
4.0329093704
 20
2.8947491984
 40
0.015
100
AcDbArc
 50
184.2891533288
 51
270.0
  0
ARC
  5
3E8
100
AcDbEntity
  8
0
100
AcDbCircle
 62
7
  6
CONTINUOUS
 10
3.6017110355
 20
2.9247491984
 40
0.015
100
AcDbArc
 50
270.0
 51
355.7108466712
  0
ARC
  5
3E9
100
AcDbEntity
  8
0
100
AcDbCircle
 62
7
  6
CONTINUOUS
 10
3.8941213011
 20
2.9247491984
 40
0.015
100
AcDbArc
 50
270.0
 51
355.7108466712
  0
ARC
  5
3EA
100
AcDbEntity
  8
0
100
AcDbCircle
 62
7
  6
CONTINUOUS
 10
3.8119555578
 20
2.9247491984
 40
0.015
100
AcDbArc
 50
184.2891533288
 51
270.0
  0
ARC
  5
3EB
100
AcDbEntity
  8
0
100
AcDbCircle
 62
7
  6
CONTINUOUS
 10
4.2751977785
 20
2.9247491984
 40
0.015
100
AcDbArc
 50
270.0
 51
355.7108466712
  0
ARC
  5
3EC
100
AcDbEntity
  8
0
100
AcDbCircle
 62
7
  6
CONTINUOUS
 10
4.1930320352
 20
2.9247491984
 40
0.015
100
AcDbArc
 50
184.2891533288
 51
270.0
  0
ARC
  5
3ED
100
AcDbEntity
  8
0
100
AcDbCircle
 62
7
  6
CONTINUOUS
 10
3.6762713021
 20
2.9597491984
 40
0.015
100
AcDbArc
 50
270.0
 51
355.7108466712
  0
ARC
  5
3EE
100
AcDbEntity
  8
0
100
AcDbCircle
 62
7
  6
CONTINUOUS
 10
3.5941055587
 20
2.9597491984
 40
0.015
100
AcDbArc
 50
184.2891533288
 51
270.0
  0
ARC
  5
3EF
100
AcDbEntity
  8
0
100
AcDbCircle
 62
7
  6
CONTINUOUS
 10
4.0601977785
 20
2.9597491984
 40
0.015
100
AcDbArc
 50
270.0
 51
355.7108466712
  0
ARC
  5
3F0
100
AcDbEntity
  8
0
100
AcDbCircle
 62
7
  6
CONTINUOUS
 10
3.9780320352
 20
2.9597491984
 40
0.015
100
AcDbArc
 50
184.2891533288
 51
270.0
  0
ARC
  5
3F1
100
AcDbEntity
  8
0
100
AcDbCircle
 62
7
  6
CONTINUOUS
 10
4.8985895894
 20
1.9089723798
 40
1.0152521073
100
AcDbArc
 50
89.3846900188
 51
90.6153099812
  0
ARC
  5
3F2
100
AcDbEntity
  8
0
100
AcDbCircle
 62
7
  6
CONTINUOUS
 10
5.1496481027
 20
2.3361661738
 40
0.6178170116
100
AcDbArc
 50
91.3157599779
 51
92.4846275291
  0
ARC
  5
3F3
100
AcDbEntity
  8
0
100
AcDbCircle
 62
7
  6
CONTINUOUS
 10
4.6451977785
 20
2.8597491984
 40
0.015
100
AcDbArc
 50
270.0
 51
340.5187719872
  0
ARC
  5
3F4
100
AcDbEntity
  8
0
100
AcDbCircle
 62
7
  6
CONTINUOUS
 10
4.5630320352
 20
2.8597491984
 40
0.015
100
AcDbArc
 50
184.2891533288
 51
270.0
  0
ARC
  5
3F5
100
AcDbEntity
  8
0
100
AcDbCircle
 62
7
  6
CONTINUOUS
 10
4.9201977785
 20
2.8597491984
 40
0.015
100
AcDbArc
 50
270.0
 51
355.7108466712
  0
ARC
  5
3F6
100
AcDbEntity
  8
0
100
AcDbCircle
 62
7
  6
CONTINUOUS
 10
4.8380320352
 20
2.8597491984
 40
0.015
100
AcDbArc
 50
184.2891533288
 51
270.0
  0
ARC
  5
3F7
100
AcDbEntity
  8
0
100
AcDbCircle
 62
7
  6
CONTINUOUS
 10
4.5640153357
 20
3.8871912675
 40
1.0
100
AcDbArc
 50
266.6083939162
 51
268.5548996513
  0
ARC
  5
3F8
100
AcDbEntity
  8
0
100
AcDbCircle
 62
7
  6
CONTINUOUS
 10
4.726489184
 20
3.8836570489
 40
1.0
100
AcDbArc
 50
269.701895091
 51
270.0
  0
ARC
  5
3F9
100
AcDbEntity
  8
0
100
AcDbCircle
 62
7
  6
CONTINUOUS
 10
4.4568452206
 20
4.6047491984
 40
0.125
100
AcDbArc
 50
90.0
 51
117.8386883916
  0
ARC
  5
3FA
100
AcDbEntity
  8
0
100
AcDbCircle
 62
7
  6
CONTINUOUS
 10
4.7051977785
 20
2.8697491984
 40
0.015
100
AcDbArc
 50
270.0
 51
355.7108466712
  0
ARC
  5
3FB
100
AcDbEntity
  8
0
100
AcDbCircle
 62
7
  6
CONTINUOUS
 10
4.6230320352
 20
2.8697491984
 40
0.015
100
AcDbArc
 50
184.2891533288
 51
270.0
  0
ARC
  5
3FC
100
AcDbEntity
  8
0
100
AcDbCircle
 62
7
  6
CONTINUOUS
 10
5.1130320352
 20
2.8697491984
 40
0.015
100
AcDbArc
 50
184.2891533288
 51
270.0
  0
ARC
  5
3FD
100
AcDbEntity
  8
0
100
AcDbCircle
 62
7
  6
CONTINUOUS
 10
4.4901977785
 20
2.8947491984
 40
0.015
100
AcDbArc
 50
270.0
 51
355.7108466712
  0
ARC
  5
3FE
100
AcDbEntity
  8
0
100
AcDbCircle
 62
7
  6
CONTINUOUS
 10
4.4080320352
 20
2.8947491984
 40
0.015
100
AcDbArc
 50
184.2891533288
 51
270.0
  0
ARC
  5
3FF
100
AcDbEntity
  8
0
100
AcDbCircle
 62
7
  6
CONTINUOUS
 10
4.950353848
 20
2.8947491984
 40
0.015
100
AcDbArc
 50
270.0
 51
355.7108466712
  0
ARC
  5
400
100
AcDbEntity
  8
0
100
AcDbCircle
 62
7
  6
CONTINUOUS
 10
4.8681881047
 20
2.8947491984
 40
0.015
100
AcDbArc
 50
184.2891533288
 51
270.0
  0
ARC
  5
401
100
AcDbEntity
  8
0
100
AcDbCircle
 62
7
  6
CONTINUOUS
 10
4.7189707355
 20
2.9247491984
 40
0.015
100
AcDbArc
 50
270.0
 51
355.7108466712
  0
ARC
  5
402
100
AcDbEntity
  8
0
100
AcDbCircle
 62
7
  6
CONTINUOUS
 10
4.6368049922
 20
2.9247491984
 40
0.015
100
AcDbArc
 50
184.2891533288
 51
270.0
  0
ARC
  5
403
100
AcDbEntity
  8
0
100
AcDbCircle
 62
7
  6
CONTINUOUS
 10
5.1130320352
 20
2.9247491984
 40
0.015
100
AcDbArc
 50
184.2891533288
 51
270.0
  0
ARC
  5
404
100
AcDbEntity
  8
0
100
AcDbCircle
 62
7
  6
CONTINUOUS
 10
4.4937292013
 20
2.9597491984
 40
0.015
100
AcDbArc
 50
270.0
 51
355.7108466712
  0
ARC
  5
405
100
AcDbEntity
  8
0
100
AcDbCircle
 62
7
  6
CONTINUOUS
 10
4.4115634579
 20
2.9597491984
 40
0.015
100
AcDbArc
 50
184.2891533288
 51
270.0
  0
ARC
  5
406
100
AcDbEntity
  8
0
100
AcDbCircle
 62
7
  6
CONTINUOUS
 10
4.9579181669
 20
2.9597491984
 40
0.015
100
AcDbArc
 50
270.0
 51
355.7108466712
  0
ARC
  5
407
100
AcDbEntity
  8
0
100
AcDbCircle
 62
7
  6
CONTINUOUS
 10
4.8757524236
 20
2.9597491984
 40
0.015
100
AcDbArc
 50
184.2891533288
 51
270.0
  0
ARC
  5
408
100
AcDbEntity
  8
ALL_FEATURES
100
AcDbCircle
 62
7
  6
CONTINUOUS
 10
4.9046149068
 20
5.5088915849
 40
0.188
100
AcDbArc
 50
180.0
 51
225.0
  0
ARC
  5
409
100
AcDbEntity
  8
0
100
AcDbCircle
 62
7
  6
CONTINUOUS
 10
4.5511149068
 20
4.9317491984
 40
0.187
100
AcDbArc
 50
124.903258328
 51
142.571994457
  0
ARC
  5
40A
100
AcDbEntity
  8
0
100
AcDbCircle
 62
7
  6
CONTINUOUS
 10
4.5511149068
 20
4.9317491984
 40
0.187
100
AcDbArc
 50
217.428005543
 51
235.096741672
  0
ARC
  5
40B
100
AcDbEntity
  8
0
100
AcDbCircle
 62
7
  6
CONTINUOUS
 10
4.54121999
 20
4.932463372
 40
0.1760007253
100
AcDbArc
 50
140.0821298859
 51
140.7977646756
  0
ARC
  5
40C
100
AcDbEntity
  8
0
100
AcDbCircle
 62
7
  6
CONTINUOUS
 10
4.5411941018
 20
4.9310136385
 40
0.1759671467
100
AcDbArc
 50
219.2021670099
 51
219.9179383979
  0
ARC
  5
40D
100
AcDbEntity
  8
0
100
AcDbCircle
 62
7
  6
CONTINUOUS
 10
4.6576149068
 20
5.9159844401
 40
0.136
100
AcDbArc
 50
113.1651236837
 51
246.8348763163
  0
ARC
  5
40E
100
AcDbEntity
  8
ALL_FEATURES
100
AcDbCircle
 62
7
  6
CONTINUOUS
 10
4.7272500141
 20
5.3072472429
 40
0.08
100
AcDbArc
 50
318.6078718925
 51
45.0
  0
ARC
  5
40F
100
AcDbEntity
  8
0
100
AcDbCircle
 62
7
  6
CONTINUOUS
 10
4.5041149068
 20
5.1297491984
 40
0.06
100
AcDbArc
 50
90.0
 51
180.0
  0
ARC
  5
410
100
AcDbEntity
  8
0
100
AcDbCircle
 62
7
  6
CONTINUOUS
 10
4.6241149068
 20
6.1310194352
 40
0.02
100
AcDbArc
 50
90.0
 51
180.0
  0
ARC
  5
411
100
AcDbEntity
  8
0
100
AcDbCircle
 62
7
  6
CONTINUOUS
 10
4.6241149068
 20
5.7010194352
 40
0.02
100
AcDbArc
 50
180.0
 51
270.0
  0
ARC
  5
412
100
AcDbEntity
  8
0
100
AcDbCircle
 62
7
  6
CONTINUOUS
 10
5.8939235058
 20
1.7245988838
 40
1.1996446112
100
AcDbArc
 50
90.6514932061
 51
91.6627138969
  0
ARC
  5
413
100
AcDbEntity
  8
0
100
AcDbCircle
 62
7
  6
CONTINUOUS
 10
5.4096402242
 20
1.8762895898
 40
1.0479330714
100
AcDbArc
 50
89.4038798519
 51
90.5961201481
  0
ARC
  5
414
100
AcDbEntity
  8
0
100
AcDbCircle
 62
7
  6
CONTINUOUS
 10
5.4087923358
 20
1.9030875055
 40
1.0211279433
100
AcDbArc
 50
90.5641914264
 51
91.7514611352
  0
ARC
  5
415
100
AcDbEntity
  8
0
100
AcDbCircle
 62
7
  6
CONTINUOUS
 10
5.6460811683
 20
2.1364113443
 40
0.8176141676
100
AcDbArc
 50
91.2837735847
 51
92.2370978869
  0
ARC
  5
416
100
AcDbEntity
  8
0
100
AcDbCircle
 62
7
  6
CONTINUOUS
 10
5.1541149068
 20
2.1600624287
 40
0.7939770039
100
AcDbArc
 50
88.6537962577
 51
91.3462037423
  0
ARC
  5
417
100
AcDbEntity
  8
0
100
AcDbCircle
 62
7
  6
CONTINUOUS
 10
5.7451977785
 20
2.8597491984
 40
0.015
100
AcDbArc
 50
270.0
 51
355.7108466712
  0
ARC
  5
418
100
AcDbEntity
  8
0
100
AcDbCircle
 62
7
  6
CONTINUOUS
 10
5.6630320352
 20
2.8597491984
 40
0.015
100
AcDbArc
 50
199.4812280128
 51
270.0
  0
ARC
  5
419
100
AcDbEntity
  8
0
100
AcDbCircle
 62
7
  6
CONTINUOUS
 10
5.4701977785
 20
2.8597491984
 40
0.015
100
AcDbArc
 50
270.0
 51
355.7108466712
  0
ARC
  5
41A
100
AcDbEntity
  8
0
100
AcDbCircle
 62
7
  6
CONTINUOUS
 10
5.3880320352
 20
2.8597491984
 40
0.015
100
AcDbArc
 50
184.2891533288
 51
270.0
  0
ARC
  5
41B
100
AcDbEntity
  8
0
100
AcDbCircle
 62
7
  6
CONTINUOUS
 10
5.6851977785
 20
2.8697491984
 40
0.015
100
AcDbArc
 50
270.0
 51
355.7108466712
  0
ARC
  5
41C
100
AcDbEntity
  8
0
100
AcDbCircle
 62
7
  6
CONTINUOUS
 10
5.6030320352
 20
2.8697491984
 40
0.015
100
AcDbArc
 50
184.2891533288
 51
270.0
  0
ARC
  5
41D
100
AcDbEntity
  8
0
100
AcDbCircle
 62
7
  6
CONTINUOUS
 10
5.1951977785
 20
2.8697491984
 40
0.015
100
AcDbArc
 50
270.0
 51
355.7108466712
  0
ARC
  5
41E
100
AcDbEntity
  8
0
100
AcDbCircle
 62
7
  6
CONTINUOUS
 10
5.9001977785
 20
2.8947491984
 40
0.015
100
AcDbArc
 50
270.0
 51
355.7108466712
  0
ARC
  5
41F
100
AcDbEntity
  8
0
100
AcDbCircle
 62
7
  6
CONTINUOUS
 10
5.8180320352
 20
2.8947491984
 40
0.015
100
AcDbArc
 50
184.2891533288
 51
270.0
  0
ARC
  5
420
100
AcDbEntity
  8
0
100
AcDbCircle
 62
7
  6
CONTINUOUS
 10
5.440041709
 20
2.8947491984
 40
0.015
100
AcDbArc
 50
270.0
 51
355.7108466712
  0
ARC
  5
421
100
AcDbEntity
  8
0
100
AcDbCircle
 62
7
  6
CONTINUOUS
 10
5.3578759657
 20
2.8947491984
 40
0.015
100
AcDbArc
 50
184.2891533288
 51
270.0
  0
ARC
  5
422
100
AcDbEntity
  8
0
100
AcDbCircle
 62
7
  6
CONTINUOUS
 10
5.6714248215
 20
2.9247491984
 40
0.015
100
AcDbArc
 50
270.0
 51
355.7108466712
  0
ARC
  5
423
100
AcDbEntity
  8
0
100
AcDbCircle
 62
7
  6
CONTINUOUS
 10
5.5892590782
 20
2.9247491984
 40
0.015
100
AcDbArc
 50
184.2891533288
 51
270.0
  0
ARC
  5
424
100
AcDbEntity
  8
0
100
AcDbCircle
 62
7
  6
CONTINUOUS
 10
5.1951977785
 20
2.9247491984
 40
0.015
100
AcDbArc
 50
270.0
 51
355.7108466712
  0
ARC
  5
425
100
AcDbEntity
  8
0
100
AcDbCircle
 62
7
  6
CONTINUOUS
 10
5.7442144779
 20
3.8871912675
 40
1.0
100
AcDbArc
 50
271.4451003487
 51
273.3916060838
  0
ARC
  5
426
100
AcDbEntity
  8
0
100
AcDbCircle
 62
7
  6
CONTINUOUS
 10
5.5817406297
 20
3.8836570489
 40
1.0
100
AcDbArc
 50
270.0
 51
270.298104909
  0
ARC
  5
427
100
AcDbEntity
  8
0
100
AcDbCircle
 62
7
  6
CONTINUOUS
 10
5.851384593
 20
4.6047491984
 40
0.125
100
AcDbArc
 50
62.1613116084
 51
90.0
  0
ARC
  5
428
100
AcDbEntity
  8
0
100
AcDbCircle
 62
7
  6
CONTINUOUS
 10
5.8966663557
 20
2.9597491984
 40
0.015
100
AcDbArc
 50
270.0
 51
355.7108466712
  0
ARC
  5
429
100
AcDbEntity
  8
0
100
AcDbCircle
 62
7
  6
CONTINUOUS
 10
5.8145006124
 20
2.9597491984
 40
0.015
100
AcDbArc
 50
184.2891533288
 51
270.0
  0
ARC
  5
42A
100
AcDbEntity
  8
0
100
AcDbCircle
 62
7
  6
CONTINUOUS
 10
5.4324773901
 20
2.9597491984
 40
0.015
100
AcDbArc
 50
270.0
 51
355.7108466712
  0
ARC
  5
42B
100
AcDbEntity
  8
0
100
AcDbCircle
 62
7
  6
CONTINUOUS
 10
5.3503116468
 20
2.9597491984
 40
0.015
100
AcDbArc
 50
184.2891533288
 51
270.0
  0
ARC
  5
42C
100
AcDbEntity
  8
0
100
AcDbCircle
 62
7
  6
CONTINUOUS
 10
6.5811247721
 20
1.2909286836
 40
1.6339814304
100
AcDbArc
 50
92.1699651121
 51
92.3483807569
  0
ARC
  5
42D
100
AcDbEntity
  8
0
100
AcDbCircle
 62
7
  6
CONTINUOUS
 10
6.0698814717
 20
1.3771217099
 40
1.5249931751
100
AcDbArc
 50
90.7571113717
 51
91.3456100445
  0
ARC
  5
42E
100
AcDbEntity
  8
0
100
AcDbCircle
 62
7
  6
CONTINUOUS
 10
6.5091620368
 20
1.9912282562
 40
0.9629161147
100
AcDbArc
 50
91.4865682832
 51
92.2494374466
  0
ARC
  5
42F
100
AcDbEntity
  8
0
100
AcDbCircle
 62
7
  6
CONTINUOUS
 10
6.109687201
 20
2.013541033
 40
0.9405342728
100
AcDbArc
 50
91.3342797897
 51
92.1675218061
  0
ARC
  5
430
100
AcDbEntity
  8
0
100
AcDbCircle
 62
7
  6
CONTINUOUS
 10
6.6051977785
 20
2.8947491984
 40
0.015
100
AcDbArc
 50
270.0
 51
355.7108466712
  0
ARC
  5
431
100
AcDbEntity
  8
0
100
AcDbCircle
 62
7
  6
CONTINUOUS
 10
6.5230320352
 20
2.8947491984
 40
0.015
100
AcDbArc
 50
264.5113981186
 51
270.0
  0
ARC
  5
432
100
AcDbEntity
  8
0
100
AcDbCircle
 62
7
  6
CONTINUOUS
 10
6.1751977785
 20
2.8697491984
 40
0.015
100
AcDbArc
 50
270.0
 51
355.7108466712
  0
ARC
  5
433
100
AcDbEntity
  8
0
100
AcDbCircle
 62
7
  6
CONTINUOUS
 10
6.0930320352
 20
2.8697491984
 40
0.015
100
AcDbArc
 50
184.2891533288
 51
270.0
  0
ARC
  5
434
100
AcDbEntity
  8
0
100
AcDbCircle
 62
7
  6
CONTINUOUS
 10
6.5201643738
 20
2.8947491984
 40
0.015
100
AcDbArc
 50
270.0
 51
355.7108466712
  0
ARC
  5
435
100
AcDbEntity
  8
0
100
AcDbCircle
 62
7
  6
CONTINUOUS
 10
6.4379986305
 20
2.8947491984
 40
0.015
100
AcDbArc
 50
184.2891533288
 51
270.0
  0
ARC
  5
436
100
AcDbEntity
  8
0
100
AcDbCircle
 62
7
  6
CONTINUOUS
 10
6.0439026742
 20
2.8697491984
 40
0.015
100
AcDbArc
 50
270.0
 51
355.7108466712
  0
ARC
  5
437
100
AcDbEntity
  8
0
100
AcDbCircle
 62
7
  6
CONTINUOUS
 10
5.9617369309
 20
2.8697491984
 40
0.015
100
AcDbArc
 50
184.2891533288
 51
270.0
  0
ARC
  5
438
100
AcDbEntity
  8
0
100
AcDbCircle
 62
7
  6
CONTINUOUS
 10
6.2753204433
 20
2.8947491984
 40
0.015
100
AcDbArc
 50
270.0
 51
355.7108466712
  0
ARC
  5
439
100
AcDbEntity
  8
0
100
AcDbCircle
 62
7
  6
CONTINUOUS
 10
6.1931547
 20
2.8947491984
 40
0.015
100
AcDbArc
 50
184.2891533288
 51
270.0
  0
ARC
  5
43A
100
AcDbEntity
  8
0
100
AcDbCircle
 62
7
  6
CONTINUOUS
 10
6.7065187781
 20
2.9247491984
 40
0.015
100
AcDbArc
 50
184.2891533288
 51
270.0
  0
ARC
  5
43B
100
AcDbEntity
  8
0
100
AcDbCircle
 62
7
  6
CONTINUOUS
 10
6.4962742559
 20
2.9247491984
 40
0.015
100
AcDbArc
 50
270.0
 51
355.7108466712
  0
ARC
  5
43C
100
AcDbEntity
  8
0
100
AcDbCircle
 62
7
  6
CONTINUOUS
 10
6.4141085126
 20
2.9247491984
 40
0.015
100
AcDbArc
 50
184.2891533288
 51
270.0
  0
ARC
  5
43D
100
AcDbEntity
  8
0
100
AcDbCircle
 62
7
  6
CONTINUOUS
 10
6.1151977785
 20
2.9247491984
 40
0.015
100
AcDbArc
 50
270.0
 51
355.7108466712
  0
ARC
  5
43E
100
AcDbEntity
  8
0
100
AcDbCircle
 62
7
  6
CONTINUOUS
 10
6.0330320352
 20
2.9247491984
 40
0.015
100
AcDbArc
 50
184.2891533288
 51
270.0
  0
ARC
  5
43F
100
AcDbEntity
  8
0
100
AcDbCircle
 62
7
  6
CONTINUOUS
 10
6.1547621174
 20
3.9011551583
 40
1.0
100
AcDbArc
 50
277.8620068832
 51
279.8346964533
  0
ARC
  5
440
100
AcDbEntity
  8
0
100
AcDbCircle
 62
7
  6
CONTINUOUS
 10
6.5653559982
 20
3.9223455048
 40
1.0
100
AcDbArc
 50
273.5120758605
 51
277.2001745979
  0
ARC
  5
441
100
AcDbEntity
  8
0
100
AcDbCircle
 62
7
  6
CONTINUOUS
 10
6.0435136936
 20
3.8966584368
 40
1.0
100
AcDbArc
 50
271.0009579958
 51
271.6102929032
  0
ARC
  5
442
100
AcDbEntity
  8
0
100
AcDbCircle
 62
7
  6
CONTINUOUS
 10
6.043709729
 20
3.8235156287
 40
0.9268826425
100
AcDbArc
 50
271.9917516624
 51
272.2423145654
  0
ARC
  5
443
100
AcDbEntity
  8
0
100
AcDbCircle
 62
7
  6
CONTINUOUS
 10
6.4017392012
 20
3.0022738904
 40
0.0574920489
100
AcDbArc
 50
265.0973101727
 51
265.7700056469
  0
ARC
  5
444
100
AcDbEntity
  8
0
100
AcDbCircle
 62
7
  6
CONTINUOUS
 10
6.7141242549
 20
2.9597491984
 40
0.015
100
AcDbArc
 50
270.0
 51
355.7108466712
  0
ARC
  5
445
100
AcDbEntity
  8
0
100
AcDbCircle
 62
7
  6
CONTINUOUS
 10
6.6319585116
 20
2.9597491984
 40
0.015
100
AcDbArc
 50
184.2891533288
 51
270.0
  0
ARC
  5
446
100
AcDbEntity
  8
0
100
AcDbCircle
 62
7
  6
CONTINUOUS
 10
6.3301977785
 20
2.9597491984
 40
0.015
100
AcDbArc
 50
270.0
 51
355.7108466712
  0
ARC
  5
447
100
AcDbEntity
  8
0
100
AcDbCircle
 62
7
  6
CONTINUOUS
 10
6.2480320352
 20
2.9597491984
 40
0.015
100
AcDbArc
 50
184.2891533288
 51
270.0
  0
ARC
  5
448
100
AcDbEntity
  8
ALL_FEATURES
100
AcDbCircle
 62
7
  6
CONTINUOUS
 10
5.1541149068
 20
4.9310194352
 40
0.489
100
AcDbArc
 50
138.6078718925
 51
148.04529608
  0
ARC
  5
449
100
AcDbEntity
  8
ALL_FEATURES
100
AcDbCircle
 62
7
  6
CONTINUOUS
 10
5.1541149068
 20
4.9310194352
 40
0.489
100
AcDbArc
 50
31.95470392
 51
41.3921281075
  0
ARC
  5
44A
100
AcDbEntity
  8
ALL_FEATURES
100
AcDbCircle
 62
7
  6
CONTINUOUS
 10
5.4036149068
 20
5.5088915849
 40
0.188
100
AcDbArc
 50
315.0
 51
360.0
  0
ARC
  5
44B
100
AcDbEntity
  8
0
100
AcDbCircle
 62
7
  6
CONTINUOUS
 10
5.7571149068
 20
4.9317491984
 40
0.187
100
AcDbArc
 50
37.428005543
 51
55.096741672
  0
ARC
  5
44C
100
AcDbEntity
  8
0
100
AcDbCircle
 62
7
  6
CONTINUOUS
 10
5.7571149068
 20
4.9317491984
 40
0.187
100
AcDbArc
 50
304.903258328
 51
322.571994457
  0
ARC
  5
44D
100
AcDbEntity
  8
0
100
AcDbCircle
 62
7
  6
CONTINUOUS
 10
5.7670098191
 20
4.9310350285
 40
0.1760007311
100
AcDbArc
 50
320.0821298848
 51
320.7977649319
  0
ARC
  5
44E
100
AcDbEntity
  8
0
100
AcDbCircle
 62
7
  6
CONTINUOUS
 10
5.7670357093
 20
4.9324847561
 40
0.1759671499
100
AcDbArc
 50
39.202166829
 51
39.917938398
  0
ARC
  5
44F
100
AcDbEntity
  8
0
100
AcDbCircle
 62
7
  6
CONTINUOUS
 10
5.6506149068
 20
5.9159844401
 40
0.136
100
AcDbArc
 50
293.1651236837
 51
66.8348763163
  0
ARC
  5
450
100
AcDbEntity
  8
ALL_FEATURES
100
AcDbCircle
 62
7
  6
CONTINUOUS
 10
5.5809797996
 20
5.3072472429
 40
0.08
100
AcDbArc
 50
135.0
 51
221.3921281075
  0
ARC
  5
451
100
AcDbEntity
  8
0
100
AcDbCircle
 62
7
  6
CONTINUOUS
 10
5.8041149068
 20
5.1297491984
 40
0.06
100
AcDbArc
 50
0.0
 51
90.0
  0
ARC
  5
452
100
AcDbEntity
  8
0
100
AcDbCircle
 62
7
  6
CONTINUOUS
 10
5.6841149068
 20
6.1310194352
 40
0.02
100
AcDbArc
 50
0.0
 51
90.0
  0
ARC
  5
453
100
AcDbEntity
  8
0
100
AcDbCircle
 62
7
  6
CONTINUOUS
 10
5.6841149068
 20
5.7010194352
 40
0.02
100
AcDbArc
 50
270.0
 51
360.0
  0
ARC
  5
454
100
AcDbEntity
  8
0
100
AcDbCircle
 62
7
  6
CONTINUOUS
 10
6.8641380929
 20
3.9423181781
 40
1.0
100
AcDbArc
 50
270.0
 51
270.5626596899
  0
ARC
  5
455
100
AcDbEntity
  8
0
100
AcDbCircle
 62
7
  6
CONTINUOUS
 10
6.9759962622
 20
3.9507844526
 40
1.0
100
AcDbArc
 50
274.6241263233
 51
281.1679307551
  0
ARC
  5
456
100
AcDbEntity
  8
0
100
AcDbCircle
 62
7
  6
CONTINUOUS
 10
6.8182042097
 20
2.0569513184
 40
0.8973143872
100
AcDbArc
 50
91.8053766851
 51
92.513566068
  0
ARC
  5
457
100
AcDbEntity
  8
02___PRT_ALL_AXES
100
AcDbCircle
 62
7
  6
CONTINUOUS
 10
8.3781855965
 20
3.6417491984
 40
0.5161948825
100
AcDbArc
 50
193.6709101015
 51
236.6112540042
  0
ARC
  5
458
100
AcDbEntity
  8
02___PRT_ALL_AXES
100
AcDbCircle
 62
7
  6
CONTINUOUS
 10
8.2737124151
 20
3.4832395639
 40
0.326352975
100
AcDbArc
 50
236.6112540042
 51
255.8782150372
  0
ARC
  5
459
100
AcDbEntity
  8
02___PRT_ALL_AXES
100
AcDbCircle
 62
7
  6
CONTINUOUS
 10
7.9407677461
 20
4.3226423404
 40
0.315
100
AcDbArc
 50
210.8460952941
 51
251.6723366731
  0
ARC
  5
45A
100
AcDbEntity
  8
02___PRT_ALL_AXES
100
AcDbCircle
 62
7
  6
CONTINUOUS
 10
8.1747153996
 20
3.0897491984
 40
0.0793995073
100
AcDbArc
 50
0.0
 51
75.8782150372
  0
ARC
  5
45B
100
AcDbEntity
  8
0
100
AcDbCircle
 62
7
  6
CONTINUOUS
 10
8.2041149068
 20
3.0197491984
 40
0.05
100
AcDbArc
 50
270.0
 51
360.0
  0
ARC
  5
45C
100
AcDbEntity
  8
0
100
AcDbCircle
 62
7
  6
CONTINUOUS
 10
7.8322822141
 20
3.995142891
 40
0.03
100
AcDbArc
 50
1.7252548755
 51
71.6723366731
  0
ARC
  5
45D
100
AcDbEntity
  8
0
100
AcDbCircle
 62
7
  6
CONTINUOUS
 10
7.6445687989
 20
4.1457491984
 40
0.03
100
AcDbArc
 50
30.8460952941
 51
90.0
  0
ARC
  5
45E
100
AcDbEntity
  8
0
100
AcDbCircle
 62
7
  6
CONTINUOUS
 10
7.5391149068
 20
4.2264709298
 40
0.03
100
AcDbArc
 50
0.0
 51
86.415816989
  0
ARC
  5
45F
100
AcDbEntity
  8
0
100
AcDbCircle
 62
7
  6
CONTINUOUS
 10
7.5991149068
 20
4.2057491984
 40
0.03
100
AcDbArc
 50
180.0
 51
270.0
  0
ARC
  5
460
100
AcDbEntity
  8
0
100
AcDbCircle
 62
7
  6
CONTINUOUS
 10
7.4651977785
 20
2.9597491984
 40
0.015
100
AcDbArc
 50
270.0
 51
355.7108466712
  0
ARC
  5
461
100
AcDbEntity
  8
0
100
AcDbCircle
 62
7
  6
CONTINUOUS
 10
7.0351977785
 20
2.9247491984
 40
0.015
100
AcDbArc
 50
270.0
 51
355.7108466712
  0
ARC
  5
462
100
AcDbEntity
  8
0
100
AcDbCircle
 62
7
  6
CONTINUOUS
 10
7.4155928322
 20
2.9597491984
 40
0.015
100
AcDbArc
 50
270.0
 51
355.7108466712
  0
ARC
  5
463
100
AcDbEntity
  8
0
100
AcDbCircle
 62
7
  6
CONTINUOUS
 10
7.3334270888
 20
2.9597491984
 40
0.015
100
AcDbArc
 50
184.2891533288
 51
270.0
  0
ARC
  5
464
100
AcDbEntity
  8
0
100
AcDbCircle
 62
7
  6
CONTINUOUS
 10
6.9725012989
 20
2.9247491984
 40
0.015
100
AcDbArc
 50
270.0
 51
355.7108466712
  0
ARC
  5
465
100
AcDbEntity
  8
0
100
AcDbCircle
 62
7
  6
CONTINUOUS
 10
6.8903355555
 20
2.9247491984
 40
0.015
100
AcDbArc
 50
184.2891533288
 51
270.0
  0
ARC
  5
466
100
AcDbEntity
  8
0
100
AcDbCircle
 62
7
  6
CONTINUOUS
 10
6.7886845215
 20
2.9247491984
 40
0.015
100
AcDbArc
 50
270.0
 51
355.7108466712
  0
ARC
  5
467
100
AcDbEntity
  8
0
100
AcDbCircle
 62
7
  6
CONTINUOUS
 10
7.2689459673
 20
2.9597491984
 40
0.015
100
AcDbArc
 50
270.0
 51
355.7108466712
  0
ARC
  5
468
100
AcDbEntity
  8
0
100
AcDbCircle
 62
7
  6
CONTINUOUS
 10
7.186780224
 20
2.9597491984
 40
0.015
100
AcDbArc
 50
184.2891533288
 51
270.0
  0
ARC
  5
469
100
AcDbEntity
  8
0
100
AcDbCircle
 62
7
  6
CONTINUOUS
 10
7.0316663557
 20
2.9597491984
 40
0.015
100
AcDbArc
 50
270.0
 51
355.7108466712
  0
ARC
  5
46A
100
AcDbEntity
  8
0
100
AcDbCircle
 62
7
  6
CONTINUOUS
 10
6.9495006124
 20
2.9597491984
 40
0.015
100
AcDbArc
 50
184.2891533288
 51
270.0
  0
ARC
  5
46B
100
AcDbEntity
  8
02___PRT_ALL_AXES
100
AcDbCircle
 62
7
  6
CONTINUOUS
 10
7.7931149068
 20
8.2815484089
 40
4.0330246567
100
AcDbArc
 50
242.1613116084
 51
266.415816989
  0
ARC
  5
46C
100
AcDbEntity
  8
0
100
AcDbCircle
 62
7
  6
CONTINUOUS
 10
5.1541149068
 20
27.2786777698
 40
24.3989285714
100
AcDbArc
 50
268.5548996513
 51
268.561520772
  0
ARC
  5
46D
100
AcDbEntity
  8
0
100
AcDbCircle
 62
7
  6
CONTINUOUS
 10
5.1541149068
 20
27.2786777698
 40
24.3989285714
100
AcDbArc
 50
271.438479228
 51
271.4451003487
  0
SPLINE
  5
46E
100
AcDbEntity
  8
0
100
AcDbSpline
 62
7
  6
CONTINUOUS
 70
0
 71
3
 72
71
 73
67
 74
0
 42
0.0000001
 43
0.0000001
 44
0.0000000001
 40
0.0
 40
0.0
 40
0.0
 40
0.0
 40
0.0156202751
 40
0.0312627655
 40
0.0469124374
 40
0.0625449781
 40
0.0781693263
 40
0.0937924247
 40
0.1250308564
 40
0.1406537044
 40
0.1562743406
 40
0.1718935486
 40
0.1875128041
 40
0.2031314805
 40
0.2187494591
 40
0.2499844072
 40
0.2812181703
 40
0.2968355334
 40
0.3124526809
 40
0.3436858951
 40
0.3593028587
 40
0.3749196963
 40
0.4061526532
 40
0.4373856767
 40
0.4686187353
 40
0.499852125
 40
0.5154693076
 40
0.5310869475
 40
0.5467046094
 40
0.5623221466
 40
0.5779401685
 40
0.5935584319
 40
0.6091763307
 40
0.6247946723
 40
0.6404132411
 40
0.6560314046
 40
0.6872647246
 40
0.7028839354
 40
0.7185030712
 40
0.7341229784
 40
0.7497428301
 40
0.7653642151
 40
0.780985632
 40
0.7966105065
 40
0.8122370894
 40
0.8278679246
 40
0.8435065923
 40
0.8513323951
 40
0.8591568658
 40
0.8669857431
 40
0.8748175773
 40
0.8826470801
 40
0.8865615551
 40
0.8904758235
 40
0.8983033292
 40
0.9061315021
 40
0.9139574371
 40
0.9217822615
 40
0.9296099436
 40
0.9374373377
 40
0.9452596512
 40
0.9530824002
 40
0.9609075961
 40
0.9687309612
 40
0.9843636117
 40
1.0
 40
1.0
 40
1.0
 40
1.0
 10
4.9295647909
 20
5.863466772
 30
0.0
 10
4.9319185917
 20
5.8614367775
 30
0.0
 10
4.9367937843
 20
5.8575611529
 30
0.0
 10
4.9444972997
 20
5.8522776602
 30
0.0
 10
4.9525110582
 20
5.8474751551
 30
0.0
 10
4.960763658
 20
5.8431062305
 30
0.0
 10
4.9692108524
 20
5.8391402481
 30
0.0
 10
4.9806834895
 20
5.8343390055
 30
0.0
 10
4.9924155694
 20
5.8301862058
 30
0.0
 10
5.0043183935
 20
5.8265900224
 30
0.0
 10
5.0133183595
 20
5.8241440889
 30
0.0
 10
5.0223776276
 20
5.821932335
 30
0.0
 10
5.0314868084
 20
5.8199384035
 30
0.0
 10
5.0406371124
 20
5.818144511
 30
0.0
 10
5.0528827834
 20
5.8160010406
 30
0.0
 10
5.0682624156
 20
5.8137606383
 30
0.0
 10
5.0837068548
 20
5.812032145
 30
0.0
 10
5.0960887147
 20
5.8109295856
 30
0.0
 10
5.1084848972
 20
5.8100038225
 30
0.0
 10
5.1208989052
 20
5.8093342559
 30
0.0
 10
5.1333220305
 20
5.8089069086
 30
0.0
 10
5.1457495607
 20
5.8086366249
 30
0.0
 10
5.1612888341
 20
5.8085928139
 30
0.0
 10
5.179931273
 20
5.8090045195
 30
0.0
 10
5.1985571465
 20
5.8098960252
 30
0.0
 10
5.2140537059
 20
5.8110574033
 30
0.0
 10
5.2264262187
 20
5.8122604316
 30
0.0
 10
5.2356910495
 20
5.8133047926
 30
0.0
 10
5.244937725
 20
5.8145001298
 30
0.0
 10
5.2541623751
 20
5.8158559139
 30
0.0
 10
5.2633607684
 20
5.8173807964
 30
0.0
 10
5.2725275421
 20
5.8190863889
 30
0.0
 10
5.2816559998
 20
5.8209872954
 30
0.0
 10
5.2907387218
 20
5.8230964932
 30
0.0
 10
5.2997666854
 20
5.8254306339
 30
0.0
 10
5.3117133961
 20
5.8288693334
 30
0.0
 10
5.3235054138
 20
5.8328370526
 30
0.0
 10
5.3350584353
 20
5.8374332959
 30
0.0
 10
5.3435792
 20
5.8412269594
 30
0.0
 10
5.3519218223
 20
5.8453995005
 30
0.0
 10
5.3600434997
 20
5.8499901923
 30
0.0
 10
5.3678904318
 20
5.8550391963
 30
0.0
 10
5.3753908514
 20
5.8605946333
 30
0.0
 10
5.3824550602
 20
5.8667005882
 30
0.0
 10
5.3889611982
 20
5.8734058855
 30
0.0
 10
5.3947593735
 20
5.8807406163
 30
0.0
 10
5.3988378439
 20
5.8873929881
 30
0.0
 10
5.4015369773
 20
5.8930086121
 30
0.0
 10
5.4032518955
 20
5.8973594747
 30
0.0
 10
5.4046229394
 20
5.9018322861
 30
0.0
 10
5.4056302489
 20
5.9064019001
 30
0.0
 10
5.4061527154
 20
5.9102671222
 30
0.0
 10
5.406371098
 20
5.9133761355
 30
0.0
 10
5.4064532409
 20
5.9164913336
 30
0.0
 10
5.4063022836
 20
5.920387802
 30
0.0
 10
5.405726124
 20
5.9250301493
 30
0.0
 10
5.4047629177
 20
5.9296074039
 30
0.0
 10
5.4034282515
 20
5.9340897907
 30
0.0
 10
5.4017532739
 20
5.9384561105
 30
0.0
 10
5.3997652887
 20
5.9426881151
 30
0.0
 10
5.3974899816
 20
5.9467711911
 30
0.0
 10
5.3949570441
 20
5.9506985137
 30
0.0
 10
5.3921942209
 20
5.9544674824
 30
0.0
 10
5.3882409076
 20
5.9592789095
 30
0.0
 10
5.3828459401
 20
5.9649009351
 30
0.0
 10
5.3781508192
 20
5.9689956638
 30
0.0
 10
5.3757304496
 20
5.9709509156
 30
0.0
  0
SPLINE
  5
46F
100
AcDbEntity
  8
0
100
AcDbSpline
 62
7
  6
CONTINUOUS
 70
0
 71
3
 72
44
 73
40
 74
0
 42
0.0000001
 43
0.0000001
 44
0.0000000001
 40
0.0
 40
0.0
 40
0.0
 40
0.0
 40
0.0312562125
 40
0.0625328974
 40
0.0938010005
 40
0.1094471117
 40
0.125100064
 40
0.1407478118
 40
0.1485747111
 40
0.156403476
 40
0.1720572014
 40
0.1798857261
 40
0.1877134762
 40
0.2033672209
 40
0.2190268365
 40
0.2268565276
 40
0.2346818595
 40
0.2503262786
 40
0.2659736017
 40
0.2816121082
 40
0.3128640918
 40
0.3441070904
 40
0.3597329632
 40
0.3753553421
 40
0.4065940683
 40
0.4378307039
 40
0.4534514947
 40
0.4690709018
 40
0.4846902259
 40
0.5003101433
 40
0.5315462311
 40
0.5627821637
 40
0.6252427002
 40
0.6877026628
 40
0.7501622185
 40
0.8126216483
 40
0.8750810845
 40
0.9375404934
 40
1.0
 40
1.0
 40
1.0
 40
1.0
 10
4.9295647909
 20
5.863466772
 30
0.0
 10
4.9267406003
 20
5.8659024459
 30
0.0
 10
4.9213196404
 20
5.8710531106
 30
0.0
 10
4.9141383476
 20
5.8796733823
 30
0.0
 10
4.9091936094
 20
5.8876325675
 30
0.0
 10
4.9060685974
 20
5.8944215912
 30
0.0
 10
4.9041844713
 20
5.8997050212
 30
0.0
 10
4.9030339187
 20
5.904237916
 30
0.0
 10
4.9023902683
 20
5.9079185868
 30
0.0
 10
4.9019344999
 20
5.9116277081
 30
0.0
 10
4.9017622273
 20
5.9153674484
 30
0.0
 10
4.9018784449
 20
5.9191028124
 30
0.0
 10
4.9021892507
 20
5.922827255
 30
0.0
 10
4.902937791
 20
5.9274456556
 30
0.0
 10
4.9041338429
 20
5.9319681165
 30
0.0
 10
4.9053413972
 20
5.9355052152
 30
0.0
 10
4.9067103308
 20
5.9389811009
 30
0.0
 10
4.9087082185
 20
5.9432060704
 30
0.0
 10
4.9115095118
 20
5.9480611376
 30
0.0
 10
4.9157165573
 20
5.9542311075
 30
0.0
 10
4.9217544556
 20
5.961370301
 30
0.0
 10
4.9285594701
 20
5.9677651531
 30
0.0
 10
4.9343486376
 20
5.9724675707
 30
0.0
 10
4.9403379585
 20
5.9769115308
 30
0.0
 10
4.9481531681
 20
5.9820039881
 30
0.0
 10
4.956296136
 20
5.9865472106
 30
0.0
 10
4.9629622598
 20
5.9898856948
 30
0.0
 10
4.9680290216
 20
5.9922514682
 30
0.0
 10
4.9731550095
 20
5.9944854952
 30
0.0
 10
4.9800593287
 20
5.9972974903
 30
0.0
 10
4.988805434
 20
6.0005201104
 30
0.0
 10
5.0029910346
 20
6.005110166
 30
0.0
 10
5.0210121752
 20
6.0098991066
 30
0.0
 10
5.0429235621
 20
6.0143916478
 30
0.0
 10
5.0650225187
 20
6.0178307645
 30
0.0
 10
5.0872413489
 20
6.020364838
 30
0.0
 10
5.1095356711
 20
6.0221015624
 30
0.0
 10
5.1318737536
 20
6.023113987
 30
0.0
 10
5.1467798083
 20
6.0233343352
 30
0.0
 10
5.1542323303
 20
6.0233331616
 30
0.0
  0
SPLINE
  5
470
100
AcDbEntity
  8
0
100
AcDbSpline
 62
7
  6
CONTINUOUS
 70
0
 71
3
 72
27
 73
23
 74
0
 42
0.0000001
 43
0.0000001
 44
0.0000000001
 40
0.0
 40
0.0
 40
0.0
 40
0.0
 40
0.0312709347
 40
0.0625400765
 40
0.0938125268
 40
0.125075637
 40
0.1563345078
 40
0.1875953859
 40
0.2188537753
 40
0.2501067578
 40
0.2813595838
 40
0.3126131179
 40
0.3438640222
 40
0.3751128905
 40
0.4376088966
 40
0.5001013006
 40
0.5625936875
 40
0.6250842888
 40
0.687573967
 40
0.7500627883
 40
0.8750322887
 40
1.0
 40
1.0
 40
1.0
 40
1.0
 10
5.3757304496
 20
5.9709509156
 30
0.0
 10
5.3738545671
 20
5.9724663133
 30
0.0
 10
5.3700133749
 20
5.9753876885
 30
0.0
 10
5.3640278634
 20
5.9794562602
 30
0.0
 10
5.3578552389
 20
5.9832330511
 30
0.0
 10
5.351528451
 20
5.986742766
 30
0.0
 10
5.3450702931
 20
5.9900018588
 30
0.0
 10
5.3384999836
 20
5.993026913
 30
0.0
 10
5.3318354593
 20
5.9958365158
 30
0.0
 10
5.3250910978
 20
5.9984464911
 30
0.0
 10
5.3182773805
 20
6.0008681409
 30
0.0
 10
5.3114040612
 20
6.0031140791
 30
0.0
 10
5.304480148
 20
6.0051974764
 30
0.0
 10
5.295190242
 20
6.0077714156
 30
0.0
 10
5.2834816962
 20
6.0106272784
 30
0.0
 10
5.2693192058
 20
6.0135479283
 30
0.0
 10
5.255070826
 20
6.0160110065
 30
0.0
 10
5.2407585283
 20
6.0180655309
 30
0.0
 10
5.2263979587
 20
6.0197455776
 30
0.0
 10
5.2072038628
 20
6.0215275655
 30
0.0
 10
5.1831455708
 20
6.0229569678
 30
0.0
 10
5.1638694099
 20
6.023331644
 30
0.0
 10
5.1542323303
 20
6.0233331616
 30
0.0
  0
SPLINE
  5
471
100
AcDbEntity
  8
0
100
AcDbSpline
 62
7
  6
CONTINUOUS
 70
0
 71
3
 72
23
 73
19
 74
0
 42
0.0000001
 43
0.0000001
 44
0.0000000001
 40
0.0
 40
0.0
 40
0.0
 40
0.0
 40
0.1163848159
 40
0.1771174251
 40
0.2394061601
 40
0.3031307189
 40
0.3354636854
 40
0.3680509889
 40
0.4338058746
 40
0.4999999992
 40
0.5661941245
 40
0.6319490114
 40
0.6645363151
 40
0.6968692817
 40
0.7605938406
 40
0.8228825754
 40
0.8836151843
 40
1.0
 40
1.0
 40
1.0
 40
1.0
 10
4.4026149068
 20
5.0454010791
 30
0.0
 10
4.3968711434
 20
5.0378961538
 30
0.0
 10
4.3890453859
 20
5.0257328079
 30
0.0
 10
4.3805561
 20
5.0082281951
 30
0.0
 10
4.3750633683
 20
4.9940744475
 30
0.0
 10
4.3714082466
 20
4.9817308684
 30
0.0
 10
4.3690597274
 20
4.9715495207
 30
0.0
 10
4.367100105
 20
4.9611183095
 30
0.0
 10
4.3654543136
 20
4.9478428892
 30
0.0
 10
4.364787724
 20
4.9317491985
 30
0.0
 10
4.3654543136
 20
4.9156555078
 30
0.0
 10
4.367100105
 20
4.9023800872
 30
0.0
 10
4.3690597274
 20
4.8919488759
 30
0.0
 10
4.3714082466
 20
4.8817675281
 30
0.0
 10
4.3750633683
 20
4.8694239491
 30
0.0
 10
4.3805561001
 20
4.8552702015
 30
0.0
 10
4.3890453859
 20
4.8377655888
 30
0.0
 10
4.3968711434
 20
4.8256022429
 30
0.0
 10
4.4026149068
 20
4.8180973176
 30
0.0
  0
SPLINE
  5
472
100
AcDbEntity
  8
0
100
AcDbSpline
 62
7
  6
CONTINUOUS
 70
0
 71
3
 72
23
 73
19
 74
0
 42
0.0000001
 43
0.0000001
 44
0.0000000001
 40
0.0
 40
0.0
 40
0.0
 40
0.0
 40
0.1163848154
 40
0.1771174235
 40
0.2394061574
 40
0.3031307164
 40
0.3354636831
 40
0.3680509871
 40
0.4338058746
 40
0.5000000006
 40
0.5661941261
 40
0.6319490127
 40
0.6645363164
 40
0.6968692831
 40
0.7605938421
 40
0.8228825762
 40
0.8836151844
 40
1.0
 40
1.0
 40
1.0
 40
1.0
 10
5.9056149068
 20
4.8180973176
 30
0.0
 10
5.9113586703
 20
4.8256022429
 30
0.0
 10
5.9191844277
 20
4.8377655887
 30
0.0
 10
5.9276737135
 20
4.8552702013
 30
0.0
 10
5.9331664452
 20
4.8694239487
 30
0.0
 10
5.9368215669
 20
4.8817675277
 30
0.0
 10
5.9391700861
 20
4.8919488755
 30
0.0
 10
5.9411297087
 20
4.9023800869
 30
0.0
 10
5.9427755
 20
4.9156555075
 30
0.0
 10
5.9434420897
 20
4.9317491985
 30
0.0
 10
5.9427755001
 20
4.9478428893
 30
0.0
 10
5.9411297086
 20
4.9611183099
 30
0.0
 10
5.9391700862
 20
4.9715495211
 30
0.0
 10
5.9368215669
 20
4.9817308689
 30
0.0
 10
5.9331664452
 20
4.994074448
 30
0.0
 10
5.9276737136
 20
5.0082281954
 30
0.0
 10
5.9191844277
 20
5.025732808
 30
0.0
 10
5.9113586703
 20
5.0378961538
 30
0.0
 10
5.9056149068
 20
5.0454010791
 30
0.0
  0
SPLINE
  5
473
100
AcDbEntity
  8
0
100
AcDbSpline
 62
7
  6
CONTINUOUS
 70
0
 71
3
 72
23
 73
19
 74
0
 42
0.0000001
 43
0.0000001
 44
0.0000000001
 40
0.0
 40
0.0
 40
0.0
 40
0.0
 40
0.1144229482
 40
0.1747637903
 40
0.2370240099
 40
0.3010386668
 40
0.3336160815
 40
0.3665029851
 40
0.432985275
 40
0.4999999992
 40
0.5670147241
 40
0.6334970151
 40
0.666383919
 40
0.6989613338
 40
0.7629759908
 40
0.8252362102
 40
0.8855770521
 40
1.0
 40
1.0
 40
1.0
 40
1.0
 10
4.4062335847
 20
5.0454010791
 30
0.0
 10
4.4010395554
 20
5.0378365717
 30
0.0
 10
4.3940112451
 20
5.0256287039
 30
0.0
 10
4.3864270315
 20
5.0081867946
 30
0.0
 10
4.3815042271
 20
4.9940379559
 30
0.0
 10
4.3782321541
 20
4.9817133131
 30
0.0
 10
4.3761277906
 20
4.9715432548
 30
0.0
 10
4.3743691426
 20
4.9611069059
 30
0.0
 10
4.3728937144
 20
4.9478323688
 30
0.0
 10
4.3722964276
 20
4.9317491985
 30
0.0
 10
4.3728937144
 20
4.9156660281
 30
0.0
 10
4.3743691426
 20
4.9023914908
 30
0.0
 10
4.3761277906
 20
4.8919551418
 30
0.0
 10
4.3782321541
 20
4.8817850835
 30
0.0
 10
4.3815042271
 20
4.8694604407
 30
0.0
 10
4.3864270316
 20
4.855311602
 30
0.0
 10
4.3940112451
 20
4.8378696927
 30
0.0
 10
4.4010395554
 20
4.825661825
 30
0.0
 10
4.4062335847
 20
4.8180973176
 30
0.0
  0
SPLINE
  5
474
100
AcDbEntity
  8
0
100
AcDbSpline
 62
7
  6
CONTINUOUS
 70
0
 71
3
 72
23
 73
19
 74
0
 42
0.0000001
 43
0.0000001
 44
0.0000000001
 40
0.0
 40
0.0
 40
0.0
 40
0.0
 40
0.0549798158
 40
0.1124764046
 40
0.1724187291
 40
0.2346500672
 40
0.2989564711
 40
0.3649569873
 40
0.4321662345
 40
0.4999999992
 40
0.5678337646
 40
0.635043013
 40
0.7010435295
 40
0.7653499334
 40
0.8275812714
 40
0.8875235956
 40
0.9450201843
 40
1.0
 40
1.0
 40
1.0
 40
1.0
 10
4.4170547686
 20
5.0454010791
 30
0.0
 10
4.4148104613
 20
5.041668765
 30
0.0
 10
4.4105016794
 20
5.0338600265
 30
0.0
 10
4.4047604666
 20
5.0214557504
 30
0.0
 10
4.3996943731
 20
5.0081434379
 30
0.0
 10
4.3953883992
 20
4.9940015587
 30
0.0
 10
4.3919343435
 20
4.9791347246
 30
0.0
 10
4.3894000611
 20
4.9636840737
 30
0.0
 10
4.3878568046
 20
4.9478224481
 30
0.0
 10
4.3873344549
 20
4.9317491985
 30
0.0
 10
4.3878568046
 20
4.9156759488
 30
0.0
 10
4.389400061
 20
4.899814323
 30
0.0
 10
4.3919343436
 20
4.884363672
 30
0.0
 10
4.3953883992
 20
4.8694968379
 30
0.0
 10
4.3996943731
 20
4.8553549587
 30
0.0
 10
4.4047604666
 20
4.8420426463
 30
0.0
 10
4.4105016794
 20
4.8296383702
 30
0.0
 10
4.4148104613
 20
4.8218296317
 30
0.0
 10
4.4170547686
 20
4.8180973176
 30
0.0
  0
SPLINE
  5
475
100
AcDbEntity
  8
0
100
AcDbSpline
 62
7
  6
CONTINUOUS
 70
0
 71
3
 72
23
 73
19
 74
0
 42
0.0000001
 43
0.0000001
 44
0.0000000001
 40
0.0
 40
0.0
 40
0.0
 40
0.0
 40
0.0537818635
 40
0.1105057987
 40
0.1700759986
 40
0.2322957883
 40
0.2969000074
 40
0.3634430818
 40
0.4313656239
 40
0.4999999992
 40
0.5686343752
 40
0.6365569184
 40
0.7030999932
 40
0.7677042124
 40
0.8299240019
 40
0.8894942015
 40
0.9462181365
 40
1.0
 40
1.0
 40
1.0
 40
1.0
 10
4.4349742445
 20
5.0454010791
 30
0.0
 10
4.433060937
 20
5.0416510639
 30
0.0
 10
4.4293923854
 20
5.0338094002
 30
0.0
 10
4.4245259605
 20
5.0214087219
 30
0.0
 10
4.4202321952
 20
5.0081019759
 30
0.0
 10
4.4165826963
 20
4.9939666484
 30
0.0
 10
4.4136553558
 20
4.9791076883
 30
0.0
 10
4.4115075119
 20
4.9636654739
 30
0.0
 10
4.4101996156
 20
4.9478130516
 30
0.0
 10
4.4097569183
 20
4.9317491985
 30
0.0
 10
4.4101996157
 20
4.9156853453
 30
0.0
 10
4.4115075119
 20
4.8998329229
 30
0.0
 10
4.4136553558
 20
4.8843907083
 30
0.0
 10
4.4165826963
 20
4.8695317482
 30
0.0
 10
4.4202321952
 20
4.8553964207
 30
0.0
 10
4.4245259605
 20
4.8420896747
 30
0.0
 10
4.4293923854
 20
4.8296889965
 30
0.0
 10
4.433060937
 20
4.8218473328
 30
0.0
 10
4.4349742445
 20
4.8180973176
 30
0.0
  0
SPLINE
  5
476
100
AcDbEntity
  8
0
100
AcDbSpline
 62
7
  6
CONTINUOUS
 70
0
 71
3
 72
23
 73
19
 74
0
 42
0.0000001
 43
0.0000001
 44
0.0000000001
 40
0.0
 40
0.0
 40
0.0
 40
0.0
 40
0.0526653056
 40
0.1086775894
 40
0.1679110538
 40
0.2301271051
 40
0.2950103387
 40
0.3620544153
 40
0.430632017
 40
0.4999999991
 40
0.5693679821
 40
0.6379455849
 40
0.7049896619
 40
0.7698728956
 40
0.8320889466
 40
0.8913224109
 40
0.9473346945
 40
1.0
 40
1.0
 40
1.0
 40
1.0
 10
4.4598194382
 20
5.0454010791
 30
0.0
 10
4.4582587674
 20
5.0416331177
 30
0.0
 10
4.4552708748
 20
5.0337597564
 30
0.0
 10
4.4513245954
 20
5.0213639958
 30
0.0
 10
4.4478427998
 20
5.00806356
 30
0.0
 10
4.4448832933
 20
4.993934964
 30
0.0
 10
4.4425094063
 20
4.9790835378
 30
0.0
 10
4.4407675765
 20
4.9636490429
 30
0.0
 10
4.439706924
 20
4.9478048063
 30
0.0
 10
4.4393479028
 20
4.9317491985
 30
0.0
 10
4.439706924
 20
4.9156935907
 30
0.0
 10
4.4407675765
 20
4.8998493538
 30
0.0
 10
4.4425094064
 20
4.8844148588
 30
0.0
 10
4.4448832934
 20
4.8695634326
 30
0.0
 10
4.4478427998
 20
4.8554348366
 30
0.0
 10
4.4513245954
 20
4.8421344009
 30
0.0
 10
4.4552708748
 20
4.8297386403
 30
0.0
 10
4.4582587674
 20
4.821865279
 30
0.0
 10
4.4598194382
 20
4.8180973176
 30
0.0
  0
SPLINE
  5
477
100
AcDbEntity
  8
0
100
AcDbSpline
 62
7
  6
CONTINUOUS
 70
0
 71
3
 72
23
 73
19
 74
0
 42
0.0000001
 43
0.0000001
 44
0.0000000001
 40
0.0
 40
0.0
 40
0.0
 40
0.0
 40
0.0516973649
 40
0.10709957
 40
0.1660490278
 40
0.2282671676
 40
0.2933932085
 40
0.3608678385
 40
0.4300057413
 40
0.5000000001
 40
0.5699942587
 40
0.6391321614
 40
0.7066067914
 40
0.7717328324
 40
0.8339509722
 40
0.89290043
 40
0.9483026351
 40
1.0
 40
1.0
 40
1.0
 40
1.0
 10
4.4913510767
 20
5.0454010791
 30
0.0
 10
4.4901619453
 20
5.0416163
 30
0.0
 10
4.4878889757
 20
5.0337147213
 30
0.0
 10
4.4848987306
 20
5.0213245505
 30
0.0
 10
4.4822603677
 20
5.0080304747
 30
0.0
 10
4.4800175777
 20
4.9939081753
 30
0.0
 10
4.4782185267
 20
4.9790634074
 30
0.0
 10
4.4768984091
 20
4.9636354819
 30
0.0
 10
4.4760945456
 20
4.9477980418
 30
0.0
 10
4.4758224345
 20
4.9317491984
 30
0.0
 10
4.4760945456
 20
4.9157003549
 30
0.0
 10
4.4768984091
 20
4.8998629149
 30
0.0
 10
4.4782185267
 20
4.8844349893
 30
0.0
 10
4.4800175777
 20
4.8695902214
 30
0.0
 10
4.4822603677
 20
4.855467922
 30
0.0
 10
4.4848987306
 20
4.8421738462
 30
0.0
 10
4.4878889757
 20
4.8297836754
 30
0.0
 10
4.4901619453
 20
4.8218820967
 30
0.0
 10
4.4913510767
 20
4.8180973176
 30
0.0
  0
SPLINE
  5
478
100
AcDbEntity
  8
0
100
AcDbSpline
 62
7
  6
CONTINUOUS
 70
0
 71
3
 72
23
 73
19
 74
0
 42
0.0000001
 43
0.0000001
 44
0.0000000001
 40
0.0
 40
0.0
 40
0.0
 40
0.0
 40
0.0509450806
 40
0.1058776353
 40
0.1646115307
 40
0.2268347321
 40
0.2921500483
 40
0.3599568537
 40
0.4295252852
 40
0.4999999991
 40
0.5704747138
 40
0.6400431465
 40
0.7078499523
 40
0.7731652686
 40
0.8353884698
 40
0.8941223649
 40
0.9490549195
 40
1.0
 40
1.0
 40
1.0
 40
1.0
 10
4.5292654932
 20
5.0454010791
 30
0.0
 10
4.528463372
 20
5.0416023432
 30
0.0
 10
4.5269323593
 20
5.0336784068
 30
0.0
 10
4.5249245592
 20
5.0212934904
 30
0.0
 10
4.523152923
 20
5.0080049224
 30
0.0
 10
4.521646758
 20
4.9938877769
 30
0.0
 10
4.5204385381
 20
4.9790482346
 30
0.0
 10
4.5195519169
 20
4.9636253285
 30
0.0
 10
4.5190120161
 20
4.9477929962
 30
0.0
 10
4.5188292536
 20
4.9317491985
 30
0.0
 10
4.5190120161
 20
4.9157054007
 30
0.0
 10
4.5195519169
 20
4.8998730682
 30
0.0
 10
4.5204385381
 20
4.884450162
 30
0.0
 10
4.521646758
 20
4.8696106197
 30
0.0
 10
4.523152923
 20
4.8554934742
 30
0.0
 10
4.5249245592
 20
4.8422049063
 30
0.0
 10
4.5269323593
 20
4.8298199899
 30
0.0
 10
4.528463372
 20
4.8218960535
 30
0.0
 10
4.5292654932
 20
4.8180973176
 30
0.0
  0
SPLINE
  5
479
100
AcDbEntity
  8
0
100
AcDbSpline
 62
7
  6
CONTINUOUS
 70
0
 71
3
 72
23
 73
19
 74
0
 42
0.0000001
 43
0.0000001
 44
0.0000000001
 40
0.0
 40
0.0
 40
0.0
 40
0.0
 40
0.0504668086
 40
0.1051028746
 40
0.1637020409
 40
0.2259299482
 40
0.2913657893
 40
0.3593826377
 40
0.4292225959
 40
0.4999999991
 40
0.5707774032
 40
0.6406173626
 40
0.7086342113
 40
0.7740700524
 40
0.8362979596
 40
0.8948971256
 40
0.9495331914
 40
1.0
 40
1.0
 40
1.0
 40
1.0
 10
4.5731975511
 20
5.0454010791
 30
0.0
 10
4.5727935623
 20
5.0415930332
 30
0.0
 10
4.5720232522
 20
5.0336547027
 30
0.0
 10
4.5710151218
 20
5.0212735608
 30
0.0
 10
4.5701255196
 20
5.0079887578
 30
0.0
 10
4.5693691606
 20
4.9938750099
 30
0.0
 10
4.5687624005
 20
4.9790388164
 30
0.0
 10
4.5683171276
 20
4.9636190618
 30
0.0
 10
4.5680459793
 20
4.9477898929
 30
0.0
 10
4.5679541908
 20
4.9317491985
 30
0.0
 10
4.5680459793
 20
4.915708504
 30
0.0
 10
4.5683171276
 20
4.8998793349
 30
0.0
 10
4.5687624005
 20
4.8844595802
 30
0.0
 10
4.5693691606
 20
4.8696233867
 30
0.0
 10
4.5701255196
 20
4.8555096389
 30
0.0
 10
4.5710151218
 20
4.8422248359
 30
0.0
 10
4.5720232522
 20
4.829843694
 30
0.0
 10
4.5727935623
 20
4.8219053635
 30
0.0
 10
4.5731975511
 20
4.8180973176
 30
0.0
  0
SPLINE
  5
47A
100
AcDbEntity
  8
0
100
AcDbSpline
 62
7
  6
CONTINUOUS
 70
0
 71
3
 72
23
 73
19
 74
0
 42
0.0000001
 43
0.0000001
 44
0.0000000001
 40
0.0
 40
0.0
 40
0.0
 40
0.0
 40
0.0504668085
 40
0.1051028739
 40
0.1637020384
 40
0.2259299442
 40
0.2913657856
 40
0.3593826348
 40
0.4292225954
 40
0.5000000007
 40
0.5707774053
 40
0.6406173649
 40
0.7086342139
 40
0.7740700553
 40
0.8362979613
 40
0.8948971259
 40
0.9495331914
 40
1.0
 40
1.0
 40
1.0
 40
1.0
 10
5.7350322625
 20
4.8180973176
 30
0.0
 10
5.7354362514
 20
4.8219053635
 30
0.0
 10
5.7362065614
 20
4.829843694
 30
0.0
 10
5.7372146918
 20
4.8422248357
 30
0.0
 10
5.738104294
 20
4.8555096384
 30
0.0
 10
5.7388606531
 20
4.869623386
 30
0.0
 10
5.7394674131
 20
4.8844595795
 30
0.0
 10
5.739912686
 20
4.8998793344
 30
0.0
 10
5.7401838344
 20
4.9157085036
 30
0.0
 10
5.7402756228
 20
4.9317491985
 30
0.0
 10
5.7401838344
 20
4.9477898932
 30
0.0
 10
5.739912686
 20
4.9636190624
 30
0.0
 10
5.7394674131
 20
4.9790388171
 30
0.0
 10
5.7388606531
 20
4.9938750106
 30
0.0
 10
5.738104294
 20
5.0079887582
 30
0.0
 10
5.7372146918
 20
5.021273561
 30
0.0
 10
5.7362065614
 20
5.0336547027
 30
0.0
 10
5.7354362514
 20
5.0415930332
 30
0.0
 10
5.7350322625
 20
5.0454010791
 30
0.0
  0
SPLINE
  5
47B
100
AcDbEntity
  8
0
100
AcDbSpline
 62
7
  6
CONTINUOUS
 70
0
 71
3
 72
23
 73
19
 74
0
 42
0.0000001
 43
0.0000001
 44
0.0000000001
 40
0.0
 40
0.0
 40
0.0
 40
0.0
 40
0.0509450805
 40
0.1058776346
 40
0.1646115282
 40
0.226834728
 40
0.2921500446
 40
0.3599568509
 40
0.4295252848
 40
0.5000000007
 40
0.5704747159
 40
0.6400431488
 40
0.7078499549
 40
0.7731652715
 40
0.8353884714
 40
0.8941223652
 40
0.9490549195
 40
1.0
 40
1.0
 40
1.0
 40
1.0
 10
5.7789643205
 20
4.8180973176
 30
0.0
 10
5.7797664417
 20
4.8218960535
 30
0.0
 10
5.7812974543
 20
4.8298199899
 30
0.0
 10
5.7833052544
 20
4.8422049061
 30
0.0
 10
5.7850768906
 20
4.8554934738
 30
0.0
 10
5.7865830556
 20
4.8696106191
 30
0.0
 10
5.7877912755
 20
4.8844501613
 30
0.0
 10
5.7886778967
 20
4.8998730677
 30
0.0
 10
5.7892177976
 20
4.9157054004
 30
0.0
 10
5.78940056
 20
4.9317491985
 30
0.0
 10
5.7892177976
 20
4.9477929964
 30
0.0
 10
5.7886778967
 20
4.963625329
 30
0.0
 10
5.7877912755
 20
4.9790482353
 30
0.0
 10
5.7865830556
 20
4.9938877775
 30
0.0
 10
5.7850768906
 20
5.0080049228
 30
0.0
 10
5.7833052544
 20
5.0212934906
 30
0.0
 10
5.7812974543
 20
5.0336784068
 30
0.0
 10
5.7797664417
 20
5.0416023433
 30
0.0
 10
5.7789643205
 20
5.0454010791
 30
0.0
  0
SPLINE
  5
47C
100
AcDbEntity
  8
0
100
AcDbSpline
 62
7
  6
CONTINUOUS
 70
0
 71
3
 72
23
 73
19
 74
0
 42
0.0000001
 43
0.0000001
 44
0.0000000001
 40
0.0
 40
0.0
 40
0.0
 40
0.0
 40
0.0516973843
 40
0.1070996221
 40
0.1660491046
 40
0.2282672598
 40
0.2933932918
 40
0.360867916
 40
0.4300057834
 40
0.4999999999
 40
0.5699942165
 40
0.6391320841
 40
0.7066067083
 40
0.7717327402
 40
0.8339508954
 40
0.8929003779
 40
0.9483026157
 40
1.0
 40
1.0
 40
1.0
 40
1.0
 10
5.816878737
 20
4.8180973176
 30
0.0
 10
5.8180678688
 20
4.8218820981
 30
0.0
 10
5.8203408389
 20
4.8297836809
 30
0.0
 10
5.8233310854
 20
4.8421738574
 30
0.0
 10
5.8259694493
 20
4.8554679387
 30
0.0
 10
5.8282122385
 20
4.8695902406
 30
0.0
 10
5.8300112893
 20
4.8844350086
 30
0.0
 10
5.831331405
 20
4.8998629304
 30
0.0
 10
5.8321352691
 20
4.9157003641
 30
0.0
 10
5.8324073786
 20
4.9317491983
 30
0.0
 10
5.8321352691
 20
4.9477980326
 30
0.0
 10
5.831331405
 20
4.9636354663
 30
0.0
 10
5.8300112893
 20
4.9790633881
 30
0.0
 10
5.8282122385
 20
4.9939081561
 30
0.0
 10
5.8259694493
 20
5.008030458
 30
0.0
 10
5.8233310854
 20
5.0213245394
 30
0.0
 10
5.8203408389
 20
5.0337147158
 30
0.0
 10
5.8180678688
 20
5.0416162986
 30
0.0
 10
5.816878737
 20
5.0454010791
 30
0.0
  0
SPLINE
  5
47D
100
AcDbEntity
  8
0
100
AcDbSpline
 62
7
  6
CONTINUOUS
 70
0
 71
3
 72
23
 73
19
 74
0
 42
0.0000001
 43
0.0000001
 44
0.0000000001
 40
0.0
 40
0.0
 40
0.0
 40
0.0
 40
0.0526653055
 40
0.1086775886
 40
0.1679110514
 40
0.2301271011
 40
0.295010335
 40
0.3620544126
 40
0.4306320165
 40
0.5000000007
 40
0.5693679842
 40
0.6379455872
 40
0.7049896645
 40
0.7698728984
 40
0.8320889483
 40
0.8913224112
 40
0.9473346944
 40
1.0
 40
1.0
 40
1.0
 40
1.0
 10
5.8484103755
 20
4.8180973176
 30
0.0
 10
5.8499710462
 20
4.821865279
 30
0.0
 10
5.8529589389
 20
4.8297386403
 30
0.0
 10
5.8569052182
 20
4.8421344007
 30
0.0
 10
5.8603870138
 20
4.8554348361
 30
0.0
 10
5.8633465202
 20
4.8695634319
 30
0.0
 10
5.8657204072
 20
4.8844148581
 30
0.0
 10
5.8674622371
 20
4.8998493532
 30
0.0
 10
5.8685228896
 20
4.9156935903
 30
0.0
 10
5.8688819109
 20
4.9317491985
 30
0.0
 10
5.8685228896
 20
4.9478048065
 30
0.0
 10
5.8674622371
 20
4.9636490435
 30
0.0
 10
5.8657204072
 20
4.9790835385
 30
0.0
 10
5.8633465202
 20
4.9939349647
 30
0.0
 10
5.8603870138
 20
5.0080635605
 30
0.0
 10
5.8569052182
 20
5.021363996
 30
0.0
 10
5.8529589389
 20
5.0337597564
 30
0.0
 10
5.8499710462
 20
5.0416331177
 30
0.0
 10
5.8484103755
 20
5.0454010791
 30
0.0
  0
SPLINE
  5
47E
100
AcDbEntity
  8
0
100
AcDbSpline
 62
7
  6
CONTINUOUS
 70
0
 71
3
 72
23
 73
19
 74
0
 42
0.0000001
 43
0.0000001
 44
0.0000000001
 40
0.0
 40
0.0
 40
0.0
 40
0.0
 40
0.0537818634
 40
0.110505798
 40
0.1700759961
 40
0.2322957843
 40
0.2969000037
 40
0.3634430791
 40
0.4313656234
 40
0.5000000007
 40
0.5686343772
 40
0.6365569206
 40
0.7030999957
 40
0.7677042152
 40
0.8299240035
 40
0.8894942018
 40
0.9462181365
 40
1.0
 40
1.0
 40
1.0
 40
1.0
 10
5.8732555691
 20
4.8180973176
 30
0.0
 10
5.8751688766
 20
4.8218473328
 30
0.0
 10
5.8788374282
 20
4.8296889965
 30
0.0
 10
5.8837038531
 20
4.8420896745
 30
0.0
 10
5.8879976183
 20
4.8553964202
 30
0.0
 10
5.8916471172
 20
4.8695317476
 30
0.0
 10
5.8945744577
 20
4.8843907077
 30
0.0
 10
5.8967223017
 20
4.8998329223
 30
0.0
 10
5.8980301979
 20
4.915685345
 30
0.0
 10
5.8984728954
 20
4.9317491985
 30
0.0
 10
5.898030198
 20
4.9478130519
 30
0.0
 10
5.8967223017
 20
4.9636654744
 30
0.0
 10
5.8945744577
 20
4.979107689
 30
0.0
 10
5.8916471173
 20
4.9939666491
 30
0.0
 10
5.8879976184
 20
5.0081019764
 30
0.0
 10
5.8837038531
 20
5.0214087221
 30
0.0
 10
5.8788374282
 20
5.0338094002
 30
0.0
 10
5.8751688766
 20
5.0416510639
 30
0.0
 10
5.8732555691
 20
5.0454010791
 30
0.0
  0
SPLINE
  5
47F
100
AcDbEntity
  8
0
100
AcDbSpline
 62
7
  6
CONTINUOUS
 70
0
 71
3
 72
23
 73
19
 74
0
 42
0.0000001
 43
0.0000001
 44
0.0000000001
 40
0.0
 40
0.0
 40
0.0
 40
0.0
 40
0.0549798157
 40
0.1124764039
 40
0.1724187266
 40
0.2346500632
 40
0.2989564674
 40
0.3649569846
 40
0.4321662341
 40
0.5000000007
 40
0.5678337666
 40
0.6350430152
 40
0.7010435321
 40
0.7653499362
 40
0.8275812731
 40
0.8875235959
 40
0.9450201842
 40
1.0
 40
1.0
 40
1.0
 40
1.0
 10
5.8911750451
 20
4.8180973176
 30
0.0
 10
5.8934193524
 20
4.8218296317
 30
0.0
 10
5.8977281342
 20
4.8296383701
 30
0.0
 10
5.9034693469
 20
4.8420426461
 30
0.0
 10
5.9085354404
 20
4.8553549583
 30
0.0
 10
5.9128414143
 20
4.8694968372
 30
0.0
 10
5.9162954699
 20
4.8843636714
 30
0.0
 10
5.9188297526
 20
4.8998143225
 30
0.0
 10
5.920373009
 20
4.9156759485
 30
0.0
 10
5.9208953588
 20
4.9317491985
 30
0.0
 10
5.920373009
 20
4.9478224484
 30
0.0
 10
5.9188297526
 20
4.9636840742
 30
0.0
 10
5.9162954699
 20
4.9791347253
 30
0.0
 10
5.9128414144
 20
4.9940015594
 30
0.0
 10
5.9085354405
 20
5.0081434383
 30
0.0
 10
5.903469347
 20
5.0214557506
 30
0.0
 10
5.8977281342
 20
5.0338600266
 30
0.0
 10
5.8934193524
 20
5.041668765
 30
0.0
 10
5.8911750451
 20
5.0454010791
 30
0.0
  0
SPLINE
  5
480
100
AcDbEntity
  8
0
100
AcDbSpline
 62
7
  6
CONTINUOUS
 70
0
 71
3
 72
23
 73
19
 74
0
 42
0.0000001
 43
0.0000001
 44
0.0000000001
 40
0.0
 40
0.0
 40
0.0
 40
0.0
 40
0.1144229474
 40
0.1747637878
 40
0.2370240059
 40
0.3010386632
 40
0.3336160782
 40
0.3665029824
 40
0.4329852746
 40
0.5000000007
 40
0.5670147261
 40
0.6334970173
 40
0.6663839213
 40
0.6989613363
 40
0.7629759936
 40
0.8252362118
 40
0.8855770524
 40
1.0
 40
1.0
 40
1.0
 40
1.0
 10
5.9019962289
 20
4.8180973176
 30
0.0
 10
5.9071902582
 20
4.8256618249
 30
0.0
 10
5.9142185684
 20
4.8378696926
 30
0.0
 10
5.921802782
 20
4.8553116016
 30
0.0
 10
5.9267255864
 20
4.86946044
 30
0.0
 10
5.9299976593
 20
4.8817850828
 30
0.0
 10
5.932102023
 20
4.8919551411
 30
0.0
 10
5.933860671
 20
4.9023914903
 30
0.0
 10
5.9353360992
 20
4.9156660278
 30
0.0
 10
5.9359333861
 20
4.9317491985
 30
0.0
 10
5.9353360993
 20
4.947832369
 30
0.0
 10
5.933860671
 20
4.9611069064
 30
0.0
 10
5.932102023
 20
4.9715432555
 30
0.0
 10
5.9299976594
 20
4.9817133138
 30
0.0
 10
5.9267255864
 20
4.9940379566
 30
0.0
 10
5.921802782
 20
5.0081867951
 30
0.0
 10
5.9142185684
 20
5.0256287041
 30
0.0
 10
5.9071902582
 20
5.0378365718
 30
0.0
 10
5.9019962289
 20
5.0454010791
 30
0.0
  0
SPLINE
  5
481
100
AcDbEntity
  8
0
100
AcDbSpline
 62
7
  6
CONTINUOUS
 70
0
 71
3
 72
23
 73
19
 74
0
 42
0.0000001
 43
0.0000001
 44
0.0000000001
 40
0.0
 40
0.0
 40
0.0
 40
0.0
 40
0.0504668086
 40
0.1051028746
 40
0.1637020409
 40
0.2259299482
 40
0.2913657893
 40
0.3593826377
 40
0.4292225959
 40
0.4999999991
 40
0.5707774032
 40
0.6406173626
 40
0.7086342113
 40
0.7740700524
 40
0.8362979596
 40
0.8948971256
 40
0.9495331914
 40
1.0
 40
1.0
 40
1.0
 40
1.0
 10
4.6773683538
 20
5.0454010791
 30
0.0
 10
4.6777723426
 20
5.0415930332
 30
0.0
 10
4.6785426527
 20
5.0336547027
 30
0.0
 10
4.6795507831
 20
5.0212735608
 30
0.0
 10
4.6804403853
 20
5.0079887578
 30
0.0
 10
4.6811967443
 20
4.9938750099
 30
0.0
 10
4.6818035044
 20
4.9790388164
 30
0.0
 10
4.6822487773
 20
4.9636190618
 30
0.0
 10
4.6825199256
 20
4.9477898929
 30
0.0
 10
4.6826117141
 20
4.9317491985
 30
0.0
 10
4.6825199256
 20
4.915708504
 30
0.0
 10
4.6822487773
 20
4.8998793349
 30
0.0
 10
4.6818035044
 20
4.8844595802
 30
0.0
 10
4.6811967443
 20
4.8696233867
 30
0.0
 10
4.6804403853
 20
4.8555096389
 30
0.0
 10
4.6795507831
 20
4.8422248359
 30
0.0
 10
4.6785426527
 20
4.829843694
 30
0.0
 10
4.6777723426
 20
4.8219053635
 30
0.0
 10
4.6773683538
 20
4.8180973176
 30
0.0
  0
SPLINE
  5
482
100
AcDbEntity
  8
0
100
AcDbSpline
 62
7
  6
CONTINUOUS
 70
0
 71
3
 72
31
 73
27
 74
0
 42
0.0000001
 43
0.0000001
 44
0.0000000001
 40
0.0
 40
0.0
 40
0.0
 40
0.0
 40
0.0623745027
 40
0.0936050447
 40
0.1248448584
 40
0.1560907575
 40
0.1873395837
 40
0.2498161391
 40
0.2810747319
 40
0.3123455018
 40
0.3748759915
 40
0.4061595655
 40
0.4374479335
 40
0.5000000006
 40
0.562552067
 40
0.5938404346
 40
0.6251240083
 40
0.6876544977
 40
0.7189252676
 40
0.7501838604
 40
0.8126604159
 40
0.8439092422
 40
0.8751551414
 40
0.9063949552
 40
0.9376254972
 40
1.0
 40
1.0
 40
1.0
 40
1.0
 10
4.6773683538
 20
4.8180973176
 30
0.0
 10
4.6734370784
 20
4.82174708
 30
0.0
 10
4.6677583056
 20
4.8274709182
 30
0.0
 10
4.6607096948
 20
4.835573477
 30
0.0
 10
4.6556982434
 20
4.8418895569
 30
0.0
 10
4.6509876875
 20
4.8484353847
 30
0.0
 10
4.6451371985
 20
4.857454847
 30
0.0
 10
4.639962873
 20
4.8669016223
 30
0.0
 10
4.6355545998
 20
4.8767117355
 30
0.0
 10
4.6316774748
 20
4.8867482605
 30
0.0
 10
4.6286247949
 20
4.8970910305
 30
0.0
 10
4.6264673074
 20
4.9076364265
 30
0.0
 10
4.6249165176
 20
4.918290137
 30
0.0
 10
4.6241284443
 20
4.9317491985
 30
0.0
 10
4.6249165175
 20
4.9452082599
 30
0.0
 10
4.6264673074
 20
4.9558619702
 30
0.0
 10
4.6286247949
 20
4.9664073662
 30
0.0
 10
4.6316774748
 20
4.9767501361
 30
0.0
 10
4.6355545998
 20
4.9867866611
 30
0.0
 10
4.6399628729
 20
4.9965967743
 30
0.0
 10
4.6451371984
 20
5.0060435496
 30
0.0
 10
4.6509876875
 20
5.0150630119
 30
0.0
 10
4.6556982434
 20
5.0216088398
 30
0.0
 10
4.6607096947
 20
5.0279249196
 30
0.0
 10
4.6677583056
 20
5.0360274786
 30
0.0
 10
4.6734370784
 20
5.0417513167
 30
0.0
 10
4.6773683538
 20
5.0454010791
 30
0.0
  0
SPLINE
  5
483
100
AcDbEntity
  8
0
100
AcDbSpline
 62
7
  6
CONTINUOUS
 70
0
 71
3
 72
23
 73
19
 74
0
 42
0.0000001
 43
0.0000001
 44
0.0000000001
 40
0.0
 40
0.0
 40
0.0
 40
0.0
 40
0.0509450806
 40
0.1058776353
 40
0.1646115307
 40
0.2268347321
 40
0.2921500483
 40
0.3599568537
 40
0.4295252852
 40
0.4999999991
 40
0.5704747138
 40
0.6400431465
 40
0.7078499523
 40
0.7731652686
 40
0.8353884698
 40
0.8941223649
 40
0.9490549195
 40
1.0
 40
1.0
 40
1.0
 40
1.0
 10
4.7366038767
 20
5.0454010791
 30
0.0
 10
4.7374059979
 20
5.0416023432
 30
0.0
 10
4.7389370106
 20
5.0336784068
 30
0.0
 10
4.7409448107
 20
5.0212934904
 30
0.0
 10
4.7427164469
 20
5.0080049224
 30
0.0
 10
4.7442226119
 20
4.9938877769
 30
0.0
 10
4.7454308318
 20
4.9790482346
 30
0.0
 10
4.746317453
 20
4.9636253285
 30
0.0
 10
4.7468573539
 20
4.9477929962
 30
0.0
 10
4.7470401163
 20
4.9317491985
 30
0.0
 10
4.7468573538
 20
4.9157054007
 30
0.0
 10
4.746317453
 20
4.8998730682
 30
0.0
 10
4.7454308318
 20
4.884450162
 30
0.0
 10
4.7442226119
 20
4.8696106197
 30
0.0
 10
4.7427164469
 20
4.8554934742
 30
0.0
 10
4.7409448107
 20
4.8422049063
 30
0.0
 10
4.7389370106
 20
4.8298199899
 30
0.0
 10
4.7374059979
 20
4.8218960535
 30
0.0
 10
4.7366038767
 20
4.8180973176
 30
0.0
  0
SPLINE
  5
484
100
AcDbEntity
  8
0
100
AcDbSpline
 62
7
  6
CONTINUOUS
 70
0
 71
3
 72
29
 73
25
 74
0
 42
0.0000001
 43
0.0000001
 44
0.0000000001
 40
0.0
 40
0.0
 40
0.0
 40
0.0
 40
0.0621230307
 40
0.0932569561
 40
0.1244202642
 40
0.1868050968
 40
0.249269811
 40
0.2805505202
 40
0.3118606234
 40
0.3745149327
 40
0.4058782984
 40
0.4372552263
 40
0.5000000006
 40
0.5627447743
 40
0.5941217017
 40
0.6254850671
 40
0.6881393761
 40
0.7194494793
 40
0.7507301885
 40
0.8131949028
 40
0.8755797356
 40
0.9067430438
 40
0.9378769693
 40
1.0
 40
1.0
 40
1.0
 40
1.0
 10
4.7366038767
 20
4.8180973176
 30
0.0
 10
4.7327271162
 20
4.8217493099
 30
0.0
 10
4.7271290128
 20
4.8274752476
 30
0.0
 10
4.7201845726
 20
4.8355755762
 30
0.0
 10
4.7135979375
 20
4.8439987529
 30
0.0
 10
4.7061063111
 20
4.8551052682
 30
0.0
 10
4.699737444
 20
4.8669064865
 30
0.0
 10
4.6953942546
 20
4.8767138239
 30
0.0
 10
4.6915726016
 20
4.8867525232
 30
0.0
 10
4.6885648323
 20
4.8970945226
 30
0.0
 10
4.6864391342
 20
4.9076375363
 30
0.0
 10
4.6849108004
 20
4.9182917118
 30
0.0
 10
4.6841343906
 20
4.9317491985
 30
0.0
 10
4.6849108003
 20
4.9452066851
 30
0.0
 10
4.6864391341
 20
4.9558608604
 30
0.0
 10
4.6885648324
 20
4.966403874
 30
0.0
 10
4.6915726016
 20
4.9767458734
 30
0.0
 10
4.6953942545
 20
4.9867845727
 30
0.0
 10
4.699737444
 20
4.9965919101
 30
0.0
 10
4.706106311
 20
5.0083931285
 30
0.0
 10
4.7135979375
 20
5.0194996438
 30
0.0
 10
4.7201845726
 20
5.0279228205
 30
0.0
 10
4.7271290128
 20
5.0360231491
 30
0.0
 10
4.7327271162
 20
5.0417490868
 30
0.0
 10
4.7366038767
 20
5.0454010791
 30
0.0
  0
SPLINE
  5
485
100
AcDbEntity
  8
0
100
AcDbSpline
 62
7
  6
CONTINUOUS
 70
0
 71
3
 72
23
 73
19
 74
0
 42
0.0000001
 43
0.0000001
 44
0.0000000001
 40
0.0
 40
0.0
 40
0.0
 40
0.0
 40
0.0516973498
 40
0.1070995419
 40
0.1660490244
 40
0.2282672003
 40
0.2933932691
 40
0.3608679116
 40
0.4300057841
 40
0.4999999991
 40
0.569994215
 40
0.6391320886
 40
0.7066067315
 40
0.7717328004
 40
0.8339509761
 40
0.8929004583
 40
0.9483026503
 40
1.0
 40
1.0
 40
1.0
 40
1.0
 10
4.7998602591
 20
5.0454010791
 30
0.0
 10
4.8010493901
 20
5.0416163011
 30
0.0
 10
4.8033223598
 20
5.0337147246
 30
0.0
 10
4.8063126048
 20
5.0213245541
 30
0.0
 10
4.8089509675
 20
5.0080304745
 30
0.0
 10
4.8111937592
 20
4.9939081685
 30
0.0
 10
4.8129928104
 20
4.9790633947
 30
0.0
 10
4.8143129271
 20
4.9636354683
 30
0.0
 10
4.8151167913
 20
4.947798033
 30
0.0
 10
4.8153889007
 20
4.9317491985
 30
0.0
 10
4.8151167913
 20
4.9157003639
 30
0.0
 10
4.8143129271
 20
4.8998629284
 30
0.0
 10
4.8129928104
 20
4.8844350019
 30
0.0
 10
4.8111937592
 20
4.8695902281
 30
0.0
 10
4.8089509675
 20
4.8554679221
 30
0.0
 10
4.8063126048
 20
4.8421738426
 30
0.0
 10
4.8033223598
 20
4.8297836721
 30
0.0
 10
4.8010493901
 20
4.8218820956
 30
0.0
 10
4.7998602591
 20
4.8180973176
 30
0.0
  0
SPLINE
  5
486
100
AcDbEntity
  8
0
100
AcDbSpline
 62
7
  6
CONTINUOUS
 70
0
 71
3
 72
29
 73
25
 74
0
 42
0.0000001
 43
0.0000001
 44
0.0000000001
 40
0.0
 40
0.0
 40
0.0
 40
0.0
 40
0.0617027486
 40
0.0926750702
 40
0.1237102161
 40
0.1859405324
 40
0.2483827396
 40
0.2796984335
 40
0.3110718675
 40
0.3739270693
 40
0.405420233
 40
0.4369413358
 40
0.4999999999
 40
0.5630586641
 40
0.594579767
 40
0.6260729307
 40
0.6889281326
 40
0.7203015665
 40
0.7516172604
 40
0.8140594676
 40
0.876289784
 40
0.9073249298
 40
0.9382972514
 40
1.0
 40
1.0
 40
1.0
 40
1.0
 10
4.7998602591
 20
4.8180973176
 30
0.0
 10
4.7960738438
 20
4.8217530821
 30
0.0
 10
4.7906093665
 20
4.8274826306
 30
0.0
 10
4.7838374557
 20
4.8355789397
 30
0.0
 10
4.7774075874
 20
4.844006963
 30
0.0
 10
4.7700955059
 20
4.8551199312
 30
0.0
 10
4.7638863182
 20
4.8669148992
 30
0.0
 10
4.7596511772
 20
4.8767171908
 30
0.0
 10
4.7559213529
 20
4.8867595476
 30
0.0
 10
4.7529879382
 20
4.8971002084
 30
0.0
 10
4.7509148257
 20
4.9076393415
 30
0.0
 10
4.7494236783
 20
4.9182942684
 30
0.0
 10
4.7486665561
 20
4.9317491983
 30
0.0
 10
4.7494236783
 20
4.9452041283
 30
0.0
 10
4.7509148257
 20
4.9558590552
 30
0.0
 10
4.7529879382
 20
4.9663981883
 30
0.0
 10
4.7559213529
 20
4.9767388491
 30
0.0
 10
4.7596511772
 20
4.9867812059
 30
0.0
 10
4.7638863182
 20
4.9965834975
 30
0.0
 10
4.7700955059
 20
5.0083784655
 30
0.0
 10
4.7774075874
 20
5.0194914337
 30
0.0
 10
4.7838374557
 20
5.027919457
 30
0.0
 10
4.7906093665
 20
5.0360157662
 30
0.0
 10
4.7960738438
 20
5.0417453146
 30
0.0
 10
4.7998602591
 20
5.0454010791
 30
0.0
  0
SPLINE
  5
487
100
AcDbEntity
  8
0
100
AcDbSpline
 62
7
  6
CONTINUOUS
 70
0
 71
3
 72
23
 73
19
 74
0
 42
0.0000001
 43
0.0000001
 44
0.0000000001
 40
0.0
 40
0.0
 40
0.0
 40
0.0
 40
0.0526653056
 40
0.1086775894
 40
0.1679110538
 40
0.2301271051
 40
0.2950103387
 40
0.3620544153
 40
0.430632017
 40
0.4999999991
 40
0.5693679821
 40
0.6379455849
 40
0.7049896619
 40
0.7698728956
 40
0.8320889466
 40
0.8913224109
 40
0.9473346945
 40
1.0
 40
1.0
 40
1.0
 40
1.0
 10
4.8665283074
 20
5.0454010791
 30
0.0
 10
4.8680889781
 20
5.0416331177
 30
0.0
 10
4.8710768708
 20
5.0337597564
 30
0.0
 10
4.8750231501
 20
5.0213639958
 30
0.0
 10
4.8785049458
 20
5.00806356
 30
0.0
 10
4.8814644522
 20
4.993934964
 30
0.0
 10
4.8838383392
 20
4.9790835378
 30
0.0
 10
4.885580169
 20
4.9636490429
 30
0.0
 10
4.8866408216
 20
4.9478048063
 30
0.0
 10
4.8869998428
 20
4.9317491985
 30
0.0
 10
4.8866408215
 20
4.9156935907
 30
0.0
 10
4.885580169
 20
4.8998493538
 30
0.0
 10
4.8838383392
 20
4.8844148588
 30
0.0
 10
4.8814644522
 20
4.8695634326
 30
0.0
 10
4.8785049458
 20
4.8554348366
 30
0.0
 10
4.8750231501
 20
4.8421344009
 30
0.0
 10
4.8710768708
 20
4.8297386403
 30
0.0
 10
4.8680889781
 20
4.821865279
 30
0.0
 10
4.8665283074
 20
4.8180973176
 30
0.0
  0
SPLINE
  5
488
100
AcDbEntity
  8
0
100
AcDbSpline
 62
7
  6
CONTINUOUS
 70
0
 71
3
 72
15
 73
11
 74
0
 42
0.0000001
 43
0.0000001
 44
0.0000000001
 40
0.0
 40
0.0
 40
0.0
 40
0.0
 40
0.1227602585
 40
0.2472141357
 40
0.3731534644
 40
0.5000000006
 40
0.6268465354
 40
0.7527858638
 40
0.8772397413
 40
1.0
 40
1.0
 40
1.0
 40
1.0
 10
4.8665283074
 20
4.8180973176
 30
0.0
 10
4.8591849673
 20
4.8254409872
 30
0.0
 10
4.8455875929
 20
4.8414920193
 30
0.0
 10
4.8298202302
 20
4.8690571334
 30
0.0
 10
4.8197183348
 20
4.8995725493
 30
0.0
 10
4.8162301676
 20
4.9317491984
 30
0.0
 10
4.8197183348
 20
4.9639258474
 30
0.0
 10
4.8298202302
 20
4.9944412632
 30
0.0
 10
4.8455875928
 20
5.0220063774
 30
0.0
 10
4.8591849672
 20
5.0380574095
 30
0.0
 10
4.8665283074
 20
5.0454010791
 30
0.0
  0
SPLINE
  5
489
100
AcDbEntity
  8
0
100
AcDbSpline
 62
7
  6
CONTINUOUS
 70
0
 71
3
 72
23
 73
19
 74
0
 42
0.0000001
 43
0.0000001
 44
0.0000000001
 40
0.0
 40
0.0
 40
0.0
 40
0.0
 40
0.0537818635
 40
0.1105057987
 40
0.1700759986
 40
0.2322957883
 40
0.2969000074
 40
0.3634430818
 40
0.4313656239
 40
0.4999999992
 40
0.5686343752
 40
0.6365569184
 40
0.7030999932
 40
0.7677042124
 40
0.8299240019
 40
0.8894942015
 40
0.9462181365
 40
1.0
 40
1.0
 40
1.0
 40
1.0
 10
4.9359659719
 20
5.0454010791
 30
0.0
 10
4.9378792794
 20
5.0416510639
 30
0.0
 10
4.941547831
 20
5.0338094002
 30
0.0
 10
4.9464142559
 20
5.0214087219
 30
0.0
 10
4.9507080212
 20
5.0081019759
 30
0.0
 10
4.9543575201
 20
4.9939666484
 30
0.0
 10
4.9572848606
 20
4.9791076883
 30
0.0
 10
4.9594327045
 20
4.9636654739
 30
0.0
 10
4.9607406008
 20
4.9478130516
 30
0.0
 10
4.9611832981
 20
4.9317491985
 30
0.0
 10
4.9607406007
 20
4.9156853453
 30
0.0
 10
4.9594327045
 20
4.8998329229
 30
0.0
 10
4.9572848606
 20
4.8843907083
 30
0.0
 10
4.9543575201
 20
4.8695317482
 30
0.0
 10
4.9507080212
 20
4.8553964207
 30
0.0
 10
4.9464142559
 20
4.8420896747
 30
0.0
 10
4.941547831
 20
4.8296889965
 30
0.0
 10
4.9378792794
 20
4.8218473328
 30
0.0
 10
4.9359659719
 20
4.8180973176
 30
0.0
  0
SPLINE
  5
48A
100
AcDbEntity
  8
0
100
AcDbSpline
 62
7
  6
CONTINUOUS
 70
0
 71
3
 72
15
 73
11
 74
0
 42
0.0000001
 43
0.0000001
 44
0.0000000001
 40
0.0
 40
0.0
 40
0.0
 40
0.0
 40
0.1215114133
 40
0.2456633514
 40
0.3721306194
 40
0.5000000006
 40
0.6278693803
 40
0.7543366481
 40
0.8784885865
 40
1.0
 40
1.0
 40
1.0
 40
1.0
 10
4.9359659719
 20
4.8180973176
 30
0.0
 10
4.9289285154
 20
4.8254699187
 30
0.0
 10
4.9159080339
 20
4.8415938292
 30
0.0
 10
4.9008843216
 20
4.8691556029
 30
0.0
 10
4.8912714996
 20
4.8996348873
 30
0.0
 10
4.8879552274
 20
4.9317491984
 30
0.0
 10
4.8912714996
 20
4.9638635094
 30
0.0
 10
4.9008843215
 20
4.9943427937
 30
0.0
 10
4.9159080339
 20
5.0219045675
 30
0.0
 10
4.9289285154
 20
5.038028478
 30
0.0
 10
4.9359659719
 20
5.0454010791
 30
0.0
  0
SPLINE
  5
48B
100
AcDbEntity
  8
0
100
AcDbSpline
 62
7
  6
CONTINUOUS
 70
0
 71
3
 72
23
 73
19
 74
0
 42
0.0000001
 43
0.0000001
 44
0.0000000001
 40
0.0
 40
0.0
 40
0.0
 40
0.0
 40
0.0549798158
 40
0.1124764046
 40
0.1724187291
 40
0.2346500672
 40
0.2989564711
 40
0.3649569873
 40
0.4321662345
 40
0.4999999992
 40
0.5678337646
 40
0.635043013
 40
0.7010435295
 40
0.7653499334
 40
0.8275812714
 40
0.8875235956
 40
0.9450201843
 40
1.0
 40
1.0
 40
1.0
 40
1.0
 10
5.0075045298
 20
5.0454010791
 30
0.0
 10
5.0097488371
 20
5.041668765
 30
0.0
 10
5.0140576191
 20
5.0338600265
 30
0.0
 10
5.0197988318
 20
5.0214557504
 30
0.0
 10
5.0248649254
 20
5.0081434379
 30
0.0
 10
5.0291708993
 20
4.9940015587
 30
0.0
 10
5.0326249549
 20
4.9791347246
 30
0.0
 10
5.0351592374
 20
4.9636840737
 30
0.0
 10
5.0367024939
 20
4.9478224481
 30
0.0
 10
5.0372248435
 20
4.9317491985
 30
0.0
 10
5.0367024938
 20
4.9156759488
 30
0.0
 10
5.0351592374
 20
4.899814323
 30
0.0
 10
5.0326249549
 20
4.884363672
 30
0.0
 10
5.0291708993
 20
4.8694968379
 30
0.0
 10
5.0248649253
 20
4.8553549587
 30
0.0
 10
5.0197988318
 20
4.8420426463
 30
0.0
 10
5.014057619
 20
4.8296383702
 30
0.0
 10
5.0097488371
 20
4.8218296317
 30
0.0
 10
5.0075045298
 20
4.8180973176
 30
0.0
  0
SPLINE
  5
48C
100
AcDbEntity
  8
0
100
AcDbSpline
 62
7
  6
CONTINUOUS
 70
0
 71
3
 72
27
 73
23
 74
0
 42
0.0000001
 43
0.0000001
 44
0.0000000001
 40
0.0
 40
0.0
 40
0.0
 40
0.0
 40
0.0595035804
 40
0.1199964788
 40
0.1814409985
 40
0.2437852015
 40
0.2752901605
 40
0.3069978332
 40
0.3388816477
 40
0.3709167702
 40
0.4353266257
 40
0.5000000006
 40
0.5646733749
 40
0.6290832295
 40
0.6611183519
 40
0.6930021663
 40
0.724709839
 40
0.756214798
 40
0.8185590012
 40
0.880003521
 40
0.9404964195
 40
1.0
 40
1.0
 40
1.0
 40
1.0
 10
5.0075045298
 20
4.8180973176
 30
0.0
 10
5.0041952768
 20
4.8217745275
 30
0.0
 10
4.9978248969
 20
4.8294695537
 30
0.0
 10
4.9892104236
 20
4.8418745856
 30
0.0
 10
4.9816032434
 20
4.855196572
 30
0.0
 10
4.9762304177
 20
4.8669580331
 30
0.0
 10
4.9725616543
 20
4.8767340375
 30
0.0
 10
4.970133428
 20
4.8842612262
 30
0.0
 10
4.9680507018
 20
4.8919369661
 30
0.0
 10
4.9657479235
 20
4.9023579854
 30
0.0
 10
4.9638098071
 20
4.9156349215
 30
0.0
 10
4.9630240468
 20
4.9317491985
 30
0.0
 10
4.963809807
 20
4.9478634753
 30
0.0
 10
4.9657479235
 20
4.9611404113
 30
0.0
 10
4.9680507018
 20
4.9715614305
 30
0.0
 10
4.970133428
 20
4.9792371704
 30
0.0
 10
4.9725616543
 20
4.9867643591
 30
0.0
 10
4.9762304177
 20
4.9965403635
 30
0.0
 10
4.9816032434
 20
5.0083018247
 30
0.0
 10
4.9892104236
 20
5.0216238111
 30
0.0
 10
4.9978248969
 20
5.034028843
 30
0.0
 10
5.0041952768
 20
5.0417238692
 30
0.0
 10
5.0075045298
 20
5.0454010791
 30
0.0
  0
SPLINE
  5
48D
100
AcDbEntity
  8
0
100
AcDbSpline
 62
7
  6
CONTINUOUS
 70
0
 71
3
 72
23
 73
19
 74
0
 42
0.0000001
 43
0.0000001
 44
0.0000000001
 40
0.0
 40
0.0
 40
0.0
 40
0.0
 40
0.1144229482
 40
0.1747637903
 40
0.2370240099
 40
0.3010386668
 40
0.3336160815
 40
0.3665029851
 40
0.432985275
 40
0.4999999992
 40
0.5670147241
 40
0.6334970151
 40
0.666383919
 40
0.6989613338
 40
0.7629759908
 40
0.8252362102
 40
0.8855770521
 40
1.0
 40
1.0
 40
1.0
 40
1.0
 10
5.0804550259
 20
5.0454010791
 30
0.0
 10
5.0856490552
 20
5.0378365717
 30
0.0
 10
5.0926773655
 20
5.0256287039
 30
0.0
 10
5.1002615791
 20
5.0081867946
 30
0.0
 10
5.1051843835
 20
4.9940379559
 30
0.0
 10
5.1084564565
 20
4.9817133131
 30
0.0
 10
5.11056082
 20
4.9715432548
 30
0.0
 10
5.112319468
 20
4.9611069059
 30
0.0
 10
5.1137948963
 20
4.9478323688
 30
0.0
 10
5.114392183
 20
4.9317491985
 30
0.0
 10
5.1137948962
 20
4.9156660281
 30
0.0
 10
5.112319468
 20
4.9023914908
 30
0.0
 10
5.11056082
 20
4.8919551418
 30
0.0
 10
5.1084564565
 20
4.8817850835
 30
0.0
 10
5.1051843835
 20
4.8694604407
 30
0.0
 10
5.1002615791
 20
4.855311602
 30
0.0
 10
5.0926773655
 20
4.8378696927
 30
0.0
 10
5.0856490552
 20
4.825661825
 30
0.0
 10
5.0804550259
 20
4.8180973176
 30
0.0
  0
SPLINE
  5
48E
100
AcDbEntity
  8
0
100
AcDbSpline
 62
7
  6
CONTINUOUS
 70
0
 71
3
 72
27
 73
23
 74
0
 42
0.0000001
 43
0.0000001
 44
0.0000000001
 40
0.0
 40
0.0
 40
0.0
 40
0.0
 40
0.0584947855
 40
0.1183088288
 40
0.1794044661
 40
0.2417126366
 40
0.273306489
 40
0.3051675429
 40
0.3372621369
 40
0.3695576944
 40
0.4346046084
 40
0.5000000006
 40
0.5653953922
 40
0.6304423053
 40
0.6627378627
 40
0.6948324566
 40
0.7266935104
 40
0.7582873628
 40
0.8205955335
 40
0.881691171
 40
0.9415052145
 40
1.0
 40
1.0
 40
1.0
 40
1.0
 10
5.0804550259
 20
4.8180973176
 30
0.0
 10
5.0773693356
 20
4.82178541
 30
0.0
 10
5.0714314401
 20
4.829504285
 30
0.0
 10
5.063425994
 20
4.8419106967
 30
0.0
 10
5.0563580696
 20
4.8552319088
 30
0.0
 10
5.0513727509
 20
4.8669771871
 30
0.0
 10
5.0479665001
 20
4.8767415274
 30
0.0
 10
5.0457095808
 20
4.8842679377
 30
0.0
 10
5.043773799
 20
4.8919427908
 30
0.0
 10
5.041632277
 20
4.9023687473
 30
0.0
 10
5.039831707
 20
4.9156450136
 30
0.0
 10
5.039102082
 20
4.9317491985
 30
0.0
 10
5.0398317069
 20
4.9478533833
 30
0.0
 10
5.041632277
 20
4.9611296494
 30
0.0
 10
5.043773799
 20
4.9715556058
 30
0.0
 10
5.0457095808
 20
4.9792304589
 30
0.0
 10
5.0479665001
 20
4.9867568692
 30
0.0
 10
5.0513727509
 20
4.9965212095
 30
0.0
 10
5.0563580696
 20
5.0082664879
 30
0.0
 10
5.063425994
 20
5.0215876999
 30
0.0
 10
5.0714314401
 20
5.0339941117
 30
0.0
 10
5.0773693356
 20
5.0417129868
 30
0.0
 10
5.0804550259
 20
5.0454010791
 30
0.0
  0
SPLINE
  5
48F
100
AcDbEntity
  8
0
100
AcDbSpline
 62
7
  6
CONTINUOUS
 70
0
 71
3
 72
23
 73
19
 74
0
 42
0.0000001
 43
0.0000001
 44
0.0000000001
 40
0.0
 40
0.0
 40
0.0
 40
0.0
 40
0.1163847211
 40
0.1771172999
 40
0.2394060376
 40
0.3031306582
 40
0.3354636513
 40
0.368050975
 40
0.4338058778
 40
0.4999999998
 40
0.566194122
 40
0.6319490251
 40
0.6645363489
 40
0.6968693421
 40
0.7605939628
 40
0.8228827004
 40
0.8836152791
 40
1.0
 40
1.0
 40
1.0
 40
1.0
 10
5.1541149068
 20
5.0454010791
 30
0.0
 10
5.1598586656
 20
5.0378961599
 30
0.0
 10
5.1676844203
 20
5.0257328243
 30
0.0
 10
5.1761737014
 20
5.0082282203
 30
0.0
 10
5.1816664392
 20
4.9940744721
 30
0.0
 10
5.1853215602
 20
4.981730885
 30
0.0
 10
5.1876700834
 20
4.9715495291
 30
0.0
 10
5.1896297084
 20
4.9611183132
 30
0.0
 10
5.1912755006
 20
4.94784289
 30
0.0
 10
5.1919420894
 20
4.9317491984
 30
0.0
 10
5.1912755005
 20
4.9156555068
 30
0.0
 10
5.1896297084
 20
4.9023800835
 30
0.0
 10
5.1876700834
 20
4.8919488675
 30
0.0
 10
5.1853215602
 20
4.8817675117
 30
0.0
 10
5.1816664392
 20
4.8694239246
 30
0.0
 10
5.1761737013
 20
4.8552701764
 30
0.0
 10
5.1676844202
 20
4.8377655724
 30
0.0
 10
5.1598586656
 20
4.8256022368
 30
0.0
 10
5.1541149068
 20
4.8180973176
 30
0.0
  0
SPLINE
  5
490
100
AcDbEntity
  8
0
100
AcDbSpline
 62
7
  6
CONTINUOUS
 70
0
 71
3
 72
23
 73
19
 74
0
 42
0.0000001
 43
0.0000001
 44
0.0000000001
 40
0.0
 40
0.0
 40
0.0
 40
0.0
 40
0.1163847207
 40
0.1771172992
 40
0.2394060367
 40
0.3031306571
 40
0.3354636502
 40
0.368050974
 40
0.4338058775
 40
0.5000000002
 40
0.5661941228
 40
0.6319490259
 40
0.6645363495
 40
0.6968693426
 40
0.760593963
 40
0.8228827005
 40
0.8836152791
 40
1.0
 40
1.0
 40
1.0
 40
1.0
 10
5.1541149068
 20
4.8180973176
 30
0.0
 10
5.1483711481
 20
4.8256022368
 30
0.0
 10
5.1405453935
 20
4.8377655724
 30
0.0
 10
5.1320561124
 20
4.8552701763
 30
0.0
 10
5.1265633745
 20
4.8694239244
 30
0.0
 10
5.1229082535
 20
4.8817675115
 30
0.0
 10
5.1205597303
 20
4.8919488673
 30
0.0
 10
5.1186001052
 20
4.9023800833
 30
0.0
 10
5.1169543132
 20
4.9156555067
 30
0.0
 10
5.1162877242
 20
4.9317491984
 30
0.0
 10
5.1169543131
 20
4.9478428901
 30
0.0
 10
5.1186001052
 20
4.9611183134
 30
0.0
 10
5.1205597303
 20
4.9715495293
 30
0.0
 10
5.1229082535
 20
4.9817308852
 30
0.0
 10
5.1265633745
 20
4.9940744722
 30
0.0
 10
5.1320561123
 20
5.0082282204
 30
0.0
 10
5.1405453934
 20
5.0257328243
 30
0.0
 10
5.148371148
 20
5.0378961599
 30
0.0
 10
5.1541149068
 20
5.0454010791
 30
0.0
  0
SPLINE
  5
491
100
AcDbEntity
  8
0
100
AcDbSpline
 62
7
  6
CONTINUOUS
 70
0
 71
3
 72
27
 73
23
 74
0
 42
0.0000001
 43
0.0000001
 44
0.0000000001
 40
0.0
 40
0.0
 40
0.0
 40
0.0
 40
0.0584947856
 40
0.1183088296
 40
0.1794044686
 40
0.2417126406
 40
0.2733064929
 40
0.3051675465
 40
0.3372621401
 40
0.369557697
 40
0.4346046089
 40
0.4999999992
 40
0.5653953903
 40
0.6304423032
 40
0.6627378604
 40
0.6948324541
 40
0.7266935078
 40
0.7582873601
 40
0.8205955319
 40
0.8816911707
 40
0.9415052145
 40
1.0
 40
1.0
 40
1.0
 40
1.0
 10
5.2277747878
 20
5.0454010791
 30
0.0
 10
5.230860478
 20
5.0417129868
 30
0.0
 10
5.2367983736
 20
5.0339941117
 30
0.0
 10
5.2448038198
 20
5.0215876997
 30
0.0
 10
5.2518717443
 20
5.0082664874
 30
0.0
 10
5.256857063
 20
4.9965212088
 30
0.0
 10
5.2602633139
 20
4.9867568685
 30
0.0
 10
5.2625202331
 20
4.9792304582
 30
0.0
 10
5.2644560148
 20
4.9715556051
 30
0.0
 10
5.2665975367
 20
4.9611296489
 30
0.0
 10
5.2683981068
 20
4.947853383
 30
0.0
 10
5.2691277316
 20
4.9317491985
 30
0.0
 10
5.2683981068
 20
4.9156450139
 30
0.0
 10
5.2665975368
 20
4.9023687478
 30
0.0
 10
5.2644560148
 20
4.8919427915
 30
0.0
 10
5.2625202331
 20
4.8842679384
 30
0.0
 10
5.2602633138
 20
4.8767415281
 30
0.0
 10
5.2568570629
 20
4.8669771878
 30
0.0
 10
5.2518717442
 20
4.8552319092
 30
0.0
 10
5.2448038198
 20
4.8419106969
 30
0.0
 10
5.2367983736
 20
4.829504285
 30
0.0
 10
5.230860478
 20
4.82178541
 30
0.0
 10
5.2277747878
 20
4.8180973176
 30
0.0
  0
SPLINE
  5
492
100
AcDbEntity
  8
0
100
AcDbSpline
 62
7
  6
CONTINUOUS
 70
0
 71
3
 72
23
 73
19
 74
0
 42
0.0000001
 43
0.0000001
 44
0.0000000001
 40
0.0
 40
0.0
 40
0.0
 40
0.0
 40
0.1144229474
 40
0.1747637878
 40
0.2370240059
 40
0.3010386632
 40
0.3336160782
 40
0.3665029824
 40
0.4329852746
 40
0.5000000007
 40
0.5670147261
 40
0.6334970173
 40
0.6663839213
 40
0.6989613363
 40
0.7629759936
 40
0.8252362118
 40
0.8855770524
 40
1.0
 40
1.0
 40
1.0
 40
1.0
 10
5.2277747878
 20
4.8180973176
 30
0.0
 10
5.2225807585
 20
4.8256618249
 30
0.0
 10
5.2155524483
 20
4.8378696926
 30
0.0
 10
5.2079682347
 20
4.8553116016
 30
0.0
 10
5.2030454304
 20
4.86946044
 30
0.0
 10
5.1997733574
 20
4.8817850828
 30
0.0
 10
5.1976689938
 20
4.8919551411
 30
0.0
 10
5.1959103457
 20
4.9023914903
 30
0.0
 10
5.1944349175
 20
4.9156660278
 30
0.0
 10
5.1938376306
 20
4.9317491985
 30
0.0
 10
5.1944349175
 20
4.947832369
 30
0.0
 10
5.1959103457
 20
4.9611069064
 30
0.0
 10
5.1976689938
 20
4.9715432555
 30
0.0
 10
5.1997733574
 20
4.9817133138
 30
0.0
 10
5.2030454303
 20
4.9940379566
 30
0.0
 10
5.2079682347
 20
5.0081867951
 30
0.0
 10
5.2155524483
 20
5.0256287041
 30
0.0
 10
5.2225807585
 20
5.0378365718
 30
0.0
 10
5.2277747878
 20
5.0454010791
 30
0.0
  0
SPLINE
  5
493
100
AcDbEntity
  8
0
100
AcDbSpline
 62
7
  6
CONTINUOUS
 70
0
 71
3
 72
27
 73
23
 74
0
 42
0.0000001
 43
0.0000001
 44
0.0000000001
 40
0.0
 40
0.0
 40
0.0
 40
0.0
 40
0.0595035805
 40
0.1199964796
 40
0.1814410009
 40
0.2437852054
 40
0.2752901643
 40
0.3069978368
 40
0.3388816509
 40
0.3709167728
 40
0.4353266262
 40
0.4999999992
 40
0.564673373
 40
0.6290832274
 40
0.6611183496
 40
0.6930021638
 40
0.7247098363
 40
0.7562147952
 40
0.8185589996
 40
0.8800035207
 40
0.9404964195
 40
1.0
 40
1.0
 40
1.0
 40
1.0
 10
5.3007252838
 20
5.0454010791
 30
0.0
 10
5.3040345369
 20
5.0417238692
 30
0.0
 10
5.3104049168
 20
5.0340288429
 30
0.0
 10
5.3190193902
 20
5.0216238109
 30
0.0
 10
5.3266265705
 20
5.0083018242
 30
0.0
 10
5.3319993962
 20
4.9965403628
 30
0.0
 10
5.3356681597
 20
4.9867643583
 30
0.0
 10
5.3380963859
 20
4.9792371697
 30
0.0
 10
5.340179112
 20
4.9715614298
 30
0.0
 10
5.3424818902
 20
4.9611404108
 30
0.0
 10
5.3444200067
 20
4.9478634751
 30
0.0
 10
5.3452057668
 20
4.9317491985
 30
0.0
 10
5.3444200067
 20
4.9156349218
 30
0.0
 10
5.3424818902
 20
4.9023579859
 30
0.0
 10
5.340179112
 20
4.8919369668
 30
0.0
 10
5.3380963859
 20
4.8842612269
 30
0.0
 10
5.3356681597
 20
4.8767340383
 30
0.0
 10
5.3319993962
 20
4.8669580338
 30
0.0
 10
5.3266265704
 20
4.8551965724
 30
0.0
 10
5.3190193902
 20
4.8418745857
 30
0.0
 10
5.3104049168
 20
4.8294695538
 30
0.0
 10
5.3040345369
 20
4.8217745275
 30
0.0
 10
5.3007252838
 20
4.8180973176
 30
0.0
  0
SPLINE
  5
494
100
AcDbEntity
  8
0
100
AcDbSpline
 62
7
  6
CONTINUOUS
 70
0
 71
3
 72
23
 73
19
 74
0
 42
0.0000001
 43
0.0000001
 44
0.0000000001
 40
0.0
 40
0.0
 40
0.0
 40
0.0
 40
0.0549798157
 40
0.1124764039
 40
0.1724187266
 40
0.2346500632
 40
0.2989564674
 40
0.3649569846
 40
0.4321662341
 40
0.5000000007
 40
0.5678337666
 40
0.6350430152
 40
0.7010435321
 40
0.7653499362
 40
0.8275812731
 40
0.8875235959
 40
0.9450201842
 40
1.0
 40
1.0
 40
1.0
 40
1.0
 10
5.3007252838
 20
4.8180973176
 30
0.0
 10
5.2984809765
 20
4.8218296317
 30
0.0
 10
5.2941721946
 20
4.8296383701
 30
0.0
 10
5.2884309819
 20
4.8420426461
 30
0.0
 10
5.2833648885
 20
4.8553549583
 30
0.0
 10
5.2790589146
 20
4.8694968372
 30
0.0
 10
5.275604859
 20
4.8843636714
 30
0.0
 10
5.2730705763
 20
4.8998143225
 30
0.0
 10
5.2715273199
 20
4.9156759485
 30
0.0
 10
5.2710049701
 20
4.9317491985
 30
0.0
 10
5.2715273199
 20
4.9478224484
 30
0.0
 10
5.2730705763
 20
4.9636840742
 30
0.0
 10
5.2756048589
 20
4.9791347253
 30
0.0
 10
5.2790589145
 20
4.9940015594
 30
0.0
 10
5.2833648884
 20
5.0081434383
 30
0.0
 10
5.2884309819
 20
5.0214557506
 30
0.0
 10
5.2941721946
 20
5.0338600266
 30
0.0
 10
5.2984809765
 20
5.041668765
 30
0.0
 10
5.3007252838
 20
5.0454010791
 30
0.0
  0
SPLINE
  5
495
100
AcDbEntity
  8
0
100
AcDbSpline
 62
7
  6
CONTINUOUS
 70
0
 71
3
 72
15
 73
11
 74
0
 42
0.0000001
 43
0.0000001
 44
0.0000000001
 40
0.0
 40
0.0
 40
0.0
 40
0.0
 40
0.1215114141
 40
0.2456633553
 40
0.372130622
 40
0.4999999992
 40
0.6278693782
 40
0.7543366454
 40
0.8784885861
 40
1.0
 40
1.0
 40
1.0
 40
1.0
 10
5.3722638418
 20
5.0454010791
 30
0.0
 10
5.3793012983
 20
5.038028478
 30
0.0
 10
5.39232178
 20
5.0219045672
 30
0.0
 10
5.4073454923
 20
4.9943427932
 30
0.0
 10
5.4169583141
 20
4.963863509
 30
0.0
 10
5.4202745862
 20
4.9317491984
 30
0.0
 10
5.4169583141
 20
4.8996348878
 30
0.0
 10
5.4073454923
 20
4.8691556034
 30
0.0
 10
5.3923217799
 20
4.8415938295
 30
0.0
 10
5.3793012983
 20
4.8254699187
 30
0.0
 10
5.3722638418
 20
4.8180973176
 30
0.0
  0
SPLINE
  5
496
100
AcDbEntity
  8
0
100
AcDbSpline
 62
7
  6
CONTINUOUS
 70
0
 71
3
 72
23
 73
19
 74
0
 42
0.0000001
 43
0.0000001
 44
0.0000000001
 40
0.0
 40
0.0
 40
0.0
 40
0.0
 40
0.0537818634
 40
0.110505798
 40
0.1700759961
 40
0.2322957843
 40
0.2969000037
 40
0.3634430791
 40
0.4313656234
 40
0.5000000007
 40
0.5686343772
 40
0.6365569206
 40
0.7030999957
 40
0.7677042152
 40
0.8299240035
 40
0.8894942018
 40
0.9462181365
 40
1.0
 40
1.0
 40
1.0
 40
1.0
 10
5.3722638418
 20
4.8180973176
 30
0.0
 10
5.3703505343
 20
4.8218473328
 30
0.0
 10
5.3666819827
 20
4.8296889965
 30
0.0
 10
5.3618155578
 20
4.8420896745
 30
0.0
 10
5.3575217926
 20
4.8553964202
 30
0.0
 10
5.3538722937
 20
4.8695317476
 30
0.0
 10
5.3509449532
 20
4.8843907077
 30
0.0
 10
5.3487971092
 20
4.8998329223
 30
0.0
 10
5.347489213
 20
4.915685345
 30
0.0
 10
5.3470465155
 20
4.9317491985
 30
0.0
 10
5.3474892129
 20
4.9478130519
 30
0.0
 10
5.3487971092
 20
4.9636654744
 30
0.0
 10
5.3509449532
 20
4.979107689
 30
0.0
 10
5.3538722937
 20
4.9939666491
 30
0.0
 10
5.3575217926
 20
5.0081019764
 30
0.0
 10
5.3618155578
 20
5.0214087221
 30
0.0
 10
5.3666819827
 20
5.0338094002
 30
0.0
 10
5.3703505343
 20
5.0416510639
 30
0.0
 10
5.3722638418
 20
5.0454010791
 30
0.0
  0
SPLINE
  5
497
100
AcDbEntity
  8
0
100
AcDbSpline
 62
7
  6
CONTINUOUS
 70
0
 71
3
 72
15
 73
11
 74
0
 42
0.0000001
 43
0.0000001
 44
0.0000000001
 40
0.0
 40
0.0
 40
0.0
 40
0.0
 40
0.1227602593
 40
0.2472141396
 40
0.3731534669
 40
0.4999999992
 40
0.6268465333
 40
0.7527858611
 40
0.8772397409
 40
1.0
 40
1.0
 40
1.0
 40
1.0
 10
5.4417015063
 20
5.0454010791
 30
0.0
 10
5.4490448465
 20
5.0380574095
 30
0.0
 10
5.4626422211
 20
5.0220063771
 30
0.0
 10
5.4784095837
 20
4.9944412627
 30
0.0
 10
5.4885114789
 20
4.963925847
 30
0.0
 10
5.491999646
 20
4.9317491984
 30
0.0
 10
5.4885114789
 20
4.8995725498
 30
0.0
 10
5.4784095836
 20
4.8690571339
 30
0.0
 10
5.462642221
 20
4.8414920195
 30
0.0
 10
5.4490448464
 20
4.8254409872
 30
0.0
 10
5.4417015063
 20
4.8180973176
 30
0.0
  0
SPLINE
  5
498
100
AcDbEntity
  8
0
100
AcDbSpline
 62
7
  6
CONTINUOUS
 70
0
 71
3
 72
23
 73
19
 74
0
 42
0.0000001
 43
0.0000001
 44
0.0000000001
 40
0.0
 40
0.0
 40
0.0
 40
0.0
 40
0.0526653055
 40
0.1086775886
 40
0.1679110514
 40
0.2301271011
 40
0.295010335
 40
0.3620544126
 40
0.4306320165
 40
0.5000000007
 40
0.5693679842
 40
0.6379455872
 40
0.7049896645
 40
0.7698728984
 40
0.8320889483
 40
0.8913224112
 40
0.9473346944
 40
1.0
 40
1.0
 40
1.0
 40
1.0
 10
5.4417015063
 20
4.8180973176
 30
0.0
 10
5.4401408356
 20
4.821865279
 30
0.0
 10
5.4371529429
 20
4.8297386403
 30
0.0
 10
5.4332066636
 20
4.8421344007
 30
0.0
 10
5.429724868
 20
4.8554348361
 30
0.0
 10
5.4267653616
 20
4.8695634319
 30
0.0
 10
5.4243914746
 20
4.8844148581
 30
0.0
 10
5.4226496446
 20
4.8998493532
 30
0.0
 10
5.4215889922
 20
4.9156935903
 30
0.0
 10
5.4212299709
 20
4.9317491985
 30
0.0
 10
5.4215889921
 20
4.9478048065
 30
0.0
 10
5.4226496447
 20
4.9636490435
 30
0.0
 10
5.4243914746
 20
4.9790835385
 30
0.0
 10
5.4267653615
 20
4.9939349647
 30
0.0
 10
5.429724868
 20
5.0080635605
 30
0.0
 10
5.4332066636
 20
5.021363996
 30
0.0
 10
5.4371529429
 20
5.0337597564
 30
0.0
 10
5.4401408355
 20
5.0416331177
 30
0.0
 10
5.4417015063
 20
5.0454010791
 30
0.0
  0
SPLINE
  5
499
100
AcDbEntity
  8
0
100
AcDbSpline
 62
7
  6
CONTINUOUS
 70
0
 71
3
 72
29
 73
25
 74
0
 42
0.0000001
 43
0.0000001
 44
0.0000000001
 40
0.0
 40
0.0
 40
0.0
 40
0.0
 40
0.0617027285
 40
0.0926750306
 40
0.1237101561
 40
0.1859404359
 40
0.2483826228
 40
0.2796983264
 40
0.3110717693
 40
0.3739269894
 40
0.4054201712
 40
0.4369412944
 40
0.5
 40
0.5630587056
 40
0.5945798287
 40
0.6260730105
 40
0.6889282306
 40
0.7203016736
 40
0.7516173773
 40
0.8140595641
 40
0.8762898439
 40
0.9073249694
 40
0.9382972715
 40
1.0
 40
1.0
 40
1.0
 40
1.0
 10
5.5083695546
 20
5.0454010791
 30
0.0
 10
5.5121559686
 20
5.0417453158
 30
0.0
 10
5.5176204442
 20
5.0360157705
 30
0.0
 10
5.5243923525
 20
5.0279194658
 30
0.0
 10
5.5308222167
 20
5.0194914476
 30
0.0
 10
5.5381342952
 20
5.0083784855
 30
0.0
 10
5.5443434851
 20
4.9965835231
 30
0.0
 10
5.5485786243
 20
4.9867812309
 30
0.0
 10
5.5523084528
 20
4.9767388724
 30
0.0
 10
5.5552418726
 20
4.9663982088
 30
0.0
 10
5.5573149838
 20
4.9558590705
 30
0.0
 10
5.5588061334
 20
4.9452041371
 30
0.0
 10
5.5595632588
 20
4.9317491984
 30
0.0
 10
5.5588061334
 20
4.9182942596
 30
0.0
 10
5.5573149838
 20
4.9076393262
 30
0.0
 10
5.5552418726
 20
4.897100188
 30
0.0
 10
5.5523084527
 20
4.8867595243
 30
0.0
 10
5.5485786243
 20
4.8767171658
 30
0.0
 10
5.5443434851
 20
4.8669148736
 30
0.0
 10
5.5381342952
 20
4.8551199112
 30
0.0
 10
5.5308222167
 20
4.8440069491
 30
0.0
 10
5.5243923525
 20
4.8355789309
 30
0.0
 10
5.5176204442
 20
4.8274826263
 30
0.0
 10
5.5121559686
 20
4.8217530809
 30
0.0
 10
5.5083695546
 20
4.8180973176
 30
0.0
  0
SPLINE
  5
49A
100
AcDbEntity
  8
0
100
AcDbSpline
 62
7
  6
CONTINUOUS
 70
0
 71
3
 72
23
 73
19
 74
0
 42
0.0000001
 43
0.0000001
 44
0.0000000001
 40
0.0
 40
0.0
 40
0.0
 40
0.0
 40
0.0516973497
 40
0.1070995412
 40
0.1660490219
 40
0.2282671962
 40
0.2933932654
 40
0.3608679088
 40
0.4300057837
 40
0.5000000007
 40
0.569994217
 40
0.6391320909
 40
0.7066067341
 40
0.7717328032
 40
0.8339509777
 40
0.8929004586
 40
0.9483026503
 40
1.0
 40
1.0
 40
1.0
 40
1.0
 10
5.5083695546
 20
4.8180973176
 30
0.0
 10
5.5071804236
 20
4.8218820956
 30
0.0
 10
5.5049074539
 20
4.829783672
 30
0.0
 10
5.5019172089
 20
4.8421738424
 30
0.0
 10
5.4992788463
 20
4.8554679216
 30
0.0
 10
5.4970360545
 20
4.8695902274
 30
0.0
 10
5.4952370034
 20
4.8844350012
 30
0.0
 10
5.4939168866
 20
4.8998629279
 30
0.0
 10
5.4931130224
 20
4.9157003636
 30
0.0
 10
5.492840913
 20
4.9317491985
 30
0.0
 10
5.4931130224
 20
4.9477980332
 30
0.0
 10
5.4939168866
 20
4.9636354688
 30
0.0
 10
5.4952370034
 20
4.9790633954
 30
0.0
 10
5.4970360545
 20
4.9939081692
 30
0.0
 10
5.4992788462
 20
5.008030475
 30
0.0
 10
5.5019172089
 20
5.0213245543
 30
0.0
 10
5.5049074539
 20
5.0337147247
 30
0.0
 10
5.5071804236
 20
5.0416163011
 30
0.0
 10
5.5083695546
 20
5.0454010791
 30
0.0
  0
SPLINE
  5
49B
100
AcDbEntity
  8
0
100
AcDbSpline
 62
7
  6
CONTINUOUS
 70
0
 71
3
 72
30
 73
26
 74
0
 42
0.0000001
 43
0.0000001
 44
0.0000000001
 40
0.0
 40
0.0
 40
0.0
 40
0.0
 40
0.0621219111
 40
0.0932552757
 40
0.1244180225
 40
0.1556072491
 40
0.1868197562
 40
0.2492833459
 40
0.2805634912
 40
0.3118730298
 40
0.3745262088
 40
0.4058890083
 40
0.4372653696
 40
0.5000090111
 40
0.5627526534
 40
0.5941290153
 40
0.6254918152
 40
0.6881449946
 40
0.7194545332
 40
0.7507346786
 40
0.8131982682
 40
0.8755819778
 40
0.9067447245
 40
0.937878089
 40
1.0
 40
1.0
 40
1.0
 40
1.0
 10
5.5716259369
 20
5.0454010791
 30
0.0
 10
5.5755026974
 20
5.0417490868
 30
0.0
 10
5.5811008244
 20
5.0360230919
 30
0.0
 10
5.5880452017
 20
5.027922916
 30
0.0
 10
5.5929840717
 20
5.0216067313
 30
0.0
 10
5.5976263611
 20
5.0150608414
 30
0.0
 10
5.6033938725
 20
5.0060384433
 30
0.0
 10
5.6084925602
 20
4.9965916764
 30
0.0
 10
5.6128355243
 20
4.9867846151
 30
0.0
 10
5.616657233
 20
4.9767458475
 30
0.0
 10
5.6196649781
 20
4.9664038775
 30
0.0
 10
5.6217906802
 20
4.9558608593
 30
0.0
 10
5.6233190131
 20
4.9452066853
 30
0.0
 10
5.6240954231
 20
4.9317491983
 30
0.0
 10
5.6233190133
 20
4.9182917121
 30
0.0
 10
5.6217906796
 20
4.9076375368
 30
0.0
 10
5.6196649814
 20
4.8970945232
 30
0.0
 10
5.6166572123
 20
4.8867525239
 30
0.0
 10
5.6128355595
 20
4.8767138246
 30
0.0
 10
5.6084923699
 20
4.8669064872
 30
0.0
 10
5.6021235028
 20
4.8551052686
 30
0.0
 10
5.5946318763
 20
4.8439987531
 30
0.0
 10
5.5880452411
 20
4.8355755762
 30
0.0
 10
5.5811008008
 20
4.8274752476
 30
0.0
 10
5.5755026974
 20
4.8217493099
 30
0.0
 10
5.5716259369
 20
4.8180973176
 30
0.0
  0
SPLINE
  5
49C
100
AcDbEntity
  8
0
100
AcDbSpline
 62
7
  6
CONTINUOUS
 70
0
 71
3
 72
23
 73
19
 74
0
 42
0.0000001
 43
0.0000001
 44
0.0000000001
 40
0.0
 40
0.0
 40
0.0
 40
0.0
 40
0.0509450805
 40
0.1058776346
 40
0.1646115282
 40
0.226834728
 40
0.2921500446
 40
0.3599568509
 40
0.4295252848
 40
0.5000000007
 40
0.5704747159
 40
0.6400431488
 40
0.7078499549
 40
0.7731652715
 40
0.8353884714
 40
0.8941223652
 40
0.9490549195
 40
1.0
 40
1.0
 40
1.0
 40
1.0
 10
5.5716259369
 20
4.8180973176
 30
0.0
 10
5.5708238157
 20
4.8218960535
 30
0.0
 10
5.5692928031
 20
4.8298199899
 30
0.0
 10
5.567285003
 20
4.8422049061
 30
0.0
 10
5.5655133668
 20
4.8554934738
 30
0.0
 10
5.5640072018
 20
4.8696106191
 30
0.0
 10
5.562798982
 20
4.8844501613
 30
0.0
 10
5.5619123607
 20
4.8998730677
 30
0.0
 10
5.5613724598
 20
4.9157054004
 30
0.0
 10
5.5611896974
 20
4.9317491985
 30
0.0
 10
5.5613724598
 20
4.9477929964
 30
0.0
 10
5.5619123607
 20
4.963625329
 30
0.0
 10
5.562798982
 20
4.9790482353
 30
0.0
 10
5.5640072018
 20
4.9938877775
 30
0.0
 10
5.5655133668
 20
5.0080049228
 30
0.0
 10
5.567285003
 20
5.0212934906
 30
0.0
 10
5.5692928031
 20
5.0336784068
 30
0.0
 10
5.5708238157
 20
5.0416023433
 30
0.0
 10
5.5716259369
 20
5.0454010791
 30
0.0
  0
SPLINE
  5
49D
100
AcDbEntity
  8
0
100
AcDbSpline
 62
7
  6
CONTINUOUS
 70
0
 71
3
 72
31
 73
27
 74
0
 42
0.0000001
 43
0.0000001
 44
0.0000000001
 40
0.0
 40
0.0
 40
0.0
 40
0.0
 40
0.0623745029
 40
0.0936050451
 40
0.1248448592
 40
0.156090759
 40
0.1873395862
 40
0.2498161429
 40
0.2810747357
 40
0.3123455053
 40
0.374875994
 40
0.406159567
 40
0.437447934
 40
0.4999999992
 40
0.5625520652
 40
0.5938404327
 40
0.6251240062
 40
0.6876544953
 40
0.7189252649
 40
0.7501838577
 40
0.8126604143
 40
0.8439092413
 40
0.875155141
 40
0.9063949551
 40
0.9376254972
 40
1.0
 40
1.0
 40
1.0
 40
1.0
 10
5.6308614599
 20
5.0454010791
 30
0.0
 10
5.6347927353
 20
5.0417513167
 30
0.0
 10
5.6404715081
 20
5.0360274785
 30
0.0
 10
5.647520119
 20
5.0279249196
 30
0.0
 10
5.6525315704
 20
5.0216088397
 30
0.0
 10
5.6572421264
 20
5.0150630116
 30
0.0
 10
5.6630926155
 20
5.0060435491
 30
0.0
 10
5.668266941
 20
4.9965967736
 30
0.0
 10
5.6726752143
 20
4.9867866604
 30
0.0
 10
5.6765523391
 20
4.9767501354
 30
0.0
 10
5.6796050188
 20
4.9664073656
 30
0.0
 10
5.6817625064
 20
4.9558619698
 30
0.0
 10
5.6833132962
 20
4.9452082596
 30
0.0
 10
5.6841013693
 20
4.9317491985
 30
0.0
 10
5.6833132961
 20
4.9182901373
 30
0.0
 10
5.6817625064
 20
4.907636427
 30
0.0
 10
5.6796050189
 20
4.8970910311
 30
0.0
 10
5.6765523391
 20
4.8867482612
 30
0.0
 10
5.6726752142
 20
4.8767117362
 30
0.0
 10
5.6682669409
 20
4.866901623
 30
0.0
 10
5.6630926154
 20
4.8574548475
 30
0.0
 10
5.6572421263
 20
4.848435385
 30
0.0
 10
5.6525315704
 20
4.841889557
 30
0.0
 10
5.647520119
 20
4.8355734771
 30
0.0
 10
5.6404715081
 20
4.8274709182
 30
0.0
 10
5.6347927353
 20
4.82174708
 30
0.0
 10
5.6308614599
 20
4.8180973176
 30
0.0
  0
SPLINE
  5
49E
100
AcDbEntity
  8
0
100
AcDbSpline
 62
7
  6
CONTINUOUS
 70
0
 71
3
 72
23
 73
19
 74
0
 42
0.0000001
 43
0.0000001
 44
0.0000000001
 40
0.0
 40
0.0
 40
0.0
 40
0.0
 40
0.0504668085
 40
0.1051028739
 40
0.1637020384
 40
0.2259299442
 40
0.2913657856
 40
0.3593826348
 40
0.4292225954
 40
0.5000000007
 40
0.5707774053
 40
0.6406173649
 40
0.7086342139
 40
0.7740700553
 40
0.8362979613
 40
0.8948971259
 40
0.9495331914
 40
1.0
 40
1.0
 40
1.0
 40
1.0
 10
5.6308614599
 20
4.8180973176
 30
0.0
 10
5.630457471
 20
4.8219053635
 30
0.0
 10
5.629687161
 20
4.829843694
 30
0.0
 10
5.6286790306
 20
4.8422248357
 30
0.0
 10
5.6277894284
 20
4.8555096384
 30
0.0
 10
5.6270330694
 20
4.869623386
 30
0.0
 10
5.6264263093
 20
4.8844595795
 30
0.0
 10
5.6259810364
 20
4.8998793344
 30
0.0
 10
5.625709888
 20
4.9157085036
 30
0.0
 10
5.6256180996
 20
4.9317491985
 30
0.0
 10
5.625709888
 20
4.9477898932
 30
0.0
 10
5.6259810364
 20
4.9636190624
 30
0.0
 10
5.6264263093
 20
4.9790388171
 30
0.0
 10
5.6270330693
 20
4.9938750106
 30
0.0
 10
5.6277894284
 20
5.0079887582
 30
0.0
 10
5.6286790306
 20
5.021273561
 30
0.0
 10
5.629687161
 20
5.0336547027
 30
0.0
 10
5.630457471
 20
5.0415930332
 30
0.0
 10
5.6308614599
 20
5.0454010791
 30
0.0
  0
SPLINE
  5
49F
100
AcDbEntity
  8
0
100
AcDbSpline
 62
7
  6
CONTINUOUS
 70
0
 71
3
 72
31
 73
27
 74
0
 42
0.0000001
 43
0.0000001
 44
0.0000000001
 40
0.0
 40
0.0
 40
0.0
 40
0.0
 40
0.06245932
 40
0.0937225669
 40
0.1249883766
 40
0.156253462
 40
0.1875146728
 40
0.2499960321
 40
0.2812476348
 40
0.3125056418
 40
0.3749954527
 40
0.4062526811
 40
0.4375117569
 40
0.4999999992
 40
0.5624882423
 40
0.5937473187
 40
0.6250045475
 40
0.6874943588
 40
0.7187523658
 40
0.7500039686
 40
0.8124853277
 40
0.8437465384
 40
0.8750116237
 40
0.9062774333
 40
0.9375406801
 40
1.0
 40
1.0
 40
1.0
 40
1.0
 10
5.6855056529
 20
5.0454010791
 30
0.0
 10
5.6894551515
 20
5.0417520545
 30
0.0
 10
5.6951608846
 20
5.0360289339
 30
0.0
 10
5.7022443597
 20
5.0279255855
 30
0.0
 10
5.7072800823
 20
5.0216095417
 30
0.0
 10
5.7120134668
 20
5.0150637355
 30
0.0
 10
5.7178916926
 20
5.0060452551
 30
0.0
 10
5.7230913142
 20
4.9965984822
 30
0.0
 10
5.7275214382
 20
4.986787347
 30
0.0
 10
5.7314170884
 20
4.9767515773
 30
0.0
 10
5.7344848004
 20
4.9664085411
 30
0.0
 10
5.7366529225
 20
4.9558623444
 30
0.0
 10
5.7382112221
 20
4.9452087911
 30
0.0
 10
5.739003198
 20
4.9317491985
 30
0.0
 10
5.738211222
 20
4.9182896059
 30
0.0
 10
5.7366529224
 20
4.9076360524
 30
0.0
 10
5.7344848004
 20
4.8970898556
 30
0.0
 10
5.7314170883
 20
4.8867468193
 30
0.0
 10
5.7275214382
 20
4.8767110496
 30
0.0
 10
5.7230913141
 20
4.8668999144
 30
0.0
 10
5.7178916926
 20
4.8574531415
 30
0.0
 10
5.7120134667
 20
4.8484346612
 30
0.0
 10
5.7072800822
 20
4.841888855
 30
0.0
 10
5.7022443597
 20
4.8355728112
 30
0.0
 10
5.6951608846
 20
4.8274694628
 30
0.0
 10
5.6894551515
 20
4.8217463422
 30
0.0
 10
5.6855056529
 20
4.8180973176
 30
0.0
  0
SPLINE
  5
4A0
100
AcDbEntity
  8
0
100
AcDbSpline
 62
7
  6
CONTINUOUS
 70
0
 71
3
 72
31
 73
27
 74
0
 42
0.0000001
 43
0.0000001
 44
0.0000000001
 40
0.0
 40
0.0
 40
0.0
 40
0.0
 40
0.0623745029
 40
0.0936050451
 40
0.1248448592
 40
0.156090759
 40
0.1873395862
 40
0.2498161429
 40
0.2810747357
 40
0.3123455053
 40
0.374875994
 40
0.406159567
 40
0.437447934
 40
0.4999999992
 40
0.5625520652
 40
0.5938404327
 40
0.6251240062
 40
0.6876544953
 40
0.7189252649
 40
0.7501838577
 40
0.8126604143
 40
0.8439092413
 40
0.875155141
 40
0.9063949551
 40
0.9376254972
 40
1.0
 40
1.0
 40
1.0
 40
1.0
 10
5.7350322625
 20
5.0454010791
 30
0.0
 10
5.7389635379
 20
5.0417513167
 30
0.0
 10
5.7446423108
 20
5.0360274785
 30
0.0
 10
5.7516909216
 20
5.0279249196
 30
0.0
 10
5.7567023731
 20
5.0216088397
 30
0.0
 10
5.761412929
 20
5.0150630116
 30
0.0
 10
5.7672634182
 20
5.0060435491
 30
0.0
 10
5.7724377437
 20
4.9965967736
 30
0.0
 10
5.7768460169
 20
4.9867866604
 30
0.0
 10
5.7807231418
 20
4.9767501354
 30
0.0
 10
5.7837758215
 20
4.9664073656
 30
0.0
 10
5.7859333091
 20
4.9558619698
 30
0.0
 10
5.7874840988
 20
4.9452082596
 30
0.0
 10
5.788272172
 20
4.9317491985
 30
0.0
 10
5.7874840988
 20
4.9182901373
 30
0.0
 10
5.785933309
 20
4.907636427
 30
0.0
 10
5.7837758215
 20
4.8970910311
 30
0.0
 10
5.7807231418
 20
4.8867482612
 30
0.0
 10
5.7768460169
 20
4.8767117362
 30
0.0
 10
5.7724377436
 20
4.866901623
 30
0.0
 10
5.7672634181
 20
4.8574548475
 30
0.0
 10
5.761412929
 20
4.848435385
 30
0.0
 10
5.756702373
 20
4.841889557
 30
0.0
 10
5.7516909216
 20
4.8355734771
 30
0.0
 10
5.7446423107
 20
4.8274709182
 30
0.0
 10
5.7389635379
 20
4.82174708
 30
0.0
 10
5.7350322625
 20
4.8180973176
 30
0.0
  0
SPLINE
  5
4A1
100
AcDbEntity
  8
0
100
AcDbSpline
 62
7
  6
CONTINUOUS
 70
0
 71
3
 72
30
 73
26
 74
0
 42
0.0000001
 43
0.0000001
 44
0.0000000001
 40
0.0
 40
0.0
 40
0.0
 40
0.0
 40
0.0621219111
 40
0.0932552757
 40
0.1244180225
 40
0.1556072491
 40
0.1868197562
 40
0.2492833459
 40
0.2805634912
 40
0.3118730298
 40
0.3745262088
 40
0.4058890083
 40
0.4372653696
 40
0.5000090111
 40
0.5627526534
 40
0.5941290153
 40
0.6254918152
 40
0.6881449946
 40
0.7194545332
 40
0.7507346786
 40
0.8131982682
 40
0.8755819778
 40
0.9067447245
 40
0.937878089
 40
1.0
 40
1.0
 40
1.0
 40
1.0
 10
5.7789643205
 20
5.0454010791
 30
0.0
 10
5.782841081
 20
5.0417490868
 30
0.0
 10
5.788439208
 20
5.0360230919
 30
0.0
 10
5.7953835852
 20
5.027922916
 30
0.0
 10
5.8003224553
 20
5.0216067313
 30
0.0
 10
5.8049647446
 20
5.0150608414
 30
0.0
 10
5.8107322561
 20
5.0060384433
 30
0.0
 10
5.8158309438
 20
4.9965916764
 30
0.0
 10
5.8201739078
 20
4.9867846151
 30
0.0
 10
5.8239956165
 20
4.9767458475
 30
0.0
 10
5.8270033616
 20
4.9664038775
 30
0.0
 10
5.8291290638
 20
4.9558608593
 30
0.0
 10
5.8306573966
 20
4.9452066853
 30
0.0
 10
5.8314338066
 20
4.9317491983
 30
0.0
 10
5.8306573969
 20
4.9182917121
 30
0.0
 10
5.8291290632
 20
4.9076375368
 30
0.0
 10
5.8270033649
 20
4.8970945232
 30
0.0
 10
5.8239955959
 20
4.8867525239
 30
0.0
 10
5.820173943
 20
4.8767138246
 30
0.0
 10
5.8158307534
 20
4.8669064872
 30
0.0
 10
5.8094618863
 20
4.8551052686
 30
0.0
 10
5.8019702598
 20
4.8439987531
 30
0.0
 10
5.7953836246
 20
4.8355755762
 30
0.0
 10
5.7884391844
 20
4.8274752476
 30
0.0
 10
5.782841081
 20
4.8217493099
 30
0.0
 10
5.7789643205
 20
4.8180973176
 30
0.0
  0
SPLINE
  5
4A2
100
AcDbEntity
  8
0
100
AcDbSpline
 62
7
  6
CONTINUOUS
 70
0
 71
3
 72
29
 73
25
 74
0
 42
0.0000001
 43
0.0000001
 44
0.0000000001
 40
0.0
 40
0.0
 40
0.0
 40
0.0
 40
0.0617027269
 40
0.0926750301
 40
0.1237101609
 40
0.1859404691
 40
0.2483826894
 40
0.2796984008
 40
0.3110718529
 40
0.3739270795
 40
0.4054202461
 40
0.4369413466
 40
0.4999999992
 40
0.5630586526
 40
0.5945797537
 40
0.6260729207
 40
0.6889281477
 40
0.7203015998
 40
0.7516173113
 40
0.8140595314
 40
0.8762898394
 40
0.90732497
 40
0.9382972732
 40
1.0
 40
1.0
 40
1.0
 40
1.0
 10
5.816878737
 20
5.0454010791
 30
0.0
 10
5.820665151
 20
5.0417453159
 30
0.0
 10
5.8261296267
 20
5.0360157708
 30
0.0
 10
5.8329015353
 20
5.0279194658
 30
0.0
 10
5.8393314012
 20
5.0194914451
 30
0.0
 10
5.8466434817
 20
5.0083784774
 30
0.0
 10
5.8528526734
 20
4.9965835093
 30
0.0
 10
5.857087815
 20
4.9867812134
 30
0.0
 10
5.8608176409
 20
4.9767388517
 30
0.0
 10
5.8637510575
 20
4.9663981874
 30
0.0
 10
5.8658241716
 20
4.9558590524
 30
0.0
 10
5.8673153185
 20
4.9452041264
 30
0.0
 10
5.8680724395
 20
4.9317491985
 30
0.0
 10
5.8673153185
 20
4.9182942705
 30
0.0
 10
5.8658241716
 20
4.9076393444
 30
0.0
 10
5.8637510575
 20
4.8971002093
 30
0.0
 10
5.8608176409
 20
4.8867595449
 30
0.0
 10
5.8570878149
 20
4.8767171832
 30
0.0
 10
5.8528526733
 20
4.8669148873
 30
0.0
 10
5.8466434816
 20
4.8551199192
 30
0.0
 10
5.8393314011
 20
4.8440069515
 30
0.0
 10
5.8329015352
 20
4.8355789309
 30
0.0
 10
5.8261296267
 20
4.8274826259
 30
0.0
 10
5.820665151
 20
4.8217530808
 30
0.0
 10
5.816878737
 20
4.8180973176
 30
0.0
  0
SPLINE
  5
4A3
100
AcDbEntity
  8
0
100
AcDbSpline
 62
7
  6
CONTINUOUS
 70
0
 71
3
 72
15
 73
11
 74
0
 42
0.0000001
 43
0.0000001
 44
0.0000000001
 40
0.0
 40
0.0
 40
0.0
 40
0.0
 40
0.1227602593
 40
0.2472141396
 40
0.3731534669
 40
0.4999999992
 40
0.6268465333
 40
0.7527858611
 40
0.8772397409
 40
1.0
 40
1.0
 40
1.0
 40
1.0
 10
5.8484103755
 20
5.0454010791
 30
0.0
 10
5.8557537157
 20
5.0380574095
 30
0.0
 10
5.8693510903
 20
5.0220063771
 30
0.0
 10
5.885118453
 20
4.9944412627
 30
0.0
 10
5.8952203481
 20
4.963925847
 30
0.0
 10
5.8987085153
 20
4.9317491984
 30
0.0
 10
5.8952203482
 20
4.8995725498
 30
0.0
 10
5.8851184529
 20
4.8690571339
 30
0.0
 10
5.8693510903
 20
4.8414920195
 30
0.0
 10
5.8557537157
 20
4.8254409872
 30
0.0
 10
5.8484103755
 20
4.8180973176
 30
0.0
  0
SPLINE
  5
4A4
100
AcDbEntity
  8
0
100
AcDbSpline
 62
7
  6
CONTINUOUS
 70
0
 71
3
 72
15
 73
11
 74
0
 42
0.0000001
 43
0.0000001
 44
0.0000000001
 40
0.0
 40
0.0
 40
0.0
 40
0.0
 40
0.1215114141
 40
0.2456633553
 40
0.372130622
 40
0.4999999992
 40
0.6278693782
 40
0.7543366454
 40
0.8784885861
 40
1.0
 40
1.0
 40
1.0
 40
1.0
 10
5.8732555691
 20
5.0454010791
 30
0.0
 10
5.8802930256
 20
5.038028478
 30
0.0
 10
5.8933135073
 20
5.0219045672
 30
0.0
 10
5.9083372197
 20
4.9943427932
 30
0.0
 10
5.9179500414
 20
4.963863509
 30
0.0
 10
5.9212663136
 20
4.9317491984
 30
0.0
 10
5.9179500415
 20
4.8996348878
 30
0.0
 10
5.9083372196
 20
4.8691556034
 30
0.0
 10
5.8933135073
 20
4.8415938295
 30
0.0
 10
5.8802930256
 20
4.8254699187
 30
0.0
 10
5.8732555691
 20
4.8180973176
 30
0.0
  0
SPLINE
  5
4A5
100
AcDbEntity
  8
0
100
AcDbSpline
 62
7
  6
CONTINUOUS
 70
0
 71
3
 72
27
 73
23
 74
0
 42
0.0000001
 43
0.0000001
 44
0.0000000001
 40
0.0
 40
0.0
 40
0.0
 40
0.0
 40
0.0595035805
 40
0.1199964796
 40
0.1814410009
 40
0.2437852054
 40
0.2752901643
 40
0.3069978368
 40
0.3388816509
 40
0.3709167728
 40
0.4353266262
 40
0.4999999992
 40
0.564673373
 40
0.6290832274
 40
0.6611183496
 40
0.6930021638
 40
0.7247098363
 40
0.7562147952
 40
0.8185589996
 40
0.8800035207
 40
0.9404964195
 40
1.0
 40
1.0
 40
1.0
 40
1.0
 10
5.8911750451
 20
5.0454010791
 30
0.0
 10
5.8944842981
 20
5.0417238692
 30
0.0
 10
5.9008546781
 20
5.0340288429
 30
0.0
 10
5.9094691515
 20
5.0216238109
 30
0.0
 10
5.9170763317
 20
5.0083018242
 30
0.0
 10
5.9224491575
 20
4.9965403628
 30
0.0
 10
5.9261179209
 20
4.9867643583
 30
0.0
 10
5.9285461471
 20
4.9792371697
 30
0.0
 10
5.9306288733
 20
4.9715614298
 30
0.0
 10
5.9329316514
 20
4.9611404108
 30
0.0
 10
5.934869768
 20
4.9478634751
 30
0.0
 10
5.9356555281
 20
4.9317491985
 30
0.0
 10
5.9348697679
 20
4.9156349218
 30
0.0
 10
5.9329316515
 20
4.9023579859
 30
0.0
 10
5.9306288733
 20
4.8919369668
 30
0.0
 10
5.9285461471
 20
4.8842612269
 30
0.0
 10
5.9261179209
 20
4.8767340383
 30
0.0
 10
5.9224491574
 20
4.8669580338
 30
0.0
 10
5.9170763316
 20
4.8551965724
 30
0.0
 10
5.9094691514
 20
4.8418745857
 30
0.0
 10
5.900854678
 20
4.8294695538
 30
0.0
 10
5.8944842981
 20
4.8217745275
 30
0.0
 10
5.8911750451
 20
4.8180973176
 30
0.0
  0
SPLINE
  5
4A6
100
AcDbEntity
  8
0
100
AcDbSpline
 62
7
  6
CONTINUOUS
 70
0
 71
3
 72
23
 73
19
 74
0
 42
0.0000001
 43
0.0000001
 44
0.0000000001
 40
0.0
 40
0.0
 40
0.0
 40
0.0
 40
0.0586086143
 40
0.1185021183
 40
0.1796465006
 40
0.241970358
 40
0.3053940963
 40
0.3697187329
 40
0.4346920536
 40
0.4999999991
 40
0.5653079454
 40
0.6302812672
 40
0.6946059042
 40
0.7580296426
 40
0.8203534999
 40
0.881497882
 40
0.9413913858
 40
1.0
 40
1.0
 40
1.0
 40
1.0
 10
5.9033962762
 20
5.0437063082
 30
0.0
 10
5.9063871421
 20
5.0400394406
 30
0.0
 10
5.9121382668
 20
5.0323780955
 30
0.0
 10
5.9198823393
 20
5.0200954989
 30
0.0
 10
5.9267096733
 20
5.0069395366
 30
0.0
 10
5.9325080879
 20
4.99298884
 30
0.0
 10
5.9371556067
 20
4.9783432736
 30
0.0
 10
5.9405637687
 20
4.9631407549
 30
0.0
 10
5.9426378743
 20
4.9475456465
 30
0.0
 10
5.943339961
 20
4.9317491986
 30
0.0
 10
5.9426378742
 20
4.9159527506
 30
0.0
 10
5.9405637688
 20
4.900357642
 30
0.0
 10
5.9371556067
 20
4.8851551232
 30
0.0
 10
5.9325080879
 20
4.8705095567
 30
0.0
 10
5.9267096733
 20
4.8565588602
 30
0.0
 10
5.9198823393
 20
4.8434028979
 30
0.0
 10
5.9121382669
 20
4.8311203014
 30
0.0
 10
5.9063871422
 20
4.8234589562
 30
0.0
 10
5.9033962763
 20
4.8197920887
 30
0.0
  0
SPLINE
  5
4A7
100
AcDbEntity
  8
0
100
AcDbSpline
 62
7
  6
CONTINUOUS
 70
0
 71
3
 72
23
 73
19
 74
0
 42
0.0000001
 43
0.0000001
 44
0.0000000001
 40
0.0
 40
0.0
 40
0.0
 40
0.0
 40
0.0586086141
 40
0.1185021173
 40
0.1796464978
 40
0.2419703539
 40
0.3053940927
 40
0.3697187303
 40
0.4346920533
 40
0.5000000007
 40
0.5653079475
 40
0.6302812695
 40
0.6946059068
 40
0.7580296456
 40
0.8203535018
 40
0.8814978825
 40
0.9413913859
 40
1.0
 40
1.0
 40
1.0
 40
1.0
 10
4.4048335378
 20
4.8197920881
 30
0.0
 10
4.4018426719
 20
4.8234589556
 30
0.0
 10
4.3960915472
 20
4.8311203008
 30
0.0
 10
4.3883474748
 20
4.8434028972
 30
0.0
 10
4.3815201407
 20
4.8565588593
 30
0.0
 10
4.3757217261
 20
4.8705095557
 30
0.0
 10
4.3710742073
 20
4.8851551222
 30
0.0
 10
4.3676660449
 20
4.9003576413
 30
0.0
 10
4.3655919395
 20
4.9159527501
 30
0.0
 10
4.3648898526
 20
4.9317491985
 30
0.0
 10
4.3655919395
 20
4.9475456469
 30
0.0
 10
4.367666045
 20
4.9631407556
 30
0.0
 10
4.3710742073
 20
4.9783432745
 30
0.0
 10
4.3757217261
 20
4.9929888411
 30
0.0
 10
4.3815201407
 20
5.0069395375
 30
0.0
 10
4.3883474748
 20
5.0200954996
 30
0.0
 10
4.3960915473
 20
5.032378096
 30
0.0
 10
4.401842672
 20
5.0400394412
 30
0.0
 10
4.4048335379
 20
5.0437063087
 30
0.0
  0
SPLINE
  5
4A8
100
AcDbEntity
  8
0
100
AcDbSpline
 62
7
  6
CONTINUOUS
 70
0
 71
3
 72
27
 73
23
 74
0
 42
0.0000001
 43
0.0000001
 44
0.0000000001
 40
0.0
 40
0.0
 40
0.0
 40
0.0
 40
0.0595035804
 40
0.1199964788
 40
0.1814409985
 40
0.2437852015
 40
0.2752901605
 40
0.3069978332
 40
0.3388816477
 40
0.3709167702
 40
0.4353266257
 40
0.5000000006
 40
0.5646733749
 40
0.6290832295
 40
0.6611183519
 40
0.6930021663
 40
0.724709839
 40
0.756214798
 40
0.8185590012
 40
0.880003521
 40
0.9404964195
 40
1.0
 40
1.0
 40
1.0
 40
1.0
 10
4.4170547686
 20
4.8180973176
 30
0.0
 10
4.4137455156
 20
4.8217745275
 30
0.0
 10
4.4073751357
 20
4.8294695537
 30
0.0
 10
4.3987606624
 20
4.8418745856
 30
0.0
 10
4.3911534822
 20
4.855196572
 30
0.0
 10
4.3857806565
 20
4.8669580331
 30
0.0
 10
4.3821118931
 20
4.8767340375
 30
0.0
 10
4.3796836668
 20
4.8842612262
 30
0.0
 10
4.3776009406
 20
4.8919369661
 30
0.0
 10
4.3752981623
 20
4.9023579854
 30
0.0
 10
4.3733600458
 20
4.9156349215
 30
0.0
 10
4.3725742856
 20
4.9317491985
 30
0.0
 10
4.3733600458
 20
4.9478634753
 30
0.0
 10
4.3752981623
 20
4.9611404113
 30
0.0
 10
4.3776009405
 20
4.9715614305
 30
0.0
 10
4.3796836668
 20
4.9792371704
 30
0.0
 10
4.3821118931
 20
4.9867643591
 30
0.0
 10
4.3857806564
 20
4.9965403635
 30
0.0
 10
4.3911534822
 20
5.0083018247
 30
0.0
 10
4.3987606624
 20
5.0216238111
 30
0.0
 10
4.4073751356
 20
5.034028843
 30
0.0
 10
4.4137455155
 20
5.0417238692
 30
0.0
 10
4.4170547686
 20
5.0454010791
 30
0.0
  0
SPLINE
  5
4A9
100
AcDbEntity
  8
0
100
AcDbSpline
 62
7
  6
CONTINUOUS
 70
0
 71
3
 72
15
 73
11
 74
0
 42
0.0000001
 43
0.0000001
 44
0.0000000001
 40
0.0
 40
0.0
 40
0.0
 40
0.0
 40
0.1215114133
 40
0.2456633514
 40
0.3721306194
 40
0.5000000006
 40
0.6278693803
 40
0.7543366481
 40
0.8784885865
 40
1.0
 40
1.0
 40
1.0
 40
1.0
 10
4.4349742445
 20
4.8180973176
 30
0.0
 10
4.4279367881
 20
4.8254699187
 30
0.0
 10
4.4149163066
 20
4.8415938292
 30
0.0
 10
4.3998925942
 20
4.8691556029
 30
0.0
 10
4.3902797722
 20
4.8996348873
 30
0.0
 10
4.3869635
 20
4.9317491984
 30
0.0
 10
4.3902797723
 20
4.9638635094
 30
0.0
 10
4.3998925942
 20
4.9943427937
 30
0.0
 10
4.4149163066
 20
5.0219045675
 30
0.0
 10
4.4279367881
 20
5.038028478
 30
0.0
 10
4.4349742445
 20
5.0454010791
 30
0.0
  0
SPLINE
  5
4AA
100
AcDbEntity
  8
0
100
AcDbSpline
 62
7
  6
CONTINUOUS
 70
0
 71
3
 72
15
 73
11
 74
0
 42
0.0000001
 43
0.0000001
 44
0.0000000001
 40
0.0
 40
0.0
 40
0.0
 40
0.0
 40
0.1227602585
 40
0.2472141357
 40
0.3731534644
 40
0.5000000006
 40
0.6268465354
 40
0.7527858638
 40
0.8772397413
 40
1.0
 40
1.0
 40
1.0
 40
1.0
 10
4.4598194382
 20
4.8180973176
 30
0.0
 10
4.452476098
 20
4.8254409872
 30
0.0
 10
4.4388787236
 20
4.8414920193
 30
0.0
 10
4.423111361
 20
4.8690571334
 30
0.0
 10
4.4130094655
 20
4.8995725493
 30
0.0
 10
4.4095212983
 20
4.9317491984
 30
0.0
 10
4.4130094656
 20
4.9639258474
 30
0.0
 10
4.4231113609
 20
4.9944412632
 30
0.0
 10
4.4388787236
 20
5.0220063774
 30
0.0
 10
4.452476098
 20
5.0380574095
 30
0.0
 10
4.4598194382
 20
5.0454010791
 30
0.0
  0
SPLINE
  5
4AB
100
AcDbEntity
  8
0
100
AcDbSpline
 62
7
  6
CONTINUOUS
 70
0
 71
3
 72
29
 73
25
 74
0
 42
0.0000001
 43
0.0000001
 44
0.0000000001
 40
0.0
 40
0.0
 40
0.0
 40
0.0
 40
0.0617027268
 40
0.0926750298
 40
0.1237101601
 40
0.1859404667
 40
0.2483826855
 40
0.2796983971
 40
0.3110718494
 40
0.373927077
 40
0.4054202445
 40
0.4369413462
 40
0.5000000006
 40
0.5630586544
 40
0.5945797556
 40
0.6260729228
 40
0.6889281501
 40
0.7203016024
 40
0.751617314
 40
0.814059533
 40
0.8762898397
 40
0.9073249701
 40
0.9382972732
 40
1.0
 40
1.0
 40
1.0
 40
1.0
 10
4.4913510767
 20
4.8180973176
 30
0.0
 10
4.4875646627
 20
4.8217530808
 30
0.0
 10
4.482100187
 20
4.8274826259
 30
0.0
 10
4.4753282785
 20
4.8355789309
 30
0.0
 10
4.4688984127
 20
4.8440069513
 30
0.0
 10
4.4615863322
 20
4.8551199187
 30
0.0
 10
4.4553771406
 20
4.8669148866
 30
0.0
 10
4.4511419991
 20
4.8767171824
 30
0.0
 10
4.4474121731
 20
4.8867595442
 30
0.0
 10
4.4444787563
 20
4.8971002087
 30
0.0
 10
4.4424056422
 20
4.9076393439
 30
0.0
 10
4.4409144952
 20
4.9182942703
 30
0.0
 10
4.4401573741
 20
4.9317491985
 30
0.0
 10
4.4409144952
 20
4.9452041266
 30
0.0
 10
4.4424056422
 20
4.9558590529
 30
0.0
 10
4.4444787563
 20
4.966398188
 30
0.0
 10
4.447412173
 20
4.9767388524
 30
0.0
 10
4.451141999
 20
4.9867812142
 30
0.0
 10
4.4553771405
 20
4.99658351
 30
0.0
 10
4.4615863322
 20
5.0083784779
 30
0.0
 10
4.4688984126
 20
5.0194914453
 30
0.0
 10
4.4753282785
 20
5.0279194658
 30
0.0
 10
4.482100187
 20
5.0360157708
 30
0.0
 10
4.4875646627
 20
5.0417453159
 30
0.0
 10
4.4913510767
 20
5.0454010791
 30
0.0
  0
SPLINE
  5
4AC
100
AcDbEntity
  8
0
100
AcDbSpline
 62
7
  6
CONTINUOUS
 70
0
 71
3
 72
29
 73
25
 74
0
 42
0.0000001
 43
0.0000001
 44
0.0000000001
 40
0.0
 40
0.0
 40
0.0
 40
0.0
 40
0.0621230307
 40
0.0932569561
 40
0.1244202642
 40
0.1868050968
 40
0.249269811
 40
0.2805505202
 40
0.3118606234
 40
0.3745149327
 40
0.4058782984
 40
0.4372552263
 40
0.5000000006
 40
0.5627447743
 40
0.5941217017
 40
0.6254850671
 40
0.6881393761
 40
0.7194494793
 40
0.7507301885
 40
0.8131949028
 40
0.8755797356
 40
0.9067430438
 40
0.9378769693
 40
1.0
 40
1.0
 40
1.0
 40
1.0
 10
4.5292654932
 20
4.8180973176
 30
0.0
 10
4.5253887327
 20
4.8217493099
 30
0.0
 10
4.5197906293
 20
4.8274752476
 30
0.0
 10
4.5128461891
 20
4.8355755762
 30
0.0
 10
4.506259554
 20
4.8439987529
 30
0.0
 10
4.4987679276
 20
4.8551052682
 30
0.0
 10
4.4923990605
 20
4.8669064865
 30
0.0
 10
4.488055871
 20
4.8767138239
 30
0.0
 10
4.4842342181
 20
4.8867525232
 30
0.0
 10
4.4812264488
 20
4.8970945226
 30
0.0
 10
4.4791007506
 20
4.9076375363
 30
0.0
 10
4.4775724168
 20
4.9182917118
 30
0.0
 10
4.4767960071
 20
4.9317491985
 30
0.0
 10
4.4775724168
 20
4.9452066851
 30
0.0
 10
4.4791007506
 20
4.9558608604
 30
0.0
 10
4.4812264488
 20
4.966403874
 30
0.0
 10
4.484234218
 20
4.9767458734
 30
0.0
 10
4.488055871
 20
4.9867845727
 30
0.0
 10
4.4923990604
 20
4.9965919101
 30
0.0
 10
4.4987679275
 20
5.0083931285
 30
0.0
 10
4.5062595539
 20
5.0194996438
 30
0.0
 10
4.5128461891
 20
5.0279228205
 30
0.0
 10
4.5197906293
 20
5.0360231491
 30
0.0
 10
4.5253887327
 20
5.0417490868
 30
0.0
 10
4.5292654932
 20
5.0454010791
 30
0.0
  0
SPLINE
  5
4AD
100
AcDbEntity
  8
0
100
AcDbSpline
 62
7
  6
CONTINUOUS
 70
0
 71
3
 72
31
 73
27
 74
0
 42
0.0000001
 43
0.0000001
 44
0.0000000001
 40
0.0
 40
0.0
 40
0.0
 40
0.0
 40
0.0623745027
 40
0.0936050447
 40
0.1248448584
 40
0.1560907575
 40
0.1873395837
 40
0.2498161391
 40
0.2810747319
 40
0.3123455018
 40
0.3748759915
 40
0.4061595655
 40
0.4374479335
 40
0.5000000006
 40
0.562552067
 40
0.5938404346
 40
0.6251240083
 40
0.6876544977
 40
0.7189252676
 40
0.7501838604
 40
0.8126604159
 40
0.8439092422
 40
0.8751551414
 40
0.9063949552
 40
0.9376254972
 40
1.0
 40
1.0
 40
1.0
 40
1.0
 10
4.5731975511
 20
4.8180973176
 30
0.0
 10
4.5692662757
 20
4.82174708
 30
0.0
 10
4.5635875029
 20
4.8274709182
 30
0.0
 10
4.5565388921
 20
4.835573477
 30
0.0
 10
4.5515274407
 20
4.8418895569
 30
0.0
 10
4.5468168848
 20
4.8484353847
 30
0.0
 10
4.5409663958
 20
4.857454847
 30
0.0
 10
4.5357920703
 20
4.8669016223
 30
0.0
 10
4.5313837972
 20
4.8767117355
 30
0.0
 10
4.5275066722
 20
4.8867482605
 30
0.0
 10
4.5244539922
 20
4.8970910305
 30
0.0
 10
4.5222965047
 20
4.9076364265
 30
0.0
 10
4.5207457149
 20
4.918290137
 30
0.0
 10
4.5199576416
 20
4.9317491985
 30
0.0
 10
4.5207457149
 20
4.9452082599
 30
0.0
 10
4.5222965047
 20
4.9558619702
 30
0.0
 10
4.5244539923
 20
4.9664073662
 30
0.0
 10
4.5275066721
 20
4.9767501361
 30
0.0
 10
4.5313837971
 20
4.9867866611
 30
0.0
 10
4.5357920703
 20
4.9965967743
 30
0.0
 10
4.5409663957
 20
5.0060435496
 30
0.0
 10
4.5468168848
 20
5.0150630119
 30
0.0
 10
4.5515274407
 20
5.0216088398
 30
0.0
 10
4.5565388921
 20
5.0279249196
 30
0.0
 10
4.5635875029
 20
5.0360274786
 30
0.0
 10
4.5692662757
 20
5.0417513167
 30
0.0
 10
4.5731975511
 20
5.0454010791
 30
0.0
  0
SPLINE
  5
4AE
100
AcDbEntity
  8
0
100
AcDbSpline
 62
7
  6
CONTINUOUS
 70
0
 71
3
 72
31
 73
27
 74
0
 42
0.0000001
 43
0.0000001
 44
0.0000000001
 40
0.0
 40
0.0
 40
0.0
 40
0.0
 40
0.0624593199
 40
0.0937225665
 40
0.1249883758
 40
0.1562534605
 40
0.1875146703
 40
0.2499960282
 40
0.281247631
 40
0.3125056383
 40
0.3749954502
 40
0.4062526795
 40
0.4375117564
 40
0.5000000006
 40
0.5624882442
 40
0.5937473206
 40
0.6250045496
 40
0.6874943612
 40
0.7187523685
 40
0.7500039713
 40
0.8124853293
 40
0.8437465392
 40
0.875011624
 40
0.9062774334
 40
0.9375406801
 40
1.0
 40
1.0
 40
1.0
 40
1.0
 10
4.6227241608
 20
4.8180973176
 30
0.0
 10
4.6187746622
 20
4.8217463422
 30
0.0
 10
4.6130689291
 20
4.8274694628
 30
0.0
 10
4.605985454
 20
4.8355728111
 30
0.0
 10
4.6009497315
 20
4.8418888549
 30
0.0
 10
4.5962163471
 20
4.8484346609
 30
0.0
 10
4.5903381213
 20
4.857453141
 30
0.0
 10
4.5851384998
 20
4.8668999137
 30
0.0
 10
4.5807083759
 20
4.8767110489
 30
0.0
 10
4.5768127256
 20
4.8867468187
 30
0.0
 10
4.5737450133
 20
4.897089855
 30
0.0
 10
4.5715768913
 20
4.907636052
 30
0.0
 10
4.5700185917
 20
4.9182896056
 30
0.0
 10
4.5692266156
 20
4.9317491985
 30
0.0
 10
4.5700185916
 20
4.9452087913
 30
0.0
 10
4.5715768913
 20
4.9558623448
 30
0.0
 10
4.5737450134
 20
4.9664085417
 30
0.0
 10
4.5768127256
 20
4.976751578
 30
0.0
 10
4.5807083758
 20
4.9867873477
 30
0.0
 10
4.5851384998
 20
4.9965984829
 30
0.0
 10
4.5903381213
 20
5.0060452556
 30
0.0
 10
4.5962163471
 20
5.0150637358
 30
0.0
 10
4.6009497315
 20
5.0216095418
 30
0.0
 10
4.605985454
 20
5.0279255856
 30
0.0
 10
4.6130689291
 20
5.0360289339
 30
0.0
 10
4.6187746621
 20
5.0417520545
 30
0.0
 10
4.6227241608
 20
5.0454010791
 30
0.0
  0
LINE
  5
4AF
100
AcDbEntity
  8
0
100
AcDbLine
 62
7
  6
CONTINUOUS
 10
6.8689210135
 20
2.9447488498
 11
6.8690518512
 21
2.9448344597
  0
LINE
  5
4B0
100
AcDbEntity
  8
0
100
AcDbLine
 62
7
  6
CONTINUOUS
 10
6.8690518512
 20
2.9448344597
 11
6.8696953033
 21
2.9449921885
  0
SPLINE
  5
4B1
100
AcDbEntity
  8
0
100
AcDbSpline
 62
7
  6
CONTINUOUS
 70
0
 71
3
 72
11
 73
7
 74
0
 42
0.0000001
 43
0.0000001
 44
0.0000000001
 40
0.0
 40
0.0
 40
0.0
 40
0.0
 40
0.2506304776
 40
0.509093891
 40
0.7631922422
 40
1.0
 40
1.0
 40
1.0
 40
1.0
 10
6.7255499866
 20
2.9500755647
 30
0.0
 10
6.7299977453
 20
2.9504302435
 30
0.0
 10
6.7390357505
 20
2.9511074485
 30
0.0
 10
6.7525926878
 20
2.9520102384
 30
0.0
 10
6.7659109428
 20
2.9527869063
 30
0.0
 10
6.774639867
 20
2.9532184332
 30
0.0
 10
6.7788516498
 20
2.9534023687
 30
0.0
  0
SPLINE
  5
4B2
100
AcDbEntity
  8
0
100
AcDbSpline
 62
7
  6
CONTINUOUS
 70
0
 71
3
 72
16
 73
12
 74
0
 42
0.0000001
 43
0.0000001
 44
0.0000000001
 40
0.0
 40
0.0
 40
0.0
 40
0.0
 40
0.0365529218
 40
0.0618295667
 40
0.0930757558
 40
0.1750767619
 40
0.2843817983
 40
0.4215505366
 40
0.5867382433
 40
0.7797030749
 40
1.0
 40
1.0
 40
1.0
 40
1.0
 10
6.3926909123
 20
2.9459663515
 30
0.0
 10
6.3926909268
 20
2.9460266372
 30
0.0
 10
6.3927470292
 20
2.9461247447
 30
0.0
 10
6.392860962
 20
2.9462254802
 30
0.0
 10
6.3930519537
 20
2.9463532285
 30
0.0
 10
6.3933858752
 20
2.9465080859
 30
0.0
 10
6.3938963592
 20
2.9466904935
 30
0.0
 10
6.3945487707
 20
2.9468795779
 30
0.0
 10
6.3953420191
 20
2.9470753554
 30
0.0
 10
6.3962746276
 20
2.9472768428
 30
0.0
 10
6.3969438729
 20
2.9474061765
 30
0.0
 10
6.3973011485
 20
2.9474722275
 30
0.0
  0
SPLINE
  5
4B3
100
AcDbEntity
  8
0
100
AcDbSpline
 62
7
  6
CONTINUOUS
 70
0
 71
3
 72
15
 73
11
 74
0
 42
0.0000001
 43
0.0000001
 44
0.0000000001
 40
0.0
 40
0.0
 40
0.0
 40
0.0
 40
0.0322118625
 40
0.0704518457
 40
0.1638462257
 40
0.2771730775
 40
0.4068398768
 40
0.5485972145
 40
0.6979721022
 40
1.0
 40
1.0
 40
1.0
 40
1.0
 10
6.3973011485
 20
2.9474722275
 30
0.0
 10
6.3980860515
 20
2.9476173357
 30
0.0
 10
6.3998082109
 20
2.9479051176
 30
0.0
 10
6.4038264527
 20
2.9484877056
 30
0.0
 10
6.4098543283
 20
2.9492091449
 30
0.0
 10
6.4181485379
 20
2.9500416179
 30
0.0
 10
6.4276480998
 20
2.9508553991
 30
0.0
 10
6.4380472172
 20
2.9516245817
 30
0.0
 10
6.4527161261
 20
2.9525574844
 30
0.0
 10
6.4638891124
 20
2.9531095501
 30
0.0
 10
6.4713675745
 20
2.9534023687
 30
0.0
  0
SPLINE
  5
4B4
100
AcDbEntity
  8
0
100
AcDbSpline
 62
7
  6
CONTINUOUS
 70
0
 71
3
 72
16
 73
12
 74
0
 42
0.0000001
 43
0.0000001
 44
0.0000000001
 40
0.0
 40
0.0
 40
0.0
 40
0.0
 40
0.0426248154
 40
0.0699161754
 40
0.1025716474
 40
0.1859388315
 40
0.295115545
 40
0.4309255049
 40
0.593682679
 40
0.7834610151
 40
1.0
 40
1.0
 40
1.0
 40
1.0
 10
6.0116150165
 20
2.9469452178
 30
0.0
 10
6.011615272
 20
2.947015656
 30
0.0
 10
6.0116660504
 20
2.9471297794
 30
0.0
 10
6.0117812078
 20
2.9472534323
 30
0.0
 10
6.0119671666
 20
2.9474018918
 30
0.0
 10
6.0122949476
 20
2.9475817171
 30
0.0
 10
6.0127967043
 20
2.9477893554
 30
0.0
 10
6.0134368404
 20
2.9480012443
 30
0.0
 10
6.014214619
 20
2.9482171598
 30
0.0
 10
6.0151293736
 20
2.9484360182
 30
0.0
 10
6.0157864538
 20
2.9485745286
 30
0.0
 10
6.016137314
 20
2.9486448446
 30
0.0
  0
SPLINE
  5
4B5
100
AcDbEntity
  8
0
100
AcDbSpline
 62
7
  6
CONTINUOUS
 70
0
 71
3
 72
15
 73
11
 74
0
 42
0.0000001
 43
0.0000001
 44
0.0000000001
 40
0.0
 40
0.0
 40
0.0
 40
0.0
 40
0.0330213757
 40
0.0712572426
 40
0.1626337225
 40
0.2722435681
 40
0.3976592399
 40
0.5362552734
 40
0.6851211316
 40
1.0
 40
1.0
 40
1.0
 40
1.0
 10
6.016137314
 20
2.9486448446
 30
0.0
 10
6.0167655461
 20
2.9487707487
 30
0.0
 10
6.0181259988
 20
2.949018627
 30
0.0
 10
6.0212431574
 20
2.949511049
 30
0.0
 10
6.0258473654
 20
2.9501061915
 30
0.0
 10
6.032145598
 20
2.9507743616
 30
0.0
 10
6.0393670485
 20
2.9514149543
 30
0.0
 10
6.0473561322
 20
2.9520125703
 30
0.0
 10
6.0590205895
 20
2.9527474798
 30
0.0
 10
6.068009579
 20
2.9531714606
 30
0.0
 10
6.0741149068
 20
2.9534023687
 30
0.0
  0
SPLINE
  5
4B6
100
AcDbEntity
  8
0
100
AcDbSpline
 62
7
  6
CONTINUOUS
 70
0
 71
3
 72
16
 73
12
 74
0
 42
0.0000001
 43
0.0000001
 44
0.0000000001
 40
0.0
 40
0.0
 40
0.0
 40
0.0
 40
0.0463774215
 40
0.0748882795
 40
0.1083937741
 40
0.1925950728
 40
0.3017411953
 40
0.4368099988
 40
0.598169831
 40
0.7859160176
 40
1.0
 40
1.0
 40
1.0
 40
1.0
 10
5.5678425674
 20
2.9480851553
 30
0.0
 10
5.567842234
 20
2.9481613385
 30
0.0
 10
5.5678886536
 20
2.9482845124
 30
0.0
 10
5.5680026871
 20
2.948421136
 30
0.0
 10
5.5681839755
 20
2.9485803326
 30
0.0
 10
5.5685058647
 20
2.9487722905
 30
0.0
 10
5.5689996715
 20
2.948990762
 30
0.0
 10
5.5696291415
 20
2.9492108128
 30
0.0
 10
5.5703933324
 20
2.9494320901
 30
0.0
 10
5.571291743
 20
2.949653723
 30
0.0
 10
5.5719372236
 20
2.9497922241
 30
0.0
 10
5.5722818836
 20
2.9498621141
 30
0.0
  0
SPLINE
  5
4B7
100
AcDbEntity
  8
0
100
AcDbSpline
 62
7
  6
CONTINUOUS
 70
0
 71
3
 72
13
 73
9
 74
0
 42
0.0000001
 43
0.0000001
 44
0.0000000001
 40
0.0
 40
0.0
 40
0.0
 40
0.0
 40
0.0741927026
 40
0.1656799202
 40
0.2733631188
 40
0.3959127557
 40
0.6792442172
 40
1.0
 40
1.0
 40
1.0
 40
1.0
 10
5.5722818836
 20
2.9498621141
 30
0.0
 10
5.5733013821
 20
2.9500688473
 30
0.0
 10
5.5755924389
 20
2.9504586992
 30
0.0
 10
5.5793909413
 20
2.9509726994
 30
0.0
 10
5.5838749182
 20
2.9514675636
 30
0.0
 10
5.5910458281
 20
2.9521242419
 30
0.0
 10
5.6012112508
 20
2.9528217402
 30
0.0
 10
5.6096719205
 20
2.9532264128
 30
0.0
 10
5.6141657595
 20
2.9534023687
 30
0.0
  0
SPLINE
  5
4B8
100
AcDbEntity
  8
0
100
AcDbSpline
 62
7
  6
CONTINUOUS
 70
0
 71
3
 72
16
 73
12
 74
0
 42
0.0000001
 43
0.0000001
 44
0.0000000001
 40
0.0
 40
0.0
 40
0.0
 40
0.0
 40
0.0480320881
 40
0.0770028945
 40
0.1107752379
 40
0.195176157
 40
0.3042573828
 40
0.4390533719
 40
0.599927058
 40
0.7869396773
 40
1.0
 40
1.0
 40
1.0
 40
1.0
 10
5.091615648
 20
2.9493084976
 30
0.0
 10
5.0916154696
 20
2.9493855714
 30
0.0
 10
5.0916595927
 20
2.949509619
 30
0.0
 10
5.0917710107
 20
2.9496482144
 30
0.0
 10
5.0919470481
 20
2.9498071579
 30
0.0
 10
5.0922609789
 20
2.9499972066
 30
0.0
 10
5.0927430853
 20
2.9502107596
 30
0.0
 10
5.0933574794
 20
2.9504232692
 30
0.0
 10
5.0941029459
 20
2.9506343544
 30
0.0
 10
5.094978709
 20
2.9508432062
 30
0.0
 10
5.0956076878
 20
2.9509721754
 30
0.0
 10
5.0959433946
 20
2.951036873
 30
0.0
  0
SPLINE
  5
4B9
100
AcDbEntity
  8
0
100
AcDbSpline
 62
7
  6
CONTINUOUS
 70
0
 71
3
 72
13
 73
9
 74
0
 42
0.0000001
 43
0.0000001
 44
0.0000000001
 40
0.0
 40
0.0
 40
0.0
 40
0.0
 40
0.0796222439
 40
0.1736672013
 40
0.2815260861
 40
0.402560557
 40
0.6809934377
 40
1.0
 40
1.0
 40
1.0
 40
1.0
 10
5.0959433946
 20
2.951036873
 30
0.0
 10
5.0966481593
 20
2.9511726956
 30
0.0
 10
5.0981925615
 20
2.9514314944
 30
0.0
 10
5.1007072726
 20
2.9517742628
 30
0.0
 10
5.1036000838
 20
2.9521014555
 30
0.0
 10
5.1081529833
 20
2.952533383
 30
0.0
 10
5.1146134901
 20
2.952998766
 30
0.0
 10
5.1199920463
 20
2.9532769061
 30
0.0
 10
5.1228649068
 20
2.9534023687
 30
0.0
  0
SPLINE
  5
4BA
100
AcDbEntity
  8
0
100
AcDbSpline
 62
7
  6
CONTINUOUS
 70
0
 71
3
 72
16
 73
12
 74
0
 42
0.0000001
 43
0.0000001
 44
0.0000000001
 40
0.0
 40
0.0
 40
0.0
 40
0.0
 40
0.0469570992
 40
0.0753910637
 40
0.1086630086
 40
0.1922210699
 40
0.3008831632
 40
0.4357810592
 40
0.5972629925
 40
0.7853721937
 40
1.0
 40
1.0
 40
1.0
 40
1.0
 10
4.6153902513
 20
2.9505318671
 30
0.0
 10
4.6153902345
 20
2.9506058416
 30
0.0
 10
4.6154343213
 20
2.9507249657
 30
0.0
 10
4.6155446155
 20
2.9508559684
 30
0.0
 10
4.6157189909
 20
2.9510057914
 30
0.0
 10
4.6160296272
 20
2.951182786
 30
0.0
 10
4.6165067777
 20
2.951378777
 30
0.0
 10
4.6171158026
 20
2.9515712025
 30
0.0
 10
4.6178556214
 20
2.9517597995
 30
0.0
 10
4.6187254214
 20
2.9519437912
 30
0.0
 10
4.6193500237
 20
2.9520556796
 30
0.0
 10
4.6196835095
 20
2.9521114473
 30
0.0
  0
SPLINE
  5
4BB
100
AcDbEntity
  8
0
100
AcDbSpline
 62
7
  6
CONTINUOUS
 70
0
 71
3
 72
11
 73
7
 74
0
 42
0.0000001
 43
0.0000001
 44
0.0000000001
 40
0.0
 40
0.0
 40
0.0
 40
0.0
 40
0.1904191648
 40
0.4226011082
 40
0.6935758014
 40
1.0
 40
1.0
 40
1.0
 40
1.0
 10
4.6196835095
 20
2.9521114473
 30
0.0
 10
4.6205646775
 20
2.9522588023
 30
0.0
 10
4.6225297889
 20
2.952528481
 30
0.0
 10
4.6257670105
 20
2.9528623835
 30
0.0
 10
4.6295538744
 20
2.9531616804
 30
0.0
 10
4.6322580687
 20
2.9533255821
 30
0.0
 10
4.63369369
 20
2.9534023687
 30
0.0
  0
SPLINE
  5
4BC
100
AcDbEntity
  8
0
100
AcDbSpline
 62
7
  6
CONTINUOUS
 70
0
 71
3
 72
17
 73
13
 74
0
 42
0.0000001
 43
0.0000001
 44
0.0000000001
 40
0.0
 40
0.0
 40
0.0
 40
0.0
 40
0.0209690178
 40
0.0440770271
 40
0.0711616097
 40
0.103385486
 40
0.1856666278
 40
0.2939648737
 40
0.4294636831
 40
0.592479486
 40
0.7827843071
 40
1.0
 40
1.0
 40
1.0
 40
1.0
 10
4.1716149961
 20
2.9516720078
 30
0.0
 10
4.1716150176
 20
2.9517035943
 30
0.0
 10
4.1716274247
 20
2.951770433
 30
0.0
 10
4.1716807407
 20
2.9518650155
 30
0.0
 10
4.1717662595
 20
2.9519561551
 30
0.0
 10
4.1719369879
 20
2.9520851399
 30
0.0
 10
4.1722394895
 20
2.9522354245
 30
0.0
 10
4.1727029361
 20
2.9523991496
 30
0.0
 10
4.1732955332
 20
2.9525573613
 30
0.0
 10
4.1740161173
 20
2.952709682
 30
0.0
 10
4.1748632365
 20
2.9528555621
 30
0.0
 10
4.1754709884
 20
2.9529424733
 30
0.0
 10
4.1757953633
 20
2.9529853872
 30
0.0
  0
LINE
  5
4BD
100
AcDbEntity
  8
0
100
AcDbLine
 62
7
  6
CONTINUOUS
 10
4.1757953633
 20
2.9529853872
 11
4.1799883191
 21
2.9534023687
  0
SPLINE
  5
4BE
100
AcDbEntity
  8
0
100
AcDbSpline
 62
7
  6
CONTINUOUS
 70
0
 71
3
 72
15
 73
11
 74
0
 42
0.0000001
 43
0.0000001
 44
0.0000000001
 40
0.0
 40
0.0
 40
0.0
 40
0.0
 40
0.0484262127
 40
0.1105993047
 40
0.1942629537
 40
0.3025455539
 40
0.4367835804
 40
0.597599366
 40
0.7852926909
 40
1.0
 40
1.0
 40
1.0
 40
1.0
 10
3.7905401557
 20
2.9526509855
 30
0.0
 10
3.7905405565
 20
2.9526886849
 30
0.0
 10
3.7905724415
 20
2.9527744589
 30
0.0
 10
3.7906862449
 20
2.9528780286
 30
0.0
 10
3.7908589864
 20
2.9529758606
 30
0.0
 10
3.7910956242
 20
2.9530695925
 30
0.0
 10
3.7913965657
 20
2.9531599559
 30
0.0
 10
3.7917624677
 20
2.9532465463
 30
0.0
 10
3.7921931855
 20
2.9533291899
 30
0.0
 10
3.7925026642
 20
2.9533781989
 30
0.0
 10
3.7926680653
 20
2.9534023687
 30
0.0
  0
SPLINE
  5
4BF
100
AcDbEntity
  8
0
100
AcDbSpline
 62
7
  6
CONTINUOUS
 70
0
 71
3
 72
15
 73
11
 74
0
 42
0.0000001
 43
0.0000001
 44
0.0000000001
 40
0.0
 40
0.0
 40
0.0
 40
0.0
 40
0.0285281541
 40
0.051252394
 40
0.0807597952
 40
0.1173855204
 40
0.1612642853
 40
0.2709418425
 40
0.5778483416
 40
1.0
 40
1.0
 40
1.0
 40
1.0
 10
6.171740119
 20
2.917833798
 30
0.0
 10
6.1717397266
 20
2.9178787252
 30
0.0
 10
6.1718025425
 20
2.9179496576
 30
0.0
 10
6.1719076
 20
2.9180148636
 30
0.0
 10
6.1720351589
 20
2.918075976
 30
0.0
 10
6.1721968487
 20
2.9181372742
 30
0.0
 10
6.1724823424
 20
2.9182288444
 30
0.0
 10
6.1731854599
 20
2.9184076567
 30
0.0
 10
6.1744853427
 20
2.9186480105
 30
0.0
 10
6.1756212448
 20
2.9188154803
 30
0.0
 10
6.1762799821
 20
2.918905391
 30
0.0
  0
SPLINE
  5
4C0
100
AcDbEntity
  8
0
100
AcDbSpline
 62
7
  6
CONTINUOUS
 70
0
 71
3
 72
15
 73
11
 74
0
 42
0.0000001
 43
0.0000001
 44
0.0000000001
 40
0.0
 40
0.0
 40
0.0
 40
0.0
 40
0.0318190382
 40
0.0700240722
 40
0.1641566994
 40
0.2790185858
 40
0.4104384053
 40
0.5535542004
 40
0.703174141
 40
1.0
 40
1.0
 40
1.0
 40
1.0
 10
6.1762799821
 20
2.918905391
 30
0.0
 10
6.1771154482
 20
2.9190194233
 30
0.0
 10
6.1789573765
 20
2.9192459794
 30
0.0
 10
6.1832829571
 20
2.9197089597
 30
0.0
 10
6.1898084976
 20
2.9202893393
 30
0.0
 10
6.1988042533
 20
2.9209663608
 30
0.0
 10
6.2091018893
 20
2.9216345661
 30
0.0
 10
6.2203242717
 20
2.9222697315
 30
0.0
 10
6.2359290466
 20
2.9230364964
 30
0.0
 10
6.2477516021
 20
2.9234961966
 30
0.0
 10
6.2556138306
 20
2.9237383897
 30
0.0
  0
SPLINE
  5
4C1
100
AcDbEntity
  8
0
100
AcDbSpline
 62
7
  6
CONTINUOUS
 70
0
 71
3
 72
16
 73
12
 74
0
 42
0.0000001
 43
0.0000001
 44
0.0000000001
 40
0.0
 40
0.0
 40
0.0
 40
0.0
 40
0.0353225824
 40
0.0601167253
 40
0.0910096482
 40
0.172644298
 40
0.2819270109
 40
0.4192989055
 40
0.5848355907
 40
0.7784600831
 40
1.0
 40
1.0
 40
1.0
 40
1.0
 10
5.7966147011
 20
2.9187961101
 30
0.0
 10
5.7966147035
 20
2.9188512683
 30
0.0
 10
5.7966691284
 20
2.9189409999
 30
0.0
 10
5.7967778911
 20
2.9190301312
 30
0.0
 10
5.7969614499
 20
2.9191434776
 30
0.0
 10
5.7972815503
 20
2.9192781414
 30
0.0
 10
5.7977700792
 20
2.9194345667
 30
0.0
 10
5.7983939378
 20
2.9195941317
 30
0.0
 10
5.7991521066
 20
2.9197570718
 30
0.0
 10
5.8000438125
 20
2.9199223441
 30
0.0
 10
5.8006836866
 20
2.9200268054
 30
0.0
 10
5.8010255423
 20
2.9200798524
 30
0.0
  0
SPLINE
  5
4C2
100
AcDbEntity
  8
0
100
AcDbSpline
 62
7
  6
CONTINUOUS
 70
0
 71
3
 72
14
 73
10
 74
0
 42
0.0000001
 43
0.0000001
 44
0.0000000001
 40
0.0
 40
0.0
 40
0.0
 40
0.0
 40
0.0704885162
 40
0.1613904135
 40
0.2708140478
 40
0.396266038
 40
0.5350620493
 40
0.6842379021
 40
1.0
 40
1.0
 40
1.0
 40
1.0
 10
5.8010255423
 20
2.9200798524
 30
0.0
 10
5.8023774696
 20
2.9202896359
 30
0.0
 10
5.8054861455
 20
2.9206824365
 30
0.0
 10
5.8107165306
 20
2.92120453
 30
0.0
 10
5.8170190128
 20
2.9217174977
 30
0.0
 10
5.8242549436
 20
2.9222104404
 30
0.0
 10
5.8322660333
 20
2.9226699953
 30
0.0
 10
5.8439703197
 20
2.9232353532
 30
0.0
 10
5.8529888673
 20
2.9235610599
 30
0.0
 10
5.8591149068
 20
2.9237383897
 30
0.0
  0
SPLINE
  5
4C3
100
AcDbEntity
  8
0
100
AcDbSpline
 62
7
  6
CONTINUOUS
 70
0
 71
3
 72
16
 73
12
 74
0
 42
0.0000001
 43
0.0000001
 44
0.0000000001
 40
0.0
 40
0.0
 40
0.0
 40
0.0
 40
0.0389767116
 40
0.0648435906
 40
0.0964026275
 40
0.1784836879
 40
0.287419624
 40
0.4239114347
 40
0.5882013381
 40
0.7803231276
 40
1.0
 40
1.0
 40
1.0
 40
1.0
 10
5.3364588202
 20
2.9199767641
 30
0.0
 10
5.3364587512
 20
2.9200369908
 30
0.0
 10
5.3365088808
 20
2.9201350936
 30
0.0
 10
5.3366175004
 20
2.9202358289
 30
0.0
 10
5.3367960321
 20
2.9203586556
 30
0.0
 10
5.3371093922
 20
2.9205037244
 30
0.0
 10
5.3375880973
 20
2.9206688502
 30
0.0
 10
5.3381995312
 20
2.9208345474
 30
0.0
 10
5.3389429328
 20
2.9210008477
 30
0.0
 10
5.3398176434
 20
2.9211667118
 30
0.0
 10
5.3404455814
 20
2.921269923
 30
0.0
 10
5.3407810121
 20
2.9213219687
 30
0.0
  0
SPLINE
  5
4C4
100
AcDbEntity
  8
0
100
AcDbSpline
 62
7
  6
CONTINUOUS
 70
0
 71
3
 72
13
 73
9
 74
0
 42
0.0000001
 43
0.0000001
 44
0.0000000001
 40
0.0
 40
0.0
 40
0.0
 40
0.0
 40
0.0749660779
 40
0.1665477971
 40
0.2738557785
 40
0.395733781
 40
0.6779767002
 40
1.0
 40
1.0
 40
1.0
 40
1.0
 10
5.3407810121
 20
2.9213219687
 30
0.0
 10
5.3416921001
 20
2.9214633339
 30
0.0
 10
5.3437234679
 20
2.9217302711
 30
0.0
 10
5.3470733657
 20
2.9220815986
 30
0.0
 10
5.3510042309
 20
2.9224182055
 30
0.0
 10
5.3572784717
 20
2.9228645105
 30
0.0
 10
5.3661971547
 20
2.9233395093
 30
0.0
 10
5.3736239685
 20
2.9236164461
 30
0.0
 10
5.3775825784
 20
2.9237383897
 30
0.0
  0
SPLINE
  5
4C5
100
AcDbEntity
  8
0
100
AcDbSpline
 62
7
  6
CONTINUOUS
 70
0
 71
3
 72
17
 73
13
 74
0
 42
0.0000001
 43
0.0000001
 44
0.0000000001
 40
0.0
 40
0.0
 40
0.0
 40
0.0
 40
0.018506674
 40
0.0397241424
 40
0.0655301576
 40
0.0969781503
 40
0.1787729392
 40
0.2874379046
 40
0.423756338
 40
0.5880329305
 40
0.7802222334
 40
1.0
 40
1.0
 40
1.0
 40
1.0
 10
4.8467716852
 20
2.9212332396
 30
0.0
 10
4.8467718409
 20
2.921261364
 30
0.0
 10
4.8467856039
 20
2.9213220524
 30
0.0
 10
4.8468413342
 20
2.9214062445
 30
0.0
 10
4.8469292083
 20
2.9214879112
 30
0.0
 10
4.8471053693
 20
2.9216056698
 30
0.0
 10
4.8474147136
 20
2.9217442365
 30
0.0
 10
4.8478869385
 20
2.9218985969
 30
0.0
 10
4.8484903298
 20
2.9220512273
 30
0.0
 10
4.849224095
 20
2.9222016301
 30
0.0
 10
4.8500874448
 20
2.9223490996
 30
0.0
 10
4.8507070455
 20
2.9224392387
 30
0.0
 10
4.8510379886
 20
2.9224843147
 30
0.0
  0
SPLINE
  5
4C6
100
AcDbEntity
  8
0
100
AcDbSpline
 62
7
  6
CONTINUOUS
 70
0
 71
3
 72
11
 73
7
 74
0
 42
0.0000001
 43
0.0000001
 44
0.0000000001
 40
0.0
 40
0.0
 40
0.0
 40
0.0
 40
0.1828345682
 40
0.4131515963
 40
0.6872857625
 40
1.0
 40
1.0
 40
1.0
 40
1.0
 10
4.8510379886
 20
2.9224843147
 30
0.0
 10
4.8521314584
 20
2.9226332503
 30
0.0
 10
4.8546116583
 20
2.9229004829
 30
0.0
 10
4.8587474897
 20
2.9232256019
 30
0.0
 10
4.8636716987
 20
2.9235130812
 30
0.0
 10
4.8672105938
 20
2.9236671166
 30
0.0
 10
4.8690967507
 20
2.9237383897
 30
0.0
  0
SPLINE
  5
4C7
100
AcDbEntity
  8
0
100
AcDbSpline
 62
7
  6
CONTINUOUS
 70
0
 71
3
 72
17
 73
13
 74
0
 42
0.0000001
 43
0.0000001
 44
0.0000000001
 40
0.0
 40
0.0
 40
0.0
 40
0.0
 40
0.0167207277
 40
0.036326075
 40
0.060830832
 40
0.0912883627
 40
0.1719361198
 40
0.2804449401
 40
0.4175658479
 40
0.5834583563
 40
0.7777644359
 40
1.0
 40
1.0
 40
1.0
 40
1.0
 10
4.3866149095
 20
2.9224140131
 30
0.0
 10
4.3866149371
 20
2.9224383708
 30
0.0
 10
4.386628383
 20
2.9224916458
 30
0.0
 10
4.3866826333
 20
2.9225634861
 30
0.0
 10
4.3867675214
 20
2.9226322509
 30
0.0
 10
4.386939089
 20
2.9227312297
 30
0.0
 10
4.3872396578
 20
2.9228450151
 30
0.0
 10
4.3876985025
 20
2.9229694975
 30
0.0
 10
4.3882861297
 20
2.9230899657
 30
0.0
 10
4.3890013129
 20
2.9232061379
 30
0.0
 10
4.3898425366
 20
2.9233174498
 30
0.0
 10
4.3904457349
 20
2.9233837495
 30
0.0
 10
4.390767812
 20
2.9234165068
 30
0.0
  0
LINE
  5
4C8
100
AcDbEntity
  8
0
100
AcDbLine
 62
7
  6
CONTINUOUS
 10
4.390767812
 20
2.9234165068
 11
4.3949883191
 21
2.9237383897
  0
LINE
  5
4C9
100
AcDbEntity
  8
0
100
AcDbLine
 62
7
  6
CONTINUOUS
 10
4.01149549
 20
2.9233764812
 11
4.0124417575
 21
2.9237383897
  0
LINE
  5
4CA
100
AcDbEntity
  8
0
100
AcDbLine
 62
7
  6
CONTINUOUS
 10
3.7666483118
 20
2.9240049459
 11
3.7675597702
 21
2.9241659431
  0
LINE
  5
4CB
100
AcDbEntity
  8
0
100
AcDbLine
 62
7
  6
CONTINUOUS
 10
6.0799747378
 20
2.8973427064
 11
6.0809420724
 21
2.8973810869
  0
SPLINE
  5
4CC
100
AcDbEntity
  8
0
100
AcDbSpline
 62
7
  6
CONTINUOUS
 70
0
 71
3
 72
15
 73
11
 74
0
 42
0.0000001
 43
0.0000001
 44
0.0000000001
 40
0.0
 40
0.0
 40
0.0
 40
0.0
 40
0.0280289066
 40
0.0505654286
 40
0.0799247125
 40
0.1164220003
 40
0.1601886597
 40
0.2697106692
 40
0.5767528958
 40
1.0
 40
1.0
 40
1.0
 40
1.0
 10
5.5816147679
 20
2.8982622828
 30
0.0
 10
5.5816147299
 20
2.8983023673
 30
0.0
 10
5.581673156
 20
2.8983647598
 30
0.0
 10
5.5817691333
 20
2.8984203461
 30
0.0
 10
5.5818859571
 20
2.8984722444
 30
0.0
 10
5.5820337496
 20
2.8985235395
 30
0.0
 10
5.5822946527
 20
2.8985993652
 30
0.0
 10
5.5829370553
 20
2.8987444964
 30
0.0
 10
5.5841242093
 20
2.8989322934
 30
0.0
 10
5.5851609603
 20
2.8990583237
 30
0.0
 10
5.585762565
 20
2.8991250256
 30
0.0
  0
SPLINE
  5
4CD
100
AcDbEntity
  8
0
100
AcDbSpline
 62
7
  6
CONTINUOUS
 70
0
 71
3
 72
14
 73
10
 74
0
 42
0.0000001
 43
0.0000001
 44
0.0000000001
 40
0.0
 40
0.0
 40
0.0
 40
0.0
 40
0.0690669448
 40
0.1590735857
 40
0.2680889577
 40
0.3935648436
 40
0.532722006
 40
0.6825126691
 40
1.0
 40
1.0
 40
1.0
 40
1.0
 10
5.585762565
 20
2.8991250256
 30
0.0
 10
5.5870993427
 20
2.8992732386
 30
0.0
 10
5.5901853032
 20
2.8995488288
 30
0.0
 10
5.5953931347
 20
2.8999148118
 30
0.0
 10
5.6017021318
 20
2.9002747605
 30
0.0
 10
5.6089701586
 20
2.9006210987
 30
0.0
 10
5.6170340094
 20
2.9009440896
 30
0.0
 10
5.6288367288
 20
2.9013415972
 30
0.0
 10
5.6379335939
 20
2.9015700912
 30
0.0
 10
5.6441149068
 20
2.9016943413
 30
0.0
  0
SPLINE
  5
4CE
100
AcDbEntity
  8
0
100
AcDbSpline
 62
7
  6
CONTINUOUS
 70
0
 71
3
 72
11
 73
7
 74
0
 42
0.0000001
 43
0.0000001
 44
0.0000000001
 40
0.0
 40
0.0
 40
0.0
 40
0.0
 40
0.160175516
 40
0.3813011399
 40
0.6620394108
 40
1.0
 40
1.0
 40
1.0
 40
1.0
 10
4.0124417575
 20
2.9237383897
 30
0.0
 10
4.012827794
 20
2.9238027415
 30
0.0
 10
4.0137546691
 20
2.9239058543
 30
0.0
 10
4.0153682513
 20
2.924019228
 30
0.0
 10
4.0174185373
 20
2.9241088264
 30
0.0
 10
4.0189297246
 20
2.9241489055
 30
0.0
 10
4.0197553019
 20
2.9241659431
 30
0.0
  0
LINE
  5
4CF
100
AcDbEntity
  8
0
100
AcDbLine
 62
7
  6
CONTINUOUS
 10
3.7751327553
 20
2.9241659431
 11
3.7922546809
 21
2.9236108327
  0
LINE
  5
4D0
100
AcDbEntity
  8
0
100
AcDbLine
 62
7
  6
CONTINUOUS
 10
4.3949883191
 20
2.9237383897
 11
4.4087713434
 21
2.9241659431
  0
SPLINE
  5
4D1
100
AcDbEntity
  8
0
100
AcDbSpline
 62
7
  6
CONTINUOUS
 70
0
 71
3
 72
17
 73
13
 74
0
 42
0.0000001
 43
0.0000001
 44
0.0000000001
 40
0.0
 40
0.0
 40
0.0
 40
0.0
 40
0.1254735181
 40
0.2666655786
 40
0.4155350368
 40
0.5640076179
 40
0.7038734946
 40
0.8274482784
 40
0.8809816781
 40
0.9279818079
 40
0.9678391653
 40
1.0
 40
1.0
 40
1.0
 40
1.0
 10
4.0339878583
 20
2.9241659431
 30
0.0
 10
4.0380939767
 20
2.9241111361
 30
0.0
 10
4.0468197127
 20
2.9239270324
 30
0.0
 10
4.0604127263
 20
2.9234987164
 30
0.0
 10
4.0747534349
 20
2.9229174088
 30
0.0
 10
4.0890453202
 20
2.9222160963
 30
0.0
 10
4.1025037929
 20
2.9214330442
 30
0.0
 10
4.1128535321
 20
2.9207207458
 30
0.0
 10
4.120164594
 20
2.920132765
 30
0.0
 10
4.1247409002
 20
2.9197208735
 30
0.0
 10
4.1286158549
 20
2.9193232488
 30
0.0
 10
4.1309562519
 20
2.9190416239
 30
0.0
 10
4.1319990546
 20
2.9188986635
 30
0.0
  0
SPLINE
  5
4D2
100
AcDbEntity
  8
0
100
AcDbSpline
 62
7
  6
CONTINUOUS
 70
0
 71
3
 72
15
 73
11
 74
0
 42
0.0000001
 43
0.0000001
 44
0.0000000001
 40
0.0
 40
0.0
 40
0.0
 40
0.0
 40
0.4220546393
 40
0.7290061
 40
0.8386565021
 40
0.8824933001
 40
0.9190716371
 40
0.9485681215
 40
0.9713239069
 40
1.0
 40
1.0
 40
1.0
 40
1.0
 10
4.1319990546
 20
2.9188986635
 30
0.0
 10
4.1326505871
 20
2.9188093433
 30
0.0
 10
4.1337742312
 20
2.918642967
 30
0.0
 10
4.1350600087
 20
2.9184042611
 30
0.0
 10
4.1357554239
 20
2.9182265612
 30
0.0
 10
4.136037553
 20
2.918135536
 30
0.0
 10
4.1361972413
 20
2.9180745559
 30
0.0
 10
4.1363232379
 20
2.9180138169
 30
0.0
 10
4.1364272724
 20
2.9179488296
 30
0.0
 10
4.1364893963
 20
2.9178784989
 30
0.0
 10
4.1364892584
 20
2.9178338173
 30
0.0
  0
LINE
  5
4D3
100
AcDbEntity
  8
0
100
AcDbLine
 62
7
  6
CONTINUOUS
 10
4.8690967507
 20
2.9237383897
 11
4.8876868187
 21
2.9241659431
  0
SPLINE
  5
4D4
100
AcDbEntity
  8
0
100
AcDbSpline
 62
7
  6
CONTINUOUS
 70
0
 71
3
 72
16
 73
12
 74
0
 42
0.0000001
 43
0.0000001
 44
0.0000000001
 40
0.0
 40
0.0
 40
0.0
 40
0.0
 40
0.1463859454
 40
0.2974644543
 40
0.4472574171
 40
0.5904119362
 40
0.7217485135
 40
0.8364210414
 40
0.930286032
 40
0.96833403
 40
1.0
 40
1.0
 40
1.0
 40
1.0
 10
4.4279468147
 20
2.9241659431
 30
0.0
 10
4.4318184526
 20
2.9241237446
 30
0.0
 10
4.4396854033
 20
2.9239942623
 30
0.0
 10
4.4515113775
 20
2.9236856972
 30
0.0
 10
4.4632484862
 20
2.9232674763
 30
0.0
 10
4.4744592004
 20
2.9227558154
 30
0.0
 10
4.4847361751
 20
2.9221714051
 30
0.0
 10
4.4937034651
 20
2.9215354159
 30
0.0
 10
4.5002004794
 20
2.9209543296
 30
0.0
 10
4.5044993755
 20
2.9204637915
 30
0.0
 10
4.5063267696
 20
2.9202153862
 30
0.0
 10
4.5071545141
 20
2.9200875608
 30
0.0
  0
SPLINE
  5
4D5
100
AcDbEntity
  8
0
100
AcDbSpline
 62
7
  6
CONTINUOUS
 70
0
 71
3
 72
16
 73
12
 74
0
 42
0.0000001
 43
0.0000001
 44
0.0000000001
 40
0.0
 40
0.0
 40
0.0
 40
0.0
 40
0.2215418496
 40
0.4152340389
 40
0.5808813403
 40
0.7183622997
 40
0.827707286
 40
0.9093116911
 40
0.940141677
 40
0.9648468562
 40
1.0
 40
1.0
 40
1.0
 40
1.0
 10
4.5071545141
 20
2.9200875608
 30
0.0
 10
4.5075000902
 20
2.9200341949
 30
0.0
 10
4.5081470339
 20
2.9199290632
 30
0.0
 10
4.5090487647
 20
2.9197627841
 30
0.0
 10
4.5098157171
 20
2.9195988561
 30
0.0
 10
4.510446941
 20
2.9194383444
 30
0.0
 10
4.5109412029
 20
2.9192810077
 30
0.0
 10
4.5112649815
 20
2.9191455984
 30
0.0
 10
4.5114505016
 20
2.919031541
 30
0.0
 10
4.5115601485
 20
2.9189419113
 30
0.0
 10
4.5116150246
 20
2.9188515985
 30
0.0
 10
4.5116149702
 20
2.9187961142
 30
0.0
  0
SPLINE
  5
4D6
100
AcDbEntity
  8
0
100
AcDbSpline
 62
7
  6
CONTINUOUS
 70
0
 71
3
 72
15
 73
11
 74
0
 42
0.0000001
 43
0.0000001
 44
0.0000000001
 40
0.0
 40
0.0
 40
0.0
 40
0.0
 40
0.3165406775
 40
0.465942017
 40
0.6048225586
 40
0.7302023565
 40
0.8394050622
 40
0.9299570786
 40
0.9676394143
 40
1.0
 40
1.0
 40
1.0
 40
1.0
 10
4.9094923602
 20
2.9241659431
 30
0.0
 10
4.9156192488
 20
2.9241031101
 30
0.0
 10
4.9246374796
 20
2.9239371158
 30
0.0
 10
4.9363389342
 20
2.9235589844
 30
0.0
 10
4.9443389791
 20
2.9232175681
 30
0.0
 10
4.9515573824
 20
2.9228209565
 30
0.0
 10
4.9578356749
 20
2.9223795283
 30
0.0
 10
4.9624134362
 20
2.9219629581
 30
0.0
 10
4.9655012006
 20
2.9216023727
 30
0.0
 10
4.9668443351
 20
2.9214160666
 30
0.0
 10
4.9674632974
 20
2.9213198437
 30
0.0
  0
SPLINE
  5
4D7
100
AcDbEntity
  8
0
100
AcDbSpline
 62
7
  6
CONTINUOUS
 70
0
 71
3
 72
17
 73
13
 74
0
 42
0.0000001
 43
0.0000001
 44
0.0000000001
 40
0.0
 40
0.0
 40
0.0
 40
0.0
 40
0.2194486169
 40
0.411327748
 40
0.5754931775
 40
0.7119499509
 40
0.8208991263
 40
0.9030023096
 40
0.9345654145
 40
0.960428992
 40
0.9816184483
 40
1.0
 40
1.0
 40
1.0
 40
1.0
 10
4.9674632974
 20
2.9213198437
 30
0.0
 10
4.9677975041
 20
2.9212678885
 30
0.0
 10
4.9684230795
 20
2.9211648534
 30
0.0
 10
4.969294565
 20
2.9209991574
 30
0.0
 10
4.9700353796
 20
2.920833152
 30
0.0
 10
4.9706449814
 20
2.920667631
 30
0.0
 10
4.9711223681
 20
2.9205030313
 30
0.0
 10
4.9714350236
 20
2.9203576734
 30
0.0
 10
4.971612942
 20
2.9202358626
 30
0.0
 10
4.971701479
 20
2.9201521247
 30
0.0
 10
4.9717573741
 20
2.9200665228
 30
0.0
 10
4.9717708535
 20
2.9200050966
 30
0.0
 10
4.9717707477
 20
2.9199767666
 30
0.0
  0
SPLINE
  5
4D8
100
AcDbEntity
  8
0
100
AcDbSpline
 62
7
  6
CONTINUOUS
 70
0
 71
3
 72
13
 73
9
 74
0
 42
0.0000001
 43
0.0000001
 44
0.0000000001
 40
0.0
 40
0.0
 40
0.0
 40
0.0
 40
0.3226968858
 40
0.6052009036
 40
0.727029653
 40
0.8341675542
 40
0.9254502488
 40
1.0
 40
1.0
 40
1.0
 40
1.0
 10
5.420542995
 20
2.9241659431
 30
0.0
 10
5.4244931149
 20
2.924122778
 30
0.0
 10
5.4319009232
 20
2.9239937118
 30
0.0
 10
5.4407966778
 20
2.9236961459
 30
0.0
 10
5.4470498267
 20
2.9233744092
 30
0.0
 10
5.4509619055
 20
2.9231160058
 30
0.0
 10
5.4542915639
 20
2.9228313401
 30
0.0
 10
5.4563094523
 20
2.922604616
 30
0.0
 10
5.4572136785
 20
2.9224811602
 30
0.0
  0
SPLINE
  5
4D9
100
AcDbEntity
  8
0
100
AcDbSpline
 62
7
  6
CONTINUOUS
 70
0
 71
3
 72
17
 73
13
 74
0
 42
0.0000001
 43
0.0000001
 44
0.0000000001
 40
0.0
 40
0.0
 40
0.0
 40
0.0
 40
0.219835394
 40
0.4120052828
 40
0.5762086397
 40
0.7125007304
 40
0.8211690211
 40
0.9029772587
 40
0.9344316895
 40
0.9602439527
 40
0.9814712387
 40
1.0
 40
1.0
 40
1.0
 40
1.0
 10
5.4572136785
 20
2.9224811602
 30
0.0
 10
5.457543145
 20
2.9224361775
 30
0.0
 10
5.4581598751
 20
2.9223462525
 30
0.0
 10
5.4590190694
 20
2.9221990984
 30
0.0
 10
5.4597491304
 20
2.9220489728
 30
0.0
 10
5.4603494647
 20
2.9218967248
 30
0.0
 10
5.4608193635
 20
2.921742778
 30
0.0
 10
5.4611271903
 20
2.9216046035
 30
0.0
 10
5.4613024341
 20
2.9214871812
 30
0.0
 10
5.4613898059
 20
2.9214057435
 30
0.0
 10
5.4614451345
 20
2.9213217717
 30
0.0
 10
5.4614586629
 20
2.9212612722
 30
0.0
 10
5.4614587324
 20
2.9212332457
 30
0.0
  0
LINE
  5
4DA
100
AcDbEntity
  8
0
100
AcDbLine
 62
7
  6
CONTINUOUS
 10
6.2556138306
 20
2.9237383897
 11
6.2742419553
 21
2.9241659431
  0
SPLINE
  5
4DB
100
AcDbEntity
  8
0
100
AcDbSpline
 62
7
  6
CONTINUOUS
 70
0
 71
3
 72
11
 73
7
 74
0
 42
0.0000001
 43
0.0000001
 44
0.0000000001
 40
0.0
 40
0.0
 40
0.0
 40
0.0
 40
0.3134280141
 40
0.5878344219
 40
0.8179343946
 40
1.0
 40
1.0
 40
1.0
 40
1.0
 10
5.8994584703
 20
2.9241659431
 30
0.0
 10
5.9013378695
 20
2.924140708
 30
0.0
 10
5.9048624792
 20
2.924075502
 30
0.0
 10
5.9097652491
 20
2.9239202942
 30
0.0
 10
5.9138776037
 20
2.9237162543
 30
0.0
 10
5.9163429212
 20
2.9235300298
 30
0.0
 10
5.9174292014
 20
2.9234202525
 30
0.0
  0
SPLINE
  5
4DC
100
AcDbEntity
  8
0
100
AcDbSpline
 62
7
  6
CONTINUOUS
 70
0
 71
3
 72
17
 73
13
 74
0
 42
0.0000001
 43
0.0000001
 44
0.0000000001
 40
0.0
 40
0.0
 40
0.0
 40
0.0
 40
0.2223283091
 40
0.416487289
 40
0.5821222733
 40
0.719112311
 40
0.8276922439
 40
0.9085169416
 40
0.9390679249
 40
0.9636480545
 40
0.9832915466
 40
1.0
 40
1.0
 40
1.0
 40
1.0
 10
5.9174292014
 20
2.9234202525
 30
0.0
 10
5.9177537755
 20
2.9233874517
 30
0.0
 10
5.9183613202
 20
2.9233210626
 30
0.0
 10
5.9192082686
 20
2.9232094933
 30
0.0
 10
5.9199279241
 20
2.9230929023
 30
0.0
 10
5.920519417
 20
2.9229719332
 30
0.0
 10
5.9209818841
 20
2.9228469555
 30
0.0
 10
5.9212852855
 20
2.9227327097
 30
0.0
 10
5.9214588537
 20
2.9226333188
 30
0.0
 10
5.9215448968
 20
2.9225642525
 30
0.0
 10
5.9216000755
 20
2.9224921272
 30
0.0
 10
5.9216139921
 20
2.9224385071
 30
0.0
 10
5.9216141368
 20
2.9224139909
 30
0.0
  0
LINE
  5
4DD
100
AcDbEntity
  8
0
100
AcDbLine
 62
7
  6
CONTINUOUS
 10
6.5192557277
 20
2.9237383897
 11
6.5330970584
 21
2.9241659431
  0
LINE
  5
4DE
100
AcDbEntity
  8
0
100
AcDbLine
 62
7
  6
CONTINUOUS
 10
6.5112476374
 20
2.9234157088
 11
6.5141715638
 21
2.9235378172
  0
LINE
  5
4DF
100
AcDbEntity
  8
0
100
AcDbLine
 62
7
  6
CONTINUOUS
 10
6.2884745117
 20
2.9241659431
 11
6.2926311471
 21
2.924023317
  0
SPLINE
  5
4E0
100
AcDbEntity
  8
0
100
AcDbSpline
 62
7
  6
CONTINUOUS
 70
0
 71
3
 72
17
 73
13
 74
0
 42
0.0000001
 43
0.0000001
 44
0.0000000001
 40
0.0
 40
0.0
 40
0.0
 40
0.0
 40
0.2265633305
 40
0.4243394453
 40
0.5927800838
 40
0.7314180493
 40
0.8402278916
 40
0.8835813517
 40
0.9196953622
 40
0.9487672566
 40
0.9711859691
 40
1.0
 40
1.0
 40
1.0
 40
1.0
 10
6.2926311471
 20
2.924023317
 30
0.0
 10
6.2929494062
 20
2.924006374
 30
0.0
 10
6.293545308
 20
2.9239710151
 30
0.0
 10
6.2943768206
 20
2.9239077379
 30
0.0
 10
6.295083683
 20
2.9238381994
 30
0.0
 10
6.2956639042
 20
2.9237623868
 30
0.0
 10
6.2960669053
 20
2.9236906839
 30
0.0
 10
6.2963242458
 20
2.9236269856
 30
0.0
 10
6.296469936
 20
2.9235820425
 30
0.0
 10
6.296584907
 20
2.9235343915
 30
0.0
 10
6.2966813313
 20
2.9234809708
 30
0.0
 10
6.2967372779
 20
2.9234171484
 30
0.0
 10
6.2967373539
 20
2.9233766154
 30
0.0
  0
LINE
  5
4E1
100
AcDbEntity
  8
0
100
AcDbLine
 62
7
  6
CONTINUOUS
 10
6.5406700435
 20
2.9241659431
 11
6.5415781849
 21
2.9240047654
  0
SPLINE
  5
4E2
100
AcDbEntity
  8
0
100
AcDbSpline
 62
7
  6
CONTINUOUS
 70
0
 71
3
 72
17
 73
13
 74
0
 42
0.0000001
 43
0.0000001
 44
0.0000000001
 40
0.0
 40
0.0
 40
0.0
 40
0.0
 40
0.0309369557
 40
0.0541571629
 40
0.0838543375
 40
0.1204458179
 40
0.1641520082
 40
0.273330696
 40
0.4117087865
 40
0.57913646
 40
0.775342791
 40
1.0
 40
1.0
 40
1.0
 40
1.0
 10
5.0916157036
 20
2.8995184491
 30
0.0
 10
5.0916157013
 20
2.8995618149
 30
0.0
 10
5.0916687719
 20
2.899631346
 30
0.0
 10
5.0917650836
 20
2.8996947896
 30
0.0
 10
5.0918783255
 20
2.8997512408
 30
0.0
 10
5.092022096
 20
2.8998065464
 30
0.0
 10
5.0922754776
 20
2.8998869586
 30
0.0
 10
5.0926726316
 20
2.8999829553
 30
0.0
 10
5.0932441754
 20
2.900091831
 30
0.0
 10
5.093939597
 20
2.9002000855
 30
0.0
 10
5.0947572564
 20
2.9003075045
 30
0.0
 10
5.0953434943
 20
2.9003737907
 30
0.0
 10
5.0956566395
 20
2.9004071053
 30
0.0
  0
SPLINE
  5
4E3
100
AcDbEntity
  8
0
100
AcDbSpline
 62
7
  6
CONTINUOUS
 70
0
 71
3
 72
12
 73
8
 74
0
 42
0.0000001
 43
0.0000001
 44
0.0000000001
 40
0.0
 40
0.0
 40
0.0
 40
0.0
 40
0.0776011666
 40
0.1703370024
 40
0.3984323446
 40
0.6780734362
 40
1.0
 40
1.0
 40
1.0
 40
1.0
 10
5.0956566395
 20
2.9004071053
 30
0.0
 10
5.0963574085
 20
2.9004816581
 30
0.0
 10
5.0978979635
 20
2.9006232245
 30
0.0
 10
5.101506488
 20
2.9008904678
 30
0.0
 10
5.1069521097
 20
2.9011847259
 30
0.0
 10
5.1144810561
 20
2.9014763764
 30
0.0
 10
5.1199421651
 20
2.9016265029
 30
0.0
 10
5.1228649068
 20
2.9016943413
 30
0.0
  0
SPLINE
  5
4E4
100
AcDbEntity
  8
0
100
AcDbSpline
 62
7
  6
CONTINUOUS
 70
0
 71
3
 72
15
 73
11
 74
0
 42
0.0000001
 43
0.0000001
 44
0.0000000001
 40
0.0
 40
0.0
 40
0.0
 40
0.0
 40
0.0281588647
 40
0.0505117391
 40
0.0795950954
 40
0.1157586315
 40
0.1591769582
 40
0.2681095436
 40
0.575278602
 40
1.0
 40
1.0
 40
1.0
 40
1.0
 10
4.601614852
 20
2.9007746785
 30
0.0
 10
4.6016149133
 20
2.900812693
 30
0.0
 10
4.6016696469
 20
2.9008719686
 30
0.0
 10
4.6017611038
 20
2.9009224832
 30
0.0
 10
4.6018713952
 20
2.9009685693
 30
0.0
 10
4.6020109779
 20
2.9010128164
 30
0.0
 10
4.6022575988
 20
2.9010766737
 30
0.0
 10
4.602867148
 20
2.9011936106
 30
0.0
 10
4.6039948781
 20
2.9013305518
 30
0.0
 10
4.6049794403
 20
2.9014133467
 30
0.0
 10
4.6055512809
 20
2.901455273
 30
0.0
  0
LINE
  5
4E5
100
AcDbEntity
  8
0
100
AcDbLine
 62
7
  6
CONTINUOUS
 10
4.6055512809
 20
2.901455273
 11
4.6099883191
 21
2.9016943413
  0
SPLINE
  5
4E6
100
AcDbEntity
  8
0
100
AcDbSpline
 62
7
  6
CONTINUOUS
 70
0
 71
3
 72
13
 73
9
 74
0
 42
0.0000001
 43
0.0000001
 44
0.0000000001
 40
0.0
 40
0.0
 40
0.0
 40
0.0
 40
0.0968637545
 40
0.1785469488
 40
0.2867981992
 40
0.4227510105
 40
0.5868530017
 40
1.0
 40
1.0
 40
1.0
 40
1.0
 10
3.4981281639
 20
2.9534023687
 30
0.0
 10
3.4981281639
 20
2.9534544204
 30
0.0
 10
3.4982167024
 20
2.9535318373
 30
0.0
 10
3.4983527084
 20
2.9535903581
 30
0.0
 10
3.4985218537
 20
2.9536444181
 30
0.0
 10
3.4987351053
 20
2.9536931951
 30
0.0
 10
3.4991128432
 20
2.953760687
 30
0.0
 10
3.4994209337
 20
2.9537974941
 30
0.0
 10
3.4996417737
 20
2.9538202862
 30
0.0
  0
LINE
  5
4E7
100
AcDbEntity
  8
0
100
AcDbLine
 62
7
  6
CONTINUOUS
 10
3.4371817506
 20
2.9452153152
 11
3.4385345103
 21
2.9449921885
  0
SPLINE
  5
4E8
100
AcDbEntity
  8
0
100
AcDbSpline
 62
7
  6
CONTINUOUS
 70
0
 71
3
 72
15
 73
11
 74
0
 42
0.0000001
 43
0.0000001
 44
0.0000000001
 40
0.0
 40
0.0
 40
0.0
 40
0.0
 40
0.3276240481
 40
0.4830051852
 40
0.6263667709
 40
0.7533364395
 40
0.8599982221
 40
0.9431070856
 40
0.9749743323
 40
1.0
 40
1.0
 40
1.0
 40
1.0
 10
3.3708686711
 20
2.9509605189
 30
0.0
 10
3.3781200583
 20
2.9504442929
 30
0.0
 10
3.3888080703
 20
2.949647835
 30
0.0
 10
3.4026625494
 20
2.9485406553
 30
0.0
 10
3.4120756553
 20
2.9477497441
 30
0.0
 10
3.4204080483
 20
2.947008945
 30
0.0
 10
3.4274044724
 20
2.9463407424
 30
0.0
 10
3.432295891
 20
2.9458283505
 30
0.0
 10
3.4353807029
 20
2.9454613244
 30
0.0
 10
3.4366322809
 20
2.9452955812
 30
0.0
 10
3.4371817506
 20
2.9452153152
 30
0.0
  0
LINE
  5
4E9
100
AcDbEntity
  8
0
100
AcDbLine
 62
7
  6
CONTINUOUS
 10
3.7926680653
 20
2.9534023687
 11
3.7976685475
 21
2.9538202862
  0
SPLINE
  5
4EA
100
AcDbEntity
  8
0
100
AcDbSpline
 62
7
  6
CONTINUOUS
 70
0
 71
3
 72
11
 73
7
 74
0
 42
0.0000001
 43
0.0000001
 44
0.0000000001
 40
0.0
 40
0.0
 40
0.0
 40
0.0
 40
0.2196710615
 40
0.4725564147
 40
0.7393546368
 40
1.0
 40
1.0
 40
1.0
 40
1.0
 10
3.518295093
 20
2.9538202862
 30
0.0
 10
3.5230152326
 20
2.9536754393
 30
0.0
 10
3.5331660459
 20
2.9532617311
 30
0.0
 10
3.5490381938
 20
2.9524195115
 30
0.0
 10
3.5657797483
 20
2.9513552339
 30
0.0
 10
3.5770879925
 20
2.9505215026
 30
0.0
 10
3.5826734645
 20
2.9500760914
 30
0.0
  0
LINE
  5
4EB
100
AcDbEntity
  8
0
100
AcDbLine
 62
7
  6
CONTINUOUS
 10
4.1799883191
 20
2.9534023687
 11
4.1881348991
 21
2.9538202862
  0
SPLINE
  5
4EC
100
AcDbEntity
  8
0
100
AcDbSpline
 62
7
  6
CONTINUOUS
 70
0
 71
3
 72
17
 73
13
 74
0
 42
0.0000001
 43
0.0000001
 44
0.0000000001
 40
0.0
 40
0.0
 40
0.0
 40
0.0
 40
0.138771663
 40
0.2861016476
 40
0.4353322035
 40
0.5801870937
 40
0.7144297805
 40
0.8323312824
 40
0.8835499876
 40
0.9288813945
 40
0.9678223999
 40
1.0
 40
1.0
 40
1.0
 40
1.0
 10
3.8240483247
 20
2.9538202862
 30
0.0
 10
3.8280776784
 20
2.9537176063
 30
0.0
 10
3.8363833893
 20
2.9534451973
 30
0.0
 10
3.8490154747
 20
2.9528830325
 30
0.0
 10
3.8618170429
 20
2.9521721153
 30
0.0
 10
3.8742306941
 20
2.9513446073
 30
0.0
 10
3.8857260859
 20
2.9504361209
 30
0.0
 10
3.8944993769
 20
2.9496132387
 30
0.0
 10
3.9006909323
 20
2.9489319145
 30
0.0
 10
3.9045969724
 20
2.9484509634
 30
0.0
 10
3.907946597
 20
2.9479806926
 30
0.0
 10
3.9099854023
 20
2.9476463599
 30
0.0
 10
3.9109045093
 20
2.947476851
 30
0.0
  0
SPLINE
  5
4ED
100
AcDbEntity
  8
0
100
AcDbSpline
 62
7
  6
CONTINUOUS
 70
0
 71
3
 72
16
 73
12
 74
0
 42
0.0000001
 43
0.0000001
 44
0.0000000001
 40
0.0
 40
0.0
 40
0.0
 40
0.0
 40
0.2203578389
 40
0.4132659046
 40
0.5783670162
 40
0.7155784929
 40
0.8249914536
 40
0.9070748338
 40
0.9383260781
 40
0.9635738266
 40
1.0
 40
1.0
 40
1.0
 40
1.0
 10
3.9109045093
 20
2.947476851
 30
0.0
 10
3.9112636568
 20
2.9474106141
 30
0.0
 10
3.9119362338
 20
2.9472809473
 30
0.0
 10
3.9128733414
 20
2.9470788686
 30
0.0
 10
3.9136703592
 20
2.9468824201
 30
0.0
 10
3.9143261713
 20
2.9466927856
 30
0.0
 10
3.9148396727
 20
2.9465098285
 30
0.0
 10
3.9151757356
 20
2.9463545594
 30
0.0
 10
3.9153679033
 20
2.9462263605
 30
0.0
 10
3.9154823277
 20
2.9461254656
 30
0.0
 10
3.9155383703
 20
2.9460267721
 30
0.0
 10
3.9155379205
 20
2.9459664038
 30
0.0
  0
LINE
  5
4EE
100
AcDbEntity
  8
0
100
AcDbLine
 62
7
  6
CONTINUOUS
 10
4.63369369
 20
2.9534023687
 11
4.6444311918
 21
2.9538202862
  0
SPLINE
  5
4EF
100
AcDbEntity
  8
0
100
AcDbSpline
 62
7
  6
CONTINUOUS
 70
0
 71
3
 72
15
 73
11
 74
0
 42
0.0000001
 43
0.0000001
 44
0.0000000001
 40
0.0
 40
0.0
 40
0.0
 40
0.0
 40
0.3049055988
 40
0.4543920253
 40
0.5957090885
 40
0.7246034218
 40
0.8370890543
 40
0.9298053582
 40
0.9678519216
 40
1.0
 40
1.0
 40
1.0
 40
1.0
 10
4.2204433959
 20
2.9538202862
 30
0.0
 10
4.2277482911
 20
2.9536512792
 30
0.0
 10
4.238632087
 20
2.9532695545
 30
0.0
 10
4.2528886451
 20
2.9525251668
 30
0.0
 10
4.2629256561
 20
2.9518747941
 30
0.0
 10
4.2720686109
 20
2.9511517463
 30
0.0
 10
4.280037856
 20
2.9503776435
 30
0.0
 10
4.2858261405
 20
2.9496777986
 30
0.0
 10
4.2896861714
 20
2.9490915124
 30
0.0
 10
4.2913424237
 20
2.948795313
 30
0.0
 10
4.292097792
 20
2.948643838
 30
0.0
  0
SPLINE
  5
4F0
100
AcDbEntity
  8
0
100
AcDbSpline
 62
7
  6
CONTINUOUS
 70
0
 71
3
 72
17
 73
13
 74
0
 42
0.0000001
 43
0.0000001
 44
0.0000000001
 40
0.0
 40
0.0
 40
0.0
 40
0.0
 40
0.2164515144
 40
0.4061337425
 40
0.5689003836
 40
0.704784598
 40
0.8140442233
 40
0.8589219498
 40
0.8975203722
 40
0.9301664176
 40
0.9574280607
 40
1.0
 40
1.0
 40
1.0
 40
1.0
 10
4.292097792
 20
2.948643838
 30
0.0
 10
4.2924481972
 20
2.9485735708
 30
0.0
 10
4.2931044006
 20
2.9484351597
 30
0.0
 10
4.2940179891
 20
2.9482163086
 30
0.0
 10
4.2947951594
 20
2.9480006022
 30
0.0
 10
4.2954347022
 20
2.947788616
 30
0.0
 10
4.2958782672
 20
2.9476060203
 30
0.0
 10
4.2961602021
 20
2.9474578217
 30
0.0
 10
4.2963224574
 20
2.9473553764
 30
0.0
 10
4.2964500333
 20
2.9472532099
 30
0.0
 10
4.2965649106
 20
2.9471296806
 30
0.0
 10
4.2966150516
 20
2.9470154993
 30
0.0
 10
4.2966150277
 20
2.9469452091
 30
0.0
  0
SPLINE
  5
4F1
100
AcDbEntity
  8
0
100
AcDbSpline
 62
7
  6
CONTINUOUS
 70
0
 71
3
 72
15
 73
11
 74
0
 42
0.0000001
 43
0.0000001
 44
0.0000000001
 40
0.0
 40
0.0
 40
0.0
 40
0.0
 40
0.3167501036
 40
0.4655625856
 40
0.603767062
 40
0.7286305034
 40
0.837697203
 40
0.9287121181
 40
0.9669128906
 40
1.0
 40
1.0
 40
1.0
 40
1.0
 10
4.6804666377
 20
2.9538202862
 30
0.0
 10
4.6863420356
 20
2.9536875312
 30
0.0
 10
4.6949762835
 20
2.9534056745
 30
0.0
 10
4.7061645609
 20
2.9528443556
 30
0.0
 10
4.7137914945
 20
2.9523619977
 30
0.0
 10
4.7206750422
 20
2.9518199834
 30
0.0
 10
4.7266755424
 20
2.9512313119
 30
0.0
 10
4.7310638528
 20
2.9506866505
 30
0.0
 10
4.7340394679
 20
2.9502229132
 30
0.0
 10
4.7353408524
 20
2.9499851963
 30
0.0
 10
4.7359425053
 20
2.9498632371
 30
0.0
  0
SPLINE
  5
4F2
100
AcDbEntity
  8
0
100
AcDbSpline
 62
7
  6
CONTINUOUS
 70
0
 71
3
 72
16
 73
12
 74
0
 42
0.0000001
 43
0.0000001
 44
0.0000000001
 40
0.0
 40
0.0
 40
0.0
 40
0.0
 40
0.2140731893
 40
0.4018459703
 40
0.5632495036
 40
0.6983580003
 40
0.8075194638
 40
0.8916943679
 40
0.9251688535
 40
0.9536447343
 40
1.0
 40
1.0
 40
1.0
 40
1.0
 10
4.7359425053
 20
2.9498632371
 30
0.0
 10
4.7362875325
 20
2.9497932977
 30
0.0
 10
4.7369337611
 20
2.9496546948
 30
0.0
 10
4.7378332893
 20
2.9494329307
 30
0.0
 10
4.7385985428
 20
2.9492115257
 30
0.0
 10
4.7392289208
 20
2.9489913543
 30
0.0
 10
4.73972338
 20
2.9487727759
 30
0.0
 10
4.740045612
 20
2.9485807069
 30
0.0
 10
4.7402269491
 20
2.9484213836
 30
0.0
 10
4.7403408527
 20
2.9482845716
 30
0.0
 10
4.740387222
 20
2.9481613917
 30
0.0
 10
4.7403869649
 20
2.9480851607
 30
0.0
  0
SPLINE
  5
4F3
100
AcDbEntity
  8
0
100
AcDbSpline
 62
7
  6
CONTINUOUS
 70
0
 71
3
 72
13
 73
9
 74
0
 42
0.0000001
 43
0.0000001
 44
0.0000000001
 40
0.0
 40
0.0
 40
0.0
 40
0.0
 40
0.3216793027
 40
0.6044439565
 40
0.7266238695
 40
0.8340525491
 40
0.9255328776
 40
1.0
 40
1.0
 40
1.0
 40
1.0
 10
5.1727682262
 20
2.9538202862
 30
0.0
 10
5.1770148321
 20
2.9537198376
 30
0.0
 10
5.1849928477
 20
2.9534611072
 30
0.0
 10
5.1945752994
 20
2.9529448876
 30
0.0
 10
5.2013212192
 20
2.9524212852
 30
0.0
 10
5.2055417612
 20
2.9520114232
 30
0.0
 10
5.2091251442
 20
2.9515715459
 30
0.0
 10
5.2112904174
 20
2.9512280624
 30
0.0
 10
5.2122561546
 20
2.9510428209
 30
0.0
  0
SPLINE
  5
4F4
100
AcDbEntity
  8
0
100
AcDbSpline
 62
7
  6
CONTINUOUS
 70
0
 71
3
 72
16
 73
12
 74
0
 42
0.0000001
 43
0.0000001
 44
0.0000000001
 40
0.0
 40
0.0
 40
0.0
 40
0.0
 40
0.2133053166
 40
0.4004422613
 40
0.5613475429
 40
0.6961096604
 40
0.8051173974
 40
0.8894278681
 40
0.9231563278
 40
0.9520821726
 40
1.0
 40
1.0
 40
1.0
 40
1.0
 10
5.2122561546
 20
2.9510428209
 30
0.0
 10
5.2125944607
 20
2.9509779292
 30
0.0
 10
5.2132281737
 20
2.9508485718
 30
0.0
 10
5.2141103733
 20
2.9506390195
 30
0.0
 10
5.214861007
 20
2.9504272141
 30
0.0
 10
5.2154794282
 20
2.9502139683
 30
0.0
 10
5.2159645565
 20
2.949999671
 30
0.0
 10
5.2162804179
 20
2.9498089342
 30
0.0
 10
5.2164575976
 20
2.9496494206
 30
0.0
 10
5.2165697645
 20
2.9495103984
 30
0.0
 10
5.2166143407
 20
2.9493858815
 30
0.0
 10
5.216614237
 20
2.9493084976
 30
0.0
  0
SPLINE
  5
4F5
100
AcDbEntity
  8
0
100
AcDbSpline
 62
7
  6
CONTINUOUS
 70
0
 71
3
 72
12
 73
8
 74
0
 42
0.0000001
 43
0.0000001
 44
0.0000000001
 40
0.0
 40
0.0
 40
0.0
 40
0.0
 40
0.3186764568
 40
0.5963714057
 40
0.8251629286
 40
0.9196040429
 40
1.0
 40
1.0
 40
1.0
 40
1.0
 10
5.6637986218
 20
2.9538202862
 30
0.0
 10
5.6664386639
 20
2.9537497238
 30
0.0
 10
5.6713784388
 20
2.9535801794
 30
0.0
 10
5.6782072262
 20
2.9532099454
 30
0.0
 10
5.6831722164
 20
2.9528066178
 30
0.0
 10
5.6864954606
 20
2.9524232051
 30
0.0
 10
5.6879297522
 20
2.9522150738
 30
0.0
 10
5.6885867807
 20
2.9521044887
 30
0.0
  0
SPLINE
  5
4F6
100
AcDbEntity
  8
0
100
AcDbSpline
 62
7
  6
CONTINUOUS
 70
0
 71
3
 72
16
 73
12
 74
0
 42
0.0000001
 43
0.0000001
 44
0.0000000001
 40
0.0
 40
0.0
 40
0.0
 40
0.0
 40
0.2143099147
 40
0.4022270235
 40
0.56363483
 40
0.6985683931
 40
0.8073656532
 40
0.8910734131
 40
0.9244066926
 40
0.9529013115
 40
1.0
 40
1.0
 40
1.0
 40
1.0
 10
5.6885867807
 20
2.9521044887
 30
0.0
 10
5.6889168897
 20
2.9520489277
 30
0.0
 10
5.6895352877
 20
2.9519374448
 30
0.0
 10
5.6903965975
 20
2.9517541626
 30
0.0
 10
5.6911295526
 20
2.9515663147
 30
0.0
 10
5.6917332991
 20
2.9513746613
 30
0.0
 10
5.692206627
 20
2.9511795838
 30
0.0
 10
5.692514923
 20
2.9510034848
 30
0.0
 10
5.6926879034
 20
2.9508543749
 30
0.0
 10
5.6927972872
 20
2.9507239529
 30
0.0
 10
5.6928408631
 20
2.950605459
 30
0.0
 10
5.6928407834
 20
2.9505318909
 30
0.0
  0
SPLINE
  5
4F7
100
AcDbEntity
  8
0
100
AcDbSpline
 62
7
  6
CONTINUOUS
 70
0
 71
3
 72
10
 73
6
 74
0
 42
0.0000001
 43
0.0000001
 44
0.0000000001
 40
0.0
 40
0.0
 40
0.0
 40
0.0
 40
0.5741720377
 40
0.8069111108
 40
1.0
 40
1.0
 40
1.0
 40
1.0
 10
6.1200949146
 20
2.9538202862
 30
0.0
 10
6.1224538858
 20
2.9537416602
 30
0.0
 10
6.1257686196
 20
2.953595455
 30
0.0
 10
6.1298675263
 20
2.9532799947
 30
0.0
 10
6.1316086566
 20
2.9530945611
 30
0.0
 10
6.1323956388
 20
2.9529911956
 30
0.0
  0
SPLINE
  5
4F8
100
AcDbEntity
  8
0
100
AcDbSpline
 62
7
  6
CONTINUOUS
 70
0
 71
3
 72
17
 73
13
 74
0
 42
0.0000001
 43
0.0000001
 44
0.0000000001
 40
0.0
 40
0.0
 40
0.0
 40
0.0
 40
0.2173990708
 40
0.4075957535
 40
0.5704492122
 40
0.7059509148
 40
0.8143651608
 40
0.8967046672
 40
0.92893119
 40
0.956000228
 40
0.9790755266
 40
1.0
 40
1.0
 40
1.0
 40
1.0
 10
6.1323956388
 20
2.9529911956
 30
0.0
 10
6.1327230655
 20
2.95294819
 30
0.0
 10
6.1333361339
 20
2.9528610767
 30
0.0
 10
6.1341903841
 20
2.9527146723
 30
0.0
 10
6.1349167629
 20
2.952561704
 30
0.0
 10
6.1355144678
 20
2.9524028709
 30
0.0
 10
6.1359823847
 20
2.9522385701
 30
0.0
 10
6.1362879924
 20
2.9520875398
 30
0.0
 10
6.1364605142
 20
2.9519578238
 30
0.0
 10
6.1365469217
 20
2.9518661689
 30
0.0
 10
6.13660082
 20
2.9517710213
 30
0.0
 10
6.1366133867
 20
2.9517037404
 30
0.0
 10
6.1366134205
 20
2.9516719552
 30
0.0
  0
LINE
  5
4F9
100
AcDbEntity
  8
0
100
AcDbLine
 62
7
  6
CONTINUOUS
 10
6.5105612662
 20
2.9538202862
 11
6.5135213914
 21
2.9536282845
  0
SPLINE
  5
4FA
100
AcDbEntity
  8
0
100
AcDbSpline
 62
7
  6
CONTINUOUS
 70
0
 71
3
 72
17
 73
13
 74
0
 42
0.0000001
 43
0.0000001
 44
0.0000000001
 40
0.0
 40
0.0
 40
0.0
 40
0.0
 40
0.2214842971
 40
0.4151570116
 40
0.5806043309
 40
0.7175106207
 40
0.8258976901
 40
0.906607119
 40
0.9372512908
 40
0.9621208934
 40
0.982351491
 40
1.0
 40
1.0
 40
1.0
 40
1.0
 10
6.5135213914
 20
2.9536282845
 30
0.0
 10
6.5138444722
 20
2.953600611
 30
0.0
 10
6.5144496363
 20
2.9535434709
 30
0.0
 10
6.5152939012
 20
2.9534436009
 30
0.0
 10
6.5160121445
 20
2.9533356301
 30
0.0
 10
6.5166027452
 20
2.9532202708
 30
0.0
 10
6.5170641602
 20
2.9530976019
 30
0.0
 10
6.517366389
 20
2.9529825627
 30
0.0
 10
6.5175384878
 20
2.9528806376
 30
0.0
 10
6.5176238683
 20
2.9528087742
 30
0.0
 10
6.5176781248
 20
2.9527328063
 30
0.0
 10
6.5176911697
 20
2.9526769056
 30
0.0
 10
6.517691189
 20
2.9526510673
 30
0.0
  0
SPLINE
  5
4FB
100
AcDbEntity
  8
0
100
AcDbSpline
 62
7
  6
CONTINUOUS
 70
0
 71
3
 72
16
 73
12
 74
0
 42
0.0000001
 43
0.0000001
 44
0.0000000001
 40
0.0
 40
0.0
 40
0.0
 40
0.0
 40
0.0076174363
 40
0.0209644055
 40
0.0693509304
 40
0.1481328628
 40
0.2577036172
 40
0.3981458844
 40
0.5690812925
 40
0.769905882
 40
1.0
 40
1.0
 40
1.0
 40
1.0
 10
4.8166151412
 20
2.8867337244
 30
0.0
 10
4.8166151543
 20
2.886744603
 30
0.0
 10
4.8166372134
 20
2.8867708412
 30
0.0
 10
4.8167268706
 20
2.8868097207
 30
0.0
 10
4.8169248677
 20
2.8868556836
 30
0.0
 10
4.817258424
 20
2.8869039123
 30
0.0
 10
4.8177260494
 20
2.8869526196
 30
0.0
 10
4.8183251988
 20
2.8869996989
 30
0.0
 10
4.819055354
 20
2.8870452655
 30
0.0
 10
4.819913749
 20
2.8870888835
 30
0.0
 10
4.8205286144
 20
2.8871148335
 30
0.0
 10
4.8208569641
 20
2.8871276531
 30
0.0
  0
LINE
  5
4FC
100
AcDbEntity
  8
0
100
AcDbLine
 62
7
  6
CONTINUOUS
 10
4.8208569641
 20
2.8871276531
 11
4.8249883191
 21
2.8872495636
  0
LINE
  5
4FD
100
AcDbEntity
  8
0
100
AcDbLine
 62
7
  6
CONTINUOUS
 10
4.8249883191
 20
2.8872495636
 11
4.8551001874
 21
2.8874266257
  0
SPLINE
  5
4FE
100
AcDbEntity
  8
0
100
AcDbSpline
 62
7
  6
CONTINUOUS
 70
0
 71
3
 72
12
 73
8
 74
0
 42
0.0000001
 43
0.0000001
 44
0.0000000001
 40
0.0
 40
0.0
 40
0.0
 40
0.0
 40
0.3225545464
 40
0.603825623
 40
0.8327777955
 40
0.9245519867
 40
1.0
 40
1.0
 40
1.0
 40
1.0
 10
5.4531618614
 20
2.8874267393
 30
0.0
 10
5.4568339488
 20
2.8874382463
 30
0.0
 10
5.4637082067
 20
2.8874452099
 30
0.0
 10
5.4731888575
 20
2.8874018465
 30
0.0
 10
5.480041929
 20
2.8873205766
 30
0.0
 10
5.4845511065
 20
2.8872219178
 30
0.0
 10
5.4864539876
 20
2.8871632618
 30
0.0
 10
5.4873122833
 20
2.8871301561
 30
0.0
  0
SPLINE
  5
4FF
100
AcDbEntity
  8
0
100
AcDbSpline
 62
7
  6
CONTINUOUS
 70
0
 71
3
 72
16
 73
12
 74
0
 42
0.0000001
 43
0.0000001
 44
0.0000000001
 40
0.0
 40
0.0
 40
0.0
 40
0.0
 40
0.230362813
 40
0.4310828926
 40
0.6016111291
 40
0.7417010012
 40
0.8512540757
 40
0.9302455955
 40
0.9789099872
 40
0.9923606641
 40
1.0
 40
1.0
 40
1.0
 40
1.0
 10
5.4873122833
 20
2.8871301561
 30
0.0
 10
5.4876456296
 20
2.8871172984
 30
0.0
 10
5.4882693625
 20
2.8870912746
 30
0.0
 10
5.4891394557
 20
2.8870474749
 30
0.0
 10
5.4898786163
 20
2.8870016256
 30
0.0
 10
5.4904850457
 20
2.8869541855
 30
0.0
 10
5.4909590536
 20
2.8869051419
 30
0.0
 10
5.4912979455
 20
2.8868565721
 30
0.0
 10
5.4914997863
 20
2.8868102684
 30
0.0
 10
5.4915912906
 20
2.8867711645
 30
0.0
 10
5.4916142439
 20
2.886744783
 30
0.0
 10
5.491614393
 20
2.8867337213
 30
0.0
  0
LINE
  5
500
100
AcDbEntity
  8
0
100
AcDbLine
 62
7
  6
CONTINUOUS
 10
6.0497306668
 20
2.9019817458
 11
6.0614421439
 21
2.9019949141
  0
SPLINE
  5
501
100
AcDbEntity
  8
0
100
AcDbSpline
 62
7
  6
CONTINUOUS
 70
0
 71
3
 72
17
 73
13
 74
0
 42
0.0000001
 43
0.0000001
 44
0.0000000001
 40
0.0
 40
0.0
 40
0.0
 40
0.0
 40
0.2301239426
 40
0.4306222039
 40
0.6011640061
 40
0.7414344494
 40
0.8511526897
 40
0.9301262227
 40
0.9581212057
 40
0.9786226802
 40
0.992051323
 40
1.0
 40
1.0
 40
1.0
 40
1.0
 10
6.0614421439
 20
2.9019949141
 30
0.0
 10
6.0617423318
 20
2.9019890246
 30
0.0
 10
6.0623040273
 20
2.9019760855
 30
0.0
 10
6.063087982
 20
2.9019507135
 30
0.0
 10
6.063754437
 20
2.9019208402
 30
0.0
 10
6.0643021203
 20
2.901886723
 30
0.0
 10
6.0647296198
 20
2.9018486647
 30
0.0
 10
6.0650101801
 20
2.9018112771
 30
0.0
 10
6.0651729559
 20
2.9017770287
 30
0.0
 10
6.0652502709
 20
2.9017522189
 30
0.0
 10
6.0652997916
 20
2.9017300138
 30
0.0
 10
6.0653189362
 20
2.9017046771
 30
0.0
 10
6.0653188176
 20
2.901694307
 30
0.0
  0
LINE
  5
502
100
AcDbEntity
  8
0
100
AcDbLine
 62
7
  6
CONTINUOUS
 10
5.940347473
 20
2.8973810869
 11
5.9445138176
 21
2.8979411453
  0
SPLINE
  5
503
100
AcDbEntity
  8
0
100
AcDbSpline
 62
7
  6
CONTINUOUS
 70
0
 71
3
 72
15
 73
11
 74
0
 42
0.0000001
 43
0.0000001
 44
0.0000000001
 40
0.0
 40
0.0
 40
0.0
 40
0.0
 40
0.0309129836
 40
0.0690025098
 40
0.1649562652
 40
0.2833930977
 40
0.4188537888
 40
0.5650904226
 40
0.7152736818
 40
1.0
 40
1.0
 40
1.0
 40
1.0
 10
5.9445138176
 20
2.8979411453
 30
0.0
 10
5.9454340541
 20
2.8980210844
 30
0.0
 10
5.9474897194
 20
2.8981814961
 30
0.0
 10
5.9524073014
 20
2.8985174747
 30
0.0
 10
5.9599392578
 20
2.8989517406
 30
0.0
 10
5.9703800559
 20
2.8994739347
 30
0.0
 10
5.9823247625
 20
2.9000016224
 30
0.0
 10
5.9952196769
 20
2.9005103936
 30
0.0
 10
6.0125740742
 20
2.9011194397
 30
0.0
 10
6.0255642675
 20
2.9014969232
 30
0.0
 10
6.0340698025
 20
2.9016943413
 30
0.0
  0
SPLINE
  5
504
100
AcDbEntity
  8
0
100
AcDbSpline
 62
7
  6
CONTINUOUS
 70
0
 71
3
 72
14
 73
10
 74
0
 42
0.0000001
 43
0.0000001
 44
0.0000000001
 40
0.0
 40
0.0
 40
0.0
 40
0.0
 40
0.319066721
 40
0.4694673107
 40
0.608927819
 40
0.7343608086
 40
0.8429722261
 40
0.9321736047
 40
1.0
 40
1.0
 40
1.0
 40
1.0
 10
5.6441149068
 20
2.9016943413
 30
0.0
 10
5.6503456587
 20
2.9018195852
 30
0.0
 10
5.6595144997
 20
2.901957503
 30
0.0
 10
5.671407884
 20
2.9020336691
 30
0.0
 10
5.6795194835
 20
2.9020332043
 30
0.0
 10
5.6868146263
 20
2.901976524
 30
0.0
 10
5.6931274986
 20
2.9018668778
 30
0.0
 10
5.6983135476
 20
2.9017064971
 30
0.0
 10
5.7013772711
 20
2.901551157
 30
0.0
 10
5.7026984923
 20
2.9014540498
 30
0.0
  0
SPLINE
  5
505
100
AcDbEntity
  8
0
100
AcDbSpline
 62
7
  6
CONTINUOUS
 70
0
 71
3
 72
15
 73
11
 74
0
 42
0.0000001
 43
0.0000001
 44
0.0000000001
 40
0.0
 40
0.0
 40
0.0
 40
0.0
 40
0.4243517838
 40
0.7310441759
 40
0.8401306227
 40
0.8836794811
 40
0.9199883776
 40
0.9492160466
 40
0.9716961019
 40
1.0
 40
1.0
 40
1.0
 40
1.0
 10
5.7026984923
 20
2.9014540498
 30
0.0
 10
5.7032669514
 20
2.9014122692
 30
0.0
 10
5.7042454107
 20
2.9013297212
 30
0.0
 10
5.705366424
 20
2.901192649
 30
0.0
 10
5.7059725936
 20
2.9010760893
 30
0.0
 10
5.7062185275
 20
2.9010123865
 30
0.0
 10
5.7063579478
 20
2.9009682186
 30
0.0
 10
5.7064682454
 20
2.9009222199
 30
0.0
 10
5.7065597446
 20
2.9008718097
 30
0.0
 10
5.7066147293
 20
2.900812694
 30
0.0
 10
5.7066148508
 20
2.9007746762
 30
0.0
  0
SPLINE
  5
506
100
AcDbEntity
  8
0
100
AcDbSpline
 62
7
  6
CONTINUOUS
 70
0
 71
3
 72
17
 73
13
 74
0
 42
0.0000001
 43
0.0000001
 44
0.0000000001
 40
0.0
 40
0.0
 40
0.0
 40
0.0
 40
0.1378196857
 40
0.2856806501
 40
0.4362861658
 40
0.5827854229
 40
0.7183044866
 40
0.836509459
 40
0.8873389793
 40
0.9318735396
 40
0.9695729215
 40
1.0
 40
1.0
 40
1.0
 40
1.0
 10
5.1228649068
 20
2.9016943413
 30
0.0
 10
5.12698882
 20
2.9017900596
 30
0.0
 10
5.1355383287
 20
2.9019371089
 30
0.0
 10
5.148596374
 20
2.9020405202
 30
0.0
 10
5.1619146205
 20
2.9020305864
 30
0.0
 10
5.174862918
 20
2.9019087289
 30
0.0
 10
5.1868398447
 20
2.9016808219
 30
0.0
 10
5.1959514155
 20
2.9014024299
 30
0.0
 10
5.2023376864
 20
2.901124215
 30
0.0
 10
5.2063146401
 20
2.900908841
 30
0.0
 10
5.2096789078
 20
2.9006790215
 30
0.0
 10
5.211710346
 20
2.9004993719
 30
0.0
 10
5.2126158825
 20
2.9004025291
 30
0.0
  0
SPLINE
  5
507
100
AcDbEntity
  8
0
100
AcDbSpline
 62
7
  6
CONTINUOUS
 70
0
 71
3
 72
17
 73
13
 74
0
 42
0.0000001
 43
0.0000001
 44
0.0000000001
 40
0.0
 40
0.0
 40
0.0
 40
0.0
 40
0.2247837454
 40
0.4210678408
 40
0.588473277
 40
0.7266823296
 40
0.835650469
 40
0.8793115777
 40
0.9158983981
 40
0.9456250942
 40
0.9689026029
 40
1.0
 40
1.0
 40
1.0
 40
1.0
 10
5.2126158825
 20
2.9004025291
 30
0.0
 10
5.2129259514
 20
2.9003693687
 30
0.0
 10
5.2135063824
 20
2.9003034064
 30
0.0
 10
5.2143157835
 20
2.9001965402
 30
0.0
 10
5.2150037852
 20
2.9000888712
 30
0.0
 10
5.2155687598
 20
2.899980562
 30
0.0
 10
5.215961068
 20
2.8998849611
 30
0.0
 10
5.2162113305
 20
2.8998049933
 30
0.0
 10
5.2163534783
 20
2.8997499664
 30
0.0
 10
5.2164655311
 20
2.8996938244
 30
0.0
 10
5.2165610124
 20
2.8996306104
 30
0.0
 10
5.2166136149
 20
2.8995615895
 30
0.0
 10
5.2166137712
 20
2.8995184491
 30
0.0
  0
SPLINE
  5
508
100
AcDbEntity
  8
0
100
AcDbSpline
 62
7
  6
CONTINUOUS
 70
0
 71
3
 72
20
 73
16
 74
0
 42
0.0000001
 43
0.0000001
 44
0.0000000001
 40
0.0
 40
0.0
 40
0.0
 40
0.0
 40
0.0437147198
 40
0.0961731639
 40
0.1562417913
 40
0.2226962678
 40
0.3695319157
 40
0.5251616665
 40
0.6772896313
 40
0.7482670373
 40
0.813941255
 40
0.8730427894
 40
0.924390189
 40
0.9669837032
 40
1.0
 40
1.0
 40
1.0
 40
1.0
 10
4.6099883191
 20
2.9016943413
 30
0.0
 10
4.6116277891
 20
2.9017602511
 30
0.0
 10
4.61523615
 20
2.9018676249
 30
0.0
 10
4.6210997084
 20
2.9019713637
 30
0.0
 10
4.6278174727
 20
2.9020280921
 30
0.0
 10
4.6380778166
 20
2.9020396359
 30
0.0
 10
4.6519247564
 20
2.9019253314
 30
0.0
 10
4.6689849681
 20
2.9016173335
 30
0.0
 10
4.683195337
 20
2.9012251587
 30
0.0
 10
4.6940274877
 20
2.90083579
 30
0.0
 10
4.7013684191
 20
2.9005254431
 30
0.0
 10
4.707970943
 20
2.9001969293
 30
0.0
 10
4.7137053736
 20
2.8998574746
 30
0.0
 10
4.7184582908
 20
2.8995141262
 30
0.0
 10
4.7212850096
 20
2.8992568378
 30
0.0
 10
4.7225166136
 20
2.8991194955
 30
0.0
  0
SPLINE
  5
509
100
AcDbEntity
  8
0
100
AcDbSpline
 62
7
  6
CONTINUOUS
 70
0
 71
3
 72
15
 73
11
 74
0
 42
0.0000001
 43
0.0000001
 44
0.0000000001
 40
0.0
 40
0.0
 40
0.0
 40
0.0
 40
0.4231859986
 40
0.7302894042
 40
0.8398057232
 40
0.8835476787
 40
0.9200049732
 40
0.9493355858
 40
0.971874
 40
1.0
 40
1.0
 40
1.0
 40
1.0
 10
4.7225166136
 20
2.8991194955
 30
0.0
 10
4.723111119
 20
2.8990531993
 30
0.0
 10
4.7241357733
 20
2.8989279522
 30
0.0
 10
4.7253090253
 20
2.8987414423
 30
0.0
 10
4.725943872
 20
2.8985972607
 30
0.0
 10
4.7262015326
 20
2.8985219248
 30
0.0
 10
4.7263473851
 20
2.8984709416
 30
0.0
 10
4.7264626051
 20
2.898419364
 30
0.0
 10
4.7265574246
 20
2.8983640288
 30
0.0
 10
4.7266149031
 20
2.8983020435
 30
0.0
 10
4.7266148703
 20
2.8982622863
 30
0.0
  0
SPLINE
  5
50A
100
AcDbEntity
  8
0
100
AcDbSpline
 62
7
  6
CONTINUOUS
 70
0
 71
3
 72
16
 73
12
 74
0
 42
0.0000001
 43
0.0000001
 44
0.0000000001
 40
0.0
 40
0.0
 40
0.0
 40
0.0
 40
0.0079731405
 40
0.0215221072
 40
0.0702171284
 40
0.149210103
 40
0.258742945
 40
0.3987540169
 40
0.5690960016
 40
0.769588261
 40
1.0
 40
1.0
 40
1.0
 40
1.0
 10
4.2429100111
 20
2.9016943413
 30
0.0
 10
4.2429100111
 20
2.9017047612
 30
0.0
 10
4.242929785
 20
2.9017299594
 30
0.0
 10
4.2430131165
 20
2.9017667415
 30
0.0
 10
4.2431952448
 20
2.9018075904
 30
0.0
 10
4.2435018056
 20
2.9018483389
 30
0.0
 10
4.2439299236
 20
2.9018866395
 30
0.0
 10
4.2444774801
 20
2.9019208553
 30
0.0
 10
4.2451444923
 20
2.9019508718
 30
0.0
 10
4.2459298275
 20
2.9019763154
 30
0.0
 10
4.2464928279
 20
2.9019892356
 30
0.0
 10
4.2467938892
 20
2.9019951119
 30
0.0
  0
SPLINE
  5
50B
100
AcDbEntity
  8
0
100
AcDbSpline
 62
7
  6
CONTINUOUS
 70
0
 71
3
 72
12
 73
8
 74
0
 42
0.0000001
 43
0.0000001
 44
0.0000000001
 40
0.0
 40
0.0
 40
0.0
 40
0.0
 40
0.0736071498
 40
0.164074666
 40
0.3919471481
 40
0.6743792336
 40
1.0
 40
1.0
 40
1.0
 40
1.0
 10
4.2467938892
 20
2.9019951119
 30
0.0
 10
4.2476217442
 20
2.9020112706
 30
0.0
 10
4.2494673954
 20
2.9020307953
 30
0.0
 10
4.2538764719
 20
2.902033871
 30
0.0
 10
4.2606344208
 20
2.9019648286
 30
0.0
 10
4.270036327
 20
2.9017957665
 30
0.0
 10
4.2768744551
 20
2.9016323942
 30
0.0
 10
4.2805361428
 20
2.9015368578
 30
0.0
  0
SPLINE
  5
50C
100
AcDbEntity
  8
0
100
AcDbSpline
 62
7
  6
CONTINUOUS
 70
0
 71
3
 72
15
 73
11
 74
0
 42
0.0000001
 43
0.0000001
 44
0.0000000001
 40
0.0
 40
0.0
 40
0.0
 40
0.0
 40
0.294195974
 40
0.4446117402
 40
0.5891328354
 40
0.721925984
 40
0.8376159421
 40
0.9315724078
 40
0.9691650408
 40
1.0
 40
1.0
 40
1.0
 40
1.0
 10
4.2805361428
 20
2.9015368578
 30
0.0
 10
4.2886988928
 20
2.901323885
 30
0.0
 10
4.3010335741
 20
2.9009425016
 30
0.0
 10
4.3173742357
 20
2.900343382
 30
0.0
 10
4.3292362151
 20
2.8998591936
 30
0.0
 10
4.340133019
 20
2.8993641002
 30
0.0
 10
4.3496251686
 20
2.8988780096
 30
0.0
 10
4.3564757137
 20
2.8984752261
 30
0.0
 10
4.3609720156
 20
2.8981639071
 30
0.0
 10
4.3628654667
 20
2.8980150477
 30
0.0
 10
4.3637180909
 20
2.8979409636
 30
0.0
  0
LINE
  5
50D
100
AcDbEntity
  8
0
100
AcDbLine
 62
7
  6
CONTINUOUS
 10
4.3637180909
 20
2.8979409636
 11
4.3678823407
 21
2.8973810869
  0
LINE
  5
50E
100
AcDbEntity
  8
0
100
AcDbLine
 62
7
  6
CONTINUOUS
 10
6.8696953033
 20
2.9449921885
 11
6.8709676471
 21
2.9452033425
  0
SPLINE
  5
50F
100
AcDbEntity
  8
0
100
AcDbSpline
 62
7
  6
CONTINUOUS
 70
0
 71
3
 72
15
 73
11
 74
0
 42
0.0000001
 43
0.0000001
 44
0.0000000001
 40
0.0
 40
0.0
 40
0.0
 40
0.0
 40
0.0247314601
 40
0.0563093845
 40
0.1390236732
 40
0.2454935407
 40
0.3725043614
 40
0.5160277555
 40
0.671672851
 40
1.0
 40
1.0
 40
1.0
 40
1.0
 10
6.8709676471
 20
2.9452033425
 30
0.0
 10
6.8715112237
 20
2.945283518
 30
0.0
 10
6.8727513427
 20
2.9454490596
 30
0.0
 10
6.875818201
 20
2.9458158662
 30
0.0
 10
6.8806962808
 20
2.9463277855
 30
0.0
 10
6.8876892535
 20
2.9469968622
 30
0.0
 10
6.8960322315
 20
2.9477392199
 30
0.0
 10
6.9054673688
 20
2.9485325305
 30
0.0
 10
6.9193640948
 20
2.9496435173
 30
0.0
 10
6.9300868596
 20
2.9504426225
 30
0.0
 10
6.9373628708
 20
2.9509606249
 30
0.0
  0
SPLINE
  5
510
100
AcDbEntity
  8
0
100
AcDbSpline
 62
7
  6
CONTINUOUS
 70
0
 71
3
 72
13
 73
9
 74
0
 42
0.0000001
 43
0.0000001
 44
0.0000000001
 40
0.0
 40
0.0
 40
0.0
 40
0.0
 40
0.4124666673
 40
0.5763189938
 40
0.7121805724
 40
0.820545845
 40
0.9025014608
 40
1.0
 40
1.0
 40
1.0
 40
1.0
 10
6.80858804
 20
2.9538202862
 30
0.0
 10
6.8088082295
 20
2.9537975612
 30
0.0
 10
6.8091154203
 20
2.9537607967
 30
0.0
 10
6.8094920921
 20
2.9536933058
 30
0.0
 10
6.8097049183
 20
2.9536444612
 30
0.0
 10
6.8098739719
 20
2.9535904207
 30
0.0
 10
6.810010298
 20
2.9535316379
 30
0.0
 10
6.8100993096
 20
2.9534545731
 30
0.0
 10
6.810099857
 20
2.9534022513
 30
0.0
  0
LINE
  5
511
100
AcDbEntity
  8
0
100
AcDbLine
 62
7
  6
CONTINUOUS
 10
4.2272877412
 20
2.8973810869
 11
4.2282414946
 21
2.8973432397
  0
SPLINE
  5
512
100
AcDbEntity
  8
0
100
AcDbSpline
 62
7
  6
CONTINUOUS
 70
0
 71
3
 72
9
 73
5
 74
0
 42
0.0000001
 43
0.0000001
 44
0.0000000001
 40
0.0
 40
0.0
 40
0.0
 40
0.0
 40
0.3258202984
 40
1.0
 40
1.0
 40
1.0
 40
1.0
 10
4.3678823407
 20
2.8973810869
 30
0.0
 10
4.3678865621
 20
2.8973780898
 30
0.0
 10
4.367898841
 20
2.8973685947
 30
0.0
 10
4.3679100111
 20
2.8973539521
 30
0.0
 10
4.3679100111
 20
2.8973432397
 30
0.0
  0
LINE
  5
513
100
AcDbEntity
  8
0
100
AcDbLine
 62
7
  6
CONTINUOUS
 10
6.5330970584
 20
2.9241659431
 11
6.5406700435
 21
2.9241659431
  0
LINE
  5
514
100
AcDbEntity
  8
0
100
AcDbLine
 62
7
  6
CONTINUOUS
 10
6.2742419553
 20
2.9241659431
 11
6.2884745117
 21
2.9241659431
  0
LINE
  5
515
100
AcDbEntity
  8
0
100
AcDbLine
 62
7
  6
CONTINUOUS
 10
5.8802829989
 20
2.9241659431
 11
5.8994584703
 21
2.9241659431
  0
LINE
  5
516
100
AcDbEntity
  8
0
100
AcDbLine
 62
7
  6
CONTINUOUS
 10
4.4087713434
 20
2.9241659431
 11
4.4279468147
 21
2.9241659431
  0
LINE
  5
517
100
AcDbEntity
  8
0
100
AcDbLine
 62
7
  6
CONTINUOUS
 10
4.0197553019
 20
2.9241659431
 11
4.0339878583
 21
2.9241659431
  0
LINE
  5
518
100
AcDbEntity
  8
0
100
AcDbLine
 62
7
  6
CONTINUOUS
 10
3.7675597702
 20
2.9241659431
 11
3.7751327553
 21
2.9241659431
  0
SPLINE
  5
519
100
AcDbEntity
  8
0
100
AcDbSpline
 62
7
  6
CONTINUOUS
 70
0
 71
3
 72
13
 73
9
 74
0
 42
0.0000001
 43
0.0000001
 44
0.0000000001
 40
0.0
 40
0.0
 40
0.0
 40
0.0
 40
0.345504553
 40
0.6320854486
 40
0.7506588937
 40
0.8518286673
 40
0.9350991891
 40
1.0
 40
1.0
 40
1.0
 40
1.0
 10
6.7899347206
 20
2.9538202862
 30
0.0
 10
6.7920829053
 20
2.9538862076
 30
0.0
 10
6.7960134692
 20
2.9539892112
 30
0.0
 10
6.8006828483
 20
2.9540491234
 30
0.0
 10
6.8038324479
 20
2.9540318358
 30
0.0
 10
6.8057170479
 20
2.9539926061
 30
0.0
 10
6.8072667924
 20
2.9539279679
 30
0.0
 10
6.8081864604
 20
2.9538617319
 30
0.0
 10
6.80858804
 20
2.9538202862
 30
0.0
  0
SPLINE
  5
51A
100
AcDbEntity
  8
0
100
AcDbSpline
 62
7
  6
CONTINUOUS
 70
0
 71
3
 72
11
 73
7
 74
0
 42
0.0000001
 43
0.0000001
 44
0.0000000001
 40
0.0
 40
0.0
 40
0.0
 40
0.0
 40
0.3037917513
 40
0.5763043439
 40
0.8102196948
 40
1.0
 40
1.0
 40
1.0
 40
1.0
 10
6.4841814889
 20
2.9538202862
 30
0.0
 10
6.4868524254
 20
2.9538883496
 30
0.0
 10
6.4919199265
 20
2.9539941818
 30
0.0
 10
6.4990456764
 20
2.9540578948
 30
0.0
 10
6.5051687899
 20
2.9540105793
 30
0.0
 10
6.5088941499
 20
2.9539014271
 30
0.0
 10
6.5105612662
 20
2.9538202862
 30
0.0
  0
SPLINE
  5
51B
100
AcDbEntity
  8
0
100
AcDbSpline
 62
7
  6
CONTINUOUS
 70
0
 71
3
 72
11
 73
7
 74
0
 42
0.0000001
 43
0.0000001
 44
0.0000000001
 40
0.0
 40
0.0
 40
0.0
 40
0.0
 40
0.2796870732
 40
0.5440546629
 40
0.7861429505
 40
1.0
 40
1.0
 40
1.0
 40
1.0
 10
6.0877864177
 20
2.9538202862
 30
0.0
 10
6.0907980532
 20
2.9538899638
 30
0.0
 10
6.0966570669
 20
2.9539973209
 30
0.0
 10
6.1051244278
 20
2.9540582244
 30
0.0
 10
6.11288282
 20
2.9540069308
 30
0.0
 10
6.1177927907
 20
2.9538970175
 30
0.0
 10
6.1200949146
 20
2.9538202862
 30
0.0
  0
SPLINE
  5
51C
100
AcDbEntity
  8
0
100
AcDbSpline
 62
7
  6
CONTINUOUS
 70
0
 71
3
 72
10
 73
6
 74
0
 42
0.0000001
 43
0.0000001
 44
0.0000000001
 40
0.0
 40
0.0
 40
0.0
 40
0.0
 40
0.5204348459
 40
0.7685043044
 40
1.0
 40
1.0
 40
1.0
 40
1.0
 10
5.627763176
 20
2.9538202862
 30
0.0
 10
5.6340134764
 20
2.9539615122
 30
0.0
 10
5.6432457372
 20
2.9540771608
 30
0.0
 10
5.6552585756
 20
2.9540043032
 30
0.0
 10
5.661018696
 20
2.9538945875
 30
0.0
 10
5.6637986218
 20
2.9538202862
 30
0.0
  0
SPLINE
  5
51D
100
AcDbEntity
  8
0
100
AcDbSpline
 62
7
  6
CONTINUOUS
 70
0
 71
3
 72
9
 73
5
 74
0
 42
0.0000001
 43
0.0000001
 44
0.0000000001
 40
0.0
 40
0.0
 40
0.0
 40
0.0
 40
0.4795288268
 40
1.0
 40
1.0
 40
1.0
 40
1.0
 10
4.6444311918
 20
2.9538202862
 30
0.0
 10
4.6501895738
 20
2.953974195
 30
0.0
 10
4.6622031627
 20
2.954110728
 30
0.0
 10
4.6742159663
 20
2.9539615206
 30
0.0
 10
4.6804666377
 20
2.9538202862
 30
0.0
  0
SPLINE
  5
51E
100
AcDbEntity
  8
0
100
AcDbSpline
 62
7
  6
CONTINUOUS
 70
0
 71
3
 72
11
 73
7
 74
0
 42
0.0000001
 43
0.0000001
 44
0.0000000001
 40
0.0
 40
0.0
 40
0.0
 40
0.0
 40
0.2138396793
 40
0.4559144629
 40
0.7202994451
 40
1.0
 40
1.0
 40
1.0
 40
1.0
 10
4.1881348991
 20
2.9538202862
 30
0.0
 10
4.190436836
 20
2.9538970113
 30
0.0
 10
4.1953464728
 20
2.9540069777
 30
0.0
 10
4.2031047209
 20
2.9540582199
 30
0.0
 10
4.2115722681
 20
2.953997281
 30
0.0
 10
4.2174316152
 20
2.9538899672
 30
0.0
 10
4.2204433959
 20
2.9538202862
 30
0.0
  0
SPLINE
  5
51F
100
AcDbEntity
  8
0
100
AcDbSpline
 62
7
  6
CONTINUOUS
 70
0
 71
3
 72
11
 73
7
 74
0
 42
0.0000001
 43
0.0000001
 44
0.0000000001
 40
0.0
 40
0.0
 40
0.0
 40
0.0
 40
0.1897615266
 40
0.4236647937
 40
0.6961962011
 40
1.0
 40
1.0
 40
1.0
 40
1.0
 10
3.7976685475
 20
2.9538202862
 30
0.0
 10
3.7993354988
 20
2.9539014191
 30
0.0
 10
3.8030605854
 20
2.9540106298
 30
0.0
 10
3.8091835946
 20
2.9540578865
 30
0.0
 10
3.8163095087
 20
2.9539941443
 30
0.0
 10
3.8213772823
 20
2.9538883523
 30
0.0
 10
3.8240483247
 20
2.9538202862
 30
0.0
  0
SPLINE
  5
520
100
AcDbEntity
  8
0
100
AcDbSpline
 62
7
  6
CONTINUOUS
 70
0
 71
3
 72
12
 73
8
 74
0
 42
0.0000001
 43
0.0000001
 44
0.0000000001
 40
0.0
 40
0.0
 40
0.0
 40
0.0
 40
0.064894294
 40
0.148151165
 40
0.3678794203
 40
0.6544835413
 40
1.0
 40
1.0
 40
1.0
 40
1.0
 10
3.4996417737
 20
2.9538202862
 30
0.0
 10
3.5000433102
 20
2.9538617274
 30
0.0
 10
3.5009628412
 20
2.9539280339
 30
0.0
 10
3.5032493589
 20
2.95402294
 30
0.0
 10
3.5069175045
 20
2.9540559261
 30
0.0
 10
3.5122160168
 20
2.9539896641
 30
0.0
 10
3.5161468488
 20
2.9538862094
 30
0.0
 10
3.518295093
 20
2.9538202862
 30
0.0
  0
LINE
  5
521
100
AcDbEntity
  8
0
100
AcDbLine
 62
7
  6
CONTINUOUS
 10
3.4385345103
 20
2.9449921885
 11
3.4391787332
 21
2.9448341745
  0
LINE
  5
522
100
AcDbEntity
  8
0
100
AcDbLine
 62
7
  6
CONTINUOUS
 10
3.4391787332
 20
2.9448341745
 11
3.4393087827
 21
2.9447488498
  0
SPLINE
  5
523
100
AcDbEntity
  8
0
100
AcDbSpline
 62
7
  6
CONTINUOUS
 70
0
 71
3
 72
15
 73
11
 74
0
 42
0.0000001
 43
0.0000001
 44
0.0000000001
 40
0.0
 40
0.0
 40
0.0
 40
0.0
 40
0.219681857
 40
0.4117307065
 40
0.5758332708
 40
0.7121017996
 40
0.820903518
 40
0.865283664
 40
0.903241793
 40
1.0
 40
1.0
 40
1.0
 40
1.0
 10
6.0163693903
 20
2.9455595335
 30
0.0
 10
6.0160001867
 20
2.9456039005
 30
0.0
 10
6.0153090169
 20
2.9456939122
 30
0.0
 10
6.014346045
 20
2.9458461688
 30
0.0
 10
6.0135278864
 20
2.9460058614
 30
0.0
 10
6.0128548353
 20
2.9461731434
 30
0.0
 10
6.0123895139
 20
2.9463245038
 30
0.0
 10
6.0120908151
 20
2.9464561141
 30
0.0
 10
6.0118314586
 20
2.9465951042
 30
0.0
 10
6.0116144224
 20
2.9467814343
 30
0.0
 10
6.0116150165
 20
2.9469452178
 30
0.0
  0
SPLINE
  5
524
100
AcDbEntity
  8
0
100
AcDbSpline
 62
7
  6
CONTINUOUS
 70
0
 71
3
 72
16
 73
12
 74
0
 42
0.0000001
 43
0.0000001
 44
0.0000000001
 40
0.0
 40
0.0
 40
0.0
 40
0.0
 40
0.0461179787
 40
0.0744962875
 40
0.1078583655
 40
0.1918099905
 40
0.3009112344
 40
0.4361706995
 40
0.5978258045
 40
0.7858305871
 40
1.0
 40
1.0
 40
1.0
 40
1.0
 10
5.6928407834
 20
2.9505318909
 30
0.0
 10
5.6928406999
 20
2.9504548264
 30
0.0
 10
5.6927929653
 20
2.9503305177
 30
0.0
 10
5.6926771407
 20
2.9501925917
 30
0.0
 10
5.6924929433
 20
2.9500317297
 30
0.0
 10
5.6921655925
 20
2.949837744
 30
0.0
 10
5.6916626704
 20
2.9496172695
 30
0.0
 10
5.6910209284
 20
2.9493952686
 30
0.0
 10
5.6902417448
 20
2.9491719868
 30
0.0
 10
5.6893262947
 20
2.9489483573
 30
0.0
 10
5.6886688712
 20
2.9488085163
 30
0.0
 10
5.6883180104
 20
2.9487379663
 30
0.0
  0
SPLINE
  5
525
100
AcDbEntity
  8
0
100
AcDbSpline
 62
7
  6
CONTINUOUS
 70
0
 71
3
 72
17
 73
13
 74
0
 42
0.0000001
 43
0.0000001
 44
0.0000000001
 40
0.0
 40
0.0
 40
0.0
 40
0.0
 40
0.2208043159
 40
0.4138227932
 40
0.5788407237
 40
0.7157375122
 40
0.82458709
 40
0.9059314375
 40
0.936848855
 40
0.9619135584
 40
0.9822644425
 40
1.0
 40
1.0
 40
1.0
 40
1.0
 10
6.3968257181
 20
2.9449921885
 30
0.0
 10
6.3965062655
 20
2.9450197049
 30
0.0
 10
6.3959079943
 20
2.9450765898
 30
0.0
 10
6.3950732494
 20
2.945176206
 30
0.0
 10
6.3943625633
 20
2.9452839957
 30
0.0
 10
6.3937768981
 20
2.9453991991
 30
0.0
 10
6.3933177785
 20
2.9455214821
 30
0.0
 10
6.3930160618
 20
2.9456359929
 30
0.0
 10
6.392843737
 20
2.9457374768
 30
0.0
 10
6.3927581913
 20
2.9458090709
 30
0.0
 10
6.3927038983
 20
2.9458848296
 30
0.0
 10
6.3926909061
 20
2.9459405972
 30
0.0
 10
6.3926909123
 20
2.9459663515
 30
0.0
  0
SPLINE
  5
526
100
AcDbEntity
  8
0
100
AcDbSpline
 62
7
  6
CONTINUOUS
 70
0
 71
3
 72
16
 73
12
 74
0
 42
0.0000001
 43
0.0000001
 44
0.0000000001
 40
0.0
 40
0.0
 40
0.0
 40
0.0
 40
0.0075691989
 40
0.0209905386
 40
0.0698099945
 40
0.1491414614
 40
0.2590554287
 40
0.3993671534
 40
0.5698201986
 40
0.7701302806
 40
1.0
 40
1.0
 40
1.0
 40
1.0
 10
5.491614393
 20
2.8867337213
 30
0.0
 10
5.4916145435
 20
2.8867225535
 30
0.0
 10
5.4915917305
 20
2.8866952983
 30
0.0
 10
5.4914991641
 20
2.8866538723
 30
0.0
 10
5.4912937475
 20
2.8866025574
 30
0.0
 10
5.4909482882
 20
2.8865459093
 30
0.0
 10
5.4904651003
 20
2.8864856223
 30
0.0
 10
5.4898476226
 20
2.8864239557
 30
0.0
 10
5.4890960454
 20
2.8863608512
 30
0.0
 10
5.4882121078
 20
2.8862968131
 30
0.0
 10
5.4875786287
 20
2.8862563665
 30
0.0
 10
5.4872400655
 20
2.8862358216
 30
0.0
  0
SPLINE
  5
527
100
AcDbEntity
  8
0
100
AcDbSpline
 62
7
  6
CONTINUOUS
 70
0
 71
3
 72
16
 73
12
 74
0
 42
0.0000001
 43
0.0000001
 44
0.0000000001
 40
0.0
 40
0.0
 40
0.0
 40
0.0
 40
0.0468433329
 40
0.0753803296
 40
0.1088054401
 40
0.192694777
 40
0.3015986969
 40
0.4366681705
 40
0.598163847
 40
0.7860143635
 40
1.0
 40
1.0
 40
1.0
 40
1.0
 10
5.216614237
 20
2.9493084976
 30
0.0
 10
5.2166141296
 20
2.9492283013
 30
0.0
 10
5.2165656924
 20
2.9490991588
 30
0.0
 10
5.2164462652
 20
2.9489562295
 30
0.0
 10
5.2162572111
 20
2.9487913818
 30
0.0
 10
5.2159209647
 20
2.9485944912
 30
0.0
 10
5.2154044077
 20
2.9483734795
 30
0.0
 10
5.2147452087
 20
2.9481538819
 30
0.0
 10
5.2139448087
 20
2.9479358227
 30
0.0
 10
5.2130045638
 20
2.9477202548
 30
0.0
 10
5.2123295026
 20
2.9475872384
 30
0.0
 10
5.2119692804
 20
2.9475205357
 30
0.0
  0
SPLINE
  5
528
100
AcDbEntity
  8
0
100
AcDbSpline
 62
7
  6
CONTINUOUS
 70
0
 71
3
 72
16
 73
12
 74
0
 42
0.0000001
 43
0.0000001
 44
0.0000000001
 40
0.0
 40
0.0
 40
0.0
 40
0.0
 40
0.0081424781
 40
0.0219763443
 40
0.0710807316
 40
0.1502342739
 40
0.2597730908
 40
0.3997481492
 40
0.5700651428
 40
0.7703162215
 40
1.0
 40
1.0
 40
1.0
 40
1.0
 10
6.0653188176
 20
2.901694307
 30
0.0
 10
6.0653186926
 20
2.901683379
 30
0.0
 10
6.0652984134
 20
2.9016570607
 30
0.0
 10
6.0652145482
 20
2.9016137112
 30
0.0
 10
6.06502916
 20
2.9015597433
 30
0.0
 10
6.0647172393
 20
2.901496708
 30
0.0
 10
6.0642809461
 20
2.901427879
 30
0.0
 10
6.0637223698
 20
2.901354692
 30
0.0
 10
6.0630414041
 20
2.9012773999
 30
0.0
 10
6.0622398453
 20
2.9011963454
 30
0.0
 10
6.0616651973
 20
2.9011435321
 30
0.0
 10
6.0613581181
 20
2.9011163424
 30
0.0
  0
SPLINE
  5
529
100
AcDbEntity
  8
0
100
AcDbSpline
 62
7
  6
CONTINUOUS
 70
0
 71
3
 72
16
 73
12
 74
0
 42
0.0000001
 43
0.0000001
 44
0.0000000001
 40
0.0
 40
0.0
 40
0.0
 40
0.0
 40
0.2297647987
 40
0.4301572159
 40
0.6007729895
 40
0.7412211634
 40
0.8511393595
 40
0.9302821841
 40
0.9789406619
 40
0.9923767696
 40
1.0
 40
1.0
 40
1.0
 40
1.0
 10
4.820947566
 20
2.8862384737
 30
0.0
 10
4.8206123816
 20
2.886258924
 30
0.0
 10
4.8199849712
 20
2.8862991824
 30
0.0
 10
4.8191092526
 20
2.8863628842
 30
0.0
 10
4.8183642827
 20
2.8864256417
 30
0.0
 10
4.8177522554
 20
2.8864869694
 30
0.0
 10
4.8172737526
 20
2.8865468542
 30
0.0
 10
4.816932129
 20
2.8866032643
 30
0.0
 10
4.8167292292
 20
2.8866542821
 30
0.0
 10
4.8166377956
 20
2.8866956452
 30
0.0
 10
4.8166151277
 20
2.8867225829
 30
0.0
 10
4.8166151412
 20
2.8867337244
 30
0.0
  0
LINE
  5
52A
100
AcDbEntity
  8
0
100
AcDbLine
 62
7
  6
CONTINUOUS
 10
3.767597827
 20
2.9237383897
 11
3.7666483118
 21
2.9240049459
  0
LINE
  5
52B
100
AcDbEntity
  8
0
100
AcDbLine
 62
7
  6
CONTINUOUS
 10
3.7708569079
 20
2.9233297094
 11
3.7690248036
 21
2.9235378172
  0
SPLINE
  5
52C
100
AcDbEntity
  8
0
100
AcDbSpline
 62
7
  6
CONTINUOUS
 70
0
 71
3
 72
14
 73
10
 74
0
 42
0.0000001
 43
0.0000001
 44
0.0000000001
 40
0.0
 40
0.0
 40
0.0
 40
0.0
 40
0.398854118
 40
0.5613439765
 40
0.6988657996
 40
0.8112296755
 40
0.8983752873
 40
0.9607214252
 40
1.0
 40
1.0
 40
1.0
 40
1.0
 10
4.0157302688
 20
2.9223468281
 30
0.0
 10
4.0151583607
 20
2.9224270069
 30
0.0
 10
4.0143543621
 20
2.9225474929
 30
0.0
 10
4.0133584978
 20
2.9227268953
 30
0.0
 10
4.0127735569
 20
2.9228478342
 30
0.0
 10
4.0122998203
 20
2.9229638682
 30
0.0
 10
4.011935884
 20
2.9230747909
 30
0.0
 10
4.011684907
 20
2.9231788757
 30
0.0
 10
4.0115568391
 20
2.92326125
 30
0.0
 10
4.0115224289
 20
2.9233065302
 30
0.0
  0
SPLINE
  5
52D
100
AcDbEntity
  8
0
100
AcDbSpline
 62
7
  6
CONTINUOUS
 70
0
 71
3
 72
9
 73
5
 74
0
 42
0.0000001
 43
0.0000001
 44
0.0000000001
 40
0.0
 40
0.0
 40
0.0
 40
0.0
 40
0.2813695176
 40
1.0
 40
1.0
 40
1.0
 40
1.0
 10
4.0115224289
 20
2.9233065302
 30
0.0
 10
4.0115181344
 20
2.9233121813
 30
0.0
 10
4.0115039678
 20
2.9233329646
 30
0.0
 10
4.0114954447
 20
2.9233583534
 30
0.0
 10
4.01149549
 20
2.9233764812
 30
0.0
  0
SPLINE
  5
52E
100
AcDbEntity
  8
0
100
AcDbSpline
 62
7
  6
CONTINUOUS
 70
0
 71
3
 72
15
 73
11
 74
0
 42
0.0000001
 43
0.0000001
 44
0.0000000001
 40
0.0
 40
0.0
 40
0.0
 40
0.0
 40
0.4248449075
 40
0.7326284768
 40
0.8417424347
 40
0.8851834181
 40
0.9213186318
 40
0.9503135918
 40
0.97250139
 40
1.0
 40
1.0
 40
1.0
 40
1.0
 10
5.5858508904
 20
2.8975603236
 30
0.0
 10
5.5852363378
 20
2.8976031302
 30
0.0
 10
5.5841774195
 20
2.8976880038
 30
0.0
 10
5.5829640735
 20
2.8978287222
 30
0.0
 10
5.5823072761
 20
2.8979494133
 30
0.0
 10
5.5820414628
 20
2.8980154747
 30
0.0
 10
5.5818911755
 20
2.8980612176
 30
0.0
 10
5.5817723363
 20
2.8981089731
 30
0.0
 10
5.5816746379
 20
2.8981608212
 30
0.0
 10
5.5816148057
 20
2.8982224087
 30
0.0
 10
5.5816147679
 20
2.8982622828
 30
0.0
  0
SPLINE
  5
52F
100
AcDbEntity
  8
0
100
AcDbSpline
 62
7
  6
CONTINUOUS
 70
0
 71
3
 72
17
 73
13
 74
0
 42
0.0000001
 43
0.0000001
 44
0.0000000001
 40
0.0
 40
0.0
 40
0.0
 40
0.0
 40
0.2247608237
 40
0.4210751876
 40
0.5886046553
 40
0.7270661012
 40
0.8362938606
 40
0.8800015832
 40
0.9165734836
 40
0.9462247352
 40
0.9693645616
 40
1.0
 40
1.0
 40
1.0
 40
1.0
 10
5.095777403
 20
2.8986170708
 30
0.0
 10
5.09545502
 20
2.8986508115
 30
0.0
 10
5.0948514512
 20
2.8987179628
 30
0.0
 10
5.0940095411
 20
2.8988268332
 30
0.0
 10
5.0932933895
 20
2.8989365939
 30
0.0
 10
5.0927047201
 20
2.899047025
 30
0.0
 10
5.0922955956
 20
2.8991444059
 30
0.0
 10
5.0920345034
 20
2.8992260156
 30
0.0
 10
5.0918863984
 20
2.8992821221
 30
0.0
 10
5.0917697109
 20
2.8993394239
 30
0.0
 10
5.0916707491
 20
2.8994035871
 30
0.0
 10
5.0916157058
 20
2.8994742675
 30
0.0
 10
5.0916157036
 20
2.8995184491
 30
0.0
  0
SPLINE
  5
530
100
AcDbEntity
  8
0
100
AcDbSpline
 62
7
  6
CONTINUOUS
 70
0
 71
3
 72
17
 73
13
 74
0
 42
0.0000001
 43
0.0000001
 44
0.0000000001
 40
0.0
 40
0.0
 40
0.0
 40
0.0
 40
0.0218777745
 40
0.0459045141
 40
0.0738164461
 40
0.1067321885
 40
0.1899407386
 40
0.298535184
 40
0.4336637378
 40
0.5956813587
 40
0.7845288094
 40
1.0
 40
1.0
 40
1.0
 40
1.0
 10
4.7403869649
 20
2.9480851607
 30
0.0
 10
4.7403868381
 20
2.9480475729
 30
0.0
 10
4.7403725998
 20
2.9479682747
 30
0.0
 10
4.7403122136
 20
2.9478550676
 30
0.0
 10
4.7402152717
 20
2.9477449351
 30
0.0
 10
4.7400225209
 20
2.9475884803
 30
0.0
 10
4.7396808631
 20
2.9474033546
 30
0.0
 10
4.7391572623
 20
2.9471988052
 30
0.0
 10
4.738488963
 20
2.9469982223
 30
0.0
 10
4.737677103
 20
2.9468021175
 30
0.0
 10
4.7367227955
 20
2.9466111909
 30
0.0
 10
4.736037773
 20
2.9464953758
 30
0.0
 10
4.7356720921
 20
2.9464377161
 30
0.0
  0
SPLINE
  5
531
100
AcDbEntity
  8
0
100
AcDbSpline
 62
7
  6
CONTINUOUS
 70
0
 71
3
 72
15
 73
11
 74
0
 42
0.0000001
 43
0.0000001
 44
0.0000000001
 40
0.0
 40
0.0
 40
0.0
 40
0.0
 40
0.4230931026
 40
0.7300488044
 40
0.8395646632
 40
0.8833407185
 40
0.9198576843
 40
0.9492485427
 40
0.9718269681
 40
1.0
 40
1.0
 40
1.0
 40
1.0
 10
4.6056949359
 20
2.8999194065
 30
0.0
 10
4.605103139
 20
2.899985519
 30
0.0
 10
4.6040832719
 20
2.9001104352
 30
0.0
 10
4.6029154915
 20
2.9002965764
 30
0.0
 10
4.6022836176
 20
2.9004404385
 30
0.0
 10
4.6020269785
 20
2.900515606
 30
0.0
 10
4.6018815632
 20
2.9005664737
 30
0.0
 10
4.601766637
 20
2.9006179276
 30
0.0
 10
4.6016720566
 20
2.900673143
 30
0.0
 10
4.601614788
 20
2.9007350267
 30
0.0
 10
4.601614852
 20
2.9007746785
 30
0.0
  0
SPLINE
  5
532
100
AcDbEntity
  8
0
100
AcDbSpline
 62
7
  6
CONTINUOUS
 70
0
 71
3
 72
16
 73
12
 74
0
 42
0.0000001
 43
0.0000001
 44
0.0000000001
 40
0.0
 40
0.0
 40
0.0
 40
0.0
 40
0.2296824644
 40
0.4297366113
 40
0.5998323944
 40
0.7397938356
 40
0.8494786211
 40
0.9288255363
 40
0.9780570209
 40
0.9918944521
 40
1.0
 40
1.0
 40
1.0
 40
1.0
 10
4.2468611065
 20
2.9011171697
 30
0.0
 10
4.2465547702
 20
2.901144317
 30
0.0
 10
4.2459817746
 20
2.9011970341
 30
0.0
 10
4.2451827219
 20
2.9012780197
 30
0.0
 10
4.2445039975
 20
2.9013553069
 30
0.0
 10
4.2439469043
 20
2.9014284513
 30
0.0
 10
4.2435112399
 20
2.9014972581
 30
0.0
 10
4.2431994501
 20
2.9015601603
 30
0.0
 10
4.2430140562
 20
2.901614086
 30
0.0
 10
4.2429302224
 20
2.9016571599
 30
0.0
 10
4.2429100111
 20
2.9016834883
 30
0.0
 10
4.2429100111
 20
2.9016943413
 30
0.0
  0
SPLINE
  5
533
100
AcDbEntity
  8
0
100
AcDbSpline
 62
7
  6
CONTINUOUS
 70
0
 71
3
 72
16
 73
12
 74
0
 42
0.0000001
 43
0.0000001
 44
0.0000000001
 40
0.0
 40
0.0
 40
0.0
 40
0.0
 40
0.2212800413
 40
0.4148134759
 40
0.5803812913
 40
0.7178400329
 40
0.8272019634
 40
0.908853799
 40
0.9397282822
 40
0.9645205324
 40
1.0
 40
1.0
 40
1.0
 40
1.0
 10
4.3909582784
 20
2.9211406605
 30
0.0
 10
4.3906218308
 20
2.9211932793
 30
0.0
 10
4.3899918864
 20
2.9212969385
 30
0.0
 10
4.3891137849
 20
2.9214608487
 30
0.0
 10
4.3883667722
 20
2.92162244
 30
0.0
 10
4.3877518782
 20
2.9217806782
 30
0.0
 10
4.3872704437
 20
2.9219357868
 30
0.0
 10
4.3869551514
 20
2.9220693394
 30
0.0
 10
4.3867747468
 20
2.9221818147
 30
0.0
 10
4.3866678863
 20
2.9222704886
 30
0.0
 10
4.3866148476
 20
2.9223594122
 30
0.0
 10
4.3866149095
 20
2.9224140131
 30
0.0
  0
LINE
  5
534
100
AcDbEntity
  8
0
100
AcDbLine
 62
7
  6
CONTINUOUS
 10
4.1355427266
 20
2.9174720081
 11
4.1351882065
 21
2.9174189913
  0
SPLINE
  5
535
100
AcDbEntity
  8
0
100
AcDbSpline
 62
7
  6
CONTINUOUS
 70
0
 71
3
 72
17
 73
13
 74
0
 42
0.0000001
 43
0.0000001
 44
0.0000000001
 40
0.0
 40
0.0
 40
0.0
 40
0.0
 40
0.2196461019
 40
0.4117156623
 40
0.5760684449
 40
0.7126701483
 40
0.8216786787
 40
0.9037056254
 40
0.9351610919
 40
0.9608622829
 40
0.9818428423
 40
1.0
 40
1.0
 40
1.0
 40
1.0
 10
4.8512046304
 20
2.9198707105
 30
0.0
 10
4.8508607899
 20
2.9199233591
 30
0.0
 10
4.8502171344
 20
2.9200278157
 30
0.0
 10
4.8493203036
 20
2.9201958382
 30
0.0
 10
4.8485577528
 20
2.9203642015
 30
0.0
 10
4.8479301385
 20
2.9205320908
 30
0.0
 10
4.8474386632
 20
2.9206990569
 30
0.0
 10
4.8471167509
 20
2.9208464932
 30
0.0
 10
4.8469335916
 20
2.9209701702
 30
0.0
 10
4.8468426204
 20
2.9210551136
 30
0.0
 10
4.8467852976
 20
2.9211420316
 30
0.0
 10
4.8467715259
 20
2.9212044851
 30
0.0
 10
4.8467716852
 20
2.9212332396
 30
0.0
  0
SPLINE
  5
536
100
AcDbEntity
  8
0
100
AcDbSpline
 62
7
  6
CONTINUOUS
 70
0
 71
3
 72
17
 73
13
 74
0
 42
0.0000001
 43
0.0000001
 44
0.0000000001
 40
0.0
 40
0.0
 40
0.0
 40
0.0
 40
0.2201316016
 40
0.4125893567
 40
0.5771040347
 40
0.7136771455
 40
0.8225138961
 40
0.9042741719
 40
0.9355777082
 40
0.9611261485
 40
0.9819616572
 40
1.0
 40
1.0
 40
1.0
 40
1.0
 10
5.3409864536
 20
2.9186909259
 30
0.0
 10
5.3406355947
 20
2.9187370373
 30
0.0
 10
5.339978725
 20
2.9188292952
 30
0.0
 10
5.3390632671
 20
2.918980525
 30
0.0
 10
5.3382849101
 20
2.9191349894
 30
0.0
 10
5.3376443966
 20
2.9192917774
 30
0.0
 10
5.3371427511
 20
2.919450446
 30
0.0
 10
5.3368137942
 20
2.9195928852
 30
0.0
 10
5.3366261681
 20
2.9197141986
 30
0.0
 10
5.3365327552
 20
2.9197981863
 30
0.0
 10
5.3364734263
 20
2.919884878
 30
0.0
 10
5.3364588535
 20
2.9199477663
 30
0.0
 10
5.3364588202
 20
2.9199767641
 30
0.0
  0
SPLINE
  5
537
100
AcDbEntity
  8
0
100
AcDbSpline
 62
7
  6
CONTINUOUS
 70
0
 71
3
 72
17
 73
13
 74
0
 42
0.0000001
 43
0.0000001
 44
0.0000000001
 40
0.0
 40
0.0
 40
0.0
 40
0.0
 40
0.2229591402
 40
0.4178613573
 40
0.584126198
 40
0.7214557247
 40
0.8300585292
 40
0.9105594529
 40
0.9407916097
 40
0.964925837
 40
0.9839816186
 40
1.0
 40
1.0
 40
1.0
 40
1.0
 10
5.8012053791
 20
2.9177508811
 30
0.0
 10
5.8008494989
 20
2.9177845273
 30
0.0
 10
5.8001829923
 20
2.9178527675
 30
0.0
 10
5.7992534589
 20
2.9179678161
 30
0.0
 10
5.7984632812
 20
2.9180884088
 30
0.0
 10
5.7978140474
 20
2.9182138711
 30
0.0
 10
5.7973069374
 20
2.9183437863
 30
0.0
 10
5.7969744097
 20
2.9184626944
 30
0.0
 10
5.7967841195
 20
2.9185665397
 30
0.0
 10
5.7966901854
 20
2.9186385311
 30
0.0
 10
5.7966298542
 20
2.918713823
 30
0.0
 10
5.7966147
 20
2.9187704281
 30
0.0
 10
5.7966147011
 20
2.9187961101
 30
0.0
  0
SPLINE
  5
538
100
AcDbEntity
  8
0
100
AcDbSpline
 62
7
  6
CONTINUOUS
 70
0
 71
3
 72
16
 73
12
 74
0
 42
0.0000001
 43
0.0000001
 44
0.0000000001
 40
0.0
 40
0.0
 40
0.0
 40
0.0
 40
0.0074960362
 40
0.0207344414
 40
0.0690742406
 40
0.1479094256
 40
0.2574525379
 40
0.39764925
 40
0.5683698321
 40
0.7693350296
 40
1.0
 40
1.0
 40
1.0
 40
1.0
 10
4.3679100111
 20
2.8973432397
 30
0.0
 10
4.3679100111
 20
2.8973324261
 30
0.0
 10
4.3678873086
 20
2.8973064313
 30
0.0
 10
4.3677955775
 20
2.8972710229
 30
0.0
 10
4.3675942976
 20
2.8972316574
 30
0.0
 10
4.367255849
 20
2.8971948466
 30
0.0
 10
4.3667824838
 20
2.8971611379
 30
0.0
 10
4.3661767819
 20
2.8971324593
 30
0.0
 10
4.3654386677
 20
2.8971082209
 30
0.0
 10
4.3645699733
 20
2.8970885112
 30
0.0
 10
4.3639473796
 20
2.8970789546
 30
0.0
 10
4.3636146566
 20
2.8970747181
 30
0.0
  0
SPLINE
  5
539
100
AcDbEntity
  8
0
100
AcDbSpline
 62
7
  6
CONTINUOUS
 70
0
 71
3
 72
16
 73
12
 74
0
 42
0.0000001
 43
0.0000001
 44
0.0000000001
 40
0.0
 40
0.0
 40
0.0
 40
0.0
 40
0.2305959146
 40
0.4315567659
 40
0.6023490419
 40
0.7425517424
 40
0.8520443089
 40
0.9308273276
 40
0.979169786
 40
0.9924475649
 40
1.0
 40
1.0
 40
1.0
 40
1.0
 10
5.9445867818
 20
2.897075077
 30
0.0
 10
5.9442563684
 20
2.897079318
 30
0.0
 10
5.9436380166
 20
2.8970888778
 30
0.0
 10
5.9427750982
 20
2.8971085958
 30
0.0
 10
5.9420417877
 20
2.8971328718
 30
0.0
 10
5.9414400811
 20
2.8971615589
 30
0.0
 10
5.9409700065
 20
2.8971951881
 30
0.0
 10
5.9406339795
 20
2.8972320029
 30
0.0
 10
5.9404340621
 20
2.8972711612
 30
0.0
 10
5.940342878
 20
2.897306639
 30
0.0
 10
5.9403201983
 20
2.8973324182
 30
0.0
 10
5.9403200622
 20
2.8973432399
 30
0.0
  0
SPLINE
  5
53A
100
AcDbEntity
  8
0
100
AcDbSpline
 62
7
  6
CONTINUOUS
 70
0
 71
3
 72
13
 73
9
 74
0
 42
0.0000001
 43
0.0000001
 44
0.0000000001
 40
0.0
 40
0.0
 40
0.0
 40
0.0
 40
0.4095276618
 40
0.5724793103
 40
0.7078853396
 40
0.8163106182
 40
0.898941231
 40
1.0
 40
1.0
 40
1.0
 40
1.0
 10
6.1730416072
 20
2.9174189913
 30
0.0
 10
6.1728516975
 20
2.9174446147
 30
0.0
 10
6.1725867604
 20
2.917485011
 30
0.0
 10
6.1722625893
 20
2.917554838
 30
0.0
 10
6.1720792277
 20
2.9176042086
 30
0.0
 10
6.171933923
 20
2.9176571152
 30
0.0
 10
6.1718150605
 20
2.9177148724
 30
0.0
 10
6.171740532
 20
2.9177865113
 30
0.0
 10
6.171740119
 20
2.917833798
 30
0.0
  0
SPLINE
  5
53B
100
AcDbEntity
  8
0
100
AcDbSpline
 62
7
  6
CONTINUOUS
 70
0
 71
3
 72
15
 73
11
 74
0
 42
0.0000001
 43
0.0000001
 44
0.0000000001
 40
0.0
 40
0.0
 40
0.0
 40
0.0
 40
0.0967714361
 40
0.1347028866
 40
0.1790613862
 40
0.2878801507
 40
0.4243239055
 40
0.5887134209
 40
0.7807619096
 40
1.0
 40
1.0
 40
1.0
 40
1.0
 10
4.2966150277
 20
2.9469452091
 30
0.0
 10
4.2966149721
 20
2.9467814059
 30
0.0
 10
4.2963985015
 20
2.9465952978
 30
0.0
 10
4.2961391835
 20
2.9464561566
 30
0.0
 10
4.2958405969
 20
2.9463245077
 30
0.0
 10
4.295374987
 20
2.9461730627
 30
0.0
 10
4.2947011071
 20
2.9460058294
 30
0.0
 10
4.2938821317
 20
2.9458463431
 30
0.0
 10
4.2929194595
 20
2.945694076
 30
0.0
 10
4.2922290784
 20
2.9456039536
 30
0.0
 10
4.2918606416
 20
2.9455595729
 30
0.0
  0
LINE
  5
53C
100
AcDbEntity
  8
0
100
AcDbLine
 62
7
  6
CONTINUOUS
 10
4.1351882065
 20
2.9174189913
 11
4.1318336642
 21
2.9171699323
  0
LINE
  5
53D
100
AcDbEntity
  8
0
100
AcDbLine
 62
7
  6
CONTINUOUS
 10
6.1763954223
 20
2.9171699621
 11
6.1730416072
 21
2.9174189913
  0
SPLINE
  5
53E
100
AcDbEntity
  8
0
100
AcDbSpline
 62
7
  6
CONTINUOUS
 70
0
 71
3
 72
16
 73
12
 74
0
 42
0.0000001
 43
0.0000001
 44
0.0000000001
 40
0.0
 40
0.0
 40
0.0
 40
0.0
 40
0.007896212
 40
0.0215749162
 40
0.0705235194
 40
0.1497587299
 40
0.2596634528
 40
0.4000243621
 40
0.570470506
 40
0.7706007735
 40
1.0
 40
1.0
 40
1.0
 40
1.0
 10
6.5415781849
 20
2.9240047654
 30
0.0
 10
6.5415782191
 20
2.9239935726
 30
0.0
 10
6.541556878
 20
2.9239663276
 30
0.0
 10
6.54146936
 20
2.9239208755
 30
0.0
 10
6.5412743042
 20
2.9238619904
 30
0.0
 10
6.5409454162
 20
2.9237914093
 30
0.0
 10
6.5404844942
 20
2.9237121219
 30
0.0
 10
6.5398945972
 20
2.9236257645
 30
0.0
 10
6.5391762685
 20
2.9235325449
 30
0.0
 10
6.5383316662
 20
2.9234329569
 30
0.0
 10
6.5377263828
 20
2.923366947
 30
0.0
 10
6.5374030143
 20
2.9233327313
 30
0.0
  0
SPLINE
  5
53F
100
AcDbEntity
  8
0
100
AcDbSpline
 62
7
  6
CONTINUOUS
 70
0
 71
3
 72
15
 73
11
 74
0
 42
0.0000001
 43
0.0000001
 44
0.0000000001
 40
0.0
 40
0.0
 40
0.0
 40
0.0
 40
0.0282906829
 40
0.0509466362
 40
0.0803860786
 40
0.1169119213
 40
0.1606642926
 40
0.2700678094
 40
0.5767726367
 40
1.0
 40
1.0
 40
1.0
 40
1.0
 10
5.7066148508
 20
2.9007746762
 30
0.0
 10
5.7066149771
 20
2.9007351923
 30
0.0
 10
5.7065579012
 20
2.9006735831
 30
0.0
 10
5.7064638849
 20
2.9006186182
 30
0.0
 10
5.7063498059
 20
2.9005673723
 30
0.0
 10
5.706205636
 20
2.9005167142
 30
0.0
 10
5.7059514133
 20
2.9004418889
 30
0.0
 10
5.705325513
 20
2.900298648
 30
0.0
 10
5.7041679395
 20
2.9001133104
 30
0.0
 10
5.7031568155
 20
2.8999890976
 30
0.0
 10
5.7025698085
 20
2.8999233188
 30
0.0
  0
SPLINE
  5
540
100
AcDbEntity
  8
0
100
AcDbSpline
 62
7
  6
CONTINUOUS
 70
0
 71
3
 72
15
 73
11
 74
0
 42
0.0000001
 43
0.0000001
 44
0.0000000001
 40
0.0
 40
0.0
 40
0.0
 40
0.0
 40
0.0483402961
 40
0.1104411893
 40
0.194078261
 40
0.3023741867
 40
0.4366519469
 40
0.5975192418
 40
0.7852612487
 40
1.0
 40
1.0
 40
1.0
 40
1.0
 10
3.9155379205
 20
2.9459664038
 30
0.0
 10
3.9155376399
 20
2.9459287511
 30
0.0
 10
3.9155059146
 20
2.9458429593
 30
0.0
 10
3.9153921041
 20
2.9457394708
 30
0.0
 10
3.9152192914
 20
2.9456417107
 30
0.0
 10
3.914982468
 20
2.9455480371
 30
0.0
 10
3.9146812662
 20
2.9454577136
 30
0.0
 10
3.9143150517
 20
2.9453711477
 30
0.0
 10
3.9138840035
 20
2.9452885117
 30
0.0
 10
3.9135743035
 20
2.9452394928
 30
0.0
 10
3.9134087936
 20
2.9452153152
 30
0.0
  0
SPLINE
  5
541
100
AcDbEntity
  8
0
100
AcDbSpline
 62
7
  6
CONTINUOUS
 70
0
 71
3
 72
15
 73
11
 74
0
 42
0.0000001
 43
0.0000001
 44
0.0000000001
 40
0.0
 40
0.0
 40
0.0
 40
0.0
 40
0.0292376033
 40
0.0521935644
 40
0.0818547164
 40
0.1185672221
 40
0.1624835835
 40
0.272115895
 40
0.5785794333
 40
1.0
 40
1.0
 40
1.0
 40
1.0
 10
6.2967373539
 20
2.9233766154
 30
0.0
 10
6.2967374346
 20
2.9233335818
 30
0.0
 10
6.2966792037
 20
2.9232655644
 30
0.0
 10
6.2965803008
 20
2.9232023046
 30
0.0
 10
6.2964611961
 20
2.9231435517
 30
0.0
 10
6.2963102619
 20
2.92308456
 30
0.0
 10
6.2960441098
 20
2.9229965983
 30
0.0
 10
6.2953888265
 20
2.9228248796
 30
0.0
 10
6.2941769083
 20
2.9225941962
 30
0.0
 10
6.2931176716
 20
2.9224336018
 30
0.0
 10
6.2925034157
 20
2.9223474185
 30
0.0
  0
LINE
  5
542
100
AcDbEntity
  8
0
100
AcDbLine
 62
7
  6
CONTINUOUS
 10
3.4393087827
 20
2.9447488498
 11
3.4378695731
 21
2.9446018115
  0
LINE
  5
543
100
AcDbEntity
  8
0
100
AcDbLine
 62
7
  6
CONTINUOUS
 10
3.4378695731
 20
2.9446018115
 11
3.4344404325
 21
2.944637672
  0
SPLINE
  5
544
100
AcDbEntity
  8
0
100
AcDbSpline
 62
7
  6
CONTINUOUS
 70
0
 71
3
 72
17
 73
13
 74
0
 42
0.0000001
 43
0.0000001
 44
0.0000000001
 40
0.0
 40
0.0
 40
0.0
 40
0.0
 40
0.0306633177
 40
0.0538070221
 40
0.0834753686
 40
0.1200885563
 40
0.1638620579
 40
0.2731723288
 40
0.4116185426
 40
0.579075312
 40
0.7753012999
 40
1.0
 40
1.0
 40
1.0
 40
1.0
 10
5.2166137712
 20
2.8995184491
 30
0.0
 10
5.2166139305
 20
2.8994744912
 30
0.0
 10
5.2165594927
 20
2.8994039313
 30
0.0
 10
5.2164611475
 20
2.8993399413
 30
0.0
 10
5.2163451483
 20
2.8992828017
 30
0.0
 10
5.2161977926
 20
2.8992268683
 30
0.0
 10
5.2159380319
 20
2.8991455574
 30
0.0
 10
5.2155312213
 20
2.8990484632
 30
0.0
 10
5.2149461365
 20
2.898938327
 30
0.0
 10
5.2142345636
 20
2.898828867
 30
0.0
 10
5.2133980399
 20
2.8987202944
 30
0.0
 10
5.2127983092
 20
2.8986533342
 30
0.0
 10
5.2124779485
 20
2.8986196898
 30
0.0
  0
SPLINE
  5
545
100
AcDbEntity
  8
0
100
AcDbSpline
 62
7
  6
CONTINUOUS
 70
0
 71
3
 72
15
 73
11
 74
0
 42
0.0000001
 43
0.0000001
 44
0.0000000001
 40
0.0
 40
0.0
 40
0.0
 40
0.0
 40
0.0274790129
 40
0.0496508837
 40
0.0786308413
 40
0.1147561112
 40
0.1581963103
 40
0.2673524282
 40
0.5752537912
 40
1.0
 40
1.0
 40
1.0
 40
1.0
 10
4.7266148703
 20
2.8982622863
 30
0.0
 10
4.7266148375
 20
2.8982224096
 30
0.0
 10
4.7265550395
 20
2.8981607916
 30
0.0
 10
4.7264573281
 20
2.8981089223
 30
0.0
 10
4.7263384554
 20
2.8980611474
 30
0.0
 10
4.7261880834
 20
2.8980153867
 30
0.0
 10
4.7259220123
 20
2.8979492888
 30
0.0
 10
4.7252644523
 20
2.8978285821
 30
0.0
 10
4.7240500615
 20
2.8976878685
 30
0.0
 10
4.7229902893
 20
2.8976029312
 30
0.0
 10
4.7223753995
 20
2.8975601134
 30
0.0
  0
SPLINE
  5
546
100
AcDbEntity
  8
0
100
AcDbSpline
 62
7
  6
CONTINUOUS
 70
0
 71
3
 72
16
 73
12
 74
0
 42
0.0000001
 43
0.0000001
 44
0.0000000001
 40
0.0
 40
0.0
 40
0.0
 40
0.0
 40
0.0353530246
 40
0.06011736
 40
0.0909896021
 40
0.1726268634
 40
0.2819590459
 40
0.4193946501
 40
0.5849708585
 40
0.7785702426
 40
1.0
 40
1.0
 40
1.0
 40
1.0
 10
5.9216141368
 20
2.9224139909
 30
0.0
 10
5.92161446
 20
2.9223592166
 30
0.0
 10
5.9215611931
 20
2.9222697414
 30
0.0
 10
5.9214536236
 20
2.9221808579
 30
0.0
 10
5.9212718599
 20
2.9220679613
 30
0.0
 10
5.9209543675
 20
2.9219338791
 30
0.0
 10
5.9204696345
 20
2.9217781541
 30
0.0
 10
5.9198505269
 20
2.9216193045
 30
0.0
 10
5.919098264
 20
2.9214570972
 30
0.0
 10
5.9182137643
 20
2.9212925675
 30
0.0
 10
5.9175791551
 20
2.9211885399
 30
0.0
 10
5.9172401653
 20
2.9211357319
 30
0.0
  0
SPLINE
  5
547
100
AcDbEntity
  8
0
100
AcDbSpline
 62
7
  6
CONTINUOUS
 70
0
 71
3
 72
17
 73
13
 74
0
 42
0.0000001
 43
0.0000001
 44
0.0000000001
 40
0.0
 40
0.0
 40
0.0
 40
0.0
 40
0.0181947345
 40
0.0392373377
 40
0.0649937113
 40
0.0964818217
 40
0.1785082231
 40
0.2874548556
 40
0.4239740096
 40
0.5882660583
 40
0.7803390422
 40
1.0
 40
1.0
 40
1.0
 40
1.0
 10
5.4614587324
 20
2.9212332457
 30
0.0
 10
5.4614588036
 20
2.921204522
 30
0.0
 10
5.461444813
 20
2.9211421567
 30
0.0
 10
5.4613873123
 20
2.921055476
 30
0.0
 10
5.4612964335
 20
2.9209706799
 30
0.0
 10
5.4611137856
 20
2.9208472446
 30
0.0
 10
5.4607930611
 20
2.9207000242
 30
0.0
 10
5.4603034608
 20
2.9205333123
 30
0.0
 10
5.4596782287
 20
2.9203656887
 30
0.0
 10
5.4589183597
 20
2.9201975988
 30
0.0
 10
5.45802446
 20
2.9200298931
 30
0.0
 10
5.4573828246
 20
2.9199256271
 30
0.0
 10
5.4570400571
 20
2.9198730532
 30
0.0
  0
SPLINE
  5
548
100
AcDbEntity
  8
0
100
AcDbSpline
 62
7
  6
CONTINUOUS
 70
0
 71
3
 72
17
 73
13
 74
0
 42
0.0000001
 43
0.0000001
 44
0.0000000001
 40
0.0
 40
0.0
 40
0.0
 40
0.0
 40
0.0180037157
 40
0.0388086208
 40
0.064321906
 40
0.0955843879
 40
0.177255834
 40
0.2860236204
 40
0.4225875793
 40
0.5871933441
 40
0.7797819831
 40
1.0
 40
1.0
 40
1.0
 40
1.0
 10
4.9717707477
 20
2.9199767666
 30
0.0
 10
4.9717706391
 20
2.919947672
 30
0.0
 10
4.9717558676
 20
2.9198846003
 30
0.0
 10
4.9716962021
 20
2.9197976768
 30
0.0
 10
4.9716023476
 20
2.9197134511
 30
0.0
 10
4.9714138669
 20
2.9195917836
 30
0.0
 10
4.9710833805
 20
2.9194489335
 30
0.0
 10
4.9705792413
 20
2.9192898374
 30
0.0
 10
4.9699352227
 20
2.9191326474
 30
0.0
 10
4.9691523097
 20
2.9189778673
 30
0.0
 10
4.9682314385
 20
2.9188263248
 30
0.0
 10
4.9675707146
 20
2.9187338272
 30
0.0
 10
4.9672178464
 20
2.9186876053
 30
0.0
  0
SPLINE
  5
549
100
AcDbEntity
  8
0
100
AcDbSpline
 62
7
  6
CONTINUOUS
 70
0
 71
3
 72
17
 73
13
 74
0
 42
0.0000001
 43
0.0000001
 44
0.0000000001
 40
0.0
 40
0.0
 40
0.0
 40
0.0
 40
0.0160291841
 40
0.0350892955
 40
0.0592188265
 40
0.0894416221
 40
0.1699338672
 40
0.2785829552
 40
0.4160580223
 40
0.5824229315
 40
0.777248808
 40
1.0
 40
1.0
 40
1.0
 40
1.0
 10
4.5116149702
 20
2.9187961142
 30
0.0
 10
4.511614945
 20
2.9187704528
 30
0.0
 10
4.5115998028
 20
2.9187139217
 30
0.0
 10
4.511539615
 20
2.9186386801
 30
0.0
 10
4.5114458866
 20
2.9185667293
 30
0.0
 10
4.5112559734
 20
2.9184629343
 30
0.0
 10
4.5109239265
 20
2.9183440732
 30
0.0
 10
4.5104172929
 20
2.9182142197
 30
0.0
 10
4.5097685443
 20
2.9180889123
 30
0.0
 10
4.5089792731
 20
2.9179684063
 30
0.0
 10
4.5080514254
 20
2.9178533785
 30
0.0
 10
4.507386367
 20
2.9177851554
 30
0.0
 10
4.5070313488
 20
2.9177515252
 30
0.0
  0
SPLINE
  5
54A
100
AcDbEntity
  8
0
100
AcDbSpline
 62
7
  6
CONTINUOUS
 70
0
 71
3
 72
15
 73
11
 74
0
 42
0.0000001
 43
0.0000001
 44
0.0000000001
 40
0.0
 40
0.0
 40
0.0
 40
0.0
 40
0.029818331
 40
0.0530085035
 40
0.0828766427
 40
0.1197482137
 40
0.163766154
 40
0.2734473283
 40
0.5794991308
 40
1.0
 40
1.0
 40
1.0
 40
1.0
 10
6.810099857
 20
2.9534022513
 30
0.0
 10
6.8101003091
 20
2.9533590392
 30
0.0
 10
6.8100443695
 20
2.953289844
 30
0.0
 10
6.8099474444
 20
2.9532238624
 30
0.0
 10
6.8098310463
 20
2.953162496
 30
0.0
 10
6.8096833949
 20
2.9531001731
 30
0.0
 10
6.809423273
 20
2.9530065796
 30
0.0
 10
6.8087829032
 20
2.952821242
 30
0.0
 10
6.8075972428
 20
2.9525656397
 30
0.0
 10
6.8065601667
 20
2.9523834101
 30
0.0
 10
6.8059587959
 20
2.9522847227
 30
0.0
  0
LINE
  5
54B
100
AcDbEntity
  8
0
100
AcDbLine
 62
7
  6
CONTINUOUS
 10
4.1364892584
 20
2.9178338173
 11
4.1355427266
 21
2.9174720081
  0
SPLINE
  5
54C
100
AcDbEntity
  8
0
100
AcDbSpline
 62
7
  6
CONTINUOUS
 70
0
 71
3
 72
16
 73
12
 74
0
 42
0.0000001
 43
0.0000001
 44
0.0000000001
 40
0.0
 40
0.0
 40
0.0
 40
0.0
 40
0.0372754283
 40
0.0627602198
 40
0.0941546204
 40
0.1763989287
 40
0.2858713463
 40
0.4230075576
 40
0.5878432237
 40
0.7802456909
 40
1.0
 40
1.0
 40
1.0
 40
1.0
 10
6.517691189
 20
2.9526510673
 30
0.0
 10
6.5176912324
 20
2.9525929209
 30
0.0
 10
6.5176393817
 20
2.9524981327
 30
0.0
 10
6.5175317862
 20
2.9523999024
 30
0.0
 10
6.5173520211
 20
2.9522761854
 30
0.0
 10
6.5170367702
 20
2.9521261715
 30
0.0
 10
6.5165547714
 20
2.9519496741
 30
0.0
 10
6.5159392351
 20
2.9517667628
 30
0.0
 10
6.5151915361
 20
2.9515773995
 30
0.0
 10
6.5143127019
 20
2.9513826047
 30
0.0
 10
6.5136819789
 20
2.9512576816
 30
0.0
 10
6.5133451668
 20
2.9511939022
 30
0.0
  0
SPLINE
  5
54D
100
AcDbEntity
  8
0
100
AcDbSpline
 62
7
  6
CONTINUOUS
 70
0
 71
3
 72
15
 73
11
 74
0
 42
0.0000001
 43
0.0000001
 44
0.0000000001
 40
0.0
 40
0.0
 40
0.0
 40
0.0
 40
0.4177488327
 40
0.5840167533
 40
0.7217920806
 40
0.8311500991
 40
0.9124596617
 40
0.9429609845
 40
0.9671257158
 40
1.0
 40
1.0
 40
1.0
 40
1.0
 10
3.5012279557
 20
2.9524641391
 30
0.0
 10
3.5007770053
 20
2.9525458542
 30
0.0
 10
3.5001477028
 20
2.9526674441
 30
0.0
 10
3.499376651
 20
2.9528481705
 30
0.0
 10
3.4989388082
 20
2.9529668813
 30
0.0
 10
3.4985962819
 20
2.9530795765
 30
0.0
 10
3.4983721718
 20
2.9531733442
 30
0.0
 10
3.4982430816
 20
2.9532501801
 30
0.0
 10
3.4981684078
 20
2.9533080806
 30
0.0
 10
3.4981281639
 20
2.9533663037
 30
0.0
 10
3.4981281639
 20
2.9534023687
 30
0.0
  0
SPLINE
  5
54E
100
AcDbEntity
  8
0
100
AcDbSpline
 62
7
  6
CONTINUOUS
 70
0
 71
3
 72
15
 73
11
 74
0
 42
0.0000001
 43
0.0000001
 44
0.0000000001
 40
0.0
 40
0.0
 40
0.0
 40
0.0
 40
0.1002641727
 40
0.1389297781
 40
0.1839058969
 40
0.2935158228
 40
0.4298892084
 40
0.5931726716
 40
0.7832778893
 40
1.0
 40
1.0
 40
1.0
 40
1.0
 10
6.1366134205
 20
2.9516719552
 30
0.0
 10
6.136613592
 20
2.9515104298
 30
0.0
 10
6.1364159262
 20
2.9513215088
 30
0.0
 10
6.1361725898
 20
2.9511661207
 30
0.0
 10
6.1358957775
 20
2.9510184109
 30
0.0
 10
6.135463278
 20
2.9508389279
 30
0.0
 10
6.1348373195
 20
2.9506293081
 30
0.0
 10
6.1340774838
 20
2.9504164536
 30
0.0
 10
6.1331846406
 20
2.9502002945
 30
0.0
 10
6.1325436102
 20
2.9500635195
 30
0.0
 10
6.1322014391
 20
2.9499941143
 30
0.0
  0
LINE
  5
54F
100
AcDbEntity
  8
0
100
AcDbLine
 62
7
  6
CONTINUOUS
 10
6.8737905654
 20
2.9446377022
 11
6.8689455644
 21
2.9447177714
  0
SPLINE
  5
550
100
AcDbEntity
  8
0
100
AcDbSpline
 62
7
  6
CONTINUOUS
 70
0
 71
3
 72
9
 73
5
 74
0
 42
0.0000001
 43
0.0000001
 44
0.0000000001
 40
0.0
 40
0.0
 40
0.0
 40
0.0
 40
0.3231901255
 40
1.0
 40
1.0
 40
1.0
 40
1.0
 10
6.8689455644
 20
2.9447177714
 30
0.0
 10
6.868941819
 20
2.9447199991
 30
0.0
 10
6.8689307623
 20
2.9447271777
 30
0.0
 10
6.8689209903
 20
2.9447397238
 30
0.0
 10
6.8689210135
 20
2.9447488498
 30
0.0
  0
SPLINE
  5
551
100
AcDbEntity
  8
0
100
AcDbSpline
 62
7
  6
CONTINUOUS
 70
0
 71
3
 72
13
 73
9
 74
0
 42
0.0000001
 43
0.0000001
 44
0.0000000001
 40
0.0
 40
0.0
 40
0.0
 40
0.0
 40
0.3763185109
 40
0.6682012401
 40
0.7823114499
 40
0.8752750956
 40
0.947470283
 40
1.0
 40
1.0
 40
1.0
 40
1.0
 10
3.7949178237
 20
2.9511876215
 30
0.0
 10
3.7943627534
 20
2.951292333
 30
0.0
 10
3.7933796691
 20
2.951491539
 30
0.0
 10
3.7922390171
 20
2.9517746856
 30
0.0
 10
3.791525124
 20
2.95200169
 30
0.0
 10
3.79113343
 20
2.9521527077
 30
0.0
 10
3.7908406097
 20
2.9522978336
 30
0.0
 10
3.790685744
 20
2.9524072835
 30
0.0
 10
3.7906311138
 20
2.9524641391
 30
0.0
  0
LINE
  5
552
100
AcDbEntity
  8
0
100
AcDbLine
 62
7
  6
CONTINUOUS
 10
3.7906311138
 20
2.9524641391
 11
3.7905401557
 21
2.9526509855
  0
LINE
  5
553
100
AcDbEntity
  8
0
100
AcDbLine
 62
7
  6
CONTINUOUS
 10
4.1760167282
 20
2.9499965371
 11
4.1730722826
 21
2.950738599
  0
SPLINE
  5
554
100
AcDbEntity
  8
0
100
AcDbSpline
 62
7
  6
CONTINUOUS
 70
0
 71
3
 72
13
 73
9
 74
0
 42
0.0000001
 43
0.0000001
 44
0.0000000001
 40
0.0
 40
0.0
 40
0.0
 40
0.0
 40
0.378203348
 40
0.6636868332
 40
0.773426912
 40
0.8632992493
 40
0.9367593393
 40
1.0
 40
1.0
 40
1.0
 40
1.0
 10
4.1730722826
 20
2.950738599
 30
0.0
 10
4.1728572043
 20
2.9508107933
 30
0.0
 10
4.1724835076
 20
2.9509484998
 30
0.0
 10
4.1720645473
 20
2.9511528787
 30
0.0
 10
4.1718263926
 20
2.9513213791
 30
0.0
 10
4.1717080776
 20
2.9514359696
 30
0.0
 10
4.1716334161
 20
2.951551615
 30
0.0
 10
4.1716149702
 20
2.9516340719
 30
0.0
 10
4.1716149961
 20
2.9516720078
 30
0.0
  0
LINE
  5
555
100
AcDbEntity
  8
0
100
AcDbLine
 62
7
  6
CONTINUOUS
 10
3.9134087936
 20
2.9452153152
 11
3.9117825495
 21
2.9450261891
  0
SPLINE
  5
556
100
AcDbEntity
  8
0
100
AcDbSpline
 62
7
  6
CONTINUOUS
 70
0
 71
3
 72
16
 73
12
 74
0
 42
0.0000001
 43
0.0000001
 44
0.0000000001
 40
0.0
 40
0.0
 40
0.0
 40
0.0
 40
0.2142710032
 40
0.4023830385
 40
0.5641269266
 40
0.6994325652
 40
0.8085146633
 40
0.8923836011
 40
0.9256890787
 40
0.9540055402
 40
1.0
 40
1.0
 40
1.0
 40
1.0
 10
4.6199413801
 20
2.9487320956
 30
0.0
 10
4.6195882579
 20
2.9488028717
 30
0.0
 10
4.6189265574
 20
2.9489431613
 30
0.0
 10
4.6180050994
 20
2.9491674989
 30
0.0
 10
4.6172207724
 20
2.9493914919
 30
0.0
 10
4.6165748694
 20
2.9496141902
 30
0.0
 10
4.6160688552
 20
2.949835363
 30
0.0
 10
4.6157396156
 20
2.9500300061
 30
0.0
 10
4.6155544693
 20
2.9501914411
 30
0.0
 10
4.6154381505
 20
2.9503297963
 30
0.0
 10
4.6153902689
 20
2.95045456
 30
0.0
 10
4.6153902513
 20
2.9505318671
 30
0.0
  0
SPLINE
  5
557
100
AcDbEntity
  8
0
100
AcDbSpline
 62
7
  6
CONTINUOUS
 70
0
 71
3
 72
16
 73
12
 74
0
 42
0.0000001
 43
0.0000001
 44
0.0000000001
 40
0.0
 40
0.0
 40
0.0
 40
0.0
 40
0.2139416952
 40
0.4017593507
 40
0.5631813892
 40
0.6980994948
 40
0.8069095218
 40
0.890835612
 40
0.9243213196
 40
0.9529425727
 40
1.0
 40
1.0
 40
1.0
 40
1.0
 10
5.0962071066
 20
2.9475306517
 30
0.0
 10
5.0958508555
 20
2.9475970205
 30
0.0
 10
5.0951832369
 20
2.9477293374
 30
0.0
 10
5.094253489
 20
2.9479437036
 30
0.0
 10
5.0934623167
 20
2.9481604715
 30
0.0
 10
5.0928110766
 20
2.9483789281
 30
0.0
 10
5.092300896
 20
2.9485987882
 30
0.0
 10
5.0919687694
 20
2.9487945389
 30
0.0
 10
5.0917819442
 20
2.9489583505
 30
0.0
 10
5.0916637555
 20
2.9491005375
 30
0.0
 10
5.0916158325
 20
2.9492287906
 30
0.0
 10
5.091615648
 20
2.9493084976
 30
0.0
  0
SPLINE
  5
558
100
AcDbEntity
  8
0
100
AcDbSpline
 62
7
  6
CONTINUOUS
 70
0
 71
3
 72
17
 73
13
 74
0
 42
0.0000001
 43
0.0000001
 44
0.0000000001
 40
0.0
 40
0.0
 40
0.0
 40
0.0
 40
0.2154450044
 40
0.4042546505
 40
0.5661515197
 40
0.7011725046
 40
0.8097876846
 40
0.8930940172
 40
0.9260669452
 40
0.9540307554
 40
0.9780970652
 40
1.0
 40
1.0
 40
1.0
 40
1.0
 10
5.5725473843
 20
2.9464393663
 30
0.0
 10
5.5721825149
 20
2.9464969635
 30
0.0
 10
5.5714990386
 20
2.9466126373
 30
0.0
 10
5.5705470553
 20
2.9468033023
 30
0.0
 10
5.5697374083
 20
2.9469992849
 30
0.0
 10
5.5690709848
 20
2.9471998459
 30
0.0
 10
5.5685485421
 20
2.9474042031
 30
0.0
 10
5.5682073434
 20
2.9475890894
 30
0.0
 10
5.5680146245
 20
2.9477453248
 30
0.0
 10
5.5679175999
 20
2.9478553151
 30
0.0
 10
5.567857076
 20
2.947968373
 30
0.0
 10
5.5678427318
 20
2.9480476023
 30
0.0
 10
5.5678425674
 20
2.9480851553
 30
0.0
  0
ENDSEC
  0
SECTION
  2
OBJECTS
  0
DICTIONARY
  5
C
100
AcDbDictionary
280
0
281
1
  3
ACAD_GROUP
350
D
  3
ACAD_MLINESTYLE
350
17
  3
ACAD_LAYOUT
350
1A
  3
ACAD_PLOTSETTINGS
350
19
  3
ACAD_PLOTSTYLENAME
350
E
  0
DICTIONARY
  5
D
102
{ACAD_REACTORS
330
C
102
}
100
AcDbDictionary
280
0
281
1
  0
ACDBDICTIONARYWDFLT
  5
E
102
{ACAD_REACTORS
330
C
102
}
100
AcDbDictionary
281
1
  3
Normal
350
F
100
AcDbDictionaryWithDefault
340
F
  0
DICTIONARY
  5
17
102
{ACAD_REACTORS
330
C
102
}
100
AcDbDictionary
280
0
281
1
  3
Standard
350
18
  0
DICTIONARY
  5
19
102
{ACAD_REACTORS
330
C
102
}
100
AcDbDictionary
281
1
  0
DICTIONARY
  5
1A
102
{ACAD_REACTORS
330
C
102
}
100
AcDbDictionary
281
1
  3
Model
350
559
  3
Layout1
350
55A
  0
ACDBPLACEHOLDER
  5
F
102
{ACAD_REACTORS
330
E
102
}
  0
MLINESTYLE
  5
18
102
{ACAD_REACTORS
330
17
102
}
100
AcDbMlineStyle
  2
STANDARD
 70
0
  3

 62
256
 51
90.0
 52
90.0
 71
2
 49
0.5
 62
256
  6
BYLAYER
 49
-0.5
 62
256
  6
BYLAYER
  0
LAYOUT
  5
559
102
{ACAD_REACTORS
330
1A
102
}
100
AcDbPlotSettings
  1

  2
none_device
  4
ANSI_A_(11.00_x_8.50_Inches)
  6

 40
0.0
 41
0.0
 42
0.0
 43
0.0
 44
279.4
 45
215.9
 46
0.0
 47
0.0
 48
0.0
 49
0.0
140
0.0
141
0.0
142
1.0
143
1.0
 70
1024
 72
0
 73
0
 74
0
  7

 75
0
147
1.0
148
0.0
149
0.0
100
AcDbLayout
  1
Model
 70
0
 71
0
 10
0.0
 20
0.0
 11
11.0
 21
8.5
 12
0.0
 22
0.0
 32
0.0
 14
0.0
 24
0.0
 34
0.0
 15
0.0
 25
0.0
 35
0.0
146
0.0
 13
0.0
 23
0.0
 33
0.0
 16
1.0
 26
0.0
 36
0.0
 17
0.0
 27
1.0
 37
0.0
 76
0
330
21D
345
0
346
0
  0
LAYOUT
  5
55A
102
{ACAD_REACTORS
330
1A
102
}
100
AcDbPlotSettings
  1

  2
none_device
  4
ANSI_A_(11.00_x_8.50_Inches)
  6

 40
0.0
 41
0.0
 42
0.0
 43
0.0
 44
279.4
 45
215.9
 46
0.0
 47
0.0
 48
0.0
 49
0.0
140
0.0
141
0.0
142
1.0
143
1.0
 70
0
 72
0
 73
0
 74
0
  7

 75
0
147
1.0
148
0.0
149
0.0
100
AcDbLayout
  1
Layout1
 70
0
 71
1
 10
0.0
 20
0.0
 11
11.0
 21
8.5
 12
0.0
 22
0.0
 32
0.0
 14
0.0
 24
0.0
 34
0.0
 15
0.0
 25
0.0
 35
0.0
146
0.0
 13
0.0
 23
0.0
 33
0.0
 16
1.0
 26
0.0
 36
0.0
 17
0.0
 27
1.0
 37
0.0
 76
0
330
21E
345
0
346
0
  0
ENDSEC
  0
EOF
