999
DXF file: 2153_front.dxf
999
Pro/ENGINEER 2018400 by Parametric Technology Corporation
  0
SECTION
  2
HEADER
  9
$ACADVER
  1
AC1027
  9
$DWGCODEPAGE
  3
ANSI_1252
  9
$EXTMAX
 10
11.0
 20
8.5
 30
0.0
  9
$EXTMIN
 10
0.0
 20
0.0
 30
0.0
  9
$LIMMIN
 10
0.0
 20
0.0
  9
$LIMMAX
 10
11.0
 20
8.5
  9
$VIEWCTR
 10
5.5
 20
4.25
  9
$VIEWSIZE
 40
8.5
  9
$CLAYER
  8
0
  9
$LTSCALE
 40
0.605
  9
$CELTYPE
  6
BYLAYER
  9
$DIMSCALE
 40
1.0
  9
$DIMASZ
 40
0.1
  9
$DIMEXO
 40
0.0625
  9
$DIMDLI
 40
0.418
  9
$DIMEXE
 40
0.125
  9
$DIMCEN
 40
0.099
  9
$DIMLFAC
 40
1.0
  9
$DIMBLK
  1
_FILLED
  9
$DIMALT
 70
1
  9
$DIMALTD
 70
1
  9
$DIMALTTD
 70
2
  9
$DIMALTF
 40
25.4
  9
$DIMTXT
 40
0.08
  9
$DIMTOL
 70
1
  9
$DIMLIM
 70
0
  9
$DIMTFAC
 40
1.0
  9
$DIMTP
 40
0.01
  9
$DIMTM
 40
0.01
  9
$DIMGAP
 40
0.09
  9
$DIMDSEP
 70
46
  9
$AUNITS
 70
0
  9
$PDMODE
 70
3
  9
$PDSIZE
 40
0.3125
  9
$HANDSEED
  5
331
  9
$TILEMODE
 70
1
  9
$MEASUREMENT
 70
0
  9
$INSUNITS
 70
1
  0
ENDSEC
  0
SECTION
  2
CLASSES
  0
CLASS
  1
ACDBDICTIONARYWDFLT
  2
AcDbDictionaryWithDefault
  3
AutoCAD 2000
 90
0
 91
1
280
0
281
0
  0
CLASS
  1
ACDBPLACEHOLDER
  2
AcDbPlaceHolder
  3
AutoCAD 2000
 90
0
 91
1
280
0
281
0
  0
CLASS
  1
LAYOUT
  2
AcDbLayout
  3
AutoCAD 2000
 90
0
 91
0
280
0
281
0
  0
ENDSEC
  0
SECTION
  2
TABLES
  0
TABLE
  2
VPORT
  5
8
100
AcDbSymbolTable
 70
2
  0
VPORT
  5
1F4
100
AcDbSymbolTableRecord
100
AcDbViewportTableRecord
  2
*ACTIVE
 70
0
 10
0.0
 20
0.0
 11
1.0
 21
1.0
 12
5.5
 22
4.25
 13
0.0
 23
0.0
 14
1.0
 24
1.0
 15
0.0
 25
0.0
 16
0.0
 26
0.0
 36
1.0
 17
0.0
 27
0.0
 37
0.0
 40
8.5
 41
1.2941176471
 42
50.0
 43
0.0
 44
0.0
 50
0.0
 51
0.0
 71
0
 72
100
 73
1
 74
1
 75
0
 76
0
 77
0
 78
0
  0
ENDTAB
  0
TABLE
  2
LTYPE
  5
5
100
AcDbSymbolTable
 70
6
  0
LTYPE
  5
14
100
AcDbSymbolTableRecord
100
AcDbLinetypeTableRecord
  2
BYBLOCK
 70
0
  3

 72
65
 73
0
 40
0.0
  0
LTYPE
  5
15
100
AcDbSymbolTableRecord
100
AcDbLinetypeTableRecord
  2
BYLAYER
 70
0
  3

 72
65
 73
0
 40
0.0
  0
LTYPE
  5
16
100
AcDbSymbolTableRecord
100
AcDbLinetypeTableRecord
  2
CONTINUOUS
 70
64
  3
Solid line
 72
65
 73
0
 40
0.0
  0
LTYPE
  5
1F5
100
AcDbSymbolTableRecord
100
AcDbLinetypeTableRecord
  2
CENTER
 70
64
  3
____ _ ____ _ ____ _ ____ _ ____ _ ____ _ ____
 72
65
 73
4
 40
0.6
 49
0.375
 74
0
 49
-0.075
 74
0
 49
0.075
 74
0
 49
-0.075
 74
0
  0
LTYPE
  5
1F6
100
AcDbSymbolTableRecord
100
AcDbLinetypeTableRecord
  2
HIDDEN
 70
64
  3
- - - - - - - - - - - - - - - - - - - -
 72
65
 73
2
 40
0.2
 49
0.1
 74
0
 49
-0.1
 74
0
  0
LTYPE
  5
1F7
100
AcDbSymbolTableRecord
100
AcDbLinetypeTableRecord
  2
PHANTOM
 70
64
  3
_____ _ _ _____ _ _ _____ _ _ _____
 72
65
 73
6
 40
0.8
 49
0.45
 74
0
 49
-0.05
 74
0
 49
0.1
 74
0
 49
-0.05
 74
0
 49
0.1
 74
0
 49
-0.05
 74
0
  0
LTYPE
  5
1F8
100
AcDbSymbolTableRecord
100
AcDbLinetypeTableRecord
  2
DOT
 70
64
  3
. . . . . . . . . . . . . . . . . . . .
 72
65
 73
2
 40
0.2
 49
0.1
 74
0
 49
-0.1
 74
0
  0
LTYPE
  5
1F9
100
AcDbSymbolTableRecord
100
AcDbLinetypeTableRecord
  2
DASHED
 70
64
  3
- - - - - - - - - - - - - - - - - - - -
 72
65
 73
2
 40
0.2
 49
0.1
 74
0
 49
-0.1
 74
0
  0
ENDTAB
  0
TABLE
  2
LAYER
  5
2
100
AcDbSymbolTable
 70
36
  0
LAYER
  5
10
100
AcDbSymbolTableRecord
100
AcDbLayerTableRecord
  2
0
 70
0
 62
7
  6
CONTINUOUS
370
-3
390
F
  0
LAYER
  5
1FA
100
AcDbSymbolTableRecord
100
AcDbLayerTableRecord
  2
DEFAULT_1
 70
0
 62
7
  6
CENTER
370
-3
390
F
  0
LAYER
  5
1FB
100
AcDbSymbolTableRecord
100
AcDbLayerTableRecord
  2
DEFAULT_2
 70
0
 62
8
  6
HIDDEN
370
-3
390
F
  0
LAYER
  5
1FC
100
AcDbSymbolTableRecord
100
AcDbLayerTableRecord
  2
DEFAULT_3
 70
0
 62
7
  6
PHANTOM
370
-3
390
F
  0
LAYER
  5
1FD
100
AcDbSymbolTableRecord
100
AcDbLayerTableRecord
  2
DEFAULT_COORDINATE_SYSTEM
 70
0
 62
7
  6
CONTINUOUS
370
-3
390
F
  0
LAYER
  5
1FE
100
AcDbSymbolTableRecord
100
AcDbLayerTableRecord
  2
DEFAULT_DATUM_AXES
 70
0
 62
7
  6
CONTINUOUS
370
-3
390
F
  0
LAYER
  5
1FF
100
AcDbSymbolTableRecord
100
AcDbLayerTableRecord
  2
DEFAULT_DATUM_PLANES
 70
0
 62
7
  6
CONTINUOUS
370
-3
390
F
  0
ENDTAB
  0
TABLE
  2
STYLE
  5
3
100
AcDbSymbolTable
 70
1
  0
STYLE
  5
11
100
AcDbSymbolTableRecord
100
AcDbTextStyleTableRecord
  2
STANDARD
 70
0
 40
0.0
 41
0.8
 50
0.0
 71
0
 42
0.2
  3
txt
  4

  0
STYLE
  5
200
100
AcDbSymbolTableRecord
100
AcDbTextStyleTableRecord
  2
TEXTSTYLE_1
 70
0
 40
0.0
 41
0.8
 50
0.0
 71
0
 42
0.2
  3
gdt
  4

  0
ENDTAB
  0
TABLE
  2
VIEW
  5
6
100
AcDbSymbolTable
 70
0
  0
ENDTAB
  0
TABLE
  2
UCS
  5
7
100
AcDbSymbolTable
 70
0
  0
ENDTAB
  0
TABLE
  2
APPID
  5
9
100
AcDbSymbolTable
 70
1
  0
APPID
  5
201
100
AcDbSymbolTableRecord
100
AcDbRegAppTableRecord
  2
ACAD
 70
0
  0
ENDTAB
  0
TABLE
  2
BLOCK_RECORD
  5
1
100
AcDbSymbolTable
 70
0
  0
BLOCK_RECORD
  5
202
100
AcDbSymbolTableRecord
100
AcDbBlockTableRecord
  2
*Model_Space
  0
BLOCK_RECORD
  5
203
100
AcDbSymbolTableRecord
100
AcDbBlockTableRecord
  2
*Paper_Space
  0
BLOCK_RECORD
  5
204
100
AcDbSymbolTableRecord
100
AcDbBlockTableRecord
  2
_FILLED
  0
ENDTAB
  0
TABLE
  2
DIMSTYLE
  5
A
100
AcDbSymbolTable
 70
1
100
AcDbDimStyleTable
 71
0
  0
DIMSTYLE
105
205
100
AcDbSymbolTableRecord
100
AcDbDimStyleTableRecord
  2
STANDARD
 70
0
  3

  4

 40
1.0
 41
0.1
 42
0.0625
 43
0.38
 44
0.125
 45
0.0
 46
0.0
 47
0.01
 48
0.01
140
0.08
141
0.09
142
0.0
143
25.4
144
1.0
145
0.0
146
1.0
147
0.09
 71
1.0
 72
0.0
 73
1
 74
1
 75
0
 76
0
 77
0
 78
4
 79
1
170
1
171
1
172
0
173
0
174
0
175
0
176
0
177
0
178
0
270
2
179
2
271
2
272
2
273
2
274
2
275
0
280
0
281
0
282
0
283
1
284
4
285
0
286
0
287
3
288
0
340
11
278
46
341
204
342
204
343
204
344
204
  0
ENDTAB
  0
ENDSEC
  0
SECTION
  2
BLOCKS
  0
BLOCK
  5
20
100
AcDbEntity
  8
0
100
AcDbBlockBegin
  2
*Model_Space
 70
0
 10
0.0
 20
0.0
 30
0.0
  3
*Model_Space
  1

  0
ENDBLK
  5
21
100
AcDbEntity
  8
0
100
AcDbBlockEnd
  0
BLOCK
  5
1C
100
AcDbEntity
  8
0
100
AcDbBlockBegin
  2
*Paper_Space
 70
0
 10
0.0
 20
0.0
 30
0.0
  3
*Paper_Space
  1

  0
ENDBLK
  5
1D
100
AcDbEntity
  8
0
100
AcDbBlockEnd
  0
BLOCK
  5
206
100
AcDbEntity
  8
0
100
AcDbBlockBegin
  2
_FILLED
 70
64
 10
0.0
 20
0.0
  3
_FILLED
  1

  0
SOLID
  5
207
100
AcDbEntity
  8
0
  6
BYBLOCK
 62
0
100
AcDbTrace
 10
0.0
 20
0.0
 11
-1.0
 21
0.2
 12
-1.0
 22
-0.2
 13
-1.0
 23
-0.2
  0
ENDBLK
  5
208
100
AcDbEntity
  8
0
  6
BYBLOCK
 62
0
100
AcDbBlockEnd
  0
ENDSEC
  0
SECTION
  2
ENTITIES
  0
MTEXT
  5
209
100
AcDbEntity
  8
0
100
AcDbMText
 62
2
  6
CONTINUOUS
  7
STANDARD
 71
3
 72
1
 10
5.5807065217
 20
2.0943687655
 30
0.0
 11
1.0
 21
0.0
 31
0.0
 73
2
 44
0.9
  1
SCALE  .750
 40
0.08
 41
0.704
  0
LINE
  5
20A
100
AcDbEntity
  8
0
100
AcDbLine
 62
7
  6
CONTINUOUS
 10
0.0
 20
0.0
 11
0.0
 21
8.5
  0
LINE
  5
20B
100
AcDbEntity
  8
0
100
AcDbLine
 62
7
  6
CONTINUOUS
 10
0.0
 20
0.0
 11
11.0
 21
0.0
  0
LINE
  5
20C
100
AcDbEntity
  8
0
100
AcDbLine
 62
7
  6
CONTINUOUS
 10
0.0
 20
8.5
 11
11.0
 21
8.5
  0
LINE
  5
20D
100
AcDbEntity
  8
0
100
AcDbLine
 62
7
  6
CONTINUOUS
 10
11.0
 20
0.0
 11
11.0
 21
8.5
  0
LINE
  5
20E
100
AcDbEntity
  8
0
100
AcDbLine
 62
7
  6
CONTINUOUS
 10
1.943439441
 20
3.5621549548
 11
1.943439441
 21
3.0837164548
  0
LINE
  5
20F
100
AcDbEntity
  8
0
100
AcDbLine
 62
7
  6
CONTINUOUS
 10
2.9994268505
 20
2.9251830261
 11
2.9940840208
 21
2.9993390365
  0
LINE
  5
210
100
AcDbEntity
  8
0
100
AcDbLine
 62
7
  6
CONTINUOUS
 10
2.8509287172
 20
2.9993390365
 11
2.8561119737
 21
2.9252150152
  0
LINE
  5
211
100
AcDbEntity
  8
0
100
AcDbLine
 62
7
  6
CONTINUOUS
 10
2.9530012169
 20
2.924189987
 11
2.963562727
 21
2.9993390365
  0
LINE
  5
212
100
AcDbEntity
  8
0
100
AcDbLine
 62
7
  6
CONTINUOUS
 10
3.4120849309
 20
2.9250935642
 11
3.4062818818
 21
2.9993390365
  0
LINE
  5
213
100
AcDbEntity
  8
0
100
AcDbLine
 62
7
  6
CONTINUOUS
 10
3.3628415419
 20
2.9181693515
 11
3.3567549741
 21
2.9993390365
  0
LINE
  5
214
100
AcDbEntity
  8
0
100
AcDbLine
 62
7
  6
CONTINUOUS
 10
3.0963130907
 20
2.9242196135
 11
3.1067099179
 21
2.9993390365
  0
LINE
  5
215
100
AcDbEntity
  8
0
100
AcDbLine
 62
7
  6
CONTINUOUS
 10
3.6861200406
 20
2.91809304
 11
3.6796044953
 21
2.9993390365
  0
LINE
  5
216
100
AcDbEntity
  8
0
100
AcDbLine
 62
7
  6
CONTINUOUS
 10
3.508964088
 20
2.9243079449
 11
3.5188872341
 21
2.9993390365
  0
LINE
  5
217
100
AcDbEntity
  8
0
100
AcDbLine
 62
7
  6
CONTINUOUS
 10
3.9798175715
 20
2.9126043847
 11
3.9726845459
 21
2.9993390365
  0
LINE
  5
218
100
AcDbEntity
  8
0
100
AcDbLine
 62
7
  6
CONTINUOUS
 10
3.784679645
 20
2.9298590604
 11
3.7860335021
 21
2.9126566738
  0
LINE
  5
219
100
AcDbEntity
  8
0
100
AcDbLine
 62
7
  6
CONTINUOUS
 10
4.0443123921
 20
2.9249568154
 11
4.0378015891
 21
2.9993390365
  0
LINE
  5
21A
100
AcDbEntity
  8
0
100
AcDbLine
 62
7
  6
CONTINUOUS
 10
3.7830534848
 20
2.9173671743
 11
3.7937243614
 21
2.9993390365
  0
LINE
  5
21B
100
AcDbEntity
  8
0
100
AcDbLine
 62
7
  6
CONTINUOUS
 10
3.8830231477
 20
2.9118878395
 11
3.8945363162
 21
2.9993390365
  0
LINE
  5
21C
100
AcDbEntity
  8
0
100
AcDbLine
 62
7
  6
CONTINUOUS
 10
4.2767778816
 20
2.9179540873
 11
4.2694759484
 21
2.9993390365
  0
LINE
  5
21D
100
AcDbEntity
  8
0
100
AcDbLine
 62
7
  6
CONTINUOUS
 10
4.1411835536
 20
2.9244439193
 11
4.1503835741
 21
2.9993390365
  0
LINE
  5
21E
100
AcDbEntity
  8
0
100
AcDbLine
 62
7
  6
CONTINUOUS
 10
4.887189441
 20
5.1115629115
 11
4.883439441
 21
5.1078129115
  0
LINE
  5
21F
100
AcDbEntity
  8
0
100
AcDbLine
 62
7
  6
CONTINUOUS
 10
7.7057668826
 20
2.9252146475
 11
7.6088776137
 21
2.9241903453
  0
LINE
  5
220
100
AcDbEntity
  8
0
100
AcDbLine
 62
7
  6
CONTINUOUS
 10
7.6192413919
 20
2.9242980259
 11
7.6178596724
 21
2.9242834965
  0
LINE
  5
221
100
AcDbEntity
  8
0
100
AcDbLine
 62
7
  6
CONTINUOUS
 10
7.6153674027
 20
2.9242571775
 11
7.614262485
 21
2.9242455845
  0
LINE
  5
222
100
AcDbEntity
  8
0
100
AcDbLine
 62
7
  6
CONTINUOUS
 10
7.6123475872
 20
2.9242254241
 11
7.6102432626
 21
2.9242033935
  0
LINE
  5
223
100
AcDbEntity
  8
0
100
AcDbLine
 62
7
  6
CONTINUOUS
 10
7.2408063919
 20
2.9181798397
 11
7.1468153919
 21
2.9173092871
  0
LINE
  5
224
100
AcDbEntity
  8
0
100
AcDbLine
 62
7
  6
CONTINUOUS
 10
6.7758453629
 20
2.9126564578
 11
6.6788557062
 21
2.9118880496
  0
LINE
  5
225
100
AcDbEntity
  8
0
100
AcDbLine
 62
7
  6
CONTINUOUS
 10
6.3108838764
 20
2.908645349
 11
6.2138455094
 21
2.9080046364
  0
LINE
  5
226
100
AcDbEntity
  8
0
100
AcDbLine
 62
7
  6
CONTINUOUS
 10
5.8312214411
 20
2.9060677167
 11
5.7488357802
 21
2.905633174
  0
LINE
  5
227
100
AcDbEntity
  8
0
100
AcDbLine
 62
7
  6
CONTINUOUS
 10
7.6089325536
 20
2.924190426
 11
7.6088776148
 21
2.924190345
  0
LINE
  5
228
100
AcDbEntity
  8
0
100
AcDbLine
 62
7
  6
CONTINUOUS
 10
4.7306651379
 20
2.892668597
 11
4.7983888288
 21
2.892668597
  0
LINE
  5
229
100
AcDbEntity
  8
0
100
AcDbLine
 62
7
  6
CONTINUOUS
 10
4.9888756661
 20
2.892668597
 11
5.0565909195
 21
2.892668584
  0
LINE
  5
22A
100
AcDbEntity
  8
0
100
AcDbLine
 62
7
  6
CONTINUOUS
 10
5.5052881365
 20
2.892668597
 11
5.573003202
 21
2.892668597
  0
LINE
  5
22B
100
AcDbEntity
  8
0
100
AcDbLine
 62
7
  6
CONTINUOUS
 10
5.7634900508
 20
2.892668597
 11
5.8312137417
 21
2.892668597
  0
LINE
  5
22C
100
AcDbEntity
  8
0
100
AcDbLine
 62
7
  6
CONTINUOUS
 10
4.3248975178
 20
2.8951039425
 11
4.3925670233
 21
2.8951039425
  0
LINE
  5
22D
100
AcDbEntity
  8
0
100
AcDbLine
 62
7
  6
CONTINUOUS
 10
4.7564113138
 20
2.8951039425
 11
4.824076143
 21
2.895103929
  0
LINE
  5
22E
100
AcDbEntity
  8
0
100
AcDbLine
 62
7
  6
CONTINUOUS
 10
5.4175247868
 20
2.8951039425
 11
5.4851878162
 21
2.8951039425
  0
LINE
  5
22F
100
AcDbEntity
  8
0
100
AcDbLine
 62
7
  6
CONTINUOUS
 10
5.9988956344
 20
2.8951039425
 11
6.0665623908
 21
2.8951039425
  0
LINE
  5
230
100
AcDbEntity
  8
0
100
AcDbLine
 62
7
  6
CONTINUOUS
 10
6.2284920554
 20
2.8951039425
 11
6.296169993
 21
2.8951039425
  0
LINE
  5
231
100
AcDbEntity
  8
0
100
AcDbLine
 62
7
  6
CONTINUOUS
 10
3.8007528939
 20
2.8990509697
 11
3.8683845501
 21
2.8990509697
  0
LINE
  5
232
100
AcDbEntity
  8
0
100
AcDbLine
 62
7
  6
CONTINUOUS
 10
3.9945360667
 20
2.8990509697
 11
4.0621552422
 21
2.8990509697
  0
LINE
  5
233
100
AcDbEntity
  8
0
100
AcDbLine
 62
7
  6
CONTINUOUS
 10
4.5239477444
 20
2.8990509697
 11
4.5915605746
 21
2.8990509538
  0
LINE
  5
234
100
AcDbEntity
  8
0
100
AcDbLine
 62
7
  6
CONTINUOUS
 10
5.2471344667
 20
2.8990509697
 11
5.314744415
 21
2.8990509697
  0
LINE
  5
235
100
AcDbEntity
  8
0
100
AcDbLine
 62
7
  6
CONTINUOUS
 10
5.9703184822
 20
2.8990509697
 11
6.037931119
 21
2.8990509697
  0
LINE
  5
236
100
AcDbEntity
  8
0
100
AcDbLine
 62
7
  6
CONTINUOUS
 10
6.4997236244
 20
2.8990509697
 11
6.5673428302
 21
2.8990509697
  0
LINE
  5
237
100
AcDbEntity
  8
0
100
AcDbLine
 62
7
  6
CONTINUOUS
 10
6.6934943307
 20
2.8990509697
 11
6.7611259869
 21
2.8990509697
  0
LINE
  5
238
100
AcDbEntity
  8
0
100
AcDbLine
 62
7
  6
CONTINUOUS
 10
3.3775682416
 20
2.9045098038
 11
3.4451131506
 21
2.9045098038
  0
LINE
  5
239
100
AcDbEntity
  8
0
100
AcDbLine
 62
7
  6
CONTINUOUS
 10
3.7008409016
 20
2.9045098038
 11
3.7684089474
 21
2.9045098038
  0
LINE
  5
23A
100
AcDbEntity
  8
0
100
AcDbLine
 62
7
  6
CONTINUOUS
 10
4.2914849609
 20
2.9045098038
 11
4.3590442198
 21
2.9045097888
  0
LINE
  5
23B
100
AcDbEntity
  8
0
100
AcDbLine
 62
7
  6
CONTINUOUS
 10
5.0473717526
 20
2.9045098038
 11
5.1149262024
 21
2.9045098038
  0
LINE
  5
23C
100
AcDbEntity
  8
0
100
AcDbLine
 62
7
  6
CONTINUOUS
 10
5.8378006483
 20
2.9045098038
 11
5.9053574092
 21
2.9045098038
  0
LINE
  5
23D
100
AcDbEntity
  8
0
100
AcDbLine
 62
7
  6
CONTINUOUS
 10
6.526100701
 20
2.9045098038
 11
6.5936635581
 21
2.9045098038
  0
LINE
  5
23E
100
AcDbEntity
  8
0
100
AcDbLine
 62
7
  6
CONTINUOUS
 10
6.9932578705
 20
2.9045098038
 11
7.0608309707
 21
2.9045098038
  0
LINE
  5
23F
100
AcDbEntity
  8
0
100
AcDbLine
 62
7
  6
CONTINUOUS
 10
7.1584968897
 20
2.9045098038
 11
7.2260817044
 21
2.9045098038
  0
LINE
  5
240
100
AcDbEntity
  8
0
100
AcDbLine
 62
7
  6
CONTINUOUS
 10
2.8708417324
 20
2.9114806179
 11
2.9383791622
 21
2.9114806179
  0
LINE
  5
241
100
AcDbEntity
  8
0
100
AcDbLine
 62
7
  6
CONTINUOUS
 10
3.0141589874
 20
2.9114806179
 11
3.0816808126
 21
2.9114806179
  0
LINE
  5
242
100
AcDbEntity
  8
0
100
AcDbLine
 62
7
  6
CONTINUOUS
 10
3.4268100501
 20
2.9114806179
 11
3.4943215889
 21
2.9114806179
  0
LINE
  5
243
100
AcDbEntity
  8
0
100
AcDbLine
 62
7
  6
CONTINUOUS
 10
4.0590229632
 20
2.9114806179
 11
4.1265270775
 21
2.9114806027
  0
LINE
  5
244
100
AcDbEntity
  8
0
100
AcDbLine
 62
7
  6
CONTINUOUS
 10
4.8345445509
 20
2.9114806179
 11
4.9020020756
 21
2.9114805984
  0
LINE
  5
245
100
AcDbEntity
  8
0
100
AcDbLine
 62
7
  6
CONTINUOUS
 10
5.6598349644
 20
2.9114806179
 11
5.7273343161
 21
2.9114806179
  0
LINE
  5
246
100
AcDbEntity
  8
0
100
AcDbLine
 62
7
  6
CONTINUOUS
 10
6.4353519842
 20
2.9114806179
 11
6.5028558922
 21
2.9114806179
  0
LINE
  5
247
100
AcDbEntity
  8
0
100
AcDbLine
 62
7
  6
CONTINUOUS
 10
7.067598742
 20
2.9114806122
 11
7.1350688631
 21
2.9114806179
  0
LINE
  5
248
100
AcDbEntity
  8
0
100
AcDbLine
 62
7
  6
CONTINUOUS
 10
7.4801965834
 20
2.9114806179
 11
7.5477199402
 21
2.9114806179
  0
LINE
  5
249
100
AcDbEntity
  8
0
100
AcDbLine
 62
7
  6
CONTINUOUS
 10
7.6234997206
 20
2.9114806179
 11
7.6910371504
 21
2.9114806179
  0
LINE
  5
24A
100
AcDbEntity
  8
0
100
AcDbLine
 62
7
  6
CONTINUOUS
 10
2.183814441
 20
2.9993390365
 11
8.378064441
 21
2.9993390365
  0
LINE
  5
24B
100
AcDbEntity
  8
0
100
AcDbLine
 62
7
  6
CONTINUOUS
 10
8.558439441
 20
3.0237164548
 11
2.003439441
 21
3.0237164548
  0
LINE
  5
24C
100
AcDbEntity
  8
0
100
AcDbLine
 62
7
  6
CONTINUOUS
 10
8.618439441
 20
3.0837164548
 11
1.943439441
 21
3.0837164548
  0
LINE
  5
24D
100
AcDbEntity
  8
0
100
AcDbLine
 62
7
  6
CONTINUOUS
 10
2.9530012167
 20
2.9241899855
 11
2.9529462405
 21
2.9241902248
  0
LINE
  5
24E
100
AcDbEntity
  8
0
100
AcDbLine
 62
7
  6
CONTINUOUS
 10
4.7421618937
 20
2.9060069551
 11
4.7159570042
 21
2.9061456522
  0
LINE
  5
24F
100
AcDbEntity
  8
0
100
AcDbLine
 62
7
  6
CONTINUOUS
 10
3.8830231473
 20
2.9118878357
 11
3.7860335017
 21
2.9126566743
  0
LINE
  5
250
100
AcDbEntity
  8
0
100
AcDbLine
 62
7
  6
CONTINUOUS
 10
2.9530012167
 20
2.9241899855
 11
2.8561119728
 21
2.9252150133
  0
LINE
  5
251
100
AcDbEntity
  8
0
100
AcDbLine
 62
7
  6
CONTINUOUS
 10
2.8561668609
 20
2.9252141494
 11
2.8561119738
 21
2.9252150131
  0
LINE
  5
252
100
AcDbEntity
  8
0
100
AcDbLine
 62
7
  6
CONTINUOUS
 10
4.5092441405
 20
2.9124633233
 11
4.5012531275
 21
2.9994052501
  0
LINE
  5
253
100
AcDbEntity
  8
0
100
AcDbLine
 62
7
  6
CONTINUOUS
 10
4.3737039598
 20
2.9175053786
 11
4.383574042
 21
2.9993390365
  0
LINE
  5
254
100
AcDbEntity
  8
0
100
AcDbLine
 62
7
  6
CONTINUOUS
 10
4.4072199625
 20
2.9080235051
 11
4.4187150039
 21
2.9993390365
  0
LINE
  5
255
100
AcDbEntity
  8
0
100
AcDbLine
 62
7
  6
CONTINUOUS
 10
4.8684391542
 20
4.8603126247
 11
4.883439441
 21
4.8753129115
  0
LINE
  5
256
100
AcDbEntity
  8
0
100
AcDbLine
 62
7
  6
CONTINUOUS
 10
4.8198518957
 20
2.924789247
 11
4.8124684871
 21
2.9993390365
  0
LINE
  5
257
100
AcDbEntity
  8
0
100
AcDbLine
 62
7
  6
CONTINUOUS
 10
4.7417111664
 20
2.9084843632
 11
4.7331612659
 21
2.9993390365
  0
LINE
  5
258
100
AcDbEntity
  8
0
100
AcDbLine
 62
7
  6
CONTINUOUS
 10
4.7159570044
 20
2.9061456522
 11
4.7078036398
 21
2.9993390365
  0
LINE
  5
259
100
AcDbEntity
  8
0
100
AcDbLine
 62
7
  6
CONTINUOUS
 10
4.624689441
 20
3.9814664548
 11
4.624689441
 21
3.9589664548
  0
LINE
  5
25A
100
AcDbEntity
  8
0
100
AcDbLine
 62
7
  6
CONTINUOUS
 10
4.748439441
 20
4.1052164548
 11
4.748439441
 21
4.4130914548
  0
LINE
  5
25B
100
AcDbEntity
  8
0
100
AcDbLine
 62
7
  6
CONTINUOUS
 10
4.6062235906
 20
2.9120787778
 11
4.6165541119
 21
2.9993390365
  0
LINE
  5
25C
100
AcDbEntity
  8
0
100
AcDbLine
 62
7
  6
CONTINUOUS
 10
4.774314441
 20
4.4389664548
 11
4.748439441
 21
4.4130914548
  0
LINE
  5
25D
100
AcDbEntity
  8
0
100
AcDbLine
 62
7
  6
CONTINUOUS
 10
4.748439441
 20
4.1052164548
 11
4.624689441
 21
3.9814664548
  0
LINE
  5
25E
100
AcDbEntity
  8
0
100
AcDbLine
 62
7
  6
CONTINUOUS
 10
1.943439441
 20
3.5621549548
 11
8.618439441
 21
3.5621549548
  0
LINE
  5
25F
100
AcDbEntity
  8
0
100
AcDbLine
 62
7
  6
CONTINUOUS
 10
5.0326831763
 20
2.9177764787
 11
5.0243698785
 21
2.9993390365
  0
LINE
  5
260
100
AcDbEntity
  8
0
100
AcDbLine
 62
7
  6
CONTINUOUS
 10
4.9741789597
 20
2.9060170668
 11
4.9651920077
 21
2.9993390365
  0
LINE
  5
261
100
AcDbEntity
  8
0
100
AcDbLine
 62
7
  6
CONTINUOUS
 10
4.868439441
 20
4.8603129115
 11
4.868439441
 21
4.7778129115
  0
LINE
  5
262
100
AcDbEntity
  8
0
100
AcDbLine
 62
7
  6
CONTINUOUS
 10
4.883439441
 20
4.8753129115
 11
4.883439441
 21
5.1078127922
  0
LINE
  5
263
100
AcDbEntity
  8
0
100
AcDbLine
 62
7
  6
CONTINUOUS
 10
4.952814441
 20
4.6299670238
 11
4.952814441
 21
4.7590629115
  0
LINE
  5
264
100
AcDbEntity
  8
0
100
AcDbLine
 62
7
  6
CONTINUOUS
 10
4.9167178515
 20
2.9246110986
 11
4.9250352176
 21
2.9993390365
  0
LINE
  5
265
100
AcDbEntity
  8
0
100
AcDbLine
 62
7
  6
CONTINUOUS
 10
4.8387424453
 20
2.9081639503
 11
4.8391277309
 21
2.9114806179
  0
LINE
  5
266
100
AcDbEntity
  8
0
100
AcDbLine
 62
7
  6
CONTINUOUS
 10
5.674689441
 20
4.7590629115
 11
5.693439441
 21
4.7778129115
  0
LINE
  5
267
100
AcDbEntity
  8
0
100
AcDbLine
 62
7
  6
CONTINUOUS
 10
2.003439441
 20
3.6221549548
 11
8.558439441
 21
3.6221549548
  0
LINE
  5
268
100
AcDbEntity
  8
0
100
AcDbLine
 62
7
  6
CONTINUOUS
 10
2.9500000416
 20
3.623038965
 11
7.6118788404
 21
3.623038965
  0
LINE
  5
269
100
AcDbEntity
  8
0
100
AcDbLine
 62
7
  6
CONTINUOUS
 10
5.4028475326
 20
2.908268438
 11
5.3929243721
 21
2.9993390365
  0
LINE
  5
26A
100
AcDbEntity
  8
0
100
AcDbLine
 62
7
  6
CONTINUOUS
 10
5.2324513857
 20
2.9122709252
 11
5.2232969868
 21
2.9993390365
  0
LINE
  5
26B
100
AcDbEntity
  8
0
100
AcDbLine
 62
7
  6
CONTINUOUS
 10
5.1408780705
 20
4.1989664548
 11
5.1408780705
 21
4.4130914548
  0
LINE
  5
26C
100
AcDbEntity
  8
0
100
AcDbLine
 62
7
  6
CONTINUOUS
 10
5.1296049142
 20
2.9176826645
 11
5.1384551021
 21
2.9993390365
  0
LINE
  5
26D
100
AcDbEntity
  8
0
100
AcDbLine
 62
7
  6
CONTINUOUS
 10
5.5586617037
 20
4.5211601742
 11
5.5677664971
 21
4.5302649676
  0
LINE
  5
26E
100
AcDbEntity
  8
0
100
AcDbLine
 62
7
  6
CONTINUOUS
 10
5.9417125139
 20
3.9520753725
 11
4.6201663681
 21
3.9520753725
  0
LINE
  5
26F
100
AcDbEntity
  8
0
100
AcDbLine
 62
7
  6
CONTINUOUS
 10
5.9325794284
 20
3.9529664548
 11
4.6292994536
 21
3.9529664548
  0
LINE
  5
270
100
AcDbEntity
  8
0
100
AcDbLine
 62
7
  6
CONTINUOUS
 10
4.624689441
 20
3.9589664548
 11
5.937189441
 21
3.9589664548
  0
LINE
  5
271
100
AcDbEntity
  8
0
100
AcDbLine
 62
7
  6
CONTINUOUS
 10
4.624689441
 20
3.9814664548
 11
5.937189441
 21
3.9814664548
  0
LINE
  5
272
100
AcDbEntity
  8
0
100
AcDbLine
 62
7
  6
CONTINUOUS
 10
5.4210008115
 20
4.1989664548
 11
5.4210008115
 21
4.4130914548
  0
LINE
  5
273
100
AcDbEntity
  8
0
100
AcDbLine
 62
7
  6
CONTINUOUS
 10
5.3294274968
 20
2.91227093
 11
5.3385818952
 21
2.9993390365
  0
LINE
  5
274
100
AcDbEntity
  8
0
100
AcDbLine
 62
7
  6
CONTINUOUS
 10
4.6201663681
 20
3.9520753725
 11
2.9500000416
 21
3.623038965
  0
LINE
  5
275
100
AcDbEntity
  8
0
100
AcDbLine
 62
7
  6
CONTINUOUS
 10
4.748439441
 20
4.1052164548
 11
5.813439441
 21
4.1052164548
  0
LINE
  5
276
100
AcDbEntity
  8
0
100
AcDbLine
 62
7
  6
CONTINUOUS
 10
5.1408780705
 20
4.1989664548
 11
5.4210008115
 21
4.1989664548
  0
LINE
  5
277
100
AcDbEntity
  8
0
100
AcDbLine
 62
7
  6
CONTINUOUS
 10
5.9417125139
 20
3.9520753725
 11
7.6118788404
 21
3.623038965
  0
LINE
  5
278
100
AcDbEntity
  8
0
100
AcDbLine
 62
7
  6
CONTINUOUS
 10
5.0032171783
 20
4.5211601742
 11
4.9941123848
 21
4.5302649676
  0
LINE
  5
279
100
AcDbEntity
  8
0
100
AcDbLine
 62
7
  6
CONTINUOUS
 10
4.887189441
 20
4.7590629115
 11
4.868439441
 21
4.7778129115
  0
LINE
  5
27A
100
AcDbEntity
  8
0
100
AcDbLine
 62
7
  6
CONTINUOUS
 10
5.6451610307
 20
2.924611097
 11
5.6368436644
 21
2.9993390365
  0
LINE
  5
27B
100
AcDbEntity
  8
0
100
AcDbLine
 62
7
  6
CONTINUOUS
 10
5.609064441
 20
4.6299670238
 11
5.609064441
 21
4.7590629115
  0
LINE
  5
27C
100
AcDbEntity
  8
0
100
AcDbLine
 62
7
  6
CONTINUOUS
 10
5.678439441
 20
5.1078127922
 11
5.678439441
 21
4.8753129115
  0
LINE
  5
27D
100
AcDbEntity
  8
0
100
AcDbLine
 62
7
  6
CONTINUOUS
 10
5.693439441
 20
4.8603129115
 11
5.693439441
 21
4.7778129115
  0
LINE
  5
27E
100
AcDbEntity
  8
0
100
AcDbLine
 62
7
  6
CONTINUOUS
 10
5.5876999236
 20
2.9060170807
 11
5.5966868742
 21
2.9993390365
  0
LINE
  5
27F
100
AcDbEntity
  8
0
100
AcDbLine
 62
7
  6
CONTINUOUS
 10
5.49987677
 20
2.9083797278
 11
5.5090908932
 21
2.9993390365
  0
LINE
  5
280
100
AcDbEntity
  8
0
100
AcDbLine
 62
7
  6
CONTINUOUS
 10
4.748439441
 20
4.4130914548
 11
5.1408780705
 21
4.4130914548
  0
LINE
  5
281
100
AcDbEntity
  8
0
100
AcDbLine
 62
7
  6
CONTINUOUS
 10
5.4210008115
 20
4.4130914548
 11
5.813439441
 21
4.4130914548
  0
LINE
  5
282
100
AcDbEntity
  8
0
100
AcDbLine
 62
7
  6
CONTINUOUS
 10
4.774314441
 20
4.4389664548
 11
5.787564441
 21
4.4389664548
  0
LINE
  5
283
100
AcDbEntity
  8
0
100
AcDbLine
 62
7
  6
CONTINUOUS
 10
5.813439441
 20
4.1052164548
 11
5.937189441
 21
3.9814664548
  0
LINE
  5
284
100
AcDbEntity
  8
0
100
AcDbLine
 62
7
  6
CONTINUOUS
 10
5.7488357802
 20
2.905633174
 11
5.7440168194
 21
2.9448804606
  0
LINE
  5
285
100
AcDbEntity
  8
0
100
AcDbLine
 62
7
  6
CONTINUOUS
 10
5.8231319744
 20
2.9175909562
 11
5.8137551198
 21
2.9993390365
  0
LINE
  5
286
100
AcDbEntity
  8
0
100
AcDbLine
 62
7
  6
CONTINUOUS
 10
5.813439441
 20
4.1052164548
 11
5.813439441
 21
4.4130914548
  0
LINE
  5
287
100
AcDbEntity
  8
0
100
AcDbLine
 62
7
  6
CONTINUOUS
 10
5.937189441
 20
3.9814664548
 11
5.937189441
 21
3.9589664548
  0
LINE
  5
288
100
AcDbEntity
  8
0
100
AcDbLine
 62
7
  6
CONTINUOUS
 10
5.7420269865
 20
2.9247892494
 11
5.7494103949
 21
2.9993390365
  0
LINE
  5
289
100
AcDbEntity
  8
0
100
AcDbLine
 62
7
  6
CONTINUOUS
 10
5.5586617037
 20
4.5211601742
 11
5.0032171783
 21
4.5211601742
  0
LINE
  5
28A
100
AcDbEntity
  8
0
100
AcDbLine
 62
7
  6
CONTINUOUS
 10
4.9941123848
 20
4.5302649676
 11
5.5677664971
 21
4.5302649676
  0
LINE
  5
28B
100
AcDbEntity
  8
0
100
AcDbLine
 62
7
  6
CONTINUOUS
 10
4.952814441
 20
4.6299670238
 11
5.609064441
 21
4.6299670238
  0
LINE
  5
28C
100
AcDbEntity
  8
0
100
AcDbLine
 62
7
  6
CONTINUOUS
 10
5.787564441
 20
4.4389664548
 11
5.813439441
 21
4.4130914548
  0
LINE
  5
28D
100
AcDbEntity
  8
0
100
AcDbLine
 62
7
  6
CONTINUOUS
 10
5.9556552915
 20
2.9120787773
 11
5.9453247701
 21
2.9993390365
  0
LINE
  5
28E
100
AcDbEntity
  8
0
100
AcDbLine
 62
7
  6
CONTINUOUS
 10
6.0812720217
 20
2.9085697519
 11
6.0892819108
 21
2.9993390365
  0
LINE
  5
28F
100
AcDbEntity
  8
0
100
AcDbLine
 62
7
  6
CONTINUOUS
 10
6.0526347424
 20
2.9124633322
 11
6.0606257545
 21
2.9994052501
  0
LINE
  5
290
100
AcDbEntity
  8
0
100
AcDbLine
 62
7
  6
CONTINUOUS
 10
5.9200552469
 20
2.9178682958
 11
5.9278448959
 21
2.9993390365
  0
LINE
  5
291
100
AcDbEntity
  8
0
100
AcDbLine
 62
7
  6
CONTINUOUS
 10
4.8871896695
 20
4.7590629115
 11
5.6746892125
 21
4.7590629115
  0
LINE
  5
292
100
AcDbEntity
  8
0
100
AcDbLine
 62
7
  6
CONTINUOUS
 10
4.868439441
 20
4.7778129115
 11
5.693439441
 21
4.7778129115
  0
LINE
  5
293
100
AcDbEntity
  8
0
100
AcDbLine
 62
7
  6
CONTINUOUS
 10
5.678439441
 20
4.8753129115
 11
5.6934397278
 21
4.8603126247
  0
LINE
  5
294
100
AcDbEntity
  8
0
100
AcDbLine
 62
7
  6
CONTINUOUS
 10
6.2138455095
 20
2.9080046363
 11
6.2022263063
 21
2.9993390365
  0
LINE
  5
295
100
AcDbEntity
  8
0
100
AcDbLine
 62
7
  6
CONTINUOUS
 10
6.3184199407
 20
2.9993390365
 11
6.3108838764
 21
2.908645349
  0
LINE
  5
296
100
AcDbEntity
  8
0
100
AcDbLine
 62
7
  6
CONTINUOUS
 10
4.883439441
 20
5.0928129115
 11
5.678439441
 21
5.0928129115
  0
LINE
  5
297
100
AcDbEntity
  8
0
100
AcDbLine
 62
7
  6
CONTINUOUS
 10
4.8871896695
 20
5.1115629115
 11
5.6746892125
 21
5.1115629115
  0
LINE
  5
298
100
AcDbEntity
  8
0
100
AcDbLine
 62
7
  6
CONTINUOUS
 10
5.674689441
 20
5.1115629115
 11
5.678439441
 21
5.1078129115
  0
LINE
  5
299
100
AcDbEntity
  8
0
100
AcDbLine
 62
7
  6
CONTINUOUS
 10
6.4206953285
 20
2.9244439184
 11
6.4114953079
 21
2.9993390365
  0
LINE
  5
29A
100
AcDbEntity
  8
0
100
AcDbLine
 62
7
  6
CONTINUOUS
 10
6.6083785356
 20
2.9180301128
 11
6.6152496433
 21
2.9993390365
  0
LINE
  5
29B
100
AcDbEntity
  8
0
100
AcDbLine
 62
7
  6
CONTINUOUS
 10
6.5175664901
 20
2.9249568186
 11
6.5240772929
 21
2.9993390365
  0
LINE
  5
29C
100
AcDbEntity
  8
0
100
AcDbLine
 62
7
  6
CONTINUOUS
 10
6.6673425657
 20
2.9993390365
 11
6.6788557065
 21
2.9118880499
  0
LINE
  5
29D
100
AcDbEntity
  8
0
100
AcDbLine
 62
7
  6
CONTINUOUS
 10
6.7758453632
 20
2.9126564616
 11
6.7826674297
 21
2.9993390365
  0
LINE
  5
29E
100
AcDbEntity
  8
0
100
AcDbLine
 62
7
  6
CONTINUOUS
 10
6.9786191313
 20
2.9173206006
 11
6.9676766262
 21
2.9993390365
  0
LINE
  5
29F
100
AcDbEntity
  8
0
100
AcDbLine
 62
7
  6
CONTINUOUS
 10
7.052914794
 20
2.9243079445
 11
7.0429916479
 21
2.9993390365
  0
LINE
  5
2A0
100
AcDbEntity
  8
0
100
AcDbLine
 62
7
  6
CONTINUOUS
 10
7.246837562
 20
2.9993390365
 11
7.2408063919
 21
2.9181798397
  0
LINE
  5
2A1
100
AcDbEntity
  8
0
100
AcDbLine
 62
7
  6
CONTINUOUS
 10
7.1497939514
 20
2.9250935681
 11
7.1555970001
 21
2.9993390365
  0
LINE
  5
2A2
100
AcDbEntity
  8
0
100
AcDbLine
 62
7
  6
CONTINUOUS
 10
7.4655657913
 20
2.9242196134
 11
7.4551689641
 21
2.9993390365
  0
LINE
  5
2A3
100
AcDbEntity
  8
0
100
AcDbLine
 62
7
  6
CONTINUOUS
 10
7.5624520318
 20
2.9251830304
 11
7.5677948612
 21
2.9993390365
  0
LINE
  5
2A4
100
AcDbEntity
  8
0
100
AcDbLine
 62
7
  6
CONTINUOUS
 10
7.598316155
 20
2.9993390365
 11
7.6088776141
 21
2.9241903498
  0
LINE
  5
2A5
100
AcDbEntity
  8
0
100
AcDbLine
 62
7
  6
CONTINUOUS
 10
7.7057668827
 20
2.9252146498
 11
7.7109501648
 21
2.9993390365
  0
LINE
  5
2A6
100
AcDbEntity
  8
0
100
AcDbLine
 62
7
  6
CONTINUOUS
 10
8.618439441
 20
3.5621549548
 11
8.618439441
 21
3.0837164548
  0
ARC
  5
2A7
100
AcDbEntity
  8
0
100
AcDbCircle
 62
7
  6
CONTINUOUS
 10
4.9968472323
 20
-6.8843882885
 40
9.7905340451
100
AcDbArc
 50
89.7426218433
 51
89.990625562
  0
ARC
  5
2A8
100
AcDbEntity
  8
0
100
AcDbCircle
 62
7
  6
CONTINUOUS
 10
3.3636266904
 20
2.4971676851
 40
0.4210122413
100
AcDbArc
 50
89.8031827354
 51
89.9627644025
  0
ARC
  5
2A9
100
AcDbEntity
  8
0
100
AcDbCircle
 62
7
  6
CONTINUOUS
 10
2.003439441
 20
3.5621549548
 40
0.06
100
AcDbArc
 50
90.0
 51
180.0
  0
ARC
  5
2AA
100
AcDbEntity
  8
0
100
AcDbCircle
 62
7
  6
CONTINUOUS
 10
2.003439441
 20
3.0837164548
 40
0.06
100
AcDbArc
 50
180.0
 51
270.0
  0
ARC
  5
2AB
100
AcDbEntity
  8
0
100
AcDbCircle
 62
7
  6
CONTINUOUS
 10
2.183814441
 20
3.0293390365
 40
0.03
100
AcDbArc
 50
190.8022208932
 51
270.0
  0
ARC
  5
2AC
100
AcDbEntity
  8
0
100
AcDbCircle
 62
7
  6
CONTINUOUS
 10
3.4451471436
 20
2.9192735853
 40
0.0147637701
100
AcDbArc
 50
270.0
 51
328.1267103485
  0
ARC
  5
2AD
100
AcDbEntity
  8
0
100
AcDbCircle
 62
7
  6
CONTINUOUS
 10
3.0816834417
 20
2.9262443941
 40
0.0147637699
100
AcDbArc
 50
270.0
 51
352.1200150209
  0
ARC
  5
2AE
100
AcDbEntity
  8
0
100
AcDbCircle
 62
7
  6
CONTINUOUS
 10
3.4943225168
 20
2.9262443817
 40
0.0147637699
100
AcDbArc
 50
270.0
 51
352.4662669891
  0
ARC
  5
2AF
100
AcDbEntity
  8
0
100
AcDbCircle
 62
7
  6
CONTINUOUS
 10
3.3775671851
 20
2.9192735816
 40
0.0147637698
100
AcDbArc
 50
184.2882743019
 51
270.0
  0
ARC
  5
2B0
100
AcDbEntity
  8
0
100
AcDbCircle
 62
7
  6
CONTINUOUS
 10
2.8708406648
 20
2.926244404
 40
0.0147637696
100
AcDbArc
 50
183.9979035147
 51
269.9882437951
  0
ARC
  5
2B1
100
AcDbEntity
  8
0
100
AcDbCircle
 62
7
  6
CONTINUOUS
 10
2.9383802039
 20
2.9262444112
 40
0.0147637696
100
AcDbArc
 50
270.0117807467
 51
352.0016330187
  0
ARC
  5
2B2
100
AcDbEntity
  8
0
100
AcDbCircle
 62
7
  6
CONTINUOUS
 10
3.0141577984
 20
2.9262443899
 40
0.0147637696
100
AcDbArc
 50
184.1208730074
 51
270.0
  0
ARC
  5
2B3
100
AcDbEntity
  8
0
100
AcDbCircle
 62
7
  6
CONTINUOUS
 10
3.4268091221
 20
2.9262443779
 40
0.0147637696
100
AcDbArc
 50
184.4692998471
 51
270.0
  0
ARC
  5
2B4
100
AcDbEntity
  8
0
100
AcDbCircle
 62
7
  6
CONTINUOUS
 10
2.940939441
 20
3.6690299548
 40
0.046875
100
AcDbArc
 50
270.0
 51
281.145011722
  0
ARC
  5
2B5
100
AcDbEntity
  8
0
100
AcDbCircle
 62
7
  6
CONTINUOUS
 10
4.3925696723
 20
2.9098677175
 40
0.0147637702
100
AcDbArc
 50
270.0
 51
352.8251753017
  0
ARC
  5
2B6
100
AcDbEntity
  8
0
100
AcDbCircle
 62
7
  6
CONTINUOUS
 10
4.8240761569
 20
2.9098676992
 40
0.0147637702
100
AcDbArc
 50
270.0
 51
353.3739193396
  0
ARC
  5
2B7
100
AcDbEntity
  8
0
100
AcDbCircle
 62
7
  6
CONTINUOUS
 10
5.0565909328
 20
2.9074323542
 40
0.0147637702
100
AcDbArc
 50
270.0
 51
348.5795010421
  0
ARC
  5
2B8
100
AcDbEntity
  8
0
100
AcDbCircle
 62
7
  6
CONTINUOUS
 10
4.5915605911
 20
2.913814724
 40
0.0147637702
100
AcDbArc
 50
270.0
 51
353.2484416955
  0
ARC
  5
2B9
100
AcDbEntity
  8
0
100
AcDbCircle
 62
7
  6
CONTINUOUS
 10
4.0621563513
 20
2.9138147392
 40
0.0147637702
100
AcDbArc
 50
270.0
 51
350.8996281324
  0
ARC
  5
2BA
100
AcDbEntity
  8
0
100
AcDbCircle
 62
7
  6
CONTINUOUS
 10
4.7983890763
 20
2.9074323831
 40
0.0147637702
100
AcDbArc
 50
270.0030067172
 51
303.3426443861
  0
ARC
  5
2BB
100
AcDbEntity
  8
0
100
AcDbCircle
 62
7
  6
CONTINUOUS
 10
4.7306649069
 20
2.907432386
 40
0.0147637702
100
AcDbArc
 50
184.9998742379
 51
269.9969866645
  0
ARC
  5
2BC
100
AcDbEntity
  8
0
100
AcDbCircle
 62
7
  6
CONTINUOUS
 10
5.1149266953
 20
2.919273554
 40
0.0147637701
100
AcDbArc
 50
270.0
 51
353.8142997295
  0
ARC
  5
2BD
100
AcDbEntity
  8
0
100
AcDbCircle
 62
7
  6
CONTINUOUS
 10
4.3590442356
 20
2.9192735589
 40
0.0147637701
100
AcDbArc
 50
270.0
 51
353.122876009
  0
ARC
  5
2BE
100
AcDbEntity
  8
0
100
AcDbCircle
 62
7
  6
CONTINUOUS
 10
3.7684089848
 20
2.91927357
 40
0.0147637701
100
AcDbArc
 50
270.0
 51
352.5831514687
  0
ARC
  5
2BF
100
AcDbEntity
  8
0
100
AcDbCircle
 62
7
  6
CONTINUOUS
 10
4.988875491
 20
2.9074323409
 40
0.01476377
100
AcDbArc
 50
185.5006853732
 51
270.0
  0
ARC
  5
2C0
100
AcDbEntity
  8
0
100
AcDbCircle
 62
7
  6
CONTINUOUS
 10
4.3248963472
 20
2.9098677146
 40
0.01476377
100
AcDbArc
 50
201.2884975475
 51
270.0
  0
ARC
  5
2C1
100
AcDbEntity
  8
0
100
AcDbCircle
 62
7
  6
CONTINUOUS
 10
4.7564111399
 20
2.9098676899
 40
0.01476377
100
AcDbArc
 50
185.3760694998
 51
270.0
  0
ARC
  5
2C2
100
AcDbEntity
  8
0
100
AcDbCircle
 62
7
  6
CONTINUOUS
 10
4.5239475713
 20
2.9138147154
 40
0.0147637699
100
AcDbArc
 50
185.2515382274
 51
270.0
  0
ARC
  5
2C3
100
AcDbEntity
  8
0
100
AcDbCircle
 62
7
  6
CONTINUOUS
 10
5.2471344667
 20
2.9138147142
 40
0.0147637699
100
AcDbArc
 50
186.0020640475
 51
270.0
  0
ARC
  5
2C4
100
AcDbEntity
  8
0
100
AcDbCircle
 62
7
  6
CONTINUOUS
 10
3.9945349576
 20
2.9138147361
 40
0.0147637699
100
AcDbArc
 50
184.7014073725
 51
270.0
  0
ARC
  5
2C5
100
AcDbEntity
  8
0
100
AcDbCircle
 62
7
  6
CONTINUOUS
 10
3.8007523097
 20
2.9138147574
 40
0.0147637699
100
AcDbArc
 50
184.4987938927
 51
269.9933222748
  0
ARC
  5
2C6
100
AcDbEntity
  8
0
100
AcDbCircle
 62
7
  6
CONTINUOUS
 10
3.8683851138
 20
2.9138147639
 40
0.0147637699
100
AcDbArc
 50
270.0066925636
 51
352.5008033564
  0
ARC
  5
2C7
100
AcDbEntity
  8
0
100
AcDbCircle
 62
7
  6
CONTINUOUS
 10
4.1265270938
 20
2.9262443726
 40
0.0147637699
100
AcDbArc
 50
270.0
 51
352.997221942
  0
ARC
  5
2C8
100
AcDbEntity
  8
0
100
AcDbCircle
 62
7
  6
CONTINUOUS
 10
4.9020439703
 20
2.926244368
 40
0.0147637699
100
AcDbArc
 50
270.0
 51
353.649151855
  0
ARC
  5
2C9
100
AcDbEntity
  8
0
100
AcDbCircle
 62
7
  6
CONTINUOUS
 10
5.0473712597
 20
2.9192735521
 40
0.0147637698
100
AcDbArc
 50
185.8198584297
 51
270.0
  0
ARC
  5
2CA
100
AcDbEntity
  8
0
100
AcDbCircle
 62
7
  6
CONTINUOUS
 10
4.2914847892
 20
2.9192735561
 40
0.0147637698
100
AcDbArc
 50
185.1270911779
 51
270.0
  0
ARC
  5
2CB
100
AcDbEntity
  8
0
100
AcDbCircle
 62
7
  6
CONTINUOUS
 10
3.7008408642
 20
2.9192735665
 40
0.0147637698
100
AcDbArc
 50
184.5850928072
 51
270.0
  0
ARC
  5
2CC
100
AcDbEntity
  8
0
100
AcDbCircle
 62
7
  6
CONTINUOUS
 10
4.0590227932
 20
2.9262443695
 40
0.0147637696
100
AcDbArc
 50
185.002728187
 51
270.0
  0
ARC
  5
2CD
100
AcDbEntity
  8
0
100
AcDbCircle
 62
7
  6
CONTINUOUS
 10
4.8345445124
 20
2.9262443657
 40
0.0147637696
100
AcDbArc
 50
185.6562719802
 51
270.0
  0
ARC
  5
2CE
100
AcDbEntity
  8
0
100
AcDbCircle
 62
7
  6
CONTINUOUS
 10
5.093814441
 20
4.6299670238
 40
0.141
100
AcDbArc
 50
180.0
 51
225.0
  0
ARC
  5
2CF
100
AcDbEntity
  8
0
100
AcDbCircle
 62
7
  6
CONTINUOUS
 10
4.9607907714
 20
4.4787337673
 40
0.06
100
AcDbArc
 50
318.6078718925
 51
45.0
  0
ARC
  5
2D0
100
AcDbEntity
  8
0
100
AcDbCircle
 62
7
  6
CONTINUOUS
 10
4.6292994536
 20
3.9057164548
 40
0.04725
100
AcDbArc
 50
90.0
 51
101.145011722
  0
ARC
  5
2D1
100
AcDbEntity
  8
0
100
AcDbCircle
 62
7
  6
CONTINUOUS
 10
6.0724024912
 20
-3.0442712998
 40
5.9529171658
100
AcDbArc
 50
90.0238710943
 51
90.1988561438
  0
ARC
  5
2D2
100
AcDbEntity
  8
0
100
AcDbCircle
 62
7
  6
CONTINUOUS
 10
6.0665632774
 20
2.9098677092
 40
0.0147637702
100
AcDbArc
 50
270.0
 51
354.956993737
  0
ARC
  5
2D3
100
AcDbEntity
  8
0
100
AcDbCircle
 62
7
  6
CONTINUOUS
 10
5.4851878637
 20
2.9098676958
 40
0.0147637702
100
AcDbArc
 50
270.0
 51
354.2156674603
  0
ARC
  5
2D4
100
AcDbEntity
  8
0
100
AcDbCircle
 62
7
  6
CONTINUOUS
 10
5.5730033824
 20
2.9074323557
 40
0.0147637702
100
AcDbArc
 50
270.0
 51
354.4993144082
  0
ARC
  5
2D5
100
AcDbEntity
  8
0
100
AcDbCircle
 62
7
  6
CONTINUOUS
 10
6.0379313015
 20
2.9138147251
 40
0.0147637702
100
AcDbArc
 50
270.0
 51
354.7484613806
  0
ARC
  5
2D6
100
AcDbEntity
  8
0
100
AcDbCircle
 62
7
  6
CONTINUOUS
 10
6.5673439084
 20
2.9138147411
 40
0.0147637702
100
AcDbArc
 50
270.0
 51
320.9126096404
  0
ARC
  5
2D7
100
AcDbEntity
  8
0
100
AcDbCircle
 62
7
  6
CONTINUOUS
 10
5.3147444151
 20
2.9138147188
 40
0.0147637702
100
AcDbArc
 50
270.0
 51
353.997935417
  0
ARC
  5
2D8
100
AcDbEntity
  8
0
100
AcDbCircle
 62
7
  6
CONTINUOUS
 10
6.6934937489
 20
2.9138147607
 40
0.0147637702
100
AcDbArc
 50
187.4983680706
 51
269.9933175629
  0
ARC
  5
2D9
100
AcDbEntity
  8
0
100
AcDbCircle
 62
7
  6
CONTINUOUS
 10
6.761126553
 20
2.9138147629
 40
0.0147637702
100
AcDbArc
 50
270.0066901424
 51
355.5003621334
  0
ARC
  5
2DA
100
AcDbEntity
  8
0
100
AcDbCircle
 62
7
  6
CONTINUOUS
 10
6.5936637555
 20
2.9192735651
 40
0.0147637701
100
AcDbArc
 50
270.0
 51
355.1694821437
  0
ARC
  5
2DB
100
AcDbEntity
  8
0
100
AcDbCircle
 62
7
  6
CONTINUOUS
 10
5.9053574196
 20
2.9192735562
 40
0.0147637701
100
AcDbArc
 50
270.0
 51
354.5382334679
  0
ARC
  5
2DC
100
AcDbEntity
  8
0
100
AcDbCircle
 62
7
  6
CONTINUOUS
 10
5.5052879567
 20
2.9074323534
 40
0.01476377
100
AcDbArc
 50
219.7810824885
 51
270.0
  0
ARC
  5
2DD
100
AcDbEntity
  8
0
100
AcDbCircle
 62
7
  6
CONTINUOUS
 10
5.8312139913
 20
2.9074323664
 40
0.01476377
100
AcDbArc
 50
270.0029883302
 51
348.579454355
  0
ARC
  5
2DE
100
AcDbEntity
  8
0
100
AcDbCircle
 62
7
  6
CONTINUOUS
 10
5.7634898224
 20
2.9074323915
 40
0.01476377
100
AcDbArc
 50
186.9997497516
 51
269.9969675134
  0
ARC
  5
2DF
100
AcDbEntity
  8
0
100
AcDbCircle
 62
7
  6
CONTINUOUS
 10
5.9988947457
 20
2.9098677113
 40
0.01476377
100
AcDbArc
 50
227.117128801
 51
270.0
  0
ARC
  5
2E0
100
AcDbEntity
  8
0
100
AcDbCircle
 62
7
  6
CONTINUOUS
 10
5.4175247394
 20
2.9098676932
 40
0.01476377
100
AcDbArc
 50
186.2184478727
 51
270.0
  0
ARC
  5
2E1
100
AcDbEntity
  8
0
100
AcDbCircle
 62
7
  6
CONTINUOUS
 10
6.2961703972
 20
2.9098677149
 40
0.01476377
100
AcDbArc
 50
270.0046283382
 51
355.2508902608
  0
ARC
  5
2E2
100
AcDbEntity
  8
0
100
AcDbCircle
 62
7
  6
CONTINUOUS
 10
6.2284916736
 20
2.9098677371
 40
0.01476377
100
AcDbArc
 50
187.2495216698
 51
269.995330153
  0
ARC
  5
2E3
100
AcDbEntity
  8
0
100
AcDbCircle
 62
7
  6
CONTINUOUS
 10
5.9703182996
 20
2.9138147246
 40
0.0147637699
100
AcDbArc
 50
186.7515578934
 51
270.0
  0
ARC
  5
2E4
100
AcDbEntity
  8
0
100
AcDbCircle
 62
7
  6
CONTINUOUS
 10
6.4997225462
 20
2.9138147439
 40
0.0147637699
100
AcDbArc
 50
189.1004464018
 51
270.0
  0
ARC
  5
2E5
100
AcDbEntity
  8
0
100
AcDbCircle
 62
7
  6
CONTINUOUS
 10
5.7273343656
 20
2.9262443682
 40
0.0147637699
100
AcDbArc
 50
270.0
 51
354.3437272064
  0
ARC
  5
2E6
100
AcDbEntity
  8
0
100
AcDbCircle
 62
7
  6
CONTINUOUS
 10
6.5028560781
 20
2.9262443735
 40
0.0147637699
100
AcDbArc
 50
270.0
 51
354.9972711896
  0
ARC
  5
2E7
100
AcDbEntity
  8
0
100
AcDbCircle
 62
7
  6
CONTINUOUS
 10
6.5261005036
 20
2.9192735652
 40
0.0147637698
100
AcDbArc
 50
198.0095946362
 51
270.0
  0
ARC
  5
2E8
100
AcDbEntity
  8
0
100
AcDbCircle
 62
7
  6
CONTINUOUS
 10
5.8378006379
 20
2.9192735554
 40
0.0147637698
100
AcDbArc
 50
186.5433169673
 51
270.0
  0
ARC
  5
2E9
100
AcDbEntity
  8
0
100
AcDbCircle
 62
7
  6
CONTINUOUS
 10
5.6598349149
 20
2.9262443669
 40
0.0147637696
100
AcDbArc
 50
186.3508473253
 51
270.0
  0
ARC
  5
2EA
100
AcDbEntity
  8
0
100
AcDbCircle
 62
7
  6
CONTINUOUS
 10
6.4353517982
 20
2.9262443731
 40
0.0147637696
100
AcDbArc
 50
187.0027774188
 51
270.0
  0
ARC
  5
2EB
100
AcDbEntity
  8
0
100
AcDbCircle
 62
7
  6
CONTINUOUS
 10
5.280939441
 20
4.1965629115
 40
0.36675
100
AcDbArc
 50
318.3787879096
 51
319.6180638463
  0
ARC
  5
2EC
100
AcDbEntity
  8
0
100
AcDbCircle
 62
7
  6
CONTINUOUS
 10
5.280939441
 20
4.1965629115
 40
0.36675
100
AcDbArc
 50
220.3819361537
 51
221.6212120904
  0
ARC
  5
2ED
100
AcDbEntity
  8
0
100
AcDbCircle
 62
7
  6
CONTINUOUS
 10
5.468064441
 20
4.6299670238
 40
0.141
100
AcDbArc
 50
315.0
 51
360.0
  0
ARC
  5
2EE
100
AcDbEntity
  8
0
100
AcDbCircle
 62
7
  6
CONTINUOUS
 10
5.6010881106
 20
4.4787337673
 40
0.06
100
AcDbArc
 50
135.0
 51
221.3921281075
  0
ARC
  5
2EF
100
AcDbEntity
  8
0
100
AcDbCircle
 62
7
  6
CONTINUOUS
 10
5.9325794284
 20
3.9057164548
 40
0.04725
100
AcDbArc
 50
78.854988278
 51
90.0
  0
ARC
  5
2F0
100
AcDbEntity
  8
0
100
AcDbCircle
 62
7
  6
CONTINUOUS
 10
8.558439441
 20
3.5621549548
 40
0.06
100
AcDbArc
 50
0.0
 51
90.0
  0
ARC
  5
2F1
100
AcDbEntity
  8
0
100
AcDbCircle
 62
7
  6
CONTINUOUS
 10
8.558439441
 20
3.0837164548
 40
0.06
100
AcDbArc
 50
270.0
 51
360.0
  0
ARC
  5
2F2
100
AcDbEntity
  8
0
100
AcDbCircle
 62
7
  6
CONTINUOUS
 10
7.620939441
 20
3.6690299548
 40
0.046875
100
AcDbArc
 50
258.854988278
 51
270.0
  0
ARC
  5
2F3
100
AcDbEntity
  8
0
100
AcDbCircle
 62
7
  6
CONTINUOUS
 10
8.378064441
 20
3.0293390365
 40
0.03
100
AcDbArc
 50
270.0
 51
349.1977791068
  0
ARC
  5
2F4
100
AcDbEntity
  8
0
100
AcDbCircle
 62
7
  6
CONTINUOUS
 10
7.0608312844
 20
2.9192735791
 40
0.0147637701
100
AcDbArc
 50
270.0
 51
328.1267385358
  0
ARC
  5
2F5
100
AcDbEntity
  8
0
100
AcDbCircle
 62
7
  6
CONTINUOUS
 10
7.6234986542
 20
2.9262444084
 40
0.0147637699
100
AcDbArc
 50
187.9969465492
 51
269.9882374645
  0
ARC
  5
2F6
100
AcDbEntity
  8
0
100
AcDbCircle
 62
7
  6
CONTINUOUS
 10
7.6910381934
 20
2.92624441
 40
0.0147637699
100
AcDbArc
 50
270.0117775891
 51
356.0006578407
  0
ARC
  5
2F7
100
AcDbEntity
  8
0
100
AcDbCircle
 62
7
  6
CONTINUOUS
 10
7.1350697438
 20
2.926244383
 40
0.0147637699
100
AcDbArc
 50
270.0
 51
355.5306998134
  0
ARC
  5
2F8
100
AcDbEntity
  8
0
100
AcDbCircle
 62
7
  6
CONTINUOUS
 10
7.547721064
 20
2.9262443957
 40
0.0147637699
100
AcDbArc
 50
270.0
 51
355.8791268993
  0
ARC
  5
2F9
100
AcDbEntity
  8
0
100
AcDbCircle
 62
7
  6
CONTINUOUS
 10
6.9932575568
 20
2.9192735798
 40
0.0147637698
100
AcDbArc
 50
187.5992864892
 51
270.0
  0
ARC
  5
2FA
100
AcDbEntity
  8
0
100
AcDbCircle
 62
7
  6
CONTINUOUS
 10
7.2260825141
 20
2.9192735899
 40
0.0147637698
100
AcDbArc
 50
270.0090326275
 51
355.75163645
  0
ARC
  5
2FB
100
AcDbEntity
  8
0
100
AcDbCircle
 62
7
  6
CONTINUOUS
 10
7.1584961028
 20
2.9192735968
 40
0.0147637698
100
AcDbArc
 50
197.5519913608
 51
269.9909485564
  0
ARC
  5
2FC
100
AcDbEntity
  8
0
100
AcDbCircle
 62
7
  6
CONTINUOUS
 10
7.0675563808
 20
2.9262443834
 40
0.0147637696
100
AcDbArc
 50
187.5337326551
 51
270.0
  0
ARC
  5
2FD
100
AcDbEntity
  8
0
100
AcDbCircle
 62
7
  6
CONTINUOUS
 10
7.4801954596
 20
2.9262443967
 40
0.0147637696
100
AcDbArc
 50
187.8799848757
 51
270.0
  0
SPLINE
  5
2FE
100
AcDbEntity
  8
0
100
AcDbSpline
 62
7
  6
CONTINUOUS
 70
0
 71
3
 72
37
 73
33
 74
0
 42
0.0000001
 43
0.0000001
 44
0.0000000001
 40
0.0
 40
0.0
 40
0.0
 40
0.0
 40
0.0001068234
 40
0.00033145
 40
0.0006933123
 40
0.0011961233
 40
0.0026287491
 40
0.0046332622
 40
0.0072104842
 40
0.0103603128
 40
0.0140812033
 40
0.018371069
 40
0.023227754
 40
0.0286490627
 40
0.0411766337
 40
0.0559321961
 40
0.0728851181
 40
0.0920033748
 40
0.1132532969
 40
0.1365924768
 40
0.1619755467
 40
0.1893566191
 40
0.2186829857
 40
0.282941022
 40
0.35426377
 40
0.4321056173
 40
0.5158748918
 40
0.6049363954
 40
0.6986019147
 40
0.7961657488
 40
0.8969119163
 40
1.0
 40
1.0
 40
1.0
 40
1.0
 10
5.4998767448
 20
2.9083797213
 30
0.0
 10
5.4998768836
 20
2.9083811422
 30
0.0
 10
5.4998726755
 20
2.9083846511
 30
0.0
 10
5.4998643132
 20
2.9083871032
 30
0.0
 10
5.4998498836
 20
2.9083906574
 30
0.0
 10
5.499819711
 20
2.9083954584
 30
0.0
 10
5.4997672454
 20
2.9084013537
 30
0.0
 10
5.4996871786
 20
2.908407839
 30
0.0
 10
5.4995840297
 20
2.9084144275
 30
0.0
 10
5.4994579351
 20
2.9084210045
 30
0.0
 10
5.4993089138
 20
2.908427573
 30
0.0
 10
5.4991370639
 20
2.9084341099
 30
0.0
 10
5.4989424712
 20
2.9084406098
 30
0.0
 10
5.4986378071
 20
2.9084496566
 30
0.0
 10
5.4982008447
 20
2.9084606023
 30
0.0
 10
5.4976097556
 20
2.9084729889
 30
0.0
 10
5.4969305602
 20
2.9084851313
 30
0.0
 10
5.4961645511
 20
2.9084969985
 30
0.0
 10
5.4953131757
 20
2.908508555
 30
0.0
 10
5.4943780598
 20
2.9085197777
 30
0.0
 10
5.4933609913
 20
2.9085306415
 30
0.0
 10
5.4922638957
 20
2.9085411216
 30
0.0
 10
5.4906472429
 20
2.9085549807
 30
0.0
 10
5.4884433043
 20
2.9085709774
 30
0.0
 10
5.485590945
 20
2.9085878309
 30
0.0
 10
5.4824778025
 20
2.9086027275
 30
0.0
 10
5.4791275694
 20
2.9086155514
 30
0.0
 10
5.4755658432
 20
2.9086262125
 30
0.0
 10
5.4718197452
 20
2.9086345749
 30
0.0
 10
5.4679174762
 20
2.9086405626
 30
0.0
 10
5.4638892713
 20
2.9086443867
 30
0.0
 10
5.4611650121
 20
2.9086453364
 30
0.0
 10
5.4597872326
 20
2.9086453491
 30
0.0
  0
SPLINE
  5
2FF
100
AcDbEntity
  8
0
100
AcDbSpline
 62
7
  6
CONTINUOUS
 70
0
 71
3
 72
36
 73
32
 74
0
 42
0.0000001
 43
0.0000001
 44
0.0000000001
 40
0.0
 40
0.0
 40
0.0
 40
0.0
 40
0.195178805
 40
0.2904044238
 40
0.3828346648
 40
0.4715740222
 40
0.5557648992
 40
0.6345966684
 40
0.7073091182
 40
0.7732030006
 40
0.8033908645
 40
0.8316425856
 40
0.8578878531
 40
0.8820644026
 40
0.9041154415
 40
0.923985338
 40
0.9416278331
 40
0.9570016664
 40
0.9700672628
 40
0.9757251341
 40
0.9807956128
 40
0.9852756589
 40
0.9891622815
 40
0.992452787
 40
0.9951459875
 40
0.9972415622
 40
0.9987400753
 40
0.9992664679
 40
0.9996459081
 40
0.9998828597
 40
1.0
 40
1.0
 40
1.0
 40
1.0
 10
5.2809394091
 20
2.9126566739
 30
0.0
 10
5.2777842305
 20
2.9126566392
 30
0.0
 10
5.2730896739
 20
2.9126524388
 30
0.0
 10
5.266900941
 20
2.9126403077
 30
0.0
 10
5.2624328694
 20
2.9126275851
 30
0.0
 10
5.2581431929
 20
2.9126115059
 30
0.0
 10
5.2540733591
 20
2.9125922245
 30
0.0
 10
5.2502626289
 20
2.9125699102
 30
0.0
 10
5.2467477045
 20
2.9125447992
 30
0.0
 10
5.2440191495
 20
2.9125211349
 30
0.0
 10
5.24200933
 20
2.9125007394
 30
0.0
 10
5.2406404364
 20
2.9124853534
 30
0.0
 10
5.2393687319
 20
2.9124694655
 30
0.0
 10
5.2381972797
 20
2.9124531169
 30
0.0
 10
5.2371289064
 20
2.9124363556
 30
0.0
 10
5.2361661806
 20
2.912419223
 30
0.0
 10
5.2353114208
 20
2.9124017755
 30
0.0
 10
5.2345666887
 20
2.9123840685
 30
0.0
 10
5.2340157025
 20
2.9123685072
 30
0.0
 10
5.233631272
 20
2.9123557061
 30
0.0
 10
5.2333855895
 20
2.9123465342
 30
0.0
 10
5.2331685647
 20
2.9123373376
 30
0.0
 10
5.2329803405
 20
2.9123281262
 30
0.0
 10
5.2328210514
 20
2.9123189289
 30
0.0
 10
5.2326907408
 20
2.9123097509
 30
0.0
 10
5.2325895528
 20
2.912300735
 30
0.0
 10
5.2325232999
 20
2.9122925914
 30
0.0
 10
5.2324851461
 20
2.912285942
 30
0.0
 10
5.2324670083
 20
2.9122810791
 30
0.0
 10
5.2324562444
 20
2.9122776124
 30
0.0
 10
5.2324511874
 20
2.9122728086
 30
0.0
 10
5.2324513857
 20
2.9122709253
 30
0.0
  0
LINE
  5
300
100
AcDbEntity
  8
0
100
AcDbLine
 62
7
  6
CONTINUOUS
 10
4.5334865085
 20
2.9126566739
 11
4.5092441844
 21
2.9124633019
  0
SPLINE
  5
301
100
AcDbEntity
  8
0
100
AcDbSpline
 62
7
  6
CONTINUOUS
 70
0
 71
3
 72
17
 73
13
 74
0
 42
0.0000001
 43
0.0000001
 44
0.0000000001
 40
0.0
 40
0.0
 40
0.0
 40
0.0
 40
0.0589340288
 40
0.1230980297
 40
0.2632927191
 40
0.4124591697
 40
0.5619500748
 40
0.7031036025
 40
0.8277455735
 40
0.928658619
 40
0.9683272859
 40
1.0
 40
1.0
 40
1.0
 40
1.0
 10
6.5923463594
 20
2.9181798397
 30
0.0
 10
6.590822713
 20
2.9181798107
 30
0.0
 10
6.5876402077
 20
2.9181767111
 30
0.0
 10
6.5808332027
 20
2.9181629743
 30
0.0
 10
6.5716934213
 20
2.9181298106
 30
0.0
 10
6.5603477504
 20
2.9180692826
 30
0.0
 10
6.5489774036
 20
2.9179902115
 30
0.0
 10
6.5382412225
 20
2.9178973848
 30
0.0
 10
6.5287610871
 20
2.9177961915
 30
0.0
 10
6.5219047331
 20
2.9177050309
 30
0.0
 10
6.5174520067
 20
2.9176293077
 30
0.0
 10
6.5156079647
 20
2.9175916059
 30
0.0
 10
6.5147893472
 20
2.9175721768
 30
0.0
  0
LINE
  5
302
100
AcDbEntity
  8
0
100
AcDbLine
 62
7
  6
CONTINUOUS
 10
4.054321004
 20
2.9122548828
 11
3.9863129798
 21
2.9126566741
  0
LINE
  5
303
100
AcDbEntity
  8
0
100
AcDbLine
 62
7
  6
CONTINUOUS
 10
6.0812720126
 20
2.9085697462
 11
6.0699223322
 21
2.9086453495
  0
SPLINE
  5
304
100
AcDbEntity
  8
0
100
AcDbSpline
 62
7
  6
CONTINUOUS
 70
0
 71
3
 72
45
 73
41
 74
0
 42
0.0000001
 43
0.0000001
 44
0.0000000001
 40
0.0
 40
0.0
 40
0.0
 40
0.0
 40
0.0737340614
 40
0.152965917
 40
0.2362113057
 40
0.3219113285
 40
0.4084615326
 40
0.4942419461
 40
0.5776472816
 40
0.6571168314
 40
0.6949076142
 40
0.7311635112
 40
0.7657157968
 40
0.7984015387
 40
0.8290685301
 40
0.8575722661
 40
0.8837797205
 40
0.9075676901
 40
0.9288246791
 40
0.9474512518
 40
0.9557498201
 40
0.9633594386
 40
0.9702709889
 40
0.9764755037
 40
0.9819659632
 40
0.9867367181
 40
0.9907821591
 40
0.992531141
 40
0.9940967614
 40
0.9954786798
 40
0.9966766525
 40
0.9976904478
 40
0.998519856
 40
0.9991647155
 40
0.9994179246
 40
0.9996250074
 40
0.999786035
 40
0.9999012039
 40
0.9999711643
 40
1.0
 40
1.0
 40
1.0
 40
1.0
 10
7.0552415689
 20
2.9181168263
 30
0.0
 10
7.0533582213
 20
2.9181059252
 30
0.0
 10
7.049451108
 20
2.9180817473
 30
0.0
 10
7.043417735
 20
2.9180405307
 30
0.0
 10
7.03707875
 20
2.9179936012
 30
0.0
 10
7.0305528652
 20
2.9179418253
 30
0.0
 10
7.0239622581
 20
2.9178861683
 30
0.0
 10
7.0174302909
 20
2.9178276683
 30
0.0
 10
7.0110792077
 20
2.917767419
 30
0.0
 10
7.0059538906
 20
2.91771587
 30
0.0
 10
7.0020328644
 20
2.9176745047
 30
0.0
 10
6.9992591005
 20
2.9176442696
 30
0.0
 10
6.9966157373
 20
2.9176144457
 30
0.0
 10
6.9941151339
 20
2.9175851717
 30
0.0
 10
6.9917690306
 20
2.9175565883
 30
0.0
 10
6.9895884038
 20
2.9175288309
 30
0.0
 10
6.9875834892
 20
2.9175020337
 30
0.0
 10
6.9857636798
 20
2.9174763286
 30
0.0
 10
6.9841375106
 20
2.9174518407
 30
0.0
 10
6.9829069627
 20
2.917431863
 30
0.0
 10
6.9820249804
 20
2.9174164586
 30
0.0
 10
6.9814421976
 20
2.9174057304
 30
0.0
 10
6.9809129051
 20
2.9173953915
 30
0.0
 10
6.9804377448
 20
2.9173854549
 30
0.0
 10
6.9800172704
 20
2.9173759369
 30
0.0
 10
6.97965195
 20
2.9173668518
 30
0.0
 10
6.979382189
 20
2.917359342
 30
0.0
 10
6.9791942837
 20
2.9173534744
 30
0.0
 10
6.9790743901
 20
2.9173494053
 30
0.0
 10
6.978968575
 20
2.9173454545
 30
0.0
 10
6.9788768625
 20
2.9173416258
 30
0.0
 10
6.9787992667
 20
2.9173379256
 30
0.0
 10
6.9787358216
 20
2.917334364
 30
0.0
 10
6.9786917805
 20
2.9173313274
 30
0.0
 10
6.9786636845
 20
2.9173288878
 30
0.0
 10
6.9786478431
 20
2.9173272071
 30
0.0
 10
6.9786357448
 20
2.9173256919
 30
0.0
 10
6.9786267033
 20
2.9173239795
 30
0.0
 10
6.9786220042
 20
2.9173229148
 30
0.0
 10
6.9786190385
 20
2.9173213254
 30
0.0
 10
6.9786191407
 20
2.917320596
 30
0.0
  0
LINE
  5
305
100
AcDbEntity
  8
0
100
AcDbLine
 62
7
  6
CONTINUOUS
 10
6.5130886799
 20
2.9123048513
 11
6.507557828
 21
2.9122548784
  0
SPLINE
  5
306
100
AcDbEntity
  8
0
100
AcDbSpline
 62
7
  6
CONTINUOUS
 70
0
 71
3
 72
40
 73
36
 74
0
 42
0.0000001
 43
0.0000001
 44
0.0000000001
 40
0.0
 40
0.0
 40
0.0
 40
0.0
 40
0.0001276738
 40
0.0002454484
 40
0.0004047377
 40
0.0008522982
 40
0.0014749201
 40
0.0022739598
 40
0.0032499986
 40
0.0057333586
 40
0.0089231237
 40
0.01281605
 40
0.0174085903
 40
0.0226968744
 40
0.0286750534
 40
0.0353361004
 40
0.042672946
 40
0.0506784845
 40
0.0686607901
 40
0.0892038024
 40
0.1122221475
 40
0.13761503
 40
0.1652757971
 40
0.1950845195
 40
0.2269146592
 40
0.2606294655
 40
0.3331287435
 40
0.4113420086
 40
0.4939307143
 40
0.5794810769
 40
0.6665276805
 40
0.7535801617
 40
0.839144296
 40
0.9217587517
 40
1.0
 40
1.0
 40
1.0
 40
1.0
 10
4.1411835273
 20
2.9244440408
 30
0.0
 10
4.1411838447
 20
2.9244471172
 30
0.0
 10
4.141177785
 20
2.9244518245
 30
0.0
 10
4.1411693157
 20
2.9244554344
 30
0.0
 10
4.1411523374
 20
2.9244610326
 30
0.0
 10
4.1411233692
 20
2.9244671992
 30
0.0
 10
4.1410785859
 20
2.9244745291
 30
0.0
 10
4.1410209963
 20
2.924481875
 30
0.0
 10
4.1409183967
 20
2.9244927758
 30
0.0
 10
4.1407578599
 20
2.9245059619
 30
0.0
 10
4.1405266279
 20
2.9245212402
 30
0.0
 10
4.1402442304
 20
2.9245367842
 30
0.0
 10
4.1399109459
 20
2.9245525826
 30
0.0
 10
4.1395271078
 20
2.924568575
 30
0.0
 10
4.1390931305
 20
2.9245847395
 30
0.0
 10
4.1386095029
 20
2.9246010491
 30
0.0
 10
4.1380767432
 20
2.9246174826
 30
0.0
 10
4.1372698092
 20
2.9246404266
 30
0.0
 10
4.1361430004
 20
2.9246689295
 30
0.0
 10
4.1346525319
 20
2.9247021772
 30
0.0
 10
4.1329825105
 20
2.9247354729
 30
0.0
 10
4.1311400357
 20
2.9247686758
 30
0.0
 10
4.1291330418
 20
2.9248016214
 30
0.0
 10
4.126970086
 20
2.9248341698
 30
0.0
 10
4.1246604537
 20
2.9248661723
 30
0.0
 10
4.1213167347
 20
2.9249089723
 30
0.0
 10
4.1168494399
 20
2.9249596968
 30
0.0
 10
4.1111982036
 20
2.9250149802
 30
0.0
 10
4.1052307568
 20
2.9250650646
 30
0.0
 10
4.0990492775
 20
2.9251090909
 30
0.0
 10
4.0927596205
 20
2.9251462605
 30
0.0
 10
4.0864695905
 20
2.9251759951
 30
0.0
 10
4.0802868925
 20
2.9251977145
 30
0.0
 10
4.0743176156
 20
2.9252108986
 30
0.0
 10
4.0704210367
 20
2.9252149759
 30
0.0
 10
4.0685257155
 20
2.9252150145
 30
0.0
  0
SPLINE
  5
307
100
AcDbEntity
  8
0
100
AcDbSpline
 62
7
  6
CONTINUOUS
 70
0
 71
3
 72
40
 73
36
 74
0
 42
0.0000001
 43
0.0000001
 44
0.0000000001
 40
0.0
 40
0.0
 40
0.0
 40
0.0
 40
0.078234223
 40
0.1608407046
 40
0.2463963493
 40
0.3334412937
 40
0.4204820404
 40
0.5060289703
 40
0.5886170531
 40
0.6668326289
 40
0.7393370082
 40
0.7730553012
 40
0.8048894889
 40
0.8347027346
 40
0.8623684494
 40
0.8877666107
 40
0.9107905027
 40
0.9313392373
 40
0.9493273471
 40
0.9573357892
 40
0.9646755023
 40
0.9713393632
 40
0.9773202792
 40
0.9826111868
 40
0.9872061613
 40
0.9911012411
 40
0.9942927333
 40
0.995623531
 40
0.9967771389
 40
0.9977532344
 40
0.9985518434
 40
0.9991732624
 40
0.9996182281
 40
0.9998890619
 40
1.0
 40
1.0
 40
1.0
 40
1.0
 10
6.0283923187
 20
2.9126566739
 30
0.0
 10
6.0264952639
 20
2.9126566499
 30
0.0
 10
6.0225951339
 20
2.9126537217
 30
0.0
 10
6.0166204238
 20
2.9126438335
 30
0.0
 10
6.0104320807
 20
2.9126275761
 30
0.0
 10
6.0041362319
 20
2.9126053144
 30
0.0
 10
5.9978406165
 20
2.9125774709
 30
0.0
 10
5.9916530993
 20
2.9125444866
 30
0.0
 10
5.9856796082
 20
2.912506954
 30
0.0
 10
5.9800224119
 20
2.9124655177
 30
0.0
 10
5.9755502395
 20
2.9124274921
 30
0.0
 10
5.9722027348
 20
2.9123954036
 30
0.0
 10
5.9698903926
 20
2.9123714084
 30
0.0
 10
5.9677248287
 20
2.9123470026
 30
0.0
 10
5.9657153424
 20
2.9123222977
 30
0.0
 10
5.9638705032
 20
2.9122973987
 30
0.0
 10
5.9621982575
 20
2.9122724293
 30
0.0
 10
5.9607057155
 20
2.9122474952
 30
0.0
 10
5.9595772676
 20
2.9122261192
 30
0.0
 10
5.9587690993
 20
2.912208912
 30
0.0
 10
5.958235485
 20
2.9121965872
 30
0.0
 10
5.9577510471
 20
2.912184355
 30
0.0
 10
5.9573163037
 20
2.9121722323
 30
0.0
 10
5.9569317457
 20
2.9121602366
 30
0.0
 10
5.9565977869
 20
2.9121483921
 30
0.0
 10
5.95631477
 20
2.912136722
 30
0.0
 10
5.956110898
 20
2.9121266744
 30
0.0
 10
5.955973519
 20
2.9121185216
 30
0.0
 10
5.9558897717
 20
2.9121128242
 30
0.0
 10
5.9558190649
 20
2.9121072402
 30
0.0
 10
5.9557610034
 20
2.9121016084
 30
0.0
 10
5.9557166637
 20
2.9120964378
 30
0.0
 10
5.9556833625
 20
2.9120906558
 30
0.0
 10
5.9556662029
 20
2.9120868284
 30
0.0
 10
5.9556550526
 20
2.9120815051
 30
0.0
 10
5.9556553265
 20
2.912078829
 30
0.0
  0
LINE
  5
308
100
AcDbEntity
  8
0
100
AcDbLine
 62
7
  6
CONTINUOUS
 10
4.4072198804
 20
2.9080235074
 11
4.3689917729
 21
2.9083675129
  0
SPLINE
  5
309
100
AcDbEntity
  8
0
100
AcDbSpline
 62
7
  6
CONTINUOUS
 70
0
 71
3
 72
40
 73
36
 74
0
 42
0.0000001
 43
0.0000001
 44
0.0000000001
 40
0.0
 40
0.0
 40
0.0
 40
0.0
 40
0.0001109368
 40
0.0003817682
 40
0.0008267313
 40
0.0014481476
 40
0.0022467537
 40
0.003222846
 40
0.0043764509
 40
0.0057072461
 40
0.0088987347
 40
0.0127938116
 40
0.0173887829
 40
0.0226796871
 40
0.0286606016
 40
0.035324462
 40
0.0426641749
 40
0.050672616
 40
0.0686607282
 40
0.0892094667
 40
0.1122333646
 40
0.1376315344
 40
0.165297258
 40
0.1951105155
 40
0.2269447144
 40
0.2606630212
 40
0.3331674283
 40
0.4113830319
 40
0.4939711388
 40
0.579518088
 40
0.6665588449
 40
0.7536037881
 40
0.8391594273
 40
0.9217658541
 40
1.0
 40
1.0
 40
1.0
 40
1.0
 10
4.6062235556
 20
2.9120788294
 30
0.0
 10
4.6062238296
 20
2.9120815055
 30
0.0
 10
4.6062126795
 20
2.9120868291
 30
0.0
 10
4.60619552
 20
2.9120906564
 30
0.0
 10
4.606162219
 20
2.9120964386
 30
0.0
 10
4.6061178795
 20
2.9121016093
 30
0.0
 10
4.6060598181
 20
2.9121072412
 30
0.0
 10
4.6059891115
 20
2.9121128253
 30
0.0
 10
4.6059053644
 20
2.9121185228
 30
0.0
 10
4.6057679855
 20
2.9121266759
 30
0.0
 10
4.6055641136
 20
2.9121367236
 30
0.0
 10
4.6052810967
 20
2.912148394
 30
0.0
 10
4.6049471379
 20
2.9121602388
 30
0.0
 10
4.6045625799
 20
2.9121722348
 30
0.0
 10
4.6041278362
 20
2.9121843578
 30
0.0
 10
4.603643398
 20
2.9121965902
 30
0.0
 10
4.6031097834
 20
2.9122089153
 30
0.0
 10
4.6023016144
 20
2.9122261228
 30
0.0
 10
4.6011731656
 20
2.9122474993
 30
0.0
 10
4.5996806221
 20
2.912272434
 30
0.0
 10
4.5980083747
 20
2.912297404
 30
0.0
 10
4.5961635335
 20
2.9123223035
 30
0.0
 10
4.594154045
 20
2.912347009
 30
0.0
 10
4.5919884787
 20
2.9123714153
 30
0.0
 10
4.5896761339
 20
2.9123954111
 30
0.0
 10
4.5863286254
 20
2.9124275003
 30
0.0
 10
4.5818564479
 20
2.9124655268
 30
0.0
 10
4.5761992453
 20
2.9125069639
 30
0.0
 10
4.570225748
 20
2.9125444974
 30
0.0
 10
4.5640382248
 20
2.9125774822
 30
0.0
 10
4.557742604
 20
2.9126053267
 30
0.0
 10
4.5514467503
 20
2.9126275881
 30
0.0
 10
4.5452584039
 20
2.912643846
 30
0.0
 10
4.5392836926
 20
2.9126537388
 30
0.0
 10
4.5353835629
 20
2.9126566498
 30
0.0
 10
4.5334865085
 20
2.9126566739
 30
0.0
  0
LINE
  5
30A
100
AcDbEntity
  8
0
100
AcDbLine
 62
7
  6
CONTINUOUS
 10
3.4234138473
 20
2.9252150152
 11
3.4120849414
 21
2.9250935411
  0
SPLINE
  5
30B
100
AcDbEntity
  8
0
100
AcDbSpline
 62
7
  6
CONTINUOUS
 70
0
 71
3
 72
37
 73
33
 74
0
 42
0.0000001
 43
0.0000001
 44
0.0000000001
 40
0.0
 40
0.0
 40
0.0
 40
0.0
 40
0.0001381883
 40
0.0002489622
 40
0.0003945699
 40
0.0007970706
 40
0.0013528524
 40
0.002931247
 40
0.0051359312
 40
0.0079675009
 40
0.0114252524
 40
0.0155079108
 40
0.0202127164
 40
0.0255357181
 40
0.0314728578
 40
0.0451730805
 40
0.061275416
 40
0.0797296029
 40
0.1004829462
 40
0.1234736949
 40
0.1486321092
 40
0.175885961
 40
0.205152227
 40
0.2363444782
 40
0.3041318681
 40
0.3784421865
 40
0.4583912302
 40
0.5430277031
 40
0.631345338
 40
0.7222937138
 40
0.8147819032
 40
1.0
 40
1.0
 40
1.0
 40
1.0
 10
4.9167178319
 20
2.9246111617
 30
0.0
 10
4.9167181092
 20
2.9246137661
 30
0.0
 10
4.9167145755
 20
2.9246182193
 30
0.0
 10
4.9167083112
 20
2.9246218999
 30
0.0
 10
4.9166968087
 20
2.9246270801
 30
0.0
 10
4.9166767163
 20
2.9246328974
 30
0.0
 10
4.9166296973
 20
2.9246431372
 30
0.0
 10
4.9165482394
 20
2.9246548323
 30
0.0
 10
4.9164235998
 20
2.9246683652
 30
0.0
 10
4.9162631683
 20
2.9246819683
 30
0.0
 10
4.9160670629
 20
2.924695741
 30
0.0
 10
4.9158353796
 20
2.9247095575
 30
0.0
 10
4.9155682929
 20
2.9247234127
 30
0.0
 10
4.915266016
 20
2.9247372783
 30
0.0
 10
4.9147933246
 20
2.9247566959
 30
0.0
 10
4.9141163392
 20
2.9247804338
 30
0.0
 10
4.9132021018
 20
2.9248076224
 30
0.0
 10
4.9121541251
 20
2.9248345758
 30
0.0
 10
4.9109755429
 20
2.9248611911
 30
0.0
 10
4.9096698538
 20
2.9248873726
 30
0.0
 10
4.9082409249
 20
2.9249130375
 30
0.0
 10
4.9066930249
 20
2.9249380943
 30
0.0
 10
4.9050307381
 20
2.9249624724
 30
0.0
 10
4.902600232
 20
2.9249948678
 30
0.0
 10
4.8993159788
 20
2.9250326994
 30
0.0
 10
4.8951075864
 20
2.9250731583
 30
0.0
 10
4.8905797934
 20
2.9251093263
 30
0.0
 10
4.8857864702
 20
2.9251407518
 30
0.0
 10
4.8807846363
 20
2.925167018
 30
0.0
 10
4.8756339575
 20
2.9251879643
 30
0.0
 10
4.8686466525
 20
2.9252077595
 30
0.0
 10
4.863383118
 20
2.9252149515
 30
0.0
 10
4.8598725686
 20
2.9252150145
 30
0.0
  0
SPLINE
  5
30C
100
AcDbEntity
  8
0
100
AcDbSpline
 62
7
  6
CONTINUOUS
 70
0
 71
3
 72
35
 73
31
 74
0
 42
0.0000001
 43
0.0000001
 44
0.0000000001
 40
0.0
 40
0.0
 40
0.0
 40
0.0
 40
0.0003793029
 40
0.0007521239
 40
0.0012614764
 40
0.0019104993
 40
0.0027006354
 40
0.0047068594
 40
0.0072832949
 40
0.0104307949
 40
0.0141483461
 40
0.0184341716
 40
0.0287026774
 40
0.0412197234
 40
0.0559643165
 40
0.0729062054
 40
0.0920135989
 40
0.1132530381
 40
0.136582303
 40
0.1619561272
 40
0.1893287233
 40
0.2186475096
 40
0.2828932746
 40
0.3542079902
 40
0.4320462092
 40
0.5158163301
 40
0.6048830098
 40
0.6985574929
 40
0.7961336273
 40
1.0
 40
1.0
 40
1.0
 40
1.0
 10
5.7420269599
 20
2.9247892232
 30
0.0
 10
5.7420274476
 20
2.9247942613
 30
0.0
 10
5.7420158467
 20
2.9248011088
 30
0.0
 10
5.7420013005
 20
2.9248063622
 30
0.0
 10
5.7419810644
 20
2.9248118825
 30
0.0
 10
5.7419557936
 20
2.9248171388
 30
0.0
 10
5.7419103845
 20
2.9248249583
 30
0.0
 10
5.7418393253
 20
2.9248342165
 30
0.0
 10
5.74173668
 20
2.9248447704
 30
0.0
 10
5.7416111306
 20
2.924855297
 30
0.0
 10
5.741462693
 20
2.9248658138
 30
0.0
 10
5.7412193136
 20
2.9248806769
 30
0.0
 10
5.7408584879
 20
2.9248985414
 30
0.0
 10
5.7403580652
 20
2.9249186963
 30
0.0
 10
5.7397685159
 20
2.9249385182
 30
0.0
 10
5.7390909687
 20
2.9249579637
 30
0.0
 10
5.7383267079
 20
2.9249769659
 30
0.0
 10
5.7374771759
 20
2.9249954738
 30
0.0
 10
5.7365439926
 20
2.9250134481
 30
0.0
 10
5.735528941
 20
2.9250308495
 30
0.0
 10
5.7344339413
 20
2.9250476381
 30
0.0
 10
5.7328202348
 20
2.9250698422
 30
0.0
 10
5.7306201326
 20
2.9250954758
 30
0.0
 10
5.7277725373
 20
2.9251224894
 30
0.0
 10
5.7246643609
 20
2.9251463692
 30
0.0
 10
5.7213192634
 20
2.9251669336
 30
0.0
 10
5.7177628153
 20
2.9251840532
 30
0.0
 10
5.7140221142
 20
2.925197467
 30
0.0
 10
5.7087494487
 20
2.9252103865
 30
0.0
 10
5.704726816
 20
2.9252149656
 30
0.0
 10
5.7020062994
 20
2.9252150145
 30
0.0
  0
LINE
  5
30D
100
AcDbEntity
  8
0
100
AcDbLine
 62
7
  6
CONTINUOUS
 10
3.0023469739
 20
2.9252150152
 11
2.9994269388
 21
2.9251830815
  0
SPLINE
  5
30E
100
AcDbEntity
  8
0
100
AcDbSpline
 62
7
  6
CONTINUOUS
 70
0
 71
3
 72
32
 73
28
 74
0
 42
0.0000001
 43
0.0000001
 44
0.0000000001
 40
0.0
 40
0.0
 40
0.0
 40
0.0
 40
0.0003840166
 40
0.0007380338
 40
0.0012167681
 40
0.00256192
 40
0.004433376
 40
0.0068345803
 40
0.0097664645
 40
0.0172218222
 40
0.0267958418
 40
0.0384822023
 40
0.0522711336
 40
0.0681461348
 40
0.0860895171
 40
0.106083461
 40
0.128109246
 40
0.1521420609
 40
0.206118548
 40
0.2677879529
 40
0.3368836741
 40
0.4131139159
 40
0.4961489141
 40
0.5856247709
 40
0.6811669807
 40
0.7823873017
 40
1.0
 40
1.0
 40
1.0
 40
1.0
 10
6.5175664436
 20
2.9249567681
 30
0.0
 10
6.5175667199
 20
2.9249598564
 30
0.0
 10
6.5175605984
 20
2.9249644995
 30
0.0
 10
6.5175520725
 20
2.9249680296
 30
0.0
 10
6.5175350057
 20
2.9249734554
 30
0.0
 10
6.5175059205
 20
2.9249793264
 30
0.0
 10
6.5174609834
 20
2.9249861919
 30
0.0
 10
6.5174032308
 20
2.9249929396
 30
0.0
 10
6.5173004222
 20
2.92500277
 30
0.0
 10
6.5171396541
 20
2.9250142822
 30
0.0
 10
6.5169081455
 20
2.9250271415
 30
0.0
 10
6.5166254251
 20
2.9250397241
 30
0.0
 10
6.5162917767
 20
2.9250520204
 30
0.0
 10
6.515907568
 20
2.9250639809
 30
0.0
 10
6.5154732279
 20
2.9250755851
 30
0.0
 10
6.5149892002
 20
2.9250868096
 30
0.0
 10
6.514455985
 20
2.9250976367
 30
0.0
 10
6.5136484056
 20
2.9251120873
 30
0.0
 10
6.5125207254
 20
2.92512873
 30
0.0
 10
6.5110291775
 20
2.9251462649
 30
0.0
 10
6.5093579181
 20
2.9251619604
 30
0.0
 10
6.507514126
 20
2.9251757533
 30
0.0
 10
6.5055057629
 20
2.9251875531
 30
0.0
 10
6.5033414572
 20
2.92519723
 30
0.0
 10
6.5010303096
 20
2.9252047657
 30
0.0
 10
6.4976845501
 20
2.9252124257
 30
0.0
 10
6.4951102129
 20
2.9252149785
 30
0.0
 10
6.4933531542
 20
2.9252150144
 30
0.0
  0
SPLINE
  5
30F
100
AcDbEntity
  8
0
100
AcDbSpline
 62
7
  6
CONTINUOUS
 70
0
 71
3
 72
36
 73
32
 74
0
 42
0.0000001
 43
0.0000001
 44
0.0000000001
 40
0.0
 40
0.0
 40
0.0
 40
0.0
 40
0.0001171404
 40
0.0003540905
 40
0.0007335292
 40
0.0012599204
 40
0.0027584312
 40
0.0048540038
 40
0.0075472019
 40
0.0108377039
 40
0.014724324
 40
0.019204369
 40
0.0242748475
 40
0.0299327189
 40
0.0429983136
 40
0.0583721482
 40
0.0760146474
 40
0.0958845465
 40
0.1179355911
 40
0.1421121484
 40
0.168357422
 40
0.1966091521
 40
0.226797026
 40
0.2926909262
 40
0.3654033954
 40
0.4442351854
 40
0.5284260753
 40
0.6171654439
 40
0.7095956995
 40
0.8048213079
 40
1.0
 40
1.0
 40
1.0
 40
1.0
 10
5.3294274968
 20
2.9122709299
 30
0.0
 10
5.3294276951
 20
2.9122728131
 30
0.0
 10
5.3294226383
 20
2.9122776172
 30
0.0
 10
5.3294118744
 20
2.9122810839
 30
0.0
 10
5.3293937367
 20
2.9122859469
 30
0.0
 10
5.329355583
 20
2.9122925965
 30
0.0
 10
5.3292893301
 20
2.9123007403
 30
0.0
 10
5.3291881421
 20
2.9123097564
 30
0.0
 10
5.3290578314
 20
2.9123189345
 30
0.0
 10
5.3288985423
 20
2.9123281321
 30
0.0
 10
5.328710318
 20
2.9123373437
 30
0.0
 10
5.328493293
 20
2.9123465405
 30
0.0
 10
5.3282476102
 20
2.9123557126
 30
0.0
 10
5.3278631791
 20
2.912368514
 30
0.0
 10
5.3273121922
 20
2.9123840757
 30
0.0
 10
5.3265674591
 20
2.9124017831
 30
0.0
 10
5.325712698
 20
2.9124192309
 30
0.0
 10
5.3247499708
 20
2.9124363639
 30
0.0
 10
5.3236815957
 20
2.9124531256
 30
0.0
 10
5.3225101417
 20
2.9124694746
 30
0.0
 10
5.3212384351
 20
2.9124853629
 30
0.0
 10
5.3198695393
 20
2.9125007491
 30
0.0
 10
5.3178597165
 20
2.9125211451
 30
0.0
 10
5.3151311571
 20
2.9125448099
 30
0.0
 10
5.3116162271
 20
2.9125699214
 30
0.0
 10
5.307805491
 20
2.9125922361
 30
0.0
 10
5.303735651
 20
2.9126115182
 30
0.0
 10
5.2994459682
 20
2.9126275973
 30
0.0
 10
5.2949778904
 20
2.912640319
 30
0.0
 10
5.288789151
 20
2.9126524584
 30
0.0
 10
5.2840945901
 20
2.9126566388
 30
0.0
 10
5.2809394091
 20
2.9126566736
 30
0.0
  0
LINE
  5
310
100
AcDbEntity
  8
0
100
AcDbLine
 62
7
  6
CONTINUOUS
 10
5.587699881
 20
2.9060170742
 11
5.5634284563
 21
2.9061457467
  0
LINE
  5
311
100
AcDbEntity
  8
0
100
AcDbLine
 62
7
  6
CONTINUOUS
 10
7.1497939409
 20
2.9250935449
 11
7.138465026
 21
2.9252150144
  0
LINE
  5
312
100
AcDbEntity
  8
0
100
AcDbLine
 62
7
  6
CONTINUOUS
 10
7.5624519435
 20
2.9251830855
 11
7.5595319045
 21
2.9252150143
  0
LINE
  5
313
100
AcDbEntity
  8
0
100
AcDbLine
 62
7
  6
CONTINUOUS
 10
6.0526346983
 20
2.9124633107
 11
6.0283923187
 21
2.9126566734
  0
SPLINE
  5
314
100
AcDbEntity
  8
0
100
AcDbSpline
 62
7
  6
CONTINUOUS
 70
0
 71
3
 72
32
 73
28
 74
0
 42
0.0000001
 43
0.0000001
 44
0.0000000001
 40
0.0
 40
0.0
 40
0.0
 40
0.0
 40
0.0003573972
 40
0.00120817
 40
0.0026014737
 40
0.0045453413
 40
0.0070421878
 40
0.0100928601
 40
0.0136972157
 40
0.0178538238
 40
0.0278166941
 40
0.0399667131
 40
0.0542882626
 40
0.0707601179
 40
0.0893546343
 40
0.1100437195
 40
0.1327982333
 40
0.1575817215
 40
0.2130767065
 40
0.2761922668
 40
0.3465342542
 40
0.423672934
 40
0.5071321317
 40
0.5963950432
 40
0.6909036552
 40
0.7900904551
 40
1.0
 40
1.0
 40
1.0
 40
1.0
 10
5.9200552236
 20
2.9178682677
 30
0.0
 10
5.9200555929
 20
2.9178722406
 30
0.0
 10
5.9200398915
 20
2.91788048
 30
0.0
 10
5.9200146953
 20
2.9178861482
 30
0.0
 10
5.9199669228
 20
2.9178947446
 30
0.0
 10
5.9199029735
 20
2.9179022302
 30
0.0
 10
5.9198194285
 20
2.9179103016
 30
0.0
 10
5.9197176587
 20
2.9179181575
 30
0.0
 10
5.9195971754
 20
2.9179260517
 30
0.0
 10
5.919399627
 20
2.9179371566
 30
0.0
 10
5.9191066334
 20
2.9179504696
 30
0.0
 10
5.9187001462
 20
2.9179654276
 30
0.0
 10
5.9182209351
 20
2.9179800874
 30
0.0
 10
5.9176697408
 20
2.9179944141
 30
0.0
 10
5.9170474278
 20
2.918008369
 30
0.0
 10
5.9163549501
 20
2.9180219211
 30
0.0
 10
5.9155933577
 20
2.9180350409
 30
0.0
 10
5.9144432042
 20
2.918052595
 30
0.0
 10
5.9128424427
 20
2.9180729244
 30
0.0
 10
5.9107330367
 20
2.9180944957
 30
0.0
 10
5.9083819648
 20
2.9181138971
 30
0.0
 10
5.9058037483
 20
2.9181309896
 30
0.0
 10
5.9030142759
 20
2.9181456827
 30
0.0
 10
5.9000308674
 20
2.9181578598
 30
0.0
 10
5.8968718612
 20
2.9181673357
 30
0.0
 10
5.8923659206
 20
2.9181766364
 30
0.0
 10
5.8889150886
 20
2.9181798021
 30
0.0
 10
5.8865716042
 20
2.9181798371
 30
0.0
  0
LINE
  5
315
100
AcDbEntity
  8
0
100
AcDbLine
 62
7
  6
CONTINUOUS
 10
4.7659673442
 20
2.9086453508
 11
4.7417112095
 21
2.9084843507
  0
SPLINE
  5
316
100
AcDbEntity
  8
0
100
AcDbSpline
 62
7
  6
CONTINUOUS
 70
0
 71
3
 72
49
 73
45
 74
0
 42
0.0000001
 43
0.0000001
 44
0.0000000001
 40
0.0
 40
0.0
 40
0.0
 40
0.0
 40
0.0000345745
 40
0.0001262244
 40
0.0002782825
 40
0.0004912637
 40
0.0007653388
 40
0.0011005848
 40
0.0014970426
 40
0.0019547311
 40
0.0030535606
 40
0.004396374
 40
0.0059823924
 40
0.00781082
 40
0.0098808523
 40
0.0121916797
 40
0.0147424283
 40
0.017531761
 40
0.0238199825
 40
0.0310439398
 40
0.0391909836
 40
0.0482452876
 40
0.0581887384
 40
0.0690031311
 40
0.0806682151
 40
0.0931607333
 40
0.1205330564
 40
0.1509115105
 40
0.1840656684
 40
0.2197418846
 40
0.2576695889
 40
0.297559775
 40
0.3391087512
 40
0.3820010217
 40
0.4259096962
 40
0.5154360349
 40
0.6049685786
 40
0.6917872257
 40
0.7732529309
 40
0.8468882091
 40
0.9104532924
 40
0.9620131933
 40
0.9827864711
 40
1.0
 40
1.0
 40
1.0
 40
1.0
 10
3.0963129993
 20
2.9242196173
 30
0.0
 10
3.0963131463
 20
2.9242206903
 30
0.0
 10
3.0963078009
 20
2.9242223726
 30
0.0
 10
3.0963007092
 20
2.9242238693
 30
0.0
 10
3.0962857067
 20
2.9242259046
 30
0.0
 10
3.0962661499
 20
2.9242278681
 30
0.0
 10
3.0962403349
 20
2.9242299919
 30
0.0
 10
3.0962089551
 20
2.9242321565
 30
0.0
 10
3.0961717474
 20
2.9242343968
 30
0.0
 10
3.096110666
 20
2.9242376642
 30
0.0
 10
3.0960199345
 20
2.9242418036
 30
0.0
 10
3.0958938693
 20
2.9242467665
 30
0.0
 10
3.0957449402
 20
2.9242519628
 30
0.0
 10
3.0955732274
 20
2.9242573867
 30
0.0
 10
3.0953788064
 20
2.9242630306
 30
0.0
 10
3.0951617563
 20
2.9242688895
 30
0.0
 10
3.0949221723
 20
2.9242749588
 30
0.0
 10
3.0945580261
 20
2.9242836799
 30
0.0
 10
3.0940475147
 20
2.9242949925
 30
0.0
 10
3.0933691927
 20
2.9243088794
 30
0.0
 10
3.0926042229
 20
2.9243235301
 30
0.0
 10
3.0917540652
 20
2.9243389148
 30
0.0
 10
3.0908203537
 20
2.9243550009
 30
0.0
 10
3.0898048605
 20
2.9243717543
 30
0.0
 10
3.0887095189
 20
2.9243891411
 30
0.0
 10
3.0870955604
 20
2.9244138862
 30
0.0
 10
3.08489546
 20
2.9244460142
 30
0.0
 10
3.0820481833
 20
2.9244854646
 30
0.0
 10
3.0789407903
 20
2.9245265818
 30
0.0
 10
3.0755969186
 20
2.9245690505
 30
0.0
 10
3.0720420406
 20
2.9246125403
 30
0.0
 10
3.0683031966
 20
2.9246567186
 30
0.0
 10
3.0644088336
 20
2.9247012483
 30
0.0
 10
3.0603885858
 20
2.9247457889
 30
0.0
 10
3.054865544
 20
2.9248051224
 30
0.0
 10
3.0478815683
 20
2.9248767612
 30
0.0
 10
3.0395534794
 20
2.9249570339
 30
0.0
 10
3.0314778258
 20
2.9250297207
 30
0.0
 10
3.0239000801
 20
2.9250926749
 30
0.0
 10
3.0170506701
 20
2.9251439186
 30
0.0
 10
3.0111379767
 20
2.9251823144
 30
0.0
 10
3.0068810838
 20
2.9252034457
 30
0.0
 10
3.0040760953
 20
2.9252128202
 30
0.0
 10
3.0028861789
 20
2.9252149852
 30
0.0
 10
3.002346974
 20
2.9252150131
 30
0.0
  0
SPLINE
  5
317
100
AcDbEntity
  8
0
100
AcDbSpline
 62
7
  6
CONTINUOUS
 70
0
 71
3
 72
49
 73
45
 74
0
 42
0.0000001
 43
0.0000001
 44
0.0000000001
 40
0.0
 40
0.0
 40
0.0
 40
0.0
 40
0.017213548
 40
0.0379868475
 40
0.0895467626
 40
0.1531118582
 40
0.2267471427
 40
0.3082128499
 40
0.3950314942
 40
0.4845640321
 40
0.5740903632
 40
0.6179990333
 40
0.660891299
 40
0.7024402699
 40
0.7423304513
 40
0.7802581496
 40
0.815934361
 40
0.8490885142
 40
0.8794669634
 40
0.9068392834
 40
0.9193317988
 40
0.9309968807
 40
0.9418112726
 40
0.951754721
 40
0.9608090227
 40
0.9689560662
 40
0.9761800218
 40
0.9824682411
 40
0.9852575734
 40
0.9878083221
 40
0.9901191494
 40
0.992189181
 40
0.9940176078
 40
0.9956036254
 40
0.9969464386
 40
0.9980452684
 40
0.9985029575
 40
0.9988994158
 40
0.999234662
 40
0.9995087372
 40
0.9997217183
 40
0.9998737762
 40
0.9999654258
 40
1.0
 40
1.0
 40
1.0
 40
1.0
 10
7.5595319047
 20
2.9252150168
 30
0.0
 10
7.5589926992
 20
2.925214989
 30
0.0
 10
7.5578027816
 20
2.925212818
 30
0.0
 10
7.5549977915
 20
2.9252034367
 30
0.0
 10
7.5507408972
 20
2.9251823127
 30
0.0
 10
7.5448282029
 20
2.9251439133
 30
0.0
 10
7.5379787926
 20
2.9250926713
 30
0.0
 10
7.5304010469
 20
2.9250297171
 30
0.0
 10
7.5223253939
 20
2.9249570309
 30
0.0
 10
7.5139973058
 20
2.9248767585
 30
0.0
 10
7.5070133308
 20
2.9248051201
 30
0.0
 10
7.5014902897
 20
2.9247457869
 30
0.0
 10
7.4974700425
 20
2.9247012464
 30
0.0
 10
7.4935756802
 20
2.924656717
 30
0.0
 10
7.4898368367
 20
2.9246125389
 30
0.0
 10
7.4862819594
 20
2.9245690492
 30
0.0
 10
7.4829380883
 20
2.9245265807
 30
0.0
 10
7.4798306958
 20
2.9244854636
 30
0.0
 10
7.4769834196
 20
2.9244460134
 30
0.0
 10
7.4747833196
 20
2.9244138855
 30
0.0
 10
7.4731693615
 20
2.9243891404
 30
0.0
 10
7.4720740201
 20
2.9243717537
 30
0.0
 10
7.4710585271
 20
2.9243550004
 30
0.0
 10
7.4701248157
 20
2.9243389143
 30
0.0
 10
7.4692746583
 20
2.9243235296
 30
0.0
 10
7.4685096886
 20
2.924308879
 30
0.0
 10
7.4678313668
 20
2.9242949921
 30
0.0
 10
7.4673208555
 20
2.9242836795
 30
0.0
 10
7.4669567094
 20
2.9242749585
 30
0.0
 10
7.4667171254
 20
2.9242688892
 30
0.0
 10
7.4665000754
 20
2.9242630303
 30
0.0
 10
7.4663056544
 20
2.9242573865
 30
0.0
 10
7.4661339417
 20
2.9242519626
 30
0.0
 10
7.4659850127
 20
2.9242467663
 30
0.0
 10
7.4658589474
 20
2.9242418034
 30
0.0
 10
7.4657682159
 20
2.924237664
 30
0.0
 10
7.4657071345
 20
2.9242343967
 30
0.0
 10
7.4656699267
 20
2.9242321563
 30
0.0
 10
7.4656385469
 20
2.9242299917
 30
0.0
 10
7.465612732
 20
2.9242278679
 30
0.0
 10
7.4655931751
 20
2.9242259043
 30
0.0
 10
7.4655781726
 20
2.9242238691
 30
0.0
 10
7.465571081
 20
2.9242223724
 30
0.0
 10
7.4655657356
 20
2.9242206901
 30
0.0
 10
7.4655658827
 20
2.9242196171
 30
0.0
  0
SPLINE
  5
318
100
AcDbEntity
  8
0
100
AcDbSpline
 62
7
  6
CONTINUOUS
 70
0
 71
3
 72
38
 73
34
 74
0
 42
0.0000001
 43
0.0000001
 44
0.0000000001
 40
0.0
 40
0.0
 40
0.0
 40
0.0
 40
0.1851884492
 40
0.2776629776
 40
0.3686003155
 40
0.4569103011
 40
0.5415432298
 40
0.6214932822
 40
0.6958092868
 40
0.7636068891
 40
0.7948058366
 40
0.824079741
 40
0.8513421149
 40
0.8765098113
 40
0.8995104762
 40
0.9202742594
 40
0.9387391959
 40
0.9548524125
 40
0.9620108862
 40
0.9685633718
 40
0.9745056724
 40
0.9798336179
 40
0.9845430554
 40
0.9886298908
 40
0.992091122
 40
0.994925114
 40
0.9971305041
 40
0.9979971926
 40
0.9987065102
 40
0.9992586562
 40
0.999654339
 40
0.999896198
 40
1.0
 40
1.0
 40
1.0
 40
1.0
 10
5.4597872327
 20
2.9086453509
 30
0.0
 10
5.4562719855
 20
2.9086453261
 30
0.0
 10
5.4510013863
 20
2.9086410211
 30
0.0
 10
5.4440046258
 20
2.9086286262
 30
0.0
 10
5.4388468175
 20
2.9086155921
 30
0.0
 10
5.4338378689
 20
2.9085992096
 30
0.0
 10
5.429037494
 20
2.9085796076
 30
0.0
 10
5.4245027689
 20
2.9085570405
 30
0.0
 10
5.4202876314
 20
2.908531788
 30
0.0
 10
5.4169978962
 20
2.90850817
 30
0.0
 10
5.4145631502
 20
2.9084879423
 30
0.0
 10
5.4128978295
 20
2.9084727185
 30
0.0
 10
5.4113470034
 20
2.9084570693
 30
0.0
 10
5.4099152666
 20
2.9084410389
 30
0.0
 10
5.4086068984
 20
2.9084246839
 30
0.0
 10
5.4074257766
 20
2.9084080582
 30
0.0
 10
5.4063754103
 20
2.9083912151
 30
0.0
 10
5.4055833002
 20
2.9083765426
 30
0.0
 10
5.405017304
 20
2.9083645696
 30
0.0
 10
5.4046443457
 20
2.9083559243
 30
0.0
 10
5.404306145
 20
2.9083472653
 30
0.0
 10
5.4040029421
 20
2.9083386014
 30
0.0
 10
5.4037349744
 20
2.9083299446
 30
0.0
 10
5.4035024639
 20
2.9083213077
 30
0.0
 10
5.4033055708
 20
2.908312711
 30
0.0
 10
5.4031444524
 20
2.9083041853
 30
0.0
 10
5.4030325468
 20
2.9082966988
 30
0.0
 10
5.4029610908
 20
2.9082905235
 30
0.0
 10
5.4029207976
 20
2.9082861988
 30
0.0
 10
5.4028899156
 20
2.9082822344
 30
0.0
 10
5.402866999
 20
2.9082776956
 30
0.0
 10
5.402854677
 20
2.9082747718
 30
0.0
 10
5.4028473452
 20
2.9082704127
 30
0.0
 10
5.4028475569
 20
2.9082684537
 30
0.0
  0
SPLINE
  5
319
100
AcDbEntity
  8
0
100
AcDbSpline
 62
7
  6
CONTINUOUS
 70
0
 71
3
 72
44
 73
40
 74
0
 42
0.0000001
 43
0.0000001
 44
0.0000000001
 40
0.0
 40
0.0
 40
0.0
 40
0.0
 40
0.000042628
 40
0.0001246821
 40
0.0004352901
 40
0.0009487982
 40
0.0016668677
 40
0.0025898226
 40
0.0037176192
 40
0.0050500728
 40
0.0065869327
 40
0.0083278889
 40
0.0102723
 40
0.0147679969
 40
0.0200669724
 40
0.0261620955
 40
0.0330452951
 40
0.0407056449
 40
0.0491316523
 40
0.0583117891
 40
0.0682329948
 40
0.0788798966
 40
0.1022883772
 40
0.1284020914
 40
0.1570678977
 40
0.1881192856
 40
0.2213751316
 40
0.2566415471
 40
0.2937134476
 40
0.3323742913
 40
0.3723994992
 40
0.455602125
 40
0.541384664
 40
0.6277497366
 40
0.7126857017
 40
0.7942131725
 40
0.8704322944
 40
0.9395643467
 40
1.0
 40
1.0
 40
1.0
 40
1.0
 10
3.5089640852
 20
2.9243080012
 30
0.0
 10
3.5089642306
 20
2.9243092083
 30
0.0
 10
3.5089614096
 20
2.9243123921
 30
0.0
 10
3.5089500989
 20
2.924316622
 30
0.0
 10
3.508924467
 20
2.9243224208
 30
0.0
 10
3.5088810983
 20
2.9243284253
 30
0.0
 10
3.5088199076
 20
2.9243350485
 30
0.0
 10
3.5087412573
 20
2.9243417617
 30
0.0
 10
3.5086450016
 20
2.924348702
 30
0.0
 10
3.5085312249
 20
2.9243557812
 30
0.0
 10
3.5083999342
 20
2.9243630103
 30
0.0
 10
3.5082511754
 20
2.9243703734
 30
0.0
 10
3.5080180829
 20
2.92438088
 30
0.0
 10
3.5076835371
 20
2.9243941095
 30
0.0
 10
3.5072306228
 20
2.924409821
 30
0.0
 10
3.5067095942
 20
2.9244259901
 30
0.0
 10
3.5061212014
 20
2.9244425856
 30
0.0
 10
3.5054663171
 20
2.9244595772
 30
0.0
 10
3.5047459116
 20
2.9244769354
 30
0.0
 10
3.5039610158
 20
2.9244946301
 30
0.0
 10
3.5031127705
 20
2.9245126335
 30
0.0
 10
3.5018587869
 20
2.9245378187
 30
0.0
 10
3.5001430259
 20
2.9245696577
 30
0.0
 10
3.4979133833
 20
2.9246075763
 30
0.0
 10
3.4954657413
 20
2.924646081
 30
0.0
 10
3.4928143839
 20
2.9246849395
 30
0.0
 10
3.4899747564
 20
2.9247239187
 30
0.0
 10
3.486963404
 20
2.924762789
 30
0.0
 10
3.4837978817
 20
2.924801319
 30
0.0
 10
3.48049662
 20
2.9248392863
 30
0.0
 10
3.4758797396
 20
2.9248895065
 30
0.0
 10
3.4699189463
 20
2.9249490781
 30
0.0
 10
3.4626365077
 20
2.925014115
 30
0.0
 10
3.4553045718
 20
2.9250720569
 30
0.0
 10
3.4480939338
 20
2.9251215966
 30
0.0
 10
3.4411726087
 20
2.9251614763
 30
0.0
 10
3.4347019718
 20
2.925191138
 30
0.0
 10
3.4288328454
 20
2.9252090063
 30
0.0
 10
3.4251375051
 20
2.9252149656
 30
0.0
 10
3.4234138474
 20
2.925215013
 30
0.0
  0
SPLINE
  5
31A
100
AcDbEntity
  8
0
100
AcDbSpline
 62
7
  6
CONTINUOUS
 70
0
 71
3
 72
44
 73
40
 74
0
 42
0.0000001
 43
0.0000001
 44
0.0000000001
 40
0.0
 40
0.0
 40
0.0
 40
0.0
 40
0.060435695
 40
0.1295677539
 40
0.205786874
 40
0.2873143375
 40
0.3722502918
 40
0.4586153507
 40
0.5443978735
 40
0.6276004837
 40
0.6676256851
 40
0.7062865221
 40
0.7433584174
 40
0.7786248273
 40
0.8118806702
 40
0.8429320544
 40
0.87159786
 40
0.8977115729
 40
0.9211200554
 40
0.9317669575
 40
0.9416881646
 40
0.9508683043
 40
0.9592943135
 40
0.9669546653
 40
0.9738378684
 40
0.9799329957
 40
0.9852319741
 40
0.9897276745
 40
0.991672088
 40
0.9934130472
 40
0.9949499098
 40
0.9962823657
 40
0.9974101644
 40
0.9983331213
 40
0.9990511931
 40
0.9995647039
 40
0.9998753154
 40
0.9999573712
 40
1.0
 40
1.0
 40
1.0
 40
1.0
 10
7.1384650262
 20
2.9252150168
 30
0.0
 10
7.1367413674
 20
2.9252149694
 30
0.0
 10
7.1330460261
 20
2.9252089956
 30
0.0
 10
7.127176899
 20
2.9251911359
 30
0.0
 10
7.1207062628
 20
2.9251614712
 30
0.0
 10
7.113784939
 20
2.9251215928
 30
0.0
 10
7.1065743026
 20
2.925072053
 30
0.0
 10
7.0992423686
 20
2.9250141116
 30
0.0
 10
7.091959932
 20
2.9249490751
 30
0.0
 10
7.0859991404
 20
2.9248895038
 30
0.0
 10
7.0813822613
 20
2.9248392839
 30
0.0
 10
7.0780810004
 20
2.9248013168
 30
0.0
 10
7.074915479
 20
2.9247627869
 30
0.0
 10
7.0719041273
 20
2.9247239169
 30
0.0
 10
7.0690645004
 20
2.9246849378
 30
0.0
 10
7.0664131434
 20
2.9246460795
 30
0.0
 10
7.0639655019
 20
2.924607575
 30
0.0
 10
7.0617358595
 20
2.9245696566
 30
0.0
 10
7.0600200986
 20
2.9245378176
 30
0.0
 10
7.0587661151
 20
2.9245126326
 30
0.0
 10
7.0579178697
 20
2.9244946293
 30
0.0
 10
7.0571329738
 20
2.9244769346
 30
0.0
 10
7.0564125683
 20
2.9244595764
 30
0.0
 10
7.0557576838
 20
2.924442585
 30
0.0
 10
7.0551692908
 20
2.9244259895
 30
0.0
 10
7.0546482619
 20
2.9244098204
 30
0.0
 10
7.0541953474
 20
2.924394109
 30
0.0
 10
7.0538608014
 20
2.9243808795
 30
0.0
 10
7.0536277086
 20
2.9243703729
 30
0.0
 10
7.0534789496
 20
2.9243630099
 30
0.0
 10
7.0533476586
 20
2.9243557808
 30
0.0
 10
7.0532338817
 20
2.9243487016
 30
0.0
 10
7.0531376259
 20
2.9243417613
 30
0.0
 10
7.0530589754
 20
2.9243350481
 30
0.0
 10
7.0529977845
 20
2.9243284249
 30
0.0
 10
7.0529544156
 20
2.9243224204
 30
0.0
 10
7.0529287834
 20
2.9243166217
 30
0.0
 10
7.0529174726
 20
2.9243123918
 30
0.0
 10
7.0529146514
 20
2.924309208
 30
0.0
 10
7.0529147968
 20
2.9243080009
 30
0.0
  0
SPLINE
  5
31B
100
AcDbEntity
  8
0
100
AcDbSpline
 62
7
  6
CONTINUOUS
 70
0
 71
3
 72
35
 73
31
 74
0
 42
0.0000001
 43
0.0000001
 44
0.0000000001
 40
0.0
 40
0.0
 40
0.0
 40
0.0
 40
0.0001277817
 40
0.0003748448
 40
0.0013091415
 40
0.0028528019
 40
0.0050111756
 40
0.007785352
 40
0.0111738104
 40
0.0151741846
 40
0.0197839141
 40
0.0250003354
 40
0.0308206758
 40
0.044256404
 40
0.0600520597
 40
0.0781667206
 40
0.0985508193
 40
0.1211468316
 40
0.1458955124
 40
0.172727481
 40
0.2015688605
 40
0.2323427127
 40
0.2993396638
 40
0.3729854344
 40
0.4524726237
 40
0.5369283866
 40
0.6254280442
 40
0.7170010737
 40
0.8106349894
 40
1.0
 40
1.0
 40
1.0
 40
1.0
 10
5.1296048859
 20
2.9176826907
 30
0.0
 10
5.1296051177
 20
2.9176849593
 30
0.0
 10
5.1295996727
 20
2.9176908265
 30
0.0
 10
5.1295783445
 20
2.9176985419
 30
0.0
 10
5.1295299686
 20
2.9177089853
 30
0.0
 10
5.1294483148
 20
2.9177195719
 30
0.0
 10
5.1293331104
 20
2.917731057
 30
0.0
 10
5.1291851135
 20
2.9177424602
 30
0.0
 10
5.1290040807
 20
2.9177540334
 30
0.0
 10
5.1287902689
 20
2.9177656104
 30
0.0
 10
5.1285437833
 20
2.9177772078
 30
0.0
 10
5.1282647898
 20
2.9177887937
 30
0.0
 10
5.1278283427
 20
2.9178049948
 30
0.0
 10
5.1272031031
 20
2.9178247503
 30
0.0
 10
5.1263584455
 20
2.9178473254
 30
0.0
 10
5.1253897401
 20
2.9178696397
 30
0.0
 10
5.1242996381
 20
2.9178916238
 30
0.0
 10
5.1230911139
 20
2.9179132048
 30
0.0
 10
5.1217674941
 20
2.917934309
 30
0.0
 10
5.1203323962
 20
2.9179548774
 30
0.0
 10
5.1187897526
 20
2.9179748505
 30
0.0
 10
5.1165303343
 20
2.9180013597
 30
0.0
 10
5.113471317
 20
2.9180322401
 30
0.0
 10
5.1095429241
 20
2.9180651534
 30
0.0
 10
5.1053029178
 20
2.9180945045
 30
0.0
 10
5.1007977934
 20
2.9181199472
 30
0.0
 10
5.0960769563
 20
2.9181411917
 30
0.0
 10
5.0911923034
 20
2.9181580821
 30
0.0
 10
5.0845075561
 20
2.9181741017
 30
0.0
 10
5.0794570394
 20
2.918179789
 30
0.0
 10
5.0760775532
 20
2.9181798372
 30
0.0
  0
LINE
  5
31C
100
AcDbEntity
  8
0
100
AcDbLine
 62
7
  6
CONTINUOUS
 10
5.5634284563
 20
2.9061457471
 11
5.4994044996
 21
2.9059113985
  0
SPLINE
  5
31D
100
AcDbEntity
  8
0
100
AcDbSpline
 62
7
  6
CONTINUOUS
 70
0
 71
3
 72
40
 73
36
 74
0
 42
0.0000001
 43
0.0000001
 44
0.0000000001
 40
0.0
 40
0.0
 40
0.0
 40
0.0
 40
0.0782412824
 40
0.1608557483
 40
0.2464198663
 40
0.3334723337
 40
0.4205189198
 40
0.5060692651
 40
0.5886579536
 40
0.6668712026
 40
0.7393704678
 40
0.7730852686
 40
0.8049154061
 40
0.8347241255
 40
0.8623848927
 40
0.8877777754
 40
0.910796123
 40
0.9313391392
 40
0.9493214499
 40
0.9573269929
 40
0.9646638421
 40
0.9713248924
 40
0.9773030758
 40
0.9825913661
 40
0.9871839122
 40
0.9910768436
 40
0.9942666144
 40
0.9967499817
 40
0.9977260247
 40
0.9985250681
 40
0.9991476935
 40
0.9995952572
 40
0.9997545481
 40
0.9998723243
 40
1.0
 40
1.0
 40
1.0
 40
1.0
 10
6.4933531543
 20
2.9252150168
 30
0.0
 10
6.4914578326
 20
2.9252149781
 30
0.0
 10
6.4875612533
 20
2.9252108913
 30
0.0
 10
6.4815919767
 20
2.9251977101
 30
0.0
 10
6.4754092803
 20
2.9251759911
 30
0.0
 10
6.4691192525
 20
2.9251462561
 30
0.0
 10
6.4628295978
 20
2.9251090871
 30
0.0
 10
6.4566481208
 20
2.9250650608
 30
0.0
 10
6.4506806763
 20
2.9250149768
 30
0.0
 10
6.4450294421
 20
2.9249596937
 30
0.0
 10
6.4405621489
 20
2.9249089695
 30
0.0
 10
6.437218431
 20
2.9248661698
 30
0.0
 10
6.4349087993
 20
2.9248341674
 30
0.0
 10
6.432745844
 20
2.9248016192
 30
0.0
 10
6.4307388505
 20
2.9247686738
 30
0.0
 10
6.428896376
 20
2.924735471
 30
0.0
 10
6.4272263547
 20
2.9247021755
 30
0.0
 10
6.4257358862
 20
2.9246689279
 30
0.0
 10
6.4246090773
 20
2.9246404251
 30
0.0
 10
6.4238021431
 20
2.9246174813
 30
0.0
 10
6.4232693831
 20
2.9246010479
 30
0.0
 10
6.4227857554
 20
2.9245847383
 30
0.0
 10
6.4223517778
 20
2.9245685739
 30
0.0
 10
6.4219679393
 20
2.9245525815
 30
0.0
 10
6.4216346546
 20
2.9245367832
 30
0.0
 10
6.4213522566
 20
2.9245212393
 30
0.0
 10
6.4211210243
 20
2.9245059611
 30
0.0
 10
6.4209604871
 20
2.9244927749
 30
0.0
 10
6.4208578871
 20
2.9244818743
 30
0.0
 10
6.4208002972
 20
2.9244745283
 30
0.0
 10
6.4207555137
 20
2.9244671985
 30
0.0
 10
6.4207265453
 20
2.9244610319
 30
0.0
 10
6.4207095669
 20
2.9244554337
 30
0.0
 10
6.4207010973
 20
2.9244518238
 30
0.0
 10
6.4206950376
 20
2.9244471167
 30
0.0
 10
6.4206953548
 20
2.9244440402
 30
0.0
  0
SPLINE
  5
31E
100
AcDbEntity
  8
0
100
AcDbSpline
 62
7
  6
CONTINUOUS
 70
0
 71
3
 72
41
 73
37
 74
0
 42
0.0000001
 43
0.0000001
 44
0.0000000001
 40
0.0
 40
0.0
 40
0.0
 40
0.0
 40
0.0000366364
 40
0.0001076886
 40
0.0003765036
 40
0.0008207135
 40
0.0014419208
 40
0.0022406161
 40
0.0032169837
 40
0.0043709869
 40
0.0057022658
 40
0.0088948962
 40
0.012791259
 40
0.0173876043
 40
0.022679934
 40
0.0286622938
 40
0.0353276054
 40
0.042668767
 40
0.0506786482
 40
0.0686695644
 40
0.0892209787
 40
0.1122473872
 40
0.1376478663
 40
0.165315677
 40
0.1951307625
 40
0.226966516
 40
0.2606860713
 40
0.2961450541
 40
0.3331920082
 40
0.4114077624
 40
0.4939946352
 40
0.5795390646
 40
0.6665762305
 40
0.7536168535
 40
0.8391678049
 40
1.0
 40
1.0
 40
1.0
 40
1.0
 10
4.8387424076
 20
2.9081639803
 30
0.0
 10
4.8387424977
 20
2.9081648646
 30
0.0
 10
4.8387403604
 20
2.9081671489
 30
0.0
 10
4.8387320299
 20
2.9081701631
 30
0.0
 10
4.8387131059
 20
2.9081742699
 30
0.0
 10
4.8386811737
 20
2.9081784627
 30
0.0
 10
4.8386361024
 20
2.9081830434
 30
0.0
 10
4.8385781754
 20
2.9081876299
 30
0.0
 10
4.8385072586
 20
2.9081923218
 30
0.0
 10
4.8384234139
 20
2.9081970566
 30
0.0
 10
4.8382858313
 20
2.9082038567
 30
0.0
 10
4.8380817218
 20
2.9082122264
 30
0.0
 10
4.8377983968
 20
2.9082219534
 30
0.0
 10
4.8374641115
 20
2.9082318238
 30
0.0
 10
4.8370792037
 20
2.9082418206
 30
0.0
 10
4.8366440896
 20
2.9082519232
 30
0.0
 10
4.8361592601
 20
2.9082621169
 30
0.0
 10
4.8356252339
 20
2.9082723878
 30
0.0
 10
4.8348164728
 20
2.9082867272
 30
0.0
 10
4.8336872388
 20
2.9083045405
 30
0.0
 10
4.8321937028
 20
2.9083253189
 30
0.0
 10
4.8305203931
 20
2.9083461263
 30
0.0
 10
4.8286744245
 20
2.9083668746
 30
0.0
 10
4.8266637489
 20
2.9083874609
 30
0.0
 10
4.8244969414
 20
2.9084077975
 30
0.0
 10
4.8221833073
 20
2.9084277909
 30
0.0
 10
4.819732742
 20
2.9084473551
 30
0.0
 10
4.8171557434
 20
2.9084664045
 30
0.0
 10
4.8134992664
 20
2.9084914604
 30
0.0
 10
4.8086994525
 20
2.9085207293
 30
0.0
 10
4.8027230649
 20
2.9085519967
 30
0.0
 10
4.7965326459
 20
2.9085794712
 30
0.0
 10
4.7902341592
 20
2.9086026546
 30
0.0
 10
4.7839354987
 20
2.9086212148
 30
0.0
 10
4.7758465363
 20
2.9086387741
 30
0.0
 10
4.7698691915
 20
2.9086453095
 30
0.0
 10
4.7659673443
 20
2.9086453492
 30
0.0
  0
LINE
  5
31F
100
AcDbEntity
  8
0
100
AcDbLine
 62
7
  6
CONTINUOUS
 10
4.9984491087
 20
2.9061457462
 11
4.9741790023
 21
2.9060170603
  0
LINE
  5
320
100
AcDbEntity
  8
0
100
AcDbLine
 62
7
  6
CONTINUOUS
 10
3.9863129799
 20
2.9126566739
 11
3.9798176052
 21
2.9126043816
  0
SPLINE
  5
321
100
AcDbEntity
  8
0
100
AcDbSpline
 62
7
  6
CONTINUOUS
 70
0
 71
3
 72
37
 73
33
 74
0
 42
0.0000001
 43
0.0000001
 44
0.0000000001
 40
0.0
 40
0.0
 40
0.0
 40
0.0
 40
0.1852181372
 40
0.2777062982
 40
0.3686546523
 40
0.4569722651
 40
0.5416087165
 40
0.6215577427
 40
0.6958680463
 40
0.7636554237
 40
0.7948476723
 40
0.8241139347
 40
0.8513677866
 40
0.876526202
 40
0.8995169524
 40
0.9202703021
 40
0.938724494
 40
0.9548268374
 40
0.9685270712
 40
0.9744642157
 40
0.9797872225
 40
0.9844920347
 40
0.9885747014
 40
0.9920324605
 40
0.9948640372
 40
0.9970687286
 40
0.9986471315
 40
0.999202918
 40
0.9996054238
 40
0.9997510339
 40
0.9998618098
 40
1.0
 40
1.0
 40
1.0
 40
1.0
 10
5.7020062994
 20
2.9252150168
 30
0.0
 10
5.6984957502
 20
2.9252149538
 30
0.0
 10
5.6932322167
 20
2.9252077508
 30
0.0
 10
5.6862449137
 20
2.9251879612
 30
0.0
 10
5.6810942376
 20
2.9251670134
 30
0.0
 10
5.6760924062
 20
2.9251407477
 30
0.0
 10
5.6712990854
 20
2.9251093224
 30
0.0
 10
5.6667712945
 20
2.9250731546
 30
0.0
 10
5.662562904
 20
2.925032696
 30
0.0
 10
5.6592786522
 20
2.9249948646
 30
0.0
 10
5.6568481471
 20
2.9249624694
 30
0.0
 10
5.6551858608
 20
2.9249380914
 30
0.0
 10
5.6536379612
 20
2.9249130347
 30
0.0
 10
5.6522090327
 20
2.92488737
 30
0.0
 10
5.6509033437
 20
2.9248611886
 30
0.0
 10
5.6497247616
 20
2.9248345735
 30
0.0
 10
5.6486767848
 20
2.9248076203
 30
0.0
 10
5.6477625471
 20
2.9247804317
 30
0.0
 10
5.6470855614
 20
2.924756694
 30
0.0
 10
5.6466128697
 20
2.9247372765
 30
0.0
 10
5.6463105926
 20
2.9247234109
 30
0.0
 10
5.6460435056
 20
2.9247095558
 30
0.0
 10
5.645811822
 20
2.9246957394
 30
0.0
 10
5.6456157161
 20
2.9246819668
 30
0.0
 10
5.6454552843
 20
2.9246683637
 30
0.0
 10
5.6453306443
 20
2.9246548309
 30
0.0
 10
5.645249186
 20
2.9246431359
 30
0.0
 10
5.6452021666
 20
2.9246328961
 30
0.0
 10
5.645182074
 20
2.9246270788
 30
0.0
 10
5.6451705713
 20
2.9246218986
 30
0.0
 10
5.6451643069
 20
2.924618218
 30
0.0
 10
5.645160773
 20
2.9246137649
 30
0.0
 10
5.6451610502
 20
2.9246111605
 30
0.0
  0
SPLINE
  5
322
100
AcDbEntity
  8
0
100
AcDbSpline
 62
7
  6
CONTINUOUS
 70
0
 71
3
 72
40
 73
36
 74
0
 42
0.0000001
 43
0.0000001
 44
0.0000000001
 40
0.0
 40
0.0
 40
0.0
 40
0.0
 40
0.0001189246
 40
0.00039235
 40
0.0008384297
 40
0.0014603166
 40
0.0022590362
 40
0.0032350175
 40
0.0043883605
 40
0.0057187872
 40
0.0089093158
 40
0.0128032413
 40
0.0173969379
 40
0.0226864864
 40
0.0286659989
 40
0.0353284284
 40
0.0426666924
 40
0.0506736753
 40
0.0686588927
 40
0.0892048029
 40
0.1122259822
 40
0.1376215857
 40
0.1652849251
 40
0.1950960222
 40
0.2269283085
 40
0.2606449884
 40
0.3331470838
 40
0.4113617593
 40
0.4939503758
 40
0.5794991995
 40
0.6665430018
 40
0.7535917986
 40
0.8391517405
 40
0.9217622398
 40
1.0
 40
1.0
 40
1.0
 40
1.0
 10
4.3737039286
 20
2.9175054602
 30
0.0
 10
4.3737042234
 20
2.9175083273
 30
0.0
 10
4.3736937975
 20
2.9175147892
 30
0.0
 10
4.3736759413
 20
2.9175192135
 30
0.0
 10
4.373643064
 20
2.9175260118
 30
0.0
 10
4.3735986618
 20
2.9175320288
 30
0.0
 10
4.373540775
 20
2.917538607
 30
0.0
 10
4.3734701674
 20
2.9175451196
 30
0.0
 10
4.3733865572
 20
2.9175517675
 30
0.0
 10
4.3732493694
 20
2.9175612789
 30
0.0
 10
4.3730457493
 20
2.9175730014
 30
0.0
 10
4.3727630414
 20
2.9175866166
 30
0.0
 10
4.3724294164
 20
2.9176004355
 30
0.0
 10
4.3720452151
 20
2.9176144306
 30
0.0
 10
4.3716108505
 20
2.9176285741
 30
0.0
 10
4.3711268131
 20
2.9176428453
 30
0.0
 10
4.3705936209
 20
2.9176572246
 30
0.0
 10
4.3697860613
 20
2.9176773003
 30
0.0
 10
4.3686584213
 20
2.91770224
 30
0.0
 10
4.3671669009
 20
2.9177313312
 30
0.0
 10
4.3654957502
 20
2.9177604639
 30
0.0
 10
4.3636520744
 20
2.917789515
 30
0.0
 10
4.3616438138
 20
2.9178183402
 30
0.0
 10
4.3594795322
 20
2.9178468171
 30
0.0
 10
4.3571685221
 20
2.9178748157
 30
0.0
 10
4.3538228781
 20
2.9179122592
 30
0.0
 10
4.3493531038
 20
2.9179566329
 30
0.0
 10
4.3436988393
 20
2.9180049906
 30
0.0
 10
4.3377283239
 20
2.9180487964
 30
0.0
 10
4.331543782
 20
2.9180872985
 30
0.0
 10
4.3252511058
 20
2.9181198022
 30
0.0
 10
4.31895813
 20
2.9181457968
 30
0.0
 10
4.3127725763
 20
2.9181647827
 30
0.0
 10
4.3068005525
 20
2.9181763213
 30
0.0
 10
4.3029021788
 20
2.9181798063
 30
0.0
 10
4.3010059815
 20
2.9181798373
 30
0.0
  0
SPLINE
  5
323
100
AcDbEntity
  8
0
100
AcDbSpline
 62
7
  6
CONTINUOUS
 70
0
 71
3
 72
35
 73
31
 74
0
 42
0.0000001
 43
0.0000001
 44
0.0000000001
 40
0.0
 40
0.0
 40
0.0
 40
0.0
 40
0.203866462
 40
0.3014426002
 40
0.3951170687
 40
0.4841837428
 40
0.5679538555
 40
0.6457920664
 40
0.7171067715
 40
0.7813525287
 40
0.8106713098
 40
0.8380439039
 40
0.8634177234
 40
0.8867469827
 40
0.9079864199
 40
0.9270938105
 40
0.9440356945
 40
0.9587802854
 40
0.9712973311
 40
0.9815658335
 40
0.9858516575
 40
0.9895692082
 40
0.9927167091
 40
0.9952931453
 40
0.9972993686
 40
0.998089504
 40
0.9987385263
 40
0.999247878
 40
0.9996206983
 40
1.0
 40
1.0
 40
1.0
 40
1.0
 10
4.8598725685
 20
2.9252150168
 30
0.0
 10
4.8571520517
 20
2.9252149679
 30
0.0
 10
4.8531294193
 20
2.9252103786
 30
0.0
 10
4.8478567546
 20
2.9251974623
 30
0.0
 10
4.844116055
 20
2.9251840494
 30
0.0
 10
4.8405596086
 20
2.9251669292
 30
0.0
 10
4.8372145126
 20
2.9251463649
 30
0.0
 10
4.8341063377
 20
2.9251224854
 30
0.0
 10
4.8312587438
 20
2.9250954719
 30
0.0
 10
4.8290586427
 20
2.9250698385
 30
0.0
 10
4.827444937
 20
2.9250476344
 30
0.0
 10
4.8263499378
 20
2.925030846
 30
0.0
 10
4.8253348867
 20
2.9250134447
 30
0.0
 10
4.8244017039
 20
2.9249954705
 30
0.0
 10
4.8235521724
 20
2.9249769627
 30
0.0
 10
4.822787912
 20
2.9249579606
 30
0.0
 10
4.8221103651
 20
2.9249385152
 30
0.0
 10
4.8215208162
 20
2.9249186934
 30
0.0
 10
4.8210203938
 20
2.9248985386
 30
0.0
 10
4.8206595682
 20
2.9248806742
 30
0.0
 10
4.820416189
 20
2.9248658112
 30
0.0
 10
4.8202677514
 20
2.9248552944
 30
0.0
 10
4.820142202
 20
2.9248447679
 30
0.0
 10
4.8200395568
 20
2.9248342141
 30
0.0
 10
4.8199684976
 20
2.9248249559
 30
0.0
 10
4.8199230885
 20
2.9248171365
 30
0.0
 10
4.8198978178
 20
2.9248118802
 30
0.0
 10
4.8198775817
 20
2.9248063599
 30
0.0
 10
4.8198630355
 20
2.9248011066
 30
0.0
 10
4.8198514347
 20
2.9247942591
 30
0.0
 10
4.8198519224
 20
2.924789221
 30
0.0
  0
LINE
  5
324
100
AcDbEntity
  8
0
100
AcDbLine
 62
7
  6
CONTINUOUS
 10
3.3639002992
 20
2.9181798397
 11
3.3628414957
 21
2.9181693212
  0
SPLINE
  5
325
100
AcDbEntity
  8
0
100
AcDbSpline
 62
7
  6
CONTINUOUS
 70
0
 71
3
 72
45
 73
41
 74
0
 42
0.0000001
 43
0.0000001
 44
0.0000000001
 40
0.0
 40
0.0
 40
0.0
 40
0.0
 40
0.0000375953
 40
0.0001196946
 40
0.000252882
 40
0.0004383725
 40
0.0009676456
 40
0.0017088715
 40
0.0026623887
 40
0.0038279839
 40
0.0052051063
 40
0.0067931574
 40
0.0085915169
 40
0.0105995519
 40
0.0152420744
 40
0.0207143406
 40
0.027006936
 40
0.0341099724
 40
0.0420134389
 40
0.0507051046
 40
0.0601706805
 40
0.0703957965
 40
0.0813655866
 40
0.1054678799
 40
0.1323290002
 40
0.1617826768
 40
0.1936483105
 40
0.2277281689
 40
0.2638135194
 40
0.3016806207
 40
0.3410971471
 40
0.3818192824
 40
0.4661710893
 40
0.552659
 40
0.6391528686
 40
0.7235218473
 40
0.8036865434
 40
0.8776714564
 40
0.9436505119
 40
1.0
 40
1.0
 40
1.0
 40
1.0
 10
3.7830534359
 20
2.917367199
 30
0.0
 10
3.7830535649
 20
2.9173682903
 30
0.0
 10
3.7830500693
 20
2.9173709722
 30
0.0
 10
3.7830434656
 20
2.9173728089
 30
0.0
 10
3.7830317854
 20
2.917375597
 30
0.0
 10
3.7830074496
 20
2.9173793909
 30
0.0
 10
3.7829650295
 20
2.9173841881
 30
0.0
 10
3.7829003041
 20
2.9173896032
 30
0.0
 10
3.7828168653
 20
2.9173952655
 30
0.0
 10
3.7827148453
 20
2.9174010788
 30
0.0
 10
3.78259425
 20
2.9174070489
 30
0.0
 10
3.7824551499
 20
2.9174131568
 30
0.0
 10
3.7822975971
 20
2.9174193986
 30
0.0
 10
3.7820508027
 20
2.9174283288
 30
0.0
 10
3.78169664
 20
2.9174396225
 30
0.0
 10
3.7812172528
 20
2.9174530965
 30
0.0
 10
3.7806659333
 20
2.9174670271
 30
0.0
 10
3.7800435416
 20
2.9174813871
 30
0.0
 10
3.7793510184
 20
2.9174961452
 30
0.0
 10
3.7785894331
 20
2.9175112757
 30
0.0
 10
3.7777599819
 20
2.9175267536
 30
0.0
 10
3.7768639376
 20
2.9175425531
 30
0.0
 10
3.7755401191
 20
2.9175647137
 30
0.0
 10
3.7737300751
 20
2.9175928559
 30
0.0
 10
3.7713797835
 20
2.9176265447
 30
0.0
 10
3.7688025629
 20
2.9176609083
 30
0.0
 10
3.7660143323
 20
2.917695726
 30
0.0
 10
3.7630322515
 20
2.9177307813
 30
0.0
 10
3.7598747408
 20
2.9177658506
 30
0.0
 10
3.7565612321
 20
2.9178007196
 30
0.0
 10
3.7531121821
 20
2.917835169
 30
0.0
 10
3.7483044627
 20
2.9178807957
 30
0.0
 10
3.7421209024
 20
2.9179350937
 30
0.0
 10
3.7345994655
 20
2.9179946543
 30
0.0
 10
3.727077479
 20
2.9180478736
 30
0.0
 10
3.7197402688
 20
2.9180934834
 30
0.0
 10
3.7127686416
 20
2.9181302721
 30
0.0
 10
3.7063344987
 20
2.918157677
 30
0.0
 10
3.7005964235
 20
2.9181742638
 30
0.0
 10
3.697020851
 20
2.9181797977
 30
0.0
 10
3.6953737968
 20
2.9181798374
 30
0.0
  0
LINE
  5
326
100
AcDbEntity
  8
0
100
AcDbLine
 62
7
  6
CONTINUOUS
 10
3.6953737967
 20
2.9181798397
 11
3.6861200939
 21
2.9180930311
  0
SPLINE
  5
327
100
AcDbEntity
  8
0
100
AcDbSpline
 62
7
  6
CONTINUOUS
 70
0
 71
3
 72
32
 73
28
 74
0
 42
0.0000001
 43
0.0000001
 44
0.0000000001
 40
0.0
 40
0.0
 40
0.0
 40
0.0
 40
0.2176127656
 40
0.3188331272
 40
0.4143753289
 40
0.5038511662
 40
0.5868861478
 40
0.6631163851
 40
0.7322120932
 40
0.7938814908
 40
0.8478579657
 40
0.8718907754
 40
0.8939165598
 40
0.9139105014
 40
0.9318538784
 40
0.9477288747
 40
0.9615178048
 40
0.9732041661
 40
0.9827781825
 40
0.990233536
 40
0.9931654189
 40
0.995566623
 40
0.9974380802
 40
0.9987832336
 40
0.999261968
 40
0.999615985
 40
1.0
 40
1.0
 40
1.0
 40
1.0
 10
4.0685257154
 20
2.9252150168
 30
0.0
 10
4.0667686571
 20
2.9252149809
 30
0.0
 10
4.0641943204
 20
2.9252124214
 30
0.0
 10
4.0608485619
 20
2.9252047594
 30
0.0
 10
4.0585374153
 20
2.9251972251
 30
0.0
 10
4.0563731112
 20
2.9251875492
 30
0.0
 10
4.0543647494
 20
2.9251757491
 30
0.0
 10
4.0525209585
 20
2.925161956
 30
0.0
 10
4.0508497002
 20
2.9251462606
 30
0.0
 10
4.0493581534
 20
2.925128726
 30
0.0
 10
4.0482304739
 20
2.9251120833
 30
0.0
 10
4.0474228951
 20
2.9250976328
 30
0.0
 10
4.0468896802
 20
2.9250868058
 30
0.0
 10
4.0464056529
 20
2.9250755813
 30
0.0
 10
4.0459713131
 20
2.9250639772
 30
0.0
 10
4.0455871047
 20
2.9250520167
 30
0.0
 10
4.0452534565
 20
2.9250397206
 30
0.0
 10
4.0449707363
 20
2.9250271381
 30
0.0
 10
4.0447392278
 20
2.9250142788
 30
0.0
 10
4.0445784599
 20
2.9250027667
 30
0.0
 10
4.0444756514
 20
2.9249929363
 30
0.0
 10
4.0444178989
 20
2.9249861886
 30
0.0
 10
4.0443729617
 20
2.9249793232
 30
0.0
 10
4.0443438765
 20
2.9249734522
 30
0.0
 10
4.0443268097
 20
2.9249680264
 30
0.0
 10
4.0443182838
 20
2.9249644964
 30
0.0
 10
4.0443121623
 20
2.9249598533
 30
0.0
 10
4.0443124386
 20
2.924956765
 30
0.0
  0
SPLINE
  5
328
100
AcDbEntity
  8
0
100
AcDbSpline
 62
7
  6
CONTINUOUS
 70
0
 71
3
 72
32
 73
28
 74
0
 42
0.0000001
 43
0.0000001
 44
0.0000000001
 40
0.0
 40
0.0
 40
0.0
 40
0.0
 40
0.217610658
 40
0.3188306134
 40
0.4143740237
 40
0.5038520156
 40
0.5868899254
 40
0.6631240414
 40
0.7322245765
 40
0.7938995864
 40
0.847882237
 40
0.8719182709
 40
0.8939473261
 40
0.9139445289
 40
0.9318910904
 40
0.9477691129
 40
0.9615607985
 40
0.9732494726
 40
0.9828250826
 40
0.9868183549
 40
0.9902809277
 40
0.9932122505
 40
0.9956120976
 40
0.9974809392
 40
0.998821219
 40
0.9996426006
 40
1.0
 40
1.0
 40
1.0
 40
1.0
 10
4.3010059814
 20
2.9181798397
 30
0.0
 10
4.2992480232
 20
2.9181798108
 30
0.0
 10
4.2966723635
 20
2.9181776276
 30
0.0
 10
4.2933248676
 20
2.9181709489
 30
0.0
 10
4.2910124884
 20
2.9181643557
 30
0.0
 10
4.2888469991
 20
2.9181558929
 30
0.0
 10
4.2868375088
 20
2.918145579
 30
0.0
 10
4.2849926498
 20
2.9181335212
 30
0.0
 10
4.2833203867
 20
2.9181197968
 30
0.0
 10
4.2818279033
 20
2.9181044629
 30
0.0
 10
4.2806994857
 20
2.9180899088
 30
0.0
 10
4.2798913528
 20
2.9180772712
 30
0.0
 10
4.279357755
 20
2.9180678021
 30
0.0
 10
4.2788733661
 20
2.918057985
 30
0.0
 10
4.2784386866
 20
2.9180478362
 30
0.0
 10
4.2780541621
 20
2.9180373733
 30
0.0
 10
4.2777202204
 20
2.918026623
 30
0.0
 10
4.2774372369
 20
2.9180156032
 30
0.0
 10
4.2772334217
 20
2.9180057455
 30
0.0
 10
4.2770960889
 20
2.917997489
 30
0.0
 10
4.2770123609
 20
2.9179916044
 30
0.0
 10
4.2769416218
 20
2.9179857358
 30
0.0
 10
4.2768835968
 20
2.917979685
 30
0.0
 10
4.2768390707
 20
2.9179740707
 30
0.0
 10
4.2768060838
 20
2.9179675695
 30
0.0
 10
4.276788157
 20
2.9179632987
 30
0.0
 10
4.2767776624
 20
2.9179569286
 30
0.0
 10
4.2767779267
 20
2.9179540534
 30
0.0
  0
SPLINE
  5
329
100
AcDbEntity
  8
0
100
AcDbSpline
 62
7
  6
CONTINUOUS
 70
0
 71
3
 72
35
 73
31
 74
0
 42
0.0000001
 43
0.0000001
 44
0.0000000001
 40
0.0
 40
0.0
 40
0.0
 40
0.0
 40
0.2005399079
 40
0.2972203238
 40
0.3904240113
 40
0.4793703841
 40
0.5633055447
 40
0.641525726
 40
0.7133766756
 40
0.7782527775
 40
0.8079034803
 40
0.835610343
 40
0.8613176486
 40
0.8849703972
 40
0.9065174539
 40
0.9259163912
 40
0.9431260187
 40
0.9581082734
 40
0.9708348238
 40
0.9763440192
 40
0.9812794958
 40
0.9856383156
 40
0.9894188609
 40
0.9926200236
 40
0.9952409346
 40
0.9972812371
 40
0.9987419044
 40
0.9996288365
 40
0.9998674313
 40
1.0
 40
1.0
 40
1.0
 40
1.0
 10
5.0760775531
 20
2.9181798397
 30
0.0
 10
5.0731760425
 20
2.9181797983
 30
0.0
 10
5.0688757109
 20
2.9181754607
 30
0.0
 10
5.0632268763
 20
2.9181630642
 30
0.0
 10
5.0591926389
 20
2.9181501216
 30
0.0
 10
5.0553428205
 20
2.9181336779
 30
0.0
 10
5.0517098093
 20
2.9181139421
 30
0.0
 10
5.0483241667
 20
2.918091046
 30
0.0
 10
5.0452143098
 20
2.9180652005
 30
0.0
 10
5.0428071963
 20
2.9180407389
 30
0.0
 10
5.0410387851
 20
2.918019592
 30
0.0
 10
5.0398370673
 20
2.9180036134
 30
0.0
 10
5.0387221471
 20
2.9179870787
 30
0.0
 10
5.037696369
 20
2.9179700243
 30
0.0
 10
5.0367618861
 20
2.9179524879
 30
0.0
 10
5.0359206526
 20
2.9179345175
 30
0.0
 10
5.0351744349
 20
2.9179161657
 30
0.0
 10
5.0345247996
 20
2.917897474
 30
0.0
 10
5.0340444635
 20
2.917880997
 30
0.0
 10
5.0337094852
 20
2.9178674036
 30
0.0
 10
5.0334955225
 20
2.9178576483
 30
0.0
 10
5.0333066006
 20
2.9178478441
 30
0.0
 10
5.0331428167
 20
2.9178380123
 30
0.0
 10
5.0330042159
 20
2.9178281527
 30
0.0
 10
5.032890908
 20
2.9178183639
 30
0.0
 10
5.0328027792
 20
2.9178085444
 30
0.0
 10
5.0327401548
 20
2.9177992596
 30
0.0
 10
5.0327033346
 20
2.9177904124
 30
0.0
 10
5.0326868034
 20
2.9177833797
 30
0.0
 10
5.0326830115
 20
2.9177783756
 30
0.0
 10
5.0326832105
 20
2.9177764679
 30
0.0
  0
SPLINE
  5
32A
100
AcDbEntity
  8
0
100
AcDbSpline
 62
7
  6
CONTINUOUS
 70
0
 71
3
 72
21
 73
17
 74
0
 42
0.0000001
 43
0.0000001
 44
0.0000000001
 40
0.0
 40
0.0
 40
0.0
 40
0.0
 40
0.1249891119
 40
0.1874908506
 40
0.2499918922
 40
0.3124938322
 40
0.3749958746
 40
0.4374978899
 40
0.5
 40
0.5625021101
 40
0.6250041255
 40
0.6875061679
 40
0.7500081078
 40
0.8125091494
 40
0.8750108881
 40
1.0
 40
1.0
 40
1.0
 40
1.0
 10
5.4210008115
 20
4.4130914548
 30
0.0
 10
5.4095822267
 20
4.41609484
 30
0.0
 10
5.3923210278
 20
4.4201212542
 30
0.0
 10
5.3690988213
 20
4.4244269643
 30
0.0
 10
5.3515865501
 20
4.4271039301
 30
0.0
 10
5.3339963313
 20
4.4292082099
 30
0.0
 10
5.3163453118
 20
4.430723367
 30
0.0
 10
5.2986528984
 20
4.4316378224
 30
0.0
 10
5.280939441
 20
4.4319430811
 30
0.0
 10
5.2632259836
 20
4.4316378224
 30
0.0
 10
5.2455335701
 20
4.430723367
 30
0.0
 10
5.2278825506
 20
4.4292082099
 30
0.0
 10
5.2102923319
 20
4.4271039301
 30
0.0
 10
5.1927800607
 20
4.4244269643
 30
0.0
 10
5.1695578542
 20
4.4201212542
 30
0.0
 10
5.1522966553
 20
4.41609484
 30
0.0
 10
5.1408780705
 20
4.4130914548
 30
0.0
  0
LINE
  5
32B
100
AcDbEntity
  8
0
100
AcDbLine
 62
7
  6
CONTINUOUS
 10
3.4147126114
 20
2.9177922123
 11
3.3650729106
 21
2.9181774424
  0
SPLINE
  5
32C
100
AcDbEntity
  8
0
100
AcDbSpline
 62
7
  6
CONTINUOUS
 70
0
 71
3
 72
38
 73
34
 74
0
 42
0.0000001
 43
0.0000001
 44
0.0000000001
 40
0.0
 40
0.0
 40
0.0
 40
0.0
 40
0.176207105
 40
0.2661691169
 40
0.3557167124
 40
0.4436005094
 40
0.5286024761
 40
0.6095425255
 40
0.6852979847
 40
0.7548185783
 40
0.7869362495
 40
0.8171406093
 40
0.8453276895
 40
0.8714001941
 40
0.8952661199
 40
0.916845134
 40
0.9360600658
 40
0.9528461867
 40
0.9603101246
 40
0.9671450436
 40
0.9733453499
 40
0.9789063995
 40
0.9838235899
 40
0.9880923641
 40
0.9917085239
 40
0.9946697896
 40
0.9969748926
 40
0.9986233972
 40
0.9992020975
 40
0.9996184706
 40
0.9997669601
 40
0.9998772111
 40
1.0
 40
1.0
 40
1.0
 40
1.0
 10
5.8865716043
 20
2.9181798397
 30
0.0
 10
5.8828447324
 20
2.9181797842
 30
0.0
 10
5.8772151161
 20
2.9181724516
 30
0.0
 10
5.869691549
 20
2.9181523399
 30
0.0
 10
5.8640360781
 20
2.9181310804
 30
0.0
 10
5.8584855388
 20
2.9181044802
 30
0.0
 10
5.8531170834
 20
2.9180727509
 30
0.0
 10
5.848005184
 20
2.9180363978
 30
0.0
 10
5.8432207654
 20
2.9179959268
 30
0.0
 10
5.8394689819
 20
2.9179583466
 30
0.0
 10
5.8366806251
 20
2.9179263433
 30
0.0
 10
5.8347664607
 20
2.9179023146
 30
0.0
 10
5.8329801733
 20
2.9178777101
 30
0.0
 10
5.8313279679
 20
2.9178526212
 30
0.0
 10
5.8298155507
 20
2.9178271344
 30
0.0
 10
5.8284482025
 20
2.9178013579
 30
0.0
 10
5.8272306299
 20
2.9177753809
 30
0.0
 10
5.8263115958
 20
2.9177528786
 30
0.0
 10
5.8256543856
 20
2.9177346098
 30
0.0
 10
5.8252210167
 20
2.9177214559
 30
0.0
 10
5.8248279144
 20
2.9177083227
 30
0.0
 10
5.8244753966
 20
2.917695227
 30
0.0
 10
5.8241637608
 20
2.9176821846
 30
0.0
 10
5.8238932976
 20
2.917669228
 30
0.0
 10
5.8236642515
 20
2.9176563581
 30
0.0
 10
5.8234768061
 20
2.9176437014
 30
0.0
 10
5.8233310698
 20
2.9176311447
 30
0.0
 10
5.8232358231
 20
2.9176203772
 30
0.0
 10
5.8231806177
 20
2.9176109262
 30
0.0
 10
5.8231571216
 20
2.9176056447
 30
0.0
 10
5.8231434238
 20
2.9176008457
 30
0.0
 10
5.8231364625
 20
2.9175977035
 30
0.0
 10
5.823131714
 20
2.9175936068
 30
0.0
 10
5.8231319895
 20
2.9175910244
 30
0.0
  0
LINE
  5
32D
100
AcDbEntity
  8
0
100
AcDbLine
 62
7
  6
CONTINUOUS
 10
6.6083785229
 20
2.9180300865
 11
6.5923463592
 21
2.918179837
  0
ELLIPSE
  5
32E
100
AcDbEntity
  8
0
100
AcDbEllipse
 62
7
  6
CONTINUOUS
 10
5.280939441
 20
4.7127164548
 30
0.0
 11
0.0
 21
0.5325
 31
0.0
 40
1.0
 41
-3.4077500093
 42
-2.8754352978
  0
ENDSEC
  0
SECTION
  2
OBJECTS
  0
DICTIONARY
  5
C
100
AcDbDictionary
280
0
281
1
  3
ACAD_GROUP
350
D
  3
ACAD_MLINESTYLE
350
17
  3
ACAD_LAYOUT
350
1A
  3
ACAD_PLOTSETTINGS
350
19
  3
ACAD_PLOTSTYLENAME
350
E
  0
DICTIONARY
  5
D
102
{ACAD_REACTORS
330
C
102
}
100
AcDbDictionary
280
0
281
1
  0
ACDBDICTIONARYWDFLT
  5
E
102
{ACAD_REACTORS
330
C
102
}
100
AcDbDictionary
281
1
  3
Normal
350
F
100
AcDbDictionaryWithDefault
340
F
  0
DICTIONARY
  5
17
102
{ACAD_REACTORS
330
C
102
}
100
AcDbDictionary
280
0
281
1
  3
Standard
350
18
  0
DICTIONARY
  5
19
102
{ACAD_REACTORS
330
C
102
}
100
AcDbDictionary
281
1
  0
DICTIONARY
  5
1A
102
{ACAD_REACTORS
330
C
102
}
100
AcDbDictionary
281
1
  3
Model
350
32F
  3
Layout1
350
330
  0
ACDBPLACEHOLDER
  5
F
102
{ACAD_REACTORS
330
E
102
}
  0
MLINESTYLE
  5
18
102
{ACAD_REACTORS
330
17
102
}
100
AcDbMlineStyle
  2
STANDARD
 70
0
  3

 62
256
 51
90.0
 52
90.0
 71
2
 49
0.5
 62
256
  6
BYLAYER
 49
-0.5
 62
256
  6
BYLAYER
  0
LAYOUT
  5
32F
102
{ACAD_REACTORS
330
1A
102
}
100
AcDbPlotSettings
  1

  2
none_device
  4
ANSI_A_(11.00_x_8.50_Inches)
  6

 40
0.0
 41
0.0
 42
0.0
 43
0.0
 44
279.4
 45
215.9
 46
0.0
 47
0.0
 48
0.0
 49
0.0
140
0.0
141
0.0
142
1.0
143
1.0
 70
1024
 72
0
 73
0
 74
0
  7

 75
0
147
1.0
148
0.0
149
0.0
100
AcDbLayout
  1
Model
 70
0
 71
0
 10
0.0
 20
0.0
 11
11.0
 21
8.5
 12
0.0
 22
0.0
 32
0.0
 14
0.0
 24
0.0
 34
0.0
 15
0.0
 25
0.0
 35
0.0
146
0.0
 13
0.0
 23
0.0
 33
0.0
 16
1.0
 26
0.0
 36
0.0
 17
0.0
 27
1.0
 37
0.0
 76
0
330
202
345
0
346
0
  0
LAYOUT
  5
330
102
{ACAD_REACTORS
330
1A
102
}
100
AcDbPlotSettings
  1

  2
none_device
  4
ANSI_A_(11.00_x_8.50_Inches)
  6

 40
0.0
 41
0.0
 42
0.0
 43
0.0
 44
279.4
 45
215.9
 46
0.0
 47
0.0
 48
0.0
 49
0.0
140
0.0
141
0.0
142
1.0
143
1.0
 70
0
 72
0
 73
0
 74
0
  7

 75
0
147
1.0
148
0.0
149
0.0
100
AcDbLayout
  1
Layout1
 70
0
 71
1
 10
0.0
 20
0.0
 11
11.0
 21
8.5
 12
0.0
 22
0.0
 32
0.0
 14
0.0
 24
0.0
 34
0.0
 15
0.0
 25
0.0
 35
0.0
146
0.0
 13
0.0
 23
0.0
 33
0.0
 16
1.0
 26
0.0
 36
0.0
 17
0.0
 27
1.0
 37
0.0
 76
0
330
203
345
0
346
0
  0
ENDSEC
  0
EOF
