999
DXF file: 2155_right.dxf
999
Pro/ENGINEER 2018400 by Parametric Technology Corporation
  0
SECTION
  2
HEADER
  9
$ACADVER
  1
AC1027
  9
$DWGCODEPAGE
  3
ANSI_1252
  9
$EXTMAX
 10
11.0
 20
8.5
 30
0.0
  9
$EXTMIN
 10
0.0
 20
0.0
 30
0.0
  9
$LIMMIN
 10
0.0
 20
0.0
  9
$LIMMAX
 10
11.0
 20
8.5
  9
$VIEWCTR
 10
5.5
 20
4.25
  9
$VIEWSIZE
 40
8.5
  9
$CLAYER
  8
0
  9
$LTSCALE
 40
0.605
  9
$CELTYPE
  6
BYLAYER
  9
$DIMSCALE
 40
1.0
  9
$DIMASZ
 40
0.1
  9
$DIMEXO
 40
0.0625
  9
$DIMDLI
 40
0.418
  9
$DIMEXE
 40
0.125
  9
$DIMCEN
 40
0.099
  9
$DIMLFAC
 40
1.0
  9
$DIMBLK
  1
_FILLED
  9
$DIMALT
 70
1
  9
$DIMALTD
 70
1
  9
$DIMALTTD
 70
2
  9
$DIMALTF
 40
25.4
  9
$DIMTXT
 40
0.08
  9
$DIMTOL
 70
1
  9
$DIMLIM
 70
0
  9
$DIMTFAC
 40
1.0
  9
$DIMTP
 40
0.01
  9
$DIMTM
 40
0.01
  9
$DIMGAP
 40
0.09
  9
$DIMDSEP
 70
46
  9
$AUNITS
 70
0
  9
$PDMODE
 70
3
  9
$PDSIZE
 40
0.3125
  9
$HANDSEED
  5
50E
  9
$TILEMODE
 70
1
  9
$MEASUREMENT
 70
0
  9
$INSUNITS
 70
1
  0
ENDSEC
  0
SECTION
  2
CLASSES
  0
CLASS
  1
ACDBDICTIONARYWDFLT
  2
AcDbDictionaryWithDefault
  3
AutoCAD 2000
 90
0
 91
1
280
0
281
0
  0
CLASS
  1
ACDBPLACEHOLDER
  2
AcDbPlaceHolder
  3
AutoCAD 2000
 90
0
 91
1
280
0
281
0
  0
CLASS
  1
LAYOUT
  2
AcDbLayout
  3
AutoCAD 2000
 90
0
 91
0
280
0
281
0
  0
ENDSEC
  0
SECTION
  2
TABLES
  0
TABLE
  2
VPORT
  5
8
100
AcDbSymbolTable
 70
2
  0
VPORT
  5
1F4
100
AcDbSymbolTableRecord
100
AcDbViewportTableRecord
  2
*ACTIVE
 70
0
 10
0.0
 20
0.0
 11
1.0
 21
1.0
 12
5.5
 22
4.25
 13
0.0
 23
0.0
 14
1.0
 24
1.0
 15
0.0
 25
0.0
 16
0.0
 26
0.0
 36
1.0
 17
0.0
 27
0.0
 37
0.0
 40
8.5
 41
1.2941176471
 42
50.0
 43
0.0
 44
0.0
 50
0.0
 51
0.0
 71
0
 72
100
 73
1
 74
1
 75
0
 76
0
 77
0
 78
0
  0
ENDTAB
  0
TABLE
  2
LTYPE
  5
5
100
AcDbSymbolTable
 70
6
  0
LTYPE
  5
14
100
AcDbSymbolTableRecord
100
AcDbLinetypeTableRecord
  2
BYBLOCK
 70
0
  3

 72
65
 73
0
 40
0.0
  0
LTYPE
  5
15
100
AcDbSymbolTableRecord
100
AcDbLinetypeTableRecord
  2
BYLAYER
 70
0
  3

 72
65
 73
0
 40
0.0
  0
LTYPE
  5
16
100
AcDbSymbolTableRecord
100
AcDbLinetypeTableRecord
  2
CONTINUOUS
 70
64
  3
Solid line
 72
65
 73
0
 40
0.0
  0
LTYPE
  5
1F5
100
AcDbSymbolTableRecord
100
AcDbLinetypeTableRecord
  2
CENTER
 70
64
  3
____ _ ____ _ ____ _ ____ _ ____ _ ____ _ ____
 72
65
 73
4
 40
0.6
 49
0.375
 74
0
 49
-0.075
 74
0
 49
0.075
 74
0
 49
-0.075
 74
0
  0
LTYPE
  5
1F6
100
AcDbSymbolTableRecord
100
AcDbLinetypeTableRecord
  2
HIDDEN
 70
64
  3
- - - - - - - - - - - - - - - - - - - -
 72
65
 73
2
 40
0.2
 49
0.1
 74
0
 49
-0.1
 74
0
  0
LTYPE
  5
1F7
100
AcDbSymbolTableRecord
100
AcDbLinetypeTableRecord
  2
PHANTOM
 70
64
  3
_____ _ _ _____ _ _ _____ _ _ _____
 72
65
 73
6
 40
0.8
 49
0.45
 74
0
 49
-0.05
 74
0
 49
0.1
 74
0
 49
-0.05
 74
0
 49
0.1
 74
0
 49
-0.05
 74
0
  0
LTYPE
  5
1F8
100
AcDbSymbolTableRecord
100
AcDbLinetypeTableRecord
  2
DOT
 70
64
  3
. . . . . . . . . . . . . . . . . . . .
 72
65
 73
2
 40
0.2
 49
0.1
 74
0
 49
-0.1
 74
0
  0
LTYPE
  5
1F9
100
AcDbSymbolTableRecord
100
AcDbLinetypeTableRecord
  2
DASHED
 70
64
  3
- - - - - - - - - - - - - - - - - - - -
 72
65
 73
2
 40
0.2
 49
0.1
 74
0
 49
-0.1
 74
0
  0
ENDTAB
  0
TABLE
  2
LAYER
  5
2
100
AcDbSymbolTable
 70
36
  0
LAYER
  5
10
100
AcDbSymbolTableRecord
100
AcDbLayerTableRecord
  2
0
 70
0
 62
7
  6
CONTINUOUS
370
-3
390
F
  0
LAYER
  5
1FA
100
AcDbSymbolTableRecord
100
AcDbLayerTableRecord
  2
DEFAULT_1
 70
0
 62
7
  6
CENTER
370
-3
390
F
  0
LAYER
  5
1FB
100
AcDbSymbolTableRecord
100
AcDbLayerTableRecord
  2
DEFAULT_2
 70
0
 62
8
  6
HIDDEN
370
-3
390
F
  0
LAYER
  5
1FC
100
AcDbSymbolTableRecord
100
AcDbLayerTableRecord
  2
DEFAULT_3
 70
0
 62
7
  6
PHANTOM
370
-3
390
F
  0
LAYER
  5
1FD
100
AcDbSymbolTableRecord
100
AcDbLayerTableRecord
  2
_  SHELL
 70
0
 62
7
  6
CONTINUOUS
370
-3
390
F
  0
LAYER
  5
1FE
100
AcDbSymbolTableRecord
100
AcDbLayerTableRecord
  2
06___PRT_ALL_SURFS_15
 70
0
 62
7
  6
CONTINUOUS
370
-3
390
F
  0
LAYER
  5
1FF
100
AcDbSymbolTableRecord
100
AcDbLayerTableRecord
  2
11_9
 70
0
 62
7
  6
CONTINUOUS
370
-3
390
F
  0
LAYER
  5
200
100
AcDbSymbolTableRecord
100
AcDbLayerTableRecord
  2
1451A0A-0Z1-01
 70
0
 62
7
  6
CONTINUOUS
370
-3
390
F
  0
LAYER
  5
201
100
AcDbSymbolTableRecord
100
AcDbLayerTableRecord
  2
1451A0A-0Z1-02
 70
0
 62
7
  6
CONTINUOUS
370
-3
390
F
  0
LAYER
  5
202
100
AcDbSymbolTableRecord
100
AcDbLayerTableRecord
  2
1451A0A-0Z1-02_1
 70
0
 62
7
  6
CONTINUOUS
370
-3
390
F
  0
LAYER
  5
203
100
AcDbSymbolTableRecord
100
AcDbLayerTableRecord
  2
1451A0A-0Z1-03
 70
0
 62
7
  6
CONTINUOUS
370
-3
390
F
  0
LAYER
  5
204
100
AcDbSymbolTableRecord
100
AcDbLayerTableRecord
  2
1451A0A-0Z1-04
 70
0
 62
7
  6
CONTINUOUS
370
-3
390
F
  0
LAYER
  5
205
100
AcDbSymbolTableRecord
100
AcDbLayerTableRecord
  2
1451A0A-0Z1-05
 70
0
 62
7
  6
CONTINUOUS
370
-3
390
F
  0
LAYER
  5
206
100
AcDbSymbolTableRecord
100
AcDbLayerTableRecord
  2
1451A0A-0Z1-06
 70
0
 62
7
  6
CONTINUOUS
370
-3
390
F
  0
LAYER
  5
207
100
AcDbSymbolTableRecord
100
AcDbLayerTableRecord
  2
1451A0A-0Z1-07
 70
0
 62
7
  6
CONTINUOUS
370
-3
390
F
  0
LAYER
  5
208
100
AcDbSymbolTableRecord
100
AcDbLayerTableRecord
  2
22_4
 70
0
 62
7
  6
CONTINUOUS
370
-3
390
F
  0
LAYER
  5
209
100
AcDbSymbolTableRecord
100
AcDbLayerTableRecord
  2
22_5
 70
0
 62
7
  6
CONTINUOUS
370
-3
390
F
  0
LAYER
  5
20A
100
AcDbSymbolTableRecord
100
AcDbLayerTableRecord
  2
264X18
 70
0
 62
7
  6
CONTINUOUS
370
-3
390
F
  0
LAYER
  5
20B
100
AcDbSymbolTableRecord
100
AcDbLayerTableRecord
  2
30X15
 70
0
 62
7
  6
CONTINUOUS
370
-3
390
F
  0
LAYER
  5
20C
100
AcDbSymbolTableRecord
100
AcDbLayerTableRecord
  2
315X18
 70
0
 62
7
  6
CONTINUOUS
370
-3
390
F
  0
LAYER
  5
20D
100
AcDbSymbolTableRecord
100
AcDbLayerTableRecord
  2
59X178
 70
0
 62
7
  6
CONTINUOUS
370
-3
390
F
  0
LAYER
  5
20E
100
AcDbSymbolTableRecord
100
AcDbLayerTableRecord
  2
6X15
 70
0
 62
7
  6
CONTINUOUS
370
-3
390
F
  0
LAYER
  5
20F
100
AcDbSymbolTableRecord
100
AcDbLayerTableRecord
  2
925X178
 70
0
 62
7
  6
CONTINUOUS
370
-3
390
F
  0
LAYER
  5
210
100
AcDbSymbolTableRecord
100
AcDbLayerTableRecord
  2
ALL_FEATURES
 70
0
 62
7
  6
CONTINUOUS
370
-3
390
F
  0
LAYER
  5
211
100
AcDbSymbolTableRecord
100
AcDbLayerTableRecord
  2
AXES_FEATURES
 70
0
 62
7
  6
CONTINUOUS
370
-3
390
F
  0
LAYER
  5
212
100
AcDbSymbolTableRecord
100
AcDbLayerTableRecord
  2
CHAMFER_FEATURES
 70
0
 62
7
  6
CONTINUOUS
370
-3
390
F
  0
LAYER
  5
213
100
AcDbSymbolTableRecord
100
AcDbLayerTableRecord
  2
COLOR14
 70
0
 62
7
  6
CONTINUOUS
370
-3
390
F
  0
LAYER
  5
214
100
AcDbSymbolTableRecord
100
AcDbLayerTableRecord
  2
COLOR33
 70
0
 62
7
  6
CONTINUOUS
370
-3
390
F
  0
LAYER
  5
215
100
AcDbSymbolTableRecord
100
AcDbLayerTableRecord
  2
COLOR9
 70
0
 62
7
  6
CONTINUOUS
370
-3
390
F
  0
LAYER
  5
216
100
AcDbSymbolTableRecord
100
AcDbLayerTableRecord
  2
CUT_FEATURES
 70
0
 62
7
  6
CONTINUOUS
370
-3
390
F
  0
LAYER
  5
217
100
AcDbSymbolTableRecord
100
AcDbLayerTableRecord
  2
DATUM_CURVES
 70
0
 62
7
  6
CONTINUOUS
370
-3
390
F
  0
LAYER
  5
218
100
AcDbSymbolTableRecord
100
AcDbLayerTableRecord
  2
DATUM_PLANES
 70
0
 62
7
  6
CONTINUOUS
370
-3
390
F
  0
LAYER
  5
219
100
AcDbSymbolTableRecord
100
AcDbLayerTableRecord
  2
DATUM_POINTS
 70
0
 62
7
  6
CONTINUOUS
370
-3
390
F
  0
LAYER
  5
21A
100
AcDbSymbolTableRecord
100
AcDbLayerTableRecord
  2
DEFAULT_COORDINATE_SYSTEM
 70
0
 62
7
  6
CONTINUOUS
370
-3
390
F
  0
LAYER
  5
21B
100
AcDbSymbolTableRecord
100
AcDbLayerTableRecord
  2
DEFAULT_DATUM_AXES
 70
0
 62
7
  6
CONTINUOUS
370
-3
390
F
  0
LAYER
  5
21C
100
AcDbSymbolTableRecord
100
AcDbLayerTableRecord
  2
DEFAULT_DATUM_CURVES
 70
0
 62
7
  6
CONTINUOUS
370
-3
390
F
  0
LAYER
  5
21D
100
AcDbSymbolTableRecord
100
AcDbLayerTableRecord
  2
DEFAULT_DATUM_PLANES
 70
0
 62
7
  6
CONTINUOUS
370
-3
390
F
  0
LAYER
  5
21E
100
AcDbSymbolTableRecord
100
AcDbLayerTableRecord
  2
DEFAULT_SURFACES
 70
0
 62
7
  6
CONTINUOUS
370
-3
390
F
  0
LAYER
  5
21F
100
AcDbSymbolTableRecord
100
AcDbLayerTableRecord
  2
DIMENSIONS
 70
0
 62
7
  6
CONTINUOUS
370
-3
390
F
  0
LAYER
  5
220
100
AcDbSymbolTableRecord
100
AcDbLayerTableRecord
  2
HIDE
 70
0
 62
7
  6
CONTINUOUS
370
-3
390
F
  0
LAYER
  5
221
100
AcDbSymbolTableRecord
100
AcDbLayerTableRecord
  2
HIDE_10
 70
0
 62
7
  6
CONTINUOUS
370
-3
390
F
  0
LAYER
  5
222
100
AcDbSymbolTableRecord
100
AcDbLayerTableRecord
  2
HIDE_7
 70
0
 62
7
  6
CONTINUOUS
370
-3
390
F
  0
LAYER
  5
223
100
AcDbSymbolTableRecord
100
AcDbLayerTableRecord
  2
HIDE_8
 70
0
 62
7
  6
CONTINUOUS
370
-3
390
F
  0
LAYER
  5
224
100
AcDbSymbolTableRecord
100
AcDbLayerTableRecord
  2
HIDE_9
 70
0
 62
7
  6
CONTINUOUS
370
-3
390
F
  0
LAYER
  5
225
100
AcDbSymbolTableRecord
100
AcDbLayerTableRecord
  2
HOLE_FEATURES
 70
0
 62
7
  6
CONTINUOUS
370
-3
390
F
  0
LAYER
  5
226
100
AcDbSymbolTableRecord
100
AcDbLayerTableRecord
  2
INTFCLR_33883
 70
0
 62
7
  6
CONTINUOUS
370
-3
390
F
  0
LAYER
  5
227
100
AcDbSymbolTableRecord
100
AcDbLayerTableRecord
  2
INTFCLR_33883_1
 70
0
 62
7
  6
CONTINUOUS
370
-3
390
F
  0
LAYER
  5
228
100
AcDbSymbolTableRecord
100
AcDbLayerTableRecord
  2
INTFCLR_33883_2
 70
0
 62
7
  6
CONTINUOUS
370
-3
390
F
  0
LAYER
  5
229
100
AcDbSymbolTableRecord
100
AcDbLayerTableRecord
  2
INTFCLR_33883_3
 70
0
 62
7
  6
CONTINUOUS
370
-3
390
F
  0
LAYER
  5
22A
100
AcDbSymbolTableRecord
100
AcDbLayerTableRecord
  2
INTFCLR_33883_4
 70
0
 62
7
  6
CONTINUOUS
370
-3
390
F
  0
LAYER
  5
22B
100
AcDbSymbolTableRecord
100
AcDbLayerTableRecord
  2
INTFCLR_33883_5
 70
0
 62
7
  6
CONTINUOUS
370
-3
390
F
  0
LAYER
  5
22C
100
AcDbSymbolTableRecord
100
AcDbLayerTableRecord
  2
INTF_BLANK
 70
0
 62
7
  6
CONTINUOUS
370
-3
390
F
  0
LAYER
  5
22D
100
AcDbSymbolTableRecord
100
AcDbLayerTableRecord
  2
NOTES
 70
0
 62
7
  6
CONTINUOUS
370
-3
390
F
  0
LAYER
  5
22E
100
AcDbSymbolTableRecord
100
AcDbLayerTableRecord
  2
PART_REFERENCE_DIMENSIONS
 70
0
 62
7
  6
CONTINUOUS
370
-3
390
F
  0
LAYER
  5
22F
100
AcDbSymbolTableRecord
100
AcDbLayerTableRecord
  2
POINTS
 70
0
 62
7
  6
CONTINUOUS
370
-3
390
F
  0
LAYER
  5
230
100
AcDbSymbolTableRecord
100
AcDbLayerTableRecord
  2
PROTRUSION_FEATURES
 70
0
 62
7
  6
CONTINUOUS
370
-3
390
F
  0
LAYER
  5
231
100
AcDbSymbolTableRecord
100
AcDbLayerTableRecord
  2
REFERENCE_DIMENSIONS
 70
0
 62
7
  6
CONTINUOUS
370
-3
390
F
  0
LAYER
  5
232
100
AcDbSymbolTableRecord
100
AcDbLayerTableRecord
  2
ROUND_FEATURES
 70
0
 62
7
  6
CONTINUOUS
370
-3
390
F
  0
LAYER
  5
233
100
AcDbSymbolTableRecord
100
AcDbLayerTableRecord
  2
S01012-09A
 70
0
 62
7
  6
CONTINUOUS
370
-3
390
F
  0
LAYER
  5
234
100
AcDbSymbolTableRecord
100
AcDbLayerTableRecord
  2
S01012-10A
 70
0
 62
7
  6
CONTINUOUS
370
-3
390
F
  0
LAYER
  5
235
100
AcDbSymbolTableRecord
100
AcDbLayerTableRecord
  2
S02015-05
 70
0
 62
7
  6
CONTINUOUS
370
-3
390
F
  0
LAYER
  5
236
100
AcDbSymbolTableRecord
100
AcDbLayerTableRecord
  2
S02015-16B
 70
0
 62
7
  6
CONTINUOUS
370
-3
390
F
  0
LAYER
  5
237
100
AcDbSymbolTableRecord
100
AcDbLayerTableRecord
  2
S02015-17
 70
0
 62
7
  6
CONTINUOUS
370
-3
390
F
  0
LAYER
  5
238
100
AcDbSymbolTableRecord
100
AcDbLayerTableRecord
  2
S02015-18
 70
0
 62
7
  6
CONTINUOUS
370
-3
390
F
  0
LAYER
  5
239
100
AcDbSymbolTableRecord
100
AcDbLayerTableRecord
  2
S02015-20A
 70
0
 62
7
  6
CONTINUOUS
370
-3
390
F
  0
LAYER
  5
23A
100
AcDbSymbolTableRecord
100
AcDbLayerTableRecord
  2
S02015-31A
 70
0
 62
7
  6
CONTINUOUS
370
-3
390
F
  0
LAYER
  5
23B
100
AcDbSymbolTableRecord
100
AcDbLayerTableRecord
  2
S02015-32A
 70
0
 62
7
  6
CONTINUOUS
370
-3
390
F
  0
LAYER
  5
23C
100
AcDbSymbolTableRecord
100
AcDbLayerTableRecord
  2
S02015-32A_1
 70
0
 62
7
  6
CONTINUOUS
370
-3
390
F
  0
LAYER
  5
23D
100
AcDbSymbolTableRecord
100
AcDbLayerTableRecord
  2
S02015-35
 70
0
 62
7
  6
CONTINUOUS
370
-3
390
F
  0
LAYER
  5
23E
100
AcDbSymbolTableRecord
100
AcDbLayerTableRecord
  2
S15025-04A
 70
0
 62
7
  6
CONTINUOUS
370
-3
390
F
  0
LAYER
  5
23F
100
AcDbSymbolTableRecord
100
AcDbLayerTableRecord
  2
SURFACE
 70
0
 62
7
  6
CONTINUOUS
370
-3
390
F
  0
LAYER
  5
240
100
AcDbSymbolTableRecord
100
AcDbLayerTableRecord
  2
___SHELL
 70
0
 62
7
  6
CONTINUOUS
370
-3
390
F
  0
ENDTAB
  0
TABLE
  2
STYLE
  5
3
100
AcDbSymbolTable
 70
1
  0
STYLE
  5
11
100
AcDbSymbolTableRecord
100
AcDbTextStyleTableRecord
  2
STANDARD
 70
0
 40
0.0
 41
0.8
 50
0.0
 71
0
 42
0.2
  3
txt
  4

  0
STYLE
  5
241
100
AcDbSymbolTableRecord
100
AcDbTextStyleTableRecord
  2
TEXTSTYLE_1
 70
0
 40
0.0
 41
0.8
 50
0.0
 71
0
 42
0.2
  3
gdt
  4

  0
ENDTAB
  0
TABLE
  2
VIEW
  5
6
100
AcDbSymbolTable
 70
0
  0
ENDTAB
  0
TABLE
  2
UCS
  5
7
100
AcDbSymbolTable
 70
0
  0
ENDTAB
  0
TABLE
  2
APPID
  5
9
100
AcDbSymbolTable
 70
1
  0
APPID
  5
242
100
AcDbSymbolTableRecord
100
AcDbRegAppTableRecord
  2
ACAD
 70
0
  0
ENDTAB
  0
TABLE
  2
BLOCK_RECORD
  5
1
100
AcDbSymbolTable
 70
0
  0
BLOCK_RECORD
  5
243
100
AcDbSymbolTableRecord
100
AcDbBlockTableRecord
  2
*Model_Space
  0
BLOCK_RECORD
  5
244
100
AcDbSymbolTableRecord
100
AcDbBlockTableRecord
  2
*Paper_Space
  0
BLOCK_RECORD
  5
245
100
AcDbSymbolTableRecord
100
AcDbBlockTableRecord
  2
_FILLED
  0
ENDTAB
  0
TABLE
  2
DIMSTYLE
  5
A
100
AcDbSymbolTable
 70
1
100
AcDbDimStyleTable
 71
0
  0
DIMSTYLE
105
246
100
AcDbSymbolTableRecord
100
AcDbDimStyleTableRecord
  2
STANDARD
 70
0
  3

  4

 40
1.0
 41
0.1
 42
0.0625
 43
0.38
 44
0.125
 45
0.0
 46
0.0
 47
0.01
 48
0.01
140
0.08
141
0.09
142
0.0
143
25.4
144
1.0
145
0.0
146
1.0
147
0.09
 71
1.0
 72
0.0
 73
1
 74
1
 75
0
 76
0
 77
0
 78
4
 79
1
170
1
171
1
172
0
173
0
174
0
175
0
176
0
177
0
178
0
270
2
179
2
271
2
272
2
273
2
274
2
275
0
280
0
281
0
282
0
283
1
284
4
285
0
286
0
287
3
288
0
340
11
278
46
341
245
342
245
343
245
344
245
  0
ENDTAB
  0
ENDSEC
  0
SECTION
  2
BLOCKS
  0
BLOCK
  5
20
100
AcDbEntity
  8
0
100
AcDbBlockBegin
  2
*Model_Space
 70
0
 10
0.0
 20
0.0
 30
0.0
  3
*Model_Space
  1

  0
ENDBLK
  5
21
100
AcDbEntity
  8
0
100
AcDbBlockEnd
  0
BLOCK
  5
1C
100
AcDbEntity
  8
0
100
AcDbBlockBegin
  2
*Paper_Space
 70
0
 10
0.0
 20
0.0
 30
0.0
  3
*Paper_Space
  1

  0
ENDBLK
  5
1D
100
AcDbEntity
  8
0
100
AcDbBlockEnd
  0
BLOCK
  5
247
100
AcDbEntity
  8
0
100
AcDbBlockBegin
  2
_FILLED
 70
64
 10
0.0
 20
0.0
  3
_FILLED
  1

  0
SOLID
  5
248
100
AcDbEntity
  8
0
  6
BYBLOCK
 62
0
100
AcDbTrace
 10
0.0
 20
0.0
 11
-1.0
 21
0.2
 12
-1.0
 22
-0.2
 13
-1.0
 23
-0.2
  0
ENDBLK
  5
249
100
AcDbEntity
  8
0
  6
BYBLOCK
 62
0
100
AcDbBlockEnd
  0
ENDSEC
  0
SECTION
  2
ENTITIES
  0
MTEXT
  5
24A
100
AcDbEntity
  8
0
100
AcDbMText
 62
2
  6
CONTINUOUS
  7
STANDARD
 71
3
 72
1
 10
5.9331435772
 20
1.4832582188
 30
0.0
 11
1.0
 21
0.0
 31
0.0
 73
2
 44
0.9
  1
SCALE  1.000
 40
0.08
 41
0.768
  0
LINE
  5
24B
100
AcDbEntity
  8
0
100
AcDbLine
 62
7
  6
CONTINUOUS
 10
0.0
 20
0.0
 11
0.0
 21
8.5
  0
LINE
  5
24C
100
AcDbEntity
  8
0
100
AcDbLine
 62
7
  6
CONTINUOUS
 10
0.0
 20
0.0
 11
11.0
 21
0.0
  0
LINE
  5
24D
100
AcDbEntity
  8
0
100
AcDbLine
 62
7
  6
CONTINUOUS
 10
0.0
 20
8.5
 11
11.0
 21
8.5
  0
LINE
  5
24E
100
AcDbEntity
  8
0
100
AcDbLine
 62
7
  6
CONTINUOUS
 10
11.0
 20
0.0
 11
11.0
 21
8.5
  0
LINE
  5
24F
100
AcDbEntity
  8
0
100
AcDbLine
 62
7
  6
CONTINUOUS
 10
3.716679196
 20
2.6802153702
 11
3.724833284
 21
2.6720612822
  0
LINE
  5
250
100
AcDbEntity
  8
0
100
AcDbLine
 62
7
  6
CONTINUOUS
 10
3.7716813542
 20
2.680214831
 11
3.779834903
 21
2.6720612822
  0
LINE
  5
251
100
AcDbEntity
  8
0
100
AcDbLine
 62
7
  6
CONTINUOUS
 10
3.4077639752
 20
3.6719700421
 11
3.4077639752
 21
2.8278872074
  0
LINE
  5
252
100
AcDbEntity
  8
0
100
AcDbLine
 62
7
  6
CONTINUOUS
 10
3.9550311322
 20
2.6386680444
 11
3.9631851074
 21
2.6305140693
  0
LINE
  5
253
100
AcDbEntity
  8
0
100
AcDbLine
 62
7
  6
CONTINUOUS
 10
3.932938022
 20
2.6802147508
 11
3.9410914905
 21
2.6720612822
  0
LINE
  5
254
100
AcDbEntity
  8
0
100
AcDbLine
 62
7
  6
CONTINUOUS
 10
4.0495961272
 20
2.6386679093
 11
4.0577499673
 21
2.6305140693
  0
LINE
  5
255
100
AcDbEntity
  8
0
100
AcDbLine
 62
7
  6
CONTINUOUS
 10
4.1894601859
 20
2.6802147729
 11
4.1976136766
 21
2.6720612822
  0
LINE
  5
256
100
AcDbEntity
  8
0
100
AcDbLine
 62
7
  6
CONTINUOUS
 10
4.2322814081
 20
2.6386679093
 11
4.2404352481
 21
2.6305140693
  0
LINE
  5
257
100
AcDbEntity
  8
0
100
AcDbLine
 62
7
  6
CONTINUOUS
 10
4.4351557311
 20
2.5245376976
 11
4.4479220262
 21
2.5117714025
  0
LINE
  5
258
100
AcDbEntity
  8
0
100
AcDbLine
 62
7
  6
CONTINUOUS
 10
4.467778489
 20
2.5245376976
 11
4.4805447841
 21
2.5117714025
  0
LINE
  5
259
100
AcDbEntity
  8
0
100
AcDbLine
 62
7
  6
CONTINUOUS
 10
3.7109135815
 20
2.7290546116
 11
3.7109135815
 21
2.6941347951
  0
LINE
  5
25A
100
AcDbEntity
  8
0
100
AcDbLine
 62
7
  6
CONTINUOUS
 10
3.7659152004
 20
2.7290546116
 11
3.7659152004
 21
2.6941347951
  0
LINE
  5
25B
100
AcDbEntity
  8
0
100
AcDbLine
 62
7
  6
CONTINUOUS
 10
4.8372586881
 20
2.4031495486
 11
4.9256077872
 21
2.4031495486
  0
LINE
  5
25C
100
AcDbEntity
  8
0
100
AcDbLine
 62
7
  6
CONTINUOUS
 10
4.9296566839
 20
2.4031495486
 11
5.145616378
 21
2.4031495486
  0
LINE
  5
25D
100
AcDbEntity
  8
0
100
AcDbLine
 62
7
  6
CONTINUOUS
 10
5.1526404508
 20
2.4031495486
 11
5.2317354772
 21
2.4031495486
  0
LINE
  5
25E
100
AcDbEntity
  8
0
100
AcDbLine
 62
7
  6
CONTINUOUS
 10
5.2388827753
 20
2.4031495486
 11
5.4548549878
 21
2.4031495486
  0
LINE
  5
25F
100
AcDbEntity
  8
0
100
AcDbLine
 62
7
  6
CONTINUOUS
 10
5.5475073344
 20
2.4031495486
 11
5.5766451751
 21
2.4031495486
  0
LINE
  5
260
100
AcDbEntity
  8
0
100
AcDbLine
 62
7
  6
CONTINUOUS
 10
5.5837924731
 20
2.4031495486
 11
5.7997530311
 21
2.4031495486
  0
LINE
  5
261
100
AcDbEntity
  8
0
100
AcDbLine
 62
7
  6
CONTINUOUS
 10
5.8043532096
 20
2.4031495486
 11
5.9782692623
 21
2.4031495486
  0
LINE
  5
262
100
AcDbEntity
  8
0
100
AcDbLine
 62
7
  6
CONTINUOUS
 10
4.8233128339
 20
2.4089147999
 11
5.1979673095
 21
2.40891454
  0
LINE
  5
263
100
AcDbEntity
  8
0
100
AcDbLine
 62
7
  6
CONTINUOUS
 10
5.2249621579
 20
2.40891454
 11
5.4687756052
 21
2.40891454
  0
LINE
  5
264
100
AcDbEntity
  8
0
100
AcDbLine
 62
7
  6
CONTINUOUS
 10
6.3475410415
 20
2.4089634483
 11
6.331554806
 21
2.4089634483
  0
LINE
  5
265
100
AcDbEntity
  8
0
100
AcDbLine
 62
7
  6
CONTINUOUS
 10
5.1644646578
 20
2.4138359432
 11
5.2200407547
 21
2.4138359432
  0
LINE
  5
266
100
AcDbEntity
  8
0
100
AcDbLine
 62
7
  6
CONTINUOUS
 10
5.4736970084
 20
2.4138359432
 11
5.5649446252
 21
2.4138359432
  0
LINE
  5
267
100
AcDbEntity
  8
0
100
AcDbLine
 62
7
  6
CONTINUOUS
 10
4.8151592494
 20
2.4170683844
 11
5.1676970973
 21
2.4170683827
  0
LINE
  5
268
100
AcDbEntity
  8
0
100
AcDbLine
 62
7
  6
CONTINUOUS
 10
5.2168083135
 20
2.4170683844
 11
5.4769294495
 21
2.4170683844
  0
LINE
  5
269
100
AcDbEntity
  8
0
100
AcDbLine
 62
7
  6
CONTINUOUS
 10
5.5617121857
 20
2.4170683827
 11
6.0003687009
 21
2.4170683844
  0
LINE
  5
26A
100
AcDbEntity
  8
0
100
AcDbLine
 62
7
  6
CONTINUOUS
 10
4.7642752962
 20
2.422834588
 11
6.0512526541
 21
2.422834588
  0
LINE
  5
26B
100
AcDbEntity
  8
0
100
AcDbLine
 62
7
  6
CONTINUOUS
 10
4.745786472
 20
2.4357869168
 11
6.0697414783
 21
2.4357869168
  0
LINE
  5
26C
100
AcDbEntity
  8
0
100
AcDbLine
 62
7
  6
CONTINUOUS
 10
5.1968576802
 20
2.5083120707
 11
5.1043117718
 21
2.5083120707
  0
LINE
  5
26D
100
AcDbEntity
  8
0
100
AcDbLine
 62
7
  6
CONTINUOUS
 10
4.5814299778
 20
2.5083120707
 11
4.4889404588
 21
2.5083120707
  0
LINE
  5
26E
100
AcDbEntity
  8
0
100
AcDbLine
 62
7
  6
CONTINUOUS
 10
4.4562895597
 20
2.5083120707
 11
4.4851768087
 21
2.5083120707
  0
LINE
  5
26F
100
AcDbEntity
  8
0
100
AcDbLine
 62
7
  6
CONTINUOUS
 10
4.9018939231
 20
2.5083120707
 11
4.9944700628
 21
2.5083120707
  0
LINE
  5
270
100
AcDbEntity
  8
0
100
AcDbLine
 62
7
  6
CONTINUOUS
 10
5.321992481
 20
2.5083120707
 11
5.4145397284
 21
2.5083120707
  0
LINE
  5
271
100
AcDbEntity
  8
0
100
AcDbLine
 62
7
  6
CONTINUOUS
 10
5.9614902492
 20
2.5083120707
 11
6.0540582609
 21
2.5083120707
  0
LINE
  5
272
100
AcDbEntity
  8
0
100
AcDbLine
 62
7
  6
CONTINUOUS
 10
6.0961384755
 20
2.5083120707
 11
6.2002941642
 21
2.5083120707
  0
LINE
  5
273
100
AcDbEntity
  8
0
100
AcDbLine
 62
7
  6
CONTINUOUS
 10
6.2012291784
 20
2.5083120707
 11
6.2046479285
 21
2.5083120707
  0
LINE
  5
274
100
AcDbEntity
  8
0
100
AcDbLine
 62
7
  6
CONTINUOUS
 10
6.2096428876
 20
2.5083120707
 11
6.3022205235
 21
2.5083120707
  0
LINE
  5
275
100
AcDbEntity
  8
0
100
AcDbLine
 62
7
  6
CONTINUOUS
 10
5.3136256705
 20
2.5117714025
 11
5.4229065389
 21
2.5117714025
  0
LINE
  5
276
100
AcDbEntity
  8
0
100
AcDbLine
 62
7
  6
CONTINUOUS
 10
4.8935415588
 20
2.5117714025
 11
5.0028224271
 21
2.5117714025
  0
LINE
  5
277
100
AcDbEntity
  8
0
100
AcDbLine
 62
7
  6
CONTINUOUS
 10
5.0959442918
 20
2.5117714025
 11
5.2052251602
 21
2.5117714025
  0
LINE
  5
278
100
AcDbEntity
  8
0
100
AcDbLine
 62
7
  6
CONTINUOUS
 10
4.4479407133
 20
2.5117714394
 11
4.5898256525
 21
2.5117714025
  0
LINE
  5
279
100
AcDbEntity
  8
0
100
AcDbLine
 62
7
  6
CONTINUOUS
 10
5.9531338204
 20
2.511771403
 11
6.0624146897
 21
2.511771403
  0
LINE
  5
27A
100
AcDbEntity
  8
0
100
AcDbLine
 62
7
  6
CONTINUOUS
 10
6.0973975692
 20
2.5117714023
 11
6.3105721393
 21
2.5117714021
  0
LINE
  5
27B
100
AcDbEntity
  8
0
100
AcDbLine
 62
7
  6
CONTINUOUS
 10
5.0048030995
 20
2.5137520749
 11
5.0939636194
 21
2.5137520749
  0
LINE
  5
27C
100
AcDbEntity
  8
0
100
AcDbLine
 62
7
  6
CONTINUOUS
 10
5.2072058326
 20
2.5137520749
 11
5.3116449981
 21
2.5137520749
  0
LINE
  5
27D
100
AcDbEntity
  8
0
100
AcDbLine
 62
7
  6
CONTINUOUS
 10
5.4248872113
 20
2.5137520749
 11
5.9511531485
 21
2.5137520749
  0
LINE
  5
27E
100
AcDbEntity
  8
0
100
AcDbLine
 62
7
  6
CONTINUOUS
 10
6.0643953616
 20
2.5137520749
 11
6.0973988662
 21
2.5137520749
  0
LINE
  5
27F
100
AcDbEntity
  8
0
100
AcDbLine
 62
7
  6
CONTINUOUS
 10
4.7174094752
 20
2.5137520749
 11
4.8915608864
 21
2.5137520749
  0
LINE
  5
280
100
AcDbEntity
  8
0
100
AcDbLine
 62
7
  6
CONTINUOUS
 10
4.4351557311
 20
2.5245376976
 11
4.6025919476
 21
2.5245376976
  0
LINE
  5
281
100
AcDbEntity
  8
0
100
AcDbLine
 62
7
  6
CONTINUOUS
 10
4.8807752637
 20
2.5245376976
 11
5.0155887222
 21
2.5245376976
  0
LINE
  5
282
100
AcDbEntity
  8
0
100
AcDbLine
 62
7
  6
CONTINUOUS
 10
5.0831779967
 20
2.5245376976
 11
5.2179914553
 21
2.5245376976
  0
LINE
  5
283
100
AcDbEntity
  8
0
100
AcDbLine
 62
7
  6
CONTINUOUS
 10
5.3008593754
 20
2.5245376976
 11
5.435672834
 21
2.5245376976
  0
LINE
  5
284
100
AcDbEntity
  8
0
100
AcDbLine
 62
7
  6
CONTINUOUS
 10
5.9403675258
 20
2.5245376975
 11
6.0751809843
 21
2.5245376975
  0
LINE
  5
285
100
AcDbEntity
  8
0
100
AcDbLine
 62
7
  6
CONTINUOUS
 10
6.0866132434
 20
2.5245376976
 11
6.3233384349
 21
2.5245376976
  0
LINE
  5
286
100
AcDbEntity
  8
0
100
AcDbLine
 62
7
  6
CONTINUOUS
 10
6.3267978473
 20
2.5328893962
 11
6.083153831
 21
2.5328893962
  0
LINE
  5
287
100
AcDbEntity
  8
0
100
AcDbLine
 62
7
  6
CONTINUOUS
 10
6.0786403968
 20
2.5328893962
 11
5.9369081133
 21
2.5328893962
  0
LINE
  5
288
100
AcDbEntity
  8
0
100
AcDbLine
 62
7
  6
CONTINUOUS
 10
5.4391322464
 20
2.5328893962
 11
5.297399963
 21
2.5328893962
  0
LINE
  5
289
100
AcDbEntity
  8
0
100
AcDbLine
 62
7
  6
CONTINUOUS
 10
5.2214508677
 20
2.5328893962
 11
5.0797185843
 21
2.5328893962
  0
LINE
  5
28A
100
AcDbEntity
  8
0
100
AcDbLine
 62
7
  6
CONTINUOUS
 10
5.0190481347
 20
2.5328893962
 11
4.8773158512
 21
2.5328893962
  0
LINE
  5
28B
100
AcDbEntity
  8
0
100
AcDbLine
 62
7
  6
CONTINUOUS
 10
4.60605136
 20
2.5328893962
 11
4.4317206027
 21
2.5328893962
  0
LINE
  5
28C
100
AcDbEntity
  8
0
100
AcDbLine
 62
7
  6
CONTINUOUS
 10
4.6843864536
 20
2.5394558917
 11
4.8773158512
 21
2.5394558917
  0
LINE
  5
28D
100
AcDbEntity
  8
0
100
AcDbLine
 62
7
  6
CONTINUOUS
 10
5.0190484588
 20
2.5394558917
 11
5.0797185843
 21
2.5394558917
  0
LINE
  5
28E
100
AcDbEntity
  8
0
100
AcDbLine
 62
7
  6
CONTINUOUS
 10
5.2214511604
 20
2.5394558917
 11
5.297399963
 21
2.5394558917
  0
LINE
  5
28F
100
AcDbEntity
  8
0
100
AcDbLine
 62
7
  6
CONTINUOUS
 10
5.4391322464
 20
2.5394558917
 11
5.9369081133
 21
2.5394558917
  0
LINE
  5
290
100
AcDbEntity
  8
0
100
AcDbLine
 62
7
  6
CONTINUOUS
 10
6.0786403968
 20
2.5394558917
 11
6.083153831
 21
2.5394558917
  0
LINE
  5
291
100
AcDbEntity
  8
0
100
AcDbLine
 62
7
  6
CONTINUOUS
 10
4.6148578344
 20
2.5501663436
 11
4.6148622077
 21
2.550166343
  0
LINE
  5
292
100
AcDbEntity
  8
0
100
AcDbLine
 62
7
  6
CONTINUOUS
 10
5.5698660284
 20
2.40891454
 11
5.9922151165
 21
2.4089147999
  0
LINE
  5
293
100
AcDbEntity
  8
0
100
AcDbLine
 62
7
  6
CONTINUOUS
 10
4.6148622077
 20
2.550166343
 11
4.6161595975
 21
2.5500879938
  0
LINE
  5
294
100
AcDbEntity
  8
0
100
AcDbLine
 62
7
  6
CONTINUOUS
 10
4.4222221221
 20
2.5709450462
 11
4.4221891796
 21
2.5709502666
  0
LINE
  5
295
100
AcDbEntity
  8
0
100
AcDbLine
 62
7
  6
CONTINUOUS
 10
4.4221465547
 20
2.5709571308
 11
4.4221252307
 21
2.570960643
  0
LWPOLYLINE
  5
296
100
AcDbEntity
  8
0
100
AcDbPolyline
 62
7
  6
CONTINUOUS
 90
23
 70
0
 10
4.422118621
 20
2.5709617596
 10
4.4221330237
 20
2.5709592562
 10
4.4221944596
 20
2.570948033
 10
4.422289858
 20
2.5709295597
 10
4.422429883
 20
2.5709005659
 10
4.4226723082
 20
2.5708455887
 10
4.4230272727
 20
2.570754611
 10
4.4234712018
 20
2.5706234232
 10
4.4240056519
 20
2.5704393945
 10
4.4246317298
 20
2.5701860806
 10
4.4253204663
 20
2.5698571848
 10
4.4260280617
 20
2.5694590411
 10
4.4267361308
 20
2.5689925573
 10
4.4274325946
 20
2.5684567757
 10
4.428108089
 20
2.5678504208
 10
4.4287746372
 20
2.567148521
 10
4.429436285
 20
2.566320061
 10
4.4300605833
 20
2.5653689162
 10
4.4306152798
 20
2.5643086013
 10
4.4310836484
 20
2.5631258633
 10
4.431445302
 20
2.5617914802
 10
4.4316578298
 20
2.5603247315
 10
4.4316958242
 20
2.5593721926
  0
LWPOLYLINE
  5
297
100
AcDbEntity
  8
0
100
AcDbPolyline
 62
7
  6
CONTINUOUS
 90
18
 70
0
 10
4.4579882427
 20
2.5694289101
 10
4.4578565665
 20
2.5694630537
 10
4.4575900948
 20
2.5695348097
 10
4.4574147328
 20
2.5695848902
 10
4.4573154639
 20
2.5696151271
 10
4.4573024611
 20
2.5696194193
 10
4.4574320813
 20
2.5695721606
 10
4.4576805981
 20
2.5694708645
 10
4.458045565
 20
2.5693032106
 10
4.4585921003
 20
2.5690143384
 10
4.4593037843
 20
2.5685704696
 10
4.4601012194
 20
2.5679741161
 10
4.4609643144
 20
2.5671876119
 10
4.4619350026
 20
2.566070951
 10
4.4629092158
 20
2.5645645856
 10
4.4636816631
 20
2.5628071714
 10
4.4641649626
 20
2.5608926638
 10
4.4643197212
 20
2.5589930133
  0
LWPOLYLINE
  5
298
100
AcDbEntity
  8
0
100
AcDbPolyline
 62
7
  6
CONTINUOUS
 90
12
 70
0
 10
4.8740870828
 20
2.562039979
 10
4.8735307737
 20
2.5622711995
 10
4.8732503152
 20
2.5624041939
 10
4.8733352085
 20
2.5623507489
 10
4.8736722953
 20
2.5621125439
 10
4.8741933596
 20
2.5616715092
 10
4.8749054186
 20
2.5609256951
 10
4.8757349544
 20
2.5597881321
 10
4.8764915518
 20
2.5583229562
 10
4.8770608858
 20
2.556524696
 10
4.8773128068
 20
2.5544498153
 10
4.8773156731
 20
2.5541897322
  0
LWPOLYLINE
  5
299
100
AcDbEntity
  8
0
100
AcDbPolyline
 62
7
  6
CONTINUOUS
 90
11
 70
0
 10
5.0766498085
 20
2.5594244955
 10
5.0760715719
 20
2.5596679955
 10
5.0758410424
 20
2.5597804729
 10
5.0759847393
 20
2.559689307
 10
5.0763639307
 20
2.5594065828
 10
5.0768960136
 20
2.5589263822
 10
5.0775888906
 20
2.5581471107
 10
5.0783660755
 20
2.556994457
 10
5.0790543215
 20
2.5555310074
 10
5.0795497773
 20
2.5537360951
 10
5.0797201443
 20
2.5518440391
  0
LINE
  5
29A
100
AcDbEntity
  8
0
100
AcDbLine
 62
7
  6
CONTINUOUS
 10
4.4906374099
 20
2.6386679093
 11
4.4987912499
 21
2.6305140693
  0
LINE
  5
29B
100
AcDbEntity
  8
0
100
AcDbLine
 62
7
  6
CONTINUOUS
 10
4.5237660588
 20
2.6802151217
 11
4.5319198724
 21
2.6720613081
  0
LINE
  5
29C
100
AcDbEntity
  8
0
100
AcDbLine
 62
7
  6
CONTINUOUS
 10
4.8151592494
 20
2.4170683844
 11
4.8233128339
 21
2.4089147999
  0
LINE
  5
29D
100
AcDbEntity
  8
0
100
AcDbLine
 62
7
  6
CONTINUOUS
 10
3.9271717879
 20
2.7290546116
 11
3.9271717879
 21
2.6941347951
  0
LINE
  5
29E
100
AcDbEntity
  8
0
100
AcDbLine
 62
7
  6
CONTINUOUS
 10
3.9492653601
 20
2.6671874951
 11
3.9492653601
 21
2.6525876268
  0
LINE
  5
29F
100
AcDbEntity
  8
0
100
AcDbLine
 62
7
  6
CONTINUOUS
 10
4.4316963187
 20
2.5593720197
 11
4.4317206027
 21
2.559375796
  0
LINE
  5
2A0
100
AcDbEntity
  8
DEFAULT_SURFACES
100
AcDbLine
 62
7
  6
CONTINUOUS
 10
7.2868602863
 20
2.7456337482
 11
7.3319508517
 21
2.7479968446
  0
LINE
  5
2A1
100
AcDbEntity
  8
0
100
AcDbLine
 62
7
  6
CONTINUOUS
 10
6.569181298
 20
2.5975703457
 11
4.2463466523
 21
2.5975703457
  0
LINE
  5
2A2
100
AcDbEntity
  8
0
100
AcDbLine
 62
7
  6
CONTINUOUS
 10
4.2345622073
 20
2.6043415651
 11
6.580965743
 21
2.6043415651
  0
LINE
  5
2A3
100
AcDbEntity
  8
0
100
AcDbLine
 62
7
  6
CONTINUOUS
 10
6.6699292023
 20
2.6196837315
 11
4.1455979684
 21
2.6196789196
  0
LINE
  5
2A4
100
AcDbEntity
  8
0
100
AcDbLine
 62
7
  6
CONTINUOUS
 10
4.5987501921
 20
2.6247487772
 11
4.5127250967
 21
2.6247487772
  0
LINE
  5
2A5
100
AcDbEntity
  8
0
100
AcDbLine
 62
7
  6
CONTINUOUS
 10
4.3403941903
 20
2.6247487772
 11
4.2543690949
 21
2.6247487772
  0
LINE
  5
2A6
100
AcDbEntity
  8
0
100
AcDbLine
 62
7
  6
CONTINUOUS
 10
3.9771245899
 20
2.6247487772
 11
4.0631384138
 21
2.6247487772
  0
LINE
  5
2A7
100
AcDbEntity
  8
0
100
AcDbLine
 62
7
  6
CONTINUOUS
 10
4.0716727594
 20
2.6247487772
 11
4.1577199641
 21
2.6247487772
  0
LINE
  5
2A8
100
AcDbEntity
  8
0
100
AcDbLine
 62
7
  6
CONTINUOUS
 10
4.829145078
 20
2.6247487772
 11
4.9151705872
 21
2.6247487772
  0
LINE
  5
2A9
100
AcDbEntity
  8
0
100
AcDbLine
 62
7
  6
CONTINUOUS
 10
5.1820551268
 20
2.6247487772
 11
5.2681022618
 21
2.6247487772
  0
LINE
  5
2AA
100
AcDbEntity
  8
0
100
AcDbLine
 62
7
  6
CONTINUOUS
 10
5.5474266453
 20
2.6247487772
 11
5.6334718667
 21
2.6247487772
  0
LINE
  5
2AB
100
AcDbEntity
  8
0
100
AcDbLine
 62
7
  6
CONTINUOUS
 10
5.9003617811
 20
2.6247487772
 11
5.9863784543
 21
2.6247487772
  0
LINE
  5
2AC
100
AcDbEntity
  8
0
100
AcDbLine
 62
7
  6
CONTINUOUS
 10
6.2167672891
 20
2.6247487772
 11
6.3028133227
 21
2.6247487772
  0
LINE
  5
2AD
100
AcDbEntity
  8
0
100
AcDbLine
 62
7
  6
CONTINUOUS
 10
6.4751253695
 20
2.6247487772
 11
6.5611672459
 21
2.6247487772
  0
LINE
  5
2AE
100
AcDbEntity
  8
0
100
AcDbLine
 62
7
  6
CONTINUOUS
 10
6.6578064982
 20
2.6247487772
 11
6.7438204122
 21
2.6247487772
  0
LINE
  5
2AF
100
AcDbEntity
  8
0
100
AcDbLine
 62
7
  6
CONTINUOUS
 10
6.7523943851
 20
2.6247487772
 11
6.8383985118
 21
2.6247487772
  0
LINE
  5
2B0
100
AcDbEntity
  8
0
100
AcDbLine
 62
7
  6
CONTINUOUS
 10
6.6492549986
 20
2.6267483295
 11
6.5697228977
 21
2.6267483295
  0
LINE
  5
2B1
100
AcDbEntity
  8
0
100
AcDbLine
 62
7
  6
CONTINUOUS
 10
6.4665697177
 20
2.6267483295
 11
6.3113668959
 21
2.6267483295
  0
LINE
  5
2B2
100
AcDbEntity
  8
0
100
AcDbLine
 62
7
  6
CONTINUOUS
 10
6.2082137159
 20
2.6267483295
 11
5.9949467077
 21
2.6267483295
  0
LINE
  5
2B3
100
AcDbEntity
  8
0
100
AcDbLine
 62
7
  6
CONTINUOUS
 10
5.8917935277
 20
2.6267483295
 11
5.642025846
 21
2.6267483295
  0
LINE
  5
2B4
100
AcDbEntity
  8
0
100
AcDbLine
 62
7
  6
CONTINUOUS
 10
5.538872666
 20
2.6267483295
 11
5.2766552843
 21
2.6267483295
  0
LINE
  5
2B5
100
AcDbEntity
  8
0
100
AcDbLine
 62
7
  6
CONTINUOUS
 10
5.1735021043
 20
2.6267483295
 11
4.9237344226
 21
2.6267483295
  0
LINE
  5
2B6
100
AcDbEntity
  8
0
100
AcDbLine
 62
7
  6
CONTINUOUS
 10
4.166272936
 20
2.6267483217
 11
4.2458050683
 21
2.6267483217
  0
LINE
  5
2B7
100
AcDbEntity
  8
0
100
AcDbLine
 62
7
  6
CONTINUOUS
 10
4.3489582169
 20
2.6267483217
 11
4.5041610701
 21
2.6267483217
  0
LINE
  5
2B8
100
AcDbEntity
  8
0
100
AcDbLine
 62
7
  6
CONTINUOUS
 10
4.6073142187
 20
2.6267483217
 11
4.8205812426
 21
2.6267483295
  0
LINE
  5
2B9
100
AcDbEntity
  8
0
100
AcDbLine
 62
7
  6
CONTINUOUS
 10
4.2404352481
 20
2.6305140693
 11
4.3543280371
 21
2.6305140693
  0
LINE
  5
2BA
100
AcDbEntity
  8
0
100
AcDbLine
 62
7
  6
CONTINUOUS
 10
4.8152174612
 20
2.6305140693
 11
4.9291042271
 21
2.6305140693
  0
LINE
  5
2BB
100
AcDbEntity
  8
0
100
AcDbLine
 62
7
  6
CONTINUOUS
 10
5.5335028615
 20
2.6305140693
 11
5.6473956505
 21
2.6305140693
  0
LINE
  5
2BC
100
AcDbEntity
  8
0
100
AcDbLine
 62
7
  6
CONTINUOUS
 10
6.2028499345
 20
2.6305140693
 11
6.3167367004
 21
2.6305140693
  0
LINE
  5
2BD
100
AcDbEntity
  8
0
100
AcDbLine
 62
7
  6
CONTINUOUS
 10
5.1681865002
 20
2.6305140693
 11
5.2820250888
 21
2.6305140693
  0
LINE
  5
2BE
100
AcDbEntity
  8
0
100
AcDbLine
 62
7
  6
CONTINUOUS
 10
4.4987912499
 20
2.6305140693
 11
4.6126840389
 21
2.6305140693
  0
LINE
  5
2BF
100
AcDbEntity
  8
0
100
AcDbLine
 62
7
  6
CONTINUOUS
 10
3.9631851074
 20
2.6305140693
 11
4.1716427562
 21
2.6305140693
  0
LINE
  5
2C0
100
AcDbEntity
  8
0
100
AcDbLine
 62
7
  6
CONTINUOUS
 10
5.8864237232
 20
2.6305140693
 11
6.0003165122
 21
2.6305140693
  0
LINE
  5
2C1
100
AcDbEntity
  8
0
100
AcDbLine
 62
7
  6
CONTINUOUS
 10
6.4612541136
 20
2.6305140693
 11
6.5750927
 21
2.6305140671
  0
LINE
  5
2C2
100
AcDbEntity
  8
0
100
AcDbLine
 62
7
  6
CONTINUOUS
 10
6.3248905404
 20
2.6386679093
 11
6.1946900714
 21
2.6386679093
  0
LINE
  5
2C3
100
AcDbEntity
  8
0
100
AcDbLine
 62
7
  6
CONTINUOUS
 10
5.6555494905
 20
2.6386679093
 11
5.5253490215
 21
2.6386679093
  0
LINE
  5
2C4
100
AcDbEntity
  8
0
100
AcDbLine
 62
7
  6
CONTINUOUS
 10
3.9550311322
 20
2.6386680444
 11
4.1797965962
 21
2.6386679093
  0
LINE
  5
2C5
100
AcDbEntity
  8
0
100
AcDbLine
 62
7
  6
CONTINUOUS
 10
4.4906374099
 20
2.6386679093
 11
4.6208378789
 21
2.6386679093
  0
LINE
  5
2C6
100
AcDbEntity
  8
0
100
AcDbLine
 62
7
  6
CONTINUOUS
 10
5.1599784598
 20
2.6386679093
 11
5.2901789288
 21
2.6386679093
  0
LINE
  5
2C7
100
AcDbEntity
  8
0
100
AcDbLine
 62
7
  6
CONTINUOUS
 10
5.8782698832
 20
2.6386679093
 11
6.0084703522
 21
2.6386679093
  0
LINE
  5
2C8
100
AcDbEntity
  8
0
100
AcDbLine
 62
7
  6
CONTINUOUS
 10
6.4530460732
 20
2.6386679093
 11
6.5832465422
 21
2.6386679093
  0
LINE
  5
2C9
100
AcDbEntity
  8
0
100
AcDbLine
 62
7
  6
CONTINUOUS
 10
6.6357313541
 20
2.6386679093
 11
6.860496683
 21
2.6386679093
  0
LINE
  5
2CA
100
AcDbEntity
  8
0
100
AcDbLine
 62
7
  6
CONTINUOUS
 10
4.9372580671
 20
2.6386679093
 11
4.8070575982
 21
2.6386679093
  0
LINE
  5
2CB
100
AcDbEntity
  8
0
100
AcDbLine
 62
7
  6
CONTINUOUS
 10
4.3624818771
 20
2.6386679093
 11
4.2322814081
 21
2.6386679093
  0
LINE
  5
2CC
100
AcDbEntity
  8
0
100
AcDbLine
 62
7
  6
CONTINUOUS
 10
6.6309926635
 20
2.6464426532
 11
6.5879852328
 21
2.6464426532
  0
LINE
  5
2CD
100
AcDbEntity
  8
0
100
AcDbLine
 62
7
  6
CONTINUOUS
 10
6.4483073827
 20
2.6464426532
 11
6.329629231
 21
2.6464426532
  0
LINE
  5
2CE
100
AcDbEntity
  8
0
100
AcDbLine
 62
7
  6
CONTINUOUS
 10
6.1899513808
 20
2.6464426532
 11
6.0132090428
 21
2.6464426532
  0
LINE
  5
2CF
100
AcDbEntity
  8
0
100
AcDbLine
 62
7
  6
CONTINUOUS
 10
5.8735311926
 20
2.6464426532
 11
5.6602881811
 21
2.6464426532
  0
LINE
  5
2D0
100
AcDbEntity
  8
0
100
AcDbLine
 62
7
  6
CONTINUOUS
 10
5.5206103309
 20
2.6464426532
 11
5.2949176194
 21
2.6464426532
  0
LINE
  5
2D1
100
AcDbEntity
  8
0
100
AcDbLine
 62
7
  6
CONTINUOUS
 10
5.1555948736
 20
2.6464426532
 11
4.9419967577
 21
2.6464426533
  0
LINE
  5
2D2
100
AcDbEntity
  8
0
100
AcDbLine
 62
7
  6
CONTINUOUS
 10
4.1845352868
 20
2.6464426532
 11
4.2275427175
 21
2.6464426532
  0
LINE
  5
2D3
100
AcDbEntity
  8
0
100
AcDbLine
 62
7
  6
CONTINUOUS
 10
4.3672205677
 20
2.6464426532
 11
4.4863496626
 21
2.6464426532
  0
LINE
  5
2D4
100
AcDbEntity
  8
0
100
AcDbLine
 62
7
  6
CONTINUOUS
 10
4.6255765695
 20
2.6464426532
 11
4.8023189072
 21
2.6464426542
  0
LINE
  5
2D5
100
AcDbEntity
  8
0
100
AcDbLine
 62
7
  6
CONTINUOUS
 10
6.8662625902
 20
2.6525876268
 11
6.6299654468
 21
2.6525876268
  0
LINE
  5
2D6
100
AcDbEntity
  8
0
100
AcDbLine
 62
7
  6
CONTINUOUS
 10
6.5890124495
 20
2.6525876268
 11
6.447280166
 21
2.6525876268
  0
LINE
  5
2D7
100
AcDbEntity
  8
0
100
AcDbLine
 62
7
  6
CONTINUOUS
 10
6.3306564476
 20
2.6525876268
 11
6.1889241642
 21
2.6525876268
  0
LINE
  5
2D8
100
AcDbEntity
  8
0
100
AcDbLine
 62
7
  6
CONTINUOUS
 10
6.0142362594
 20
2.6525876268
 11
5.872503976
 21
2.6525876268
  0
LINE
  5
2D9
100
AcDbEntity
  8
0
100
AcDbLine
 62
7
  6
CONTINUOUS
 10
5.6613153977
 20
2.6525876268
 11
5.5195831143
 21
2.6525876268
  0
LINE
  5
2DA
100
AcDbEntity
  8
0
100
AcDbLine
 62
7
  6
CONTINUOUS
 10
5.295944836
 20
2.6525876268
 11
5.1542125526
 21
2.6525876268
  0
LINE
  5
2DB
100
AcDbEntity
  8
0
100
AcDbLine
 62
7
  6
CONTINUOUS
 10
4.9430239743
 20
2.6525876268
 11
4.8012916909
 21
2.6525876268
  0
LINE
  5
2DC
100
AcDbEntity
  8
0
100
AcDbLine
 62
7
  6
CONTINUOUS
 10
4.6266037861
 20
2.6525876268
 11
4.4848715027
 21
2.6525876268
  0
LINE
  5
2DD
100
AcDbEntity
  8
0
100
AcDbLine
 62
7
  6
CONTINUOUS
 10
4.3682477843
 20
2.6525876268
 11
4.2265155008
 21
2.6525876268
  0
LINE
  5
2DE
100
AcDbEntity
  8
0
100
AcDbLine
 62
7
  6
CONTINUOUS
 10
4.1855625035
 20
2.6525876268
 11
3.9492653601
 21
2.6525876268
  0
LINE
  5
2DF
100
AcDbEntity
  8
0
100
AcDbLine
 62
7
  6
CONTINUOUS
 10
4.1855625035
 20
2.6640885222
 11
4.2265155008
 21
2.6640885222
  0
LINE
  5
2E0
100
AcDbEntity
  8
0
100
AcDbLine
 62
7
  6
CONTINUOUS
 10
4.3682477843
 20
2.6640885222
 11
4.4848715027
 21
2.6640885222
  0
LINE
  5
2E1
100
AcDbEntity
  8
0
100
AcDbLine
 62
7
  6
CONTINUOUS
 10
4.6280965192
 20
2.6640885222
 11
4.8012916909
 21
2.6640885241
  0
LINE
  5
2E2
100
AcDbEntity
  8
0
100
AcDbLine
 62
7
  6
CONTINUOUS
 10
4.9430239743
 20
2.6640885223
 11
5.1542125526
 21
2.6640885222
  0
LINE
  5
2E3
100
AcDbEntity
  8
0
100
AcDbLine
 62
7
  6
CONTINUOUS
 10
5.295944836
 20
2.6640885222
 11
5.5195831143
 21
2.6640885222
  0
LINE
  5
2E4
100
AcDbEntity
  8
0
100
AcDbLine
 62
7
  6
CONTINUOUS
 10
5.6613153977
 20
2.6640885222
 11
5.872503976
 21
2.6640885222
  0
LINE
  5
2E5
100
AcDbEntity
  8
0
100
AcDbLine
 62
7
  6
CONTINUOUS
 10
6.0142362594
 20
2.6640885222
 11
6.1874314318
 21
2.6640885222
  0
LINE
  5
2E6
100
AcDbEntity
  8
0
100
AcDbLine
 62
7
  6
CONTINUOUS
 10
6.3306564476
 20
2.6640885222
 11
6.447280166
 21
2.6640885222
  0
LINE
  5
2E7
100
AcDbEntity
  8
0
100
AcDbLine
 62
7
  6
CONTINUOUS
 10
6.5890124495
 20
2.6640885222
 11
6.6299654468
 21
2.6640885222
  0
LINE
  5
2E8
100
AcDbEntity
  8
0
100
AcDbLine
 62
7
  6
CONTINUOUS
 10
6.2696885591
 20
2.6662959454
 11
6.1600126196
 21
2.6662959454
  0
LINE
  5
2E9
100
AcDbEntity
  8
0
100
AcDbLine
 62
7
  6
CONTINUOUS
 10
5.0447483633
 20
2.6662959454
 11
4.9352220399
 21
2.6662959454
  0
LINE
  5
2EA
100
AcDbEntity
  8
0
100
AcDbLine
 62
7
  6
CONTINUOUS
 10
4.6555153645
 20
2.6662959454
 11
4.5458393575
 21
2.6662959454
  0
LINE
  5
2EB
100
AcDbEntity
  8
0
100
AcDbLine
 62
7
  6
CONTINUOUS
 10
3.738752777
 20
2.6662959454
 11
3.7901545989
 21
2.6662959454
  0
LINE
  5
2EC
100
AcDbEntity
  8
0
100
AcDbLine
 62
7
  6
CONTINUOUS
 10
3.7937613215
 20
2.6662959454
 11
3.90342341
 21
2.6662959454
  0
LINE
  5
2ED
100
AcDbEntity
  8
0
100
AcDbLine
 62
7
  6
CONTINUOUS
 10
3.9550386393
 20
2.6662959454
 11
4.0646592673
 21
2.6662959454
  0
LINE
  5
2EE
100
AcDbEntity
  8
0
100
AcDbLine
 62
7
  6
CONTINUOUS
 10
4.2115352474
 20
2.6662959454
 11
4.3212070314
 21
2.6662959454
  0
LINE
  5
2EF
100
AcDbEntity
  8
0
100
AcDbLine
 62
7
  6
CONTINUOUS
 10
5.3529467412
 20
2.6662959454
 11
5.4625812091
 21
2.6662959454
  0
LINE
  5
2F0
100
AcDbEntity
  8
0
100
AcDbLine
 62
7
  6
CONTINUOUS
 10
5.7707174766
 20
2.6662959454
 11
5.8803680209
 21
2.6662959454
  0
LINE
  5
2F1
100
AcDbEntity
  8
0
100
AcDbLine
 62
7
  6
CONTINUOUS
 10
6.4943207313
 20
2.6662959454
 11
6.6039928906
 21
2.6662959454
  0
LINE
  5
2F2
100
AcDbEntity
  8
0
100
AcDbLine
 62
7
  6
CONTINUOUS
 10
6.7508629822
 20
2.6662959454
 11
6.8604950118
 21
2.6662959454
  0
LINE
  5
2F3
100
AcDbEntity
  8
0
100
AcDbLine
 62
7
  6
CONTINUOUS
 10
6.9121085337
 20
2.6662959454
 11
7.0217626353
 21
2.6662959454
  0
LINE
  5
2F4
100
AcDbEntity
  8
0
100
AcDbLine
 62
7
  6
CONTINUOUS
 10
7.0249272993
 20
2.6662959454
 11
7.0767751733
 21
2.6662959454
  0
LINE
  5
2F5
100
AcDbEntity
  8
0
100
AcDbLine
 62
7
  6
CONTINUOUS
 10
3.7792952665
 20
2.6720612822
 11
3.724833284
 21
2.6720612822
  0
LINE
  5
2F6
100
AcDbEntity
  8
0
100
AcDbLine
 62
7
  6
CONTINUOUS
 10
3.779834903
 20
2.6720612822
 11
3.9173498286
 21
2.6720612822
  0
LINE
  5
2F7
100
AcDbEntity
  8
0
100
AcDbLine
 62
7
  6
CONTINUOUS
 10
3.9410914905
 20
2.6720612822
 11
4.0786064161
 21
2.6720612822
  0
LINE
  5
2F8
100
AcDbEntity
  8
0
100
AcDbLine
 62
7
  6
CONTINUOUS
 10
4.1976136766
 20
2.6720612822
 11
4.3351286022
 21
2.6720612822
  0
LINE
  5
2F9
100
AcDbEntity
  8
0
100
AcDbLine
 62
7
  6
CONTINUOUS
 10
4.9212277388
 20
2.6720612822
 11
5.0587426643
 21
2.6720612822
  0
LINE
  5
2FA
100
AcDbEntity
  8
0
100
AcDbLine
 62
7
  6
CONTINUOUS
 10
5.3390065124
 20
2.6720612822
 11
5.4765214379
 21
2.6720612822
  0
LINE
  5
2FB
100
AcDbEntity
  8
0
100
AcDbLine
 62
7
  6
CONTINUOUS
 10
5.756785286
 20
2.6720612822
 11
5.8943002115
 21
2.6720612822
  0
LINE
  5
2FC
100
AcDbEntity
  8
0
100
AcDbLine
 62
7
  6
CONTINUOUS
 10
6.1460931266
 20
2.6720612822
 11
6.2836080521
 21
2.6720612822
  0
LINE
  5
2FD
100
AcDbEntity
  8
0
100
AcDbLine
 62
7
  6
CONTINUOUS
 10
6.4803993482
 20
2.6720612822
 11
6.6179142737
 21
2.6720612822
  0
LINE
  5
2FE
100
AcDbEntity
  8
0
100
AcDbLine
 62
7
  6
CONTINUOUS
 10
6.7369215342
 20
2.6720612822
 11
6.8744364598
 21
2.6720612822
  0
LINE
  5
2FF
100
AcDbEntity
  8
0
100
AcDbLine
 62
7
  6
CONTINUOUS
 10
6.8981781217
 20
2.6720612822
 11
7.0356930473
 21
2.6720612822
  0
LINE
  5
300
100
AcDbEntity
  8
0
100
AcDbLine
 62
7
  6
CONTINUOUS
 10
7.0362326838
 20
2.6720612822
 11
7.0906946663
 21
2.6720612822
  0
LINE
  5
301
100
AcDbEntity
  8
0
100
AcDbLine
 62
7
  6
CONTINUOUS
 10
4.5319198724
 20
2.6720613081
 11
4.6694348496
 21
2.6720613081
  0
LINE
  5
302
100
AcDbEntity
  8
0
100
AcDbLine
 62
7
  6
CONTINUOUS
 10
7.0988487543
 20
2.6802153702
 11
6.8900246311
 21
2.6802147729
  0
LINE
  5
303
100
AcDbEntity
  8
0
100
AcDbLine
 62
7
  6
CONTINUOUS
 10
6.8825899506
 20
2.6802147731
 11
6.7287680434
 21
2.6802147731
  0
LINE
  5
304
100
AcDbEntity
  8
0
100
AcDbLine
 62
7
  6
CONTINUOUS
 10
6.6260677644
 20
2.6802147729
 11
6.4722458575
 21
2.6802147729
  0
LINE
  5
305
100
AcDbEntity
  8
0
100
AcDbLine
 62
7
  6
CONTINUOUS
 10
6.2917615428
 20
2.6802147729
 11
6.1379396359
 21
2.6802147729
  0
LINE
  5
306
100
AcDbEntity
  8
0
100
AcDbLine
 62
7
  6
CONTINUOUS
 10
5.9024537022
 20
2.6802147729
 11
5.7486317953
 21
2.6802147729
  0
LINE
  5
307
100
AcDbEntity
  8
0
100
AcDbLine
 62
7
  6
CONTINUOUS
 10
5.4846749286
 20
2.6802147729
 11
5.3308530217
 21
2.6802147729
  0
LINE
  5
308
100
AcDbEntity
  8
0
100
AcDbLine
 62
7
  6
CONTINUOUS
 10
3.9255033773
 20
2.680214831
 11
3.7166797933
 21
2.6802147729
  0
LINE
  5
309
100
AcDbEntity
  8
0
100
AcDbLine
 62
7
  6
CONTINUOUS
 10
5.066896155
 20
2.6802147729
 11
4.9130742481
 21
2.6802147729
  0
LINE
  5
30A
100
AcDbEntity
  8
0
100
AcDbLine
 62
7
  6
CONTINUOUS
 10
4.6775886632
 20
2.6802151217
 11
4.5237660588
 21
2.6802151217
  0
LINE
  5
30B
100
AcDbEntity
  8
0
100
AcDbLine
 62
7
  6
CONTINUOUS
 10
4.3432820928
 20
2.6802147729
 11
4.1894601859
 21
2.6802147729
  0
LINE
  5
30C
100
AcDbEntity
  8
0
100
AcDbLine
 62
7
  6
CONTINUOUS
 10
4.0867598846
 20
2.6802147508
 11
3.932938022
 21
2.6802147508
  0
LINE
  5
30D
100
AcDbEntity
  8
0
100
AcDbLine
 62
7
  6
CONTINUOUS
 10
7.1046143689
 20
2.6941347951
 11
6.7230018317
 21
2.6941347951
  0
LINE
  5
30E
100
AcDbEntity
  8
0
100
AcDbLine
 62
7
  6
CONTINUOUS
 10
6.6318339763
 20
2.6941347951
 11
6.4664796456
 21
2.6941347951
  0
LINE
  5
30F
100
AcDbEntity
  8
0
100
AcDbLine
 62
7
  6
CONTINUOUS
 10
6.2975277547
 20
2.6941347951
 11
6.132173424
 21
2.6941347951
  0
LINE
  5
310
100
AcDbEntity
  8
0
100
AcDbLine
 62
7
  6
CONTINUOUS
 10
5.9082199141
 20
2.6941347951
 11
5.7428655834
 21
2.6941347951
  0
LINE
  5
311
100
AcDbEntity
  8
0
100
AcDbLine
 62
7
  6
CONTINUOUS
 10
5.4904411405
 20
2.6941347951
 11
5.3250868098
 21
2.6941347951
  0
LINE
  5
312
100
AcDbEntity
  8
0
100
AcDbLine
 62
7
  6
CONTINUOUS
 10
5.0726623669
 20
2.6941347951
 11
4.9073080362
 21
2.6941347951
  0
LINE
  5
313
100
AcDbEntity
  8
0
100
AcDbLine
 62
7
  6
CONTINUOUS
 10
4.3490483047
 20
2.6941347951
 11
4.183693974
 21
2.6941347951
  0
LINE
  5
314
100
AcDbEntity
  8
0
100
AcDbLine
 62
7
  6
CONTINUOUS
 10
4.0925261187
 20
2.6941347951
 11
3.7109135815
 21
2.6941347951
  0
LINE
  5
315
100
AcDbEntity
  8
0
100
AcDbLine
 62
7
  6
CONTINUOUS
 10
4.5180001956
 20
2.6941347951
 11
4.6833545263
 21
2.6941347951
  0
LINE
  5
316
100
AcDbEntity
  8
0
100
AcDbLine
 62
7
  6
CONTINUOUS
 10
3.6421104676
 20
2.7290546116
 11
7.1708805363
 21
2.7290546116
  0
LINE
  5
317
100
AcDbEntity
  8
0
100
AcDbLine
 62
7
  6
CONTINUOUS
 10
3.6394015379
 20
2.7292982409
 11
7.1761264124
 21
2.7292982409
  0
LINE
  5
318
100
AcDbEntity
  8
0
100
AcDbLine
 62
7
  6
CONTINUOUS
 10
6.6438851941
 20
2.6305140693
 11
6.8523430066
 21
2.630514233
  0
LINE
  5
319
100
AcDbEntity
  8
DEFAULT_SURFACES
100
AcDbLine
 62
7
  6
CONTINUOUS
 10
3.528667664
 20
2.7456337482
 11
3.4835770987
 21
2.7479968446
  0
LWPOLYLINE
  5
31A
100
AcDbEntity
  8
0
100
AcDbPolyline
 62
7
  6
CONTINUOUS
 90
14
 70
0
 10
5.9317523286
 20
2.5513294173
 10
5.9315167728
 20
2.5513773408
 10
5.9310877844
 20
2.5514764669
 10
5.9309326466
 20
2.5515181881
 10
5.9310338048
 20
2.5514787287
 10
5.9314472388
 20
2.5512920612
 10
5.9321440341
 20
2.5508967584
 10
5.9329758956
 20
2.5502995764
 10
5.9338481355
 20
2.5495060809
 10
5.9348048386
 20
2.5483755436
 10
5.9357426299
 20
2.5468391337
 10
5.9364486989
 20
2.5450532618
 10
5.9368419065
 20
2.5431098502
 10
5.9369079403
 20
2.5418992859
  0
LINE
  5
31B
100
AcDbEntity
  8
0
100
AcDbLine
 62
7
  6
CONTINUOUS
 10
5.2947208257
 20
2.5567608064
 11
5.2940293151
 21
2.5570134152
  0
LWPOLYLINE
  5
31C
100
AcDbEntity
  8
0
100
AcDbPolyline
 62
7
  6
CONTINUOUS
 90
10
 70
0
 10
5.2940293151
 20
2.5570134152
 10
5.2935084879
 20
2.5572330606
 10
5.2937178178
 20
2.5570933846
 10
5.2941702857
 20
2.5567403924
 10
5.2948580432
 20
2.5560733167
 10
5.2957035915
 20
2.5549928668
 10
5.2965018074
 20
2.5535475571
 10
5.2971217301
 20
2.5517097992
 10
5.2973970852
 20
2.549552356
 10
5.2973996369
 20
2.5493086859
  0
LINE
  5
31D
100
AcDbEntity
  8
0
100
AcDbLine
 62
7
  6
CONTINUOUS
 10
4.9075759646
 20
2.4170683827
 11
4.9157298073
 21
2.40891454
  0
LINE
  5
31E
100
AcDbEntity
  8
0
100
AcDbLine
 62
7
  6
CONTINUOUS
 10
4.8807752637
 20
2.5245376976
 11
4.8935415588
 21
2.5117714025
  0
LINE
  5
31F
100
AcDbEntity
  8
0
100
AcDbLine
 62
7
  6
CONTINUOUS
 10
4.8070575982
 20
2.6386679093
 11
4.8152114381
 21
2.6305140693
  0
LINE
  5
320
100
AcDbEntity
  8
0
100
AcDbLine
 62
7
  6
CONTINUOUS
 10
4.04383022
 20
2.6662959454
 11
4.04383022
 21
2.6525876268
  0
LINE
  5
321
100
AcDbEntity
  8
0
100
AcDbLine
 62
7
  6
CONTINUOUS
 10
4.0925261187
 20
2.7161038761
 11
4.0925261187
 21
2.6941347951
  0
LINE
  5
322
100
AcDbEntity
  8
DEFAULT_SURFACES
100
AcDbLine
 62
7
  6
CONTINUOUS
 10
3.528667664
 20
2.7456337482
 11
7.2868602863
 21
2.7456337482
  0
LINE
  5
323
100
AcDbEntity
  8
0
100
AcDbLine
 62
7
  6
CONTINUOUS
 10
3.4835770992
 20
2.7479968446
 11
7.3319508511
 21
2.7479968446
  0
LINE
  5
324
100
AcDbEntity
  8
0
100
AcDbLine
 62
7
  6
CONTINUOUS
 10
3.4077639752
 20
2.8278872074
 11
7.4077639752
 21
2.8278872074
  0
LINE
  5
325
100
AcDbEntity
  8
0
100
AcDbLine
 62
7
  6
CONTINUOUS
 10
4.9130742481
 20
2.6802147729
 11
4.9212277388
 21
2.6720612822
  0
LINE
  5
326
100
AcDbEntity
  8
0
100
AcDbLine
 62
7
  6
CONTINUOUS
 10
5.0831779967
 20
2.5245376976
 11
5.0959442918
 21
2.5117714025
  0
LINE
  5
327
100
AcDbEntity
  8
0
100
AcDbLine
 62
7
  6
CONTINUOUS
 10
5.2168083135
 20
2.4170683844
 11
5.2249621579
 21
2.40891454
  0
LINE
  5
328
100
AcDbEntity
  8
0
100
AcDbLine
 62
7
  6
CONTINUOUS
 10
5.1599784598
 20
2.6386679093
 11
5.1681322998
 21
2.6305140693
  0
LINE
  5
329
100
AcDbEntity
  8
0
100
AcDbLine
 62
7
  6
CONTINUOUS
 10
4.183693974
 20
2.7290546116
 11
4.183693974
 21
2.6941347951
  0
LINE
  5
32A
100
AcDbEntity
  8
0
100
AcDbLine
 62
7
  6
CONTINUOUS
 10
4.1855625035
 20
2.6730662582
 11
4.1855625035
 21
2.6525876268
  0
LINE
  5
32B
100
AcDbEntity
  8
0
100
AcDbLine
 62
7
  6
CONTINUOUS
 10
4.2265155008
 20
2.6662959454
 11
4.2265155008
 21
2.6525876268
  0
LINE
  5
32C
100
AcDbEntity
  8
0
100
AcDbLine
 62
7
  6
CONTINUOUS
 10
4.2463466523
 20
2.6043415651
 11
4.2463466523
 21
2.5975703457
  0
LINE
  5
32D
100
AcDbEntity
  8
0
100
AcDbLine
 62
7
  6
CONTINUOUS
 10
5.3008593754
 20
2.5245376976
 11
5.3136256705
 21
2.5117714025
  0
LINE
  5
32E
100
AcDbEntity
  8
0
100
AcDbLine
 62
7
  6
CONTINUOUS
 10
5.5617121857
 20
2.4170683827
 11
5.5698660284
 21
2.40891454
  0
LINE
  5
32F
100
AcDbEntity
  8
0
100
AcDbLine
 62
7
  6
CONTINUOUS
 10
5.3308530217
 20
2.6802147729
 11
5.3390065124
 21
2.6720612822
  0
LINE
  5
330
100
AcDbEntity
  8
0
100
AcDbLine
 62
7
  6
CONTINUOUS
 10
4.7174094752
 20
2.5137520749
 11
4.745786472
 21
2.4357869168
  0
LINE
  5
331
100
AcDbEntity
  8
0
100
AcDbLine
 62
7
  6
CONTINUOUS
 10
4.3490483047
 20
2.7191535141
 11
4.3490483047
 21
2.6941347951
  0
LINE
  5
332
100
AcDbEntity
  8
0
100
AcDbLine
 62
7
  6
CONTINUOUS
 10
4.3682477843
 20
2.6749162207
 11
4.3682477843
 21
2.6525876268
  0
LINE
  5
333
100
AcDbEntity
  8
0
100
AcDbLine
 62
7
  6
CONTINUOUS
 10
4.4316963187
 20
2.5593720197
 11
4.4316963187
 21
2.5328893962
  0
LINE
  5
334
100
AcDbEntity
  8
0
100
AcDbLine
 62
7
  6
CONTINUOUS
 10
4.4643190766
 20
2.5589910508
 11
4.4643190766
 21
2.5328893962
  0
LINE
  5
335
100
AcDbEntity
  8
0
100
AcDbLine
 62
7
  6
CONTINUOUS
 10
4.4848715027
 20
2.6948194944
 11
4.4848715027
 21
2.6525876268
  0
LINE
  5
336
100
AcDbEntity
  8
0
100
AcDbLine
 62
7
  6
CONTINUOUS
 10
4.5180001956
 20
2.7290546116
 11
4.5180001956
 21
2.6941347951
  0
LINE
  5
337
100
AcDbEntity
  8
0
100
AcDbLine
 62
7
  6
CONTINUOUS
 10
5.5253490215
 20
2.6386679093
 11
5.5335028615
 21
2.6305140693
  0
LINE
  5
338
100
AcDbEntity
  8
0
100
AcDbLine
 62
7
  6
CONTINUOUS
 10
4.60605136
 20
2.5387359253
 11
4.60605136
 21
2.5328893962
  0
LINE
  5
339
100
AcDbEntity
  8
0
100
AcDbLine
 62
7
  6
CONTINUOUS
 10
4.6266037861
 20
2.6662959454
 11
4.6266037861
 21
2.6525876268
  0
LINE
  5
33A
100
AcDbEntity
  8
0
100
AcDbLine
 62
7
  6
CONTINUOUS
 10
4.6833545263
 20
2.7231298889
 11
4.6833545263
 21
2.6941347951
  0
LWPOLYLINE
  5
33B
100
AcDbEntity
  8
0
100
AcDbPolyline
 62
7
  6
CONTINUOUS
 90
5
 70
0
 10
4.6060518354
 20
2.5387368212
 10
4.6060721928
 20
2.5394338124
 10
4.6063414022
 20
2.5413251457
 10
4.6069294698
 20
2.5431875757
 10
4.6077986377
 20
2.5448920203
  0
LINE
  5
33C
100
AcDbEntity
  8
ALL_FEATURES
100
AcDbLine
 62
7
  6
CONTINUOUS
 10
5.80520005
 20
5.5789061169
 11
5.7533576927
 21
5.5270637596
  0
LWPOLYLINE
  5
33D
100
AcDbEntity
  8
0
100
AcDbPolyline
 62
7
  6
CONTINUOUS
 90
8
 70
0
 10
6.0785940204
 20
2.5492758326
 10
6.07954262
 20
2.548498285
 10
6.080492002
 20
2.5475072075
 10
6.081453706
 20
2.5461831918
 10
6.0823076406
 20
2.544508563
 10
6.0828856441
 20
2.5426560378
 10
6.0831407189
 20
2.5407509575
 10
6.0831537393
 20
2.5402003835
  0
LINE
  5
33E
100
AcDbEntity
  8
0
100
AcDbLine
 62
7
  6
CONTINUOUS
 10
5.7486317953
 20
2.6802147729
 11
5.756785286
 21
2.6720612822
  0
LINE
  5
33F
100
AcDbEntity
  8
0
100
AcDbLine
 62
7
  6
CONTINUOUS
 10
5.9403675258
 20
2.5245376975
 11
5.9531338204
 21
2.511771403
  0
LINE
  5
340
100
AcDbEntity
  8
0
100
AcDbLine
 62
7
  6
CONTINUOUS
 10
5.8782698832
 20
2.6386679093
 11
5.8864237232
 21
2.6305140693
  0
LINE
  5
341
100
AcDbEntity
  8
0
100
AcDbLine
 62
7
  6
CONTINUOUS
 10
4.8012916909
 20
2.6916064378
 11
4.8012916909
 21
2.6525876268
  0
LINE
  5
342
100
AcDbEntity
  8
0
100
AcDbLine
 62
7
  6
CONTINUOUS
 10
4.8327639752
 20
5.3039700421
 11
4.8327639752
 21
4.3639700421
  0
LINE
  5
343
100
AcDbEntity
  8
0
100
AcDbLine
 62
7
  6
CONTINUOUS
 10
4.8773158512
 20
2.5541924787
 11
4.8773158512
 21
2.5328893962
  0
LINE
  5
344
100
AcDbEntity
  8
0
100
AcDbLine
 62
7
  6
CONTINUOUS
 10
6.3143815025
 20
2.5146180578
 11
6.3138223911
 21
2.5151277242
  0
LINE
  5
345
100
AcDbEntity
  8
0
100
AcDbLine
 62
7
  6
CONTINUOUS
 10
6.3144367731
 20
2.5148551998
 11
6.3138788295
 21
2.5153681485
  0
LINE
  5
346
100
AcDbEntity
  8
0
100
AcDbLine
 62
7
  6
CONTINUOUS
 10
6.0866132434
 20
2.5245376976
 11
6.0993795396
 21
2.5117714015
  0
LINE
  5
347
100
AcDbEntity
  8
0
100
AcDbLine
 62
7
  6
CONTINUOUS
 10
6.1379396359
 20
2.6802147729
 11
6.1460931266
 21
2.6720612822
  0
LINE
  5
348
100
AcDbEntity
  8
0
100
AcDbLine
 62
7
  6
CONTINUOUS
 10
6.1946900714
 20
2.6386679093
 11
6.2028439114
 21
2.6305140693
  0
LINE
  5
349
100
AcDbEntity
  8
0
100
AcDbLine
 62
7
  6
CONTINUOUS
 10
4.9073080362
 20
2.7290546116
 11
4.9073080362
 21
2.6941347951
  0
LINE
  5
34A
100
AcDbEntity
  8
0
100
AcDbLine
 62
7
  6
CONTINUOUS
 10
4.9430239743
 20
2.6662959454
 11
4.9430239743
 21
2.6525876268
  0
LINE
  5
34B
100
AcDbEntity
  8
ALL_FEATURES
100
AcDbLine
 62
7
  6
CONTINUOUS
 10
4.9552639752
 20
6.0339700421
 11
4.9552639752
 21
5.7118421918
  0
LINE
  5
34C
100
AcDbEntity
  8
0
100
AcDbLine
 62
7
  6
CONTINUOUS
 10
5.0190481347
 20
2.5435226208
 11
5.0190481347
 21
2.5328893962
  0
LINE
  5
34D
100
AcDbEntity
  8
0
100
AcDbLine
 62
7
  6
CONTINUOUS
 10
4.8743723964
 20
4.3507669349
 11
4.2941032417
 21
3.7751731492
  0
LINE
  5
34E
100
AcDbEntity
  8
0
100
AcDbLine
 62
7
  6
CONTINUOUS
 10
3.4077639752
 20
3.6719700421
 11
7.4077639752
 21
3.6719700421
  0
LINE
  5
34F
100
AcDbEntity
  8
0
100
AcDbLine
 62
7
  6
CONTINUOUS
 10
7.3277639752
 20
3.7519700421
 11
3.4877639752
 21
3.7519700421
  0
LINE
  5
350
100
AcDbEntity
  8
0
100
AcDbLine
 62
7
  6
CONTINUOUS
 10
4.2941032417
 20
3.7751731492
 11
6.5214247086
 21
3.7751731492
  0
LINE
  5
351
100
AcDbEntity
  8
0
100
AcDbLine
 62
7
  6
CONTINUOUS
 10
6.4530460732
 20
2.6386679093
 11
6.4611999155
 21
2.6305140671
  0
LINE
  5
352
100
AcDbEntity
  8
0
100
AcDbLine
 62
7
  6
CONTINUOUS
 10
5.0726623669
 20
2.7277633454
 11
5.0726623669
 21
2.6941347951
  0
LINE
  5
353
100
AcDbEntity
  8
0
100
AcDbLine
 62
7
  6
CONTINUOUS
 10
5.0797185843
 20
2.5518462813
 11
5.0797185843
 21
2.5328893962
  0
LINE
  5
354
100
AcDbEntity
  8
0
100
AcDbLine
 62
7
  6
CONTINUOUS
 10
5.1542125526
 20
2.6880244829
 11
5.1542125526
 21
2.6525876268
  0
LINE
  5
355
100
AcDbEntity
  8
0
100
AcDbLine
 62
7
  6
CONTINUOUS
 10
5.2214508677
 20
2.5458790706
 11
5.2214508677
 21
2.5328893962
  0
LINE
  5
356
100
AcDbEntity
  8
0
100
AcDbLine
 62
7
  6
CONTINUOUS
 10
5.2400588768
 20
5.3039700421
 11
5.2400588768
 21
4.9539700421
  0
LWPOLYLINE
  5
357
100
AcDbEntity
  8
0
100
AcDbPolyline
 62
7
  6
CONTINUOUS
 90
8
 70
0
 10
5.0190484588
 20
2.5435240253
 10
5.0191622953
 20
2.5450920277
 10
5.0196253801
 20
2.5470108334
 10
5.0203655484
 20
2.5486920846
 10
5.0212843899
 20
2.5500874171
 10
5.0221668199
 20
2.5510724198
 10
5.0229268372
 20
2.5517349509
 10
5.0235443002
 20
2.5521692364
  0
LINE
  5
358
100
AcDbEntity
  8
0
100
AcDbLine
 62
7
  6
CONTINUOUS
 10
6.4722458575
 20
2.6802147729
 11
6.4803993482
 21
2.6720612822
  0
LINE
  5
359
100
AcDbEntity
  8
0
100
AcDbLine
 62
7
  6
CONTINUOUS
 10
6.6357313541
 20
2.6386679093
 11
6.6438851941
 21
2.6305140693
  0
LINE
  5
35A
100
AcDbEntity
  8
0
100
AcDbLine
 62
7
  6
CONTINUOUS
 10
5.4391321469
 20
2.5484223851
 11
5.4391322464
 21
2.5484048086
  0
LINE
  5
35B
100
AcDbEntity
  8
ALL_FEATURES
100
AcDbLine
 62
7
  6
CONTINUOUS
 10
5.2831395393
 20
5.9089700421
 11
5.2831395393
 21
5.7118421918
  0
LINE
  5
35C
100
AcDbEntity
  8
0
100
AcDbLine
 62
7
  6
CONTINUOUS
 10
5.295944836
 20
2.6843181053
 11
5.295944836
 21
2.6525876268
  0
LINE
  5
35D
100
AcDbEntity
  8
0
100
AcDbLine
 62
7
  6
CONTINUOUS
 10
5.297399963
 20
2.5493116852
 11
5.297399963
 21
2.5328893962
  0
LINE
  5
35E
100
AcDbEntity
  8
0
100
AcDbLine
 62
7
  6
CONTINUOUS
 10
5.3250868098
 20
2.7290546116
 11
5.3250868098
 21
2.6941347951
  0
LWPOLYLINE
  5
35F
100
AcDbEntity
  8
0
100
AcDbPolyline
 62
7
  6
CONTINUOUS
 90
8
 70
0
 10
5.2214511604
 20
2.5458690323
 10
5.2216526911
 20
2.5479275092
 10
5.2222103174
 20
2.5498048166
 10
5.2230046689
 20
2.5513723711
 10
5.2239164168
 20
2.5526101318
 10
5.2247180273
 20
2.5534213331
 10
5.2253434012
 20
2.5539201602
 10
5.2257223274
 20
2.5541683433
  0
LINE
  5
360
100
AcDbEntity
  8
0
100
AcDbLine
 62
7
  6
CONTINUOUS
 10
3.9255033773
 20
2.680214831
 11
3.9173498286
 21
2.6720612822
  0
LINE
  5
361
100
AcDbEntity
  8
0
100
AcDbLine
 62
7
  6
CONTINUOUS
 10
6.7287680434
 20
2.6802147731
 11
6.7369215342
 21
2.6720612822
  0
LINE
  5
362
100
AcDbEntity
  8
0
100
AcDbLine
 62
7
  6
CONTINUOUS
 10
6.8900246311
 20
2.6802147729
 11
6.8981781217
 21
2.6720612822
  0
LINE
  5
363
100
AcDbEntity
  8
0
100
AcDbLine
 62
7
  6
CONTINUOUS
 10
5.4391322464
 20
2.5484048086
 11
5.4391322464
 21
2.5328893962
  0
LINE
  5
364
100
AcDbEntity
  8
0
100
AcDbLine
 62
7
  6
CONTINUOUS
 10
5.4904411405
 20
2.7290546116
 11
5.4904411405
 21
2.6941347951
  0
LINE
  5
365
100
AcDbEntity
  8
0
100
AcDbLine
 62
7
  6
CONTINUOUS
 10
5.5195831143
 20
2.6843181053
 11
5.5195831143
 21
2.6525876268
  0
LINE
  5
366
100
AcDbEntity
  8
ALL_FEATURES
100
AcDbLine
 62
7
  6
CONTINUOUS
 10
5.532388411
 20
5.9089700421
 11
5.532388411
 21
5.7118421918
  0
LINE
  5
367
100
AcDbEntity
  8
0
100
AcDbLine
 62
7
  6
CONTINUOUS
 10
5.5754690735
 20
5.3039700421
 11
5.5754690735
 21
4.9539700421
  0
LWPOLYLINE
  5
368
100
AcDbEntity
  8
0
100
AcDbPolyline
 62
7
  6
CONTINUOUS
 90
10
 70
0
 10
5.4391297996
 20
2.5484169952
 10
5.4391328068
 20
2.5486566956
 10
5.4393643461
 20
2.5506006747
 10
5.4398879157
 20
2.5523025293
 10
5.4406168268
 20
2.5537491067
 10
5.4414313094
 20
2.5548838252
 10
5.4421393955
 20
2.5556320269
 10
5.4426720105
 20
2.556083801
 10
5.443042642
 20
2.5563436579
 10
5.4431017711
 20
2.5563802767
  0
LINE
  5
369
100
AcDbEntity
  8
0
100
AcDbLine
 62
7
  6
CONTINUOUS
 10
4.0867598846
 20
2.6802147508
 11
4.0786064161
 21
2.6720612822
  0
LINE
  5
36A
100
AcDbEntity
  8
0
100
AcDbLine
 62
7
  6
CONTINUOUS
 10
5.9411555537
 20
4.3507669351
 11
4.8743723966
 21
4.3507669351
  0
LINE
  5
36B
100
AcDbEntity
  8
0
100
AcDbLine
 62
7
  6
CONTINUOUS
 10
5.9827639752
 20
4.3639700421
 11
4.8327639752
 21
4.3639700421
  0
LINE
  5
36C
100
AcDbEntity
  8
0
100
AcDbLine
 62
7
  6
CONTINUOUS
 10
5.6613153977
 20
2.6880244829
 11
5.6613153977
 21
2.6525876268
  0
LINE
  5
36D
100
AcDbEntity
  8
0
100
AcDbLine
 62
7
  6
CONTINUOUS
 10
5.7428655834
 20
2.7277633454
 11
5.7428655834
 21
2.6941347951
  0
LWPOLYLINE
  5
36E
100
AcDbEntity
  8
0
100
AcDbPolyline
 62
7
  6
CONTINUOUS
 90
10
 70
0
 10
4.6077986377
 20
2.5448920203
 10
4.6088177959
 20
2.5462961179
 10
4.6099088154
 20
2.5474222591
 10
4.6110815074
 20
2.5483492308
 10
4.6122367213
 20
2.5490497201
 10
4.6132048757
 20
2.5495032122
 10
4.6139912566
 20
2.5497917625
 10
4.6146495615
 20
2.5499806196
 10
4.6151649185
 20
2.5500943353
 10
4.6153056851
 20
2.5501199043
  0
LINE
  5
36F
100
AcDbEntity
  8
0
100
AcDbLine
 62
7
  6
CONTINUOUS
 10
4.1797965962
 20
2.6386679093
 11
4.1716427562
 21
2.6305140693
  0
LINE
  5
370
100
AcDbEntity
  8
0
100
AcDbLine
 62
7
  6
CONTINUOUS
 10
4.3432820928
 20
2.6802147729
 11
4.3351286022
 21
2.6720612822
  0
LINE
  5
371
100
AcDbEntity
  8
0
100
AcDbLine
 62
7
  6
CONTINUOUS
 10
4.3624818771
 20
2.6386679093
 11
4.3543280371
 21
2.6305140693
  0
LINE
  5
372
100
AcDbEntity
  8
ALL_FEATURES
100
AcDbLine
 62
7
  6
CONTINUOUS
 10
5.8602639752
 20
6.0339700421
 11
5.8602639752
 21
5.7118421918
  0
LINE
  5
373
100
AcDbEntity
  8
0
100
AcDbLine
 62
7
  6
CONTINUOUS
 10
5.872503976
 20
2.6662959454
 11
5.872503976
 21
2.6525876268
  0
LINE
  5
374
100
AcDbEntity
  8
0
100
AcDbLine
 62
7
  6
CONTINUOUS
 10
5.9082199141
 20
2.7290546116
 11
5.9082199141
 21
2.6941347951
  0
LINE
  5
375
100
AcDbEntity
  8
0
100
AcDbLine
 62
7
  6
CONTINUOUS
 10
5.9369081133
 20
2.541898514
 11
5.9369081133
 21
2.5328893962
  0
LINE
  5
376
100
AcDbEntity
  8
0
100
AcDbLine
 62
7
  6
CONTINUOUS
 10
4.6208378789
 20
2.6386679093
 11
4.6126840389
 21
2.6305140693
  0
LINE
  5
377
100
AcDbEntity
  8
0
100
AcDbLine
 62
7
  6
CONTINUOUS
 10
4.6775886632
 20
2.6802151217
 11
4.6694348496
 21
2.6720613081
  0
LINE
  5
378
100
AcDbEntity
  8
0
100
AcDbLine
 62
7
  6
CONTINUOUS
 10
5.9411555539
 20
4.3507669349
 11
6.5214247086
 21
3.7751731492
  0
LINE
  5
379
100
AcDbEntity
  8
0
100
AcDbLine
 62
7
  6
CONTINUOUS
 10
5.9827639752
 20
5.3039700421
 11
5.9827639752
 21
4.3639700421
  0
LINE
  5
37A
100
AcDbEntity
  8
0
100
AcDbLine
 62
7
  6
CONTINUOUS
 10
6.0142362594
 20
2.6916064378
 11
6.0142362594
 21
2.6525876268
  0
LINE
  5
37B
100
AcDbEntity
  8
0
100
AcDbLine
 62
7
  6
CONTINUOUS
 10
6.0786403968
 20
2.5558209513
 11
6.0786403968
 21
2.5328893962
  0
LINE
  5
37C
100
AcDbEntity
  8
0
100
AcDbLine
 62
7
  6
CONTINUOUS
 10
6.083153831
 20
2.5402057775
 11
6.083153831
 21
2.5328893962
  0
LINE
  5
37D
100
AcDbEntity
  8
0
100
AcDbLine
 62
7
  6
CONTINUOUS
 10
6.132173424
 20
2.7231298889
 11
6.132173424
 21
2.6941347951
  0
LINE
  5
37E
100
AcDbEntity
  8
0
100
AcDbLine
 62
7
  6
CONTINUOUS
 10
4.6025919476
 20
2.5245376976
 11
4.5898256525
 21
2.5117714025
  0
LINE
  5
37F
100
AcDbEntity
  8
ALL_FEATURES
100
AcDbLine
 62
7
  6
CONTINUOUS
 10
5.0103279003
 20
5.5789061169
 11
5.0621702576
 21
5.5270637596
  0
LINE
  5
380
100
AcDbEntity
  8
0
100
AcDbLine
 62
7
  6
CONTINUOUS
 10
6.1889241642
 20
2.6662959454
 11
6.1889241642
 21
2.6525876268
  0
LINE
  5
381
100
AcDbEntity
  8
0
100
AcDbLine
 62
7
  6
CONTINUOUS
 10
6.2248861145
 20
2.557523254
 11
6.2248861145
 21
2.5328893962
  0
LINE
  5
382
100
AcDbEntity
  8
0
100
AcDbLine
 62
7
  6
CONTINUOUS
 10
6.2975277547
 20
2.7290546116
 11
6.2975277547
 21
2.6941347951
  0
LINE
  5
383
100
AcDbEntity
  8
0
100
AcDbLine
 62
7
  6
CONTINUOUS
 10
6.3267978439
 20
2.5587115176
 11
6.3267978473
 21
2.5328893962
  0
LINE
  5
384
100
AcDbEntity
  8
0
100
AcDbLine
 62
7
  6
CONTINUOUS
 10
6.3306564476
 20
2.6948194944
 11
6.3306564476
 21
2.6525876268
  0
LWPOLYLINE
  5
385
100
AcDbEntity
  8
0
100
AcDbPolyline
 62
7
  6
CONTINUOUS
 90
9
 70
0
 10
6.0786383283
 20
2.5558251584
 10
6.0787970381
 20
2.5576929282
 10
6.0792742646
 20
2.5595157439
 10
6.0799609755
 20
2.5610491583
 10
6.08076274
 20
2.5622956421
 10
6.0815235567
 20
2.5631920199
 10
6.0821612483
 20
2.5637935556
 10
6.0826832871
 20
2.5641997061
 10
6.0828376827
 20
2.5643047792
  0
LINE
  5
386
100
AcDbEntity
  8
0
100
AcDbLine
 62
7
  6
CONTINUOUS
 10
4.9372580671
 20
2.6386679093
 11
4.9291042271
 21
2.6305140693
  0
LINE
  5
387
100
AcDbEntity
  8
0
100
AcDbLine
 62
7
  6
CONTINUOUS
 10
5.066896155
 20
2.6802147729
 11
5.0587426643
 21
2.6720612822
  0
LINE
  5
388
100
AcDbEntity
  8
0
100
AcDbLine
 62
7
  6
CONTINUOUS
 10
5.0155887222
 20
2.5245376976
 11
5.0028224271
 21
2.5117714025
  0
LINE
  5
389
100
AcDbEntity
  8
0
100
AcDbLine
 62
7
  6
CONTINUOUS
 10
5.5754690735
 20
4.9539700421
 11
5.2400588768
 21
4.9539700421
  0
LINE
  5
38A
100
AcDbEntity
  8
0
100
AcDbLine
 62
7
  6
CONTINUOUS
 10
6.447280166
 20
2.6749162207
 11
6.447280166
 21
2.6525876268
  0
LINE
  5
38B
100
AcDbEntity
  8
0
100
AcDbLine
 62
7
  6
CONTINUOUS
 10
6.4664796456
 20
2.7191535141
 11
6.4664796456
 21
2.6941347951
  0
LWPOLYLINE
  5
38C
100
AcDbEntity
  8
0
100
AcDbPolyline
 62
7
  6
CONTINUOUS
 90
12
 70
0
 10
6.3267980141
 20
2.5587104223
 10
6.3269323597
 20
2.5604754969
 10
6.327388342
 20
2.5623701189
 10
6.3281268812
 20
2.5641086469
 10
6.3290637817
 20
2.5656011701
 10
6.3300022477
 20
2.5667118111
 10
6.3308344432
 20
2.5674917003
 10
6.3315950956
 20
2.5680771886
 10
6.3322594933
 20
2.568504001
 10
6.3327411414
 20
2.5687670071
 10
6.3330279081
 20
2.5689037995
 10
6.3331230029
 20
2.5689453327
  0
LWPOLYLINE
  5
38D
100
AcDbEntity
  8
0
100
AcDbPolyline
 62
7
  6
CONTINUOUS
 90
9
 70
0
 10
6.2248839589
 20
2.5575207802
 10
6.2250700395
 20
2.5595713121
 10
6.2255837114
 20
2.5614471097
 10
6.226330476
 20
2.5630603276
 10
6.2272142379
 20
2.56438948
 10
6.2280628643
 20
2.5653546929
 10
6.2287978372
 20
2.5660222326
 10
6.229436312
 20
2.5664984193
 10
6.2296804612
 20
2.5666564811
  0
LINE
  5
38E
100
AcDbEntity
  8
0
100
AcDbLine
 62
7
  6
CONTINUOUS
 10
5.2901789288
 20
2.6386679093
 11
5.2820250888
 21
2.6305140693
  0
LINE
  5
38F
100
AcDbEntity
  8
0
100
AcDbLine
 62
7
  6
CONTINUOUS
 10
5.2179914553
 20
2.5245376976
 11
5.2052251602
 21
2.5117714025
  0
LINE
  5
390
100
AcDbEntity
  8
0
100
AcDbLine
 62
7
  6
CONTINUOUS
 10
5.1676970973
 20
2.4170683827
 11
5.1595432546
 21
2.40891454
  0
LINE
  5
391
100
AcDbEntity
  8
0
100
AcDbLine
 62
7
  6
CONTINUOUS
 10
5.4846749286
 20
2.6802147729
 11
5.4765214379
 21
2.6720612822
  0
LINE
  5
392
100
AcDbEntity
  8
0
100
AcDbLine
 62
7
  6
CONTINUOUS
 10
6.569181298
 20
2.6043415651
 11
6.569181298
 21
2.5975703457
  0
LINE
  5
393
100
AcDbEntity
  8
0
100
AcDbLine
 62
7
  6
CONTINUOUS
 10
6.5890124495
 20
2.6662959454
 11
6.5890124495
 21
2.6525876268
  0
LINE
  5
394
100
AcDbEntity
  8
0
100
AcDbLine
 62
7
  6
CONTINUOUS
 10
6.6299654468
 20
2.6730662582
 11
6.6299654468
 21
2.6525876268
  0
LINE
  5
395
100
AcDbEntity
  8
0
100
AcDbLine
 62
7
  6
CONTINUOUS
 10
6.6318339763
 20
2.7290546116
 11
6.6318339763
 21
2.6941347951
  0
LINE
  5
396
100
AcDbEntity
  8
0
100
AcDbLine
 62
7
  6
CONTINUOUS
 10
6.0981184751
 20
2.5137520749
 11
6.0697414783
 21
2.4357869168
  0
LINE
  5
397
100
AcDbEntity
  8
0
100
AcDbLine
 62
7
  6
CONTINUOUS
 10
5.435672834
 20
2.5245376976
 11
5.4229065389
 21
2.5117714025
  0
LINE
  5
398
100
AcDbEntity
  8
0
100
AcDbLine
 62
7
  6
CONTINUOUS
 10
5.6555494905
 20
2.6386679093
 11
5.6473956505
 21
2.6305140693
  0
LINE
  5
399
100
AcDbEntity
  8
0
100
AcDbLine
 62
7
  6
CONTINUOUS
 10
5.4769294495
 20
2.4170683844
 11
5.4687756052
 21
2.40891454
  0
LINE
  5
39A
100
AcDbEntity
  8
0
100
AcDbLine
 62
7
  6
CONTINUOUS
 10
5.9827639752
 20
5.3039700421
 11
4.8327639752
 21
5.3039700421
  0
LINE
  5
39B
100
AcDbEntity
  8
ALL_FEATURES
100
AcDbLine
 62
7
  6
CONTINUOUS
 10
5.0621447393
 20
5.4139011679
 11
5.753383211
 21
5.4139011679
  0
LINE
  5
39C
100
AcDbEntity
  8
0
100
AcDbLine
 62
7
  6
CONTINUOUS
 10
6.7230018317
 20
2.7161038761
 11
6.7230018317
 21
2.6941347951
  0
LINE
  5
39D
100
AcDbEntity
  8
0
100
AcDbLine
 62
7
  6
CONTINUOUS
 10
6.7716977303
 20
2.6662959454
 11
6.7716977303
 21
2.6525876268
  0
LINE
  5
39E
100
AcDbEntity
  8
0
100
AcDbLine
 62
7
  6
CONTINUOUS
 10
6.8662625902
 20
2.6671874951
 11
6.8662625902
 21
2.6525876268
  0
LINE
  5
39F
100
AcDbEntity
  8
0
100
AcDbLine
 62
7
  6
CONTINUOUS
 10
5.9024537022
 20
2.6802147729
 11
5.8943002115
 21
2.6720612822
  0
LINE
  5
3A0
100
AcDbEntity
  8
ALL_FEATURES
100
AcDbLine
 62
7
  6
CONTINUOUS
 10
5.0621702576
 20
5.5270637596
 11
5.7533576927
 21
5.5270637596
  0
LINE
  5
3A1
100
AcDbEntity
  8
ALL_FEATURES
100
AcDbLine
 62
7
  6
CONTINUOUS
 10
5.0103279002
 20
5.578906117
 11
5.8052000501
 21
5.578906117
  0
LINE
  5
3A2
100
AcDbEntity
  8
0
100
AcDbLine
 62
7
  6
CONTINUOUS
 10
6.8883561624
 20
2.7290546116
 11
6.8883561624
 21
2.6941347951
  0
LINE
  5
3A3
100
AcDbEntity
  8
0
100
AcDbLine
 62
7
  6
CONTINUOUS
 10
7.0496127499
 20
2.7290546116
 11
7.0496127499
 21
2.6941347951
  0
LINE
  5
3A4
100
AcDbEntity
  8
0
100
AcDbLine
 62
7
  6
CONTINUOUS
 10
6.0084703522
 20
2.6386679093
 11
6.0003165122
 21
2.6305140693
  0
LINE
  5
3A5
100
AcDbEntity
  8
0
100
AcDbLine
 62
7
  6
CONTINUOUS
 10
5.8218333184
 20
2.4170683827
 11
5.8136794757
 21
2.40891454
  0
LINE
  5
3A6
100
AcDbEntity
  8
0
100
AcDbLine
 62
7
  6
CONTINUOUS
 10
6.0751809843
 20
2.5245376975
 11
6.0624146897
 21
2.511771403
  0
LINE
  5
3A7
100
AcDbEntity
  8
ALL_FEATURES
100
AcDbLine
 62
7
  6
CONTINUOUS
 10
4.9552639752
 20
5.7118421918
 11
5.2831395393
 21
5.7118421918
  0
LINE
  5
3A8
100
AcDbEntity
  8
ALL_FEATURES
100
AcDbLine
 62
7
  6
CONTINUOUS
 10
5.532388411
 20
5.7118421918
 11
5.8602639752
 21
5.7118421918
  0
LINE
  5
3A9
100
AcDbEntity
  8
0
100
AcDbLine
 62
7
  6
CONTINUOUS
 10
7.1046143689
 20
2.7290546116
 11
7.1046143689
 21
2.6941347951
  0
LINE
  5
3AA
100
AcDbEntity
  8
0
100
AcDbLine
 62
7
  6
CONTINUOUS
 10
6.0003687009
 20
2.4170683844
 11
5.9922151165
 21
2.4089147999
  0
LINE
  5
3AB
100
AcDbEntity
  8
0
100
AcDbLine
 62
7
  6
CONTINUOUS
 10
6.2917615428
 20
2.6802147729
 11
6.2836080521
 21
2.6720612822
  0
LINE
  5
3AC
100
AcDbEntity
  8
0
100
AcDbLine
 62
7
  6
CONTINUOUS
 10
6.3248905404
 20
2.6386679093
 11
6.3167367004
 21
2.6305140693
  0
LINE
  5
3AD
100
AcDbEntity
  8
0
100
AcDbLine
 62
7
  6
CONTINUOUS
 10
6.221426702
 20
2.5245376976
 11
6.2086604059
 21
2.5117714015
  0
LINE
  5
3AE
100
AcDbEntity
  8
0
100
AcDbLine
 62
7
  6
CONTINUOUS
 10
6.3233384349
 20
2.5245376976
 11
6.3105721393
 21
2.5117714021
  0
LINE
  5
3AF
100
AcDbEntity
  8
ALL_FEATURES
100
AcDbLine
 62
7
  6
CONTINUOUS
 10
5.2831395393
 20
5.9089700421
 11
5.532388411
 21
5.9089700421
  0
LINE
  5
3B0
100
AcDbEntity
  8
0
100
AcDbLine
 62
7
  6
CONTINUOUS
 10
7.4077639752
 20
3.6719700421
 11
7.4077639752
 21
2.8278872074
  0
LINE
  5
3B1
100
AcDbEntity
  8
0
100
AcDbLine
 62
7
  6
CONTINUOUS
 10
6.5832465422
 20
2.6386679093
 11
6.5750927
 21
2.6305140671
  0
LINE
  5
3B2
100
AcDbEntity
  8
0
100
AcDbLine
 62
7
  6
CONTINUOUS
 10
6.6260677644
 20
2.6802147729
 11
6.6179142737
 21
2.6720612822
  0
LINE
  5
3B3
100
AcDbEntity
  8
ALL_FEATURES
100
AcDbLine
 62
7
  6
CONTINUOUS
 10
4.9552639752
 20
6.0339700421
 11
5.8602639752
 21
6.0339700421
  0
LINE
  5
3B4
100
AcDbEntity
  8
0
100
AcDbLine
 62
7
  6
CONTINUOUS
 10
6.765931823
 20
2.6386679093
 11
6.757777983
 21
2.6305140693
  0
LINE
  5
3B5
100
AcDbEntity
  8
0
100
AcDbLine
 62
7
  6
CONTINUOUS
 10
6.8825899506
 20
2.6802147731
 11
6.8744364598
 21
2.6720612822
  0
LINE
  5
3B6
100
AcDbEntity
  8
0
100
AcDbLine
 62
7
  6
CONTINUOUS
 10
6.860496683
 20
2.6386679093
 11
6.8523430066
 21
2.630514233
  0
LINE
  5
3B7
100
AcDbEntity
  8
0
100
AcDbLine
 62
7
  6
CONTINUOUS
 10
7.043846538
 20
2.6802147729
 11
7.0356930473
 21
2.6720612822
  0
LINE
  5
3B8
100
AcDbEntity
  8
0
100
AcDbLine
 62
7
  6
CONTINUOUS
 10
7.0988487543
 20
2.6802153702
 11
7.0906946663
 21
2.6720612822
  0
ARC
  5
3B9
100
AcDbEntity
  8
0
100
AcDbCircle
 62
7
  6
CONTINUOUS
 10
3.6761599945
 20
1.9031737072
 40
0.8518515897
100
AcDbArc
 50
74.5802845708
 51
75.8148825965
  0
ARC
  5
3BA
100
AcDbEntity
  8
0
100
AcDbCircle
 62
7
  6
CONTINUOUS
 10
4.2844940013
 20
2.4599744428
 40
0.2330213524
100
AcDbArc
 50
74.234609507
 51
74.5434897535
  0
ARC
  5
3BB
100
AcDbEntity
  8
0
100
AcDbCircle
 62
7
  6
CONTINUOUS
 10
4.2966340549
 20
2.5022722754
 40
0.1890163241
100
AcDbArc
 50
72.7598662874
 51
74.292535395
  0
ARC
  5
3BC
100
AcDbEntity
  8
0
100
AcDbCircle
 62
7
  6
CONTINUOUS
 10
3.4877639752
 20
2.8278872074
 40
0.08
100
AcDbArc
 50
180.0
 51
267.0
  0
ARC
  5
3BD
100
AcDbEntity
  8
0
100
AcDbCircle
 62
7
  6
CONTINUOUS
 10
3.7387524311
 20
2.6859809848
 40
0.0196850394
100
AcDbArc
 50
225.0011432902
 51
270.001006738
  0
ARC
  5
3BE
100
AcDbEntity
  8
0
100
AcDbCircle
 62
7
  6
CONTINUOUS
 10
3.7305986208
 20
2.6941347951
 40
0.0196850394
100
AcDbArc
 50
180.0
 51
225.0024588136
  0
ARC
  5
3BF
100
AcDbEntity
  8
0
100
AcDbCircle
 62
7
  6
CONTINUOUS
 10
3.9115844918
 20
2.6941347951
 40
0.0196850394
100
AcDbArc
 50
314.9975411859
 51
333.8750990227
  0
ARC
  5
3C0
100
AcDbEntity
  8
0
100
AcDbCircle
 62
7
  6
CONTINUOUS
 10
3.7856002398
 20
2.6941347951
 40
0.0196850394
100
AcDbArc
 50
180.0
 51
225.0024588136
  0
ARC
  5
3C1
100
AcDbEntity
  8
0
100
AcDbCircle
 62
7
  6
CONTINUOUS
 10
3.7937540501
 20
2.6859809848
 40
0.0196850394
100
AcDbArc
 50
225.0011432902
 51
270.001006738
  0
ARC
  5
3C2
100
AcDbEntity
  8
0
100
AcDbCircle
 62
7
  6
CONTINUOUS
 10
3.9034306815
 20
2.6859809848
 40
0.0196850394
100
AcDbArc
 50
269.998993262
 51
314.9988567098
  0
ARC
  5
3C3
100
AcDbEntity
  8
0
100
AcDbCircle
 62
7
  6
CONTINUOUS
 10
4.0728410793
 20
2.6941347951
 40
0.0196850394
100
AcDbArc
 50
314.9975411858
 51
360.0
  0
ARC
  5
3C4
100
AcDbEntity
  8
0
100
AcDbCircle
 62
7
  6
CONTINUOUS
 10
3.9468568273
 20
2.6941347951
 40
0.0196850394
100
AcDbArc
 50
180.0
 51
225.0024588142
  0
ARC
  5
3C5
100
AcDbEntity
  8
0
100
AcDbCircle
 62
7
  6
CONTINUOUS
 10
3.9550106376
 20
2.6859809848
 40
0.0196850394
100
AcDbArc
 50
225.00114329
 51
270.0010067377
  0
ARC
  5
3C6
100
AcDbEntity
  8
0
100
AcDbCircle
 62
7
  6
CONTINUOUS
 10
4.064687269
 20
2.6859809848
 40
0.0196850394
100
AcDbArc
 50
269.9989932623
 51
314.99885671
  0
ARC
  5
3C7
100
AcDbEntity
  8
0
100
AcDbCircle
 62
7
  6
CONTINUOUS
 10
4.3293632654
 20
2.6941347951
 40
0.0196850394
100
AcDbArc
 50
314.9975411861
 51
360.0
  0
ARC
  5
3C8
100
AcDbEntity
  8
0
100
AcDbCircle
 62
7
  6
CONTINUOUS
 10
4.2033790134
 20
2.6941347951
 40
0.0196850394
100
AcDbArc
 50
180.0
 51
225.0024588138
  0
ARC
  5
3C9
100
AcDbEntity
  8
0
100
AcDbCircle
 62
7
  6
CONTINUOUS
 10
4.2115328237
 20
2.6859809848
 40
0.0196850394
100
AcDbArc
 50
225.0011432895
 51
270.0010067371
  0
ARC
  5
3CA
100
AcDbEntity
  8
0
100
AcDbCircle
 62
7
  6
CONTINUOUS
 10
4.3212094551
 20
2.6859809848
 40
0.0196850394
100
AcDbArc
 50
269.9989932614
 51
314.9988567094
  0
ARC
  5
3CB
100
AcDbEntity
  8
0
100
AcDbCircle
 62
7
  6
CONTINUOUS
 10
3.9689503995
 20
2.6525876268
 40
0.0196850394
100
AcDbArc
 50
180.0
 51
225.0012047959
  0
ARC
  5
3CC
100
AcDbEntity
  8
0
100
AcDbCircle
 62
7
  6
CONTINUOUS
 10
4.0631587939
 20
2.6444338165
 40
0.0196850394
100
AcDbArc
 50
269.9989177866
 51
282.5062037105
  0
ARC
  5
3CD
100
AcDbEntity
  8
0
100
AcDbCircle
 62
7
  6
CONTINUOUS
 10
3.9771042098
 20
2.6444338165
 40
0.0196850394
100
AcDbArc
 50
225.001327205
 51
270.0010822134
  0
ARC
  5
3CE
100
AcDbEntity
  8
0
100
AcDbCircle
 62
7
  6
CONTINUOUS
 10
4.2462005402
 20
2.6525876268
 40
0.0196850394
100
AcDbArc
 50
180.0
 51
225.0012047948
  0
ARC
  5
3CF
100
AcDbEntity
  8
0
100
AcDbCircle
 62
7
  6
CONTINUOUS
 10
4.3485627449
 20
2.6525876268
 40
0.0196850394
100
AcDbArc
 50
314.9987952044
 51
360.0
  0
ARC
  5
3D0
100
AcDbEntity
  8
0
100
AcDbCircle
 62
7
  6
CONTINUOUS
 10
4.3404089347
 20
2.6444338165
 40
0.0196850394
100
AcDbArc
 50
269.9989177867
 51
314.998672795
  0
ARC
  5
3D1
100
AcDbEntity
  8
0
100
AcDbCircle
 62
7
  6
CONTINUOUS
 10
4.2543543505
 20
2.6444338165
 40
0.0196850394
100
AcDbArc
 50
225.0013272057
 51
270.0010822143
  0
ARC
  5
3D2
100
AcDbEntity
  8
0
100
AcDbCircle
 62
7
  6
CONTINUOUS
 10
4.1577236538
 20
2.6444338165
 40
0.0196850394
100
AcDbArc
 50
269.9989177863
 51
314.9986727947
  0
ARC
  5
3D3
100
AcDbEntity
  8
0
100
AcDbCircle
 62
7
  6
CONTINUOUS
 10
4.1658774641
 20
2.6525876268
 40
0.0196850394
100
AcDbArc
 50
314.9987952051
 51
360.0
  0
ARC
  5
3D4
100
AcDbEntity
  8
0
100
AcDbCircle
 62
7
  6
CONTINUOUS
 10
4.0635152594
 20
2.6525876268
 40
0.0196850394
100
AcDbArc
 50
180.0
 51
225.0012047956
  0
ARC
  5
3D5
100
AcDbEntity
  8
0
100
AcDbCircle
 62
7
  6
CONTINUOUS
 10
4.0716690697
 20
2.6444338165
 40
0.0196850394
100
AcDbArc
 50
225.0013272053
 51
270.0010822137
  0
ARC
  5
3D6
100
AcDbEntity
  8
0
100
AcDbCircle
 62
7
  6
CONTINUOUS
 10
4.4199109359
 20
2.5593783433
 40
0.0118091033
100
AcDbArc
 50
8.8340226034
 51
82.10498757
  0
ARC
  5
3D7
100
AcDbEntity
  8
0
100
AcDbCircle
 62
7
  6
CONTINUOUS
 10
4.4200266161
 20
2.5593866361
 40
0.0116935092
100
AcDbArc
 50
359.9469042524
 51
8.8809180043
  0
ARC
  5
3D8
100
AcDbEntity
  8
0
100
AcDbCircle
 62
7
  6
CONTINUOUS
 10
4.1469858845
 20
2.6274346009
 40
0.0078740157
100
AcDbArc
 50
199.9760716118
 51
259.854080614
  0
ARC
  5
3D9
100
AcDbEntity
  8
0
100
AcDbCircle
 62
7
  6
CONTINUOUS
 10
3.6413450724
 20
2.7369286274
 40
0.0078740157
100
AcDbArc
 50
255.7100596427
 51
270.0
  0
ARC
  5
3DA
100
AcDbEntity
  8
0
100
AcDbCircle
 62
7
  6
CONTINUOUS
 10
4.2377639752
 20
3.8319700421
 40
0.08
100
AcDbArc
 50
270.0
 51
314.7682446275
  0
ARC
  5
3DB
100
AcDbEntity
  8
0
100
AcDbCircle
 62
7
  6
CONTINUOUS
 10
3.4877639752
 20
3.6719700421
 40
0.08
100
AcDbArc
 50
90.0
 51
180.0
  0
ARC
  5
3DC
100
AcDbEntity
  8
0
100
AcDbCircle
 62
7
  6
CONTINUOUS
 10
4.8435941013
 20
2.3316734919
 40
0.3687322995
100
AcDbArc
 50
86.3570763171
 51
88.7576514793
  0
ARC
  5
3DD
100
AcDbEntity
  8
0
100
AcDbCircle
 62
7
  6
CONTINUOUS
 10
4.8449220345
 20
2.3832631887
 40
0.3171260072
100
AcDbArc
 50
88.7954273801
 51
89.9789517506
  0
ARC
  5
3DE
100
AcDbEntity
  8
0
100
AcDbCircle
 62
7
  6
CONTINUOUS
 10
4.8450087716
 20
2.4215699522
 40
0.278819224
100
AcDbArc
 50
89.993883932
 51
91.3628694083
  0
ARC
  5
3DF
100
AcDbEntity
  8
0
100
AcDbCircle
 62
7
  6
CONTINUOUS
 10
4.8585440604
 20
2.427588989
 40
0.2716951778
100
AcDbArc
 50
79.6492583194
 51
80.3845294797
  0
ARC
  5
3E0
100
AcDbEntity
  8
0
100
AcDbCircle
 62
7
  6
CONTINUOUS
 10
4.5124344367
 20
2.453677518
 40
0.2467117101
100
AcDbArc
 50
88.6914476936
 51
89.9622302409
  0
ARC
  5
3E1
100
AcDbEntity
  8
0
100
AcDbCircle
 62
7
  6
CONTINUOUS
 10
4.4568470462
 20
2.5002569684
 40
0.0708154378
100
AcDbArc
 50
88.8486257318
 51
89.0760991947
  0
ARC
  5
3E2
100
AcDbEntity
  8
0
100
AcDbCircle
 62
7
  6
CONTINUOUS
 10
4.6804136831
 20
2.5002867687
 40
0.0393700787
100
AcDbArc
 50
19.9999167392
 51
84.208519173
  0
ARC
  5
3E3
100
AcDbEntity
  8
0
100
AcDbCircle
 62
7
  6
CONTINUOUS
 10
4.893655949
 20
2.4031495486
 40
0.0196850394
100
AcDbArc
 50
44.9975682479
 51
82.4962814925
  0
ARC
  5
3E4
100
AcDbEntity
  8
0
100
AcDbCircle
 62
7
  6
CONTINUOUS
 10
4.8372318954
 20
2.422834588
 40
0.0196850394
100
AcDbArc
 50
225.0025651318
 51
270.0015873101
  0
ARC
  5
3E5
100
AcDbEntity
  8
0
100
AcDbCircle
 62
7
  6
CONTINUOUS
 10
4.8012392355
 20
2.4031495486
 40
0.0196850394
100
AcDbArc
 50
44.9984858797
 51
86.4160194498
  0
ARC
  5
3E6
100
AcDbEntity
  8
0
100
AcDbCircle
 62
7
  6
CONTINUOUS
 10
4.7642843471
 20
2.4425196274
 40
0.0196850394
100
AcDbArc
 50
200.0000948195
 51
270.0002417934
  0
ARC
  5
3E7
100
AcDbEntity
  8
0
100
AcDbCircle
 62
7
  6
CONTINUOUS
 10
4.6162231104
 20
2.6096063934
 40
0.0595212197
100
AcDbArc
 50
269.097454336
 51
269.9383826382
  0
ARC
  5
3E8
100
AcDbEntity
  8
0
100
AcDbCircle
 62
7
  6
CONTINUOUS
 10
4.4570719324
 20
2.5149529367
 40
0.0561177552
100
AcDbArc
 50
89.0637381309
 51
89.991115403
  0
ARC
  5
3E9
100
AcDbEntity
  8
0
100
AcDbCircle
 62
7
  6
CONTINUOUS
 10
4.5987649365
 20
2.6444338165
 40
0.0196850394
100
AcDbArc
 50
269.9989177811
 51
314.9986727884
  0
ARC
  5
3EA
100
AcDbEntity
  8
0
100
AcDbCircle
 62
7
  6
CONTINUOUS
 10
4.6069187468
 20
2.6525876268
 40
0.0196850394
100
AcDbArc
 50
314.9987952044
 51
360.0
  0
ARC
  5
3EB
100
AcDbEntity
  8
0
100
AcDbCircle
 62
7
  6
CONTINUOUS
 10
4.504556542
 20
2.6525876268
 40
0.0196850394
100
AcDbArc
 50
180.0
 51
225.0012047956
  0
ARC
  5
3EC
100
AcDbEntity
  8
0
100
AcDbCircle
 62
7
  6
CONTINUOUS
 10
4.5127103523
 20
2.6444338165
 40
0.0196850394
100
AcDbArc
 50
225.0013272116
 51
270.001082219
  0
ARC
  5
3ED
100
AcDbEntity
  8
0
100
AcDbCircle
 62
7
  6
CONTINUOUS
 10
4.8209767303
 20
2.6525876268
 40
0.0196850394
100
AcDbArc
 50
180.0
 51
225.0012049649
  0
ARC
  5
3EE
100
AcDbEntity
  8
0
100
AcDbCircle
 62
7
  6
CONTINUOUS
 10
4.8291305405
 20
2.6444338165
 40
0.0196850394
100
AcDbArc
 50
225.0013272064
 51
270.0010822146
  0
ARC
  5
3EF
100
AcDbEntity
  8
0
100
AcDbCircle
 62
7
  6
CONTINUOUS
 10
4.663669487
 20
2.6941347951
 40
0.0196850394
100
AcDbArc
 50
314.9989767129
 51
360.0
  0
ARC
  5
3F0
100
AcDbEntity
  8
0
100
AcDbCircle
 62
7
  6
CONTINUOUS
 10
4.537685235
 20
2.6941347951
 40
0.0196850394
100
AcDbArc
 50
180.0
 51
225.0010232871
  0
ARC
  5
3F1
100
AcDbEntity
  8
0
100
AcDbCircle
 62
7
  6
CONTINUOUS
 10
4.5458390453
 20
2.6859809848
 40
0.0196850394
100
AcDbArc
 50
225.0010369649
 51
270.0009085171
  0
ARC
  5
3F2
100
AcDbEntity
  8
0
100
AcDbCircle
 62
7
  6
CONTINUOUS
 10
4.6555156767
 20
2.6859809848
 40
0.0196850394
100
AcDbArc
 50
269.9990914829
 51
314.9989630351
  0
ARC
  5
3F3
100
AcDbEntity
  8
0
100
AcDbCircle
 62
7
  6
CONTINUOUS
 10
4.4435073423
 20
2.5328893962
 40
0.0118110236
100
AcDbArc
 50
180.0
 51
225.0002999894
  0
ARC
  5
3F4
100
AcDbEntity
  8
0
100
AcDbCircle
 62
7
  6
CONTINUOUS
 10
4.4562736442
 20
2.5201230943
 40
0.0118110236
100
AcDbArc
 50
225.0002531645
 51
270.0002596323
  0
ARC
  5
3F5
100
AcDbEntity
  8
0
100
AcDbCircle
 62
7
  6
CONTINUOUS
 10
4.5814740345
 20
2.5201230943
 40
0.0118110236
100
AcDbArc
 50
269.9997403685
 51
314.9997468361
  0
ARC
  5
3F6
100
AcDbEntity
  8
0
100
AcDbCircle
 62
7
  6
CONTINUOUS
 10
4.5942403364
 20
2.5328893962
 40
0.0118110236
100
AcDbArc
 50
314.9997000106
 51
360.0
  0
ARC
  5
3F7
100
AcDbEntity
  8
0
100
AcDbCircle
 62
7
  6
CONTINUOUS
 10
4.4761301002
 20
2.5328893962
 40
0.0118110236
100
AcDbArc
 50
180.0
 51
225.0002999876
  0
ARC
  5
3F8
100
AcDbEntity
  8
0
100
AcDbCircle
 62
7
  6
CONTINUOUS
 10
4.4888964021
 20
2.5201230943
 40
0.0118110236
100
AcDbArc
 50
225.0002531657
 51
270.0002596341
  0
ARC
  5
3F9
100
AcDbEntity
  8
0
100
AcDbCircle
 62
7
  6
CONTINUOUS
 10
4.8891268748
 20
2.5328893962
 40
0.0118110236
100
AcDbArc
 50
180.0
 51
225.0002999879
  0
ARC
  5
3FA
100
AcDbEntity
  8
0
100
AcDbCircle
 62
7
  6
CONTINUOUS
 10
5.2156532147
 20
2.3444003095
 40
0.35598952
100
AcDbArc
 50
87.5439871335
 51
89.7021225733
  0
ARC
  5
3FB
100
AcDbEntity
  8
0
100
AcDbCircle
 62
7
  6
CONTINUOUS
 10
5.2158263588
 20
2.3617969148
 40
0.3385922598
100
AcDbArc
 50
89.7161165677
 51
89.9995857781
  0
ARC
  5
3FC
100
AcDbEntity
  8
0
100
AcDbCircle
 62
7
  6
CONTINUOUS
 10
5.2158237552
 20
2.3669557277
 40
0.3334334469
100
AcDbArc
 50
89.9991319703
 51
91.2462497209
  0
ARC
  5
3FD
100
AcDbEntity
  8
0
100
AcDbCircle
 62
7
  6
CONTINUOUS
 10
5.2388809595
 20
2.422834588
 40
0.0196850394
100
AcDbArc
 50
225.0025651318
 51
270.0027356757
  0
ARC
  5
3FE
100
AcDbEntity
  8
0
100
AcDbCircle
 62
7
  6
CONTINUOUS
 10
5.2028882996
 20
2.4031495486
 40
0.0196850394
100
AcDbArc
 50
44.9975750784
 51
89.9960818714
  0
ARC
  5
3FF
100
AcDbEntity
  8
0
100
AcDbCircle
 62
7
  6
CONTINUOUS
 10
5.145624453
 20
2.422834588
 40
0.0196850394
100
AcDbArc
 50
269.9972642494
 51
314.9974348102
  0
ARC
  5
400
100
AcDbEntity
  8
0
100
AcDbCircle
 62
7
  6
CONTINUOUS
 10
4.929648609
 20
2.422834588
 40
0.0196850394
100
AcDbArc
 50
225.0025651901
 51
270.002735751
  0
ARC
  5
401
100
AcDbEntity
  8
0
100
AcDbCircle
 62
7
  6
CONTINUOUS
 10
5.1816171129
 20
2.4031495486
 40
0.0196850394
100
AcDbArc
 50
90.00392895
 51
135.0024317524
  0
ARC
  5
402
100
AcDbEntity
  8
0
100
AcDbCircle
 62
7
  6
CONTINUOUS
 10
5.2317431202
 20
2.422834588
 40
0.0196850394
100
AcDbArc
 50
269.997264249
 51
280.4683062659
  0
ARC
  5
403
100
AcDbEntity
  8
0
100
AcDbCircle
 62
7
  6
CONTINUOUS
 10
5.010292552
 20
2.5138541183
 40
0.0476450727
100
AcDbArc
 50
70.8485712401
 51
72.6681538997
  0
ARC
  5
404
100
AcDbEntity
  8
0
100
AcDbCircle
 62
7
  6
CONTINUOUS
 10
5.3447718492
 20
2.6941347951
 40
0.0196850394
100
AcDbArc
 50
180.0
 51
225.0024588143
  0
ARC
  5
405
100
AcDbEntity
  8
0
100
AcDbCircle
 62
7
  6
CONTINUOUS
 10
5.3529256595
 20
2.6859809848
 40
0.0196850394
100
AcDbArc
 50
225.0011432902
 51
270.001006738
  0
ARC
  5
406
100
AcDbEntity
  8
0
100
AcDbCircle
 62
7
  6
CONTINUOUS
 10
5.0529773275
 20
2.6941347951
 40
0.0196850394
100
AcDbArc
 50
314.9975411863
 51
360.0
  0
ARC
  5
407
100
AcDbEntity
  8
0
100
AcDbCircle
 62
7
  6
CONTINUOUS
 10
4.9269930756
 20
2.6941347951
 40
0.0196850394
100
AcDbArc
 50
180.0
 51
225.0024588147
  0
ARC
  5
408
100
AcDbEntity
  8
0
100
AcDbCircle
 62
7
  6
CONTINUOUS
 10
4.9351468859
 20
2.6859809848
 40
0.0196850394
100
AcDbArc
 50
225.0011432896
 51
270.0010067372
  0
ARC
  5
409
100
AcDbEntity
  8
0
100
AcDbCircle
 62
7
  6
CONTINUOUS
 10
5.0448235173
 20
2.6859809848
 40
0.0196850394
100
AcDbArc
 50
269.9989932615
 51
314.9988567095
  0
ARC
  5
40A
100
AcDbEntity
  8
0
100
AcDbCircle
 62
7
  6
CONTINUOUS
 10
4.923338935
 20
2.6525876268
 40
0.0196850394
100
AcDbArc
 50
314.9987950343
 51
360.0
  0
ARC
  5
40B
100
AcDbEntity
  8
0
100
AcDbCircle
 62
7
  6
CONTINUOUS
 10
4.9151851247
 20
2.6444338165
 40
0.0196850394
100
AcDbArc
 50
269.9989177854
 51
314.9986727936
  0
ARC
  5
40C
100
AcDbEntity
  8
0
100
AcDbCircle
 62
7
  6
CONTINUOUS
 10
5.2681059864
 20
2.6444338165
 40
0.0196850394
100
AcDbArc
 50
269.9989177867
 51
314.998672795
  0
ARC
  5
40D
100
AcDbEntity
  8
0
100
AcDbCircle
 62
7
  6
CONTINUOUS
 10
5.2762597967
 20
2.6525876268
 40
0.0196850394
100
AcDbArc
 50
314.9987952045
 51
360.0
  0
ARC
  5
40E
100
AcDbEntity
  8
0
100
AcDbCircle
 62
7
  6
CONTINUOUS
 10
5.1738975919
 20
2.6525876268
 40
0.0196850394
100
AcDbArc
 50
180.0
 51
225.0012047948
  0
ARC
  5
40F
100
AcDbEntity
  8
0
100
AcDbCircle
 62
7
  6
CONTINUOUS
 10
5.1820514022
 20
2.6444338165
 40
0.0196850394
100
AcDbArc
 50
225.0013272052
 51
270.0010822136
  0
ARC
  5
410
100
AcDbEntity
  8
0
100
AcDbCircle
 62
7
  6
CONTINUOUS
 10
4.9944708091
 20
2.5201230943
 40
0.0118110236
100
AcDbArc
 50
269.9997403679
 51
314.9997468357
  0
ARC
  5
411
100
AcDbEntity
  8
0
100
AcDbCircle
 62
7
  6
CONTINUOUS
 10
5.0072371111
 20
2.5328893962
 40
0.0118110236
100
AcDbArc
 50
314.9997000108
 51
360.0
  0
ARC
  5
412
100
AcDbEntity
  8
0
100
AcDbCircle
 62
7
  6
CONTINUOUS
 10
4.9018931768
 20
2.5201230943
 40
0.0118110236
100
AcDbArc
 50
225.0002531656
 51
270.0002596339
  0
ARC
  5
413
100
AcDbEntity
  8
0
100
AcDbCircle
 62
7
  6
CONTINUOUS
 10
5.1968735422
 20
2.5201230943
 40
0.0118110236
100
AcDbArc
 50
269.9997403667
 51
314.9997468348
  0
ARC
  5
414
100
AcDbEntity
  8
0
100
AcDbCircle
 62
7
  6
CONTINUOUS
 10
5.2096398441
 20
2.5328893962
 40
0.0118110236
100
AcDbArc
 50
314.9997000109
 51
360.0
  0
ARC
  5
415
100
AcDbEntity
  8
0
100
AcDbCircle
 62
7
  6
CONTINUOUS
 10
5.0915296079
 20
2.5328893962
 40
0.0118110236
100
AcDbArc
 50
180.0
 51
225.0002999879
  0
ARC
  5
416
100
AcDbEntity
  8
0
100
AcDbCircle
 62
7
  6
CONTINUOUS
 10
5.1042959098
 20
2.5201230943
 40
0.0118110236
100
AcDbArc
 50
225.0002531652
 51
270.0002596333
  0
ARC
  5
417
100
AcDbEntity
  8
0
100
AcDbCircle
 62
7
  6
CONTINUOUS
 10
5.3092109866
 20
2.5328893962
 40
0.0118110236
100
AcDbArc
 50
180.0
 51
225.0002999885
  0
ARC
  5
418
100
AcDbEntity
  8
0
100
AcDbCircle
 62
7
  6
CONTINUOUS
 10
5.3219772885
 20
2.5201230943
 40
0.0118110236
100
AcDbArc
 50
225.0002531654
 51
270.0002596337
  0
ARC
  5
419
100
AcDbEntity
  8
0
100
AcDbCircle
 62
7
  6
CONTINUOUS
 10
4.930711663
 20
4.2939700421
 40
0.08
100
AcDbArc
 50
118.8939836815
 51
134.7682446275
  0
ARC
  5
41A
100
AcDbEntity
  8
0
100
AcDbCircle
 62
7
  6
CONTINUOUS
 10
5.4077501419
 20
9.6719720728
 40
7.1691060897
100
AcDbArc
 50
263.6113261854
 51
264.2089899485
  0
ARC
  5
41B
100
AcDbEntity
  8
0
100
AcDbCircle
 62
7
  6
CONTINUOUS
 10
5.4077501419
 20
9.6719720728
 40
7.1691060897
100
AcDbArc
 50
260.6769302766
 51
262.098581803
  0
ARC
  5
41C
100
AcDbEntity
  8
0
100
AcDbCircle
 62
7
  6
CONTINUOUS
 10
5.4077501419
 20
9.6720073827
 40
7.1643816803
100
AcDbArc
 50
259.8532230909
 51
260.5748796072
  0
ARC
  5
41D
100
AcDbEntity
  8
0
100
AcDbCircle
 62
7
  6
CONTINUOUS
 10
5.4077501419
 20
9.6720073827
 40
7.1643816803
100
AcDbArc
 50
255.1944718959
 51
255.7102731772
  0
ARC
  5
41E
100
AcDbEntity
  8
ALL_FEATURES
100
AcDbCircle
 62
7
  6
CONTINUOUS
 10
5.1432639752
 20
5.7118421918
 40
0.188
100
AcDbArc
 50
180.0
 51
225.0
  0
ARC
  5
41F
100
AcDbEntity
  8
ALL_FEATURES
100
AcDbCircle
 62
7
  6
CONTINUOUS
 10
5.0056017151
 20
5.4704952171
 40
0.08
100
AcDbArc
 50
314.9741595356
 51
45.0
  0
ARC
  5
420
100
AcDbEntity
  8
0
100
AcDbCircle
 62
7
  6
CONTINUOUS
 10
5.5999445794
 20
2.3426536952
 40
0.3577374236
100
AcDbArc
 50
91.2179091128
 51
92.4003257805
  0
ARC
  5
421
100
AcDbEntity
  8
0
100
AcDbCircle
 62
7
  6
CONTINUOUS
 10
5.5997196248
 20
2.3552037581
 40
0.345185417
100
AcDbArc
 50
90.0033995785
 51
91.2248550894
  0
ARC
  5
422
100
AcDbEntity
  8
0
100
AcDbCircle
 62
7
  6
CONTINUOUS
 10
5.5997217576
 20
2.3684652818
 40
0.3319238935
100
AcDbArc
 50
88.7233993511
 51
90.0039035681
  0
ARC
  5
423
100
AcDbEntity
  8
0
100
AcDbCircle
 62
7
  6
CONTINUOUS
 10
5.7997606741
 20
2.422834588
 40
0.0196850394
100
AcDbArc
 50
269.9972642495
 51
314.9974348102
  0
ARC
  5
424
100
AcDbEntity
  8
0
100
AcDbCircle
 62
7
  6
CONTINUOUS
 10
5.5837848301
 20
2.422834588
 40
0.0196850394
100
AcDbArc
 50
225.0025651901
 51
270.002735751
  0
ARC
  5
425
100
AcDbEntity
  8
0
100
AcDbCircle
 62
7
  6
CONTINUOUS
 10
5.835753334
 20
2.4031495486
 40
0.0196850394
100
AcDbArc
 50
90.00392895
 51
135.0024317524
  0
ARC
  5
426
100
AcDbEntity
  8
0
100
AcDbCircle
 62
7
  6
CONTINUOUS
 10
5.5477921701
 20
2.4031495486
 40
0.0196850394
100
AcDbArc
 50
44.9975682479
 51
89.9960710504
  0
ARC
  5
427
100
AcDbEntity
  8
0
100
AcDbCircle
 62
7
  6
CONTINUOUS
 10
5.4548568035
 20
2.422834588
 40
0.0196850394
100
AcDbArc
 50
269.9972643243
 51
314.9974348681
  0
ARC
  5
428
100
AcDbEntity
  8
0
100
AcDbCircle
 62
7
  6
CONTINUOUS
 10
5.4908494635
 20
2.4031495486
 40
0.0196850394
100
AcDbArc
 50
90.0039181288
 51
135.0024249217
  0
ARC
  5
429
100
AcDbEntity
  8
0
100
AcDbCircle
 62
7
  6
CONTINUOUS
 10
5.5766469908
 20
2.422834588
 40
0.0196850394
100
AcDbArc
 50
269.9972643243
 51
280.468306272
  0
ARC
  5
42A
100
AcDbEntity
  8
0
100
AcDbCircle
 62
7
  6
CONTINUOUS
 10
5.4145549209
 20
2.5201230943
 40
0.0118110236
100
AcDbArc
 50
269.9997403663
 51
314.9997468346
  0
ARC
  5
42B
100
AcDbEntity
  8
0
100
AcDbCircle
 62
7
  6
CONTINUOUS
 10
5.7625506228
 20
2.6941347951
 40
0.0196850394
100
AcDbArc
 50
180.0
 51
225.0024588136
  0
ARC
  5
42C
100
AcDbEntity
  8
0
100
AcDbCircle
 62
7
  6
CONTINUOUS
 10
5.770704433
 20
2.6859809848
 40
0.0196850394
100
AcDbArc
 50
225.0011432902
 51
270.001006738
  0
ARC
  5
42D
100
AcDbEntity
  8
0
100
AcDbCircle
 62
7
  6
CONTINUOUS
 10
5.8803810644
 20
2.6859809848
 40
0.0196850394
100
AcDbArc
 50
269.998993262
 51
314.9988567098
  0
ARC
  5
42E
100
AcDbEntity
  8
0
100
AcDbCircle
 62
7
  6
CONTINUOUS
 10
5.4707561011
 20
2.6941347951
 40
0.0196850394
100
AcDbArc
 50
314.9975411863
 51
360.0
  0
ARC
  5
42F
100
AcDbEntity
  8
0
100
AcDbCircle
 62
7
  6
CONTINUOUS
 10
5.4626022909
 20
2.6859809848
 40
0.0196850394
100
AcDbArc
 50
269.998993262
 51
314.9988567098
  0
ARC
  5
430
100
AcDbEntity
  8
0
100
AcDbCircle
 62
7
  6
CONTINUOUS
 10
5.5392681536
 20
2.6525876268
 40
0.0196850394
100
AcDbArc
 50
180.0
 51
225.0012047959
  0
ARC
  5
431
100
AcDbEntity
  8
0
100
AcDbCircle
 62
7
  6
CONTINUOUS
 10
5.6416303584
 20
2.6525876268
 40
0.0196850394
100
AcDbArc
 50
314.9987952046
 51
360.0
  0
ARC
  5
432
100
AcDbEntity
  8
0
100
AcDbCircle
 62
7
  6
CONTINUOUS
 10
5.6334765481
 20
2.6444338165
 40
0.0196850394
100
AcDbArc
 50
269.9989177866
 51
314.9986727949
  0
ARC
  5
433
100
AcDbEntity
  8
0
100
AcDbCircle
 62
7
  6
CONTINUOUS
 10
5.5474219639
 20
2.6444338165
 40
0.0196850394
100
AcDbArc
 50
225.0013272051
 51
270.0010822134
  0
ARC
  5
434
100
AcDbEntity
  8
0
100
AcDbCircle
 62
7
  6
CONTINUOUS
 10
5.4273212228
 20
2.5328893962
 40
0.0118110236
100
AcDbArc
 50
314.9997000108
 51
360.0
  0
ARC
  5
435
100
AcDbEntity
  8
0
100
AcDbCircle
 62
7
  6
CONTINUOUS
 10
5.9713208611
 20
2.3498792359
 40
0.3505176278
100
AcDbArc
 50
91.2733704291
 51
92.4470176737
  0
ARC
  5
436
100
AcDbEntity
  8
0
100
AcDbCircle
 62
7
  6
CONTINUOUS
 10
5.9705345114
 20
2.3894611775
 40
0.3109280003
100
AcDbArc
 50
90.0083098766
 51
91.2905928536
  0
ARC
  5
437
100
AcDbEntity
  8
0
100
AcDbCircle
 62
7
  6
CONTINUOUS
 10
5.9586204472
 20
2.4183612507
 40
0.2810668047
100
AcDbArc
 50
99.3092369915
 51
100.3375346163
  0
ARC
  5
438
100
AcDbEntity
  8
0
100
AcDbCircle
 62
7
  6
CONTINUOUS
 10
5.9705883541
 20
2.4273743609
 40
0.2730148316
100
AcDbArc
 50
88.5922408625
 51
90.0207634513
  0
ARC
  5
439
100
AcDbEntity
  8
0
100
AcDbCircle
 62
7
  6
CONTINUOUS
 10
6.3029841924
 20
2.4632894437
 40
0.2370997368
100
AcDbArc
 50
90.0128831749
 51
91.3142004854
  0
ARC
  5
43A
100
AcDbEntity
  8
0
100
AcDbCircle
 62
7
  6
CONTINUOUS
 10
6.3030967245
 20
2.5125449278
 40
0.18784432
100
AcDbArc
 50
88.3022527355
 51
90.0505855851
  0
ARC
  5
43B
100
AcDbEntity
  8
0
100
AcDbCircle
 62
7
  6
CONTINUOUS
 10
5.9782960549
 20
2.422834588
 40
0.0196850394
100
AcDbArc
 50
269.9984126899
 51
314.9974348682
  0
ARC
  5
43C
100
AcDbEntity
  8
0
100
AcDbCircle
 62
7
  6
CONTINUOUS
 10
6.0142887149
 20
2.4031495486
 40
0.0196850394
100
AcDbArc
 50
93.5839805502
 51
135.0015141203
  0
ARC
  5
43D
100
AcDbEntity
  8
0
100
AcDbCircle
 62
7
  6
CONTINUOUS
 10
6.0512436032
 20
2.4425196274
 40
0.0196850394
100
AcDbArc
 50
269.9997582066
 51
339.9999051805
  0
ARC
  5
43E
100
AcDbEntity
  8
0
100
AcDbCircle
 62
7
  6
CONTINUOUS
 10
6.2003087889
 20
2.5201230943
 40
0.0118110236
100
AcDbArc
 50
269.9997330535
 51
314.999746835
  0
ARC
  5
43F
100
AcDbEntity
  8
0
100
AcDbCircle
 62
7
  6
CONTINUOUS
 10
6.1077311565
 20
2.5201230943
 40
0.0118110236
100
AcDbArc
 50
225.0002531649
 51
270.0002669464
  0
ARC
  5
440
100
AcDbEntity
  8
0
100
AcDbCircle
 62
7
  6
CONTINUOUS
 10
6.0540630712
 20
2.5201230943
 40
0.0118110236
100
AcDbArc
 50
269.9997435846
 51
314.9997499651
  0
ARC
  5
441
100
AcDbEntity
  8
0
100
AcDbCircle
 62
7
  6
CONTINUOUS
 10
5.9614854388
 20
2.5201230943
 40
0.0118110236
100
AcDbArc
 50
225.0002500349
 51
270.0002564154
  0
ARC
  5
442
100
AcDbEntity
  8
0
100
AcDbCircle
 62
7
  6
CONTINUOUS
 10
6.3022205218
 20
2.5201230943
 40
0.0118110236
100
AcDbArc
 50
269.999737837
 51
314.9997468357
  0
ARC
  5
443
100
AcDbEntity
  8
0
100
AcDbCircle
 62
7
  6
CONTINUOUS
 10
6.2096428894
 20
2.5201230943
 40
0.0118110236
100
AcDbArc
 50
246.7034209995
 51
270.0002621649
  0
ARC
  5
444
100
AcDbEntity
  8
0
100
AcDbCircle
 62
7
  6
CONTINUOUS
 10
6.347572736
 20
2.5377007746
 40
0.128735686
100
AcDbArc
 50
262.0665196425
 51
269.1968068556
  0
ARC
  5
445
100
AcDbEntity
  8
0
100
AcDbCircle
 62
7
  6
CONTINUOUS
 10
6.3315702521
 20
2.537199185
 40
0.1282339162
100
AcDbArc
 50
268.1961638826
 51
269.9931323839
  0
ARC
  5
446
100
AcDbEntity
  8
0
100
AcDbCircle
 62
7
  6
CONTINUOUS
 10
6.3475555088
 20
2.5370809729
 40
0.128115704
100
AcDbArc
 50
269.2006248476
 51
269.9833259443
  0
ARC
  5
447
100
AcDbEntity
  8
0
100
AcDbCircle
 62
7
  6
CONTINUOUS
 10
6.1507812491
 20
2.7089393147
 40
0.0245790481
100
AcDbArc
 50
125.0754381082
 51
126.5033507931
  0
ARC
  5
448
100
AcDbEntity
  8
0
100
AcDbCircle
 62
7
  6
CONTINUOUS
 10
6.2778427153
 20
2.6941347951
 40
0.0196850394
100
AcDbArc
 50
314.9975411859
 51
360.0
  0
ARC
  5
449
100
AcDbEntity
  8
0
100
AcDbCircle
 62
7
  6
CONTINUOUS
 10
6.1518584633
 20
2.6941347951
 40
0.0196850394
100
AcDbArc
 50
180.0
 51
225.0024588141
  0
ARC
  5
44A
100
AcDbEntity
  8
0
100
AcDbCircle
 62
7
  6
CONTINUOUS
 10
6.1600122736
 20
2.6859809848
 40
0.0196850394
100
AcDbArc
 50
225.00114329
 51
270.0010067378
  0
ARC
  5
44B
100
AcDbEntity
  8
0
100
AcDbCircle
 62
7
  6
CONTINUOUS
 10
6.269688905
 20
2.6859809848
 40
0.0196850394
100
AcDbArc
 50
269.9989932622
 51
314.99885671
  0
ARC
  5
44C
100
AcDbEntity
  8
0
100
AcDbCircle
 62
7
  6
CONTINUOUS
 10
5.8885348747
 20
2.6941347951
 40
0.0196850394
100
AcDbArc
 50
314.9975411859
 51
360.0
  0
ARC
  5
44D
100
AcDbEntity
  8
0
100
AcDbCircle
 62
7
  6
CONTINUOUS
 10
6.2086092036
 20
2.6525876268
 40
0.0196850394
100
AcDbArc
 50
180.0
 51
225.0012047948
  0
ARC
  5
44E
100
AcDbEntity
  8
0
100
AcDbCircle
 62
7
  6
CONTINUOUS
 10
6.3109714083
 20
2.6525876268
 40
0.0196850394
100
AcDbArc
 50
314.9987952044
 51
360.0
  0
ARC
  5
44F
100
AcDbEntity
  8
0
100
AcDbCircle
 62
7
  6
CONTINUOUS
 10
6.302817598
 20
2.6444338165
 40
0.0196850394
100
AcDbArc
 50
269.9989177866
 51
314.998672795
  0
ARC
  5
450
100
AcDbEntity
  8
0
100
AcDbCircle
 62
7
  6
CONTINUOUS
 10
6.2167630138
 20
2.6444338165
 40
0.0196850394
100
AcDbArc
 50
225.0013272057
 51
270.0010822143
  0
ARC
  5
451
100
AcDbEntity
  8
0
100
AcDbCircle
 62
7
  6
CONTINUOUS
 10
5.9863974098
 20
2.6444338165
 40
0.0196850394
100
AcDbArc
 50
269.9989177863
 51
314.9986727948
  0
ARC
  5
452
100
AcDbEntity
  8
0
100
AcDbCircle
 62
7
  6
CONTINUOUS
 10
5.9945512201
 20
2.6525876268
 40
0.0196850394
100
AcDbArc
 50
314.9987952051
 51
360.0
  0
ARC
  5
453
100
AcDbEntity
  8
0
100
AcDbCircle
 62
7
  6
CONTINUOUS
 10
5.8921890153
 20
2.6525876268
 40
0.0196850394
100
AcDbArc
 50
180.0
 51
225.0012047956
  0
ARC
  5
454
100
AcDbEntity
  8
0
100
AcDbCircle
 62
7
  6
CONTINUOUS
 10
5.9003428256
 20
2.6444338165
 40
0.0196850394
100
AcDbArc
 50
225.0013272052
 51
270.0010822137
  0
ARC
  5
455
100
AcDbEntity
  8
0
100
AcDbCircle
 62
7
  6
CONTINUOUS
 10
6.2130750908
 20
2.5328893962
 40
0.0118110236
100
AcDbArc
 50
314.9997000112
 51
360.0
  0
ARC
  5
456
100
AcDbEntity
  8
0
100
AcDbCircle
 62
7
  6
CONTINUOUS
 10
6.0949648546
 20
2.5328893962
 40
0.0118110236
100
AcDbArc
 50
180.0
 51
225.0002999888
  0
ARC
  5
457
100
AcDbEntity
  8
0
100
AcDbCircle
 62
7
  6
CONTINUOUS
 10
6.0668293731
 20
2.5328893962
 40
0.0118110236
100
AcDbArc
 50
314.9996996385
 51
360.0
  0
ARC
  5
458
100
AcDbEntity
  8
0
100
AcDbCircle
 62
7
  6
CONTINUOUS
 10
5.9487191369
 20
2.5328893962
 40
0.0118110236
100
AcDbArc
 50
180.0
 51
225.0003003629
  0
ARC
  5
459
100
AcDbEntity
  8
0
100
AcDbCircle
 62
7
  6
CONTINUOUS
 10
6.3149868237
 20
2.5328893962
 40
0.0118110236
100
AcDbArc
 50
314.9997000107
 51
360.0
  0
ARC
  5
45A
100
AcDbEntity
  8
0
100
AcDbCircle
 62
7
  6
CONTINUOUS
 10
6.0777651137
 20
2.5558266657
 40
0.000873216
100
AcDbArc
 50
359.9054994445
 51
11.3521152257
  0
ARC
  5
45B
100
AcDbEntity
  8
0
100
AcDbCircle
 62
7
  6
CONTINUOUS
 10
5.4077639752
 20
4.9591329221
 40
2.5590551181
100
AcDbArc
 50
264.5188586967
 51
265.9005806951
  0
ARC
  5
45C
100
AcDbEntity
  8
0
100
AcDbCircle
 62
7
  6
CONTINUOUS
 10
5.4077639752
 20
4.9591329221
 40
2.5590551181
100
AcDbArc
 50
266.6527317001
 51
268.3189505182
  0
ARC
  5
45D
100
AcDbEntity
  8
0
100
AcDbCircle
 62
7
  6
CONTINUOUS
 10
5.4077639752
 20
4.9591329221
 40
2.5590551181
100
AcDbArc
 50
268.6729177583
 51
273.6363791601
  0
ARC
  5
45E
100
AcDbEntity
  8
ALL_FEATURES
100
AcDbCircle
 62
7
  6
CONTINUOUS
 10
5.4077639752
 20
5.0679700421
 40
0.489
100
AcDbArc
 50
28.8615325013
 51
45.0258404644
  0
ARC
  5
45F
100
AcDbEntity
  8
ALL_FEATURES
100
AcDbCircle
 62
7
  6
CONTINUOUS
 10
5.4077639752
 20
5.0679700421
 40
0.489
100
AcDbArc
 50
134.9741595356
 51
151.1384674987
  0
ARC
  5
460
100
AcDbEntity
  8
0
100
AcDbCircle
 62
7
  6
CONTINUOUS
 10
5.8848162873
 20
4.2939700421
 40
0.08
100
AcDbArc
 50
45.2317553725
 51
61.1060163185
  0
ARC
  5
461
100
AcDbEntity
  8
0
100
AcDbCircle
 62
7
  6
CONTINUOUS
 10
6.4519477629
 20
0.8924052273
 40
1.6834467947
100
AcDbArc
 50
97.363941587
 51
97.7368436407
  0
ARC
  5
462
100
AcDbEntity
  8
0
100
AcDbCircle
 62
7
  6
CONTINUOUS
 10
6.4897398576
 20
2.7215823949
 40
0.3765646643
100
AcDbArc
 50
214.6072065299
 51
214.8753833234
  0
ARC
  5
463
100
AcDbEntity
  8
0
100
AcDbCircle
 62
7
  6
CONTINUOUS
 10
6.484556344
 20
2.7179640603
 40
0.3702431821
100
AcDbArc
 50
214.8746754911
 51
215.6523527907
  0
ARC
  5
464
100
AcDbEntity
  8
0
100
AcDbCircle
 62
7
  6
CONTINUOUS
 10
6.5034903261
 20
2.7151189952
 40
0.3700007962
100
AcDbArc
 50
214.0938925985
 51
214.3158984374
  0
ARC
  5
465
100
AcDbEntity
  8
0
100
AcDbCircle
 62
7
  6
CONTINUOUS
 10
6.5000812245
 20
2.712789306
 40
0.3658717018
100
AcDbArc
 50
214.3155399883
 51
214.6490838497
  0
ARC
  5
466
100
AcDbEntity
  8
0
100
AcDbCircle
 62
7
  6
CONTINUOUS
 10
6.477045256
 20
2.7125945351
 40
0.3610101968
100
AcDbArc
 50
215.6547093463
 51
216.2011656138
  0
ARC
  5
467
100
AcDbEntity
  8
0
100
AcDbCircle
 62
7
  6
CONTINUOUS
 10
6.4950920056
 20
2.7093321289
 40
0.3598017494
100
AcDbArc
 50
214.647900432
 51
215.1924537083
  0
ARC
  5
468
100
AcDbEntity
  8
0
100
AcDbCircle
 62
7
  6
CONTINUOUS
 10
6.4395534946
 20
2.7262661733
 40
0.3578866687
100
AcDbArc
 50
217.5533616525
 51
218.2315987674
  0
ARC
  5
469
100
AcDbEntity
  8
0
100
AcDbCircle
 62
7
  6
CONTINUOUS
 10
6.4329425008
 20
2.7210375151
 40
0.3494579177
100
AcDbArc
 50
218.2289698121
 51
219.1815454879
  0
ARC
  5
46A
100
AcDbEntity
  8
0
100
AcDbCircle
 62
7
  6
CONTINUOUS
 10
6.5266182474
 20
2.4758421488
 40
0.2165508689
100
AcDbArc
 50
105.3833711865
 51
106.8089005308
  0
ARC
  5
46B
100
AcDbEntity
  8
0
100
AcDbCircle
 62
7
  6
CONTINUOUS
 10
6.4456187724
 20
2.6590216159
 40
0.1951297225
100
AcDbArc
 50
227.7347175221
 51
230.0970556477
  0
ARC
  5
46C
100
AcDbEntity
  8
0
100
AcDbCircle
 62
7
  6
CONTINUOUS
 10
6.4581567201
 20
2.497354145
 40
0.0410156674
100
AcDbArc
 50
312.385309133
 51
314.6974028531
  0
ARC
  5
46D
100
AcDbEntity
  8
0
100
AcDbCircle
 62
7
  6
CONTINUOUS
 10
6.6121489369
 20
2.6941347951
 40
0.0196850394
100
AcDbArc
 50
314.9975411861
 51
360.0
  0
ARC
  5
46E
100
AcDbEntity
  8
0
100
AcDbCircle
 62
7
  6
CONTINUOUS
 10
6.4861646849
 20
2.6941347951
 40
0.0196850394
100
AcDbArc
 50
180.0
 51
225.0024588139
  0
ARC
  5
46F
100
AcDbEntity
  8
0
100
AcDbCircle
 62
7
  6
CONTINUOUS
 10
6.4943184952
 20
2.6859809848
 40
0.0196850394
100
AcDbArc
 50
225.0011432895
 51
270.0010067371
  0
ARC
  5
470
100
AcDbEntity
  8
0
100
AcDbCircle
 62
7
  6
CONTINUOUS
 10
6.6039951266
 20
2.6859809848
 40
0.0196850394
100
AcDbArc
 50
269.9989932615
 51
314.9988567094
  0
ARC
  5
471
100
AcDbEntity
  8
0
100
AcDbCircle
 62
7
  6
CONTINUOUS
 10
6.6496504862
 20
2.6525876268
 40
0.0196850394
100
AcDbArc
 50
180.0
 51
225.0012049649
  0
ARC
  5
472
100
AcDbEntity
  8
0
100
AcDbCircle
 62
7
  6
CONTINUOUS
 10
6.5611735998
 20
2.6444338165
 40
0.0196850394
100
AcDbArc
 50
269.9989099294
 51
314.9986727884
  0
ARC
  5
473
100
AcDbEntity
  8
0
100
AcDbCircle
 62
7
  6
CONTINUOUS
 10
6.5693274101
 20
2.6525876268
 40
0.0196850394
100
AcDbArc
 50
314.9987952044
 51
360.0
  0
ARC
  5
474
100
AcDbEntity
  8
0
100
AcDbCircle
 62
7
  6
CONTINUOUS
 10
6.4669652054
 20
2.6525876268
 40
0.0196850394
100
AcDbArc
 50
180.0
 51
225.0012047956
  0
ARC
  5
475
100
AcDbEntity
  8
0
100
AcDbCircle
 62
7
  6
CONTINUOUS
 10
6.4751190156
 20
2.6444338165
 40
0.0196850394
100
AcDbArc
 50
225.0013272117
 51
270.0010900707
  0
ARC
  5
476
100
AcDbEntity
  8
0
100
AcDbCircle
 62
7
  6
CONTINUOUS
 10
6.8554290311
 20
1.8677110775
 40
0.8382575534
100
AcDbArc
 50
99.0882027458
 51
99.4546351358
  0
ARC
  5
477
100
AcDbEntity
  8
0
100
AcDbCircle
 62
7
  6
CONTINUOUS
 10
6.8508565474
 20
2.4002537978
 40
0.3435176141
100
AcDbArc
 50
106.8318219496
 51
107.0369449969
  0
ARC
  5
478
100
AcDbEntity
  8
0
100
AcDbCircle
 62
7
  6
CONTINUOUS
 10
6.868671123
 20
2.6941347951
 40
0.0196850394
100
AcDbArc
 50
314.9975417674
 51
360.0
  0
ARC
  5
479
100
AcDbEntity
  8
0
100
AcDbCircle
 62
7
  6
CONTINUOUS
 10
6.742686871
 20
2.6941347951
 40
0.0196850394
100
AcDbArc
 50
180.0
 51
225.0024582326
  0
ARC
  5
47A
100
AcDbEntity
  8
0
100
AcDbCircle
 62
7
  6
CONTINUOUS
 10
6.7508406813
 20
2.6859809848
 40
0.0196850394
100
AcDbArc
 50
225.0011432897
 51
270.0010702875
  0
ARC
  5
47B
100
AcDbEntity
  8
0
100
AcDbCircle
 62
7
  6
CONTINUOUS
 10
6.8605173127
 20
2.6859809848
 40
0.0196850394
100
AcDbArc
 50
269.9989297125
 51
314.9988567103
  0
ARC
  5
47C
100
AcDbEntity
  8
0
100
AcDbCircle
 62
7
  6
CONTINUOUS
 10
6.7520126909
 20
2.6525876268
 40
0.0196850394
100
AcDbArc
 50
314.9987950343
 51
360.0
  0
ARC
  5
47D
100
AcDbEntity
  8
0
100
AcDbCircle
 62
7
  6
CONTINUOUS
 10
6.7438588807
 20
2.6444338165
 40
0.0196850394
100
AcDbArc
 50
269.9988674531
 51
314.9986727936
  0
ARC
  5
47E
100
AcDbEntity
  8
0
100
AcDbCircle
 62
7
  6
CONTINUOUS
 10
6.6578042965
 20
2.6444338165
 40
0.0196850394
100
AcDbArc
 50
225.0013272064
 51
270.0011325469
  0
ARC
  5
47F
100
AcDbEntity
  8
0
100
AcDbCircle
 62
7
  6
CONTINUOUS
 10
6.8384237405
 20
2.6444338165
 40
0.0196850394
100
AcDbArc
 50
269.9994703127
 51
314.998672795
  0
ARC
  5
480
100
AcDbEntity
  8
0
100
AcDbCircle
 62
7
  6
CONTINUOUS
 10
6.8465775508
 20
2.6525876268
 40
0.0196850394
100
AcDbArc
 50
314.9987952045
 51
360.0
  0
ARC
  5
481
100
AcDbEntity
  8
0
100
AcDbCircle
 62
7
  6
CONTINUOUS
 10
6.7523691564
 20
2.6444338165
 40
0.0196850394
100
AcDbArc
 50
257.4937962893
 51
270.0005296873
  0
ARC
  5
482
100
AcDbEntity
  8
0
100
AcDbCircle
 62
7
  6
CONTINUOUS
 10
6.6685420658
 20
2.6274346009
 40
0.0078740157
100
AcDbArc
 50
280.1465387618
 51
340.0239308105
  0
ARC
  5
483
100
AcDbEntity
  8
0
100
AcDbCircle
 62
7
  6
CONTINUOUS
 10
7.161650451
 20
1.8182747498
 40
0.9396224919
100
AcDbArc
 50
104.2329466691
 51
105.2435696444
  0
ARC
  5
484
100
AcDbEntity
  8
0
100
AcDbCircle
 62
7
  6
CONTINUOUS
 10
7.3277639752
 20
2.8278872074
 40
0.08
100
AcDbArc
 50
273.0
 51
360.0
  0
ARC
  5
485
100
AcDbEntity
  8
0
100
AcDbCircle
 62
7
  6
CONTINUOUS
 10
7.0767755192
 20
2.6859809848
 40
0.0196850394
100
AcDbArc
 50
269.998993262
 51
314.9988567098
  0
ARC
  5
486
100
AcDbEntity
  8
0
100
AcDbCircle
 62
7
  6
CONTINUOUS
 10
7.0849293295
 20
2.6941347951
 40
0.0196850394
100
AcDbArc
 50
314.9975411864
 51
360.0
  0
ARC
  5
487
100
AcDbEntity
  8
0
100
AcDbCircle
 62
7
  6
CONTINUOUS
 10
7.0299277105
 20
2.6941347951
 40
0.0196850394
100
AcDbArc
 50
314.9975411863
 51
360.0
  0
ARC
  5
488
100
AcDbEntity
  8
0
100
AcDbCircle
 62
7
  6
CONTINUOUS
 10
6.9039434585
 20
2.6941347951
 40
0.0196850394
100
AcDbArc
 50
206.1249009817
 51
225.0024588147
  0
ARC
  5
489
100
AcDbEntity
  8
0
100
AcDbCircle
 62
7
  6
CONTINUOUS
 10
6.9120972688
 20
2.6859809848
 40
0.0196850394
100
AcDbArc
 50
225.0011432896
 51
270.0008463776
  0
ARC
  5
48A
100
AcDbEntity
  8
0
100
AcDbCircle
 62
7
  6
CONTINUOUS
 10
7.0217739002
 20
2.6859809848
 40
0.0196850394
100
AcDbArc
 50
269.9991536212
 51
314.9988567094
  0
ARC
  5
48B
100
AcDbEntity
  8
0
100
AcDbCircle
 62
7
  6
CONTINUOUS
 10
7.1741828779
 20
2.7369286274
 40
0.0078740157
100
AcDbArc
 50
270.0
 51
284.2899403573
  0
ARC
  5
48C
100
AcDbEntity
  8
0
100
AcDbCircle
 62
7
  6
CONTINUOUS
 10
6.5777639752
 20
3.8319700421
 40
0.08
100
AcDbArc
 50
225.2317553725
 51
270.0
  0
ARC
  5
48D
100
AcDbEntity
  8
0
100
AcDbCircle
 62
7
  6
CONTINUOUS
 10
7.3277639752
 20
3.6719700421
 40
0.08
100
AcDbArc
 50
0.0
 51
90.0
  0
ARC
  5
48E
100
AcDbEntity
  8
0
100
AcDbCircle
 62
7
  6
CONTINUOUS
 10
5.4077778084
 20
9.6719720728
 40
7.1691060897
100
AcDbArc
 50
277.3616080364
 51
279.3230697234
  0
ARC
  5
48F
100
AcDbEntity
  8
0
100
AcDbCircle
 62
7
  6
CONTINUOUS
 10
5.4077778084
 20
9.6720073827
 40
7.1643816803
100
AcDbArc
 50
279.4251203928
 51
280.1467817724
  0
ARC
  5
490
100
AcDbEntity
  8
0
100
AcDbCircle
 62
7
  6
CONTINUOUS
 10
5.4077778084
 20
9.6720073827
 40
7.1643816803
100
AcDbArc
 50
284.2897268228
 51
284.8055281041
  0
ARC
  5
491
100
AcDbEntity
  8
ALL_FEATURES
100
AcDbCircle
 62
7
  6
CONTINUOUS
 10
5.6722639752
 20
5.7118421918
 40
0.188
100
AcDbArc
 50
315.0
 51
360.0
  0
ARC
  5
492
100
AcDbEntity
  8
ALL_FEATURES
100
AcDbCircle
 62
7
  6
CONTINUOUS
 10
5.8099262352
 20
5.4704952171
 40
0.08
100
AcDbArc
 50
135.0
 51
225.0258404644
  0
SPLINE
  5
493
100
AcDbEntity
  8
ALL_FEATURES
100
AcDbSpline
 62
7
  6
CONTINUOUS
 70
0
 71
3
 72
30
 73
26
 74
0
 42
0.0000001
 43
0.0000001
 44
0.0000000001
 40
0.0
 40
0.0
 40
0.0
 40
0.0
 40
0.0312455436
 40
0.0625571968
 40
0.0938734203
 40
0.125162154
 40
0.1564497026
 40
0.1877311141
 40
0.2502274404
 40
0.281502204
 40
0.3127592238
 40
0.3752496266
 40
0.4065041598
 40
0.4377483602
 40
0.5002302834
 40
0.5314773937
 40
0.5627168378
 40
0.6251867051
 40
0.6564269862
 40
0.6876617564
 40
0.7501192031
 40
0.8125919263
 40
0.8750775321
 40
0.9375565458
 40
1.0
 40
1.0
 40
1.0
 40
1.0
 10
5.532388411
 20
5.7118421918
 30
0.0
 10
5.532388411
 20
5.7101517007
 30
0.0
 10
5.5322188448
 20
5.7067649347
 30
0.0
 10
5.5314766988
 20
5.7017332355
 30
0.0
 10
5.5302619041
 20
5.6967914714
 30
0.0
 10
5.528593536
 20
5.6919861008
 30
0.0
 10
5.5265143711
 20
5.6873463818
 30
0.0
 10
5.5232465522
 20
5.6814143606
 30
0.0
 10
5.5192983314
 20
5.6758852198
 30
0.0
 10
5.5148320898
 20
5.6708007356
 30
0.0
 10
5.5100572289
 20
5.6660041923
 30
0.0
 10
5.504872965
 20
5.6616366006
 30
0.0
 10
5.4993854928
 20
5.6576817432
 30
0.0
 10
5.4937178949
 20
5.653989701
 30
0.0
 10
5.4878104562
 20
5.6506810967
 30
0.0
 10
5.4817259486
 20
5.6477301329
 30
0.0
 10
5.4755365528
 20
5.6450071058
 30
0.0
 10
5.4692065562
 20
5.6426164862
 30
0.0
 10
5.4627732252
 20
5.6405380327
 30
0.0
 10
5.4562793303
 20
5.6386591631
 30
0.0
 10
5.4480609991
 20
5.6366757902
 30
0.0
 10
5.4380807714
 20
5.634856343
 30
0.0
 10
5.4280170602
 20
5.6335691897
 30
0.0
 10
5.4179023695
 20
5.6328035526
 30
0.0
 10
5.4111423803
 20
5.6326351845
 30
0.0
 10
5.4077639752
 20
5.6326351845
 30
0.0
  0
SPLINE
  5
494
100
AcDbEntity
  8
ALL_FEATURES
100
AcDbSpline
 62
7
  6
CONTINUOUS
 70
0
 71
3
 72
25
 73
21
 74
0
 42
0.0000001
 43
0.0000001
 44
0.0000000001
 40
0.0
 40
0.0
 40
0.0
 40
0.0
 40
0.1249548949
 40
0.2498961629
 40
0.312386645
 40
0.3748764334
 40
0.4373638273
 40
0.4998507288
 40
0.5623369724
 40
0.6248219019
 40
0.6873059244
 40
0.7497909815
 40
0.7810523612
 40
0.8123215804
 40
0.8435927667
 40
0.8748643919
 40
0.9061426275
 40
0.9374320568
 40
0.9687361442
 40
1.0
 40
1.0
 40
1.0
 40
1.0
 10
5.4077639752
 20
5.6326351845
 30
0.0
 10
5.4010042318
 20
5.6326351845
 30
0.0
 10
5.387476396
 20
5.6333112972
 30
0.0
 10
5.3707400777
 20
5.6358875819
 30
0.0
 10
5.357590501
 20
5.6390598135
 30
0.0
 10
5.3478853766
 20
5.6420257385
 30
0.0
 10
5.3383915846
 20
5.6456131766
 30
0.0
 10
5.3291741577
 20
5.6498643264
 30
0.0
 10
5.3203177268
 20
5.6548282013
 30
0.0
 10
5.3119326511
 20
5.660558533
 30
0.0
 10
5.3041650686
 20
5.6671070314
 30
0.0
 10
5.2983620565
 20
5.6732854351
 30
0.0
 10
5.2942481982
 20
5.6786594857
 30
0.0
 10
5.2914605639
 20
5.682905464
 30
0.0
 10
5.2890082806
 20
5.6873547746
 30
0.0
 10
5.2869312527
 20
5.6919925541
 30
0.0
 10
5.2852665253
 20
5.6967954498
 30
0.0
 10
5.2840482724
 20
5.7017332322
 30
0.0
 10
5.2833079118
 20
5.7067639359
 30
0.0
 10
5.2831395393
 20
5.7101508964
 30
0.0
 10
5.2831395393
 20
5.7118421918
 30
0.0
  0
SPLINE
  5
495
100
AcDbEntity
  8
0
100
AcDbSpline
 62
7
  6
CONTINUOUS
 70
0
 71
3
 72
17
 73
13
 74
0
 42
0.0000001
 43
0.0000001
 44
0.0000000001
 40
0.0
 40
0.0
 40
0.0
 40
0.0
 40
0.1956583317
 40
0.3724183383
 40
0.5293324176
 40
0.6656562704
 40
0.7807619221
 40
0.8742797791
 40
0.9130614105
 40
0.9467150105
 40
0.9755293042
 40
1.0
 40
1.0
 40
1.0
 40
1.0
 10
6.4639959573
 20
2.6831407924
 30
0.0
 10
6.4628436881
 20
2.6827913883
 30
0.0
 10
6.4606569678
 20
2.6821044197
 30
0.0
 10
6.4575746251
 20
2.681049274
 30
0.0
 10
6.4548685295
 20
2.68002654
 30
0.0
 10
6.4525546256
 20
2.6790437246
 30
0.0
 10
6.4506481453
 20
2.6781077917
 30
0.0
 10
6.4493351326
 20
2.6773306808
 30
0.0
 10
6.4485121741
 20
2.676724446
 30
0.0
 10
6.4480429173
 20
2.6763129248
 30
0.0
 10
6.4476822139
 20
2.6759160485
 30
0.0
 10
6.4475011369
 20
2.675639795
 30
0.0
 10
6.4474340466
 20
2.675504973
 30
0.0
  0
LINE
  5
496
100
AcDbEntity
  8
0
100
AcDbLine
 62
7
  6
CONTINUOUS
 10
6.4474340466
 20
2.675504973
 11
6.447281003
 21
2.6749171492
  0
SPLINE
  5
497
100
AcDbEntity
  8
0
100
AcDbSpline
 62
7
  6
CONTINUOUS
 70
0
 71
3
 72
11
 73
7
 74
0
 42
0.0000001
 43
0.0000001
 44
0.0000000001
 40
0.0
 40
0.0
 40
0.0
 40
0.0
 40
0.2546807877
 40
0.5101777919
 40
0.760526277
 40
1.0
 40
1.0
 40
1.0
 40
1.0
 10
5.9563553242
 20
2.7000772371
 30
0.0
 10
5.9526706176
 20
2.6999205606
 30
0.0
 10
5.9452937057
 20
2.6994958533
 30
0.0
 10
5.9343198324
 20
2.6985492882
 30
0.0
 10
5.9235963122
 20
2.6973139175
 30
0.0
 10
5.9165763619
 20
2.6962875733
 30
0.0
 10
5.9131542613
 20
2.6957263073
 30
0.0
  0
SPLINE
  5
498
100
AcDbEntity
  8
0
100
AcDbSpline
 62
7
  6
CONTINUOUS
 70
0
 71
3
 72
11
 73
7
 74
0
 42
0.0000001
 43
0.0000001
 44
0.0000000001
 40
0.0
 40
0.0
 40
0.0
 40
0.0
 40
0.2741987848
 40
0.5351765419
 40
0.7782813469
 40
1.0
 40
1.0
 40
1.0
 40
1.0
 10
5.2085717625
 20
2.7003103018
 30
0.0
 10
5.2056248752
 20
2.7002459554
 30
0.0
 10
5.1998745146
 20
2.7000432405
 30
0.0
 10
5.1915241788
 20
2.6995040533
 30
0.0
 10
5.1837575007
 20
2.6987450714
 30
0.0
 10
5.1788045911
 20
2.6980708662
 30
0.0
 10
5.1764516096
 20
2.6976910616
 30
0.0
  0
SPLINE
  5
499
100
AcDbEntity
  8
0
100
AcDbSpline
 62
7
  6
CONTINUOUS
 70
0
 71
3
 72
17
 73
13
 74
0
 42
0.0000001
 43
0.0000001
 44
0.0000000001
 40
0.0
 40
0.0
 40
0.0
 40
0.0
 40
0.1905166424
 40
0.3632698114
 40
0.5172485128
 40
0.6516075531
 40
0.7660862829
 40
0.8160015549
 40
0.861164929
 40
0.901770163
 40
0.9381209209
 40
1.0
 40
1.0
 40
1.0
 40
1.0
 10
5.1764516096
 20
2.6976910616
 30
0.0
 10
5.174936045
 20
2.6974464281
 30
0.0
 10
5.1720533388
 20
2.6969334889
 30
0.0
 10
5.1679807471
 20
2.6960411893
 30
0.0
 10
5.1643921241
 20
2.6950711433
 30
0.0
 10
5.161315249
 20
2.6940301435
 30
0.0
 10
5.1591016633
 20
2.6930724084
 30
0.0
 10
5.1576178859
 20
2.6922637703
 30
0.0
 10
5.1566967167
 20
2.69167316
 30
0.0
 10
5.155916089
 20
2.6910703715
 30
0.0
 10
5.1551096356
 20
2.6902952808
 30
0.0
 10
5.1546443414
 20
2.6896310393
 30
0.0
 10
5.1544522933
 20
2.6891708866
 30
0.0
  0
LINE
  5
49A
100
AcDbEntity
  8
0
100
AcDbLine
 62
7
  6
CONTINUOUS
 10
5.1544522933
 20
2.6891708866
 11
5.1542142761
 21
2.6880237788
  0
LINE
  5
49B
100
AcDbEntity
  8
0
100
AcDbLine
 62
7
  6
CONTINUOUS
 10
4.8383772472
 20
2.7003103018
 11
4.8262166659
 21
2.6996940676
  0
SPLINE
  5
49C
100
AcDbEntity
  8
0
100
AcDbSpline
 62
7
  6
CONTINUOUS
 70
0
 71
3
 72
19
 73
15
 74
0
 42
0.0000001
 43
0.0000001
 44
0.0000000001
 40
0.0
 40
0.0
 40
0.0
 40
0.0
 40
0.2054126902
 40
0.3889267076
 40
0.5489839375
 40
0.6844217096
 40
0.7428204217
 40
0.7950348183
 40
0.8411838067
 40
0.8815123314
 40
0.916509473
 40
0.9470066672
 40
0.9742577249
 40
1.0
 40
1.0
 40
1.0
 40
1.0
 10
4.8262166659
 20
2.6996940676
 30
0.0
 10
4.8243484468
 20
2.6995422037
 30
0.0
 10
4.8208154269
 20
2.6991967992
 30
0.0
 10
4.8158522454
 20
2.6985040956
 30
0.0
 10
4.8115585804
 20
2.6976744129
 30
0.0
 10
4.8084338931
 20
2.6968413288
 30
0.0
 10
4.8063156727
 20
2.6960934958
 30
0.0
 10
4.8049984531
 20
2.6955327245
 30
0.0
 10
4.8038753958
 20
2.6949456866
 30
0.0
 10
4.8029488912
 20
2.6943325794
 30
0.0
 10
4.8022203469
 20
2.6936930047
 30
0.0
 10
4.8016907454
 20
2.6930251902
 30
0.0
 10
4.8013656635
 20
2.6923269683
 30
0.0
 10
4.8012925636
 20
2.6918406782
 30
0.0
 10
4.8012923295
 20
2.6916057813
 30
0.0
  0
SPLINE
  5
49D
100
AcDbEntity
  8
0
100
AcDbSpline
 62
7
  6
CONTINUOUS
 70
0
 71
3
 72
12
 73
8
 74
0
 42
0.0000001
 43
0.0000001
 44
0.0000000001
 40
0.0
 40
0.0
 40
0.0
 40
0.0
 40
0.263960166
 40
0.5280579552
 40
0.7779143755
 40
0.8932213271
 40
1.0
 40
1.0
 40
1.0
 40
1.0
 10
6.7177312739
 20
2.6945817165
 30
0.0
 10
6.7121220287
 20
2.6936478653
 30
0.0
 10
6.7009184427
 20
2.6916712687
 30
0.0
 10
6.6844663045
 20
2.6884779578
 30
0.0
 10
6.6712056701
 20
2.6856583704
 30
0.0
 10
6.6612972713
 20
2.683379191
 30
0.0
 10
6.6566481804
 20
2.6822488139
 30
0.0
 10
6.6544173157
 20
2.6816878396
 30
0.0
  0
SPLINE
  5
49E
100
AcDbEntity
  8
0
100
AcDbSpline
 62
7
  6
CONTINUOUS
 70
0
 71
3
 72
17
 73
13
 74
0
 42
0.0000001
 43
0.0000001
 44
0.0000000001
 40
0.0
 40
0.0
 40
0.0
 40
0.0
 40
0.1925985914
 40
0.3684393254
 40
0.5260472774
 40
0.6639801359
 40
0.7810920479
 40
0.876514544
 40
0.9158625317
 40
0.9495396938
 40
0.9775451278
 40
1.0
 40
1.0
 40
1.0
 40
1.0
 10
6.6544173157
 20
2.6816878396
 30
0.0
 10
6.6528406815
 20
2.6812913784
 30
0.0
 10
6.6498287807
 20
2.6805161251
 30
0.0
 10
6.6455438139
 20
2.6793511516
 30
0.0
 10
6.641721722
 20
2.6782443669
 30
0.0
 10
6.638396567
 20
2.6772057935
 30
0.0
 10
6.6355984096
 20
2.6762446291
 30
0.0
 10
6.633615021
 20
2.6754755247
 30
0.0
 10
6.6323169685
 20
2.6748945067
 30
0.0
 10
6.6315543363
 20
2.6745118587
 30
0.0
 10
6.6309400067
 20
2.6741547095
 30
0.0
 10
6.6305913883
 20
2.6739077989
 30
0.0
 10
6.6304462433
 20
2.6737859031
 30
0.0
  0
LINE
  5
49F
100
AcDbEntity
  8
0
100
AcDbLine
 62
7
  6
CONTINUOUS
 10
6.6304462433
 20
2.6737859031
 11
6.6299713154
 21
2.6731372784
  0
SPLINE
  5
4A0
100
AcDbEntity
  8
0
100
AcDbSpline
 62
7
  6
CONTINUOUS
 70
0
 71
3
 72
8
 73
4
 74
0
 42
0.0000001
 43
0.0000001
 44
0.0000000001
 40
0.0
 40
0.0
 40
0.0
 40
0.0
 40
1.0
 40
1.0
 40
1.0
 40
1.0
 10
6.6299713154
 20
2.6731372784
 30
0.0
 10
6.6299674112
 20
2.6731137025
 30
0.0
 10
6.6299652911
 20
2.6730897409
 30
0.0
 10
6.6299652548
 20
2.6730658439
 30
0.0
  0
SPLINE
  5
4A1
100
AcDbEntity
  8
0
100
AcDbSpline
 62
7
  6
CONTINUOUS
 70
0
 71
3
 72
11
 73
7
 74
0
 42
0.0000001
 43
0.0000001
 44
0.0000000001
 40
0.0
 40
0.0
 40
0.0
 40
0.0
 40
0.2710429664
 40
0.531885548
 40
0.7766584317
 40
1.0
 40
1.0
 40
1.0
 40
1.0
 10
5.5849620586
 20
2.7000772371
 30
0.0
 10
5.5813010511
 20
2.6999237582
 30
0.0
 10
5.57412089
 20
2.6995122441
 30
0.0
 10
5.5636614241
 20
2.6985727393
 30
0.0
 10
5.5538812257
 20
2.6973458563
 30
0.0
 10
5.5476367626
 20
2.6963022754
 30
0.0
 10
5.544672858
 20
2.6957263073
 30
0.0
  0
SPLINE
  5
4A2
100
AcDbEntity
  8
0
100
AcDbSpline
 62
7
  6
CONTINUOUS
 70
0
 71
3
 72
19
 73
15
 74
0
 42
0.0000001
 43
0.0000001
 44
0.0000000001
 40
0.0
 40
0.0
 40
0.0
 40
0.0
 40
0.2004213845
 40
0.3804578301
 40
0.5386940067
 40
0.6740207724
 40
0.7328978717
 40
0.7859476501
 40
0.8332944183
 40
0.8751626907
 40
0.9119350989
 40
0.9442437311
 40
0.9731086109
 40
1.0
 40
1.0
 40
1.0
 40
1.0
 10
5.544672858
 20
2.6957263073
 30
0.0
 10
5.5427923051
 20
2.6953608642
 30
0.0
 10
5.5392336545
 20
2.6946069047
 30
0.0
 10
5.5342449421
 20
2.6933235767
 30
0.0
 10
5.529924853
 20
2.6919633305
 30
0.0
 10
5.5267846984
 20
2.6907306303
 30
0.0
 10
5.5246571671
 20
2.6896988146
 30
0.0
 10
5.5233293804
 20
2.6889516599
 30
0.0
 10
5.5221963071
 20
2.6881969326
 30
0.0
 10
5.5212600964
 20
2.6874358376
 30
0.0
 10
5.5205227495
 20
2.6866689096
 30
0.0
 10
5.5199873504
 20
2.6858944119
 30
0.0
 10
5.5196597696
 20
2.6851111657
 30
0.0
 10
5.5195845551
 20
2.6845759097
 30
0.0
 10
5.5195847122
 20
2.6843188679
 30
0.0
  0
LINE
  5
4A3
100
AcDbEntity
  8
0
100
AcDbLine
 62
7
  6
CONTINUOUS
 10
5.7430639305
 20
2.7290547128
 11
5.7428662932
 21
2.7277634851
  0
SPLINE
  5
4A4
100
AcDbEntity
  8
0
100
AcDbSpline
 62
7
  6
CONTINUOUS
 70
0
 71
3
 72
13
 73
9
 74
0
 42
0.0000001
 43
0.0000001
 44
0.0000000001
 40
0.0
 40
0.0
 40
0.0
 40
0.0
 40
0.3193543805
 40
0.5861104727
 40
0.7020725762
 40
0.8082456741
 40
0.9066819247
 40
1.0
 40
1.0
 40
1.0
 40
1.0
 10
6.1361599157
 20
2.7286964961
 30
0.0
 10
6.1355548231
 20
2.7282483484
 30
0.0
 10
6.1344819707
 20
2.7273722494
 30
0.0
 10
6.1333596068
 20
2.7261411456
 30
0.0
 10
6.1327365237
 20
2.7251681145
 30
0.0
 10
6.1324153568
 20
2.7244809527
 30
0.0
 10
6.1322198755
 20
2.7238029836
 30
0.0
 10
6.1321744203
 20
2.7233499443
 30
0.0
 10
6.1321742557
 20
2.7231299182
 30
0.0
  0
SPLINE
  5
4A5
100
AcDbEntity
  8
0
100
AcDbSpline
 62
7
  6
CONTINUOUS
 70
0
 71
3
 72
11
 73
7
 74
0
 42
0.0000001
 43
0.0000001
 44
0.0000000001
 40
0.0
 40
0.0
 40
0.0
 40
0.0
 40
0.305867677
 40
0.5750961612
 40
0.8065686893
 40
1.0
 40
1.0
 40
1.0
 40
1.0
 10
6.4805768072
 20
2.7290547128
 30
0.0
 10
6.4793586078
 20
2.7285570881
 30
0.0
 10
6.4770840777
 20
2.7275813965
 30
0.0
 10
6.4739611215
 20
2.7260645114
 30
0.0
 10
6.4713590242
 20
2.724595273
 30
0.0
 10
6.4698452784
 20
2.7235628546
 30
0.0
 10
6.4691920514
 20
2.7230472646
 30
0.0
  0
SPLINE
  5
4A6
100
AcDbEntity
  8
0
100
AcDbSpline
 62
7
  6
CONTINUOUS
 70
0
 71
3
 72
11
 73
7
 74
0
 42
0.0000001
 43
0.0000001
 44
0.0000000001
 40
0.0
 40
0.0
 40
0.0
 40
0.0
 40
0.3225526874
 40
0.5909641175
 40
0.8121689006
 40
1.0
 40
1.0
 40
1.0
 40
1.0
 10
6.4691920514
 20
2.7230472646
 30
0.0
 10
6.468780098
 20
2.7227221111
 30
0.0
 10
6.4680505044
 20
2.7220921796
 30
0.0
 10
6.4671750663
 20
2.7210943695
 30
0.0
 10
6.4666246034
 20
2.7201274588
 30
0.0
 10
6.4664831051
 20
2.7194600726
 30
0.0
 10
6.4664832059
 20
2.719154459
 30
0.0
  0
SPLINE
  5
4A7
100
AcDbEntity
  8
0
100
AcDbSpline
 62
7
  6
CONTINUOUS
 70
0
 71
3
 72
14
 73
10
 74
0
 42
0.0000001
 43
0.0000001
 44
0.0000000001
 40
0.0
 40
0.0
 40
0.0
 40
0.0
 40
0.3407785307
 40
0.4904390201
 40
0.6251128629
 40
0.7439877994
 40
0.8463263341
 40
0.9316983985
 40
1.0
 40
1.0
 40
1.0
 40
1.0
 10
6.7502099124
 20
2.7286964961
 30
0.0
 10
6.7472016253
 20
2.7277745776
 30
0.0
 10
6.7428892225
 20
2.7263890483
 30
0.0
 10
6.7374530824
 20
2.7244487312
 30
0.0
 10
6.7339789831
 20
2.7231094357
 30
0.0
 10
6.730951188
 20
2.7218313606
 30
0.0
 10
6.7283901757
 20
2.7206224192
 30
0.0
 10
6.7263132888
 20
2.719491476
 30
0.0
 10
6.72512493
 20
2.7187093585
 30
0.0
 10
6.7246270437
 20
2.7183223245
 30
0.0
  0
SPLINE
  5
4A8
100
AcDbEntity
  8
0
100
AcDbSpline
 62
7
  6
CONTINUOUS
 70
0
 71
3
 72
11
 73
7
 74
0
 42
0.0000001
 43
0.0000001
 44
0.0000000001
 40
0.0
 40
0.0
 40
0.0
 40
0.0
 40
0.3323689434
 40
0.4759504584
 40
0.6052039084
 40
1.0
 40
1.0
 40
1.0
 40
1.0
 10
6.7246270437
 20
2.7183223245
 30
0.0
 10
6.7243808584
 20
2.7181309514
 30
0.0
 10
6.7240387593
 20
2.7178428481
 30
0.0
 10
6.7236432687
 20
2.7174329813
 30
0.0
 10
6.7232487356
 20
2.7169527225
 30
0.0
 10
6.7230017646
 20
2.7164741864
 30
0.0
 10
6.7230020293
 20
2.7161038006
 30
0.0
  0
SPLINE
  5
4A9
100
AcDbEntity
  8
0
100
AcDbSpline
 62
7
  6
CONTINUOUS
 70
0
 71
3
 72
13
 73
9
 74
0
 42
0.0000001
 43
0.0000001
 44
0.0000000001
 40
0.0
 40
0.0
 40
0.0
 40
0.0
 40
0.3220369835
 40
0.5998306448
 40
0.7202518183
 40
0.8274981224
 40
0.9209458714
 40
1.0
 40
1.0
 40
1.0
 40
1.0
 10
6.9146021487
 20
2.7248383513
 30
0.0
 10
6.9117427379
 20
2.7240559371
 30
0.0
 10
6.9064255283
 20
2.7225662552
 30
0.0
 10
6.9000708904
 20
2.7206724603
 30
0.0
 10
6.8956370723
 20
2.7192606347
 30
0.0
 10
6.8928340038
 20
2.7183215495
 30
0.0
 10
6.8904082191
 20
2.7174565488
 30
0.0
 10
6.8889266077
 20
2.7168842073
 30
0.0
 10
6.8882533997
 20
2.7166078191
 30
0.0
  0
SPLINE
  5
4AA
100
AcDbEntity
  8
0
100
AcDbSpline
 62
7
  6
CONTINUOUS
 70
0
 71
3
 72
10
 73
6
 74
0
 42
0.0000001
 43
0.0000001
 44
0.0000000001
 40
0.0
 40
0.0
 40
0.0
 40
0.0
 40
0.5399199936
 40
0.7808018748
 40
1.0
 40
1.0
 40
1.0
 40
1.0
 10
4.5125970707
 20
2.7003891745
 30
0.0
 10
4.5098574409
 20
2.7003891745
 30
0.0
 10
4.5058942985
 20
2.7003160657
 30
0.0
 10
4.5008282296
 20
2.7000214358
 30
0.0
 10
4.4985023309
 20
2.6998145946
 30
0.0
 10
4.4973966385
 20
2.6996940676
 30
0.0
  0
LINE
  5
4AB
100
AcDbEntity
  8
0
100
AcDbLine
 62
7
  6
CONTINUOUS
 10
4.4973966385
 20
2.6996940676
 11
4.4935268411
 21
2.699164116
  0
SPLINE
  5
4AC
100
AcDbEntity
  8
0
100
AcDbSpline
 62
7
  6
CONTINUOUS
 70
0
 71
3
 72
13
 73
9
 74
0
 42
0.0000001
 43
0.0000001
 44
0.0000000001
 40
0.0
 40
0.0
 40
0.0
 40
0.0
 40
0.3518263971
 40
0.5011651446
 40
0.6328683068
 40
0.7473418169
 40
0.845556176
 40
1.0
 40
1.0
 40
1.0
 40
1.0
 10
4.4935268411
 20
2.699164116
 30
0.0
 10
4.4924532993
 20
2.6989816368
 30
0.0
 10
4.4909299693
 20
2.6986758213
 30
0.0
 10
4.4890452819
 20
2.6981377845
 30
0.0
 10
4.4878919658
 20
2.6977256375
 30
0.0
 10
4.4869193833
 20
2.6972813511
 30
0.0
 10
4.485947715
 20
2.6966982463
 30
0.0
 10
4.4853519908
 20
2.6961431909
 30
0.0
 10
4.4851180863
 20
2.6957263073
 30
0.0
  0
LINE
  5
4AD
100
AcDbEntity
  8
0
100
AcDbLine
 62
7
  6
CONTINUOUS
 10
4.4851180863
 20
2.6957263073
 11
4.4848717682
 21
2.6948204625
  0
SPLINE
  5
4AE
100
AcDbEntity
  8
0
100
AcDbSpline
 62
7
  6
CONTINUOUS
 70
0
 71
3
 72
16
 73
12
 74
0
 42
0.0000001
 43
0.0000001
 44
0.0000000001
 40
0.0
 40
0.0
 40
0.0
 40
0.0
 40
0.1228855627
 40
0.1843758366
 40
0.2459087397
 40
0.3692200289
 40
0.4930819822
 40
0.6175792028
 40
0.7431016996
 40
0.8703752431
 40
1.0
 40
1.0
 40
1.0
 40
1.0
 10
6.3475075148
 20
2.4089765341
 30
0.0
 10
6.3537954051
 20
2.408974588
 30
0.0
 10
6.3632397635
 20
2.4094669174
 30
0.0
 10
6.375718478
 20
2.4111146992
 30
0.0
 10
6.3881151545
 20
2.4134240299
 30
0.0
 10
6.4034024262
 20
2.4175143648
 30
0.0
 10
6.4212318105
 20
2.4242127533
 30
0.0
 10
6.4384570763
 20
2.4325985424
 30
0.0
 10
6.4550096274
 20
2.4425817245
 30
0.0
 10
6.4708770765
 20
2.4540678216
 30
0.0
 10
6.4809055035
 20
2.4625883496
 30
0.0
 10
6.4858054231
 20
2.4670586791
 30
0.0
  0
SPLINE
  5
4AF
100
AcDbEntity
  8
0
100
AcDbSpline
 62
7
  6
CONTINUOUS
 70
0
 71
3
 72
17
 73
13
 74
0
 42
0.0000001
 43
0.0000001
 44
0.0000000001
 40
0.0
 40
0.0
 40
0.0
 40
0.0
 40
0.0601737251
 40
0.1200766458
 40
0.179966563
 40
0.2400419325
 40
0.3612983592
 40
0.4848384679
 40
0.6109775918
 40
0.739438168
 40
0.869529173
 40
1.0
 40
1.0
 40
1.0
 40
1.0
 10
6.485805861
 20
2.4670587359
 30
0.0
 10
6.4878253587
 20
2.468901226
 30
0.0
 10
6.4917082278
 20
2.472742608
 30
0.0
 10
6.497061756
 20
2.4789316928
 30
0.0
 10
6.5019447151
 20
2.4854926296
 30
0.0
 10
6.5078757957
 20
2.4947159149
 30
0.0
 10
6.5142251992
 20
2.5070678372
 30
0.0
 10
6.5201784894
 20
2.5228659816
 30
0.0
 10
6.5245895107
 20
2.539496892
 30
0.0
 10
6.5274801734
 20
2.5567568482
 30
0.0
 10
6.528872557
 20
2.5743957961
 30
0.0
 10
6.5288004018
 20
2.5862499237
 30
0.0
 10
6.5285094949
 20
2.5921700969
 30
0.0
  0
SPLINE
  5
4B0
100
AcDbEntity
  8
0
100
AcDbSpline
 62
7
  6
CONTINUOUS
 70
0
 71
3
 72
12
 73
8
 74
0
 42
0.0000001
 43
0.0000001
 44
0.0000000001
 40
0.0
 40
0.0
 40
0.0
 40
0.0
 40
0.0804705388
 40
0.1747509508
 40
0.4027659716
 40
0.6796868202
 40
1.0
 40
1.0
 40
1.0
 40
1.0
 10
3.9272159643
 20
2.7166315969
 30
0.0
 10
3.9265764639
 20
2.7168931337
 30
0.0
 10
3.9251766829
 20
2.7174341221
 30
0.0
 10
3.9219207766
 20
2.7185999258
 30
0.0
 10
3.9170279671
 20
2.7201934491
 30
0.0
 10
3.9102422904
 20
2.7222338648
 30
0.0
 10
3.9053077932
 20
2.7236294221
 30
0.0
 10
3.9026569789
 20
2.7243620211
 30
0.0
  0
SPLINE
  5
4B1
100
AcDbEntity
  8
0
100
AcDbSpline
 62
7
  6
CONTINUOUS
 70
0
 71
3
 72
13
 73
9
 74
0
 42
0.0000001
 43
0.0000001
 44
0.0000000001
 40
0.0
 40
0.0
 40
0.0
 40
0.0
 40
0.171303283
 40
0.272566417
 40
0.3871152113
 40
0.5163674463
 40
0.6612507401
 40
1.0
 40
1.0
 40
1.0
 40
1.0
 10
4.0925262137
 20
2.7161035721
 30
0.0
 10
4.0925262598
 20
2.7162971935
 30
0.0
 10
4.0924428051
 20
2.7166057267
 30
0.0
 10
4.0922301196
 20
2.7169880232
 30
0.0
 10
4.0919978803
 20
2.7173028868
 30
0.0
 10
4.0917021607
 20
2.7176284218
 30
0.0
 10
4.0911965906
 20
2.718102833
 30
0.0
 10
4.0907617587
 20
2.7184364475
 30
0.0
 10
4.0904495378
 20
2.7186580723
 30
0.0
  0
SPLINE
  5
4B2
100
AcDbEntity
  8
0
100
AcDbSpline
 62
7
  6
CONTINUOUS
 70
0
 71
3
 72
14
 73
10
 74
0
 42
0.0000001
 43
0.0000001
 44
0.0000000001
 40
0.0
 40
0.0
 40
0.0
 40
0.0
 40
0.0712300624
 40
0.1588747313
 40
0.2626219725
 40
0.381914225
 40
0.5161145902
 40
0.6644715279
 40
1.0
 40
1.0
 40
1.0
 40
1.0
 10
4.0904495378
 20
2.7186580723
 30
0.0
 10
4.0899005531
 20
2.71904776
 30
0.0
 10
4.0886193662
 20
2.7198364898
 30
0.0
 10
4.0864148518
 20
2.7209794357
 30
0.0
 10
4.0837413459
 20
2.7221965087
 30
0.0
 10
4.0806174955
 20
2.7234793459
 30
0.0
 10
4.0770631017
 20
2.7248191929
 30
0.0
 10
4.07154931
 20
2.7267504052
 30
0.0
 10
4.0671885595
 20
2.7281328755
 30
0.0
 10
4.0641532804
 20
2.7290515207
 30
0.0
  0
SPLINE
  5
4B3
100
AcDbEntity
  8
0
100
AcDbSpline
 62
7
  6
CONTINUOUS
 70
0
 71
3
 72
11
 73
7
 74
0
 42
0.0000001
 43
0.0000001
 44
0.0000000001
 40
0.0
 40
0.0
 40
0.0
 40
0.0
 40
0.1915412699
 40
0.4144832738
 40
0.6817079485
 40
1.0
 40
1.0
 40
1.0
 40
1.0
 10
4.349047425
 20
2.7191544107
 30
0.0
 10
4.3490478574
 20
2.7194411513
 30
0.0
 10
4.3489242616
 20
2.7200637502
 30
0.0
 10
4.3484352348
 20
2.7209700029
 30
0.0
 10
4.3476578174
 20
2.7219045307
 30
0.0
 10
4.3470077317
 20
2.7224958255
 30
0.0
 10
4.3466411035
 20
2.7228001703
 30
0.0
  0
SPLINE
  5
4B4
100
AcDbEntity
  8
0
100
AcDbSpline
 62
7
  6
CONTINUOUS
 70
0
 71
3
 72
11
 73
7
 74
0
 42
0.0000001
 43
0.0000001
 44
0.0000000001
 40
0.0
 40
0.0
 40
0.0
 40
0.0
 40
0.1900362429
 40
0.4204820548
 40
0.6908780634
 40
1.0
 40
1.0
 40
1.0
 40
1.0
 10
4.3466411035
 20
2.7228001703
 30
0.0
 10
4.345993392
 20
2.7233378475
 30
0.0
 10
4.3444665586
 20
2.7244140796
 30
0.0
 10
4.3418106548
 20
2.7259390076
 30
0.0
 10
4.3385868357
 20
2.7275185262
 30
0.0
 10
4.3362279597
 20
2.7285334327
 30
0.0
 10
4.3349604431
 20
2.7290515207
 30
0.0
  0
SPLINE
  5
4B5
100
AcDbEntity
  8
0
100
AcDbSpline
 62
7
  6
CONTINUOUS
 70
0
 71
3
 72
19
 73
15
 74
0
 42
0.0000001
 43
0.0000001
 44
0.0000000001
 40
0.0
 40
0.0
 40
0.0
 40
0.0
 40
0.02136595
 40
0.0459686901
 40
0.0751909168
 40
0.1098315221
 40
0.1503402548
 40
0.1969716471
 40
0.2498665022
 40
0.3090575216
 40
0.4461181645
 40
0.6075597718
 40
0.792545059
 40
1.0
 40
1.0
 40
1.0
 40
1.0
 10
4.3682470547
 20
2.6749171108
 30
0.0
 10
4.3682467026
 20
2.675044589
 30
0.0
 10
4.3681942466
 20
2.675319563
 30
0.0
 10
4.3679878746
 20
2.6757222024
 30
0.0
 10
4.3676584824
 20
2.6761376782
 30
0.0
 10
4.3672067845
 20
2.6765683374
 30
0.0
 10
4.3666328466
 20
2.6770153467
 30
0.0
 10
4.3659367468
 20
2.6774784823
 30
0.0
 10
4.3651191401
 20
2.6779570812
 30
0.0
 10
4.3638030832
 20
2.6786491069
 30
0.0
 10
4.3618598756
 20
2.6795351498
 30
0.0
 10
4.3591789819
 20
2.6806020895
 30
0.0
 10
4.356064597
 20
2.6817092367
 30
0.0
 10
4.353836184
 20
2.6824289864
 30
0.0
 10
4.352654168
 20
2.682796284
 30
0.0
  0
SPLINE
  5
4B6
100
AcDbEntity
  8
0
100
AcDbSpline
 62
7
  6
CONTINUOUS
 70
0
 71
3
 72
12
 73
8
 74
0
 42
0.0000001
 43
0.0000001
 44
0.0000000001
 40
0.0
 40
0.0
 40
0.0
 40
0.0
 40
0.1423604578
 40
0.2358383488
 40
0.3477254276
 40
0.6316308903
 40
1.0
 40
1.0
 40
1.0
 40
1.0
 10
4.1855629994
 20
2.6730658055
 30
0.0
 10
4.1855628687
 20
2.6731804436
 30
0.0
 10
4.1854817424
 20
2.6733668931
 30
0.0
 10
4.1853057263
 20
2.6735828394
 30
0.0
 10
4.1850180916
 20
2.6738545923
 30
0.0
 10
4.1845112903
 20
2.6742070758
 30
0.0
 10
4.1840523619
 20
2.67446351
 30
0.0
 10
4.1837892153
 20
2.6746004277
 30
0.0
  0
LINE
  5
4B7
100
AcDbEntity
  8
0
100
AcDbLine
 62
7
  6
CONTINUOUS
 10
4.1837892153
 20
2.6746004277
 11
4.1791033342
 21
2.6765218912
  0
LINE
  5
4B8
100
AcDbEntity
  8
0
100
AcDbLine
 62
7
  6
CONTINUOUS
 10
4.1791033342
 20
2.6765218912
 11
4.1717947824
 21
2.6788237135
  0
LINE
  5
4B9
100
AcDbEntity
  8
0
100
AcDbLine
 62
7
  6
CONTINUOUS
 10
4.1717947824
 20
2.6788237135
 11
4.1622200038
 21
2.6814073709
  0
SPLINE
  5
4BA
100
AcDbEntity
  8
0
100
AcDbSpline
 62
7
  6
CONTINUOUS
 70
0
 71
3
 72
12
 73
8
 74
0
 42
0.0000001
 43
0.0000001
 44
0.0000000001
 40
0.0
 40
0.0
 40
0.0
 40
0.0
 40
0.1057850329
 40
0.2211276623
 40
0.4727586597
 40
0.738282802
 40
1.0
 40
1.0
 40
1.0
 40
1.0
 10
4.1622200038
 20
2.6814073709
 30
0.0
 10
4.1597843817
 20
2.6820267616
 30
0.0
 10
4.1546813919
 20
2.6832757237
 30
0.0
 10
4.1437358897
 20
2.6857947213
 30
0.0
 10
4.1290321206
 20
2.6888978501
 30
0.0
 10
4.1108562542
 20
2.6923706169
 30
0.0
 10
4.098509419
 20
2.6944863791
 30
0.0
 10
4.0923696127
 20
2.6954671136
 30
0.0
  0
LINE
  5
4BB
100
AcDbEntity
  8
0
100
AcDbLine
 62
7
  6
CONTINUOUS
 10
5.0726617837
 20
2.7277633217
 11
5.072466747
 21
2.7290515643
  0
SPLINE
  5
4BC
100
AcDbEntity
  8
0
100
AcDbSpline
 62
7
  6
CONTINUOUS
 70
0
 71
3
 72
17
 73
13
 74
0
 42
0.0000001
 43
0.0000001
 44
0.0000000001
 40
0.0
 40
0.0
 40
0.0
 40
0.0
 40
0.0601737248
 40
0.1200766432
 40
0.1799665564
 40
0.240041921
 40
0.3612983372
 40
0.4848384391
 40
0.6109775638
 40
0.7394381466
 40
0.8695291622
 40
1.0
 40
1.0
 40
1.0
 40
1.0
 10
6.4858058948
 20
2.4670588386
 30
0.0
 10
6.4878253881
 20
2.4689013285
 30
0.0
 10
6.4917082485
 20
2.4727427098
 30
0.0
 10
6.4970617637
 20
2.4789317922
 30
0.0
 10
6.5019447102
 20
2.4854927255
 30
0.0
 10
6.5078757745
 20
2.4947160043
 30
0.0
 10
6.5142251592
 20
2.5070679162
 30
0.0
 10
6.52017843
 20
2.5228660452
 30
0.0
 10
6.5245894359
 20
2.539496938
 30
0.0
 10
6.5274800871
 20
2.5567568754
 30
0.0
 10
6.5288724633
 20
2.5743958036
 30
0.0
 10
6.528800306
 20
2.5862499177
 30
0.0
 10
6.5285093988
 20
2.5921700841
 30
0.0
  0
SPLINE
  5
4BD
100
AcDbEntity
  8
0
100
AcDbSpline
 62
7
  6
CONTINUOUS
 70
0
 71
3
 72
16
 73
12
 74
0
 42
0.0000001
 43
0.0000001
 44
0.0000000001
 40
0.0
 40
0.0
 40
0.0
 40
0.0
 40
0.1215151408
 40
0.2425077982
 40
0.3641757911
 40
0.4871237309
 40
0.5491660188
 40
0.6116046132
 40
0.7380718923
 40
0.86735128
 40
1.0
 40
1.0
 40
1.0
 40
1.0
 10
6.3315862123
 20
2.4089647642
 30
0.0
 10
6.3235224977
 20
2.4089631168
 30
0.0
 10
6.3074083975
 20
2.4100534218
 30
0.0
 10
6.2836662842
 20
2.414911651
 30
0.0
 10
6.2606648864
 20
2.4228267952
 30
0.0
 10
6.2423147787
 20
2.4317364505
 30
0.0
 10
6.2281925826
 20
2.4401258167
 30
0.0
 10
6.2143536463
 20
2.4494018596
 30
0.0
 10
6.1977618627
 20
2.4625237498
 30
0.0
 10
6.1791250027
 20
2.4803732079
 30
0.0
 10
6.1676222713
 20
2.4934339378
 30
0.0
 10
6.1620608812
 20
2.5002571033
 30
0.0
  0
SPLINE
  5
4BE
100
AcDbEntity
  8
0
100
AcDbSpline
 62
7
  6
CONTINUOUS
 70
0
 71
3
 72
17
 73
13
 74
0
 42
0.0000001
 43
0.0000001
 44
0.0000000001
 40
0.0
 40
0.0
 40
0.0
 40
0.0
 40
0.0315273529
 40
0.0642700393
 40
0.099468888
 40
0.1381326225
 40
0.2284655069
 40
0.3389521601
 40
0.4711262667
 40
0.6255883914
 40
0.8021478993
 40
1.0
 40
1.0
 40
1.0
 40
1.0
 10
5.6613136205
 20
2.6880234814
 30
0.0
 10
5.6613136376
 20
2.6882255695
 30
0.0
 10
5.6612683005
 20
2.688638851
 30
0.0
 10
5.661065542
 20
2.6892476475
 30
0.0
 10
5.6607305619
 20
2.6898472364
 30
0.0
 10
5.6600758572
 20
2.6906758315
 30
0.0
 10
5.6588935707
 20
2.6916755475
 30
0.0
 10
5.6570564653
 20
2.6927718973
 30
0.0
 10
5.6547333019
 20
2.693822869
 30
0.0
 10
5.6519339169
 20
2.6948192285
 30
0.0
 10
5.6486736808
 20
2.6957544859
 30
0.0
 10
5.6463363278
 20
2.696302929
 30
0.0
 10
5.6450963645
 20
2.6965691405
 30
0.0
  0
SPLINE
  5
4BF
100
AcDbEntity
  8
0
100
AcDbSpline
 62
7
  6
CONTINUOUS
 70
0
 71
3
 72
9
 73
5
 74
0
 42
0.0000001
 43
0.0000001
 44
0.0000000001
 40
0.0
 40
0.0
 40
0.0
 40
0.0
 40
0.4748806645
 40
1.0
 40
1.0
 40
1.0
 40
1.0
 10
5.6450963645
 20
2.6965691405
 30
0.0
 10
5.6433872752
 20
2.6969360702
 30
0.0
 10
5.6397679108
 20
2.6976148262
 30
0.0
 10
5.6361248414
 20
2.6981477365
 30
0.0
 10
5.6342080033
 20
2.6983968876
 30
0.0
  0
SPLINE
  5
4C0
100
AcDbEntity
  8
0
100
AcDbSpline
 62
7
  6
CONTINUOUS
 70
0
 71
3
 72
10
 73
6
 74
0
 42
0.0000001
 43
0.0000001
 44
0.0000000001
 40
0.0
 40
0.0
 40
0.0
 40
0.0
 40
0.2291627643
 40
0.4740240248
 40
1.0
 40
1.0
 40
1.0
 40
1.0
 10
5.6342080033
 20
2.6983968876
 30
0.0
 10
5.6321499214
 20
2.6986643977
 30
0.0
 10
5.6278830173
 20
2.6991444814
 30
0.0
 10
5.6188570507
 20
2.6998963345
 30
0.0
 10
5.6118789777
 20
2.7002004951
 30
0.0
 10
5.6071167037
 20
2.7003067889
 30
0.0
  0
SPLINE
  5
4C1
100
AcDbEntity
  8
0
100
AcDbSpline
 62
7
  6
CONTINUOUS
 70
0
 71
3
 72
19
 73
15
 74
0
 42
0.0000001
 43
0.0000001
 44
0.0000000001
 40
0.0
 40
0.0
 40
0.0
 40
0.0
 40
0.0264907919
 40
0.054095432
 40
0.0845564558
 40
0.119179591
 40
0.1588547791
 40
0.2041693334
 40
0.2555069171
 40
0.3130729
 40
0.4471660601
 40
0.6066502546
 40
0.7912267972
 40
1.0
 40
1.0
 40
1.0
 40
1.0
 10
6.3306555032
 20
2.6948205368
 30
0.0
 10
6.3306551326
 20
2.6949834053
 30
0.0
 10
6.3306073824
 20
2.6953178067
 30
0.0
 10
6.3303923943
 20
2.6957973114
 30
0.0
 10
6.3300412125
 20
2.6962514647
 30
0.0
 10
6.3295582123
 20
2.6966816513
 30
0.0
 10
6.3289443331
 20
2.6970898811
 30
0.0
 10
6.3281994059
 20
2.6974767495
 30
0.0
 10
6.3273234725
 20
2.6978419733
 30
0.0
 10
6.3259086301
 20
2.6983243698
 30
0.0
 10
6.3238118156
 20
2.6988517904
 30
0.0
 10
6.3209158679
 20
2.6993658035
 30
0.0
 10
6.3175411791
 20
2.6997814493
 30
0.0
 10
6.3151302366
 20
2.6999782108
 30
0.0
 10
6.3138494631
 20
2.7000628228
 30
0.0
  0
LINE
  5
4C2
100
AcDbEntity
  8
0
100
AcDbLine
 62
7
  6
CONTINUOUS
 10
6.3138494631
 20
2.7000628228
 11
6.3086619776
 21
2.7003067889
  0
SPLINE
  5
4C3
100
AcDbEntity
  8
0
100
AcDbSpline
 62
7
  6
CONTINUOUS
 70
0
 71
3
 72
11
 73
7
 74
0
 42
0.0000001
 43
0.0000001
 44
0.0000000001
 40
0.0
 40
0.0
 40
0.0
 40
0.0
 40
0.237952121
 40
0.4867536267
 40
0.7422296658
 40
1.0
 40
1.0
 40
1.0
 40
1.0
 10
4.9039266565
 20
2.6954671136
 30
0.0
 10
4.9010209491
 20
2.6959597973
 30
0.0
 10
4.895061361
 20
2.696876636
 30
0.0
 10
4.8859400004
 20
2.6980296016
 30
0.0
 10
4.8765481876
 20
2.6989758132
 30
0.0
 10
4.8702089013
 20
2.6994583468
 30
0.0
 10
4.8670226816
 20
2.6996607339
 30
0.0
  0
SPLINE
  5
4C4
100
AcDbEntity
  8
0
100
AcDbSpline
 62
7
  6
CONTINUOUS
 70
0
 71
3
 72
16
 73
12
 74
0
 42
0.0000001
 43
0.0000001
 44
0.0000000001
 40
0.0
 40
0.0
 40
0.0
 40
0.0
 40
0.0330680919
 40
0.0674947748
 40
0.1443008701
 40
0.236739841
 40
0.3479856786
 40
0.4795936667
 40
0.6322471956
 40
0.8058836627
 40
1.0
 40
1.0
 40
1.0
 40
1.0
 10
5.2959437717
 20
2.6843186889
 30
0.0
 10
5.2959439392
 20
2.6845042974
 30
0.0
 10
5.2959059838
 20
2.6848841295
 30
0.0
 10
5.2956721671
 20
2.6856640401
 30
0.0
 10
5.2950586062
 20
2.6866505552
 30
0.0
 10
5.2939301913
 20
2.687760166
 30
0.0
 10
5.2923927332
 20
2.6888553643
 30
0.0
 10
5.290448611
 20
2.68993376
 30
0.0
 10
5.2881035324
 20
2.690990977
 30
0.0
 10
5.2853688105
 20
2.6920214988
 30
0.0
 10
5.2834025321
 20
2.6926522833
 30
0.0
 10
5.2823587625
 20
2.6929648289
 30
0.0
  0
SPLINE
  5
4C5
100
AcDbEntity
  8
0
100
AcDbSpline
 62
7
  6
CONTINUOUS
 70
0
 71
3
 72
9
 73
5
 74
0
 42
0.0000001
 43
0.0000001
 44
0.0000000001
 40
0.0
 40
0.0
 40
0.0
 40
0.0
 40
0.4725196894
 40
1.0
 40
1.0
 40
1.0
 40
1.0
 10
5.2823587625
 20
2.6929648289
 30
0.0
 10
5.2807737929
 20
2.6934394308
 30
0.0
 10
5.2773897223
 20
2.6943451498
 30
0.0
 10
5.2739696623
 20
2.6951000802
 30
0.0
 10
5.2721595558
 20
2.6954671136
 30
0.0
  0
SPLINE
  5
4C6
100
AcDbEntity
  8
0
100
AcDbSpline
 62
7
  6
CONTINUOUS
 70
0
 71
3
 72
11
 73
7
 74
0
 42
0.0000001
 43
0.0000001
 44
0.0000000001
 40
0.0
 40
0.0
 40
0.0
 40
0.0
 40
0.2214385687
 40
0.4657923845
 40
0.7273947421
 40
1.0
 40
1.0
 40
1.0
 40
1.0
 10
5.2721595558
 20
2.6954671136
 30
0.0
 10
5.2691542378
 20
2.6960764987
 30
0.0
 10
5.2627958871
 20
2.6971795531
 30
0.0
 10
5.2528041549
 20
2.6984743446
 30
0.0
 10
5.242066279
 20
2.6994671389
 30
0.0
 10
5.2346797829
 20
2.6999011125
 30
0.0
 10
5.2309082147
 20
2.7000628228
 30
0.0
  0
SPLINE
  5
4C7
100
AcDbEntity
  8
0
100
AcDbSpline
 62
7
  6
CONTINUOUS
 70
0
 71
3
 72
17
 73
13
 74
0
 42
0.0000001
 43
0.0000001
 44
0.0000000001
 40
0.0
 40
0.0
 40
0.0
 40
0.0
 40
0.0316835003
 40
0.0642864547
 40
0.0991135222
 40
0.1372442749
 40
0.2263774524
 40
0.3360097793
 40
0.4678361397
 40
0.6224678483
 40
0.7999890873
 40
1.0
 40
1.0
 40
1.0
 40
1.0
 10
6.0142351476
 20
2.6916060083
 30
0.0
 10
6.0142350161
 20
2.6917806985
 30
0.0
 10
6.0141959346
 20
2.6921363283
 30
0.0
 10
6.0140198039
 20
2.6926575666
 30
0.0
 10
6.0137286863
 20
2.6931652488
 30
0.0
 10
6.0131600241
 20
2.6938589908
 30
0.0
 10
6.0121289196
 20
2.6946810404
 30
0.0
 10
6.0105254668
 20
2.6955573758
 30
0.0
 10
6.0084970705
 20
2.6963768715
 30
0.0
 10
6.0060513391
 20
2.6971340398
 30
0.0
 10
6.0031977915
 20
2.6978234298
 30
0.0
 10
6.0011519648
 20
2.6982116384
 30
0.0
 10
6.000064855
 20
2.6983968876
 30
0.0
  0
SPLINE
  5
4C8
100
AcDbEntity
  8
0
100
AcDbSpline
 62
7
  6
CONTINUOUS
 70
0
 71
3
 72
9
 73
5
 74
0
 42
0.0000001
 43
0.0000001
 44
0.0000000001
 40
0.0
 40
0.0
 40
0.0
 40
0.0
 40
0.4719521296
 40
1.0
 40
1.0
 40
1.0
 40
1.0
 10
6.000064855
 20
2.6983968876
 30
0.0
 10
5.9984478408
 20
2.6986724354
 30
0.0
 10
5.9950052199
 20
2.6991610418
 30
0.0
 10
5.9915461075
 20
2.6995076277
 30
0.0
 10
5.9897172142
 20
2.6996607339
 30
0.0
  0
LINE
  5
4C9
100
AcDbEntity
  8
0
100
AcDbLine
 62
7
  6
CONTINUOUS
 10
5.9897172142
 20
2.6996607339
 11
5.9772956623
 21
2.7003067889
  0
SPLINE
  5
4CA
100
AcDbEntity
  8
0
100
AcDbSpline
 62
7
  6
CONTINUOUS
 70
0
 71
3
 72
13
 73
9
 74
0
 42
0.0000001
 43
0.0000001
 44
0.0000000001
 40
0.0
 40
0.0
 40
0.0
 40
0.0
 40
0.0912477968
 40
0.1879911081
 40
0.2930947306
 40
0.4087006675
 40
0.6767819529
 40
1.0
 40
1.0
 40
1.0
 40
1.0
 10
4.6833537836
 20
2.7231298418
 30
0.0
 10
4.6833539433
 20
2.7233633928
 30
0.0
 10
4.6833031596
 20
2.7238457292
 30
0.0
 10
4.6830828054
 20
2.7245667166
 30
0.0
 10
4.6827203751
 20
2.7252973725
 30
0.0
 10
4.6820161905
 20
2.7263351165
 30
0.0
 10
4.6807527715
 20
2.7276463079
 30
0.0
 10
4.679554127
 20
2.7285757009
 30
0.0
 10
4.6788773787
 20
2.7290515289
 30
0.0
  0
SPLINE
  5
4CB
100
AcDbEntity
  8
0
100
AcDbSpline
 62
7
  6
CONTINUOUS
 70
0
 71
3
 72
17
 73
13
 74
0
 42
0.0000001
 43
0.0000001
 44
0.0000000001
 40
0.0
 40
0.0
 40
0.0
 40
0.0
 40
0.2237502597
 40
0.4184975689
 40
0.5841763115
 40
0.7208199704
 40
0.8286692836
 40
0.9084724184
 40
0.9385227294
 40
0.9627592289
 40
0.9824680102
 40
1.0
 40
1.0
 40
1.0
 40
1.0
 10
6.3223108828
 20
2.559375908
 30
0.0
 10
6.3226586741
 20
2.5593759391
 30
0.0
 10
6.3233092005
 20
2.5593702566
 30
0.0
 10
6.3242168729
 20
2.5593404778
 30
0.0
 10
6.3249879905
 20
2.559290366
 30
0.0
 10
6.3256222096
 20
2.5592207112
 30
0.0
 10
6.3261185022
 20
2.5591317152
 30
0.0
 10
6.3264452159
 20
2.5590364543
 30
0.0
 10
6.3266321936
 20
2.5589428274
 30
0.0
 10
6.3267250612
 20
2.5588735447
 30
0.0
 10
6.3267844003
 20
2.5587962194
 30
0.0
 10
6.3267980265
 20
2.5587376463
 30
0.0
 10
6.3267980141
 20
2.5587103951
 30
0.0
  0
SPLINE
  5
4CC
100
AcDbEntity
  8
0
100
AcDbSpline
 62
7
  6
CONTINUOUS
 70
0
 71
3
 72
13
 73
9
 74
0
 42
0.0000001
 43
0.0000001
 44
0.0000000001
 40
0.0
 40
0.0
 40
0.0
 40
0.0
 40
0.1280751535
 40
0.2496695365
 40
0.3634334782
 40
0.4733323007
 40
0.7201954559
 40
1.0
 40
1.0
 40
1.0
 40
1.0
 10
6.3318507412
 20
2.5710738453
 30
0.0
 10
6.3311587546
 20
2.5709713066
 30
0.0
 10
6.3298259863
 20
2.5706343689
 30
0.0
 10
6.3280223234
 20
2.5697797099
 30
0.0
 10
6.3264793183
 20
2.5686794219
 30
0.0
 10
6.324651603
 20
2.5668595209
 30
0.0
 10
6.3228414548
 20
2.5638098748
 30
0.0
 10
6.3223097917
 20
2.5609040794
 30
0.0
 10
6.3223104701
 20
2.5593757962
 30
0.0
  0
SPLINE
  5
4CD
100
AcDbEntity
  8
0
100
AcDbSpline
 62
7
  6
CONTINUOUS
 70
0
 71
3
 72
19
 73
15
 74
0
 42
0.0000001
 43
0.0000001
 44
0.0000000001
 40
0.0
 40
0.0
 40
0.0
 40
0.0
 40
0.2119784984
 40
0.4014005744
 40
0.566496296
 40
0.7056257749
 40
0.7651388004
 40
0.8178733974
 40
0.8638131768
 40
0.9029976894
 40
0.9355702023
 40
0.9618833622
 40
0.9827751336
 40
1.0
 40
1.0
 40
1.0
 40
1.0
 10
6.0547321566
 20
2.5593759133
 30
0.0
 10
6.0564721756
 20
2.5593759811
 30
0.0
 10
6.0597672084
 20
2.5593440801
 30
0.0
 10
6.0644151616
 20
2.5591848637
 30
0.0
 10
6.0684592853
 20
2.5589200899
 30
0.0
 10
6.0714294581
 20
2.5586005581
 30
0.0
 10
6.0734682985
 20
2.5582803739
 30
0.0
 10
6.0747425761
 20
2.5580287188
 30
0.0
 10
6.0758409793
 20
2.5577540288
 30
0.0
 10
6.0767613274
 20
2.5574571096
 30
0.0
 10
6.0775026249
 20
2.5571389532
 30
0.0
 10
6.0780651688
 20
2.5567978012
 30
0.0
 10
6.0784528125
 20
2.5564288849
 30
0.0
 10
6.0785933765
 20
2.5561371637
 30
0.0
 10
6.0786212461
 20
2.5559985478
 30
0.0
  0
SPLINE
  5
4CE
100
AcDbEntity
  8
0
100
AcDbSpline
 62
7
  6
CONTINUOUS
 70
0
 71
3
 72
14
 73
10
 74
0
 42
0.0000001
 43
0.0000001
 44
0.0000000001
 40
0.0
 40
0.0
 40
0.0
 40
0.0
 40
0.1056337311
 40
0.2115410679
 40
0.3168734506
 40
0.4245487628
 40
0.6851080648
 40
0.8377906333
 40
1.0
 40
1.0
 40
1.0
 40
1.0
 10
6.0614809858
 20
2.5710723645
 30
0.0
 10
6.0609821459
 20
2.5709682721
 30
0.0
 10
6.0600091328
 20
2.5706146705
 30
0.0
 10
6.0587351307
 20
2.569748951
 30
0.0
 10
6.0576510466
 20
2.5686456127
 30
0.0
 10
6.0563313025
 20
2.5667718703
 30
0.0
 10
6.0553723598
 20
2.5644063799
 30
0.0
 10
6.0548288568
 20
2.5616800476
 30
0.0
 10
6.054728319
 20
2.5601583042
 30
0.0
 10
6.0547285336
 20
2.5593757947
 30
0.0
  0
SPLINE
  5
4CF
100
AcDbEntity
  8
0
100
AcDbSpline
 62
7
  6
CONTINUOUS
 70
0
 71
3
 72
21
 73
17
 74
0
 42
0.0000001
 43
0.0000001
 44
0.0000000001
 40
0.0
 40
0.0
 40
0.0
 40
0.0
 40
0.2207319518
 40
0.4145734077
 40
0.5807513535
 40
0.653254791
 40
0.7186025129
 40
0.7767436413
 40
0.8276694818
 40
0.8714793198
 40
0.8907771284
 40
0.9083798352
 40
0.9386906784
 40
0.9630590264
 40
0.9827257905
 40
1.0
 40
1.0
 40
1.0
 40
1.0
 10
6.2124233385
 20
2.5593759076
 30
0.0
 10
6.2133755287
 20
2.5593759547
 30
0.0
 10
6.2151640118
 20
2.5593595102
 30
0.0
 10
6.2176680758
 20
2.5592747611
 30
0.0
 10
6.2195303948
 20
2.5591521365
 30
0.0
 10
6.2208353454
 20
2.5590197216
 30
0.0
 10
6.2216739029
 20
2.5589108139
 30
0.0
 10
6.2224164072
 20
2.5587880269
 30
0.0
 10
6.2230618305
 20
2.5586513941
 30
0.0
 10
6.2235367444
 20
2.5585214855
 30
0.0
 10
6.2238662583
 20
2.5584086267
 30
0.0
 10
6.2241356467
 20
2.5583012821
 30
0.0
 10
6.2244158469
 20
2.558162145
 30
0.0
 10
6.2246764035
 20
2.5579713983
 30
0.0
 10
6.2248436593
 20
2.5577599162
 30
0.0
 10
6.2248835573
 20
2.5575990497
 30
0.0
 10
6.224883953
 20
2.5575245336
 30
0.0
  0
SPLINE
  5
4D0
100
AcDbEntity
  8
0
100
AcDbSpline
 62
7
  6
CONTINUOUS
 70
0
 71
3
 72
13
 73
9
 74
0
 42
0.0000001
 43
0.0000001
 44
0.0000000001
 40
0.0
 40
0.0
 40
0.0
 40
0.0
 40
0.1196651296
 40
0.2352486403
 40
0.3456704108
 40
0.4545757981
 40
0.7065877099
 40
1.0
 40
1.0
 40
1.0
 40
1.0
 10
6.2208171088
 20
2.5710723931
 30
0.0
 10
6.2202046373
 20
2.5709696272
 30
0.0
 10
6.2190196894
 20
2.5706279147
 30
0.0
 10
6.2174316101
 20
2.5697692498
 30
0.0
 10
6.2160758228
 20
2.5686671716
 30
0.0
 10
6.2144527568
 20
2.566824914
 30
0.0
 10
6.2128707843
 20
2.5637521712
 30
0.0
 10
6.2124183779
 20
2.5608985336
 30
0.0
 10
6.2124188964
 20
2.5593757947
 30
0.0
  0
SPLINE
  5
4D1
100
AcDbEntity
  8
0
100
AcDbSpline
 62
7
  6
CONTINUOUS
 70
0
 71
3
 72
17
 73
13
 74
0
 42
0.0000001
 43
0.0000001
 44
0.0000000001
 40
0.0
 40
0.0
 40
0.0
 40
0.0
 40
0.0175670856
 40
0.0371973181
 40
0.061221451
 40
0.0909588505
 40
0.1700014823
 40
0.2771769709
 40
0.4135240289
 40
0.5795160637
 40
0.7751032189
 40
1.0
 40
1.0
 40
1.0
 40
1.0
 10
4.4643197212
 20
2.5589929553
 30
0.0
 10
4.4643197129
 20
2.5590086686
 30
0.0
 10
4.4643273518
 20
2.5590423339
 30
0.0
 10
4.4643608548
 20
2.5590870141
 30
0.0
 10
4.4644135182
 20
2.5591270436
 30
0.0
 10
4.4645197537
 20
2.559181083
 30
0.0
 10
4.4647061443
 20
2.5592359992
 30
0.0
 10
4.4649901833
 20
2.5592871197
 30
0.0
 10
4.4653545939
 20
2.5593269486
 30
0.0
 10
4.4657991344
 20
2.5593553313
 30
0.0
 10
4.4663235316
 20
2.5593720029
 30
0.0
 10
4.4666996575
 20
2.5593750673
 30
0.0
 10
4.4669008214
 20
2.5593749845
 30
0.0
  0
SPLINE
  5
4D2
100
AcDbEntity
  8
0
100
AcDbSpline
 62
7
  6
CONTINUOUS
 70
0
 71
3
 72
14
 73
10
 74
0
 42
0.0000001
 43
0.0000001
 44
0.0000000001
 40
0.0
 40
0.0
 40
0.0
 40
0.0
 40
0.0764597148
 40
0.1586360058
 40
0.2527037387
 40
0.362775914
 40
0.4913432982
 40
0.6398960075
 40
1.0
 40
1.0
 40
1.0
 40
1.0
 10
4.8773156641
 20
2.5541940554
 30
0.0
 10
4.8773156366
 20
2.5543179378
 30
0.0
 10
4.8773586847
 20
2.5545767286
 30
0.0
 10
4.8775499063
 20
2.5549446058
 30
0.0
 10
4.8778596118
 20
2.5552945161
 30
0.0
 10
4.8782842543
 20
2.5556297714
 30
0.0
 10
4.8788236149
 20
2.5559526545
 30
0.0
 10
4.8797572737
 20
2.5563958999
 30
0.0
 10
4.8805397018
 20
2.5566632838
 30
0.0
 10
4.8810985057
 20
2.5568310753
 30
0.0
  0
SPLINE
  5
4D3
100
AcDbEntity
  8
0
100
AcDbSpline
 62
7
  6
CONTINUOUS
 70
0
 71
3
 72
14
 73
10
 74
0
 42
0.0000001
 43
0.0000001
 44
0.0000000001
 40
0.0
 40
0.0
 40
0.0
 40
0.0
 40
0.0753122874
 40
0.1661275775
 40
0.2720392514
 40
0.3924139496
 40
0.5264276171
 40
0.6731175884
 40
1.0
 40
1.0
 40
1.0
 40
1.0
 10
4.8810985057
 20
2.5568310753
 30
0.0
 10
4.8818509693
 20
2.5570570168
 30
0.0
 10
4.8835370546
 20
2.5574674786
 30
0.0
 10
4.8863322376
 20
2.557963626
 30
0.0
 10
4.8896133523
 20
2.5583919815
 30
0.0
 10
4.8933556394
 20
2.5587479993
 30
0.0
 10
4.8975307332
 20
2.5590282449
 30
0.0
 10
4.9038633033
 20
2.5593068231
 30
0.0
 10
4.9088044495
 20
2.5593758038
 30
0.0
 10
4.9122144671
 20
2.5593757975
 30
0.0
  0
SPLINE
  5
4D4
100
AcDbEntity
  8
0
100
AcDbSpline
 62
7
  6
CONTINUOUS
 70
0
 71
3
 72
24
 73
20
 74
0
 42
0.0000001
 43
0.0000001
 44
0.0000000001
 40
0.0
 40
0.0
 40
0.0
 40
0.0
 40
0.0076943917
 40
0.0158718933
 40
0.0250223679
 40
0.0354952675
 40
0.0475110574
 40
0.0612059517
 40
0.0939179156
 40
0.1339915358
 40
0.1815173101
 40
0.2364105651
 40
0.2983824089
 40
0.3670896783
 40
0.4421690856
 40
0.5232365172
 40
0.6098062749
 40
0.797247661
 40
1.0
 40
1.0
 40
1.0
 40
1.0
 10
5.0797201443
 20
2.5518440549
 30
0.0
 10
5.0797198769
 20
2.5519786055
 30
0.0
 10
5.0797596569
 20
2.5522576736
 30
0.0
 10
5.0799380849
 20
2.5526619922
 30
0.0
 10
5.0802305384
 20
2.5530543223
 30
0.0
 10
5.0806337228
 20
2.5534360901
 30
0.0
 10
5.081146326
 20
2.5538092704
 30
0.0
 10
5.0820286234
 20
2.5543267798
 30
0.0
 10
5.0834183527
 20
2.5549343699
 30
0.0
 10
5.0854183514
 20
2.5555923778
 30
0.0
 10
5.0878338575
 20
2.5562103219
 30
0.0
 10
5.0906516873
 20
2.5567833486
 30
0.0
 10
5.0938546414
 20
2.55730848
 30
0.0
 10
5.0974219253
 20
2.5577816549
 30
0.0
 10
5.1013320584
 20
2.5581991606
 30
0.0
 10
5.1055615987
 20
2.5585570389
 30
0.0
 10
5.111757865
 20
2.5589625228
 30
0.0
 10
5.120089799
 20
2.5592941493
 30
0.0
 10
5.126913434
 20
2.5593753923
 30
0.0
 10
5.1304589392
 20
2.5593749845
 30
0.0
  0
SPLINE
  5
4D5
100
AcDbEntity
  8
0
100
AcDbSpline
 62
7
  6
CONTINUOUS
 70
0
 71
3
 72
14
 73
10
 74
0
 42
0.0000001
 43
0.0000001
 44
0.0000000001
 40
0.0
 40
0.0
 40
0.0
 40
0.0
 40
0.0768433858
 40
0.1604423633
 40
0.2561094354
 40
0.3673413587
 40
0.4962893718
 40
0.6442602825
 40
1.0
 40
1.0
 40
1.0
 40
1.0
 10
5.2973996287
 20
2.5493160163
 30
0.0
 10
5.2973998351
 20
2.5494794296
 30
0.0
 10
5.2974566595
 20
2.5498223929
 30
0.0
 10
5.2976996794
 20
2.5503162365
 30
0.0
 10
5.298091478
 20
2.5507988124
 30
0.0
 10
5.2986286061
 20
2.5512730348
 30
0.0
 10
5.2993104961
 20
2.5517409025
 30
0.0
 10
5.3004865511
 20
2.5523970532
 30
0.0
 10
5.301477222
 20
2.5528133784
 30
0.0
 10
5.3021853327
 20
2.5530796182
 30
0.0
  0
SPLINE
  5
4D6
100
AcDbEntity
  8
0
100
AcDbSpline
 62
7
  6
CONTINUOUS
 70
0
 71
3
 72
16
 73
12
 74
0
 42
0.0000001
 43
0.0000001
 44
0.0000000001
 40
0.0
 40
0.0
 40
0.0
 40
0.0
 40
0.0334998423
 40
0.0718975994
 40
0.1150721624
 40
0.1628771097
 40
0.2716680091
 40
0.3962739043
 40
0.5342256589
 40
0.6828691632
 40
1.0
 40
1.0
 40
1.0
 40
1.0
 10
5.3021853327
 20
2.5530796182
 30
0.0
 10
5.3028492193
 20
2.5533292303
 30
0.0
 10
5.304294396
 20
2.553811079
 30
0.0
 10
5.3066431452
 20
2.5544610227
 30
0.0
 10
5.3093111813
 20
2.5550841142
 30
0.0
 10
5.313459934
 20
2.5559099399
 30
0.0
 10
5.3193455744
 20
2.5568238154
 30
0.0
 10
5.3271572547
 20
2.5577255243
 30
0.0
 10
5.3358342933
 20
2.5584511457
 30
0.0
 10
5.3485970705
 20
2.5591722227
 30
0.0
 10
5.3584608407
 20
2.5593757258
 30
0.0
 10
5.3651751596
 20
2.5593749845
 30
0.0
  0
LINE
  5
4D7
100
AcDbEntity
  8
0
100
AcDbLine
 62
7
  6
CONTINUOUS
 10
4.4222489464
 20
2.5709362767
 11
4.4215156808
 21
2.5710624302
  0
SPLINE
  5
4D8
100
AcDbEntity
  8
0
100
AcDbSpline
 62
7
  6
CONTINUOUS
 70
0
 71
3
 72
16
 73
12
 74
0
 42
0.0000001
 43
0.0000001
 44
0.0000000001
 40
0.0
 40
0.0
 40
0.0
 40
0.0
 40
0.1424125805
 40
0.2847251708
 40
0.4241639926
 40
0.5581716516
 40
0.6843780715
 40
0.7439300568
 40
0.800806575
 40
0.9059979495
 40
1.0
 40
1.0
 40
1.0
 40
1.0
 10
6.5194627555
 20
2.5909765842
 30
0.0
 10
6.5197229108
 20
2.5871849817
 30
0.0
 10
6.5199286534
 20
2.57957962
 30
0.0
 10
6.5193341081
 20
2.5682641244
 30
0.0
 10
6.5178408258
 20
2.5572563125
 30
0.0
 10
6.5155008157
 20
2.5468368641
 30
0.0
 10
6.5128424238
 20
2.5387103037
 30
0.0
 10
6.510314841
 20
2.5327450148
 30
0.0
 10
6.5076758225
 20
2.5274484438
 30
0.0
 10
6.5040177492
 20
2.521648361
 30
0.0
 10
6.5004903984
 20
2.5176293753
 30
0.0
 10
6.4986566606
 20
2.5159175089
 30
0.0
  0
SPLINE
  5
4D9
100
AcDbEntity
  8
0
100
AcDbSpline
 62
7
  6
CONTINUOUS
 70
0
 71
3
 72
21
 73
17
 74
0
 42
0.0000001
 43
0.0000001
 44
0.0000000001
 40
0.0
 40
0.0
 40
0.0
 40
0.0
 40
0.1381416451
 40
0.2037028274
 40
0.2671121354
 40
0.3286300019
 40
0.3886281042
 40
0.4475232843
 40
0.5057559553
 40
0.5637822788
 40
0.6220606953
 40
0.6810391685
 40
0.7411466796
 40
0.802783026
 40
0.8662965917
 40
1.0
 40
1.0
 40
1.0
 40
1.0
 10
6.4986566606
 20
2.5159175089
 30
0.0
 10
6.4919164584
 20
2.5098162526
 30
0.0
 10
6.4813951822
 20
2.5014123879
 30
0.0
 10
6.4664689847
 20
2.4920974126
 30
0.0
 10
6.4553040624
 20
2.4863592465
 30
0.0
 10
6.4440036815
 20
2.4817932426
 30
0.0
 10
6.4326037785
 20
2.4784072688
 30
0.0
 10
6.4211365793
 20
2.4762048634
 30
0.0
 10
6.409633693
 20
2.4751890595
 30
0.0
 10
6.398127788
 20
2.4753622452
 30
0.0
 10
6.3866519661
 20
2.4767205179
 30
0.0
 10
6.3752386052
 20
2.4792591132
 30
0.0
 10
6.363920078
 20
2.4829724936
 30
0.0
 10
6.3527284232
 20
2.4878548147
 30
0.0
 10
6.3377645087
 20
2.4960320976
 30
0.0
 10
6.3271961919
 20
2.5036874065
 30
0.0
 10
6.3204451912
 20
2.509331325
 30
0.0
  0
SPLINE
  5
4DA
100
AcDbEntity
  8
0
100
AcDbSpline
 62
7
  6
CONTINUOUS
 70
0
 71
3
 72
15
 73
11
 74
0
 42
0.0000001
 43
0.0000001
 44
0.0000000001
 40
0.0
 40
0.0
 40
0.0
 40
0.0
 40
0.1359578249
 40
0.2687650948
 40
0.3979962869
 40
0.5235829484
 40
0.6459338947
 40
0.7656334689
 40
0.8833973622
 40
1.0
 40
1.0
 40
1.0
 40
1.0
 10
6.4986565604
 20
2.5159179185
 30
0.0
 10
6.4991602548
 20
2.5136502751
 30
0.0
 10
6.4999258765
 20
2.5091124074
 30
0.0
 10
6.5003342277
 20
2.502311614
 30
0.0
 10
6.4999792543
 20
2.4956828295
 30
0.0
 10
6.4988528481
 20
2.4893210494
 30
0.0
 10
6.4969778997
 20
2.4833074909
 30
0.0
 10
6.4943699773
 20
2.4777188462
 30
0.0
 10
6.4910663645
 20
2.4726285751
 30
0.0
 10
6.488421734
 20
2.4696001716
 30
0.0
 10
6.4870056018
 20
2.4681989225
 30
0.0
  0
SPLINE
  5
4DB
100
AcDbEntity
  8
0
100
AcDbSpline
 62
7
  6
CONTINUOUS
 70
0
 71
3
 72
15
 73
11
 74
0
 42
0.0000001
 43
0.0000001
 44
0.0000000001
 40
0.0
 40
0.0
 40
0.0
 40
0.0
 40
0.1084046967
 40
0.2195900794
 40
0.3347823613
 40
0.4550225826
 40
0.5811462812
 40
0.7137607131
 40
0.8532989278
 40
1.0
 40
1.0
 40
1.0
 40
1.0
 10
6.3298042093
 20
2.4101972205
 30
0.0
 10
6.3239876225
 20
2.4110059193
 30
0.0
 10
6.3123026619
 20
2.4134458626
 30
0.0
 10
6.2951367877
 20
2.4194368077
 30
0.0
 10
6.2782486295
 20
2.4277433134
 30
0.0
 10
6.261720075
 20
2.4383215656
 30
0.0
 10
6.2456246733
 20
2.451118147
 30
0.0
 10
6.2300261499
 20
2.4660645626
 30
0.0
 10
6.2149974493
 20
2.483094933
 30
0.0
 10
6.2056347123
 20
2.4954749665
 30
0.0
 10
6.2010545279
 20
2.5019694983
 30
0.0
  0
SPLINE
  5
4DC
100
AcDbEntity
  8
0
100
AcDbSpline
 62
7
  6
CONTINUOUS
 70
0
 71
3
 72
27
 73
23
 74
0
 42
0.0000001
 43
0.0000001
 44
0.0000000001
 40
0.0
 40
0.0
 40
0.0
 40
0.0
 40
0.1015351708
 40
0.1898436668
 40
0.2646663456
 40
0.3257852521
 40
0.3730743337
 40
0.3915641354
 40
0.40669367
 40
0.4186325627
 40
0.4277793486
 40
0.4350717921
 40
0.4422823409
 40
0.4512820803
 40
0.4631305978
 40
0.4782752516
 40
0.4969081877
 40
0.5449203016
 40
0.6074135611
 40
0.684335061
 40
0.7755375122
 40
1.0
 40
1.0
 40
1.0
 40
1.0
 10
4.4570806343
 20
2.5710706912
 30
0.0
 10
4.4568398264
 20
2.5710699669
 30
0.0
 10
4.4563895706
 20
2.5710652456
 30
0.0
 10
4.4557621312
 20
2.5710455593
 30
0.0
 10
4.4552310894
 20
2.5710138992
 30
0.0
 10
4.4547986562
 20
2.5709701486
 30
0.0
 10
4.4545011618
 20
2.5709213566
 30
0.0
 10
4.454315426
 20
2.5708725593
 30
0.0
 10
4.4542135274
 20
2.5708359617
 30
0.0
 10
4.4541370764
 20
2.5707960527
 30
0.0
 10
4.4540848403
 20
2.5707521202
 30
0.0
 10
4.4540591227
 20
2.5706991987
 30
0.0
 10
4.4540685281
 20
2.5706413366
 30
0.0
 10
4.4541074196
 20
2.5705859059
 30
0.0
 10
4.4541713418
 20
2.570528826
 30
0.0
 10
4.4542615992
 20
2.5704686795
 30
0.0
 10
4.454432184
 20
2.5703760141
 30
0.0
 10
4.4547145735
 20
2.5702560613
 30
0.0
 10
4.4551337406
 20
2.5701078838
 30
0.0
 10
4.4556566276
 20
2.5699469515
 30
0.0
 10
4.456553949
 20
2.5696982449
 30
0.0
 10
4.4572816799
 20
2.569521621
 30
0.0
 10
4.457800253
 20
2.5694012803
 30
0.0
  0
SPLINE
  5
4DD
100
AcDbEntity
  8
0
100
AcDbSpline
 62
7
  6
CONTINUOUS
 70
0
 71
3
 72
29
 73
25
 74
0
 42
0.0000001
 43
0.0000001
 44
0.0000000001
 40
0.0
 40
0.0
 40
0.0
 40
0.0
 40
0.0706166766
 40
0.1276727606
 40
0.1510901502
 40
0.1710972357
 40
0.1877120668
 40
0.2009947176
 40
0.2110764718
 40
0.2182723264
 40
0.2234620723
 40
0.2286765067
 40
0.2359306399
 40
0.2460850536
 40
0.259442531
 40
0.2761257258
 40
0.2961908582
 40
0.3196651344
 40
0.3768688415
 40
0.4476898238
 40
0.5320000098
 40
0.6296358305
 40
0.7403599639
 40
1.0
 40
1.0
 40
1.0
 40
1.0
 10
4.6161590998
 20
2.5500852082
 30
0.0
 10
4.616483274
 20
2.5500853335
 30
0.0
 10
4.617069387
 20
2.5500915542
 30
0.0
 10
4.6177626157
 20
2.5501207949
 30
0.0
 10
4.6182223334
 20
2.5501593488
 30
0.0
 10
4.6184960827
 20
2.5501921807
 30
0.0
 10
4.6187219802
 20
2.5502308689
 30
0.0
 10
4.6189005162
 20
2.5502747613
 30
0.0
 10
4.6190319345
 20
2.5503249555
 30
0.0
 10
4.6191207702
 20
2.5503797133
 30
0.0
 10
4.6191649978
 20
2.5504552203
 30
0.0
 10
4.6191389377
 20
2.5505390074
 30
0.0
 10
4.6190650375
 20
2.5506135443
 30
0.0
 10
4.6189485004
 20
2.5506940675
 30
0.0
 10
4.618784776
 20
2.5507798208
 30
0.0
 10
4.6185739048
 20
2.5508719397
 30
0.0
 10
4.618315289
 20
2.5509699062
 30
0.0
 10
4.6178771999
 20
2.5511182938
 30
0.0
 10
4.6172095742
 20
2.5513140103
 30
0.0
 10
4.6162659724
 20
2.5515587379
 30
0.0
 10
4.6151365031
 20
2.5518250319
 30
0.0
 10
4.6138239636
 20
2.5521121549
 30
0.0
 10
4.6117195818
 20
2.552545069
 30
0.0
 10
4.6100491086
 20
2.5528621869
 30
0.0
 10
4.6088768463
 20
2.5530777018
 30
0.0
  0
LINE
  5
4DE
100
AcDbEntity
  8
0
100
AcDbLine
 62
7
  6
CONTINUOUS
 10
4.6088768463
 20
2.5530777018
 11
4.6000849533
 21
2.5545908523
  0
SPLINE
  5
4DF
100
AcDbEntity
  8
0
100
AcDbSpline
 62
7
  6
CONTINUOUS
 70
0
 71
3
 72
20
 73
16
 74
0
 42
0.0000001
 43
0.0000001
 44
0.0000000001
 40
0.0
 40
0.0
 40
0.0
 40
0.0
 40
0.0535114198
 40
0.1138783709
 40
0.2508522764
 40
0.4014537605
 40
0.5553044213
 40
0.7017485551
 40
0.7689477097
 40
0.830506304
 40
0.8853128894
 40
0.9323704428
 40
0.9708114938
 40
0.9866048533
 40
1.0
 40
1.0
 40
1.0
 40
1.0
 10
4.6000849533
 20
2.5545908523
 30
0.0
 10
4.597570788
 20
2.5550012512
 30
0.0
 10
4.5922154555
 20
2.5558446447
 30
0.0
 10
4.5804044592
 20
2.5576089403
 30
0.0
 10
4.5639985403
 20
2.5598946937
 30
0.0
 10
4.5431583941
 20
2.5625967217
 30
0.0
 10
4.5218480175
 20
2.5651720535
 30
0.0
 10
4.504461436
 20
2.5671173202
 30
0.0
 10
4.4914298927
 20
2.568466592
 30
0.0
 10
4.4827320838
 20
2.5693114684
 30
0.0
 10
4.4749830311
 20
2.5700040572
 30
0.0
 10
4.4683245189
 20
2.570531977
 30
0.0
 10
4.4635124237
 20
2.5708468488
 30
0.0
 10
4.46029647
 20
2.5710002916
 30
0.0
 10
4.4589075607
 20
2.571045306
 30
0.0
 10
4.4582700059
 20
2.5710581083
 30
0.0
  0
LINE
  5
4E0
100
AcDbEntity
  8
0
100
AcDbLine
 62
7
  6
CONTINUOUS
 10
4.4618114007
 20
2.5661760521
 11
4.4538204342
 21
2.5671743753
  0
LINE
  5
4E1
100
AcDbEntity
  8
0
100
AcDbLine
 62
7
  6
CONTINUOUS
 10
4.4538204342
 20
2.5671743753
 11
4.4369373626
 21
2.5692638611
  0
LINE
  5
4E2
100
AcDbEntity
  8
0
100
AcDbLine
 62
7
  6
CONTINUOUS
 10
4.4369373626
 20
2.5692638611
 11
4.4222062888
 21
2.5710130682
  0
LINE
  5
4E3
100
AcDbEntity
  8
0
100
AcDbLine
 62
7
  6
CONTINUOUS
 10
4.4222062888
 20
2.5710130682
 11
4.4215378109
 21
2.5710706912
  0
SPLINE
  5
4E4
100
AcDbEntity
  8
0
100
AcDbSpline
 62
7
  6
CONTINUOUS
 70
0
 71
3
 72
34
 73
30
 74
0
 42
0.0000001
 43
0.0000001
 44
0.0000000001
 40
0.0
 40
0.0
 40
0.0
 40
0.0
 40
0.1123214417
 40
0.2225639184
 40
0.3285708158
 40
0.4287156609
 40
0.5217260518
 40
0.6062897375
 40
0.6810290268
 40
0.7447234979
 40
0.772218462
 40
0.7967334988
 40
0.8182250014
 40
0.8366804779
 40
0.8521403273
 40
0.8647171658
 40
0.8700050497
 40
0.8746945711
 40
0.8826337603
 40
0.886225985
 40
0.8898149002
 40
0.8977237278
 40
0.9023851701
 40
0.907640623
 40
0.9201586261
 40
0.9355940434
 40
0.9540462927
 40
0.9755246657
 40
1.0
 40
1.0
 40
1.0
 40
1.0
 10
5.3647306474
 20
2.5710706912
 30
0.0
 10
5.3613155889
 20
2.5710679989
 30
0.0
 10
5.3545486075
 20
2.5710135234
 30
0.0
 10
5.3445609463
 20
2.5707787639
 30
0.0
 10
5.3349488156
 20
2.5703817127
 30
0.0
 10
5.3258691529
 20
2.5698293835
 30
0.0
 10
5.3174528213
 20
2.5691397511
 30
0.0
 10
5.3098235259
 20
2.5683275908
 30
0.0
 10
5.3031054013
 20
2.5674044286
 30
0.0
 10
5.2981374188
 20
2.5665125989
 30
0.0
 10
5.2947062495
 20
2.5657335111
 30
0.0
 10
5.292545766
 20
2.5651596705
 30
0.0
 10
5.2906757902
 20
2.5645700035
 30
0.0
 10
5.289101204
 20
2.5639669253
 30
0.0
 10
5.2878260486
 20
2.5633528305
 30
0.0
 10
5.2869679384
 20
2.562805625
 30
0.0
 10
5.2864503337
 20
2.5623529675
 30
0.0
 10
5.2860872122
 20
2.5619468312
 30
0.0
 10
5.2858426146
 20
2.5615005593
 30
0.0
 10
5.2857803654
 20
2.5610403776
 30
0.0
 10
5.2858338181
 20
2.5605800511
 30
0.0
 10
5.286068695
 20
2.560130774
 30
0.0
 10
5.2864225349
 20
2.5597201026
 30
0.0
 10
5.2869298714
 20
2.5592613131
 30
0.0
 10
5.28777757
 20
2.5587041504
 30
0.0
 10
5.2890435821
 20
2.5580772038
 30
0.0
 10
5.2906105731
 20
2.5574580312
 30
0.0
 10
5.2924724052
 20
2.556848702
 30
0.0
 10
5.2938191315
 20
2.5564748963
 30
0.0
 10
5.2945394331
 20
2.5562879885
 30
0.0
  0
SPLINE
  5
4E5
100
AcDbEntity
  8
0
100
AcDbSpline
 62
7
  6
CONTINUOUS
 70
0
 71
3
 72
22
 73
18
 74
0
 42
0.0000001
 43
0.0000001
 44
0.0000000001
 40
0.0
 40
0.0
 40
0.0
 40
0.0
 40
0.2125045556
 40
0.302433389
 40
0.3814635714
 40
0.4497153203
 40
0.507498737
 40
0.5554933853
 40
0.5951265554
 40
0.628972665
 40
0.6610357833
 40
0.6959430449
 40
0.7373832668
 40
0.787608775
 40
0.8477846479
 40
0.9184884328
 40
1.0
 40
1.0
 40
1.0
 40
1.0
 10
5.4420135536
 20
2.5554405443
 30
0.0
 10
5.44313223
 20
2.5557160826
 30
0.0
 10
5.4447159938
 20
2.5561481663
 30
0.0
 10
5.4466708238
 20
2.5568255236
 30
0.0
 10
5.4478617355
 20
2.557313213
 30
0.0
 10
5.4488587237
 20
2.5578080348
 30
0.0
 10
5.4496604668
 20
2.5583094152
 30
0.0
 10
5.450266542
 20
2.5588192201
 30
0.0
 10
5.4506775166
 20
2.5593423342
 30
0.0
 10
5.4508836389
 20
2.55988956
 30
0.0
 10
5.450858885
 20
2.5604507799
 30
0.0
 10
5.4506082137
 20
2.5609947221
 30
0.0
 10
5.45015676
 20
2.5615190174
 30
0.0
 10
5.4495103187
 20
2.562033837
 30
0.0
 10
5.4486690346
 20
2.5625436243
 30
0.0
 10
5.4476331399
 20
2.5630490314
 30
0.0
 10
5.4468682323
 20
2.5633602471
 30
0.0
 10
5.4464549721
 20
2.5635168056
 30
0.0
  0
SPLINE
  5
4E6
100
AcDbEntity
  8
0
100
AcDbSpline
 62
7
  6
CONTINUOUS
 70
0
 71
3
 72
17
 73
13
 74
0
 42
0.0000001
 43
0.0000001
 44
0.0000000001
 40
0.0
 40
0.0
 40
0.0
 40
0.0
 40
0.0304456606
 40
0.0664750725
 40
0.1079536808
 40
0.154678993
 40
0.2629387373
 40
0.3887557373
 40
0.5289592922
 40
0.6801607096
 40
0.8387097691
 40
1.0
 40
1.0
 40
1.0
 40
1.0
 10
5.4464549721
 20
2.5635168056
 30
0.0
 10
5.4456737121
 20
2.5638127761
 30
0.0
 10
5.4439387809
 20
2.5643821002
 30
0.0
 10
5.441075054
 20
2.5651435115
 30
0.0
 10
5.4377454388
 20
2.5658790015
 30
0.0
 10
5.4324449284
 20
2.5668669119
 30
0.0
 10
5.4248148719
 20
2.5679631187
 30
0.0
 10
5.4146007186
 20
2.5690505261
 30
0.0
 10
5.4031847295
 20
2.5699345057
 30
0.0
 10
5.3908538877
 20
2.5705866328
 30
0.0
 10
5.3779332276
 20
2.5709763735
 30
0.0
 10
5.3691565264
 20
2.5710667051
 30
0.0
 10
5.3647306474
 20
2.5710706912
 30
0.0
  0
LINE
  5
4E7
100
AcDbEntity
  8
0
100
AcDbLine
 62
7
  6
CONTINUOUS
 10
6.3318512572
 20
2.5710706912
 11
6.3211216832
 21
2.5706772125
  0
SPLINE
  5
4E8
100
AcDbEntity
  8
0
100
AcDbSpline
 62
7
  6
CONTINUOUS
 70
0
 71
3
 72
13
 73
9
 74
0
 42
0.0000001
 43
0.0000001
 44
0.0000000001
 40
0.0
 40
0.0
 40
0.0
 40
0.0
 40
0.0917425868
 40
0.1977038737
 40
0.3161333953
 40
0.4444770278
 40
0.7196180749
 40
1.0
 40
1.0
 40
1.0
 40
1.0
 10
6.3211216832
 20
2.5706772125
 30
0.0
 10
6.3185145348
 20
2.5705234344
 30
0.0
 10
6.3128991951
 20
2.5701405497
 30
0.0
 10
6.30392865
 20
2.5694170679
 30
0.0
 10
6.2939282072
 20
2.5685087542
 30
0.0
 10
6.27914296
 20
2.5670431844
 30
0.0
 10
6.2597912952
 20
2.564912992
 30
0.0
 10
6.2440938099
 20
2.5629902267
 30
0.0
 10
6.2361779046
 20
2.5619669898
 30
0.0
  0
SPLINE
  5
4E9
100
AcDbEntity
  8
0
100
AcDbSpline
 62
7
  6
CONTINUOUS
 70
0
 71
3
 72
29
 73
25
 74
0
 42
0.0000001
 43
0.0000001
 44
0.0000000001
 40
0.0
 40
0.0
 40
0.0
 40
0.0
 40
0.1083164837
 40
0.202722227
 40
0.2830701589
 40
0.3492776125
 40
0.3770813143
 40
0.4013679219
 40
0.422173694
 40
0.4395703581
 40
0.4536986633
 40
0.464845709
 40
0.473624708
 40
0.4812757522
 40
0.4895913575
 40
0.5000506026
 40
0.5134524355
 40
0.530148986
 40
0.5739074554
 40
0.6317292601
 40
0.7035190292
 40
0.7890349698
 40
0.8879733568
 40
1.0
 40
1.0
 40
1.0
 40
1.0
 10
6.3325815506
 20
2.5686727346
 30
0.0
 10
6.3329427209
 20
2.5687626322
 30
0.0
 10
6.3336173852
 20
2.568936166
 30
0.0
 10
6.3345541094
 20
2.5691985373
 30
0.0
 10
6.3353447666
 20
2.5694446986
 30
0.0
 10
6.3359095579
 20
2.5696455199
 30
0.0
 10
6.336285459
 20
2.5698004405
 30
0.0
 10
6.3365129985
 20
2.5699053739
 30
0.0
 10
6.3367029304
 20
2.5700058444
 30
0.0
 10
6.3368552661
 20
2.5701017929
 30
0.0
 10
6.336970343
 20
2.5701934376
 30
0.0
 10
6.3370486126
 20
2.5702813993
 30
0.0
 10
6.3370903497
 20
2.5703691463
 30
0.0
 10
6.3370867843
 20
2.5704580119
 30
0.0
 10
6.3370361557
 20
2.57053708
 30
0.0
 10
6.3369482231
 20
2.5706057708
 30
0.0
 10
6.3368233315
 20
2.5706688428
 30
0.0
 10
6.3365839476
 20
2.5707542894
 30
0.0
 10
6.3361857812
 20
2.5708414841
 30
0.0
 10
6.3355955849
 20
2.5709232921
 30
0.0
 10
6.3348588684
 20
2.5709874515
 30
0.0
 10
6.333979532
 20
2.5710340967
 30
0.0
 10
6.332961102
 20
2.5710628627
 30
0.0
 10
6.3322361948
 20
2.5710697345
 30
0.0
 10
6.3318512572
 20
2.5710706912
 30
0.0
  0
SPLINE
  5
4EA
100
AcDbEntity
  8
0
100
AcDbSpline
 62
7
  6
CONTINUOUS
 70
0
 71
3
 72
40
 73
36
 74
0
 42
0.0000001
 43
0.0000001
 44
0.0000000001
 40
0.0
 40
0.0
 40
0.0
 40
0.0
 40
0.0766874155
 40
0.1619170012
 40
0.2533447626
 40
0.3481545664
 40
0.443557001
 40
0.5368438234
 40
0.6254032948
 40
0.6671219862
 40
0.7067485577
 40
0.7440028808
 40
0.7786138812
 40
0.8103504194
 40
0.8389953545
 40
0.8643378277
 40
0.8862285756
 40
0.904584698
 40
0.9124188527
 40
0.9193508874
 40
0.9253815987
 40
0.9305189507
 40
0.9347864074
 40
0.9382388227
 40
0.940997662
 40
0.943317936
 40
0.9456272465
 40
0.9483631964
 40
0.9517888819
 40
0.9560271115
 40
0.9611310117
 40
0.9671211579
 40
0.9740020142
 40
0.9817732441
 40
1.0
 40
1.0
 40
1.0
 40
1.0
 10
6.0614812159
 20
2.5710706912
 30
0.0
 10
6.0577017853
 20
2.5710667546
 30
0.0
 10
6.0497218872
 20
2.5709488799
 30
0.0
 10
6.0372437203
 20
2.570491026
 30
0.0
 10
6.0238852285
 20
2.5697394971
 30
0.0
 10
6.0100408203
 20
2.568735366
 30
0.0
 10
5.9961224177
 20
2.5675072847
 30
0.0
 10
5.9825327206
 20
2.5660800296
 30
0.0
 10
5.9715957534
 20
2.5647397343
 30
0.0
 10
5.9633005012
 20
2.563596564
 30
0.0
 10
5.9575190711
 20
2.562735877
 30
0.0
 10
5.9520943041
 20
2.5618609006
 30
0.0
 10
5.9470653003
 20
2.5609771419
 30
0.0
 10
5.9424679797
 20
2.5600916513
 30
0.0
 10
5.9383355695
 20
2.5592115089
 30
0.0
 10
5.9346977486
 20
2.5583429337
 30
0.0
 10
5.9315786958
 20
2.5574919795
 30
0.0
 10
5.9293199355
 20
2.556771416
 30
0.0
 10
5.9277910836
 20
2.5561983371
 30
0.0
 10
5.926846433
 20
2.5557997511
 30
0.0
 10
5.9260433257
 20
2.5554102476
 30
0.0
 10
5.9253832305
 20
2.5550304917
 30
0.0
 10
5.9248666982
 20
2.5546608215
 30
0.0
 10
5.9244938922
 20
2.5542997135
 30
0.0
 10
5.9242635303
 20
2.5539406488
 30
0.0
 10
5.9241946577
 20
2.5535695852
 30
0.0
 10
5.924316167
 20
2.5532131258
 30
0.0
 10
5.9245982039
 20
2.5528964471
 30
0.0
 10
5.925021019
 20
2.5526022159
 30
0.0
 10
5.9255869996
 20
2.5523236068
 30
0.0
 10
5.9262956548
 20
2.5520589998
 30
0.0
 10
5.9271459598
 20
2.5518085841
 30
0.0
 10
5.9281359235
 20
2.5515727055
 30
0.0
 10
5.929726492
 20
2.5512616147
 30
0.0
 10
5.9309957073
 20
2.551079752
 30
0.0
 10
5.9318872263
 20
2.5509697455
 30
0.0
  0
LINE
  5
4EB
100
AcDbEntity
  8
0
100
AcDbLine
 62
7
  6
CONTINUOUS
 10
6.0771838289
 20
2.5623985145
 11
6.0821518448
 21
2.5637161124
  0
SPLINE
  5
4EC
100
AcDbEntity
  8
0
100
AcDbSpline
 62
7
  6
CONTINUOUS
 70
0
 71
3
 72
28
 73
24
 74
0
 42
0.0000001
 43
0.0000001
 44
0.0000000001
 40
0.0
 40
0.0
 40
0.0
 40
0.0
 40
0.0840014836
 40
0.1553232009
 40
0.2138883433
 40
0.2598608933
 40
0.2783150345
 40
0.2939496362
 40
0.3070816303
 40
0.3182734664
 40
0.3284483908
 40
0.3388008513
 40
0.3504551898
 40
0.3642070462
 40
0.3805373786
 40
0.3997249052
 40
0.4472357724
 40
0.5074390698
 40
0.5805152285
 40
0.6664576794
 40
0.7651785287
 40
0.8765337317
 40
1.0
 40
1.0
 40
1.0
 40
1.0
 10
6.0821518448
 20
2.5637161124
 30
0.0
 10
6.0828447276
 20
2.5639222404
 30
0.0
 10
6.0841200557
 20
2.564323606
 30
0.0
 10
6.0858497963
 20
2.5649560827
 30
0.0
 10
6.0872352396
 20
2.5655672838
 30
0.0
 10
6.0881616283
 20
2.5660870564
 30
0.0
 10
6.0887122036
 20
2.5665032089
 30
0.0
 10
6.0890053465
 20
2.5667865811
 30
0.0
 10
6.0892098902
 20
2.5670658662
 30
0.0
 10
6.0893231333
 20
2.5673448894
 30
0.0
 10
6.0893367372
 20
2.5676235261
 30
0.0
 10
6.0892473679
 20
2.5678915412
 30
0.0
 10
6.0890638437
 20
2.5681429006
 30
0.0
 10
6.0887923616
 20
2.5683810193
 30
0.0
 10
6.0884334959
 20
2.568609026
 30
0.0
 10
6.0877907645
 20
2.5689235299
 30
0.0
 10
6.0867539396
 20
2.5692773287
 30
0.0
 10
6.0852409768
 20
2.5696437469
 30
0.0
 10
6.0833823272
 20
2.5699729978
 30
0.0
 10
6.0811828416
 20
2.5702628242
 30
0.0
 10
6.0786470582
 20
2.5705105134
 30
0.0
 10
6.0757836015
 20
2.5707132927
 30
0.0
 10
6.0737651247
 20
2.5708132419
 30
0.0
 10
6.0727035189
 20
2.570857231
 30
0.0
  0
LINE
  5
4ED
100
AcDbEntity
  8
0
100
AcDbLine
 62
7
  6
CONTINUOUS
 10
6.0727035189
 20
2.570857231
 11
6.0614812159
 21
2.5710706912
  0
SPLINE
  5
4EE
100
AcDbEntity
  8
0
100
AcDbSpline
 62
7
  6
CONTINUOUS
 70
0
 71
3
 72
33
 73
29
 74
0
 42
0.0000001
 43
0.0000001
 44
0.0000000001
 40
0.0
 40
0.0
 40
0.0
 40
0.0
 40
0.1253317318
 40
0.2425622803
 40
0.3506792725
 40
0.4487881019
 40
0.5361089884
 40
0.611972389
 40
0.6758704866
 40
0.7032251812
 40
0.7274908301
 40
0.7486712359
 40
0.7668101217
 40
0.7820123514
 40
0.788574713
 40
0.7944921525
 40
0.8046207844
 40
0.8131697429
 40
0.8172418231
 40
0.8213993707
 40
0.8305826747
 40
0.8417572411
 40
0.8554742038
 40
0.8720191775
 40
0.8915338747
 40
0.9140803909
 40
0.9396820637
 40
1.0
 40
1.0
 40
1.0
 40
1.0
 10
4.9070447783
 20
2.5710706912
 30
0.0
 10
4.9049062821
 20
2.5710710501
 30
0.0
 10
4.9007674346
 20
2.5710434414
 30
0.0
 10
4.8947851098
 20
2.5709113137
 30
0.0
 10
4.8892700708
 20
2.5706924316
 30
0.0
 10
4.8842702019
 20
2.5703880741
 30
0.0
 10
4.879827901
 20
2.5700019933
 30
0.0
 10
4.8759803784
 20
2.5695381385
 30
0.0
 10
4.8731656327
 20
2.5690716265
 30
0.0
 10
4.8712399069
 20
2.5686492495
 30
0.0
 10
4.8700383383
 20
2.5683325188
 30
0.0
 10
4.8690048383
 20
2.5680000816
 30
0.0
 10
4.8681409345
 20
2.5676525849
 30
0.0
 10
4.8675353817
 20
2.5673372898
 30
0.0
 10
4.8671431312
 20
2.5670730109
 30
0.0
 10
4.8668439378
 20
2.5668291795
 30
0.0
 10
4.8665591124
 20
2.5665141515
 30
0.0
 10
4.8664043902
 20
2.5661464763
 30
0.0
 10
4.8663849179
 20
2.5658586614
 30
0.0
 10
4.8664278455
 20
2.5655625453
 30
0.0
 10
4.8666127344
 20
2.5651774792
 30
0.0
 10
4.8669986726
 20
2.5647374726
 30
0.0
 10
4.8675512345
 20
2.564292549
 30
0.0
 10
4.8682722056
 20
2.5638411282
 30
0.0
 10
4.8691617173
 20
2.5633824481
 30
0.0
 10
4.8702189507
 20
2.5629172273
 30
0.0
 10
4.871946818
 20
2.5622528147
 30
0.0
 10
4.8733446301
 20
2.5618064974
 30
0.0
 10
4.8743315392
 20
2.5615145477
 30
0.0
  0
SPLINE
  5
4EF
100
AcDbEntity
  8
0
100
AcDbSpline
 62
7
  6
CONTINUOUS
 70
0
 71
3
 72
23
 73
19
 74
0
 42
0.0000001
 43
0.0000001
 44
0.0000000001
 40
0.0
 40
0.0
 40
0.0
 40
0.0
 40
0.2082012446
 40
0.2944513214
 40
0.3686351191
 40
0.4308179137
 40
0.4815149559
 40
0.5218853984
 40
0.554202261
 40
0.568673681
 40
0.5829048704
 40
0.6134603027
 40
0.6509296011
 40
0.6979986241
 40
0.7559595643
 40
0.8254381077
 40
0.9067423358
 40
1.0
 40
1.0
 40
1.0
 40
1.0
 10
5.0231450784
 20
2.551833087
 30
0.0
 10
5.024260254
 20
2.5520117554
 30
0.0
 10
5.0258330443
 20
2.5523010015
 30
0.0
 10
5.0277712406
 20
2.5527960906
 30
0.0
 10
5.0289227269
 20
2.5531629842
 30
0.0
 10
5.0298630184
 20
2.5535484312
 30
0.0
 10
5.0305923369
 20
2.5539533315
 30
0.0
 10
5.0311154904
 20
2.554378157
 30
0.0
 10
5.0313884466
 20
2.5547788917
 30
0.0
 10
5.0314736858
 20
2.5551018043
 30
0.0
 10
5.0314803479
 20
2.5554263031
 30
0.0
 10
5.0313250641
 20
2.5558594721
 30
0.0
 10
5.0309268356
 20
2.556348555
 30
0.0
 10
5.0303271857
 20
2.5568412845
 30
0.0
 10
5.0295215704
 20
2.5573418096
 30
0.0
 10
5.0285092706
 20
2.5578515009
 30
0.0
 10
5.0272901129
 20
2.5583691032
 30
0.0
 10
5.0264010914
 20
2.5586961034
 30
0.0
 10
5.0259232783
 20
2.5588622658
 30
0.0
  0
SPLINE
  5
4F0
100
AcDbEntity
  8
0
100
AcDbSpline
 62
7
  6
CONTINUOUS
 70
0
 71
3
 72
18
 73
14
 74
0
 42
0.0000001
 43
0.0000001
 44
0.0000000001
 40
0.0
 40
0.0
 40
0.0
 40
0.0
 40
0.0343052003
 40
0.0750882638
 40
0.1219855511
 40
0.1744981537
 40
0.2320912975
 40
0.29418144
 40
0.429137299
 40
0.5736222745
 40
0.7212866311
 40
0.8655559117
 40
1.0
 40
1.0
 40
1.0
 40
1.0
 10
5.0244862814
 20
2.5593358838
 30
0.0
 10
5.0231955376
 20
2.5597403348
 30
0.0
 10
5.0203402017
 20
2.5605293217
 30
0.0
 10
5.0156538392
 20
2.5616154516
 30
0.0
 10
5.010231505
 20
2.5626935271
 30
0.0
 10
5.0041318021
 20
2.5637526381
 30
0.0
 10
4.9974199958
 20
2.5647798044
 30
0.0
 10
4.9874703189
 20
2.5661280321
 30
0.0
 10
4.9740862079
 20
2.5676307522
 30
0.0
 10
4.9573079639
 20
2.5690929066
 30
0.0
 10
4.9401345769
 20
2.5702021285
 30
0.0
 10
4.9233354669
 20
2.5708925767
 30
0.0
 10
4.9123458002
 20
2.571065175
 30
0.0
 10
4.9070447783
 20
2.5710706912
 30
0.0
  0
SPLINE
  5
4F1
100
AcDbEntity
  8
0
100
AcDbSpline
 62
7
  6
CONTINUOUS
 70
0
 71
3
 72
33
 73
29
 74
0
 42
0.0000001
 43
0.0000001
 44
0.0000000001
 40
0.0
 40
0.0
 40
0.0
 40
0.0
 40
0.1197540561
 40
0.2345970211
 40
0.3426222729
 40
0.4423318265
 40
0.5328888149
 40
0.6135193008
 40
0.6833710525
 40
0.713983463
 40
0.7415834738
 40
0.7660969688
 40
0.7875281726
 40
0.8059210946
 40
0.8213610808
 40
0.8340124341
 40
0.8442002637
 40
0.8525772517
 40
0.8564493034
 40
0.8603322458
 40
0.8687897945
 40
0.8791114332
 40
0.8919351904
 40
0.9075804248
 40
0.9261791024
 40
0.9477803462
 40
0.9723922248
 40
1.0
 40
1.0
 40
1.0
 40
1.0
 10
5.1275645937
 20
2.5710706912
 30
0.0
 10
5.124739215
 20
2.571068367
 30
0.0
 10
5.1192042653
 20
2.5710276038
 30
0.0
 10
5.1111223644
 20
2.5708490027
 30
0.0
 10
5.103517177
 20
2.5705488348
 30
0.0
 10
5.0964917208
 20
2.5701253349
 30
0.0
 10
5.0901220466
 20
2.5695909158
 30
0.0
 10
5.0844698791
 20
2.5689565277
 30
0.0
 10
5.0802420112
 20
2.5683293468
 30
0.0
 10
5.0772726872
 20
2.567768504
 30
0.0
 10
5.0753667886
 20
2.5673459801
 30
0.0
 10
5.0736884534
 20
2.5669033628
 30
0.0
 10
5.0722412518
 20
2.5664427059
 30
0.0
 10
5.0710264195
 20
2.5659658079
 30
0.0
 10
5.0700437531
 20
2.5654742693
 30
0.0
 10
5.0692920617
 20
2.5649672259
 30
0.0
 10
5.0687672205
 20
2.5644410734
 30
0.0
 10
5.0685210008
 20
2.5639565736
 30
0.0
 10
5.0684695598
 20
2.5635762678
 30
0.0
 10
5.0685040668
 20
2.5631921642
 30
0.0
 10
5.0687284459
 20
2.562691731
 30
0.0
 10
5.0692282138
 20
2.5621299149
 30
0.0
 10
5.0699569369
 20
2.5615704196
 30
0.0
 10
5.0709179939
 20
2.5610101947
 30
0.0
 10
5.0721106747
 20
2.5604475636
 30
0.0
 10
5.073533091
 20
2.5598842778
 30
0.0
 10
5.0751820452
 20
2.5593220149
 30
0.0
 10
5.0763627803
 20
2.5589692375
 30
0.0
 10
5.0769895566
 20
2.5587919939
 30
0.0
  0
LINE
  5
4F2
100
AcDbEntity
  8
0
100
AcDbLine
 62
7
  6
CONTINUOUS
 10
5.2202116786
 20
2.552592624
 11
5.2247493413
 21
2.5533916409
  0
SPLINE
  5
4F3
100
AcDbEntity
  8
0
100
AcDbSpline
 62
7
  6
CONTINUOUS
 70
0
 71
3
 72
22
 73
18
 74
0
 42
0.0000001
 43
0.0000001
 44
0.0000000001
 40
0.0
 40
0.0
 40
0.0
 40
0.0
 40
0.2156835804
 40
0.3069949665
 40
0.3872350345
 40
0.456490979
 40
0.5150678173
 40
0.5636863804
 40
0.6036729611
 40
0.6374299616
 40
0.6688693356
 40
0.7027553156
 40
0.7429653351
 40
0.7918178224
 40
0.8505532058
 40
0.9198295699
 40
1.0
 40
1.0
 40
1.0
 40
1.0
 10
5.2247493413
 20
2.5533916409
 30
0.0
 10
5.2258422672
 20
2.5536169379
 30
0.0
 10
5.227391538
 20
2.5539749235
 30
0.0
 10
5.2293111247
 20
2.5545508683
 30
0.0
 10
5.230484554
 20
2.5549717901
 30
0.0
 10
5.2314713224
 20
2.5554049834
 30
0.0
 10
5.232270367
 20
2.5558503432
 30
0.0
 10
5.2328826642
 20
2.556308407
 30
0.0
 10
5.2333099447
 20
2.5567833438
 30
0.0
 10
5.233545403
 20
2.5572867766
 30
0.0
 10
5.2335617918
 20
2.5578141733
 30
0.0
 10
5.2333576079
 20
2.5583329715
 30
0.0
 10
5.2329607184
 20
2.5588372314
 30
0.0
 10
5.2323791265
 20
2.55933846
 30
0.0
 10
5.2316120944
 20
2.5598407408
 30
0.0
 10
5.2306590554
 20
2.5603449209
 30
0.0
 10
5.2299517876
 20
2.5606586972
 30
0.0
 10
5.2295685995
 20
2.5608174889
 30
0.0
  0
SPLINE
  5
4F4
100
AcDbEntity
  8
0
100
AcDbSpline
 62
7
  6
CONTINUOUS
 70
0
 71
3
 72
19
 73
15
 74
0
 42
0.0000001
 43
0.0000001
 44
0.0000000001
 40
0.0
 40
0.0
 40
0.0
 40
0.0
 40
0.0289053476
 40
0.0642701739
 40
0.1058883935
 40
0.1534838335
 40
0.2066555867
 40
0.2649645543
 40
0.3279453605
 40
0.3950159268
 40
0.5389119581
 40
0.6915412243
 40
0.847539841
 40
1.0
 40
1.0
 40
1.0
 40
1.0
 10
5.2295685995
 20
2.5608174889
 30
0.0
 10
5.2286531338
 20
2.5611968543
 30
0.0
 10
5.2265701122
 20
2.5619247822
 30
0.0
 10
5.2230729147
 20
2.5629024863
 30
0.0
 10
5.2189103902
 20
2.5638641545
 30
0.0
 10
5.2141186424
 20
2.564798807
 30
0.0
 10
5.2087391814
 20
2.56569822
 30
0.0
 10
5.2028191626
 20
2.5665532343
 30
0.0
 10
5.1964111709
 20
2.5673543112
 30
0.0
 10
5.1870736559
 20
2.5683648202
 30
0.0
 10
5.1746518816
 20
2.5694242863
 30
0.0
 10
5.159164358
 20
2.5703503431
 30
0.0
 10
5.1433668299
 20
2.5709411175
 30
0.0
 10
5.132791341
 20
2.571084139
 30
0.0
 10
5.1275645937
 20
2.5710706912
 30
0.0
  0
SPLINE
  5
4F5
100
AcDbEntity
  8
0
100
AcDbSpline
 62
7
  6
CONTINUOUS
 70
0
 71
3
 72
18
 73
14
 74
0
 42
0.0000001
 43
0.0000001
 44
0.0000000001
 40
0.0
 40
0.0
 40
0.0
 40
0.0
 40
0.0443715842
 40
0.0948958673
 40
0.151112556
 40
0.2123270173
 40
0.3459337222
 40
0.4883325627
 40
0.63226405
 40
0.7701485647
 40
0.8948848762
 40
0.9502735721
 40
1.0
 40
1.0
 40
1.0
 40
1.0
 10
6.2208173978
 20
2.5710706912
 30
0.0
 10
6.2188614925
 20
2.5710679944
 30
0.0
 10
6.2146785027
 20
2.5710106162
 30
0.0
 10
6.2080205233
 20
2.5707992614
 30
0.0
 10
6.2006249902
 20
2.5704500907
 30
0.0
 10
6.189578994
 20
2.5697847475
 30
0.0
 10
6.1747563295
 20
2.5686544215
 30
0.0
 10
6.1563247632
 20
2.5669339576
 30
0.0
 10
6.1377367166
 20
2.5648876564
 30
0.0
 10
6.1199569601
 20
2.5626368309
 30
0.0
 10
6.1060840671
 20
2.5606167526
 30
0.0
 10
6.0960873516
 20
2.5589656216
 30
0.0
 10
6.0915275387
 20
2.5581410241
 30
0.0
 10
6.0893746395
 20
2.5577291167
 30
0.0
  0
LINE
  5
4F6
100
AcDbEntity
  8
0
100
AcDbLine
 62
7
  6
CONTINUOUS
 10
6.0893746395
 20
2.5577291167
 11
6.0785602402
 21
2.5553929571
  0
SPLINE
  5
4F7
100
AcDbEntity
  8
0
100
AcDbSpline
 62
7
  6
CONTINUOUS
 70
0
 71
3
 72
29
 73
25
 74
0
 42
0.0000001
 43
0.0000001
 44
0.0000000001
 40
0.0
 40
0.0
 40
0.0
 40
0.0
 40
0.0953395813
 40
0.1772676888
 40
0.2456224433
 40
0.3005316234
 40
0.3230580384
 40
0.3424026572
 40
0.3587139936
 40
0.3722484923
 40
0.3834641522
 40
0.3931643362
 40
0.4025610271
 40
0.4129798888
 40
0.4254266668
 40
0.4405085471
 40
0.4585704432
 40
0.4798139485
 40
0.5322840586
 40
0.5985204391
 40
0.6787848016
 40
0.7728499692
 40
0.8801313088
 40
1.0
 40
1.0
 40
1.0
 40
1.0
 10
6.2292316871
 20
2.5663380878
 30
0.0
 10
6.229770775
 20
2.5664898271
 30
0.0
 10
6.2307698376
 20
2.5667838865
 30
0.0
 10
6.2321399068
 20
2.5672376034
 30
0.0
 10
6.2332654758
 20
2.5676699263
 30
0.0
 10
6.2340438823
 20
2.568030205
 30
0.0
 10
6.2345372177
 20
2.5683134975
 30
0.0
 10
6.2348202833
 20
2.5685057744
 30
0.0
 10
6.2350419389
 20
2.5686922341
 30
0.0
 10
6.2352026126
 20
2.5688737355
 30
0.0
 10
6.2353022992
 20
2.5690524806
 30
0.0
 10
6.2353363923
 20
2.5692314643
 30
0.0
 10
6.2352976261
 20
2.5694052171
 30
0.0
 10
6.2351904607
 20
2.5695653369
 30
0.0
 10
6.2350218929
 20
2.5697135879
 30
0.0
 10
6.2347923516
 20
2.5698532926
 30
0.0
 10
6.2345009948
 20
2.5699856429
 30
0.0
 10
6.2339922226
 20
2.5701653672
 30
0.0
 10
6.2331921091
 20
2.570361138
 30
0.0
 10
6.2320390664
 20
2.5705550278
 30
0.0
 10
6.2306348849
 20
2.5707180762
 30
0.0
 10
6.2289857611
 20
2.5708504744
 30
0.0
 10
6.2271014868
 20
2.5709523204
 30
0.0
 10
6.2257678634
 20
2.5709974523
 30
0.0
 10
6.225063981
 20
2.5710158668
 30
0.0
  0
LINE
  5
4F8
100
AcDbEntity
  8
0
100
AcDbLine
 62
7
  6
CONTINUOUS
 10
6.225063981
 20
2.5710158668
 11
6.2208173978
 21
2.5710706912
  0
SPLINE
  5
4F9
100
AcDbEntity
  8
0
100
AcDbSpline
 62
7
  6
CONTINUOUS
 70
0
 71
3
 72
13
 73
9
 74
0
 42
0.0000001
 43
0.0000001
 44
0.0000000001
 40
0.0
 40
0.0
 40
0.0
 40
0.0
 40
0.0689760363
 40
0.147975471
 40
0.2418097934
 40
0.3533189441
 40
0.6350173803
 40
1.0
 40
1.0
 40
1.0
 40
1.0
 10
6.083153741
 20
2.540201142
 30
0.0
 10
6.083153924
 20
2.5402616791
 30
0.0
 10
6.0831789434
 20
2.5403919529
 30
0.0
 10
6.0832785568
 20
2.5405815603
 30
0.0
 10
6.0834376124
 20
2.5407754185
 30
0.0
 10
6.0837541541
 20
2.5410641682
 30
0.0
 10
6.0843131551
 20
2.5414310022
 30
0.0
 10
6.0848186911
 20
2.5416898181
 30
0.0
 10
6.085108325
 20
2.5418266518
 30
0.0
  0
SPLINE
  5
4FA
100
AcDbEntity
  8
0
100
AcDbSpline
 62
7
  6
CONTINUOUS
 70
0
 71
3
 72
24
 73
20
 74
0
 42
0.0000001
 43
0.0000001
 44
0.0000000001
 40
0.0
 40
0.0
 40
0.0
 40
0.0
 40
0.0115167717
 40
0.0256623256
 40
0.042376561
 40
0.0615815938
 40
0.1071189138
 40
0.1614368806
 40
0.2234075288
 40
0.2918386174
 40
0.3653498945
 40
0.4424587306
 40
0.521639263
 40
0.6012728457
 40
0.7553995912
 40
0.8266948946
 40
0.8920984023
 40
0.9502880303
 40
1.0
 40
1.0
 40
1.0
 40
1.0
 10
6.085108325
 20
2.5418266518
 30
0.0
 10
6.0855555928
 20
2.5420379578
 30
0.0
 10
6.0865749359
 20
2.5424604201
 30
0.0
 10
6.0882922366
 20
2.5430648766
 30
0.0
 10
6.0903467867
 20
2.5437011958
 30
0.0
 10
6.0937172506
 20
2.5446410747
 30
0.0
 10
6.0986885154
 20
2.5458460662
 30
0.0
 10
6.1054880352
 20
2.5472907333
 30
0.0
 10
6.1132827546
 20
2.5487742299
 30
0.0
 10
6.1219141651
 20
2.5502629344
 30
0.0
 10
6.1312085318
 20
2.5517273059
 30
0.0
 10
6.1409780425
 20
2.5531369564
 30
0.0
 10
6.1510247769
 20
2.5544614912
 30
0.0
 10
6.1643708518
 20
2.5560616986
 30
0.0
 10
6.1774075149
 20
2.5573936899
 30
0.0
 10
6.1898585483
 20
2.5584041024
 30
0.0
 10
6.1982123669
 20
2.5589457441
 30
0.0
 10
6.205649006
 20
2.55928327
 30
0.0
 10
6.210283633
 20
2.5593754007
 30
0.0
 10
6.2124188697
 20
2.5593749845
 30
0.0
  0
SPLINE
  5
4FB
100
AcDbEntity
  8
0
100
AcDbSpline
 62
7
  6
CONTINUOUS
 70
0
 71
3
 72
30
 73
26
 74
0
 42
0.0000001
 43
0.0000001
 44
0.0000000001
 40
0.0
 40
0.0
 40
0.0
 40
0.0
 40
0.002411033
 40
0.0051164254
 40
0.0082725153
 40
0.0119749014
 40
0.0162796391
 40
0.0212194618
 40
0.0330688077
 40
0.0475999066
 40
0.0648213701
 40
0.0846792497
 40
0.107081462
 40
0.1319273345
 40
0.1591114379
 40
0.220018076
 40
0.2886050062
 40
0.3635389428
 40
0.44338401
 40
0.5265240846
 40
0.611313663
 40
0.6960339693
 40
0.8582727348
 40
0.9324878555
 40
1.0
 40
1.0
 40
1.0
 40
1.0
 10
5.9369079403
 20
2.5418992247
 30
0.0
 10
5.9369080195
 20
2.5419958893
 30
0.0
 10
5.936943706
 20
2.5422018459
 30
0.0
 10
5.9370909169
 20
2.5425024408
 30
0.0
 10
5.9373274063
 20
2.5428067066
 30
0.0
 10
5.9376519479
 20
2.5431165512
 30
0.0
 10
5.9380642538
 20
2.5434331103
 30
0.0
 10
5.9387751676
 20
2.5438924425
 30
0.0
 10
5.9398927536
 20
2.5444703509
 30
0.0
 10
5.9415029897
 20
2.5451530214
 30
0.0
 10
5.9434500572
 20
2.5458558526
 30
0.0
 10
5.9457240704
 20
2.5465756207
 30
0.0
 10
5.9483131615
 20
2.5473084223
 30
0.0
 10
5.9512039307
 20
2.5480502126
 30
0.0
 10
5.9556121733
 20
2.5490855034
 30
0.0
 10
5.9617648679
 20
2.5503570741
 30
0.0
 10
5.969831949
 20
2.5518088855
 30
0.0
 10
5.9786781786
 20
2.5532064055
 30
0.0
 10
5.9881266799
 20
2.5545192897
 30
0.0
 10
5.9979878892
 20
2.5557226395
 30
0.0
 10
6.0080615437
 20
2.5567884114
 30
0.0
 10
6.0213089938
 20
2.5579802018
 30
0.0
 10
6.034160482
 20
2.5588354483
 30
0.0
 10
6.046339395
 20
2.5592916479
 30
0.0
 10
6.0520217591
 20
2.5593753641
 30
0.0
 10
6.0547284975
 20
2.5593749639
 30
0.0
  0
SPLINE
  5
4FC
100
AcDbEntity
  8
0
100
AcDbSpline
 62
7
  6
CONTINUOUS
 70
0
 71
3
 72
25
 73
21
 74
0
 42
0.0000001
 43
0.0000001
 44
0.0000000001
 40
0.0
 40
0.0
 40
0.0
 40
0.0
 40
0.1877890261
 40
0.3695311153
 40
0.4558725169
 40
0.5380622152
 40
0.6152667148
 40
0.6867098653
 40
0.7517824169
 40
0.8099199916
 40
0.8605900918
 40
0.9034414601
 40
0.9218922356
 40
0.9383511491
 40
0.9528336139
 40
0.9653838865
 40
0.9760989019
 40
0.9851790735
 40
0.9929673906
 40
1.0
 40
1.0
 40
1.0
 40
1.0
 10
5.3651749286
 20
2.5593759076
 30
0.0
 10
5.3699434654
 20
2.5593760412
 30
0.0
 10
5.3793275093
 20
2.5592356995
 30
0.0
 10
5.3908938754
 20
2.5587145636
 30
0.0
 10
5.3997664862
 20
2.5580848758
 30
0.0
 10
5.4059820562
 20
2.5575290959
 30
0.0
 10
5.4118089823
 20
2.556887586
 30
0.0
 10
5.4171883657
 20
2.5561656759
 30
0.0
 10
5.4220679411
 20
2.5553729071
 30
0.0
 10
5.4264010954
 20
2.5545190898
 30
0.0
 10
5.4301451621
 20
2.5536120621
 30
0.0
 10
5.4328682814
 20
2.5527846164
 30
0.0
 10
5.434716843
 20
2.5520885064
 30
0.0
 10
5.4358664909
 20
2.5515853506
 30
0.0
 10
5.4368475926
 20
2.5510760663
 30
0.0
 10
5.4376581627
 20
2.5505614585
 30
0.0
 10
5.438296874
 20
2.5500410299
 30
0.0
 10
5.4387634902
 20
2.5495129117
 30
0.0
 10
5.4390557732
 20
2.5489732451
 30
0.0
 10
5.4391276895
 20
2.5485956299
 30
0.0
 10
5.4391297988
 20
2.5484170629
 30
0.0
  0
SPLINE
  5
4FD
100
AcDbEntity
  8
0
100
AcDbSpline
 62
7
  6
CONTINUOUS
 70
0
 71
3
 72
17
 73
13
 74
0
 42
0.0000001
 43
0.0000001
 44
0.0000000001
 40
0.0
 40
0.0
 40
0.0
 40
0.0
 40
0.018272688
 40
0.04458025
 40
0.0780109428
 40
0.1175320075
 40
0.2099959009
 40
0.3184746459
 40
0.4532939864
 40
0.6151485887
 40
0.8000557489
 40
1.0
 40
1.0
 40
1.0
 40
1.0
 10
5.3647306617
 20
2.5710723931
 30
0.0
 10
5.3647521279
 20
2.5710043426
 30
0.0
 10
5.3647872737
 20
2.5708332667
 30
0.0
 10
5.3648311023
 20
2.5705319259
 30
0.0
 10
5.3648727983
 20
2.5701464233
 30
0.0
 10
5.3649282163
 20
2.5695028547
 30
0.0
 10
5.3649868453
 20
2.5685655361
 30
0.0
 10
5.3650467785
 20
2.5672557201
 30
0.0
 10
5.3650988503
 20
2.565674388
 30
0.0
 10
5.3651409732
 20
2.5637942305
 30
0.0
 10
5.3651687304
 20
2.5616594638
 30
0.0
 10
5.3651752179
 20
2.5601565885
 30
0.0
 10
5.3651752073
 20
2.5593757947
 30
0.0
  0
LINE
  5
4FE
100
AcDbEntity
  8
0
100
AcDbLine
 62
7
  6
CONTINUOUS
 10
6.2248599323
 20
2.5478494071
 11
6.2263746339
 21
2.5480970368
  0
SPLINE
  5
4FF
100
AcDbEntity
  8
0
100
AcDbSpline
 62
7
  6
CONTINUOUS
 70
0
 71
3
 72
17
 73
13
 74
0
 42
0.0000001
 43
0.0000001
 44
0.0000000001
 40
0.0
 40
0.0
 40
0.0
 40
0.0
 40
0.1435387041
 40
0.2937809342
 40
0.4446054431
 40
0.5897802308
 40
0.7232138877
 40
0.8392256887
 40
0.8891036227
 40
0.9328218975
 40
0.9699150163
 40
1.0
 40
1.0
 40
1.0
 40
1.0
 10
6.2263746339
 20
2.5480970368
 30
0.0
 10
6.2309388893
 20
2.5488398269
 30
0.0
 10
6.2402903155
 20
2.5503005019
 30
0.0
 10
6.2544653268
 20
2.5523598897
 30
0.0
 10
6.2687129181
 20
2.5542812027
 30
0.0
 10
6.2824427251
 20
2.5559847853
 30
0.0
 10
6.2950773987
 20
2.5573987394
 30
0.0
 10
6.3046759919
 20
2.5583307529
 30
0.0
 10
6.3114072242
 20
2.5588720176
 30
0.0
 10
6.3156084244
 20
2.5591523072
 30
0.0
 10
6.3191770704
 20
2.5593256462
 30
0.0
 10
6.3213412399
 20
2.559375779
 30
0.0
 10
6.32231047
 20
2.5593757795
 30
0.0
  0
SPLINE
  5
500
100
AcDbEntity
  8
0
100
AcDbSpline
 62
7
  6
CONTINUOUS
 70
0
 71
3
 72
22
 73
18
 74
0
 42
0.0000001
 43
0.0000001
 44
0.0000000001
 40
0.0
 40
0.0
 40
0.0
 40
0.0
 40
0.1667063039
 40
0.3359962454
 40
0.4996910664
 40
0.6500012286
 40
0.717924826
 40
0.7799669583
 40
0.83545115
 40
0.8838037997
 40
0.9245306611
 40
0.9419515986
 40
0.9573876217
 40
0.9708415765
 40
0.9823458792
 40
0.9919991735
 40
1.0
 40
1.0
 40
1.0
 40
1.0
 10
5.1304575217
 20
2.5593757059
 30
0.0
 10
5.1355946133
 20
2.5593757285
 30
0.0
 10
5.1459490007
 20
2.5591963718
 30
0.0
 10
5.1613315078
 20
2.5584531683
 30
0.0
 10
5.1761794643
 20
2.5572662811
 30
0.0
 10
5.1878749054
 20
2.5559200735
 30
0.0
 10
5.1964173669
 20
2.55464199
 30
0.0
 10
5.2020458823
 20
2.5536490189
 30
0.0
 10
5.2070502918
 20
2.5526021528
 30
0.0
 10
5.2113719362
 20
2.5515161097
 30
0.0
 10
5.2145100101
 20
2.5505457115
 30
0.0
 10
5.216631105
 20
2.549742078
 30
0.0
 10
5.2179390571
 20
2.54916932
 30
0.0
 10
5.2190455118
 20
2.5485967361
 30
0.0
 10
5.2199481049
 20
2.5480247558
 30
0.0
 10
5.2206456438
 20
2.54745458
 30
0.0
 10
5.2210042369
 20
2.5470386449
 30
0.0
 10
5.221137865
 20
2.5468314515
 30
0.0
  0
LINE
  5
501
100
AcDbEntity
  8
0
100
AcDbLine
 62
7
  6
CONTINUOUS
 10
5.221137865
 20
2.5468314515
 11
5.2214511623
 21
2.5458732746
  0
SPLINE
  5
502
100
AcDbEntity
  8
0
100
AcDbSpline
 62
7
  6
CONTINUOUS
 70
0
 71
3
 72
16
 73
12
 74
0
 42
0.0000001
 43
0.0000001
 44
0.0000000001
 40
0.0
 40
0.0
 40
0.0
 40
0.0
 40
0.0649052853
 40
0.1038210458
 40
0.1467696979
 40
0.2417779121
 40
0.3490953433
 40
0.4797680972
 40
0.6347334962
 40
0.810526233
 40
1.0
 40
1.0
 40
1.0
 40
1.0
 10
5.1275646739
 20
2.5710723932
 30
0.0
 10
5.1278052467
 20
2.570955265
 30
0.0
 10
5.128130721
 20
2.5706524963
 30
0.0
 10
5.1284812831
 20
2.5701611565
 30
0.0
 10
5.1288401996
 20
2.5695242493
 30
0.0
 10
5.1292260401
 20
2.5685866494
 30
0.0
 10
5.1296193189
 20
2.5672698803
 30
0.0
 10
5.1299602161
 20
2.5656847096
 30
0.0
 10
5.1302354044
 20
2.563801208
 30
0.0
 10
5.1304167034
 20
2.561663068
 30
0.0
 10
5.130459057
 20
2.5601568977
 30
0.0
 10
5.1304589692
 20
2.5593757947
 30
0.0
  0
SPLINE
  5
503
100
AcDbEntity
  8
0
100
AcDbSpline
 62
7
  6
CONTINUOUS
 70
0
 71
3
 72
26
 73
22
 74
0
 42
0.0000001
 43
0.0000001
 44
0.0000000001
 40
0.0
 40
0.0
 40
0.0
 40
0.0
 40
0.0757677157
 40
0.1558354229
 40
0.3234765202
 40
0.4916615992
 40
0.5724256371
 40
0.649198409
 40
0.7207012385
 40
0.7858386841
 40
0.8435904599
 40
0.8930393165
 40
0.9144499003
 40
0.9335601437
 40
0.9503131644
 40
0.9646706578
 40
0.9766522688
 40
0.9863499763
 40
0.9904057381
 40
0.9939864245
 40
1.0
 40
1.0
 40
1.0
 40
1.0
 10
4.9122142622
 20
2.5593759076
 30
0.0
 10
4.9149711919
 20
2.5593759972
 30
0.0
 10
4.9206416396
 20
2.5593100675
 30
0.0
 10
4.9324067278
 20
2.558944442
 30
0.0
 10
4.9475173007
 20
2.5580666949
 30
0.0
 10
4.9626171781
 20
2.5567038656
 30
0.0
 10
4.9743895871
 20
2.555328493
 30
0.0
 10
4.9826483385
 20
2.554207097
 30
0.0
 10
4.9903198016
 20
2.5529988926
 30
0.0
 10
4.997278698
 20
2.5517270196
 30
0.0
 10
5.0034116146
 20
2.5504144081
 30
0.0
 10
5.0079477221
 20
2.5492555808
 30
0.0
 10
5.0110816779
 20
2.5483075924
 30
0.0
 10
5.0130546131
 20
2.5476346477
 30
0.0
 10
5.0147569675
 20
2.5469684111
 30
0.0
 10
5.0161820708
 20
2.5463111896
 30
0.0
 10
5.0173251581
 20
2.5456654839
 30
0.0
 10
5.0180841793
 20
2.5451101423
 30
0.0
 10
5.0185328488
 20
2.5446642637
 30
0.0
 10
5.0188394062
 20
2.544273769
 30
0.0
 10
5.0189920554
 20
2.5439461674
 30
0.0
 10
5.0190300705
 20
2.5437306814
 30
0.0
  0
LINE
  5
504
100
AcDbEntity
  8
0
100
AcDbLine
 62
7
  6
CONTINUOUS
 10
5.0190300705
 20
2.5437306814
 11
5.0190484577
 21
2.5435253286
  0
SPLINE
  5
505
100
AcDbEntity
  8
0
100
AcDbSpline
 62
7
  6
CONTINUOUS
 70
0
 71
3
 72
15
 73
11
 74
0
 42
0.0000001
 43
0.0000001
 44
0.0000000001
 40
0.0
 40
0.0
 40
0.0
 40
0.0
 40
0.0900432822
 40
0.1859016106
 40
0.2864697194
 40
0.3935028745
 40
0.5190160565
 40
0.6642042573
 40
0.8264204406
 40
1.0
 40
1.0
 40
1.0
 40
1.0
 10
4.9070450575
 20
2.5710738436
 30
0.0
 10
4.9074361817
 20
2.5709668809
 30
0.0
 10
4.908204906
 20
2.5705929874
 30
0.0
 10
4.9091707588
 20
2.5697218838
 30
0.0
 10
4.9099919176
 20
2.5686214486
 30
0.0
 10
4.9107030582
 20
2.5672958606
 30
0.0
 10
4.9113173354
 20
2.5657054171
 30
0.0
 10
4.911812404
 20
2.5638157773
 30
0.0
 10
4.9121384607
 20
2.561670804
 30
0.0
 10
4.9122146553
 20
2.5601574675
 30
0.0
 10
4.9122144674
 20
2.5593757975
 30
0.0
  0
LINE
  5
506
100
AcDbEntity
  8
0
100
AcDbLine
 62
7
  6
CONTINUOUS
 10
4.4668959989
 20
2.5593757887
 11
4.4688425231
 21
2.5593343903
  0
SPLINE
  5
507
100
AcDbEntity
  8
0
100
AcDbSpline
 62
7
  6
CONTINUOUS
 70
0
 71
3
 72
34
 73
30
 74
0
 42
0.0000001
 43
0.0000001
 44
0.0000000001
 40
0.0
 40
0.0
 40
0.0
 40
0.0
 40
0.0174602092
 40
0.0384450687
 40
0.0903198224
 40
0.1540274269
 40
0.2276007613
 40
0.3087919851
 40
0.3951536556
 40
0.4841086915
 40
0.5730034049
 40
0.6592027745
 40
0.7401411518
 40
0.7778800966
 40
0.8134124595
 40
0.8464816355
 40
0.8768364405
 40
0.9042480227
 40
0.9285119718
 40
0.9494373731
 40
0.9668706291
 40
0.980676657
 40
0.9861909747
 40
0.9907686937
 40
0.9944069389
 40
0.9971155171
 40
0.9981314917
 40
0.9989340306
 40
1.0
 40
1.0
 40
1.0
 40
1.0
 10
4.4688425231
 20
2.5593343903
 30
0.0
 10
4.4696508816
 20
2.5593041281
 30
0.0
 10
4.4714297872
 20
2.5592112203
 30
0.0
 10
4.4756041548
 20
2.5589187848
 30
0.0
 10
4.481906232
 20
2.5583505733
 30
0.0
 10
4.4906217668
 20
2.5574334397
 30
0.0
 10
4.5006757282
 20
2.5562625009
 30
0.0
 10
4.5117604399
 20
2.5548735416
 30
0.0
 10
4.5235408632
 20
2.5533078274
 30
0.0
 10
4.5356637746
 20
2.5516123262
 30
0.0
 10
4.5477677381
 20
2.5498375565
 30
0.0
 10
4.5594922406
 20
2.5480368455
 30
0.0
 10
4.5688632007
 20
2.5465259851
 30
0.0
 10
4.5759088163
 20
2.545341433
 30
0.0
 10
4.5807632422
 20
2.5445004319
 30
0.0
 10
4.5852761264
 20
2.5436924878
 30
0.0
 10
4.5894136995
 20
2.5429235796
 30
0.0
 10
4.5931445895
 20
2.5421996014
 30
0.0
 10
4.5964401568
 20
2.5415263513
 30
0.0
 10
4.5992751848
 20
2.5409092616
 30
0.0
 10
4.6016272859
 20
2.5403534615
 30
0.0
 10
4.6032743433
 20
2.539919771
 30
0.0
 10
4.6043343838
 20
2.5395996059
 30
0.0
 10
4.6049372799
 20
2.5393963803
 30
0.0
 10
4.6054088253
 20
2.5392113294
 30
0.0
 10
4.6057166444
 20
2.5390640357
 30
0.0
 10
4.6058940785
 20
2.5389493228
 30
0.0
 10
4.605995278
 20
2.5388658915
 30
0.0
 10
4.6060518295
 20
2.5387862704
 30
0.0
 10
4.6060518354
 20
2.5387368845
 30
0.0
  0
SPLINE
  5
508
100
AcDbEntity
  8
0
100
AcDbSpline
 62
7
  6
CONTINUOUS
 70
0
 71
3
 72
15
 73
11
 74
0
 42
0.0000001
 43
0.0000001
 44
0.0000000001
 40
0.0
 40
0.0
 40
0.0
 40
0.0
 40
0.1296860883
 40
0.252390475
 40
0.3666989781
 40
0.4766036331
 40
0.5949686901
 40
0.7226903923
 40
0.858459053
 40
1.0
 40
1.0
 40
1.0
 40
1.0
 10
4.4570809661
 20
2.5710723932
 30
0.0
 10
4.4577924007
 20
2.5709703036
 30
0.0
 10
4.4591614174
 20
2.5706350005
 30
0.0
 10
4.4610177399
 20
2.5697817412
 30
0.0
 10
4.4626062582
 20
2.5686825771
 30
0.0
 10
4.4639767445
 20
2.567357362
 30
0.0
 10
4.4651596044
 20
2.5657669135
 30
0.0
 10
4.4661177741
 20
2.5638672498
 30
0.0
 10
4.4667518338
 20
2.5617011659
 30
0.0
 10
4.4669011393
 20
2.5601602165
 30
0.0
 10
4.46690083
 20
2.5593757947
 30
0.0
  0
SPLINE
  5
509
100
AcDbEntity
  8
0
100
AcDbSpline
 62
7
  6
CONTINUOUS
 70
0
 71
3
 72
15
 73
11
 74
0
 42
0.0000001
 43
0.0000001
 44
0.0000000001
 40
0.0
 40
0.0
 40
0.0
 40
0.0
 40
0.1480235276
 40
0.2882185983
 40
0.4209055346
 40
0.5466337115
 40
0.6661991983
 40
0.7806887359
 40
0.8914344481
 40
1.0
 40
1.0
 40
1.0
 40
1.0
 10
6.1857286926
 20
2.4993739402
 30
0.0
 10
6.1907990341
 20
2.4924468439
 30
0.0
 10
6.2011617635
 20
2.4793066234
 30
0.0
 10
6.2178263553
 20
2.4614294931
 30
0.0
 10
6.2351028082
 20
2.4460150925
 30
0.0
 10
6.2529024569
 20
2.4331476924
 30
0.0
 10
6.2711414267
 20
2.4229115107
 30
0.0
 10
6.2897213351
 20
2.4153637328
 30
0.0
 10
6.3085392928
 20
2.4105691246
 30
0.0
 10
6.3212407235
 20
2.4092269727
 30
0.0
 10
6.327533746
 20
2.4090288145
 30
0.0
  0
LINE
  5
50A
100
AcDbEntity
  8
0
100
AcDbLine
 62
7
  6
CONTINUOUS
 10
4.4317197262
 20
2.5593759076
 11
4.4642697737
 21
2.554769006
  0
ELLIPSE
  5
50B
100
AcDbEntity
  8
ALL_FEATURES
100
AcDbEllipse
 62
7
  6
CONTINUOUS
 10
5.4077639752
 20
5.4739700421
 30
0.0
 11
0.4525
 21
-0.0
 31
0.0
 40
1.0
 41
7.5749622205
 42
8.1330010474
  0
ENDSEC
  0
SECTION
  2
OBJECTS
  0
DICTIONARY
  5
C
100
AcDbDictionary
280
0
281
1
  3
ACAD_GROUP
350
D
  3
ACAD_MLINESTYLE
350
17
  3
ACAD_LAYOUT
350
1A
  3
ACAD_PLOTSETTINGS
350
19
  3
ACAD_PLOTSTYLENAME
350
E
  0
DICTIONARY
  5
D
102
{ACAD_REACTORS
330
C
102
}
100
AcDbDictionary
280
0
281
1
  0
ACDBDICTIONARYWDFLT
  5
E
102
{ACAD_REACTORS
330
C
102
}
100
AcDbDictionary
281
1
  3
Normal
350
F
100
AcDbDictionaryWithDefault
340
F
  0
DICTIONARY
  5
17
102
{ACAD_REACTORS
330
C
102
}
100
AcDbDictionary
280
0
281
1
  3
Standard
350
18
  0
DICTIONARY
  5
19
102
{ACAD_REACTORS
330
C
102
}
100
AcDbDictionary
281
1
  0
DICTIONARY
  5
1A
102
{ACAD_REACTORS
330
C
102
}
100
AcDbDictionary
281
1
  3
Model
350
50C
  3
Layout1
350
50D
  0
ACDBPLACEHOLDER
  5
F
102
{ACAD_REACTORS
330
E
102
}
  0
MLINESTYLE
  5
18
102
{ACAD_REACTORS
330
17
102
}
100
AcDbMlineStyle
  2
STANDARD
 70
0
  3

 62
256
 51
90.0
 52
90.0
 71
2
 49
0.5
 62
256
  6
BYLAYER
 49
-0.5
 62
256
  6
BYLAYER
  0
LAYOUT
  5
50C
102
{ACAD_REACTORS
330
1A
102
}
100
AcDbPlotSettings
  1

  2
none_device
  4
ANSI_A_(11.00_x_8.50_Inches)
  6

 40
0.0
 41
0.0
 42
0.0
 43
0.0
 44
279.4
 45
215.9
 46
0.0
 47
0.0
 48
0.0
 49
0.0
140
0.0
141
0.0
142
1.0
143
1.0
 70
1024
 72
0
 73
0
 74
0
  7

 75
0
147
1.0
148
0.0
149
0.0
100
AcDbLayout
  1
Model
 70
0
 71
0
 10
0.0
 20
0.0
 11
11.0
 21
8.5
 12
0.0
 22
0.0
 32
0.0
 14
0.0
 24
0.0
 34
0.0
 15
0.0
 25
0.0
 35
0.0
146
0.0
 13
0.0
 23
0.0
 33
0.0
 16
1.0
 26
0.0
 36
0.0
 17
0.0
 27
1.0
 37
0.0
 76
0
330
243
345
0
346
0
  0
LAYOUT
  5
50D
102
{ACAD_REACTORS
330
1A
102
}
100
AcDbPlotSettings
  1

  2
none_device
  4
ANSI_A_(11.00_x_8.50_Inches)
  6

 40
0.0
 41
0.0
 42
0.0
 43
0.0
 44
279.4
 45
215.9
 46
0.0
 47
0.0
 48
0.0
 49
0.0
140
0.0
141
0.0
142
1.0
143
1.0
 70
0
 72
0
 73
0
 74
0
  7

 75
0
147
1.0
148
0.0
149
0.0
100
AcDbLayout
  1
Layout1
 70
0
 71
1
 10
0.0
 20
0.0
 11
11.0
 21
8.5
 12
0.0
 22
0.0
 32
0.0
 14
0.0
 24
0.0
 34
0.0
 15
0.0
 25
0.0
 35
0.0
146
0.0
 13
0.0
 23
0.0
 33
0.0
 16
1.0
 26
0.0
 36
0.0
 17
0.0
 27
1.0
 37
0.0
 76
0
330
244
345
0
346
0
  0
ENDSEC
  0
EOF
