999
DXF file: 2156_front.dxf
999
Pro/ENGINEER 2018400 by Parametric Technology Corporation
  0
SECTION
  2
HEADER
  9
$ACADVER
  1
AC1027
  9
$DWGCODEPAGE
  3
ANSI_1252
  9
$EXTMAX
 10
11.0
 20
8.5
 30
0.0
  9
$EXTMIN
 10
0.0
 20
0.0
 30
0.0
  9
$LIMMIN
 10
0.0
 20
0.0
  9
$LIMMAX
 10
11.0
 20
8.5
  9
$VIEWCTR
 10
5.5
 20
4.25
  9
$VIEWSIZE
 40
8.5
  9
$CLAYER
  8
0
  9
$LTSCALE
 40
0.605
  9
$CELTYPE
  6
BYLAYER
  9
$DIMSCALE
 40
1.0
  9
$DIMASZ
 40
0.1
  9
$DIMEXO
 40
0.0625
  9
$DIMDLI
 40
0.418
  9
$DIMEXE
 40
0.125
  9
$DIMCEN
 40
0.099
  9
$DIMLFAC
 40
1.0
  9
$DIMBLK
  1
_FILLED
  9
$DIMALT
 70
1
  9
$DIMALTD
 70
1
  9
$DIMALTTD
 70
2
  9
$DIMALTF
 40
25.4
  9
$DIMTXT
 40
0.08
  9
$DIMTOL
 70
1
  9
$DIMLIM
 70
0
  9
$DIMTFAC
 40
1.0
  9
$DIMTP
 40
0.01
  9
$DIMTM
 40
0.01
  9
$DIMGAP
 40
0.09
  9
$DIMDSEP
 70
46
  9
$AUNITS
 70
0
  9
$PDMODE
 70
3
  9
$PDSIZE
 40
0.3125
  9
$HANDSEED
  5
520
  9
$TILEMODE
 70
1
  9
$MEASUREMENT
 70
0
  9
$INSUNITS
 70
1
  0
ENDSEC
  0
SECTION
  2
CLASSES
  0
CLASS
  1
ACDBDICTIONARYWDFLT
  2
AcDbDictionaryWithDefault
  3
AutoCAD 2000
 90
0
 91
1
280
0
281
0
  0
CLASS
  1
ACDBPLACEHOLDER
  2
AcDbPlaceHolder
  3
AutoCAD 2000
 90
0
 91
1
280
0
281
0
  0
CLASS
  1
LAYOUT
  2
AcDbLayout
  3
AutoCAD 2000
 90
0
 91
0
280
0
281
0
  0
ENDSEC
  0
SECTION
  2
TABLES
  0
TABLE
  2
VPORT
  5
8
100
AcDbSymbolTable
 70
2
  0
VPORT
  5
1F4
100
AcDbSymbolTableRecord
100
AcDbViewportTableRecord
  2
*ACTIVE
 70
0
 10
0.0
 20
0.0
 11
1.0
 21
1.0
 12
5.5
 22
4.25
 13
0.0
 23
0.0
 14
1.0
 24
1.0
 15
0.0
 25
0.0
 16
0.0
 26
0.0
 36
1.0
 17
0.0
 27
0.0
 37
0.0
 40
8.5
 41
1.2941176471
 42
50.0
 43
0.0
 44
0.0
 50
0.0
 51
0.0
 71
0
 72
100
 73
1
 74
1
 75
0
 76
0
 77
0
 78
0
  0
ENDTAB
  0
TABLE
  2
LTYPE
  5
5
100
AcDbSymbolTable
 70
6
  0
LTYPE
  5
14
100
AcDbSymbolTableRecord
100
AcDbLinetypeTableRecord
  2
BYBLOCK
 70
0
  3

 72
65
 73
0
 40
0.0
  0
LTYPE
  5
15
100
AcDbSymbolTableRecord
100
AcDbLinetypeTableRecord
  2
BYLAYER
 70
0
  3

 72
65
 73
0
 40
0.0
  0
LTYPE
  5
16
100
AcDbSymbolTableRecord
100
AcDbLinetypeTableRecord
  2
CONTINUOUS
 70
64
  3
Solid line
 72
65
 73
0
 40
0.0
  0
LTYPE
  5
1F5
100
AcDbSymbolTableRecord
100
AcDbLinetypeTableRecord
  2
CENTER
 70
64
  3
____ _ ____ _ ____ _ ____ _ ____ _ ____ _ ____
 72
65
 73
4
 40
0.6
 49
0.375
 74
0
 49
-0.075
 74
0
 49
0.075
 74
0
 49
-0.075
 74
0
  0
LTYPE
  5
1F6
100
AcDbSymbolTableRecord
100
AcDbLinetypeTableRecord
  2
HIDDEN
 70
64
  3
- - - - - - - - - - - - - - - - - - - -
 72
65
 73
2
 40
0.2
 49
0.1
 74
0
 49
-0.1
 74
0
  0
LTYPE
  5
1F7
100
AcDbSymbolTableRecord
100
AcDbLinetypeTableRecord
  2
PHANTOM
 70
64
  3
_____ _ _ _____ _ _ _____ _ _ _____
 72
65
 73
6
 40
0.8
 49
0.45
 74
0
 49
-0.05
 74
0
 49
0.1
 74
0
 49
-0.05
 74
0
 49
0.1
 74
0
 49
-0.05
 74
0
  0
LTYPE
  5
1F8
100
AcDbSymbolTableRecord
100
AcDbLinetypeTableRecord
  2
DOT
 70
64
  3
. . . . . . . . . . . . . . . . . . . .
 72
65
 73
2
 40
0.2
 49
0.1
 74
0
 49
-0.1
 74
0
  0
LTYPE
  5
1F9
100
AcDbSymbolTableRecord
100
AcDbLinetypeTableRecord
  2
DASHED
 70
64
  3
- - - - - - - - - - - - - - - - - - - -
 72
65
 73
2
 40
0.2
 49
0.1
 74
0
 49
-0.1
 74
0
  0
ENDTAB
  0
TABLE
  2
LAYER
  5
2
100
AcDbSymbolTable
 70
36
  0
LAYER
  5
10
100
AcDbSymbolTableRecord
100
AcDbLayerTableRecord
  2
0
 70
0
 62
7
  6
CONTINUOUS
370
-3
390
F
  0
LAYER
  5
1FA
100
AcDbSymbolTableRecord
100
AcDbLayerTableRecord
  2
DEFAULT_1
 70
0
 62
7
  6
CENTER
370
-3
390
F
  0
LAYER
  5
1FB
100
AcDbSymbolTableRecord
100
AcDbLayerTableRecord
  2
DEFAULT_2
 70
0
 62
8
  6
HIDDEN
370
-3
390
F
  0
LAYER
  5
1FC
100
AcDbSymbolTableRecord
100
AcDbLayerTableRecord
  2
DEFAULT_3
 70
0
 62
7
  6
PHANTOM
370
-3
390
F
  0
LAYER
  5
1FD
100
AcDbSymbolTableRecord
100
AcDbLayerTableRecord
  2
_  SHELL
 70
0
 62
7
  6
CONTINUOUS
370
-3
390
F
  0
LAYER
  5
1FE
100
AcDbSymbolTableRecord
100
AcDbLayerTableRecord
  2
06___PRT_ALL_SURFS_15
 70
0
 62
7
  6
CONTINUOUS
370
-3
390
F
  0
LAYER
  5
1FF
100
AcDbSymbolTableRecord
100
AcDbLayerTableRecord
  2
11_9
 70
0
 62
7
  6
CONTINUOUS
370
-3
390
F
  0
LAYER
  5
200
100
AcDbSymbolTableRecord
100
AcDbLayerTableRecord
  2
1451A0A-0Z1-01
 70
0
 62
7
  6
CONTINUOUS
370
-3
390
F
  0
LAYER
  5
201
100
AcDbSymbolTableRecord
100
AcDbLayerTableRecord
  2
1451A0A-0Z1-02
 70
0
 62
7
  6
CONTINUOUS
370
-3
390
F
  0
LAYER
  5
202
100
AcDbSymbolTableRecord
100
AcDbLayerTableRecord
  2
1451A0A-0Z1-02_1
 70
0
 62
7
  6
CONTINUOUS
370
-3
390
F
  0
LAYER
  5
203
100
AcDbSymbolTableRecord
100
AcDbLayerTableRecord
  2
1451A0A-0Z1-03
 70
0
 62
7
  6
CONTINUOUS
370
-3
390
F
  0
LAYER
  5
204
100
AcDbSymbolTableRecord
100
AcDbLayerTableRecord
  2
1451A0A-0Z1-04
 70
0
 62
7
  6
CONTINUOUS
370
-3
390
F
  0
LAYER
  5
205
100
AcDbSymbolTableRecord
100
AcDbLayerTableRecord
  2
1451A0A-0Z1-05
 70
0
 62
7
  6
CONTINUOUS
370
-3
390
F
  0
LAYER
  5
206
100
AcDbSymbolTableRecord
100
AcDbLayerTableRecord
  2
1451A0A-0Z1-06
 70
0
 62
7
  6
CONTINUOUS
370
-3
390
F
  0
LAYER
  5
207
100
AcDbSymbolTableRecord
100
AcDbLayerTableRecord
  2
1451A0A-0Z1-07
 70
0
 62
7
  6
CONTINUOUS
370
-3
390
F
  0
LAYER
  5
208
100
AcDbSymbolTableRecord
100
AcDbLayerTableRecord
  2
22_4
 70
0
 62
7
  6
CONTINUOUS
370
-3
390
F
  0
LAYER
  5
209
100
AcDbSymbolTableRecord
100
AcDbLayerTableRecord
  2
22_5
 70
0
 62
7
  6
CONTINUOUS
370
-3
390
F
  0
LAYER
  5
20A
100
AcDbSymbolTableRecord
100
AcDbLayerTableRecord
  2
264X18
 70
0
 62
7
  6
CONTINUOUS
370
-3
390
F
  0
LAYER
  5
20B
100
AcDbSymbolTableRecord
100
AcDbLayerTableRecord
  2
30X15
 70
0
 62
7
  6
CONTINUOUS
370
-3
390
F
  0
LAYER
  5
20C
100
AcDbSymbolTableRecord
100
AcDbLayerTableRecord
  2
315X18
 70
0
 62
7
  6
CONTINUOUS
370
-3
390
F
  0
LAYER
  5
20D
100
AcDbSymbolTableRecord
100
AcDbLayerTableRecord
  2
59X178
 70
0
 62
7
  6
CONTINUOUS
370
-3
390
F
  0
LAYER
  5
20E
100
AcDbSymbolTableRecord
100
AcDbLayerTableRecord
  2
6X15
 70
0
 62
7
  6
CONTINUOUS
370
-3
390
F
  0
LAYER
  5
20F
100
AcDbSymbolTableRecord
100
AcDbLayerTableRecord
  2
925X178
 70
0
 62
7
  6
CONTINUOUS
370
-3
390
F
  0
LAYER
  5
210
100
AcDbSymbolTableRecord
100
AcDbLayerTableRecord
  2
ALL_FEATURES
 70
0
 62
7
  6
CONTINUOUS
370
-3
390
F
  0
LAYER
  5
211
100
AcDbSymbolTableRecord
100
AcDbLayerTableRecord
  2
AXES_FEATURES
 70
0
 62
7
  6
CONTINUOUS
370
-3
390
F
  0
LAYER
  5
212
100
AcDbSymbolTableRecord
100
AcDbLayerTableRecord
  2
CHAMFER_FEATURES
 70
0
 62
7
  6
CONTINUOUS
370
-3
390
F
  0
LAYER
  5
213
100
AcDbSymbolTableRecord
100
AcDbLayerTableRecord
  2
COLOR14
 70
0
 62
7
  6
CONTINUOUS
370
-3
390
F
  0
LAYER
  5
214
100
AcDbSymbolTableRecord
100
AcDbLayerTableRecord
  2
COLOR33
 70
0
 62
7
  6
CONTINUOUS
370
-3
390
F
  0
LAYER
  5
215
100
AcDbSymbolTableRecord
100
AcDbLayerTableRecord
  2
COLOR9
 70
0
 62
7
  6
CONTINUOUS
370
-3
390
F
  0
LAYER
  5
216
100
AcDbSymbolTableRecord
100
AcDbLayerTableRecord
  2
CUT_FEATURES
 70
0
 62
7
  6
CONTINUOUS
370
-3
390
F
  0
LAYER
  5
217
100
AcDbSymbolTableRecord
100
AcDbLayerTableRecord
  2
DATUM_CURVES
 70
0
 62
7
  6
CONTINUOUS
370
-3
390
F
  0
LAYER
  5
218
100
AcDbSymbolTableRecord
100
AcDbLayerTableRecord
  2
DATUM_PLANES
 70
0
 62
7
  6
CONTINUOUS
370
-3
390
F
  0
LAYER
  5
219
100
AcDbSymbolTableRecord
100
AcDbLayerTableRecord
  2
DATUM_POINTS
 70
0
 62
7
  6
CONTINUOUS
370
-3
390
F
  0
LAYER
  5
21A
100
AcDbSymbolTableRecord
100
AcDbLayerTableRecord
  2
DEFAULT_COORDINATE_SYSTEM
 70
0
 62
7
  6
CONTINUOUS
370
-3
390
F
  0
LAYER
  5
21B
100
AcDbSymbolTableRecord
100
AcDbLayerTableRecord
  2
DEFAULT_DATUM_AXES
 70
0
 62
7
  6
CONTINUOUS
370
-3
390
F
  0
LAYER
  5
21C
100
AcDbSymbolTableRecord
100
AcDbLayerTableRecord
  2
DEFAULT_DATUM_CURVES
 70
0
 62
7
  6
CONTINUOUS
370
-3
390
F
  0
LAYER
  5
21D
100
AcDbSymbolTableRecord
100
AcDbLayerTableRecord
  2
DEFAULT_DATUM_PLANES
 70
0
 62
7
  6
CONTINUOUS
370
-3
390
F
  0
LAYER
  5
21E
100
AcDbSymbolTableRecord
100
AcDbLayerTableRecord
  2
DEFAULT_SURFACES
 70
0
 62
7
  6
CONTINUOUS
370
-3
390
F
  0
LAYER
  5
21F
100
AcDbSymbolTableRecord
100
AcDbLayerTableRecord
  2
DIMENSIONS
 70
0
 62
7
  6
CONTINUOUS
370
-3
390
F
  0
LAYER
  5
220
100
AcDbSymbolTableRecord
100
AcDbLayerTableRecord
  2
HIDE
 70
0
 62
7
  6
CONTINUOUS
370
-3
390
F
  0
LAYER
  5
221
100
AcDbSymbolTableRecord
100
AcDbLayerTableRecord
  2
HIDE_10
 70
0
 62
7
  6
CONTINUOUS
370
-3
390
F
  0
LAYER
  5
222
100
AcDbSymbolTableRecord
100
AcDbLayerTableRecord
  2
HIDE_7
 70
0
 62
7
  6
CONTINUOUS
370
-3
390
F
  0
LAYER
  5
223
100
AcDbSymbolTableRecord
100
AcDbLayerTableRecord
  2
HIDE_8
 70
0
 62
7
  6
CONTINUOUS
370
-3
390
F
  0
LAYER
  5
224
100
AcDbSymbolTableRecord
100
AcDbLayerTableRecord
  2
HIDE_9
 70
0
 62
7
  6
CONTINUOUS
370
-3
390
F
  0
LAYER
  5
225
100
AcDbSymbolTableRecord
100
AcDbLayerTableRecord
  2
HOLE_FEATURES
 70
0
 62
7
  6
CONTINUOUS
370
-3
390
F
  0
LAYER
  5
226
100
AcDbSymbolTableRecord
100
AcDbLayerTableRecord
  2
INTFCLR_33883
 70
0
 62
7
  6
CONTINUOUS
370
-3
390
F
  0
LAYER
  5
227
100
AcDbSymbolTableRecord
100
AcDbLayerTableRecord
  2
INTFCLR_33883_1
 70
0
 62
7
  6
CONTINUOUS
370
-3
390
F
  0
LAYER
  5
228
100
AcDbSymbolTableRecord
100
AcDbLayerTableRecord
  2
INTFCLR_33883_2
 70
0
 62
7
  6
CONTINUOUS
370
-3
390
F
  0
LAYER
  5
229
100
AcDbSymbolTableRecord
100
AcDbLayerTableRecord
  2
INTFCLR_33883_3
 70
0
 62
7
  6
CONTINUOUS
370
-3
390
F
  0
LAYER
  5
22A
100
AcDbSymbolTableRecord
100
AcDbLayerTableRecord
  2
INTFCLR_33883_4
 70
0
 62
7
  6
CONTINUOUS
370
-3
390
F
  0
LAYER
  5
22B
100
AcDbSymbolTableRecord
100
AcDbLayerTableRecord
  2
INTFCLR_33883_5
 70
0
 62
7
  6
CONTINUOUS
370
-3
390
F
  0
LAYER
  5
22C
100
AcDbSymbolTableRecord
100
AcDbLayerTableRecord
  2
INTF_BLANK
 70
0
 62
7
  6
CONTINUOUS
370
-3
390
F
  0
LAYER
  5
22D
100
AcDbSymbolTableRecord
100
AcDbLayerTableRecord
  2
NOTES
 70
0
 62
7
  6
CONTINUOUS
370
-3
390
F
  0
LAYER
  5
22E
100
AcDbSymbolTableRecord
100
AcDbLayerTableRecord
  2
PART_REFERENCE_DIMENSIONS
 70
0
 62
7
  6
CONTINUOUS
370
-3
390
F
  0
LAYER
  5
22F
100
AcDbSymbolTableRecord
100
AcDbLayerTableRecord
  2
POINTS
 70
0
 62
7
  6
CONTINUOUS
370
-3
390
F
  0
LAYER
  5
230
100
AcDbSymbolTableRecord
100
AcDbLayerTableRecord
  2
PROTRUSION_FEATURES
 70
0
 62
7
  6
CONTINUOUS
370
-3
390
F
  0
LAYER
  5
231
100
AcDbSymbolTableRecord
100
AcDbLayerTableRecord
  2
REFERENCE_DIMENSIONS
 70
0
 62
7
  6
CONTINUOUS
370
-3
390
F
  0
LAYER
  5
232
100
AcDbSymbolTableRecord
100
AcDbLayerTableRecord
  2
ROUND_FEATURES
 70
0
 62
7
  6
CONTINUOUS
370
-3
390
F
  0
LAYER
  5
233
100
AcDbSymbolTableRecord
100
AcDbLayerTableRecord
  2
S01012-09A
 70
0
 62
7
  6
CONTINUOUS
370
-3
390
F
  0
LAYER
  5
234
100
AcDbSymbolTableRecord
100
AcDbLayerTableRecord
  2
S01012-10A
 70
0
 62
7
  6
CONTINUOUS
370
-3
390
F
  0
LAYER
  5
235
100
AcDbSymbolTableRecord
100
AcDbLayerTableRecord
  2
S02015-05
 70
0
 62
7
  6
CONTINUOUS
370
-3
390
F
  0
LAYER
  5
236
100
AcDbSymbolTableRecord
100
AcDbLayerTableRecord
  2
S02015-16B
 70
0
 62
7
  6
CONTINUOUS
370
-3
390
F
  0
LAYER
  5
237
100
AcDbSymbolTableRecord
100
AcDbLayerTableRecord
  2
S02015-17
 70
0
 62
7
  6
CONTINUOUS
370
-3
390
F
  0
LAYER
  5
238
100
AcDbSymbolTableRecord
100
AcDbLayerTableRecord
  2
S02015-18
 70
0
 62
7
  6
CONTINUOUS
370
-3
390
F
  0
LAYER
  5
239
100
AcDbSymbolTableRecord
100
AcDbLayerTableRecord
  2
S02015-20A
 70
0
 62
7
  6
CONTINUOUS
370
-3
390
F
  0
LAYER
  5
23A
100
AcDbSymbolTableRecord
100
AcDbLayerTableRecord
  2
S02015-31A
 70
0
 62
7
  6
CONTINUOUS
370
-3
390
F
  0
LAYER
  5
23B
100
AcDbSymbolTableRecord
100
AcDbLayerTableRecord
  2
S02015-32A
 70
0
 62
7
  6
CONTINUOUS
370
-3
390
F
  0
LAYER
  5
23C
100
AcDbSymbolTableRecord
100
AcDbLayerTableRecord
  2
S02015-32A_1
 70
0
 62
7
  6
CONTINUOUS
370
-3
390
F
  0
LAYER
  5
23D
100
AcDbSymbolTableRecord
100
AcDbLayerTableRecord
  2
S02015-35
 70
0
 62
7
  6
CONTINUOUS
370
-3
390
F
  0
LAYER
  5
23E
100
AcDbSymbolTableRecord
100
AcDbLayerTableRecord
  2
S15025-04A
 70
0
 62
7
  6
CONTINUOUS
370
-3
390
F
  0
LAYER
  5
23F
100
AcDbSymbolTableRecord
100
AcDbLayerTableRecord
  2
SURFACE
 70
0
 62
7
  6
CONTINUOUS
370
-3
390
F
  0
LAYER
  5
240
100
AcDbSymbolTableRecord
100
AcDbLayerTableRecord
  2
___SHELL
 70
0
 62
7
  6
CONTINUOUS
370
-3
390
F
  0
ENDTAB
  0
TABLE
  2
STYLE
  5
3
100
AcDbSymbolTable
 70
1
  0
STYLE
  5
11
100
AcDbSymbolTableRecord
100
AcDbTextStyleTableRecord
  2
STANDARD
 70
0
 40
0.0
 41
0.8
 50
0.0
 71
0
 42
0.2
  3
txt
  4

  0
STYLE
  5
241
100
AcDbSymbolTableRecord
100
AcDbTextStyleTableRecord
  2
TEXTSTYLE_1
 70
0
 40
0.0
 41
0.8
 50
0.0
 71
0
 42
0.2
  3
gdt
  4

  0
ENDTAB
  0
TABLE
  2
VIEW
  5
6
100
AcDbSymbolTable
 70
0
  0
ENDTAB
  0
TABLE
  2
UCS
  5
7
100
AcDbSymbolTable
 70
0
  0
ENDTAB
  0
TABLE
  2
APPID
  5
9
100
AcDbSymbolTable
 70
1
  0
APPID
  5
242
100
AcDbSymbolTableRecord
100
AcDbRegAppTableRecord
  2
ACAD
 70
0
  0
ENDTAB
  0
TABLE
  2
BLOCK_RECORD
  5
1
100
AcDbSymbolTable
 70
0
  0
BLOCK_RECORD
  5
243
100
AcDbSymbolTableRecord
100
AcDbBlockTableRecord
  2
*Model_Space
  0
BLOCK_RECORD
  5
244
100
AcDbSymbolTableRecord
100
AcDbBlockTableRecord
  2
*Paper_Space
  0
BLOCK_RECORD
  5
245
100
AcDbSymbolTableRecord
100
AcDbBlockTableRecord
  2
_FILLED
  0
ENDTAB
  0
TABLE
  2
DIMSTYLE
  5
A
100
AcDbSymbolTable
 70
1
100
AcDbDimStyleTable
 71
0
  0
DIMSTYLE
105
246
100
AcDbSymbolTableRecord
100
AcDbDimStyleTableRecord
  2
STANDARD
 70
0
  3

  4

 40
1.0
 41
0.1
 42
0.0625
 43
0.38
 44
0.125
 45
0.0
 46
0.0
 47
0.01
 48
0.01
140
0.08
141
0.09
142
0.0
143
25.4
144
1.0
145
0.0
146
1.0
147
0.09
 71
1.0
 72
0.0
 73
1
 74
1
 75
0
 76
0
 77
0
 78
4
 79
1
170
1
171
1
172
0
173
0
174
0
175
0
176
0
177
0
178
0
270
2
179
2
271
2
272
2
273
2
274
2
275
0
280
0
281
0
282
0
283
1
284
4
285
0
286
0
287
3
288
0
340
11
278
46
341
245
342
245
343
245
344
245
  0
ENDTAB
  0
ENDSEC
  0
SECTION
  2
BLOCKS
  0
BLOCK
  5
20
100
AcDbEntity
  8
0
100
AcDbBlockBegin
  2
*Model_Space
 70
0
 10
0.0
 20
0.0
 30
0.0
  3
*Model_Space
  1

  0
ENDBLK
  5
21
100
AcDbEntity
  8
0
100
AcDbBlockEnd
  0
BLOCK
  5
1C
100
AcDbEntity
  8
0
100
AcDbBlockBegin
  2
*Paper_Space
 70
0
 10
0.0
 20
0.0
 30
0.0
  3
*Paper_Space
  1

  0
ENDBLK
  5
1D
100
AcDbEntity
  8
0
100
AcDbBlockEnd
  0
BLOCK
  5
247
100
AcDbEntity
  8
0
100
AcDbBlockBegin
  2
_FILLED
 70
64
 10
0.0
 20
0.0
  3
_FILLED
  1

  0
SOLID
  5
248
100
AcDbEntity
  8
0
  6
BYBLOCK
 62
0
100
AcDbTrace
 10
0.0
 20
0.0
 11
-1.0
 21
0.2
 12
-1.0
 22
-0.2
 13
-1.0
 23
-0.2
  0
ENDBLK
  5
249
100
AcDbEntity
  8
0
  6
BYBLOCK
 62
0
100
AcDbBlockEnd
  0
ENDSEC
  0
SECTION
  2
ENTITIES
  0
MTEXT
  5
24A
100
AcDbEntity
  8
0
100
AcDbMText
 62
2
  6
CONTINUOUS
  7
STANDARD
 71
3
 72
1
 10
5.7507666925
 20
1.391022194
 30
0.0
 11
1.0
 21
0.0
 31
0.0
 73
2
 44
0.9
  1
SCALE  1.000
 40
0.08
 41
0.768
  0
LINE
  5
24B
100
AcDbEntity
  8
0
100
AcDbLine
 62
7
  6
CONTINUOUS
 10
0.0
 20
0.0
 11
0.0
 21
8.5
  0
LINE
  5
24C
100
AcDbEntity
  8
0
100
AcDbLine
 62
7
  6
CONTINUOUS
 10
0.0
 20
0.0
 11
11.0
 21
0.0
  0
LINE
  5
24D
100
AcDbEntity
  8
0
100
AcDbLine
 62
7
  6
CONTINUOUS
 10
0.0
 20
8.5
 11
11.0
 21
8.5
  0
LINE
  5
24E
100
AcDbEntity
  8
0
100
AcDbLine
 62
7
  6
CONTINUOUS
 10
11.0
 20
0.0
 11
11.0
 21
8.5
  0
LINE
  5
24F
100
AcDbEntity
  8
0
100
AcDbLine
 62
7
  6
CONTINUOUS
 10
3.5829693314
 20
2.657156364
 11
3.5911234194
 21
2.649002276
  0
LINE
  5
250
100
AcDbEntity
  8
0
100
AcDbLine
 62
7
  6
CONTINUOUS
 10
3.6379714896
 20
2.6571558248
 11
3.6461250384
 21
2.649002276
  0
LINE
  5
251
100
AcDbEntity
  8
0
100
AcDbLine
 62
7
  6
CONTINUOUS
 10
4.7035488234
 20
2.3800905424
 11
4.7918979226
 21
2.3800905424
  0
LINE
  5
252
100
AcDbEntity
  8
0
100
AcDbLine
 62
7
  6
CONTINUOUS
 10
4.7959468193
 20
2.3800905424
 11
5.0119065134
 21
2.3800905424
  0
LINE
  5
253
100
AcDbEntity
  8
0
100
AcDbLine
 62
7
  6
CONTINUOUS
 10
5.0189305861
 20
2.3800905424
 11
5.0980256126
 21
2.3800905424
  0
LINE
  5
254
100
AcDbEntity
  8
0
100
AcDbLine
 62
7
  6
CONTINUOUS
 10
5.1051729106
 20
2.3800905424
 11
5.3211451232
 21
2.3800905424
  0
LINE
  5
255
100
AcDbEntity
  8
0
100
AcDbLine
 62
7
  6
CONTINUOUS
 10
5.4137974698
 20
2.3800905424
 11
5.4429353104
 21
2.3800905424
  0
LINE
  5
256
100
AcDbEntity
  8
0
100
AcDbLine
 62
7
  6
CONTINUOUS
 10
5.4500826085
 20
2.3800905424
 11
5.6660431664
 21
2.3800905424
  0
LINE
  5
257
100
AcDbEntity
  8
0
100
AcDbLine
 62
7
  6
CONTINUOUS
 10
5.6706433449
 20
2.3800905424
 11
5.8445593976
 21
2.3800905424
  0
LINE
  5
258
100
AcDbEntity
  8
0
100
AcDbLine
 62
7
  6
CONTINUOUS
 10
4.6896029692
 20
2.3858557937
 11
5.0642574449
 21
2.3858555338
  0
LINE
  5
259
100
AcDbEntity
  8
0
100
AcDbLine
 62
7
  6
CONTINUOUS
 10
5.0912522933
 20
2.3858555338
 11
5.3350657406
 21
2.3858555338
  0
LINE
  5
25A
100
AcDbEntity
  8
0
100
AcDbLine
 62
7
  6
CONTINUOUS
 10
3.6647718017
 20
2.3859044421
 11
3.6555421443
 21
2.3859044421
  0
LINE
  5
25B
100
AcDbEntity
  8
0
100
AcDbLine
 62
7
  6
CONTINUOUS
 10
5.4361561638
 20
2.3858555338
 11
5.8585052518
 21
2.3858557937
  0
LINE
  5
25C
100
AcDbEntity
  8
0
100
AcDbLine
 62
7
  6
CONTINUOUS
 10
3.8213212676
 20
2.6156090382
 11
3.8294752428
 21
2.6074550631
  0
LINE
  5
25D
100
AcDbEntity
  8
0
100
AcDbLine
 62
7
  6
CONTINUOUS
 10
3.7992281573
 20
2.6571557446
 11
3.8073816259
 21
2.649002276
  0
LINE
  5
25E
100
AcDbEntity
  8
0
100
AcDbLine
 62
7
  6
CONTINUOUS
 10
3.9158862626
 20
2.6156089031
 11
3.9240401026
 21
2.6074550631
  0
LINE
  5
25F
100
AcDbEntity
  8
0
100
AcDbLine
 62
7
  6
CONTINUOUS
 10
3.3690541105
 20
3.4522054664
 11
3.3690541105
 21
3.2691566388
  0
LINE
  5
260
100
AcDbEntity
  8
0
100
AcDbLine
 62
7
  6
CONTINUOUS
 10
5.0307547932
 20
2.390776937
 11
5.0863308901
 21
2.390776937
  0
LINE
  5
261
100
AcDbEntity
  8
0
100
AcDbLine
 62
7
  6
CONTINUOUS
 10
5.3399871438
 20
2.390776937
 11
5.4312347606
 21
2.390776937
  0
LINE
  5
262
100
AcDbEntity
  8
0
100
AcDbLine
 62
7
  6
CONTINUOUS
 10
4.6814493848
 20
2.3940093781
 11
5.0339872327
 21
2.3940093765
  0
LINE
  5
263
100
AcDbEntity
  8
0
100
AcDbLine
 62
7
  6
CONTINUOUS
 10
5.0830984489
 20
2.3940093781
 11
5.3432195849
 21
2.3940093781
  0
LINE
  5
264
100
AcDbEntity
  8
0
100
AcDbLine
 62
7
  6
CONTINUOUS
 10
5.4280023211
 20
2.3940093765
 11
5.8666588363
 21
2.3940093781
  0
LINE
  5
265
100
AcDbEntity
  8
0
100
AcDbLine
 62
7
  6
CONTINUOUS
 10
4.6305753974
 20
2.3997755818
 11
5.9175328236
 21
2.3997755818
  0
LINE
  5
266
100
AcDbEntity
  8
0
100
AcDbLine
 62
7
  6
CONTINUOUS
 10
4.6120766074
 20
2.4127279106
 11
5.9360316136
 21
2.4127279106
  0
LINE
  5
267
100
AcDbEntity
  8
0
100
AcDbLine
 62
7
  6
CONTINUOUS
 10
5.3440306006
 20
2.4852530645
 11
5.2514846922
 21
2.4852530645
  0
LINE
  5
268
100
AcDbEntity
  8
0
100
AcDbLine
 62
7
  6
CONTINUOUS
 10
4.5856796102
 20
2.4852530645
 11
4.4727158901
 21
2.4852530645
  0
LINE
  5
269
100
AcDbEntity
  8
0
100
AcDbLine
 62
7
  6
CONTINUOUS
 10
4.3264446532
 20
2.4852530645
 11
4.466754061
 21
2.4852530645
  0
LINE
  5
26A
100
AcDbEntity
  8
0
100
AcDbLine
 62
7
  6
CONTINUOUS
 10
5.031781007
 20
2.4852530645
 11
5.1243499604
 21
2.4852530645
  0
LINE
  5
26B
100
AcDbEntity
  8
0
100
AcDbLine
 62
7
  6
CONTINUOUS
 10
5.4697650662
 20
2.4852530645
 11
5.5623181667
 21
2.4852530645
  0
LINE
  5
26C
100
AcDbEntity
  8
0
100
AcDbLine
 62
7
  6
CONTINUOUS
 10
5.9624286109
 20
2.4852530645
 11
5.998531941
 21
2.4852530645
  0
LINE
  5
26D
100
AcDbEntity
  8
0
100
AcDbLine
 62
7
  6
CONTINUOUS
 10
6.0079995111
 20
2.4852530645
 11
6.1885598114
 21
2.4852530645
  0
LINE
  5
26E
100
AcDbEntity
  8
0
100
AcDbLine
 62
7
  6
CONTINUOUS
 10
6.1949813212
 20
2.4852530645
 11
6.224948781
 21
2.4852530645
  0
LINE
  5
26F
100
AcDbEntity
  8
0
100
AcDbLine
 62
7
  6
CONTINUOUS
 10
6.2332925036
 20
2.4887123963
 11
6.198136987
 21
2.4887123963
  0
LINE
  5
270
100
AcDbEntity
  8
0
100
AcDbLine
 62
7
  6
CONTINUOUS
 10
4.3180706621
 20
2.4887123963
 11
4.5844205164
 21
2.4887123963
  0
LINE
  5
271
100
AcDbEntity
  8
0
100
AcDbLine
 62
7
  6
CONTINUOUS
 10
5.0234250495
 20
2.4887123963
 11
5.1327059179
 21
2.4887123963
  0
LINE
  5
272
100
AcDbEntity
  8
0
100
AcDbLine
 62
7
  6
CONTINUOUS
 10
5.2431172122
 20
2.4887123963
 11
5.3523980806
 21
2.4887123963
  0
LINE
  5
273
100
AcDbEntity
  8
0
100
AcDbLine
 62
7
  6
CONTINUOUS
 10
5.4614011822
 20
2.4887123963
 11
5.5706820506
 21
2.4887123963
  0
LINE
  5
274
100
AcDbEntity
  8
0
100
AcDbLine
 62
7
  6
CONTINUOUS
 10
5.9636877049
 20
2.4887123968
 11
6.1969171431
 21
2.4887124001
  0
LINE
  5
275
100
AcDbEntity
  8
0
100
AcDbLine
 62
7
  6
CONTINUOUS
 10
4.5836996106
 20
2.4906930687
 11
5.0214443772
 21
2.4906930687
  0
LINE
  5
276
100
AcDbEntity
  8
0
100
AcDbLine
 62
7
  6
CONTINUOUS
 10
5.1346865903
 20
2.4906930687
 11
5.2411365398
 21
2.4906930687
  0
LINE
  5
277
100
AcDbEntity
  8
0
100
AcDbLine
 62
7
  6
CONTINUOUS
 10
5.354378753
 20
2.4906930687
 11
5.4594205099
 21
2.4906930687
  0
LINE
  5
278
100
AcDbEntity
  8
0
100
AcDbLine
 62
7
  6
CONTINUOUS
 10
5.5726627216
 20
2.4906930672
 11
5.9644086105
 21
2.4906930687
  0
LINE
  5
279
100
AcDbEntity
  8
0
100
AcDbLine
 62
7
  6
CONTINUOUS
 10
4.305304367
 20
2.5014786914
 11
4.5863673789
 21
2.5014786915
  0
LINE
  5
27A
100
AcDbEntity
  8
0
100
AcDbLine
 62
7
  6
CONTINUOUS
 10
5.0106587545
 20
2.5014786914
 11
5.145472213
 21
2.5014786914
  0
LINE
  5
27B
100
AcDbEntity
  8
0
100
AcDbLine
 62
7
  6
CONTINUOUS
 10
5.2303509171
 20
2.5014786914
 11
5.3651643757
 21
2.5014786914
  0
LINE
  5
27C
100
AcDbEntity
  8
0
100
AcDbLine
 62
7
  6
CONTINUOUS
 10
5.4486348871
 20
2.5014786914
 11
5.5834483457
 21
2.5014786914
  0
LINE
  5
27D
100
AcDbEntity
  8
0
100
AcDbLine
 62
7
  6
CONTINUOUS
 10
5.9704862764
 20
2.5014786913
 11
6.2461108042
 21
2.5014786914
  0
LINE
  5
27E
100
AcDbEntity
  8
0
100
AcDbLine
 62
7
  6
CONTINUOUS
 10
6.2495702167
 20
2.50983039
 11
5.9793535706
 21
2.50983039
  0
LINE
  5
27F
100
AcDbEntity
  8
0
100
AcDbLine
 62
7
  6
CONTINUOUS
 10
5.5869077582
 20
2.50983039
 11
5.4451754747
 21
2.50983039
  0
LINE
  5
280
100
AcDbEntity
  8
0
100
AcDbLine
 62
7
  6
CONTINUOUS
 10
5.3686237881
 20
2.50983039
 11
5.2268915047
 21
2.50983039
  0
LINE
  5
281
100
AcDbEntity
  8
0
100
AcDbLine
 62
7
  6
CONTINUOUS
 10
5.1489316255
 20
2.50983039
 11
5.007199342
 21
2.50983039
  0
LINE
  5
282
100
AcDbEntity
  8
0
100
AcDbLine
 62
7
  6
CONTINUOUS
 10
4.5898267913
 20
2.50983039
 11
4.3018449545
 21
2.50983039
  0
LINE
  5
283
100
AcDbEntity
  8
0
100
AcDbLine
 62
7
  6
CONTINUOUS
 10
4.5898267842
 20
2.5163968854
 11
5.007199342
 21
2.5163968854
  0
LINE
  5
284
100
AcDbEntity
  8
0
100
AcDbLine
 62
7
  6
CONTINUOUS
 10
5.1489316255
 20
2.5163968854
 11
5.2253494577
 21
2.5163968854
  0
LINE
  5
285
100
AcDbEntity
  8
0
100
AcDbLine
 62
7
  6
CONTINUOUS
 10
5.3686237881
 20
2.5163968854
 11
5.4451754747
 21
2.5163968854
  0
LINE
  5
286
100
AcDbEntity
  8
0
100
AcDbLine
 62
7
  6
CONTINUOUS
 10
5.5869077582
 20
2.5163968854
 11
5.9834033503
 21
2.5163968854
  0
LINE
  5
287
100
AcDbEntity
  8
0
100
AcDbLine
 62
7
  6
CONTINUOUS
 10
6.4354714334
 20
2.5745113395
 11
4.1126367877
 21
2.5745113395
  0
LINE
  5
288
100
AcDbEntity
  8
0
100
AcDbLine
 62
7
  6
CONTINUOUS
 10
4.1008221046
 20
2.5812825589
 11
6.4472861164
 21
2.5812825589
  0
LINE
  5
289
100
AcDbEntity
  8
0
100
AcDbLine
 62
7
  6
CONTINUOUS
 10
6.5362193377
 20
2.5966247253
 11
4.0118881038
 21
2.5966199133
  0
LINE
  5
28A
100
AcDbEntity
  8
0
100
AcDbLine
 62
7
  6
CONTINUOUS
 10
4.4650403275
 20
2.6016897709
 11
4.3790152321
 21
2.6016897709
  0
LINE
  5
28B
100
AcDbEntity
  8
0
100
AcDbLine
 62
7
  6
CONTINUOUS
 10
4.2066843257
 20
2.6016897709
 11
4.1206592303
 21
2.6016897709
  0
LINE
  5
28C
100
AcDbEntity
  8
0
100
AcDbLine
 62
7
  6
CONTINUOUS
 10
3.8434147252
 20
2.6016897709
 11
3.9294285492
 21
2.6016897709
  0
LINE
  5
28D
100
AcDbEntity
  8
0
100
AcDbLine
 62
7
  6
CONTINUOUS
 10
3.9379628948
 20
2.6016897709
 11
4.0240100994
 21
2.6016897709
  0
LINE
  5
28E
100
AcDbEntity
  8
0
100
AcDbLine
 62
7
  6
CONTINUOUS
 10
4.6954352134
 20
2.6016897709
 11
4.7814607226
 21
2.6016897709
  0
LINE
  5
28F
100
AcDbEntity
  8
0
100
AcDbLine
 62
7
  6
CONTINUOUS
 10
5.0483452622
 20
2.6016897709
 11
5.1343923972
 21
2.6016897709
  0
LINE
  5
290
100
AcDbEntity
  8
0
100
AcDbLine
 62
7
  6
CONTINUOUS
 10
5.4137167806
 20
2.6016897709
 11
5.4997620021
 21
2.6016897709
  0
LINE
  5
291
100
AcDbEntity
  8
0
100
AcDbLine
 62
7
  6
CONTINUOUS
 10
5.7666519165
 20
2.6016897709
 11
5.8526685896
 21
2.6016897709
  0
LINE
  5
292
100
AcDbEntity
  8
0
100
AcDbLine
 62
7
  6
CONTINUOUS
 10
6.0830574245
 20
2.6016897709
 11
6.1691034581
 21
2.6016897709
  0
LINE
  5
293
100
AcDbEntity
  8
0
100
AcDbLine
 62
7
  6
CONTINUOUS
 10
6.3414155049
 20
2.6016897709
 11
6.4274573813
 21
2.6016897709
  0
LINE
  5
294
100
AcDbEntity
  8
0
100
AcDbLine
 62
7
  6
CONTINUOUS
 10
6.5240966336
 20
2.6016897709
 11
6.6101105475
 21
2.6016897709
  0
LINE
  5
295
100
AcDbEntity
  8
0
100
AcDbLine
 62
7
  6
CONTINUOUS
 10
6.6186845205
 20
2.6016897709
 11
6.7046886472
 21
2.6016897709
  0
LINE
  5
296
100
AcDbEntity
  8
0
100
AcDbLine
 62
7
  6
CONTINUOUS
 10
6.515545134
 20
2.6036893233
 11
6.4360130331
 21
2.6036893233
  0
LINE
  5
297
100
AcDbEntity
  8
0
100
AcDbLine
 62
7
  6
CONTINUOUS
 10
4.0325630714
 20
2.6036893155
 11
4.1120952037
 21
2.6036893155
  0
LINE
  5
298
100
AcDbEntity
  8
0
100
AcDbLine
 62
7
  6
CONTINUOUS
 10
4.2152483522
 20
2.6036893155
 11
4.3704512055
 21
2.6036893155
  0
LINE
  5
299
100
AcDbEntity
  8
0
100
AcDbLine
 62
7
  6
CONTINUOUS
 10
4.473604354
 20
2.6036893155
 11
4.6868713937
 21
2.6036893155
  0
LINE
  5
29A
100
AcDbEntity
  8
0
100
AcDbLine
 62
7
  6
CONTINUOUS
 10
4.7900245423
 20
2.6036893155
 11
5.0397922554
 21
2.6036893155
  0
LINE
  5
29B
100
AcDbEntity
  8
0
100
AcDbLine
 62
7
  6
CONTINUOUS
 10
5.142945404
 20
2.6036893155
 11
5.4051628171
 21
2.6036893155
  0
LINE
  5
29C
100
AcDbEntity
  8
0
100
AcDbLine
 62
7
  6
CONTINUOUS
 10
5.5083159656
 20
2.6036893155
 11
5.7580836788
 21
2.6036893155
  0
LINE
  5
29D
100
AcDbEntity
  8
0
100
AcDbLine
 62
7
  6
CONTINUOUS
 10
5.8612368273
 20
2.6036893155
 11
6.074503867
 21
2.6036893155
  0
LINE
  5
29E
100
AcDbEntity
  8
0
100
AcDbLine
 62
7
  6
CONTINUOUS
 10
6.1776570156
 20
2.6036893155
 11
6.3328598688
 21
2.6036893155
  0
LINE
  5
29F
100
AcDbEntity
  8
0
100
AcDbLine
 62
7
  6
CONTINUOUS
 10
4.1067253835
 20
2.6074550631
 11
4.2206181724
 21
2.6074550631
  0
LINE
  5
2A0
100
AcDbEntity
  8
0
100
AcDbLine
 62
7
  6
CONTINUOUS
 10
4.6815075966
 20
2.6074550631
 11
4.7953943625
 21
2.6074550631
  0
LINE
  5
2A1
100
AcDbEntity
  8
0
100
AcDbLine
 62
7
  6
CONTINUOUS
 10
5.3997929969
 20
2.6074550631
 11
5.5136857858
 21
2.6074550631
  0
LINE
  5
2A2
100
AcDbEntity
  8
0
100
AcDbLine
 62
7
  6
CONTINUOUS
 10
6.0691400699
 20
2.6074550631
 11
6.1830268358
 21
2.6074550631
  0
LINE
  5
2A3
100
AcDbEntity
  8
0
100
AcDbLine
 62
7
  6
CONTINUOUS
 10
4.3650813853
 20
2.6074550631
 11
4.4789741742
 21
2.6074550631
  0
LINE
  5
2A4
100
AcDbEntity
  8
0
100
AcDbLine
 62
7
  6
CONTINUOUS
 10
3.8294752428
 20
2.6074550631
 11
4.0379328916
 21
2.6074550631
  0
LINE
  5
2A5
100
AcDbEntity
  8
0
100
AcDbLine
 62
7
  6
CONTINUOUS
 10
5.0344766356
 20
2.6074550631
 11
5.1483152242
 21
2.6074550631
  0
LINE
  5
2A6
100
AcDbEntity
  8
0
100
AcDbLine
 62
7
  6
CONTINUOUS
 10
5.7527138586
 20
2.6074550631
 11
5.8666066475
 21
2.6074550631
  0
LINE
  5
2A7
100
AcDbEntity
  8
0
100
AcDbLine
 62
7
  6
CONTINUOUS
 10
6.327544249
 20
2.6074550631
 11
6.4413828354
 21
2.6074550609
  0
LINE
  5
2A8
100
AcDbEntity
  8
0
100
AcDbLine
 62
7
  6
CONTINUOUS
 10
6.5101753295
 20
2.6074550631
 11
6.718633142
 21
2.6074552267
  0
LWPOLYLINE
  5
2A9
100
AcDbEntity
  8
0
100
AcDbPolyline
 62
7
  6
CONTINUOUS
 90
18
 70
0
 10
4.2933111429
 20
2.5475759439
 10
4.2932705903
 20
2.547584749
 10
4.2932455739
 20
2.5475904648
 10
4.2933022186
 20
2.5475768092
 10
4.2934207163
 20
2.5475458152
 10
4.2936139302
 20
2.5474907041
 10
4.2939598778
 20
2.5473803599
 10
4.2944464511
 20
2.5472019608
 10
4.295052888
 20
2.5469421251
 10
4.295821374
 20
2.546550175
 10
4.2967501253
 20
2.5459729596
 10
4.2977274707
 20
2.5452214761
 10
4.2986839251
 20
2.5443040627
 10
4.2996393167
 20
2.5431360592
 10
4.3005369169
 20
2.541667165
 10
4.3012504193
 20
2.5399646796
 10
4.3017057565
 20
2.5380722339
 10
4.3018442717
 20
2.5362684203
  0
LWPOLYLINE
  5
2AA
100
AcDbEntity
  8
0
100
AcDbPolyline
 62
7
  6
CONTINUOUS
 90
15
 70
0
 10
4.3432051537
 20
2.5460172009
 10
4.3431348681
 20
2.5460400605
 10
4.3430504788
 20
2.5460691477
 10
4.3431137491
 20
2.5460451117
 10
4.3432975857
 20
2.5459674278
 10
4.3436028139
 20
2.5458229775
 10
4.3441007759
 20
2.5455528135
 10
4.3447779964
 20
2.5451200653
 10
4.345549153
 20
2.5445291821
 10
4.3463906984
 20
2.5437433989
 10
4.3473398704
 20
2.542622823
 10
4.3482864368
 20
2.5411156206
 10
4.3490286923
 20
2.539364494
 10
4.3494829899
 20
2.5374669898
 10
4.349615427
 20
2.5357122855
  0
LWPOLYLINE
  5
2AB
100
AcDbEntity
  8
0
100
AcDbPolyline
 62
7
  6
CONTINUOUS
 90
12
 70
0
 10
4.442923848
 20
2.5439488201
 10
4.4428621108
 20
2.5439741044
 10
4.442819846
 20
2.5439918874
 10
4.4430626068
 20
2.5438632836
 10
4.4435696575
 20
2.5435447229
 10
4.4442235508
 20
2.5430497254
 10
4.4449662002
 20
2.5423647685
 10
4.4458142026
 20
2.541384532
 10
4.4466879462
 20
2.5400480758
 10
4.4474216203
 20
2.5384336081
 10
4.4479219875
 20
2.5365633371
 10
4.4480976799
 20
2.5345688834
  0
LINE
  5
2AC
100
AcDbEntity
  8
0
100
AcDbLine
 62
7
  6
CONTINUOUS
 10
4.0557503213
 20
2.6571557667
 11
4.063903812
 21
2.649002276
  0
LINE
  5
2AD
100
AcDbEntity
  8
0
100
AcDbLine
 62
7
  6
CONTINUOUS
 10
4.0985715435
 20
2.6156089031
 11
4.1067253835
 21
2.6074550631
  0
LINE
  5
2AE
100
AcDbEntity
  8
0
100
AcDbLine
 62
7
  6
CONTINUOUS
 10
4.305304367
 20
2.5014786914
 11
4.3180706621
 21
2.4887123963
  0
LINE
  5
2AF
100
AcDbEntity
  8
0
100
AcDbLine
 62
7
  6
CONTINUOUS
 10
4.3530743775
 20
2.5014786914
 11
4.3658406726
 21
2.4887123963
  0
LINE
  5
2B0
100
AcDbEntity
  8
0
100
AcDbLine
 62
7
  6
CONTINUOUS
 10
3.6239214569
 20
2.6218443289
 11
3.6238348804
 21
2.6432369392
  0
LINE
  5
2B1
100
AcDbEntity
  8
0
100
AcDbLine
 62
7
  6
CONTINUOUS
 10
3.5772037168
 20
2.7059956054
 11
3.5772037168
 21
2.6710757889
  0
LINE
  5
2B2
100
AcDbEntity
  8
0
100
AcDbLine
 62
7
  6
CONTINUOUS
 10
3.6322053358
 20
2.7059956054
 11
3.6322053358
 21
2.6710757889
  0
LINE
  5
2B3
100
AcDbEntity
  8
0
100
AcDbLine
 62
7
  6
CONTINUOUS
 10
4.3018449545
 20
2.5362638592
 11
4.302171208
 21
2.5363167899
  0
LINE
  5
2B4
100
AcDbEntity
  8
0
100
AcDbLine
 62
7
  6
CONTINUOUS
 10
7.2990541105
 20
2.7343600634
 11
7.1510541105
 21
2.7266037121
  0
LINE
  5
2B5
100
AcDbEntity
  8
0
100
AcDbLine
 62
7
  6
CONTINUOUS
 10
6.1911806758
 20
2.6156089031
 11
6.0609802068
 21
2.6156089031
  0
LINE
  5
2B6
100
AcDbEntity
  8
0
100
AcDbLine
 62
7
  6
CONTINUOUS
 10
5.5218396259
 20
2.6156089031
 11
5.3916391569
 21
2.6156089031
  0
LINE
  5
2B7
100
AcDbEntity
  8
0
100
AcDbLine
 62
7
  6
CONTINUOUS
 10
3.8213212676
 20
2.6156090382
 11
4.0460867316
 21
2.6156089031
  0
LINE
  5
2B8
100
AcDbEntity
  8
0
100
AcDbLine
 62
7
  6
CONTINUOUS
 10
4.3569275453
 20
2.6156089031
 11
4.4871280143
 21
2.6156089031
  0
LINE
  5
2B9
100
AcDbEntity
  8
0
100
AcDbLine
 62
7
  6
CONTINUOUS
 10
5.0262685952
 20
2.6156089031
 11
5.1564690642
 21
2.6156089031
  0
LINE
  5
2BA
100
AcDbEntity
  8
0
100
AcDbLine
 62
7
  6
CONTINUOUS
 10
5.7445600186
 20
2.6156089031
 11
5.8747604876
 21
2.6156089031
  0
LINE
  5
2BB
100
AcDbEntity
  8
0
100
AcDbLine
 62
7
  6
CONTINUOUS
 10
6.3193362086
 20
2.6156089031
 11
6.4495366776
 21
2.6156089031
  0
LINE
  5
2BC
100
AcDbEntity
  8
0
100
AcDbLine
 62
7
  6
CONTINUOUS
 10
6.5020214895
 20
2.615608903
 11
6.7267868183
 21
2.6156089031
  0
LINE
  5
2BD
100
AcDbEntity
  8
0
100
AcDbLine
 62
7
  6
CONTINUOUS
 10
4.8035482024
 20
2.615608903
 11
4.6733477335
 21
2.615608903
  0
LINE
  5
2BE
100
AcDbEntity
  8
0
100
AcDbLine
 62
7
  6
CONTINUOUS
 10
4.2287720125
 20
2.6156089031
 11
4.0985715435
 21
2.6156089031
  0
LINE
  5
2BF
100
AcDbEntity
  8
0
100
AcDbLine
 62
7
  6
CONTINUOUS
 10
6.4972827989
 20
2.623383647
 11
6.4542753682
 21
2.6233836471
  0
LINE
  5
2C0
100
AcDbEntity
  8
0
100
AcDbLine
 62
7
  6
CONTINUOUS
 10
4.0508254222
 20
2.623383647
 11
4.0938328529
 21
2.623383647
  0
LINE
  5
2C1
100
AcDbEntity
  8
0
100
AcDbLine
 62
7
  6
CONTINUOUS
 10
4.233510703
 20
2.623383647
 11
4.3521888547
 21
2.623383647
  0
LINE
  5
2C2
100
AcDbEntity
  8
0
100
AcDbLine
 62
7
  6
CONTINUOUS
 10
4.4918667048
 20
2.623383647
 11
4.6686090429
 21
2.623383647
  0
LINE
  5
2C3
100
AcDbEntity
  8
0
100
AcDbLine
 62
7
  6
CONTINUOUS
 10
4.8082868931
 20
2.623383647
 11
5.0208835867
 21
2.623383647
  0
LINE
  5
2C4
100
AcDbEntity
  8
0
100
AcDbLine
 62
7
  6
CONTINUOUS
 10
5.1612077548
 20
2.623383647
 11
5.3869004663
 21
2.623383647
  0
LINE
  5
2C5
100
AcDbEntity
  8
0
100
AcDbLine
 62
7
  6
CONTINUOUS
 10
5.5265783164
 20
2.623383647
 11
5.739821328
 21
2.623383647
  0
LINE
  5
2C6
100
AcDbEntity
  8
0
100
AcDbLine
 62
7
  6
CONTINUOUS
 10
5.8794991781
 20
2.623383647
 11
6.0562415162
 21
2.623383647
  0
LINE
  5
2C7
100
AcDbEntity
  8
0
100
AcDbLine
 62
7
  6
CONTINUOUS
 10
6.1959193664
 20
2.623383647
 11
6.3135703014
 21
2.623383647
  0
LINE
  5
2C8
100
AcDbEntity
  8
0
100
AcDbLine
 62
7
  6
CONTINUOUS
 10
6.7325527256
 20
2.6295286206
 11
6.4962555822
 21
2.6295286206
  0
LINE
  5
2C9
100
AcDbEntity
  8
0
100
AcDbLine
 62
7
  6
CONTINUOUS
 10
6.4553025848
 20
2.6295286206
 11
6.3135703014
 21
2.6295286206
  0
LINE
  5
2CA
100
AcDbEntity
  8
0
100
AcDbLine
 62
7
  6
CONTINUOUS
 10
6.196946583
 20
2.6295286206
 11
6.0552142996
 21
2.6295286206
  0
LINE
  5
2CB
100
AcDbEntity
  8
0
100
AcDbLine
 62
7
  6
CONTINUOUS
 10
5.8805263948
 20
2.6295286206
 11
5.7387941113
 21
2.6295286206
  0
LINE
  5
2CC
100
AcDbEntity
  8
0
100
AcDbLine
 62
7
  6
CONTINUOUS
 10
5.5276055331
 20
2.6295286206
 11
5.3858732496
 21
2.6295286206
  0
LINE
  5
2CD
100
AcDbEntity
  8
0
100
AcDbLine
 62
7
  6
CONTINUOUS
 10
5.1622349714
 20
2.6295286206
 11
5.020502688
 21
2.6295286206
  0
LINE
  5
2CE
100
AcDbEntity
  8
0
100
AcDbLine
 62
7
  6
CONTINUOUS
 10
4.8093141097
 20
2.6295286206
 11
4.6675818263
 21
2.6295286206
  0
LINE
  5
2CF
100
AcDbEntity
  8
0
100
AcDbLine
 62
7
  6
CONTINUOUS
 10
4.4928939215
 20
2.6295286206
 11
4.351161638
 21
2.6295286206
  0
LINE
  5
2D0
100
AcDbEntity
  8
0
100
AcDbLine
 62
7
  6
CONTINUOUS
 10
4.2345379197
 20
2.6295286206
 11
4.0928056362
 21
2.6295286206
  0
LINE
  5
2D1
100
AcDbEntity
  8
0
100
AcDbLine
 62
7
  6
CONTINUOUS
 10
4.0518526388
 20
2.6295286206
 11
3.8155554955
 21
2.6295286206
  0
LINE
  5
2D2
100
AcDbEntity
  8
0
100
AcDbLine
 62
7
  6
CONTINUOUS
 10
4.0518526388
 20
2.641029516
 11
4.0928056362
 21
2.641029516
  0
LINE
  5
2D3
100
AcDbEntity
  8
0
100
AcDbLine
 62
7
  6
CONTINUOUS
 10
4.2345379197
 20
2.641029516
 11
4.351161638
 21
2.641029516
  0
LINE
  5
2D4
100
AcDbEntity
  8
0
100
AcDbLine
 62
7
  6
CONTINUOUS
 10
4.4943866545
 20
2.641029516
 11
4.6675818263
 21
2.641029516
  0
LINE
  5
2D5
100
AcDbEntity
  8
0
100
AcDbLine
 62
7
  6
CONTINUOUS
 10
4.8093141097
 20
2.641029516
 11
5.020502688
 21
2.641029516
  0
LINE
  5
2D6
100
AcDbEntity
  8
0
100
AcDbLine
 62
7
  6
CONTINUOUS
 10
5.1622349714
 20
2.641029516
 11
5.3858732496
 21
2.641029516
  0
LINE
  5
2D7
100
AcDbEntity
  8
0
100
AcDbLine
 62
7
  6
CONTINUOUS
 10
5.5276055331
 20
2.641029516
 11
5.7387941113
 21
2.641029516
  0
LINE
  5
2D8
100
AcDbEntity
  8
0
100
AcDbLine
 62
7
  6
CONTINUOUS
 10
5.8805263948
 20
2.641029516
 11
6.0537215672
 21
2.641029516
  0
LINE
  5
2D9
100
AcDbEntity
  8
0
100
AcDbLine
 62
7
  6
CONTINUOUS
 10
6.196946583
 20
2.641029516
 11
6.3135703014
 21
2.641029516
  0
LINE
  5
2DA
100
AcDbEntity
  8
0
100
AcDbLine
 62
7
  6
CONTINUOUS
 10
6.4553025848
 20
2.6410295165
 11
6.4962555822
 21
2.6410295158
  0
LINE
  5
2DB
100
AcDbEntity
  8
0
100
AcDbLine
 62
7
  6
CONTINUOUS
 10
6.1359786945
 20
2.6432369392
 11
6.0263027549
 21
2.6432369392
  0
LINE
  5
2DC
100
AcDbEntity
  8
0
100
AcDbLine
 62
7
  6
CONTINUOUS
 10
4.9110384986
 20
2.6432369392
 11
4.8015121752
 21
2.6432369392
  0
LINE
  5
2DD
100
AcDbEntity
  8
0
100
AcDbLine
 62
7
  6
CONTINUOUS
 10
4.5218054661
 20
2.6432369392
 11
4.4121295266
 21
2.6432369392
  0
LINE
  5
2DE
100
AcDbEntity
  8
0
100
AcDbLine
 62
7
  6
CONTINUOUS
 10
3.6050429124
 20
2.6432369392
 11
3.6564447343
 21
2.6432369392
  0
LINE
  5
2DF
100
AcDbEntity
  8
0
100
AcDbLine
 62
7
  6
CONTINUOUS
 10
3.6600514569
 20
2.6432369392
 11
3.7697135454
 21
2.6432369392
  0
LINE
  5
2E0
100
AcDbEntity
  8
0
100
AcDbLine
 62
7
  6
CONTINUOUS
 10
3.8213287746
 20
2.6432369392
 11
3.9309494027
 21
2.6432369392
  0
LINE
  5
2E1
100
AcDbEntity
  8
0
100
AcDbLine
 62
7
  6
CONTINUOUS
 10
4.0778253827
 20
2.6432369392
 11
4.1874971668
 21
2.6432369392
  0
LINE
  5
2E2
100
AcDbEntity
  8
0
100
AcDbLine
 62
7
  6
CONTINUOUS
 10
5.2192368766
 20
2.6432369392
 11
5.3288713444
 21
2.6432369392
  0
LINE
  5
2E3
100
AcDbEntity
  8
0
100
AcDbLine
 62
7
  6
CONTINUOUS
 10
5.6370076119
 20
2.6432369392
 11
5.7466581563
 21
2.6432369392
  0
LINE
  5
2E4
100
AcDbEntity
  8
0
100
AcDbLine
 62
7
  6
CONTINUOUS
 10
6.3606108666
 20
2.6432369392
 11
6.470283026
 21
2.6432369392
  0
LINE
  5
2E5
100
AcDbEntity
  8
0
100
AcDbLine
 62
7
  6
CONTINUOUS
 10
6.6171530838
 20
2.6432369392
 11
6.7267851809
 21
2.6432369392
  0
LINE
  5
2E6
100
AcDbEntity
  8
0
100
AcDbLine
 62
7
  6
CONTINUOUS
 10
6.7783986691
 20
2.6432369392
 11
6.8880527707
 21
2.6432369392
  0
LINE
  5
2E7
100
AcDbEntity
  8
0
100
AcDbLine
 62
7
  6
CONTINUOUS
 10
6.8912174347
 20
2.6432369392
 11
6.9430653087
 21
2.6432369392
  0
LINE
  5
2E8
100
AcDbEntity
  8
0
100
AcDbLine
 62
7
  6
CONTINUOUS
 10
3.6455854018
 20
2.649002276
 11
3.5911234194
 21
2.649002276
  0
LINE
  5
2E9
100
AcDbEntity
  8
0
100
AcDbLine
 62
7
  6
CONTINUOUS
 10
3.6461250384
 20
2.649002276
 11
3.7836399639
 21
2.649002276
  0
LINE
  5
2EA
100
AcDbEntity
  8
0
100
AcDbLine
 62
7
  6
CONTINUOUS
 10
3.8073816259
 20
2.649002276
 11
3.9448965514
 21
2.649002276
  0
LINE
  5
2EB
100
AcDbEntity
  8
0
100
AcDbLine
 62
7
  6
CONTINUOUS
 10
4.063903812
 20
2.649002276
 11
4.2014187375
 21
2.649002276
  0
LINE
  5
2EC
100
AcDbEntity
  8
0
100
AcDbLine
 62
7
  6
CONTINUOUS
 10
4.3982100336
 20
2.649002276
 11
4.5357249591
 21
2.649002276
  0
LINE
  5
2ED
100
AcDbEntity
  8
0
100
AcDbLine
 62
7
  6
CONTINUOUS
 10
4.7875178742
 20
2.649002276
 11
4.9250327997
 21
2.649002276
  0
LINE
  5
2EE
100
AcDbEntity
  8
0
100
AcDbLine
 62
7
  6
CONTINUOUS
 10
5.2052966478
 20
2.649002276
 11
5.3428115733
 21
2.649002276
  0
LINE
  5
2EF
100
AcDbEntity
  8
0
100
AcDbLine
 62
7
  6
CONTINUOUS
 10
5.6230754213
 20
2.649002276
 11
5.7605903469
 21
2.649002276
  0
LINE
  5
2F0
100
AcDbEntity
  8
0
100
AcDbLine
 62
7
  6
CONTINUOUS
 10
6.0123832619
 20
2.649002276
 11
6.1498981875
 21
2.649002276
  0
LINE
  5
2F1
100
AcDbEntity
  8
0
100
AcDbLine
 62
7
  6
CONTINUOUS
 10
6.3466894835
 20
2.649002276
 11
6.4842044091
 21
2.649002276
  0
LINE
  5
2F2
100
AcDbEntity
  8
0
100
AcDbLine
 62
7
  6
CONTINUOUS
 10
6.7644682571
 20
2.649002276
 11
6.9019831827
 21
2.649002276
  0
LINE
  5
2F3
100
AcDbEntity
  8
0
100
AcDbLine
 62
7
  6
CONTINUOUS
 10
6.9025228192
 20
2.649002276
 11
6.9569848017
 21
2.649002276
  0
LINE
  5
2F4
100
AcDbEntity
  8
0
100
AcDbLine
 62
7
  6
CONTINUOUS
 10
6.6032116438
 20
2.6490023018
 11
6.740726621
 21
2.6490023018
  0
LINE
  5
2F5
100
AcDbEntity
  8
0
100
AcDbLine
 62
7
  6
CONTINUOUS
 10
6.9651388897
 20
2.657156364
 11
6.7563147664
 21
2.6571557667
  0
LINE
  5
2F6
100
AcDbEntity
  8
0
100
AcDbLine
 62
7
  6
CONTINUOUS
 10
6.4923578998
 20
2.6571557667
 11
6.3385359928
 21
2.6571557667
  0
LINE
  5
2F7
100
AcDbEntity
  8
0
100
AcDbLine
 62
7
  6
CONTINUOUS
 10
6.1580516782
 20
2.6571557667
 11
6.0042297712
 21
2.6571557667
  0
LINE
  5
2F8
100
AcDbEntity
  8
0
100
AcDbLine
 62
7
  6
CONTINUOUS
 10
5.7687438376
 20
2.6571557667
 11
5.6149219307
 21
2.6571557667
  0
LINE
  5
2F9
100
AcDbEntity
  8
0
100
AcDbLine
 62
7
  6
CONTINUOUS
 10
5.350965064
 20
2.6571557667
 11
5.1971431571
 21
2.6571557667
  0
LINE
  5
2FA
100
AcDbEntity
  8
0
100
AcDbLine
 62
7
  6
CONTINUOUS
 10
6.5950578302
 20
2.6571561154
 11
6.7488804346
 21
2.6571561154
  0
LINE
  5
2FB
100
AcDbEntity
  8
0
100
AcDbLine
 62
7
  6
CONTINUOUS
 10
3.7917935127
 20
2.6571558248
 11
3.5829699287
 21
2.6571557667
  0
LINE
  5
2FC
100
AcDbEntity
  8
0
100
AcDbLine
 62
7
  6
CONTINUOUS
 10
4.9331862904
 20
2.6571557667
 11
4.7793643835
 21
2.6571557667
  0
LINE
  5
2FD
100
AcDbEntity
  8
0
100
AcDbLine
 62
7
  6
CONTINUOUS
 10
4.54387845
 20
2.6571557668
 11
4.3900565427
 21
2.6571557668
  0
LINE
  5
2FE
100
AcDbEntity
  8
0
100
AcDbLine
 62
7
  6
CONTINUOUS
 10
4.2095722282
 20
2.6571557667
 11
4.0557503213
 21
2.6571557667
  0
LINE
  5
2FF
100
AcDbEntity
  8
0
100
AcDbLine
 62
7
  6
CONTINUOUS
 10
3.95305002
 20
2.6571557446
 11
3.7992281573
 21
2.6571557446
  0
LINE
  5
300
100
AcDbEntity
  8
0
100
AcDbLine
 62
7
  6
CONTINUOUS
 10
6.4981241117
 20
2.6710757889
 11
6.3327697809
 21
2.6710757889
  0
LINE
  5
301
100
AcDbEntity
  8
0
100
AcDbLine
 62
7
  6
CONTINUOUS
 10
6.1638178901
 20
2.6710757889
 11
5.9984635593
 21
2.6710757889
  0
LINE
  5
302
100
AcDbEntity
  8
0
100
AcDbLine
 62
7
  6
CONTINUOUS
 10
5.7745100495
 20
2.6710757889
 11
5.6091557188
 21
2.6710757889
  0
LINE
  5
303
100
AcDbEntity
  8
0
100
AcDbLine
 62
7
  6
CONTINUOUS
 10
5.3567312759
 20
2.6710757889
 11
5.1913769452
 21
2.6710757889
  0
LINE
  5
304
100
AcDbEntity
  8
0
100
AcDbLine
 62
7
  6
CONTINUOUS
 10
4.9389525023
 20
2.6710757889
 11
4.7735981716
 21
2.6710757889
  0
LINE
  5
305
100
AcDbEntity
  8
0
100
AcDbLine
 62
7
  6
CONTINUOUS
 10
4.5496446617
 20
2.6710757889
 11
4.384290331
 21
2.6710757889
  0
LINE
  5
306
100
AcDbEntity
  8
0
100
AcDbLine
 62
7
  6
CONTINUOUS
 10
4.2153384401
 20
2.6710757889
 11
4.0499841094
 21
2.6710757889
  0
LINE
  5
307
100
AcDbEntity
  8
0
100
AcDbLine
 62
7
  6
CONTINUOUS
 10
3.958816254
 20
2.6710757889
 11
3.5772037168
 21
2.6710757889
  0
LINE
  5
308
100
AcDbEntity
  8
0
100
AcDbLine
 62
7
  6
CONTINUOUS
 10
6.589291967
 20
2.6710757889
 11
6.9709045042
 21
2.6710757889
  0
LINE
  5
309
100
AcDbEntity
  8
0
100
AcDbLine
 62
7
  6
CONTINUOUS
 10
3.5088910368
 20
2.7059956054
 11
7.0400772658
 21
2.7059956054
  0
LINE
  5
30A
100
AcDbEntity
  8
0
100
AcDbLine
 62
7
  6
CONTINUOUS
 10
3.5056916733
 20
2.7062392347
 11
7.0424165477
 21
2.7062392347
  0
LINE
  5
30B
100
AcDbEntity
  8
0
100
AcDbLine
 62
7
  6
CONTINUOUS
 10
3.3970541105
 20
2.7266037121
 11
7.1510541105
 21
2.7266037121
  0
LINE
  5
30C
100
AcDbEntity
  8
0
100
AcDbLine
 62
7
  6
CONTINUOUS
 10
3.2490541105
 20
2.7343600634
 11
7.2990541105
 21
2.7343600634
  0
LINE
  5
30D
100
AcDbEntity
  8
0
100
AcDbLine
 62
7
  6
CONTINUOUS
 10
3.5727361803
 20
2.7013193172
 11
3.572781239
 21
2.7013193144
  0
LINE
  5
30E
100
AcDbEntity
  8
0
100
AcDbLine
 62
7
  6
CONTINUOUS
 10
3.2490541105
 20
2.7343600634
 11
3.3970541105
 21
2.7266037121
  0
LWPOLYLINE
  5
30F
100
AcDbEntity
  8
0
100
AcDbPolyline
 62
7
  6
CONTINUOUS
 90
14
 70
0
 10
5.9756669052
 20
2.5274293713
 10
5.975644084
 20
2.5274335479
 10
5.9756973624
 20
2.5274222987
 10
5.9759888262
 20
2.5273440923
 10
5.9764817548
 20
2.5271764122
 10
5.9771991629
 20
2.5268680873
 10
5.978105956
 20
2.5263718797
 10
5.9790912281
 20
2.5256858951
 10
5.9800896811
 20
2.524800079
 10
5.9811668413
 20
2.5235480554
 10
5.9822024321
 20
2.5218573042
 10
5.9829528232
 20
2.5199300636
 10
5.9833439525
 20
2.5179151162
 10
5.9834029706
 20
2.5167484685
  0
LINE
  5
310
100
AcDbEntity
  8
0
100
AcDbLine
 62
7
  6
CONTINUOUS
 10
6.2495027678
 20
2.5363167899
 11
6.2495702161
 21
2.5363041419
  0
LWPOLYLINE
  5
311
100
AcDbEntity
  8
0
100
AcDbPolyline
 62
7
  6
CONTINUOUS
 90
12
 70
0
 10
5.0050048575
 20
2.5353171763
 10
5.0041109238
 20
2.535642375
 10
5.0035122066
 20
2.5358947907
 10
5.0033746556
 20
2.535958196
 10
5.0035648286
 20
2.5358285712
 10
5.0040037416
 20
2.535482406
 10
5.0046737815
 20
2.5348282158
 10
5.0055021318
 20
2.5337675788
 10
5.0062905499
 20
2.5323452619
 10
5.006911188
 20
2.5305288635
 10
5.007197646
 20
2.5283865853
 10
5.007202075
 20
2.5280684555
  0
LWPOLYLINE
  5
312
100
AcDbEntity
  8
0
100
AcDbPolyline
 62
7
  6
CONTINUOUS
 90
12
 70
0
 10
5.2236954802
 20
2.5331919766
 10
5.2231438541
 20
2.5334052129
 10
5.2228709343
 20
2.5335282676
 10
5.2230121232
 20
2.5334432936
 10
5.2234114141
 20
2.5331592414
 10
5.2239575863
 20
2.5326853595
 10
5.2246600422
 20
2.5319246627
 10
5.2254554343
 20
2.5307902787
 10
5.2261628713
 20
2.5293540687
 10
5.2266691086
 20
2.5276673248
 10
5.2268889016
 20
2.52574631
 10
5.2268911274
 20
2.5255416009
  0
LWPOLYLINE
  5
313
100
AcDbEntity
  8
0
100
AcDbPolyline
 62
7
  6
CONTINUOUS
 90
11
 70
0
 10
5.440967159
 20
2.5312720762
 10
5.4407461286
 20
2.5313612598
 10
5.4407699504
 20
2.5313481957
 10
5.4411304079
 20
2.5311318171
 10
5.4416854056
 20
2.5307209808
 10
5.4423479411
 20
2.5301133404
 10
5.443142924
 20
2.529185263
 10
5.4439758156
 20
2.527868158
 10
5.4446512091
 20
2.5262751701
 10
5.4450757934
 20
2.5244422491
 10
5.4451760028
 20
2.5229873503
  0
LINE
  5
314
100
AcDbEntity
  8
0
100
AcDbLine
 62
7
  6
CONTINUOUS
 10
4.4515539203
 20
2.5014786915
 11
4.4643202158
 21
2.4887123959
  0
LINE
  5
315
100
AcDbEntity
  8
0
100
AcDbLine
 62
7
  6
CONTINUOUS
 10
4.3569275453
 20
2.6156089031
 11
4.3650813853
 21
2.6074550631
  0
LINE
  5
316
100
AcDbEntity
  8
0
100
AcDbLine
 62
7
  6
CONTINUOUS
 10
4.3900565427
 20
2.6571557668
 11
4.3982100336
 21
2.649002276
  0
LINE
  5
317
100
AcDbEntity
  8
0
100
AcDbLine
 62
7
  6
CONTINUOUS
 10
4.6814493848
 20
2.3940093781
 11
4.6896029692
 21
2.3858557937
  0
LINE
  5
318
100
AcDbEntity
  8
0
100
AcDbLine
 62
7
  6
CONTINUOUS
 10
4.7738661
 20
2.3940093765
 11
4.7820199427
 21
2.3858555338
  0
LINE
  5
319
100
AcDbEntity
  8
0
100
AcDbLine
 62
7
  6
CONTINUOUS
 10
3.6540541105
 20
3.6747777956
 11
3.6540541105
 21
3.640789363
  0
LINE
  5
31A
100
AcDbEntity
  8
0
100
AcDbLine
 62
7
  6
CONTINUOUS
 10
3.7934619233
 20
2.7059956054
 11
3.7934619233
 21
2.6710757889
  0
LINE
  5
31B
100
AcDbEntity
  8
0
100
AcDbLine
 62
7
  6
CONTINUOUS
 10
3.8155554955
 20
2.6441284889
 11
3.8155554955
 21
2.6295286206
  0
LINE
  5
31C
100
AcDbEntity
  8
0
100
AcDbLine
 62
7
  6
CONTINUOUS
 10
7.423991252
 20
2.8440817488
 11
3.1241169691
 21
2.8440817488
  0
LINE
  5
31D
100
AcDbEntity
  8
0
100
AcDbLine
 62
7
  6
CONTINUOUS
 10
3.1729715036
 20
2.9146258345
 11
7.3751367175
 21
2.9146258345
  0
LINE
  5
31E
100
AcDbEntity
  8
0
100
AcDbLine
 62
7
  6
CONTINUOUS
 10
3.2718186649
 20
2.9897695075
 11
7.2762895561
 21
2.9897695075
  0
LINE
  5
31F
100
AcDbEntity
  8
0
100
AcDbLine
 62
7
  6
CONTINUOUS
 10
4.6733477335
 20
2.615608903
 11
4.6815015735
 21
2.6074550631
  0
LINE
  5
320
100
AcDbEntity
  8
0
100
AcDbLine
 62
7
  6
CONTINUOUS
 10
4.7793643835
 20
2.6571557667
 11
4.7875178742
 21
2.649002276
  0
LINE
  5
321
100
AcDbEntity
  8
0
100
AcDbLine
 62
7
  6
CONTINUOUS
 10
5.0830984489
 20
2.3940093781
 11
5.0912522933
 21
2.3858555338
  0
LINE
  5
322
100
AcDbEntity
  8
0
100
AcDbLine
 62
7
  6
CONTINUOUS
 10
5.0106587545
 20
2.5014786914
 11
5.0234250495
 21
2.4887123963
  0
LINE
  5
323
100
AcDbEntity
  8
0
100
AcDbLine
 62
7
  6
CONTINUOUS
 10
3.9101203554
 20
2.6432369392
 11
3.9101203554
 21
2.6295286206
  0
LINE
  5
324
100
AcDbEntity
  8
0
100
AcDbLine
 62
7
  6
CONTINUOUS
 10
3.958816254
 20
2.6930448699
 11
3.958816254
 21
2.6710757889
  0
LINE
  5
325
100
AcDbEntity
  8
0
100
AcDbLine
 62
7
  6
CONTINUOUS
 10
4.0499841094
 20
2.7059956054
 11
4.0499841094
 21
2.6710757889
  0
LINE
  5
326
100
AcDbEntity
  8
0
100
AcDbLine
 62
7
  6
CONTINUOUS
 10
4.0518526388
 20
2.650007252
 11
4.0518526388
 21
2.6295286206
  0
LINE
  5
327
100
AcDbEntity
  8
0
100
AcDbLine
 62
7
  6
CONTINUOUS
 10
3.3690541105
 20
3.2691566388
 11
7.1790541105
 21
3.2691566388
  0
LINE
  5
328
100
AcDbEntity
  8
0
100
AcDbLine
 62
7
  6
CONTINUOUS
 10
5.0262685952
 20
2.6156089031
 11
5.0344224352
 21
2.6074550631
  0
LINE
  5
329
100
AcDbEntity
  8
0
100
AcDbLine
 62
7
  6
CONTINUOUS
 10
5.2303509171
 20
2.5014786914
 11
5.2431172122
 21
2.4887123963
  0
LINE
  5
32A
100
AcDbEntity
  8
0
100
AcDbLine
 62
7
  6
CONTINUOUS
 10
5.4280023211
 20
2.3940093765
 11
5.4361561638
 21
2.3858555338
  0
LINE
  5
32B
100
AcDbEntity
  8
0
100
AcDbLine
 62
7
  6
CONTINUOUS
 10
5.1971431571
 20
2.6571557667
 11
5.2052966478
 21
2.649002276
  0
LINE
  5
32C
100
AcDbEntity
  8
0
100
AcDbLine
 62
7
  6
CONTINUOUS
 10
4.5836996106
 20
2.4906930687
 11
4.6120766074
 21
2.4127279106
  0
LINE
  5
32D
100
AcDbEntity
  8
0
100
AcDbLine
 62
7
  6
CONTINUOUS
 10
4.0928056362
 20
2.6432369392
 11
4.0928056362
 21
2.6295286206
  0
LINE
  5
32E
100
AcDbEntity
  8
0
100
AcDbLine
 62
7
  6
CONTINUOUS
 10
4.1126367877
 20
2.5812825589
 11
4.1126367877
 21
2.5745113395
  0
LINE
  5
32F
100
AcDbEntity
  8
0
100
AcDbLine
 62
7
  6
CONTINUOUS
 10
4.2153384401
 20
2.6960945079
 11
4.2153384401
 21
2.6710757889
  0
LINE
  5
330
100
AcDbEntity
  8
0
100
AcDbLine
 62
7
  6
CONTINUOUS
 10
4.2345379197
 20
2.6518572145
 11
4.2345379197
 21
2.6295286206
  0
LINE
  5
331
100
AcDbEntity
  8
0
100
AcDbLine
 62
7
  6
CONTINUOUS
 10
4.3018449545
 20
2.5362638592
 11
4.3018449545
 21
2.50983039
  0
LINE
  5
332
100
AcDbEntity
  8
ALL_FEATURES
100
AcDbLine
 62
7
  6
CONTINUOUS
 10
5.7265541105
 20
5.9034110359
 11
5.7090541105
 21
5.8859110359
  0
LINE
  5
333
100
AcDbEntity
  8
0
100
AcDbLine
 62
7
  6
CONTINUOUS
 10
7.1790541105
 20
3.4522054664
 11
3.3690541105
 21
3.4522054664
  0
LINE
  5
334
100
AcDbEntity
  8
0
100
AcDbLine
 62
7
  6
CONTINUOUS
 10
5.4486348871
 20
2.5014786914
 11
5.4614011822
 21
2.4887123963
  0
LINE
  5
335
100
AcDbEntity
  8
0
100
AcDbLine
 62
7
  6
CONTINUOUS
 10
5.3916391569
 20
2.6156089031
 11
5.3997929969
 21
2.6074550631
  0
LINE
  5
336
100
AcDbEntity
  8
0
100
AcDbLine
 62
7
  6
CONTINUOUS
 10
4.3496149651
 20
2.5357139203
 11
4.3496149651
 21
2.50983039
  0
LINE
  5
337
100
AcDbEntity
  8
0
100
AcDbLine
 62
7
  6
CONTINUOUS
 10
4.351161638
 20
2.6717604882
 11
4.351161638
 21
2.6295286206
  0
LINE
  5
338
100
AcDbEntity
  8
0
100
AcDbLine
 62
7
  6
CONTINUOUS
 10
4.384290331
 20
2.7059956054
 11
4.384290331
 21
2.6710757889
  0
LINE
  5
339
100
AcDbEntity
  8
0
100
AcDbLine
 62
7
  6
CONTINUOUS
 10
4.4480945079
 20
2.5345649833
 11
4.4480945079
 21
2.50983039
  0
LINE
  5
33A
100
AcDbEntity
  8
0
100
AcDbLine
 62
7
  6
CONTINUOUS
 10
4.4928939215
 20
2.6432369392
 11
4.4928939215
 21
2.6295286206
  0
LINE
  5
33B
100
AcDbEntity
  8
ALL_FEATURES
100
AcDbLine
 62
7
  6
CONTINUOUS
 10
5.6196478281
 20
5.5040047534
 11
5.6714901854
 21
5.5558471107
  0
LINE
  5
33C
100
AcDbEntity
  8
0
100
AcDbLine
 62
7
  6
CONTINUOUS
 10
7.1345593588
 20
3.5207213757
 11
3.4135488623
 21
3.5207213757
  0
LINE
  5
33D
100
AcDbEntity
  8
0
100
AcDbLine
 62
7
  6
CONTINUOUS
 10
3.6421888434
 20
3.6225184539
 11
6.9059193777
 21
3.6225184539
  0
LINE
  5
33E
100
AcDbEntity
  8
0
100
AcDbLine
 62
7
  6
CONTINUOUS
 10
3.6540541105
 20
3.640789363
 11
6.8940541105
 21
3.640789363
  0
LINE
  5
33F
100
AcDbEntity
  8
0
100
AcDbLine
 62
7
  6
CONTINUOUS
 10
6.8940541105
 20
3.6747777956
 11
3.6540541105
 21
3.6747777956
  0
LINE
  5
340
100
AcDbEntity
  8
0
100
AcDbLine
 62
7
  6
CONTINUOUS
 10
6.8783685036
 20
3.6943069024
 11
3.6697397175
 21
3.6943069024
  0
LINE
  5
341
100
AcDbEntity
  8
0
100
AcDbLine
 62
7
  6
CONTINUOUS
 10
5.6149219307
 20
2.6571557667
 11
5.6230754213
 21
2.649002276
  0
LINE
  5
342
100
AcDbEntity
  8
0
100
AcDbLine
 62
7
  6
CONTINUOUS
 10
5.7445600186
 20
2.6156089031
 11
5.7527138586
 21
2.6074550631
  0
LINE
  5
343
100
AcDbEntity
  8
0
100
AcDbLine
 62
7
  6
CONTINUOUS
 10
5.9868627628
 20
2.5014786914
 11
5.99962906
 21
2.4887123941
  0
LINE
  5
344
100
AcDbEntity
  8
0
100
AcDbLine
 62
7
  6
CONTINUOUS
 10
4.5496446617
 20
2.7000708826
 11
4.5496446617
 21
2.6710757889
  0
LINE
  5
345
100
AcDbEntity
  8
0
100
AcDbLine
 62
7
  6
CONTINUOUS
 10
4.5898267842
 20
2.5170488097
 11
4.5898267913
 21
2.50983039
  0
LINE
  5
346
100
AcDbEntity
  8
0
100
AcDbLine
 62
7
  6
CONTINUOUS
 10
4.6675818263
 20
2.6685474316
 11
4.6675818263
 21
2.6295286206
  0
LINE
  5
347
100
AcDbEntity
  8
0
100
AcDbLine
 62
7
  6
CONTINUOUS
 10
4.6990541105
 20
4.9309110359
 11
4.6990541105
 21
4.3409110359
  0
LINE
  5
348
100
AcDbEntity
  8
0
100
AcDbLine
 62
7
  6
CONTINUOUS
 10
4.7240541105
 20
5.2809110359
 11
4.7240541105
 21
4.9309110359
  0
LWPOLYLINE
  5
349
100
AcDbEntity
  8
0
100
AcDbPolyline
 62
7
  6
CONTINUOUS
 90
14
 70
0
 10
4.5898253264
 20
2.5170425505
 10
4.5898381945
 20
2.5175896019
 10
4.5900911281
 20
2.5194890847
 10
4.5906644796
 20
2.5213366303
 10
4.5915122765
 20
2.5230088899
 10
4.5924718915
 20
2.5243378336
 10
4.5934271248
 20
2.5253401524
 10
4.5943866069
 20
2.5261295179
 10
4.5952995825
 20
2.526723886
 10
4.5960526759
 20
2.5271151788
 10
4.5966228234
 20
2.5273543215
 10
4.5970291849
 20
2.5274923133
 10
4.5972375331
 20
2.5275492029
 10
4.5972564287
 20
2.5275532556
  0
LINE
  5
34A
100
AcDbEntity
  8
0
100
AcDbLine
 62
7
  6
CONTINUOUS
 10
6.0042297712
 20
2.6571557667
 11
6.0123832619
 21
2.649002276
  0
LINE
  5
34B
100
AcDbEntity
  8
0
100
AcDbLine
 62
7
  6
CONTINUOUS
 10
6.0609802068
 20
2.6156089031
 11
6.0691340468
 21
2.6074550631
  0
LINE
  5
34C
100
AcDbEntity
  8
0
100
AcDbLine
 62
7
  6
CONTINUOUS
 10
4.7735981716
 20
2.7059956054
 11
4.7735981716
 21
2.6710757889
  0
LINE
  5
34D
100
AcDbEntity
  8
0
100
AcDbLine
 62
7
  6
CONTINUOUS
 10
4.8093141097
 20
2.6432369392
 11
4.8093141097
 21
2.6295286206
  0
LINE
  5
34E
100
AcDbEntity
  8
ALL_FEATURES
100
AcDbLine
 62
7
  6
CONTINUOUS
 10
4.8215541105
 20
5.9034110359
 11
4.8215541105
 21
6.0109110359
  0
LINE
  5
34F
100
AcDbEntity
  8
ALL_FEATURES
100
AcDbLine
 62
7
  6
CONTINUOUS
 10
4.8390541105
 20
5.8859110359
 11
4.8390541105
 21
5.6095761783
  0
LINE
  5
350
100
AcDbEntity
  8
0
100
AcDbLine
 62
7
  6
CONTINUOUS
 10
4.9389525023
 20
2.7047043392
 11
4.9389525023
 21
2.6710757889
  0
LINE
  5
351
100
AcDbEntity
  8
0
100
AcDbLine
 62
7
  6
CONTINUOUS
 10
3.6421888434
 20
3.6225184539
 11
3.4135488623
 21
3.5207213757
  0
LINE
  5
352
100
AcDbEntity
  8
0
100
AcDbLine
 62
7
  6
CONTINUOUS
 10
6.3193362086
 20
2.6156089031
 11
6.3274900508
 21
2.6074550609
  0
LINE
  5
353
100
AcDbEntity
  8
0
100
AcDbLine
 62
7
  6
CONTINUOUS
 10
6.3385359928
 20
2.6571557667
 11
6.3466894835
 21
2.649002276
  0
LINE
  5
354
100
AcDbEntity
  8
0
100
AcDbLine
 62
7
  6
CONTINUOUS
 10
6.5020214895
 20
2.615608903
 11
6.5101753295
 21
2.6074550631
  0
LINE
  5
355
100
AcDbEntity
  8
0
100
AcDbLine
 62
7
  6
CONTINUOUS
 10
5.007199342
 20
2.5280788174
 11
5.007199342
 21
2.50983039
  0
LINE
  5
356
100
AcDbEntity
  8
0
100
AcDbLine
 62
7
  6
CONTINUOUS
 10
5.020502688
 20
2.6649654767
 11
5.020502688
 21
2.6295286206
  0
LINE
  5
357
100
AcDbEntity
  8
0
100
AcDbLine
 62
7
  6
CONTINUOUS
 10
5.1489316255
 20
2.5235199499
 11
5.1489316255
 21
2.50983039
  0
LINE
  5
358
100
AcDbEntity
  8
0
100
AcDbLine
 62
7
  6
CONTINUOUS
 10
5.1622349714
 20
2.6612590991
 11
5.1622349714
 21
2.6295286206
  0
LINE
  5
359
100
AcDbEntity
  8
0
100
AcDbLine
 62
7
  6
CONTINUOUS
 10
5.1913769452
 20
2.7059956054
 11
5.1913769452
 21
2.6710757889
  0
LINE
  5
35A
100
AcDbEntity
  8
0
100
AcDbLine
 62
7
  6
CONTINUOUS
 10
3.7917935127
 20
2.6571558248
 11
3.7836399639
 21
2.649002276
  0
LINE
  5
35B
100
AcDbEntity
  8
0
100
AcDbLine
 62
7
  6
CONTINUOUS
 10
5.8490541105
 20
4.3409110359
 11
4.6990541105
 21
4.3409110359
  0
LINE
  5
35C
100
AcDbEntity
  8
0
100
AcDbLine
 62
7
  6
CONTINUOUS
 10
6.5950578302
 20
2.6571561154
 11
6.6032116438
 21
2.6490023018
  0
LINE
  5
35D
100
AcDbEntity
  8
0
100
AcDbLine
 62
7
  6
CONTINUOUS
 10
6.7563147664
 20
2.6571557667
 11
6.7644682571
 21
2.649002276
  0
LINE
  5
35E
100
AcDbEntity
  8
0
100
AcDbLine
 62
7
  6
CONTINUOUS
 10
5.2268915047
 20
2.5255242291
 11
5.2268915047
 21
2.50983039
  0
LINE
  5
35F
100
AcDbEntity
  8
0
100
AcDbLine
 62
7
  6
CONTINUOUS
 10
5.3567312759
 20
2.7059956054
 11
5.3567312759
 21
2.6710757889
  0
LINE
  5
360
100
AcDbEntity
  8
0
100
AcDbLine
 62
7
  6
CONTINUOUS
 10
5.3686237881
 20
2.5260726188
 11
5.3686237881
 21
2.50983039
  0
LINE
  5
361
100
AcDbEntity
  8
0
100
AcDbLine
 62
7
  6
CONTINUOUS
 10
5.3858732496
 20
2.6612590991
 11
5.3858732496
 21
2.6295286206
  0
LINE
  5
362
100
AcDbEntity
  8
0
100
AcDbLine
 62
7
  6
CONTINUOUS
 10
5.2268915047
 20
2.5255242291
 11
5.2268916087
 21
2.5255422201
  0
LWPOLYLINE
  5
363
100
AcDbEntity
  8
0
100
AcDbPolyline
 62
7
  6
CONTINUOUS
 90
9
 70
0
 10
5.3686219421
 20
2.5260703352
 10
5.3686274578
 20
2.5264225875
 10
5.3689304179
 20
2.5285958557
 10
5.3695774907
 20
2.5304324337
 10
5.3703955262
 20
2.5318641713
 10
5.3712475408
 20
2.5329202793
 10
5.3719313596
 20
2.5335640623
 10
5.3723683478
 20
2.533894526
 10
5.3725431297
 20
2.5340092653
  0
LWPOLYLINE
  5
364
100
AcDbEntity
  8
0
100
AcDbPolyline
 62
7
  6
CONTINUOUS
 90
8
 70
0
 10
5.1489320811
 20
2.5235212722
 10
5.1491413878
 20
2.5256148089
 10
5.1497061356
 20
2.5274850044
 10
5.1504899082
 20
2.5290167842
 10
5.1513720998
 20
2.5302112986
 10
5.1521370196
 20
2.530988543
 10
5.1527124966
 20
2.5314534472
 10
5.1531080765
 20
2.5317154958
  0
LINE
  5
365
100
AcDbEntity
  8
0
100
AcDbLine
 62
7
  6
CONTINUOUS
 10
3.95305002
 20
2.6571557446
 11
3.9448965514
 21
2.649002276
  0
LINE
  5
366
100
AcDbEntity
  8
0
100
AcDbLine
 62
7
  6
CONTINUOUS
 10
4.0460867316
 20
2.6156089031
 11
4.0379328916
 21
2.6074550631
  0
LINE
  5
367
100
AcDbEntity
  8
0
100
AcDbLine
 62
7
  6
CONTINUOUS
 10
6.9059193777
 20
3.6225184539
 11
7.1345593588
 21
3.5207213757
  0
LINE
  5
368
100
AcDbEntity
  8
0
100
AcDbLine
 62
7
  6
CONTINUOUS
 10
5.4451754747
 20
2.5229868384
 11
5.4451754747
 21
2.50983039
  0
LINE
  5
369
100
AcDbEntity
  8
0
100
AcDbLine
 62
7
  6
CONTINUOUS
 10
5.5276055331
 20
2.6649654767
 11
5.5276055331
 21
2.6295286206
  0
LINE
  5
36A
100
AcDbEntity
  8
0
100
AcDbLine
 62
7
  6
CONTINUOUS
 10
5.5869077582
 20
2.5286010548
 11
5.5869077582
 21
2.50983039
  0
LINE
  5
36B
100
AcDbEntity
  8
0
100
AcDbLine
 62
7
  6
CONTINUOUS
 10
5.6091557188
 20
2.7047043392
 11
5.6091557188
 21
2.6710757889
  0
LINE
  5
36C
100
AcDbEntity
  8
0
100
AcDbLine
 62
7
  6
CONTINUOUS
 10
4.2095722282
 20
2.6571557667
 11
4.2014187375
 21
2.649002276
  0
LINE
  5
36D
100
AcDbEntity
  8
0
100
AcDbLine
 62
7
  6
CONTINUOUS
 10
4.2287720125
 20
2.6156089031
 11
4.2206181724
 21
2.6074550631
  0
LINE
  5
36E
100
AcDbEntity
  8
ALL_FEATURES
100
AcDbLine
 62
7
  6
CONTINUOUS
 10
5.7090541105
 20
5.6095761783
 11
5.7090541105
 21
5.8859110359
  0
LINE
  5
36F
100
AcDbEntity
  8
ALL_FEATURES
100
AcDbLine
 62
7
  6
CONTINUOUS
 10
5.7265541105
 20
5.9034110359
 11
5.7265541105
 21
6.0109110359
  0
LINE
  5
370
100
AcDbEntity
  8
0
100
AcDbLine
 62
7
  6
CONTINUOUS
 10
5.7387941113
 20
2.6432369392
 11
5.7387941113
 21
2.6295286206
  0
LINE
  5
371
100
AcDbEntity
  8
0
100
AcDbLine
 62
7
  6
CONTINUOUS
 10
5.7745100495
 20
2.7059956054
 11
5.7745100495
 21
2.6710757889
  0
LINE
  5
372
100
AcDbEntity
  8
0
100
AcDbLine
 62
7
  6
CONTINUOUS
 10
5.8240541105
 20
5.2809110359
 11
5.8240541105
 21
4.9309110359
  0
LINE
  5
373
100
AcDbEntity
  8
0
100
AcDbLine
 62
7
  6
CONTINUOUS
 10
5.8490541105
 20
4.9309110359
 11
5.8490541105
 21
4.3409110359
  0
LINE
  5
374
100
AcDbEntity
  8
0
100
AcDbLine
 62
7
  6
CONTINUOUS
 10
5.8805263948
 20
2.6685474316
 11
5.8805263948
 21
2.6295286206
  0
LWPOLYLINE
  5
375
100
AcDbEntity
  8
0
100
AcDbPolyline
 62
7
  6
CONTINUOUS
 90
8
 70
0
 10
5.5869079133
 20
2.5286020275
 10
5.587148317
 20
2.5308453421
 10
5.5877227728
 20
2.532664094
 10
5.5884731442
 20
2.5341042894
 10
5.589281775
 20
2.5352008989
 10
5.589959974
 20
2.5359024683
 10
5.590438857
 20
2.5363025064
 10
5.5907182822
 20
2.5364980932
  0
LINE
  5
376
100
AcDbEntity
  8
0
100
AcDbLine
 62
7
  6
CONTINUOUS
 10
4.4871280143
 20
2.6156089031
 11
4.4789741742
 21
2.6074550631
  0
LINE
  5
377
100
AcDbEntity
  8
0
100
AcDbLine
 62
7
  6
CONTINUOUS
 10
4.54387845
 20
2.6571557668
 11
4.5357249591
 21
2.649002276
  0
LINE
  5
378
100
AcDbEntity
  8
0
100
AcDbLine
 62
7
  6
CONTINUOUS
 10
4.5863673789
 20
2.5014786915
 11
4.5736010834
 21
2.4887123959
  0
LINE
  5
379
100
AcDbEntity
  8
0
100
AcDbLine
 62
7
  6
CONTINUOUS
 10
5.8490541105
 20
4.9309110359
 11
5.8240541105
 21
4.9309110359
  0
LINE
  5
37A
100
AcDbEntity
  8
0
100
AcDbLine
 62
7
  6
CONTINUOUS
 10
4.7240541105
 20
4.9309110359
 11
4.6990541105
 21
4.9309110359
  0
LINE
  5
37B
100
AcDbEntity
  8
0
100
AcDbLine
 62
7
  6
CONTINUOUS
 10
5.9834033503
 20
2.5167590913
 11
5.9834033503
 21
2.50983039
  0
LINE
  5
37C
100
AcDbEntity
  8
0
100
AcDbLine
 62
7
  6
CONTINUOUS
 10
5.9984635593
 20
2.7000708826
 11
5.9984635593
 21
2.6710757889
  0
LINE
  5
37D
100
AcDbEntity
  8
0
100
AcDbLine
 62
7
  6
CONTINUOUS
 10
6.0552142996
 20
2.6432369392
 11
6.0552142996
 21
2.6295286206
  0
LINE
  5
37E
100
AcDbEntity
  8
0
100
AcDbLine
 62
7
  6
CONTINUOUS
 10
4.8035482024
 20
2.615608903
 11
4.7953943625
 21
2.6074550631
  0
LINE
  5
37F
100
AcDbEntity
  8
0
100
AcDbLine
 62
7
  6
CONTINUOUS
 10
4.9331862904
 20
2.6571557667
 11
4.9250327997
 21
2.649002276
  0
LINE
  5
380
100
AcDbEntity
  8
0
100
AcDbLine
 62
7
  6
CONTINUOUS
 10
5.8240541105
 20
5.2809110359
 11
4.7240541105
 21
5.2809110359
  0
LINE
  5
381
100
AcDbEntity
  8
ALL_FEATURES
100
AcDbLine
 62
7
  6
CONTINUOUS
 10
4.928460393
 20
5.5040047534
 11
4.8766180357
 21
5.5558471107
  0
LINE
  5
382
100
AcDbEntity
  8
ALL_FEATURES
100
AcDbLine
 62
7
  6
CONTINUOUS
 10
4.8390541105
 20
5.8859110359
 11
4.8215541105
 21
5.9034110359
  0
LINE
  5
383
100
AcDbEntity
  8
0
100
AcDbLine
 62
7
  6
CONTINUOUS
 10
6.1251356338
 20
2.5348567336
 11
6.1251356338
 21
2.50983039
  0
LINE
  5
384
100
AcDbEntity
  8
0
100
AcDbLine
 62
7
  6
CONTINUOUS
 10
6.1638178901
 20
2.7059956054
 11
6.1638178901
 21
2.6710757889
  0
LINE
  5
385
100
AcDbEntity
  8
0
100
AcDbLine
 62
7
  6
CONTINUOUS
 10
6.196946583
 20
2.6717604882
 11
6.196946583
 21
2.6295286206
  0
LINE
  5
386
100
AcDbEntity
  8
0
100
AcDbLine
 62
7
  6
CONTINUOUS
 10
6.2131428468
 20
2.5358821193
 11
6.2131428468
 21
2.50983039
  0
LINE
  5
387
100
AcDbEntity
  8
0
100
AcDbLine
 62
7
  6
CONTINUOUS
 10
6.2495702167
 20
2.5363040775
 11
6.2495702167
 21
2.50983039
  0
LINE
  5
388
100
AcDbEntity
  8
0
100
AcDbLine
 62
7
  6
CONTINUOUS
 10
6.3135703014
 20
2.6518572145
 11
6.3135703014
 21
2.6295286206
  0
LINE
  5
389
100
AcDbEntity
  8
0
100
AcDbLine
 62
7
  6
CONTINUOUS
 10
6.3327697809
 20
2.6960945079
 11
6.3327697809
 21
2.6710757889
  0
LWPOLYLINE
  5
38A
100
AcDbEntity
  8
0
100
AcDbPolyline
 62
7
  6
CONTINUOUS
 90
12
 70
0
 10
6.2131431435
 20
2.5358831531
 10
6.2132761375
 20
2.5376440327
 10
6.2137319179
 20
2.5395479267
 10
6.2144776498
 20
2.5413078575
 10
6.2154314799
 20
2.5428270449
 10
6.2163985846
 20
2.5439679342
 10
6.2172758074
 20
2.5447837378
 10
6.2181007302
 20
2.5454092882
 10
6.2188395614
 20
2.5458726934
 10
6.2194005056
 20
2.5461683327
 10
6.2197638995
 20
2.5463334045
 10
6.2198658715
 20
2.5463755255
  0
LWPOLYLINE
  5
38B
100
AcDbEntity
  8
0
100
AcDbPolyline
 62
7
  6
CONTINUOUS
 90
12
 70
0
 10
6.1251320107
 20
2.5348588485
 10
6.1252852226
 20
2.5367282822
 10
6.125758148
 20
2.5385937326
 10
6.1264714996
 20
2.5402270535
 10
6.1273368974
 20
2.5415953451
 10
6.128192321
 20
2.5426141808
 10
6.1289503002
 20
2.5433340146
 10
6.1296293366
 20
2.5438648339
 10
6.1301900584
 20
2.5442302547
 10
6.1305362744
 20
2.5444214429
 10
6.1306457719
 20
2.5444745807
 10
6.1306370849
 20
2.5444710533
  0
LINE
  5
38C
100
AcDbEntity
  8
0
100
AcDbLine
 62
7
  6
CONTINUOUS
 10
5.1564690642
 20
2.6156089031
 11
5.1483152242
 21
2.6074550631
  0
LINE
  5
38D
100
AcDbEntity
  8
0
100
AcDbLine
 62
7
  6
CONTINUOUS
 10
5.0339872327
 20
2.3940093765
 11
5.02583339
 21
2.3858555338
  0
LINE
  5
38E
100
AcDbEntity
  8
0
100
AcDbLine
 62
7
  6
CONTINUOUS
 10
5.145472213
 20
2.5014786914
 11
5.1327059179
 21
2.4887123963
  0
LINE
  5
38F
100
AcDbEntity
  8
0
100
AcDbLine
 62
7
  6
CONTINUOUS
 10
5.350965064
 20
2.6571557667
 11
5.3428115733
 21
2.649002276
  0
LINE
  5
390
100
AcDbEntity
  8
ALL_FEATURES
100
AcDbLine
 62
7
  6
CONTINUOUS
 10
5.6196733463
 20
5.3908421617
 11
4.9284348747
 21
5.3908421617
  0
LINE
  5
391
100
AcDbEntity
  8
ALL_FEATURES
100
AcDbLine
 62
7
  6
CONTINUOUS
 10
5.6196478281
 20
5.5040047534
 11
4.928460393
 21
5.5040047534
  0
LINE
  5
392
100
AcDbEntity
  8
0
100
AcDbLine
 62
7
  6
CONTINUOUS
 10
6.4354714334
 20
2.5812825589
 11
6.4354714334
 21
2.5745113395
  0
LINE
  5
393
100
AcDbEntity
  8
0
100
AcDbLine
 62
7
  6
CONTINUOUS
 10
6.4553025848
 20
2.6432369392
 11
6.4553025848
 21
2.6295286206
  0
LINE
  5
394
100
AcDbEntity
  8
0
100
AcDbLine
 62
7
  6
CONTINUOUS
 10
6.4962555822
 20
2.650007252
 11
6.4962555822
 21
2.6295286206
  0
LINE
  5
395
100
AcDbEntity
  8
0
100
AcDbLine
 62
7
  6
CONTINUOUS
 10
6.4981241117
 20
2.7059956054
 11
6.4981241117
 21
2.6710757889
  0
LWPOLYLINE
  5
396
100
AcDbEntity
  8
0
100
AcDbPolyline
 62
7
  6
CONTINUOUS
 90
20
 70
0
 10
6.2495710941
 20
2.536306851
 10
6.2496543753
 20
2.5377108061
 10
6.2499670817
 20
2.5393391782
 10
6.2504458804
 20
2.5407690956
 10
6.2510376964
 20
2.5420078949
 10
6.2517157233
 20
2.5430940061
 10
6.2524627631
 20
2.5440491263
 10
6.2532318799
 20
2.5448549329
 10
6.2539956999
 20
2.5455226312
 10
6.2547623397
 20
2.5460870063
 10
6.2555361724
 20
2.5465677356
 10
6.2562761243
 20
2.5469545494
 10
6.2569566396
 20
2.5472538429
 10
6.2575605219
 20
2.5474776356
 10
6.2580573067
 20
2.5476335629
 10
6.2584035353
 20
2.5477273076
 10
6.2586152963
 20
2.5477783605
 10
6.2587588626
 20
2.5478099703
 10
6.2588425646
 20
2.5478269936
 10
6.2588527077
 20
2.5478288992
  0
LINE
  5
397
100
AcDbEntity
  8
0
100
AcDbLine
 62
7
  6
CONTINUOUS
 10
5.9644086105
 20
2.4906930687
 11
5.9360316136
 21
2.4127279106
  0
LINE
  5
398
100
AcDbEntity
  8
0
100
AcDbLine
 62
7
  6
CONTINUOUS
 10
5.3651643757
 20
2.5014786914
 11
5.3523980806
 21
2.4887123963
  0
LINE
  5
399
100
AcDbEntity
  8
0
100
AcDbLine
 62
7
  6
CONTINUOUS
 10
5.5218396259
 20
2.6156089031
 11
5.5136857858
 21
2.6074550631
  0
LINE
  5
39A
100
AcDbEntity
  8
0
100
AcDbLine
 62
7
  6
CONTINUOUS
 10
5.3432195849
 20
2.3940093781
 11
5.3350657406
 21
2.3858555338
  0
LINE
  5
39B
100
AcDbEntity
  8
ALL_FEATURES
100
AcDbLine
 62
7
  6
CONTINUOUS
 10
4.8766180357
 20
5.5558471107
 11
5.6714901854
 21
5.5558471107
  0
LINE
  5
39C
100
AcDbEntity
  8
ALL_FEATURES
100
AcDbLine
 62
7
  6
CONTINUOUS
 10
4.8390541105
 20
5.6887831856
 11
5.7090541105
 21
5.6887831856
  0
LINE
  5
39D
100
AcDbEntity
  8
0
100
AcDbLine
 62
7
  6
CONTINUOUS
 10
6.589291967
 20
2.6930448699
 11
6.589291967
 21
2.6710757889
  0
LINE
  5
39E
100
AcDbEntity
  8
0
100
AcDbLine
 62
7
  6
CONTINUOUS
 10
6.6379878657
 20
2.6432369392
 11
6.6379878657
 21
2.6295286206
  0
LINE
  5
39F
100
AcDbEntity
  8
0
100
AcDbLine
 62
7
  6
CONTINUOUS
 10
6.7325527256
 20
2.6441284877
 11
6.7325527256
 21
2.6295286206
  0
LINE
  5
3A0
100
AcDbEntity
  8
0
100
AcDbLine
 62
7
  6
CONTINUOUS
 10
6.7546462977
 20
2.7059956054
 11
6.7546462977
 21
2.6710757889
  0
LINE
  5
3A1
100
AcDbEntity
  8
0
100
AcDbLine
 62
7
  6
CONTINUOUS
 10
5.5834483457
 20
2.5014786914
 11
5.5706820506
 21
2.4887123963
  0
LINE
  5
3A2
100
AcDbEntity
  8
0
100
AcDbLine
 62
7
  6
CONTINUOUS
 10
5.7687438376
 20
2.6571557667
 11
5.7605903469
 21
2.649002276
  0
LINE
  5
3A3
100
AcDbEntity
  8
0
100
AcDbLine
 62
7
  6
CONTINUOUS
 10
5.8747604876
 20
2.6156089031
 11
5.8666066475
 21
2.6074550631
  0
LINE
  5
3A4
100
AcDbEntity
  8
0
100
AcDbLine
 62
7
  6
CONTINUOUS
 10
5.6881234538
 20
2.3940093765
 11
5.6799696111
 21
2.3858555338
  0
LINE
  5
3A5
100
AcDbEntity
  8
0
100
AcDbLine
 62
7
  6
CONTINUOUS
 10
6.8940541105
 20
3.6747777956
 11
6.8940541105
 21
3.640789363
  0
LINE
  5
3A6
100
AcDbEntity
  8
0
100
AcDbLine
 62
7
  6
CONTINUOUS
 10
6.9159028852
 20
2.7059956054
 11
6.9159028852
 21
2.6710757889
  0
LINE
  5
3A7
100
AcDbEntity
  8
0
100
AcDbLine
 62
7
  6
CONTINUOUS
 10
6.9709045042
 20
2.7059956054
 11
6.9709045042
 21
2.6710757889
  0
LINE
  5
3A8
100
AcDbEntity
  8
0
100
AcDbLine
 62
7
  6
CONTINUOUS
 10
5.8666588363
 20
2.3940093781
 11
5.8585052518
 21
2.3858557937
  0
LINE
  5
3A9
100
AcDbEntity
  8
0
100
AcDbLine
 62
7
  6
CONTINUOUS
 10
6.1580516782
 20
2.6571557667
 11
6.1498981875
 21
2.649002276
  0
LINE
  5
3AA
100
AcDbEntity
  8
0
100
AcDbLine
 62
7
  6
CONTINUOUS
 10
6.1911806758
 20
2.6156089031
 11
6.1830268358
 21
2.6074550631
  0
LINE
  5
3AB
100
AcDbEntity
  8
0
100
AcDbLine
 62
7
  6
CONTINUOUS
 10
6.1216762213
 20
2.5014786914
 11
6.108909924
 21
2.4887123941
  0
LINE
  5
3AC
100
AcDbEntity
  8
ALL_FEATURES
100
AcDbLine
 62
7
  6
CONTINUOUS
 10
5.7265541105
 20
6.0109110359
 11
4.8215541105
 21
6.0109110359
  0
LINE
  5
3AD
100
AcDbEntity
  8
0
100
AcDbLine
 62
7
  6
CONTINUOUS
 10
7.1790541105
 20
3.4522054664
 11
7.1790541105
 21
3.2691566388
  0
LINE
  5
3AE
100
AcDbEntity
  8
0
100
AcDbLine
 62
7
  6
CONTINUOUS
 10
6.2096834344
 20
2.5014786914
 11
6.1969171431
 21
2.4887124001
  0
LINE
  5
3AF
100
AcDbEntity
  8
0
100
AcDbLine
 62
7
  6
CONTINUOUS
 10
6.2461108042
 20
2.5014786914
 11
6.2333445394
 21
2.4887124266
  0
LINE
  5
3B0
100
AcDbEntity
  8
0
100
AcDbLine
 62
7
  6
CONTINUOUS
 10
6.4495366776
 20
2.6156089031
 11
6.4413828354
 21
2.6074550609
  0
LINE
  5
3B1
100
AcDbEntity
  8
0
100
AcDbLine
 62
7
  6
CONTINUOUS
 10
6.4923578998
 20
2.6571557667
 11
6.4842044091
 21
2.649002276
  0
LINE
  5
3B2
100
AcDbEntity
  8
0
100
AcDbLine
 62
7
  6
CONTINUOUS
 10
6.6322219584
 20
2.615608903
 11
6.6240681184
 21
2.6074550631
  0
LINE
  5
3B3
100
AcDbEntity
  8
0
100
AcDbLine
 62
7
  6
CONTINUOUS
 10
6.7488804346
 20
2.6571561154
 11
6.740726621
 21
2.6490023018
  0
LINE
  5
3B4
100
AcDbEntity
  8
0
100
AcDbLine
 62
7
  6
CONTINUOUS
 10
6.7267868183
 20
2.6156089031
 11
6.718633142
 21
2.6074552267
  0
LINE
  5
3B5
100
AcDbEntity
  8
0
100
AcDbLine
 62
7
  6
CONTINUOUS
 10
6.9101366734
 20
2.6571557667
 11
6.9019831827
 21
2.649002276
  0
LINE
  5
3B6
100
AcDbEntity
  8
0
100
AcDbLine
 62
7
  6
CONTINUOUS
 10
6.9651388897
 20
2.657156364
 11
6.9569848017
 21
2.649002276
  0
ARC
  5
3B7
100
AcDbEntity
  8
0
100
AcDbCircle
 62
7
  6
CONTINUOUS
 10
3.8080562433
 20
-1.2593667341
 40
3.8280301865
100
AcDbArc
 50
81.8617711775
 51
82.0503651921
  0
ARC
  5
3B8
100
AcDbEntity
  8
0
100
AcDbCircle
 62
7
  6
CONTINUOUS
 10
4.2146497932
 20
0.7959686944
 40
1.7572974141
100
AcDbArc
 50
82.3812113389
 51
82.5460014782
  0
ARC
  5
3B9
100
AcDbEntity
  8
0
100
AcDbCircle
 62
7
  6
CONTINUOUS
 10
3.5424501298
 20
1.880114701
 40
0.8518515897
100
AcDbArc
 50
74.5802845708
 51
75.8148825965
  0
ARC
  5
3BA
100
AcDbEntity
  8
0
100
AcDbCircle
 62
7
  6
CONTINUOUS
 10
3.5731359227
 20
2.3272550806
 40
0.3740913964
100
AcDbArc
 50
99.1660049979
 51
102.1816870692
  0
ARC
  5
3BB
100
AcDbEntity
  8
0
100
AcDbCircle
 62
7
  6
CONTINUOUS
 10
3.5730705596
 20
2.3274955628
 40
0.3738430129
100
AcDbArc
 50
99.1620445289
 51
102.1796575856
  0
ARC
  5
3BC
100
AcDbEntity
  8
0
100
AcDbCircle
 62
7
  6
CONTINUOUS
 10
3.5730248904
 20
2.3277713297
 40
0.3735634924
100
AcDbArc
 50
98.9007260979
 51
99.1618640086
  0
ARC
  5
3BD
100
AcDbEntity
  8
0
100
AcDbCircle
 62
7
  6
CONTINUOUS
 10
3.5729913269
 20
2.3281260445
 40
0.3732085204
100
AcDbArc
 50
98.9039916462
 51
99.1653895441
  0
ARC
  5
3BE
100
AcDbEntity
  8
0
100
AcDbCircle
 62
7
  6
CONTINUOUS
 10
3.5729332172
 20
2.3284002411
 40
0.3729279705
100
AcDbArc
 50
96.0770116296
 51
98.9017612586
  0
ARC
  5
3BF
100
AcDbEntity
  8
0
100
AcDbCircle
 62
7
  6
CONTINUOUS
 10
3.5728527903
 20
2.3290577862
 40
0.3722665646
100
AcDbArc
 50
95.7999494448
 51
98.9051224472
  0
ARC
  5
3C0
100
AcDbEntity
  8
0
100
AcDbCircle
 62
7
  6
CONTINUOUS
 10
3.5728024319
 20
2.3295122769
 40
0.3718092967
100
AcDbArc
 50
95.7978947277
 51
96.0749448681
  0
ARC
  5
3C1
100
AcDbEntity
  8
0
100
AcDbCircle
 62
7
  6
CONTINUOUS
 10
3.5727563613
 20
2.329987618
 40
0.3713317333
100
AcDbArc
 50
92.7578526102
 51
95.7982317099
  0
ARC
  5
3C2
100
AcDbEntity
  8
0
100
AcDbCircle
 62
7
  6
CONTINUOUS
 10
3.5727594645
 20
2.3301849838
 40
0.3711347864
100
AcDbArc
 50
92.7598113022
 51
95.8019569558
  0
ARC
  5
3C3
100
AcDbEntity
  8
0
100
AcDbCircle
 62
7
  6
CONTINUOUS
 10
3.5727293496
 20
2.3306195735
 40
0.3706992509
100
AcDbArc
 50
89.9919190279
 51
92.7583963168
  0
ARC
  5
3C4
100
AcDbEntity
  8
0
100
AcDbCircle
 62
7
  6
CONTINUOUS
 10
3.5727366207
 20
2.3470400348
 40
0.3542796208
100
AcDbArc
 50
89.2774915973
 51
89.9970394797
  0
ARC
  5
3C5
100
AcDbEntity
  8
0
100
AcDbCircle
 62
7
  6
CONTINUOUS
 10
3.586643444
 20
2.87376671
 40
0.5177691041
100
AcDbArc
 50
326.887423092
 51
327.3854738608
  0
ARC
  5
3C6
100
AcDbEntity
  8
0
100
AcDbCircle
 62
7
  6
CONTINUOUS
 10
3.5989042029
 20
2.8758404629
 40
0.5147848508
100
AcDbArc
 50
325.9302019537
 51
326.7412258408
  0
ARC
  5
3C7
100
AcDbEntity
  8
0
100
AcDbCircle
 62
7
  6
CONTINUOUS
 10
3.5701886117
 20
2.860558218
 40
0.4267520371
100
AcDbArc
 50
322.2119355646
 51
322.6278629433
  0
ARC
  5
3C8
100
AcDbEntity
  8
0
100
AcDbCircle
 62
7
  6
CONTINUOUS
 10
3.6647428859
 20
2.7706343151
 40
0.3847280533
100
AcDbArc
 50
270.013282342
 51
272.451117052
  0
ARC
  5
3C9
100
AcDbEntity
  8
0
100
AcDbCircle
 62
7
  6
CONTINUOUS
 10
3.6555160139
 20
2.7703585904
 40
0.3844523329
100
AcDbArc
 50
270.5224736887
 51
271.3782608904
  0
ARC
  5
3CA
100
AcDbEntity
  8
0
100
AcDbCircle
 62
7
  6
CONTINUOUS
 10
3.6555170529
 20
2.7702446069
 40
0.3843383442
100
AcDbArc
 50
270.0094056908
 51
270.5224492823
  0
ARC
  5
3CB
100
AcDbEntity
  8
0
100
AcDbCircle
 62
7
  6
CONTINUOUS
 10
3.2040541105
 20
2.8409110359
 40
0.08
100
AcDbArc
 50
112.8632234306
 51
177.7285491583
  0
ARC
  5
3CC
100
AcDbEntity
  8
0
100
AcDbCircle
 62
7
  6
CONTINUOUS
 10
3.6050425665
 20
2.6629219786
 40
0.0196850394
100
AcDbArc
 50
225.0011432902
 51
270.001006738
  0
ARC
  5
3CD
100
AcDbEntity
  8
0
100
AcDbCircle
 62
7
  6
CONTINUOUS
 10
3.5968887562
 20
2.6710757889
 40
0.0196850394
100
AcDbArc
 50
180.0
 51
225.0024588137
  0
ARC
  5
3CE
100
AcDbEntity
  8
0
100
AcDbCircle
 62
7
  6
CONTINUOUS
 10
3.6518903752
 20
2.6710757889
 40
0.0196850394
100
AcDbArc
 50
180.0
 51
225.0024588136
  0
ARC
  5
3CF
100
AcDbEntity
  8
0
100
AcDbCircle
 62
7
  6
CONTINUOUS
 10
3.6600441855
 20
2.6629219786
 40
0.0196850394
100
AcDbArc
 50
225.0011432902
 51
270.001006738
  0
ARC
  5
3D0
100
AcDbEntity
  8
0
100
AcDbCircle
 62
7
  6
CONTINUOUS
 10
3.5076352078
 20
2.7138696212
 40
0.0078740157
100
AcDbArc
 50
263.984221312
 51
270.0
  0
ARC
  5
3D1
100
AcDbEntity
  8
0
100
AcDbCircle
 62
7
  6
CONTINUOUS
 10
4.1507841366
 20
2.4369154363
 40
0.2330213528
100
AcDbArc
 50
74.2346095073
 51
74.5434897533
  0
ARC
  5
3D2
100
AcDbEntity
  8
0
100
AcDbCircle
 62
7
  6
CONTINUOUS
 10
4.1629241902
 20
2.4792132692
 40
0.1890163241
100
AcDbArc
 50
72.7598662874
 51
74.292535395
  0
ARC
  5
3D3
100
AcDbEntity
  8
0
100
AcDbCircle
 62
7
  6
CONTINUOUS
 10
3.7778746271
 20
2.6710757889
 40
0.0196850394
100
AcDbArc
 50
314.9975411859
 51
333.8750990227
  0
ARC
  5
3D4
100
AcDbEntity
  8
0
100
AcDbCircle
 62
7
  6
CONTINUOUS
 10
3.7697208169
 20
2.6629219786
 40
0.0196850394
100
AcDbArc
 50
269.9989932619
 51
314.9988567098
  0
ARC
  5
3D5
100
AcDbEntity
  8
0
100
AcDbCircle
 62
7
  6
CONTINUOUS
 10
3.9391312147
 20
2.6710757889
 40
0.0196850394
100
AcDbArc
 50
314.9975411859
 51
360.0
  0
ARC
  5
3D6
100
AcDbEntity
  8
0
100
AcDbCircle
 62
7
  6
CONTINUOUS
 10
3.8131469627
 20
2.6710757889
 40
0.0196850394
100
AcDbArc
 50
180.0
 51
225.0024588141
  0
ARC
  5
3D7
100
AcDbEntity
  8
0
100
AcDbCircle
 62
7
  6
CONTINUOUS
 10
3.821300773
 20
2.6629219786
 40
0.0196850394
100
AcDbArc
 50
225.00114329
 51
270.0010067378
  0
ARC
  5
3D8
100
AcDbEntity
  8
0
100
AcDbCircle
 62
7
  6
CONTINUOUS
 10
3.9309774044
 20
2.6629219786
 40
0.0196850394
100
AcDbArc
 50
269.9989932622
 51
314.99885671
  0
ARC
  5
3D9
100
AcDbEntity
  8
0
100
AcDbCircle
 62
7
  6
CONTINUOUS
 10
4.1956534007
 20
2.6710757889
 40
0.0196850394
100
AcDbArc
 50
314.9975411861
 51
360.0
  0
ARC
  5
3DA
100
AcDbEntity
  8
0
100
AcDbCircle
 62
7
  6
CONTINUOUS
 10
4.0696691488
 20
2.6710757889
 40
0.0196850394
100
AcDbArc
 50
180.0
 51
225.0024588139
  0
ARC
  5
3DB
100
AcDbEntity
  8
0
100
AcDbCircle
 62
7
  6
CONTINUOUS
 10
4.0778229591
 20
2.6629219786
 40
0.0196850394
100
AcDbArc
 50
225.0011432895
 51
270.0010067371
  0
ARC
  5
3DC
100
AcDbEntity
  8
0
100
AcDbCircle
 62
7
  6
CONTINUOUS
 10
4.1874995905
 20
2.6629219786
 40
0.0196850394
100
AcDbArc
 50
269.9989932615
 51
314.9988567094
  0
ARC
  5
3DD
100
AcDbEntity
  8
0
100
AcDbCircle
 62
7
  6
CONTINUOUS
 10
3.8352405349
 20
2.6295286206
 40
0.0196850394
100
AcDbArc
 50
180.0
 51
225.0012047959
  0
ARC
  5
3DE
100
AcDbEntity
  8
0
100
AcDbCircle
 62
7
  6
CONTINUOUS
 10
3.9294489293
 20
2.6213748103
 40
0.0196850394
100
AcDbArc
 50
269.9989177866
 51
282.5062037106
  0
ARC
  5
3DF
100
AcDbEntity
  8
0
100
AcDbCircle
 62
7
  6
CONTINUOUS
 10
3.8433943451
 20
2.6213748103
 40
0.0196850394
100
AcDbArc
 50
225.0013272051
 51
270.0010822134
  0
ARC
  5
3E0
100
AcDbEntity
  8
0
100
AcDbCircle
 62
7
  6
CONTINUOUS
 10
4.1124906756
 20
2.6295286206
 40
0.0196850394
100
AcDbArc
 50
180.0
 51
225.0012047948
  0
ARC
  5
3E1
100
AcDbEntity
  8
0
100
AcDbCircle
 62
7
  6
CONTINUOUS
 10
4.2148528803
 20
2.6295286206
 40
0.0196850394
100
AcDbArc
 50
314.9987952044
 51
360.0
  0
ARC
  5
3E2
100
AcDbEntity
  8
0
100
AcDbCircle
 62
7
  6
CONTINUOUS
 10
4.20669907
 20
2.6213748103
 40
0.0196850394
100
AcDbArc
 50
269.9989177866
 51
314.998672795
  0
ARC
  5
3E3
100
AcDbEntity
  8
0
100
AcDbCircle
 62
7
  6
CONTINUOUS
 10
4.1206444859
 20
2.6213748103
 40
0.0196850394
100
AcDbArc
 50
225.0013272057
 51
270.0010822143
  0
ARC
  5
3E4
100
AcDbEntity
  8
0
100
AcDbCircle
 62
7
  6
CONTINUOUS
 10
4.0240137892
 20
2.6213748103
 40
0.0196850394
100
AcDbArc
 50
269.9989177863
 51
314.9986727948
  0
ARC
  5
3E5
100
AcDbEntity
  8
0
100
AcDbCircle
 62
7
  6
CONTINUOUS
 10
4.0321675995
 20
2.6295286206
 40
0.0196850394
100
AcDbArc
 50
314.9987952051
 51
360.0
  0
ARC
  5
3E6
100
AcDbEntity
  8
0
100
AcDbCircle
 62
7
  6
CONTINUOUS
 10
3.9298053947
 20
2.6295286206
 40
0.0196850394
100
AcDbArc
 50
180.0
 51
225.0012047956
  0
ARC
  5
3E7
100
AcDbEntity
  8
0
100
AcDbCircle
 62
7
  6
CONTINUOUS
 10
3.937959205
 20
2.6213748103
 40
0.0196850394
100
AcDbArc
 50
225.0013272052
 51
270.0010822137
  0
ARC
  5
3E8
100
AcDbEntity
  8
0
100
AcDbCircle
 62
7
  6
CONTINUOUS
 10
4.0132760199
 20
2.6043755947
 40
0.0078740157
100
AcDbArc
 50
199.9760716118
 51
259.854080614
  0
ARC
  5
3E9
100
AcDbEntity
  8
0
100
AcDbCircle
 62
7
  6
CONTINUOUS
 10
4.7098842367
 20
2.3086144856
 40
0.3687322995
100
AcDbArc
 50
86.3570763171
 51
88.7576514794
  0
ARC
  5
3EA
100
AcDbEntity
  8
0
100
AcDbCircle
 62
7
  6
CONTINUOUS
 10
4.7112121698
 20
2.3602041825
 40
0.3171260073
100
AcDbArc
 50
88.7954273801
 51
89.9789517506
  0
ARC
  5
3EB
100
AcDbEntity
  8
0
100
AcDbCircle
 62
7
  6
CONTINUOUS
 10
4.711298907
 20
2.3985109459
 40
0.278819224
100
AcDbArc
 50
89.993883932
 51
91.3628694082
  0
ARC
  5
3EC
100
AcDbEntity
  8
0
100
AcDbCircle
 62
7
  6
CONTINUOUS
 10
4.7248341957
 20
2.4045299828
 40
0.2716951778
100
AcDbArc
 50
79.6492583194
 51
80.3845294797
  0
ARC
  5
3ED
100
AcDbEntity
  8
0
100
AcDbCircle
 62
7
  6
CONTINUOUS
 10
4.3787245721
 20
2.4306185118
 40
0.2467117101
100
AcDbArc
 50
88.6914476937
 51
89.9622302409
  0
ARC
  5
3EE
100
AcDbEntity
  8
0
100
AcDbCircle
 62
7
  6
CONTINUOUS
 10
4.5467038185
 20
2.4772277625
 40
0.0393700787
100
AcDbArc
 50
19.9999167392
 51
28.9073832586
  0
ARC
  5
3EF
100
AcDbEntity
  8
0
100
AcDbCircle
 62
7
  6
CONTINUOUS
 10
4.7599460844
 20
2.3800905424
 40
0.0196850394
100
AcDbArc
 50
44.9975682479
 51
89.9960710504
  0
ARC
  5
3F0
100
AcDbEntity
  8
0
100
AcDbCircle
 62
7
  6
CONTINUOUS
 10
4.7035220308
 20
2.3997755818
 40
0.0196850394
100
AcDbArc
 50
225.0025651319
 51
270.0015873101
  0
ARC
  5
3F1
100
AcDbEntity
  8
0
100
AcDbCircle
 62
7
  6
CONTINUOUS
 10
4.6675293708
 20
2.3800905424
 40
0.0196850394
100
AcDbArc
 50
44.9984858796
 51
86.4160194497
  0
ARC
  5
3F2
100
AcDbEntity
  8
0
100
AcDbCircle
 62
7
  6
CONTINUOUS
 10
4.6305744825
 20
2.4194606212
 40
0.0196850394
100
AcDbArc
 50
200.0000948195
 51
270.0002417934
  0
ARC
  5
3F3
100
AcDbEntity
  8
0
100
AcDbCircle
 62
7
  6
CONTINUOUS
 10
4.5299596223
 20
2.6710757889
 40
0.0196850394
100
AcDbArc
 50
314.9975417674
 51
360.0
  0
ARC
  5
3F4
100
AcDbEntity
  8
0
100
AcDbCircle
 62
7
  6
CONTINUOUS
 10
4.4039753704
 20
2.6710757889
 40
0.0196850394
100
AcDbArc
 50
180.0
 51
225.0024582326
  0
ARC
  5
3F5
100
AcDbEntity
  8
0
100
AcDbCircle
 62
7
  6
CONTINUOUS
 10
4.4121291807
 20
2.6629219786
 40
0.0196850394
100
AcDbArc
 50
225.0011432897
 51
270.0010067374
  0
ARC
  5
3F6
100
AcDbEntity
  8
0
100
AcDbCircle
 62
7
  6
CONTINUOUS
 10
4.5218058121
 20
2.6629219786
 40
0.0196850394
100
AcDbArc
 50
269.9989932626
 51
314.9988567103
  0
ARC
  5
3F7
100
AcDbEntity
  8
0
100
AcDbCircle
 62
7
  6
CONTINUOUS
 10
4.6872668656
 20
2.6295286206
 40
0.0196850394
100
AcDbArc
 50
180.0
 51
225.0012049649
  0
ARC
  5
3F8
100
AcDbEntity
  8
0
100
AcDbCircle
 62
7
  6
CONTINUOUS
 10
4.6954206759
 20
2.6213748103
 40
0.0196850394
100
AcDbArc
 50
225.0013272064
 51
270.0010822146
  0
ARC
  5
3F9
100
AcDbEntity
  8
0
100
AcDbCircle
 62
7
  6
CONTINUOUS
 10
4.4650550718
 20
2.6213748103
 40
0.0196850394
100
AcDbArc
 50
269.998917781
 51
314.9986727884
  0
ARC
  5
3FA
100
AcDbEntity
  8
0
100
AcDbCircle
 62
7
  6
CONTINUOUS
 10
4.4732088821
 20
2.6295286206
 40
0.0196850394
100
AcDbArc
 50
314.9987952044
 51
360.0
  0
ARC
  5
3FB
100
AcDbEntity
  8
0
100
AcDbCircle
 62
7
  6
CONTINUOUS
 10
4.3708466774
 20
2.6295286206
 40
0.0196850394
100
AcDbArc
 50
180.0
 51
225.0012047956
  0
ARC
  5
3FC
100
AcDbEntity
  8
0
100
AcDbCircle
 62
7
  6
CONTINUOUS
 10
4.3790004877
 20
2.6213748103
 40
0.0196850394
100
AcDbArc
 50
225.0013272117
 51
270.001082219
  0
ARC
  5
3FD
100
AcDbEntity
  8
0
100
AcDbCircle
 62
7
  6
CONTINUOUS
 10
4.3136559781
 20
2.50983039
 40
0.0118110236
100
AcDbArc
 50
180.0
 51
225.0002999883
  0
ARC
  5
3FE
100
AcDbEntity
  8
0
100
AcDbCircle
 62
7
  6
CONTINUOUS
 10
4.3264222801
 20
2.4970640881
 40
0.0118110236
100
AcDbArc
 50
225.0002531652
 51
270.0002596334
  0
ARC
  5
3FF
100
AcDbEntity
  8
0
100
AcDbCircle
 62
7
  6
CONTINUOUS
 10
4.466769923
 20
2.4970640881
 40
0.0118110236
100
AcDbArc
 50
269.9997403649
 51
284.4755220322
  0
ARC
  5
400
100
AcDbEntity
  8
0
100
AcDbCircle
 62
7
  6
CONTINUOUS
 10
4.3614259887
 20
2.50983039
 40
0.0118110236
100
AcDbArc
 50
180.0
 51
225.0002999893
  0
ARC
  5
401
100
AcDbEntity
  8
0
100
AcDbCircle
 62
7
  6
CONTINUOUS
 10
4.3741922906
 20
2.4970640881
 40
0.0118110236
100
AcDbArc
 50
225.0002531646
 51
270.0002596324
  0
ARC
  5
402
100
AcDbEntity
  8
0
100
AcDbCircle
 62
7
  6
CONTINUOUS
 10
4.5652494658
 20
2.4970640881
 40
0.0118110236
100
AcDbArc
 50
269.9997375967
 51
314.9997441388
  0
ARC
  5
403
100
AcDbEntity
  8
0
100
AcDbCircle
 62
7
  6
CONTINUOUS
 10
4.5780157677
 20
2.50983039
 40
0.0118110236
100
AcDbArc
 50
314.9997004612
 51
360.0
  0
ARC
  5
404
100
AcDbEntity
  8
0
100
AcDbCircle
 62
7
  6
CONTINUOUS
 10
4.4599055315
 20
2.50983039
 40
0.0118110236
100
AcDbArc
 50
180.0
 51
225.0002995371
  0
ARC
  5
405
100
AcDbEntity
  8
0
100
AcDbCircle
 62
7
  6
CONTINUOUS
 10
4.4726718334
 20
2.4970640881
 40
0.0118110236
100
AcDbArc
 50
225.0002558628
 51
270.0002624055
  0
ARC
  5
406
100
AcDbEntity
  8
0
100
AcDbCircle
 62
7
  6
CONTINUOUS
 10
4.290434855
 20
2.536327004
 40
0.0117402694
100
AcDbArc
 50
359.9501461971
 51
8.8492754017
  0
ARC
  5
407
100
AcDbEntity
  8
0
100
AcDbCircle
 62
7
  6
CONTINUOUS
 10
5.0819433501
 20
2.3213413033
 40
0.35598952
100
AcDbArc
 50
87.5439871335
 51
89.7021225732
  0
ARC
  5
408
100
AcDbEntity
  8
0
100
AcDbCircle
 62
7
  6
CONTINUOUS
 10
5.0821164942
 20
2.3387379083
 40
0.33859226
100
AcDbArc
 50
89.7161165678
 51
89.999585778
  0
ARC
  5
409
100
AcDbEntity
  8
0
100
AcDbCircle
 62
7
  6
CONTINUOUS
 10
5.0821138906
 20
2.3438967215
 40
0.3334334469
100
AcDbArc
 50
89.9991319703
 51
91.2462497207
  0
ARC
  5
40A
100
AcDbEntity
  8
0
100
AcDbCircle
 62
7
  6
CONTINUOUS
 10
5.1051710949
 20
2.3997755818
 40
0.0196850394
100
AcDbArc
 50
225.0025651318
 51
270.0027356756
  0
ARC
  5
40B
100
AcDbEntity
  8
0
100
AcDbCircle
 62
7
  6
CONTINUOUS
 10
5.069178435
 20
2.3800905424
 40
0.0196850394
100
AcDbArc
 50
44.9975750785
 51
89.9960818716
  0
ARC
  5
40C
100
AcDbEntity
  8
0
100
AcDbCircle
 62
7
  6
CONTINUOUS
 10
5.0119145883
 20
2.3997755818
 40
0.0196850394
100
AcDbArc
 50
269.9972642495
 51
314.9974348102
  0
ARC
  5
40D
100
AcDbEntity
  8
0
100
AcDbCircle
 62
7
  6
CONTINUOUS
 10
4.7959387443
 20
2.3997755818
 40
0.0196850394
100
AcDbArc
 50
225.0025651901
 51
270.002735751
  0
ARC
  5
40E
100
AcDbEntity
  8
0
100
AcDbCircle
 62
7
  6
CONTINUOUS
 10
5.0479072483
 20
2.3800905424
 40
0.0196850394
100
AcDbArc
 50
90.00392895
 51
135.0024317524
  0
ARC
  5
40F
100
AcDbEntity
  8
0
100
AcDbCircle
 62
7
  6
CONTINUOUS
 10
5.0980332556
 20
2.3997755818
 40
0.0196850394
100
AcDbArc
 50
269.997264249
 51
280.4683062659
  0
ARC
  5
410
100
AcDbEntity
  8
0
100
AcDbCircle
 62
7
  6
CONTINUOUS
 10
4.9192674629
 20
2.6710757889
 40
0.0196850394
100
AcDbArc
 50
314.9975411863
 51
360.0
  0
ARC
  5
411
100
AcDbEntity
  8
0
100
AcDbCircle
 62
7
  6
CONTINUOUS
 10
4.793283211
 20
2.6710757889
 40
0.0196850394
100
AcDbArc
 50
180.0
 51
225.0024588147
  0
ARC
  5
412
100
AcDbEntity
  8
0
100
AcDbCircle
 62
7
  6
CONTINUOUS
 10
4.8014370212
 20
2.6629219786
 40
0.0196850394
100
AcDbArc
 50
225.0011432896
 51
270.0010067372
  0
ARC
  5
413
100
AcDbEntity
  8
0
100
AcDbCircle
 62
7
  6
CONTINUOUS
 10
4.9111136526
 20
2.6629219786
 40
0.0196850394
100
AcDbArc
 50
269.9989932615
 51
314.9988567094
  0
ARC
  5
414
100
AcDbEntity
  8
0
100
AcDbCircle
 62
7
  6
CONTINUOUS
 10
5.2110619845
 20
2.6710757889
 40
0.0196850394
100
AcDbArc
 50
180.0
 51
225.0024588143
  0
ARC
  5
415
100
AcDbEntity
  8
0
100
AcDbCircle
 62
7
  6
CONTINUOUS
 10
5.2192157948
 20
2.6629219786
 40
0.0196850394
100
AcDbArc
 50
225.0011432902
 51
270.001006738
  0
ARC
  5
416
100
AcDbEntity
  8
0
100
AcDbCircle
 62
7
  6
CONTINUOUS
 10
4.7896290703
 20
2.6295286206
 40
0.0196850394
100
AcDbArc
 50
314.9987950343
 51
360.0
  0
ARC
  5
417
100
AcDbEntity
  8
0
100
AcDbCircle
 62
7
  6
CONTINUOUS
 10
4.7814752601
 20
2.6213748103
 40
0.0196850394
100
AcDbArc
 50
269.9989177854
 51
314.9986727936
  0
ARC
  5
418
100
AcDbEntity
  8
0
100
AcDbCircle
 62
7
  6
CONTINUOUS
 10
5.1343961218
 20
2.6213748103
 40
0.0196850394
100
AcDbArc
 50
269.9989177867
 51
314.998672795
  0
ARC
  5
419
100
AcDbEntity
  8
0
100
AcDbCircle
 62
7
  6
CONTINUOUS
 10
5.142549932
 20
2.6295286206
 40
0.0196850394
100
AcDbArc
 50
314.9987952045
 51
360.0
  0
ARC
  5
41A
100
AcDbEntity
  8
0
100
AcDbCircle
 62
7
  6
CONTINUOUS
 10
5.0401877273
 20
2.6295286206
 40
0.0196850394
100
AcDbArc
 50
180.0
 51
225.0012047948
  0
ARC
  5
41B
100
AcDbEntity
  8
0
100
AcDbCircle
 62
7
  6
CONTINUOUS
 10
5.0483415376
 20
2.6213748103
 40
0.0196850394
100
AcDbArc
 50
225.0013272052
 51
270.0010822136
  0
ARC
  5
41C
100
AcDbEntity
  8
0
100
AcDbCircle
 62
7
  6
CONTINUOUS
 10
5.1243542999
 20
2.4970640881
 40
0.0118110236
100
AcDbArc
 50
269.9997403676
 51
314.9997468354
  0
ARC
  5
41D
100
AcDbEntity
  8
0
100
AcDbCircle
 62
7
  6
CONTINUOUS
 10
5.1371206018
 20
2.50983039
 40
0.0118110236
100
AcDbArc
 50
314.9997000112
 51
360.0
  0
ARC
  5
41E
100
AcDbEntity
  8
0
100
AcDbCircle
 62
7
  6
CONTINUOUS
 10
5.0190103656
 20
2.50983039
 40
0.0118110236
100
AcDbArc
 50
180.0
 51
225.0002999888
  0
ARC
  5
41F
100
AcDbEntity
  8
0
100
AcDbCircle
 62
7
  6
CONTINUOUS
 10
5.0317766675
 20
2.4970640881
 40
0.0118110236
100
AcDbArc
 50
225.0002531646
 51
270.0002596324
  0
ARC
  5
420
100
AcDbEntity
  8
0
100
AcDbCircle
 62
7
  6
CONTINUOUS
 10
5.2387025283
 20
2.50983039
 40
0.0118110236
100
AcDbArc
 50
180.0
 51
225.0002999894
  0
ARC
  5
421
100
AcDbEntity
  8
0
100
AcDbCircle
 62
7
  6
CONTINUOUS
 10
5.2514688302
 20
2.4970640881
 40
0.0118110236
100
AcDbArc
 50
225.0002531645
 51
270.0002596323
  0
ARC
  5
422
100
AcDbEntity
  8
0
100
AcDbCircle
 62
7
  6
CONTINUOUS
 10
5.1474238756
 20
2.5235236882
 40
0.0015082105
100
AcDbArc
 50
0.0186410396
 51
9.8185696989
  0
ARC
  5
423
100
AcDbEntity
  8
0
100
AcDbCircle
 62
7
  6
CONTINUOUS
 10
5.2740402773
 20
9.6489130666
 40
7.1691060897
100
AcDbArc
 50
260.6769302766
 51
262.1368823398
  0
ARC
  5
424
100
AcDbEntity
  8
0
100
AcDbCircle
 62
7
  6
CONTINUOUS
 10
5.2740402773
 20
9.6489483765
 40
7.1643816803
100
AcDbArc
 50
259.8532230909
 51
260.5748796072
  0
ARC
  5
425
100
AcDbEntity
  8
0
100
AcDbCircle
 62
7
  6
CONTINUOUS
 10
5.2740402773
 20
9.6489483765
 40
7.1643816803
100
AcDbArc
 50
255.0673065853
 51
255.7102731772
  0
ARC
  5
426
100
AcDbEntity
  8
0
100
AcDbCircle
 62
7
  6
CONTINUOUS
 10
3.25987238
 20
5.5495720494
 40
1.9
100
AcDbArc
 50
282.4577510794
 51
320.4906180564
  0
ARC
  5
427
100
AcDbEntity
  8
0
100
AcDbCircle
 62
7
  6
CONTINUOUS
 10
2.9190541105
 20
3.2691566388
 40
0.45
100
AcDbArc
 50
321.6210152008
 51
360.0
  0
ARC
  5
428
100
AcDbEntity
  8
0
100
AcDbCircle
 62
7
  6
CONTINUOUS
 10
3.0758383569
 20
3.1449845805
 40
0.25
100
AcDbArc
 50
292.8632234306
 51
321.6210152008
  0
ARC
  5
429
100
AcDbEntity
  8
ALL_FEATURES
100
AcDbCircle
 62
7
  6
CONTINUOUS
 10
5.0095541105
 20
5.6887831856
 40
0.188
100
AcDbArc
 50
204.9175653171
 51
225.0
  0
ARC
  5
42A
100
AcDbEntity
  8
ALL_FEATURES
100
AcDbCircle
 62
7
  6
CONTINUOUS
 10
4.8718918505
 20
5.4474362109
 40
0.08
100
AcDbArc
 50
314.9741595356
 51
45.0
  0
ARC
  5
42B
100
AcDbEntity
  8
0
100
AcDbCircle
 62
7
  6
CONTINUOUS
 10
3.4440541105
 20
3.4522054664
 40
0.075
100
AcDbArc
 50
113.9999999998
 51
180.0
  0
ARC
  5
42C
100
AcDbEntity
  8
0
100
AcDbCircle
 62
7
  6
CONTINUOUS
 10
3.6740541105
 20
3.6747777956
 40
0.02
100
AcDbArc
 50
102.4577510774
 51
180.0
  0
ARC
  5
42D
100
AcDbEntity
  8
0
100
AcDbCircle
 62
7
  6
CONTINUOUS
 10
3.6340541105
 20
3.640789363
 40
0.02
100
AcDbArc
 50
293.9999999975
 51
360.0
  0
ARC
  5
42E
100
AcDbEntity
  8
0
100
AcDbCircle
 62
7
  6
CONTINUOUS
 10
5.4662347148
 20
2.3195946889
 40
0.3577374236
100
AcDbArc
 50
91.2179091129
 51
92.4003257804
  0
ARC
  5
42F
100
AcDbEntity
  8
0
100
AcDbCircle
 62
7
  6
CONTINUOUS
 10
5.4660097602
 20
2.3321447519
 40
0.345185417
100
AcDbArc
 50
90.0033995785
 51
91.2248550894
  0
ARC
  5
430
100
AcDbEntity
  8
0
100
AcDbCircle
 62
7
  6
CONTINUOUS
 10
5.466011893
 20
2.3454062756
 40
0.3319238935
100
AcDbArc
 50
88.7233993511
 51
90.003903568
  0
ARC
  5
431
100
AcDbEntity
  8
0
100
AcDbCircle
 62
7
  6
CONTINUOUS
 10
5.4429371261
 20
2.3997755818
 40
0.0196850394
100
AcDbArc
 50
269.9972643244
 51
280.4683062719
  0
ARC
  5
432
100
AcDbEntity
  8
0
100
AcDbCircle
 62
7
  6
CONTINUOUS
 10
5.6660508094
 20
2.3997755818
 40
0.0196850394
100
AcDbArc
 50
269.9972642494
 51
314.9974348102
  0
ARC
  5
433
100
AcDbEntity
  8
0
100
AcDbCircle
 62
7
  6
CONTINUOUS
 10
5.4500749654
 20
2.3997755818
 40
0.0196850394
100
AcDbArc
 50
225.0025651901
 51
270.002735751
  0
ARC
  5
434
100
AcDbEntity
  8
0
100
AcDbCircle
 62
7
  6
CONTINUOUS
 10
5.7020434694
 20
2.3800905424
 40
0.0196850394
100
AcDbArc
 50
90.00392895
 51
135.0024317524
  0
ARC
  5
435
100
AcDbEntity
  8
0
100
AcDbCircle
 62
7
  6
CONTINUOUS
 10
5.4140823055
 20
2.3800905424
 40
0.0196850394
100
AcDbArc
 50
44.9975682479
 51
89.9960710504
  0
ARC
  5
436
100
AcDbEntity
  8
0
100
AcDbCircle
 62
7
  6
CONTINUOUS
 10
5.3211469389
 20
2.3997755818
 40
0.0196850394
100
AcDbArc
 50
269.9972643243
 51
314.9974348682
  0
ARC
  5
437
100
AcDbEntity
  8
0
100
AcDbCircle
 62
7
  6
CONTINUOUS
 10
5.3571395988
 20
2.3800905424
 40
0.0196850394
100
AcDbArc
 50
90.0039181287
 51
135.0024249216
  0
ARC
  5
438
100
AcDbEntity
  8
0
100
AcDbCircle
 62
7
  6
CONTINUOUS
 10
5.3440464626
 20
2.4970640881
 40
0.0118110236
100
AcDbArc
 50
269.9997403658
 51
314.9997468342
  0
ARC
  5
439
100
AcDbEntity
  8
0
100
AcDbCircle
 62
7
  6
CONTINUOUS
 10
5.5623304326
 20
2.4970640881
 40
0.0118110236
100
AcDbArc
 50
269.9997403685
 51
314.9997468361
  0
ARC
  5
43A
100
AcDbEntity
  8
0
100
AcDbCircle
 62
7
  6
CONTINUOUS
 10
5.4697528002
 20
2.4970640881
 40
0.0118110236
100
AcDbArc
 50
225.0002531657
 51
270.0002596341
  0
ARC
  5
43B
100
AcDbEntity
  8
0
100
AcDbCircle
 62
7
  6
CONTINUOUS
 10
5.3527207032
 20
2.6064473727
 40
0.0757538119
100
AcDbArc
 50
282.7742979481
 51
284.3452963324
  0
ARC
  5
43C
100
AcDbEntity
  8
0
100
AcDbCircle
 62
7
  6
CONTINUOUS
 10
5.5700335743
 20
2.605274594
 40
0.0724338829
100
AcDbArc
 50
284.7777965069
 51
285.704248983
  0
ARC
  5
43D
100
AcDbEntity
  8
0
100
AcDbCircle
 62
7
  6
CONTINUOUS
 10
5.3653468084
 20
2.5127046938
 40
0.0303239574
100
AcDbArc
 50
70.422677421
 51
71.3646415958
  0
ARC
  5
43E
100
AcDbEntity
  8
0
100
AcDbCircle
 62
7
  6
CONTINUOUS
 10
5.3370462365
 20
2.6710757889
 40
0.0196850394
100
AcDbArc
 50
314.9975411864
 51
360.0
  0
ARC
  5
43F
100
AcDbEntity
  8
0
100
AcDbCircle
 62
7
  6
CONTINUOUS
 10
5.3288924262
 20
2.6629219786
 40
0.0196850394
100
AcDbArc
 50
269.998993262
 51
314.9988567098
  0
ARC
  5
440
100
AcDbEntity
  8
0
100
AcDbCircle
 62
7
  6
CONTINUOUS
 10
5.7548250101
 20
2.6710757889
 40
0.0196850394
100
AcDbArc
 50
314.9975411859
 51
360.0
  0
ARC
  5
441
100
AcDbEntity
  8
0
100
AcDbCircle
 62
7
  6
CONTINUOUS
 10
5.6288407581
 20
2.6710757889
 40
0.0196850394
100
AcDbArc
 50
180.0
 51
225.0024588136
  0
ARC
  5
442
100
AcDbEntity
  8
0
100
AcDbCircle
 62
7
  6
CONTINUOUS
 10
5.6369945684
 20
2.6629219786
 40
0.0196850394
100
AcDbArc
 50
225.0011432902
 51
270.001006738
  0
ARC
  5
443
100
AcDbEntity
  8
0
100
AcDbCircle
 62
7
  6
CONTINUOUS
 10
5.7466711998
 20
2.6629219786
 40
0.0196850394
100
AcDbArc
 50
269.998993262
 51
314.9988567098
  0
ARC
  5
444
100
AcDbEntity
  8
0
100
AcDbCircle
 62
7
  6
CONTINUOUS
 10
5.405558289
 20
2.6295286206
 40
0.0196850394
100
AcDbArc
 50
180.0
 51
225.0012047959
  0
ARC
  5
445
100
AcDbEntity
  8
0
100
AcDbCircle
 62
7
  6
CONTINUOUS
 10
5.5079204937
 20
2.6295286206
 40
0.0196850394
100
AcDbArc
 50
314.9987952046
 51
360.0
  0
ARC
  5
446
100
AcDbEntity
  8
0
100
AcDbCircle
 62
7
  6
CONTINUOUS
 10
5.4997666835
 20
2.6213748103
 40
0.0196850394
100
AcDbArc
 50
269.9989177866
 51
314.9986727949
  0
ARC
  5
447
100
AcDbEntity
  8
0
100
AcDbCircle
 62
7
  6
CONTINUOUS
 10
5.4137120993
 20
2.6213748103
 40
0.0196850394
100
AcDbArc
 50
225.001327205
 51
270.0010822134
  0
ARC
  5
448
100
AcDbEntity
  8
0
100
AcDbCircle
 62
7
  6
CONTINUOUS
 10
5.7584791507
 20
2.6295286206
 40
0.0196850394
100
AcDbArc
 50
180.0
 51
225.0012047956
  0
ARC
  5
449
100
AcDbEntity
  8
0
100
AcDbCircle
 62
7
  6
CONTINUOUS
 10
5.766632961
 20
2.6213748103
 40
0.0196850394
100
AcDbArc
 50
225.0013272053
 51
270.0010822137
  0
ARC
  5
44A
100
AcDbEntity
  8
0
100
AcDbCircle
 62
7
  6
CONTINUOUS
 10
5.3568127645
 20
2.50983039
 40
0.0118110236
100
AcDbArc
 50
314.9997000116
 51
360.0
  0
ARC
  5
44B
100
AcDbEntity
  8
0
100
AcDbCircle
 62
7
  6
CONTINUOUS
 10
5.5750967345
 20
2.50983039
 40
0.0118110236
100
AcDbArc
 50
314.9997000106
 51
360.0
  0
ARC
  5
44C
100
AcDbEntity
  8
0
100
AcDbCircle
 62
7
  6
CONTINUOUS
 10
5.4569864983
 20
2.50983039
 40
0.0118110236
100
AcDbArc
 50
180.0
 51
225.0002999876
  0
ARC
  5
44D
100
AcDbEntity
  8
0
100
AcDbCircle
 62
7
  6
CONTINUOUS
 10
5.8376109965
 20
2.3268202296
 40
0.3505176278
100
AcDbArc
 50
91.2733704291
 51
92.4470176736
  0
ARC
  5
44E
100
AcDbEntity
  8
0
100
AcDbCircle
 62
7
  6
CONTINUOUS
 10
5.8368246468
 20
2.3664021713
 40
0.3109280003
100
AcDbArc
 50
90.0083098766
 51
91.2905928536
  0
ARC
  5
44F
100
AcDbEntity
  8
0
100
AcDbCircle
 62
7
  6
CONTINUOUS
 10
5.8249105826
 20
2.3953022445
 40
0.2810668047
100
AcDbArc
 50
99.3092369915
 51
100.3375346163
  0
ARC
  5
450
100
AcDbEntity
  8
0
100
AcDbCircle
 62
7
  6
CONTINUOUS
 10
5.8368784894
 20
2.4043153547
 40
0.2730148316
100
AcDbArc
 50
88.5922408626
 51
90.0207634513
  0
ARC
  5
451
100
AcDbEntity
  8
0
100
AcDbCircle
 62
7
  6
CONTINUOUS
 10
6.1692743278
 20
2.4402304375
 40
0.2370997368
100
AcDbArc
 50
90.0128831749
 51
91.3142004854
  0
ARC
  5
452
100
AcDbEntity
  8
0
100
AcDbCircle
 62
7
  6
CONTINUOUS
 10
6.1241509725
 20
2.3478279512
 40
0.2001837388
100
AcDbArc
 50
90.0126931919
 51
91.3151988084
  0
ARC
  5
453
100
AcDbEntity
  8
0
100
AcDbCircle
 62
7
  6
CONTINUOUS
 10
6.1693868599
 20
2.4894859215
 40
0.18784432
100
AcDbArc
 50
88.3022527356
 51
90.0505855851
  0
ARC
  5
454
100
AcDbEntity
  8
0
100
AcDbCircle
 62
7
  6
CONTINUOUS
 10
6.1238486474
 20
2.3896448647
 40
0.1583670305
100
AcDbArc
 50
89.4387340865
 51
89.9066662527
  0
ARC
  5
455
100
AcDbEntity
  8
0
100
AcDbCircle
 62
7
  6
CONTINUOUS
 10
6.1243669478
 20
2.4307586999
 40
0.1172501477
100
AcDbArc
 50
88.2484158937
 51
89.4951909415
  0
ARC
  5
456
100
AcDbEntity
  8
0
100
AcDbCircle
 62
7
  6
CONTINUOUS
 10
6.0014044025
 20
2.4772277625
 40
0.0393700787
100
AcDbArc
 50
117.2087954148
 51
160.0000832608
  0
ARC
  5
457
100
AcDbEntity
  8
0
100
AcDbCircle
 62
7
  6
CONTINUOUS
 10
5.8445861903
 20
2.3997755818
 40
0.0196850394
100
AcDbArc
 50
269.9984126899
 51
314.9974348681
  0
ARC
  5
458
100
AcDbEntity
  8
0
100
AcDbCircle
 62
7
  6
CONTINUOUS
 10
5.8805788502
 20
2.3800905424
 40
0.0196850394
100
AcDbArc
 50
93.5839805503
 51
135.0015141204
  0
ARC
  5
459
100
AcDbEntity
  8
0
100
AcDbCircle
 62
7
  6
CONTINUOUS
 10
5.9175337385
 20
2.4194606212
 40
0.0196850394
100
AcDbArc
 50
269.9997582066
 51
339.9999051805
  0
ARC
  5
45A
100
AcDbEntity
  8
0
100
AcDbCircle
 62
7
  6
CONTINUOUS
 10
5.9985311778
 20
2.4970640881
 40
0.0118110236
100
AcDbArc
 50
269.9997435846
 51
293.6088848516
  0
ARC
  5
45B
100
AcDbEntity
  8
0
100
AcDbCircle
 62
7
  6
CONTINUOUS
 10
6.1005583082
 20
2.4970640881
 40
0.0118110236
100
AcDbArc
 50
269.9997248139
 51
314.9997468357
  0
ARC
  5
45C
100
AcDbEntity
  8
0
100
AcDbCircle
 62
7
  6
CONTINUOUS
 10
6.0079806758
 20
2.4970640881
 40
0.0118110236
100
AcDbArc
 50
225.0002531656
 51
270.0002751881
  0
ARC
  5
45D
100
AcDbEntity
  8
0
100
AcDbCircle
 62
7
  6
CONTINUOUS
 10
6.1885655213
 20
2.4970640881
 40
0.0118110236
100
AcDbArc
 50
269.9997678089
 51
314.9997468348
  0
ARC
  5
45E
100
AcDbEntity
  8
0
100
AcDbCircle
 62
7
  6
CONTINUOUS
 10
6.2249928911
 20
2.4970640881
 40
0.0118110236
100
AcDbArc
 50
269.9999536688
 51
314.9997468346
  0
ARC
  5
45F
100
AcDbEntity
  8
0
100
AcDbCircle
 62
7
  6
CONTINUOUS
 10
6.0170713844
 20
2.6858803085
 40
0.0245790481
100
AcDbArc
 50
125.0754381088
 51
126.5033507929
  0
ARC
  5
460
100
AcDbEntity
  8
0
100
AcDbCircle
 62
7
  6
CONTINUOUS
 10
6.1441328507
 20
2.6710757889
 40
0.0196850394
100
AcDbArc
 50
314.9975411858
 51
360.0
  0
ARC
  5
461
100
AcDbEntity
  8
0
100
AcDbCircle
 62
7
  6
CONTINUOUS
 10
6.0181485987
 20
2.6710757889
 40
0.0196850394
100
AcDbArc
 50
180.0
 51
225.0024588142
  0
ARC
  5
462
100
AcDbEntity
  8
0
100
AcDbCircle
 62
7
  6
CONTINUOUS
 10
6.026302409
 20
2.6629219786
 40
0.0196850394
100
AcDbArc
 50
225.00114329
 51
270.0010067377
  0
ARC
  5
463
100
AcDbEntity
  8
0
100
AcDbCircle
 62
7
  6
CONTINUOUS
 10
6.1359790404
 20
2.6629219786
 40
0.0196850394
100
AcDbArc
 50
269.9989932623
 51
314.99885671
  0
ARC
  5
464
100
AcDbEntity
  8
0
100
AcDbCircle
 62
7
  6
CONTINUOUS
 10
6.0748993389
 20
2.6295286206
 40
0.0196850394
100
AcDbArc
 50
180.0
 51
225.0012047948
  0
ARC
  5
465
100
AcDbEntity
  8
0
100
AcDbCircle
 62
7
  6
CONTINUOUS
 10
6.1772615436
 20
2.6295286206
 40
0.0196850394
100
AcDbArc
 50
314.9987952044
 51
360.0
  0
ARC
  5
466
100
AcDbEntity
  8
0
100
AcDbCircle
 62
7
  6
CONTINUOUS
 10
6.1691077334
 20
2.6213748103
 40
0.0196850394
100
AcDbArc
 50
269.9989177867
 51
314.998672795
  0
ARC
  5
467
100
AcDbEntity
  8
0
100
AcDbCircle
 62
7
  6
CONTINUOUS
 10
6.0830531492
 20
2.6213748103
 40
0.0196850394
100
AcDbArc
 50
225.0013272057
 51
270.0010822143
  0
ARC
  5
468
100
AcDbEntity
  8
0
100
AcDbCircle
 62
7
  6
CONTINUOUS
 10
5.8526875451
 20
2.6213748103
 40
0.0196850394
100
AcDbArc
 50
269.9989177863
 51
314.9986727947
  0
ARC
  5
469
100
AcDbEntity
  8
0
100
AcDbCircle
 62
7
  6
CONTINUOUS
 10
5.8608413554
 20
2.6295286206
 40
0.0196850394
100
AcDbArc
 50
314.9987952051
 51
360.0
  0
ARC
  5
46A
100
AcDbEntity
  8
0
100
AcDbCircle
 62
7
  6
CONTINUOUS
 10
6.1133246101
 20
2.50983039
 40
0.0118110236
100
AcDbArc
 50
314.9997000108
 51
360.0
  0
ARC
  5
46B
100
AcDbEntity
  8
0
100
AcDbCircle
 62
7
  6
CONTINUOUS
 10
5.9952143739
 20
2.50983039
 40
0.0118110236
100
AcDbArc
 50
180.0
 51
225.0002999879
  0
ARC
  5
46C
100
AcDbEntity
  8
0
100
AcDbCircle
 62
7
  6
CONTINUOUS
 10
6.2013318232
 20
2.50983039
 40
0.0118110236
100
AcDbArc
 50
314.9997000109
 51
360.0
  0
ARC
  5
46D
100
AcDbEntity
  8
0
100
AcDbCircle
 62
7
  6
CONTINUOUS
 10
6.2377591931
 20
2.50983039
 40
0.0118110236
100
AcDbArc
 50
314.9997000108
 51
360.0
  0
ARC
  5
46E
100
AcDbEntity
  8
0
100
AcDbCircle
 62
7
  6
CONTINUOUS
 10
6.2613036639
 20
2.5363223678
 40
0.0118046188
100
AcDbArc
 50
97.875003196
 51
171.1765677269
  0
ARC
  5
46F
100
AcDbEntity
  8
0
100
AcDbCircle
 62
7
  6
CONTINUOUS
 10
6.2611964861
 20
2.5363268767
 40
0.0116982588
100
AcDbArc
 50
171.1178702274
 51
180.0494100619
  0
ARC
  5
470
100
AcDbEntity
  8
0
100
AcDbCircle
 62
7
  6
CONTINUOUS
 10
7.0067872616
 20
-3.8085674668
 40
6.4004498558
100
AcDbArc
 50
96.8444801656
 51
97.1023169878
  0
ARC
  5
471
100
AcDbEntity
  8
0
100
AcDbCircle
 62
7
  6
CONTINUOUS
 10
6.4183958475
 20
0.2625819483
 40
2.2947553006
100
AcDbArc
 50
97.105553925
 51
97.3266783124
  0
ARC
  5
472
100
AcDbEntity
  8
0
100
AcDbCircle
 62
7
  6
CONTINUOUS
 10
6.3692064837
 20
0.9279044219
 40
1.6168807574
100
AcDbArc
 50
98.5502013907
 51
98.6829402513
  0
ARC
  5
473
100
AcDbEntity
  8
0
100
AcDbCircle
 62
7
  6
CONTINUOUS
 10
7.0279405864
 20
1.7952157435
 40
0.9396224919
100
AcDbArc
 50
104.232946669
 51
105.2435696443
  0
ARC
  5
474
100
AcDbEntity
  8
0
100
AcDbCircle
 62
7
  6
CONTINUOUS
 10
6.7217191665
 20
1.8446520713
 40
0.8382575535
100
AcDbArc
 50
99.0882027458
 51
99.4546351358
  0
ARC
  5
475
100
AcDbEntity
  8
0
100
AcDbCircle
 62
7
  6
CONTINUOUS
 10
6.3929083827
 20
2.4527831426
 40
0.2165508689
100
AcDbArc
 50
105.3833711864
 51
106.8089005307
  0
ARC
  5
476
100
AcDbEntity
  8
0
100
AcDbCircle
 62
7
  6
CONTINUOUS
 10
7.3440541105
 20
2.8409110359
 40
0.08
100
AcDbArc
 50
2.2714508417
 51
67.1367765694
  0
ARC
  5
477
100
AcDbEntity
  8
0
100
AcDbCircle
 62
7
  6
CONTINUOUS
 10
6.9430656546
 20
2.6629219786
 40
0.0196850394
100
AcDbArc
 50
269.998993262
 51
314.9988567098
  0
ARC
  5
478
100
AcDbEntity
  8
0
100
AcDbCircle
 62
7
  6
CONTINUOUS
 10
6.9512194649
 20
2.6710757889
 40
0.0196850394
100
AcDbArc
 50
314.9975411863
 51
360.0
  0
ARC
  5
479
100
AcDbEntity
  8
0
100
AcDbCircle
 62
7
  6
CONTINUOUS
 10
6.4784390723
 20
2.6710757889
 40
0.0196850394
100
AcDbArc
 50
314.9975411861
 51
360.0
  0
ARC
  5
47A
100
AcDbEntity
  8
0
100
AcDbCircle
 62
7
  6
CONTINUOUS
 10
6.3524548203
 20
2.6710757889
 40
0.0196850394
100
AcDbArc
 50
180.0
 51
225.0024588138
  0
ARC
  5
47B
100
AcDbEntity
  8
0
100
AcDbCircle
 62
7
  6
CONTINUOUS
 10
6.3606086306
 20
2.6629219786
 40
0.0196850394
100
AcDbArc
 50
225.0011432895
 51
270.0010067371
  0
ARC
  5
47C
100
AcDbEntity
  8
0
100
AcDbCircle
 62
7
  6
CONTINUOUS
 10
6.470285262
 20
2.6629219786
 40
0.0196850394
100
AcDbArc
 50
269.9989932614
 51
314.9988567094
  0
ARC
  5
47D
100
AcDbEntity
  8
0
100
AcDbCircle
 62
7
  6
CONTINUOUS
 10
6.4274637352
 20
2.6213748103
 40
0.0196850394
100
AcDbArc
 50
269.9989099294
 51
314.9986727884
  0
ARC
  5
47E
100
AcDbEntity
  8
0
100
AcDbCircle
 62
7
  6
CONTINUOUS
 10
6.4356175455
 20
2.6295286206
 40
0.0196850394
100
AcDbArc
 50
314.9987952044
 51
360.0
  0
ARC
  5
47F
100
AcDbEntity
  8
0
100
AcDbCircle
 62
7
  6
CONTINUOUS
 10
6.3332553407
 20
2.6295286206
 40
0.0196850394
100
AcDbArc
 50
180.0
 51
225.0012047956
  0
ARC
  5
480
100
AcDbEntity
  8
0
100
AcDbCircle
 62
7
  6
CONTINUOUS
 10
6.341409151
 20
2.6213748103
 40
0.0196850394
100
AcDbArc
 50
225.0013272116
 51
270.0010900706
  0
ARC
  5
481
100
AcDbEntity
  8
0
100
AcDbCircle
 62
7
  6
CONTINUOUS
 10
6.8962178459
 20
2.6710757889
 40
0.0196850394
100
AcDbArc
 50
314.9975411863
 51
360.0
  0
ARC
  5
482
100
AcDbEntity
  8
0
100
AcDbCircle
 62
7
  6
CONTINUOUS
 10
6.7702335939
 20
2.6710757889
 40
0.0196850394
100
AcDbArc
 50
206.1249085247
 51
225.0024588147
  0
ARC
  5
483
100
AcDbEntity
  8
0
100
AcDbCircle
 62
7
  6
CONTINUOUS
 10
6.7783874042
 20
2.6629219786
 40
0.0196850394
100
AcDbArc
 50
225.0011432896
 51
270.0008463776
  0
ARC
  5
484
100
AcDbEntity
  8
0
100
AcDbCircle
 62
7
  6
CONTINUOUS
 10
6.8880640356
 20
2.6629219786
 40
0.0196850394
100
AcDbArc
 50
269.9991536212
 51
314.9988567095
  0
ARC
  5
485
100
AcDbEntity
  8
0
100
AcDbCircle
 62
7
  6
CONTINUOUS
 10
6.5159406216
 20
2.6295286206
 40
0.0196850394
100
AcDbArc
 50
180.0
 51
225.0012049649
  0
ARC
  5
486
100
AcDbEntity
  8
0
100
AcDbCircle
 62
7
  6
CONTINUOUS
 10
6.6183028263
 20
2.6295286206
 40
0.0196850394
100
AcDbArc
 50
314.9987950343
 51
360.0
  0
ARC
  5
487
100
AcDbEntity
  8
0
100
AcDbCircle
 62
7
  6
CONTINUOUS
 10
6.610149016
 20
2.6213748103
 40
0.0196850394
100
AcDbArc
 50
269.9988674531
 51
314.9986727936
  0
ARC
  5
488
100
AcDbEntity
  8
0
100
AcDbCircle
 62
7
  6
CONTINUOUS
 10
6.5240944319
 20
2.6213748103
 40
0.0196850394
100
AcDbArc
 50
225.0013272064
 51
270.0011325469
  0
ARC
  5
489
100
AcDbEntity
  8
0
100
AcDbCircle
 62
7
  6
CONTINUOUS
 10
6.7047138759
 20
2.6213748103
 40
0.0196850394
100
AcDbArc
 50
269.9994703128
 51
314.998672795
  0
ARC
  5
48A
100
AcDbEntity
  8
0
100
AcDbCircle
 62
7
  6
CONTINUOUS
 10
6.7128676862
 20
2.6295286206
 40
0.0196850394
100
AcDbArc
 50
314.9987952045
 51
360.0
  0
ARC
  5
48B
100
AcDbEntity
  8
0
100
AcDbCircle
 62
7
  6
CONTINUOUS
 10
6.6186592917
 20
2.6213748103
 40
0.0196850394
100
AcDbArc
 50
257.4937962893
 51
270.0005296873
  0
ARC
  5
48C
100
AcDbEntity
  8
0
100
AcDbCircle
 62
7
  6
CONTINUOUS
 10
6.7349612584
 20
2.6710757889
 40
0.0196850394
100
AcDbArc
 50
314.9989767129
 51
360.0
  0
ARC
  5
48D
100
AcDbEntity
  8
0
100
AcDbCircle
 62
7
  6
CONTINUOUS
 10
6.6089770064
 20
2.6710757889
 40
0.0196850394
100
AcDbArc
 50
180.0
 51
225.0010232871
  0
ARC
  5
48E
100
AcDbEntity
  8
0
100
AcDbCircle
 62
7
  6
CONTINUOUS
 10
6.6171308167
 20
2.6629219786
 40
0.0196850394
100
AcDbArc
 50
225.0010369649
 51
270.000965867
  0
ARC
  5
48F
100
AcDbEntity
  8
0
100
AcDbCircle
 62
7
  6
CONTINUOUS
 10
6.7268074481
 20
2.6629219786
 40
0.0196850394
100
AcDbArc
 50
269.999034133
 51
314.9989630351
  0
ARC
  5
490
100
AcDbEntity
  8
0
100
AcDbCircle
 62
7
  6
CONTINUOUS
 10
6.5348322012
 20
2.6043755947
 40
0.0078740157
100
AcDbArc
 50
280.1465387618
 51
340.0239308105
  0
ARC
  5
491
100
AcDbEntity
  8
0
100
AcDbCircle
 62
7
  6
CONTINUOUS
 10
7.0404730133
 20
2.7138696212
 40
0.0078740157
100
AcDbArc
 50
270.0
 51
284.2899403573
  0
ARC
  5
492
100
AcDbEntity
  8
0
100
AcDbCircle
 62
7
  6
CONTINUOUS
 10
5.2740679437
 20
9.6489130666
 40
7.1691060897
100
AcDbArc
 50
277.895366564
 51
279.3230697234
  0
ARC
  5
493
100
AcDbEntity
  8
0
100
AcDbCircle
 62
7
  6
CONTINUOUS
 10
5.2740679437
 20
9.6489483765
 40
7.1643816803
100
AcDbArc
 50
279.4251203928
 51
280.1467817724
  0
ARC
  5
494
100
AcDbEntity
  8
0
100
AcDbCircle
 62
7
  6
CONTINUOUS
 10
5.2740679437
 20
9.6489483765
 40
7.1643816803
100
AcDbArc
 50
284.2897268228
 51
284.9326934147
  0
ARC
  5
495
100
AcDbEntity
  8
0
100
AcDbCircle
 62
7
  6
CONTINUOUS
 10
5.2740541105
 20
4.9360739159
 40
2.5590551181
100
AcDbArc
 50
264.5188586967
 51
265.9005806951
  0
ARC
  5
496
100
AcDbEntity
  8
0
100
AcDbCircle
 62
7
  6
CONTINUOUS
 10
5.2740541105
 20
4.9360739159
 40
2.5590551181
100
AcDbArc
 50
266.6527317001
 51
268.3189505182
  0
ARC
  5
497
100
AcDbEntity
  8
0
100
AcDbCircle
 62
7
  6
CONTINUOUS
 10
5.2740541105
 20
4.9360739159
 40
2.5590551181
100
AcDbArc
 50
268.6729177583
 51
273.6363791601
  0
ARC
  5
498
100
AcDbEntity
  8
0
100
AcDbCircle
 62
7
  6
CONTINUOUS
 10
7.288235841
 20
5.5495720494
 40
1.9
100
AcDbArc
 50
219.5093819436
 51
257.5422489206
  0
ARC
  5
499
100
AcDbEntity
  8
ALL_FEATURES
100
AcDbCircle
 62
7
  6
CONTINUOUS
 10
5.2740541105
 20
5.0449110359
 40
0.489
100
AcDbArc
 50
28.8668697291
 51
45.0258404644
  0
ARC
  5
49A
100
AcDbEntity
  8
ALL_FEATURES
100
AcDbCircle
 62
7
  6
CONTINUOUS
 10
5.2740541105
 20
5.0449110359
 40
0.489
100
AcDbArc
 50
134.9741595356
 51
151.1331302709
  0
ARC
  5
49B
100
AcDbEntity
  8
0
100
AcDbCircle
 62
7
  6
CONTINUOUS
 10
7.6290541105
 20
3.2691566388
 40
0.45
100
AcDbArc
 50
180.0
 51
218.3789847992
  0
ARC
  5
49C
100
AcDbEntity
  8
0
100
AcDbCircle
 62
7
  6
CONTINUOUS
 10
7.4722698641
 20
3.1449845805
 40
0.25
100
AcDbArc
 50
218.3789847992
 51
247.1367765694
  0
ARC
  5
49D
100
AcDbEntity
  8
ALL_FEATURES
100
AcDbCircle
 62
7
  6
CONTINUOUS
 10
5.5385541105
 20
5.6887831856
 40
0.188
100
AcDbArc
 50
315.0
 51
335.0824346829
  0
ARC
  5
49E
100
AcDbEntity
  8
ALL_FEATURES
100
AcDbCircle
 62
7
  6
CONTINUOUS
 10
5.6762163706
 20
5.4474362109
 40
0.08
100
AcDbArc
 50
135.0
 51
225.0258404644
  0
ARC
  5
49F
100
AcDbEntity
  8
0
100
AcDbCircle
 62
7
  6
CONTINUOUS
 10
7.1040541105
 20
3.4522054664
 40
0.075
100
AcDbArc
 50
0.0
 51
66.0000000002
  0
ARC
  5
4A0
100
AcDbEntity
  8
0
100
AcDbCircle
 62
7
  6
CONTINUOUS
 10
6.8740541105
 20
3.6747777956
 40
0.02
100
AcDbArc
 50
0.0
 51
77.5422489226
  0
ARC
  5
4A1
100
AcDbEntity
  8
0
100
AcDbCircle
 62
7
  6
CONTINUOUS
 10
6.9140541105
 20
3.640789363
 40
0.02
100
AcDbArc
 50
180.0
 51
246.0000000025
  0
SPLINE
  5
4A2
100
AcDbEntity
  8
0
100
AcDbSpline
 62
7
  6
CONTINUOUS
 70
0
 71
3
 72
12
 73
8
 74
0
 42
0.0000001
 43
0.0000001
 44
0.0000000001
 40
0.0
 40
0.0
 40
0.0
 40
0.0
 40
0.263960166
 40
0.5280579552
 40
0.7779143755
 40
0.8932213271
 40
1.0
 40
1.0
 40
1.0
 40
1.0
 10
6.5840214092
 20
2.6715227102
 30
0.0
 10
6.5784121641
 20
2.6705888591
 30
0.0
 10
6.567208578
 20
2.6686122625
 30
0.0
 10
6.5507564398
 20
2.6654189516
 30
0.0
 10
6.5374958054
 20
2.6625993642
 30
0.0
 10
6.5275874066
 20
2.6603201848
 30
0.0
 10
6.5229383157
 20
2.6591898077
 30
0.0
 10
6.5207074511
 20
2.6586288334
 30
0.0
  0
SPLINE
  5
4A3
100
AcDbEntity
  8
0
100
AcDbSpline
 62
7
  6
CONTINUOUS
 70
0
 71
3
 72
17
 73
13
 74
0
 42
0.0000001
 43
0.0000001
 44
0.0000000001
 40
0.0
 40
0.0
 40
0.0
 40
0.0
 40
0.1925985914
 40
0.3684393254
 40
0.5260472774
 40
0.6639801359
 40
0.7810920479
 40
0.876514544
 40
0.9158625317
 40
0.9495396938
 40
0.9775451278
 40
1.0
 40
1.0
 40
1.0
 40
1.0
 10
6.5207074511
 20
2.6586288334
 30
0.0
 10
6.5191308169
 20
2.6582323722
 30
0.0
 10
6.5161189161
 20
2.6574571189
 30
0.0
 10
6.5118339492
 20
2.6562921454
 30
0.0
 10
6.5080118573
 20
2.6551853607
 30
0.0
 10
6.5046867024
 20
2.6541467873
 30
0.0
 10
6.5018885449
 20
2.6531856229
 30
0.0
 10
6.4999051564
 20
2.6524165185
 30
0.0
 10
6.4986071039
 20
2.6518355005
 30
0.0
 10
6.4978444717
 20
2.6514528525
 30
0.0
 10
6.4972301421
 20
2.6510957032
 30
0.0
 10
6.4968815237
 20
2.6508487927
 30
0.0
 10
6.4967363787
 20
2.6507268968
 30
0.0
  0
LINE
  5
4A4
100
AcDbEntity
  8
0
100
AcDbLine
 62
7
  6
CONTINUOUS
 10
6.4967363787
 20
2.6507268968
 11
6.4962614508
 21
2.6500782722
  0
SPLINE
  5
4A5
100
AcDbEntity
  8
0
100
AcDbSpline
 62
7
  6
CONTINUOUS
 70
0
 71
3
 72
8
 73
4
 74
0
 42
0.0000001
 43
0.0000001
 44
0.0000000001
 40
0.0
 40
0.0
 40
0.0
 40
0.0
 40
1.0
 40
1.0
 40
1.0
 40
1.0
 10
6.4962614508
 20
2.6500782722
 30
0.0
 10
6.4962575466
 20
2.6500546962
 30
0.0
 10
6.4962554265
 20
2.6500307347
 30
0.0
 10
6.4962553902
 20
2.6500068377
 30
0.0
  0
SPLINE
  5
4A6
100
AcDbEntity
  8
0
100
AcDbSpline
 62
7
  6
CONTINUOUS
 70
0
 71
3
 72
13
 73
9
 74
0
 42
0.0000001
 43
0.0000001
 44
0.0000000001
 40
0.0
 40
0.0
 40
0.0
 40
0.0
 40
0.3220369835
 40
0.5998306448
 40
0.7202518183
 40
0.8274981224
 40
0.9209458714
 40
1.0
 40
1.0
 40
1.0
 40
1.0
 10
6.7808922841
 20
2.7017793451
 30
0.0
 10
6.7780328733
 20
2.7009969309
 30
0.0
 10
6.7727156637
 20
2.699507249
 30
0.0
 10
6.7663610258
 20
2.6976134541
 30
0.0
 10
6.7619272077
 20
2.6962016285
 30
0.0
 10
6.7591241392
 20
2.6952625433
 30
0.0
 10
6.7566983545
 20
2.6943975426
 30
0.0
 10
6.7552167431
 20
2.6938252011
 30
0.0
 10
6.7545435351
 20
2.6935488129
 30
0.0
  0
SPLINE
  5
4A7
100
AcDbEntity
  8
0
100
AcDbSpline
 62
7
  6
CONTINUOUS
 70
0
 71
3
 72
17
 73
13
 74
0
 42
0.0000001
 43
0.0000001
 44
0.0000000001
 40
0.0
 40
0.0
 40
0.0
 40
0.0
 40
0.1956583317
 40
0.3724183383
 40
0.5293324176
 40
0.6656562704
 40
0.7807619221
 40
0.8742797791
 40
0.9130614105
 40
0.9467150105
 40
0.9755293042
 40
1.0
 40
1.0
 40
1.0
 40
1.0
 10
6.3302860927
 20
2.6600817861
 30
0.0
 10
6.3291338234
 20
2.6597323821
 30
0.0
 10
6.3269471032
 20
2.6590454135
 30
0.0
 10
6.3238647604
 20
2.6579902678
 30
0.0
 10
6.3211586648
 20
2.6569675338
 30
0.0
 10
6.318844761
 20
2.6559847184
 30
0.0
 10
6.3169382807
 20
2.6550487855
 30
0.0
 10
6.315625268
 20
2.6542716746
 30
0.0
 10
6.3148023095
 20
2.6536654398
 30
0.0
 10
6.3143330527
 20
2.6532539186
 30
0.0
 10
6.3139723493
 20
2.6528570423
 30
0.0
 10
6.3137912722
 20
2.6525807887
 30
0.0
 10
6.3137241819
 20
2.6524459667
 30
0.0
  0
LINE
  5
4A8
100
AcDbEntity
  8
0
100
AcDbLine
 62
7
  6
CONTINUOUS
 10
6.3137241819
 20
2.6524459667
 11
6.3135711384
 21
2.651858143
  0
SPLINE
  5
4A9
100
AcDbEntity
  8
0
100
AcDbSpline
 62
7
  6
CONTINUOUS
 70
0
 71
3
 72
11
 73
7
 74
0
 42
0.0000001
 43
0.0000001
 44
0.0000000001
 40
0.0
 40
0.0
 40
0.0
 40
0.0
 40
0.2546807877
 40
0.5101777919
 40
0.760526277
 40
1.0
 40
1.0
 40
1.0
 40
1.0
 10
5.8226454596
 20
2.6770182309
 30
0.0
 10
5.818960753
 20
2.6768615544
 30
0.0
 10
5.8115838411
 20
2.6764368471
 30
0.0
 10
5.8006099677
 20
2.675490282
 30
0.0
 10
5.7898864475
 20
2.6742549113
 30
0.0
 10
5.7828664973
 20
2.6732285671
 30
0.0
 10
5.7794443967
 20
2.6726673011
 30
0.0
  0
SPLINE
  5
4AA
100
AcDbEntity
  8
0
100
AcDbSpline
 62
7
  6
CONTINUOUS
 70
0
 71
3
 72
11
 73
7
 74
0
 42
0.0000001
 43
0.0000001
 44
0.0000000001
 40
0.0
 40
0.0
 40
0.0
 40
0.0
 40
0.2741987848
 40
0.5351765419
 40
0.7782813469
 40
1.0
 40
1.0
 40
1.0
 40
1.0
 10
5.0748618979
 20
2.6772512956
 30
0.0
 10
5.0719150106
 20
2.6771869492
 30
0.0
 10
5.06616465
 20
2.6769842343
 30
0.0
 10
5.0578143142
 20
2.6764450471
 30
0.0
 10
5.0500476361
 20
2.6756860652
 30
0.0
 10
5.0450947265
 20
2.67501186
 30
0.0
 10
5.042741745
 20
2.6746320554
 30
0.0
  0
SPLINE
  5
4AB
100
AcDbEntity
  8
0
100
AcDbSpline
 62
7
  6
CONTINUOUS
 70
0
 71
3
 72
17
 73
13
 74
0
 42
0.0000001
 43
0.0000001
 44
0.0000000001
 40
0.0
 40
0.0
 40
0.0
 40
0.0
 40
0.1905166424
 40
0.3632698114
 40
0.5172485128
 40
0.6516075531
 40
0.7660862829
 40
0.8160015549
 40
0.861164929
 40
0.901770163
 40
0.9381209209
 40
1.0
 40
1.0
 40
1.0
 40
1.0
 10
5.042741745
 20
2.6746320554
 30
0.0
 10
5.0412261804
 20
2.6743874218
 30
0.0
 10
5.0383434742
 20
2.6738744827
 30
0.0
 10
5.0342708824
 20
2.6729821831
 30
0.0
 10
5.0306822595
 20
2.6720121371
 30
0.0
 10
5.0276053844
 20
2.6709711373
 30
0.0
 10
5.0253917987
 20
2.6700134022
 30
0.0
 10
5.0239080212
 20
2.6692047641
 30
0.0
 10
5.0229868521
 20
2.6686141538
 30
0.0
 10
5.0222062243
 20
2.6680113653
 30
0.0
 10
5.021399771
 20
2.6672362746
 30
0.0
 10
5.0209344768
 20
2.6665720331
 30
0.0
 10
5.0207424287
 20
2.6661118804
 30
0.0
  0
LINE
  5
4AC
100
AcDbEntity
  8
0
100
AcDbLine
 62
7
  6
CONTINUOUS
 10
5.0207424287
 20
2.6661118804
 11
5.0205044115
 21
2.6649647726
  0
SPLINE
  5
4AD
100
AcDbEntity
  8
0
100
AcDbSpline
 62
7
  6
CONTINUOUS
 70
0
 71
3
 72
11
 73
7
 74
0
 42
0.0000001
 43
0.0000001
 44
0.0000000001
 40
0.0
 40
0.0
 40
0.0
 40
0.0
 40
0.2931138867
 40
0.5595775186
 40
0.7961300656
 40
1.0
 40
1.0
 40
1.0
 40
1.0
 10
4.3788872061
 20
2.6773301683
 30
0.0
 10
4.3770182621
 20
2.6773301683
 30
0.0
 10
4.373450041
 20
2.6772841068
 30
0.0
 10
4.3683776869
 20
2.6770606168
 30
0.0
 10
4.3638844589
 20
2.6766913863
 30
0.0
 10
4.3610985043
 20
2.6763229421
 30
0.0
 10
4.3598169765
 20
2.6761051098
 30
0.0
  0
SPLINE
  5
4AE
100
AcDbEntity
  8
0
100
AcDbSpline
 62
7
  6
CONTINUOUS
 70
0
 71
3
 72
13
 73
9
 74
0
 42
0.0000001
 43
0.0000001
 44
0.0000000001
 40
0.0
 40
0.0
 40
0.0
 40
0.0
 40
0.3518263971
 40
0.5011651446
 40
0.6328683068
 40
0.7473418169
 40
0.845556176
 40
1.0
 40
1.0
 40
1.0
 40
1.0
 10
4.3598169765
 20
2.6761051098
 30
0.0
 10
4.3587434346
 20
2.6759226306
 30
0.0
 10
4.3572201047
 20
2.6756168151
 30
0.0
 10
4.3553354173
 20
2.6750787783
 30
0.0
 10
4.3541821012
 20
2.6746666313
 30
0.0
 10
4.3532095187
 20
2.6742223449
 30
0.0
 10
4.3522378504
 20
2.6736392401
 30
0.0
 10
4.3516421262
 20
2.6730841846
 30
0.0
 10
4.3514082217
 20
2.6726673011
 30
0.0
  0
LINE
  5
4AF
100
AcDbEntity
  8
0
100
AcDbLine
 62
7
  6
CONTINUOUS
 10
4.3514082217
 20
2.6726673011
 11
4.3511619036
 21
2.6717614563
  0
SPLINE
  5
4B0
100
AcDbEntity
  8
0
100
AcDbSpline
 62
7
  6
CONTINUOUS
 70
0
 71
3
 72
11
 73
7
 74
0
 42
0.0000001
 43
0.0000001
 44
0.0000000001
 40
0.0
 40
0.0
 40
0.0
 40
0.0
 40
0.2710429664
 40
0.531885548
 40
0.7766584317
 40
1.0
 40
1.0
 40
1.0
 40
1.0
 10
5.451252194
 20
2.6770182309
 30
0.0
 10
5.4475911865
 20
2.676864752
 30
0.0
 10
5.4404110254
 20
2.6764532379
 30
0.0
 10
5.4299515595
 20
2.6755137331
 30
0.0
 10
5.4201713611
 20
2.6742868501
 30
0.0
 10
5.413926898
 20
2.6732432692
 30
0.0
 10
5.4109629934
 20
2.6726673011
 30
0.0
  0
SPLINE
  5
4B1
100
AcDbEntity
  8
0
100
AcDbSpline
 62
7
  6
CONTINUOUS
 70
0
 71
3
 72
19
 73
15
 74
0
 42
0.0000001
 43
0.0000001
 44
0.0000000001
 40
0.0
 40
0.0
 40
0.0
 40
0.0
 40
0.2004213845
 40
0.3804578301
 40
0.5386940067
 40
0.6740207724
 40
0.7328978717
 40
0.7859476501
 40
0.8332944183
 40
0.8751626907
 40
0.9119350989
 40
0.9442437311
 40
0.9731086109
 40
1.0
 40
1.0
 40
1.0
 40
1.0
 10
5.4109629934
 20
2.6726673011
 30
0.0
 10
5.4090824405
 20
2.672301858
 30
0.0
 10
5.4055237898
 20
2.6715478985
 30
0.0
 10
5.4005350775
 20
2.6702645705
 30
0.0
 10
5.3962149883
 20
2.6689043243
 30
0.0
 10
5.3930748338
 20
2.6676716241
 30
0.0
 10
5.3909473025
 20
2.6666398084
 30
0.0
 10
5.3896195157
 20
2.6658926537
 30
0.0
 10
5.3884864425
 20
2.6651379264
 30
0.0
 10
5.3875502317
 20
2.6643768314
 30
0.0
 10
5.3868128849
 20
2.6636099034
 30
0.0
 10
5.3862774858
 20
2.6628354057
 30
0.0
 10
5.385949905
 20
2.6620521595
 30
0.0
 10
5.3858746905
 20
2.6615169035
 30
0.0
 10
5.3858748476
 20
2.6612598617
 30
0.0
  0
LINE
  5
4B2
100
AcDbEntity
  8
0
100
AcDbLine
 62
7
  6
CONTINUOUS
 10
4.7046673826
 20
2.6772512956
 11
4.6925068013
 21
2.6766350614
  0
SPLINE
  5
4B3
100
AcDbEntity
  8
0
100
AcDbSpline
 62
7
  6
CONTINUOUS
 70
0
 71
3
 72
19
 73
15
 74
0
 42
0.0000001
 43
0.0000001
 44
0.0000000001
 40
0.0
 40
0.0
 40
0.0
 40
0.0
 40
0.2054126902
 40
0.3889267076
 40
0.5489839375
 40
0.6844217096
 40
0.7428204217
 40
0.7950348183
 40
0.8411838067
 40
0.8815123314
 40
0.916509473
 40
0.9470066672
 40
0.9742577249
 40
1.0
 40
1.0
 40
1.0
 40
1.0
 10
4.6925068013
 20
2.6766350614
 30
0.0
 10
4.6906385822
 20
2.6764831975
 30
0.0
 10
4.6871055623
 20
2.676137793
 30
0.0
 10
4.6821423807
 20
2.6754450894
 30
0.0
 10
4.6778487158
 20
2.6746154067
 30
0.0
 10
4.6747240284
 20
2.6737823226
 30
0.0
 10
4.672605808
 20
2.6730344896
 30
0.0
 10
4.6712885885
 20
2.6724737183
 30
0.0
 10
4.6701655312
 20
2.6718866804
 30
0.0
 10
4.6692390266
 20
2.6712735732
 30
0.0
 10
4.6685104822
 20
2.6706339985
 30
0.0
 10
4.6679808808
 20
2.669966184
 30
0.0
 10
4.6676557988
 20
2.6692679621
 30
0.0
 10
4.6675826989
 20
2.668781672
 30
0.0
 10
4.6675824649
 20
2.6685467751
 30
0.0
  0
SPLINE
  5
4B4
100
AcDbEntity
  8
0
100
AcDbSpline
 62
7
  6
CONTINUOUS
 70
0
 71
3
 72
11
 73
7
 74
0
 42
0.0000001
 43
0.0000001
 44
0.0000000001
 40
0.0
 40
0.0
 40
0.0
 40
0.0
 40
0.305867677
 40
0.5750961612
 40
0.8065686893
 40
1.0
 40
1.0
 40
1.0
 40
1.0
 10
6.3468669425
 20
2.7059957066
 30
0.0
 10
6.3456487432
 20
2.7054980819
 30
0.0
 10
6.3433742131
 20
2.7045223903
 30
0.0
 10
6.3402512569
 20
2.7030055052
 30
0.0
 10
6.3376491596
 20
2.7015362668
 30
0.0
 10
6.3361354137
 20
2.7005038484
 30
0.0
 10
6.3354821867
 20
2.6999882584
 30
0.0
  0
SPLINE
  5
4B5
100
AcDbEntity
  8
0
100
AcDbSpline
 62
7
  6
CONTINUOUS
 70
0
 71
3
 72
11
 73
7
 74
0
 42
0.0000001
 43
0.0000001
 44
0.0000000001
 40
0.0
 40
0.0
 40
0.0
 40
0.0
 40
0.3225526874
 40
0.5909641175
 40
0.8121689006
 40
1.0
 40
1.0
 40
1.0
 40
1.0
 10
6.3354821867
 20
2.6999882584
 30
0.0
 10
6.3350702333
 20
2.6996631049
 30
0.0
 10
6.3343406398
 20
2.6990331734
 30
0.0
 10
6.3334652017
 20
2.6980353633
 30
0.0
 10
6.3329147388
 20
2.6970684526
 30
0.0
 10
6.3327732404
 20
2.6964010664
 30
0.0
 10
6.3327733413
 20
2.6960954528
 30
0.0
  0
SPLINE
  5
4B6
100
AcDbEntity
  8
0
100
AcDbSpline
 62
7
  6
CONTINUOUS
 70
0
 71
3
 72
13
 73
9
 74
0
 42
0.0000001
 43
0.0000001
 44
0.0000000001
 40
0.0
 40
0.0
 40
0.0
 40
0.0
 40
0.3193543805
 40
0.5861104727
 40
0.7020725762
 40
0.8082456741
 40
0.9066819247
 40
1.0
 40
1.0
 40
1.0
 40
1.0
 10
6.0024500511
 20
2.7056374899
 30
0.0
 10
6.0018449584
 20
2.7051893421
 30
0.0
 10
6.0007721061
 20
2.7043132432
 30
0.0
 10
5.9996497421
 20
2.7030821394
 30
0.0
 10
5.999026659
 20
2.7021091083
 30
0.0
 10
5.9987054922
 20
2.7014219465
 30
0.0
 10
5.9985100109
 20
2.7007439774
 30
0.0
 10
5.9984645557
 20
2.7002909381
 30
0.0
 10
5.9984643911
 20
2.700070912
 30
0.0
  0
LINE
  5
4B7
100
AcDbEntity
  8
0
100
AcDbLine
 62
7
  6
CONTINUOUS
 10
5.6093540659
 20
2.7059957066
 11
5.6091564285
 21
2.7047044789
  0
SPLINE
  5
4B8
100
AcDbEntity
  8
0
100
AcDbSpline
 62
7
  6
CONTINUOUS
 70
0
 71
3
 72
13
 73
9
 74
0
 42
0.0000001
 43
0.0000001
 44
0.0000000001
 40
0.0
 40
0.0
 40
0.0
 40
0.0
 40
0.2521263614
 40
0.3775568217
 40
0.5025705799
 40
0.6272544142
 40
0.7517033208
 40
1.0
 40
1.0
 40
1.0
 40
1.0
 10
3.4632426514
 20
2.4342866671
 30
0.0
 10
3.4781164861
 20
2.4264159114
 30
0.0
 10
3.5011131001
 20
2.4159212994
 30
0.0
 10
3.5327720509
 20
2.4047931868
 30
0.0
 10
3.5568687867
 20
2.3979340758
 30
0.0
 10
3.581275561
 20
2.3925721882
 30
0.0
 10
3.6140934494
 20
2.3874542459
 30
0.0
 10
3.6390078912
 20
2.385904749
 30
0.0
 10
3.6555802282
 20
2.3859058367
 30
0.0
  0
SPLINE
  5
4B9
100
AcDbEntity
  8
0
100
AcDbSpline
 62
7
  6
CONTINUOUS
 70
0
 71
3
 72
19
 73
15
 74
0
 42
0.0000001
 43
0.0000001
 44
0.0000000001
 40
0.0
 40
0.0
 40
0.0
 40
0.0
 40
0.0649984375
 40
0.1295984676
 40
0.2575725214
 40
0.3840558117
 40
0.4467935967
 40
0.5092001016
 40
0.5712991548
 40
0.633117825
 40
0.6946888396
 40
0.7560482873
 40
0.878214596
 40
1.0
 40
1.0
 40
1.0
 40
1.0
 10
4.0253291918
 20
2.5874567404
 30
0.0
 10
4.0201117129
 20
2.5797419832
 30
0.0
 10
4.009286297
 20
2.5646396482
 30
0.0
 10
3.9861426924
 20
2.5358721538
 30
0.0
 10
3.9545247721
 20
2.5027061707
 30
0.0
 10
3.9194731027
 20
2.4735969502
 30
0.0
 10
3.8897687701
 20
2.4531288447
 30
0.0
 10
3.8667770104
 20
2.4392676058
 30
0.0
 10
3.8430937764
 20
2.4269073177
 30
0.0
 10
3.8187976028
 20
2.4160904555
 30
0.0
 10
3.7939656289
 20
2.4068640213
 30
0.0
 10
3.7603140335
 20
2.3967481327
 30
0.0
 10
3.7172802774
 20
2.3882032751
 30
0.0
 10
3.6822851428
 20
2.3859118519
 30
0.0
 10
3.6648349218
 20
2.385907934
 30
0.0
  0
SPLINE
  5
4BA
100
AcDbEntity
  8
0
100
AcDbSpline
 62
7
  6
CONTINUOUS
 70
0
 71
3
 72
33
 73
29
 74
0
 42
0.0000001
 43
0.0000001
 44
0.0000000001
 40
0.0
 40
0.0
 40
0.0
 40
0.0
 40
0.0614221066
 40
0.0922291727
 40
0.1230742132
 40
0.1848670933
 40
0.2158848671
 40
0.2469735586
 40
0.2781419221
 40
0.3093922912
 40
0.340721521
 40
0.3721275892
 40
0.4036074382
 40
0.4351526997
 40
0.4983551315
 40
0.5616712806
 40
0.6249761443
 40
0.6566055761
 40
0.6881879226
 40
0.7197118921
 40
0.7511660498
 40
0.7825422846
 40
0.8138381516
 40
0.8450540553
 40
0.8761942571
 40
0.90726995
 40
0.9382821815
 40
1.0
 40
1.0
 40
1.0
 40
1.0
 10
3.4941981384
 20
2.6929258147
 30
0.0
 10
3.4875292944
 20
2.6914867002
 30
0.0
 10
3.4776758169
 20
2.6884606389
 30
0.0
 10
3.4651975104
 20
2.682850626
 30
0.0
 10
3.4531892849
 20
2.6762040571
 30
0.0
 10
3.4420246122
 20
2.6680827332
 30
0.0
 10
3.4319304344
 20
2.6587131066
 30
0.0
 10
3.4249102603
 20
2.6510782998
 30
0.0
 10
3.4184872738
 20
2.6429036127
 30
0.0
 10
3.4126906436
 20
2.6342412351
 30
0.0
 10
3.4075520272
 20
2.6251428937
 30
0.0
 10
3.4030963242
 20
2.6156636206
 30
0.0
 10
3.3993391063
 20
2.605860485
 30
0.0
 10
3.3952813733
 20
2.5924293475
 30
0.0
 10
3.3920442572
 20
2.575106517
 30
0.0
 10
3.3911389759
 20
2.5539742537
 30
0.0
 10
3.3928906879
 20
2.536418865
 30
0.0
 10
3.3957679498
 20
2.5226540098
 30
0.0
 10
3.3986583179
 20
2.5125261481
 30
0.0
 10
3.402267633
 20
2.5026529364
 30
0.0
 10
3.4065759705
 20
2.4930889269
 30
0.0
 10
3.4115648031
 20
2.483890088
 30
0.0
 10
3.4172150828
 20
2.4751132397
 30
0.0
 10
3.4234973257
 20
2.4668096151
 30
0.0
 10
3.4303809008
 20
2.4590298606
 30
0.0
 10
3.4378370131
 20
2.4518270628
 30
0.0
 10
3.4484595255
 20
2.4430794779
 30
0.0
 10
3.457183193
 20
2.43749245
 30
0.0
 10
3.4632423209
 20
2.4342860896
 30
0.0
  0
SPLINE
  5
4BB
100
AcDbEntity
  8
0
100
AcDbSpline
 62
7
  6
CONTINUOUS
 70
0
 71
3
 72
12
 73
8
 74
0
 42
0.0000001
 43
0.0000001
 44
0.0000000001
 40
0.0
 40
0.0
 40
0.0
 40
0.0
 40
0.0804705388
 40
0.1747509508
 40
0.4027659716
 40
0.6796868202
 40
1.0
 40
1.0
 40
1.0
 40
1.0
 10
3.7935060997
 20
2.6935725907
 30
0.0
 10
3.7928665993
 20
2.6938341275
 30
0.0
 10
3.7914668183
 20
2.6943751159
 30
0.0
 10
3.788210912
 20
2.6955409196
 30
0.0
 10
3.7833181025
 20
2.6971344429
 30
0.0
 10
3.7765324257
 20
2.6991748586
 30
0.0
 10
3.7715979286
 20
2.7005704159
 30
0.0
 10
3.7689471143
 20
2.7013030149
 30
0.0
  0
SPLINE
  5
4BC
100
AcDbEntity
  8
0
100
AcDbSpline
 62
7
  6
CONTINUOUS
 70
0
 71
3
 72
13
 73
9
 74
0
 42
0.0000001
 43
0.0000001
 44
0.0000000001
 40
0.0
 40
0.0
 40
0.0
 40
0.0
 40
0.171303283
 40
0.272566417
 40
0.3871152113
 40
0.5163674463
 40
0.6612507401
 40
1.0
 40
1.0
 40
1.0
 40
1.0
 10
3.9588163491
 20
2.6930445659
 30
0.0
 10
3.9588163951
 20
2.6932381873
 30
0.0
 10
3.9587329405
 20
2.6935467205
 30
0.0
 10
3.958520255
 20
2.693929017
 30
0.0
 10
3.9582880156
 20
2.6942438806
 30
0.0
 10
3.957992296
 20
2.6945694156
 30
0.0
 10
3.957486726
 20
2.6950438268
 30
0.0
 10
3.957051894
 20
2.6953774413
 30
0.0
 10
3.9567396732
 20
2.6955990661
 30
0.0
  0
SPLINE
  5
4BD
100
AcDbEntity
  8
0
100
AcDbSpline
 62
7
  6
CONTINUOUS
 70
0
 71
3
 72
14
 73
10
 74
0
 42
0.0000001
 43
0.0000001
 44
0.0000000001
 40
0.0
 40
0.0
 40
0.0
 40
0.0
 40
0.0712300624
 40
0.1588747313
 40
0.2626219725
 40
0.381914225
 40
0.5161145902
 40
0.6644715279
 40
1.0
 40
1.0
 40
1.0
 40
1.0
 10
3.9567396732
 20
2.6955990661
 30
0.0
 10
3.9561906885
 20
2.6959887538
 30
0.0
 10
3.9549095015
 20
2.6967774836
 30
0.0
 10
3.9527049871
 20
2.6979204295
 30
0.0
 10
3.9500314812
 20
2.6991375024
 30
0.0
 10
3.9469076309
 20
2.7004203397
 30
0.0
 10
3.9433532371
 20
2.7017601867
 30
0.0
 10
3.9378394454
 20
2.703691399
 30
0.0
 10
3.9334786949
 20
2.7050738693
 30
0.0
 10
3.9304434158
 20
2.7059925144
 30
0.0
  0
SPLINE
  5
4BE
100
AcDbEntity
  8
0
100
AcDbSpline
 62
7
  6
CONTINUOUS
 70
0
 71
3
 72
11
 73
7
 74
0
 42
0.0000001
 43
0.0000001
 44
0.0000000001
 40
0.0
 40
0.0
 40
0.0
 40
0.0
 40
0.1915412699
 40
0.4144832738
 40
0.6817079485
 40
1.0
 40
1.0
 40
1.0
 40
1.0
 10
4.2153375603
 20
2.6960954045
 30
0.0
 10
4.2153379928
 20
2.6963821451
 30
0.0
 10
4.215214397
 20
2.697004744
 30
0.0
 10
4.2147253701
 20
2.6979109967
 30
0.0
 10
4.2139479528
 20
2.6988455244
 30
0.0
 10
4.2132978671
 20
2.6994368193
 30
0.0
 10
4.2129312388
 20
2.6997411641
 30
0.0
  0
SPLINE
  5
4BF
100
AcDbEntity
  8
0
100
AcDbSpline
 62
7
  6
CONTINUOUS
 70
0
 71
3
 72
11
 73
7
 74
0
 42
0.0000001
 43
0.0000001
 44
0.0000000001
 40
0.0
 40
0.0
 40
0.0
 40
0.0
 40
0.1900362429
 40
0.4204820548
 40
0.6908780634
 40
1.0
 40
1.0
 40
1.0
 40
1.0
 10
4.2129312388
 20
2.6997411641
 30
0.0
 10
4.2122835274
 20
2.7002788413
 30
0.0
 10
4.210756694
 20
2.7013550734
 30
0.0
 10
4.2081007901
 20
2.7028800013
 30
0.0
 10
4.204876971
 20
2.70445952
 30
0.0
 10
4.2025180951
 20
2.7054744265
 30
0.0
 10
4.2012505785
 20
2.7059925144
 30
0.0
  0
SPLINE
  5
4C0
100
AcDbEntity
  8
0
100
AcDbSpline
 62
7
  6
CONTINUOUS
 70
0
 71
3
 72
13
 73
9
 74
0
 42
0.0000001
 43
0.0000001
 44
0.0000000001
 40
0.0
 40
0.0
 40
0.0
 40
0.0
 40
0.0912475799
 40
0.1879907641
 40
0.2930943819
 40
0.4087004141
 40
0.6767819643
 40
1.0
 40
1.0
 40
1.0
 40
1.0
 10
4.5496439183
 20
2.7000708301
 30
0.0
 10
4.549644078
 20
2.7003043802
 30
0.0
 10
4.5495932943
 20
2.7007867147
 30
0.0
 10
4.5493729414
 20
2.7015077002
 30
0.0
 10
4.5490105125
 20
2.702238355
 30
0.0
 10
4.5483063301
 20
2.7032760988
 30
0.0
 10
4.5470429155
 20
2.704587291
 30
0.0
 10
4.545844275
 20
2.7055166857
 30
0.0
 10
4.545167529
 20
2.7059925144
 30
0.0
  0
LINE
  5
4C1
100
AcDbEntity
  8
0
100
AcDbLine
 62
7
  6
CONTINUOUS
 10
4.938951919
 20
2.7047043155
 11
4.9387568824
 21
2.7059925581
  0
SPLINE
  5
4C2
100
AcDbEntity
  8
0
100
AcDbSpline
 62
7
  6
CONTINUOUS
 70
0
 71
3
 72
19
 73
15
 74
0
 42
0.0000001
 43
0.0000001
 44
0.0000000001
 40
0.0
 40
0.0
 40
0.0
 40
0.0
 40
0.02136595
 40
0.0459686901
 40
0.0751909168
 40
0.1098315221
 40
0.1503402548
 40
0.1969716471
 40
0.2498665022
 40
0.3090575216
 40
0.4461181645
 40
0.6075597718
 40
0.792545059
 40
1.0
 40
1.0
 40
1.0
 40
1.0
 10
4.23453719
 20
2.6518581046
 30
0.0
 10
4.2345368379
 20
2.6519855828
 30
0.0
 10
4.234484382
 20
2.6522605568
 30
0.0
 10
4.23427801
 20
2.6526631962
 30
0.0
 10
4.2339486178
 20
2.653078672
 30
0.0
 10
4.2334969199
 20
2.6535093312
 30
0.0
 10
4.232922982
 20
2.6539563405
 30
0.0
 10
4.2322268822
 20
2.6544194761
 30
0.0
 10
4.2314092755
 20
2.654898075
 30
0.0
 10
4.2300932185
 20
2.6555901007
 30
0.0
 10
4.228150011
 20
2.6564761436
 30
0.0
 10
4.2254691173
 20
2.6575430833
 30
0.0
 10
4.2223547324
 20
2.6586502305
 30
0.0
 10
4.2201263194
 20
2.6593699802
 30
0.0
 10
4.2189443034
 20
2.6597372778
 30
0.0
  0
SPLINE
  5
4C3
100
AcDbEntity
  8
0
100
AcDbSpline
 62
7
  6
CONTINUOUS
 70
0
 71
3
 72
11
 73
7
 74
0
 42
0.0000001
 43
0.0000001
 44
0.0000000001
 40
0.0
 40
0.0
 40
0.0
 40
0.0
 40
0.237952121
 40
0.4867536267
 40
0.7422296658
 40
1.0
 40
1.0
 40
1.0
 40
1.0
 10
4.7702167918
 20
2.6724081073
 30
0.0
 10
4.7673110845
 20
2.6729007911
 30
0.0
 10
4.7613514963
 20
2.6738176297
 30
0.0
 10
4.7522301358
 20
2.6749705954
 30
0.0
 10
4.742838323
 20
2.675916807
 30
0.0
 10
4.7364990367
 20
2.6763993406
 30
0.0
 10
4.733312817
 20
2.6766017277
 30
0.0
  0
SPLINE
  5
4C4
100
AcDbEntity
  8
0
100
AcDbSpline
 62
7
  6
CONTINUOUS
 70
0
 71
3
 72
17
 73
13
 74
0
 42
0.0000001
 43
0.0000001
 44
0.0000000001
 40
0.0
 40
0.0
 40
0.0
 40
0.0
 40
0.0315273529
 40
0.0642700393
 40
0.099468888
 40
0.1381326225
 40
0.2284655069
 40
0.3389521601
 40
0.4711262667
 40
0.6255883914
 40
0.8021478993
 40
1.0
 40
1.0
 40
1.0
 40
1.0
 10
5.5276037558
 20
2.6649644752
 30
0.0
 10
5.5276037729
 20
2.6651665633
 30
0.0
 10
5.5275584359
 20
2.6655798448
 30
0.0
 10
5.5273556774
 20
2.6661886413
 30
0.0
 10
5.5270206972
 20
2.6667882302
 30
0.0
 10
5.5263659926
 20
2.6676168253
 30
0.0
 10
5.525183706
 20
2.6686165412
 30
0.0
 10
5.5233466006
 20
2.6697128911
 30
0.0
 10
5.5210234372
 20
2.6707638628
 30
0.0
 10
5.5182240523
 20
2.6717602223
 30
0.0
 10
5.5149638162
 20
2.6726954797
 30
0.0
 10
5.5126264632
 20
2.6732439228
 30
0.0
 10
5.5113864999
 20
2.6735101343
 30
0.0
  0
SPLINE
  5
4C5
100
AcDbEntity
  8
0
100
AcDbSpline
 62
7
  6
CONTINUOUS
 70
0
 71
3
 72
9
 73
5
 74
0
 42
0.0000001
 43
0.0000001
 44
0.0000000001
 40
0.0
 40
0.0
 40
0.0
 40
0.0
 40
0.4748806645
 40
1.0
 40
1.0
 40
1.0
 40
1.0
 10
5.5113864999
 20
2.6735101343
 30
0.0
 10
5.5096774106
 20
2.673877064
 30
0.0
 10
5.5060580462
 20
2.67455582
 30
0.0
 10
5.5024149768
 20
2.6750887303
 30
0.0
 10
5.5004981386
 20
2.6753378814
 30
0.0
  0
SPLINE
  5
4C6
100
AcDbEntity
  8
0
100
AcDbSpline
 62
7
  6
CONTINUOUS
 70
0
 71
3
 72
10
 73
6
 74
0
 42
0.0000001
 43
0.0000001
 44
0.0000000001
 40
0.0
 40
0.0
 40
0.0
 40
0.0
 40
0.2291627643
 40
0.4740240248
 40
1.0
 40
1.0
 40
1.0
 40
1.0
 10
5.5004981386
 20
2.6753378814
 30
0.0
 10
5.4984400567
 20
2.6756053914
 30
0.0
 10
5.4941731527
 20
2.6760854752
 30
0.0
 10
5.485147186
 20
2.6768373283
 30
0.0
 10
5.4781691131
 20
2.6771414889
 30
0.0
 10
5.4734068391
 20
2.6772477827
 30
0.0
  0
SPLINE
  5
4C7
100
AcDbEntity
  8
0
100
AcDbSpline
 62
7
  6
CONTINUOUS
 70
0
 71
3
 72
19
 73
15
 74
0
 42
0.0000001
 43
0.0000001
 44
0.0000000001
 40
0.0
 40
0.0
 40
0.0
 40
0.0
 40
0.0264907919
 40
0.054095432
 40
0.0845564558
 40
0.119179591
 40
0.1588547791
 40
0.2041693334
 40
0.2555069171
 40
0.3130729
 40
0.4471660601
 40
0.6066502546
 40
0.7912267972
 40
1.0
 40
1.0
 40
1.0
 40
1.0
 10
6.1969456386
 20
2.6717615306
 30
0.0
 10
6.196945268
 20
2.6719243991
 30
0.0
 10
6.1968975178
 20
2.6722588005
 30
0.0
 10
6.1966825297
 20
2.6727383052
 30
0.0
 10
6.1963313478
 20
2.6731924585
 30
0.0
 10
6.1958483477
 20
2.6736226451
 30
0.0
 10
6.1952344685
 20
2.6740308749
 30
0.0
 10
6.1944895413
 20
2.6744177432
 30
0.0
 10
6.1936136079
 20
2.6747829671
 30
0.0
 10
6.1921987655
 20
2.6752653636
 30
0.0
 10
6.1901019509
 20
2.6757927842
 30
0.0
 10
6.1872060033
 20
2.6763067972
 30
0.0
 10
6.1838313145
 20
2.6767224431
 30
0.0
 10
6.1814203719
 20
2.6769192045
 30
0.0
 10
6.1801395985
 20
2.6770038165
 30
0.0
  0
LINE
  5
4C8
100
AcDbEntity
  8
0
100
AcDbLine
 62
7
  6
CONTINUOUS
 10
6.1801395985
 20
2.6770038165
 11
6.174952113
 21
2.6772477827
  0
SPLINE
  5
4C9
100
AcDbEntity
  8
0
100
AcDbSpline
 62
7
  6
CONTINUOUS
 70
0
 71
3
 72
12
 73
8
 74
0
 42
0.0000001
 43
0.0000001
 44
0.0000000001
 40
0.0
 40
0.0
 40
0.0
 40
0.0
 40
0.1423604578
 40
0.2358383488
 40
0.3477254276
 40
0.6316308903
 40
1.0
 40
1.0
 40
1.0
 40
1.0
 10
4.0518531348
 20
2.6500067992
 30
0.0
 10
4.0518530041
 20
2.6501214373
 30
0.0
 10
4.0517718778
 20
2.6503078869
 30
0.0
 10
4.0515958617
 20
2.6505238332
 30
0.0
 10
4.0513082269
 20
2.6507955861
 30
0.0
 10
4.0508014257
 20
2.6511480696
 30
0.0
 10
4.0503424973
 20
2.6514045038
 30
0.0
 10
4.0500793507
 20
2.6515414215
 30
0.0
  0
LINE
  5
4CA
100
AcDbEntity
  8
0
100
AcDbLine
 62
7
  6
CONTINUOUS
 10
4.0500793507
 20
2.6515414215
 11
4.0453934695
 21
2.653462885
  0
LINE
  5
4CB
100
AcDbEntity
  8
0
100
AcDbLine
 62
7
  6
CONTINUOUS
 10
4.0453934695
 20
2.653462885
 11
4.0380849178
 21
2.6557647073
  0
LINE
  5
4CC
100
AcDbEntity
  8
0
100
AcDbLine
 62
7
  6
CONTINUOUS
 10
4.0380849178
 20
2.6557647073
 11
4.0285101392
 21
2.6583483647
  0
SPLINE
  5
4CD
100
AcDbEntity
  8
0
100
AcDbSpline
 62
7
  6
CONTINUOUS
 70
0
 71
3
 72
12
 73
8
 74
0
 42
0.0000001
 43
0.0000001
 44
0.0000000001
 40
0.0
 40
0.0
 40
0.0
 40
0.0
 40
0.1057850329
 40
0.2211276623
 40
0.4727586597
 40
0.738282802
 40
1.0
 40
1.0
 40
1.0
 40
1.0
 10
4.0285101392
 20
2.6583483647
 30
0.0
 10
4.026074517
 20
2.6589677554
 30
0.0
 10
4.0209715273
 20
2.6602167175
 30
0.0
 10
4.010026025
 20
2.6627357151
 30
0.0
 10
3.995322256
 20
2.6658388439
 30
0.0
 10
3.9771463896
 20
2.6693116107
 30
0.0
 10
3.9647995544
 20
2.6714273729
 30
0.0
 10
3.958659748
 20
2.6724081073
 30
0.0
  0
SPLINE
  5
4CE
100
AcDbEntity
  8
0
100
AcDbSpline
 62
7
  6
CONTINUOUS
 70
0
 71
3
 72
16
 73
12
 74
0
 42
0.0000001
 43
0.0000001
 44
0.0000000001
 40
0.0
 40
0.0
 40
0.0
 40
0.0
 40
0.0330680919
 40
0.0674947748
 40
0.1443008701
 40
0.236739841
 40
0.3479856786
 40
0.4795936667
 40
0.6322471956
 40
0.8058836627
 40
1.0
 40
1.0
 40
1.0
 40
1.0
 10
5.1622339071
 20
2.6612596827
 30
0.0
 10
5.1622340746
 20
2.6614452912
 30
0.0
 10
5.1621961191
 20
2.6618251233
 30
0.0
 10
5.1619623025
 20
2.6626050339
 30
0.0
 10
5.1613487416
 20
2.663591549
 30
0.0
 10
5.1602203266
 20
2.6647011598
 30
0.0
 10
5.1586828686
 20
2.6657963581
 30
0.0
 10
5.1567387464
 20
2.6668747538
 30
0.0
 10
5.1543936678
 20
2.6679319708
 30
0.0
 10
5.1516589459
 20
2.6689624926
 30
0.0
 10
5.1496926675
 20
2.6695932771
 30
0.0
 10
5.1486488978
 20
2.6699058226
 30
0.0
  0
SPLINE
  5
4CF
100
AcDbEntity
  8
0
100
AcDbSpline
 62
7
  6
CONTINUOUS
 70
0
 71
3
 72
9
 73
5
 74
0
 42
0.0000001
 43
0.0000001
 44
0.0000000001
 40
0.0
 40
0.0
 40
0.0
 40
0.0
 40
0.4725196894
 40
1.0
 40
1.0
 40
1.0
 40
1.0
 10
5.1486488978
 20
2.6699058226
 30
0.0
 10
5.1470639283
 20
2.6703804246
 30
0.0
 10
5.1436798577
 20
2.6712861436
 30
0.0
 10
5.1402597977
 20
2.672041074
 30
0.0
 10
5.1384496911
 20
2.6724081073
 30
0.0
  0
SPLINE
  5
4D0
100
AcDbEntity
  8
0
100
AcDbSpline
 62
7
  6
CONTINUOUS
 70
0
 71
3
 72
11
 73
7
 74
0
 42
0.0000001
 43
0.0000001
 44
0.0000000001
 40
0.0
 40
0.0
 40
0.0
 40
0.0
 40
0.2214385687
 40
0.4657923845
 40
0.7273947421
 40
1.0
 40
1.0
 40
1.0
 40
1.0
 10
5.1384496911
 20
2.6724081073
 30
0.0
 10
5.1354443731
 20
2.6730174924
 30
0.0
 10
5.1290860224
 20
2.6741205469
 30
0.0
 10
5.1190942903
 20
2.6754153384
 30
0.0
 10
5.1083564143
 20
2.6764081327
 30
0.0
 10
5.1009699183
 20
2.6768421063
 30
0.0
 10
5.0971983501
 20
2.6770038165
 30
0.0
  0
SPLINE
  5
4D1
100
AcDbEntity
  8
0
100
AcDbSpline
 62
7
  6
CONTINUOUS
 70
0
 71
3
 72
17
 73
13
 74
0
 42
0.0000001
 43
0.0000001
 44
0.0000000001
 40
0.0
 40
0.0
 40
0.0
 40
0.0
 40
0.0316835003
 40
0.0642864547
 40
0.0991135222
 40
0.1372442749
 40
0.2263774524
 40
0.3360097793
 40
0.4678361397
 40
0.6224678483
 40
0.7999890873
 40
1.0
 40
1.0
 40
1.0
 40
1.0
 10
5.880525283
 20
2.6685470021
 30
0.0
 10
5.8805251515
 20
2.6687216922
 30
0.0
 10
5.8804860699
 20
2.6690773221
 30
0.0
 10
5.8803099392
 20
2.6695985604
 30
0.0
 10
5.8800188217
 20
2.6701062426
 30
0.0
 10
5.8794501595
 20
2.6707999846
 30
0.0
 10
5.878419055
 20
2.6716220342
 30
0.0
 10
5.8768156022
 20
2.6724983695
 30
0.0
 10
5.8747872059
 20
2.6733178653
 30
0.0
 10
5.8723414744
 20
2.6740750336
 30
0.0
 10
5.8694879269
 20
2.6747644236
 30
0.0
 10
5.8674421002
 20
2.6751526322
 30
0.0
 10
5.8663549904
 20
2.6753378814
 30
0.0
  0
SPLINE
  5
4D2
100
AcDbEntity
  8
0
100
AcDbSpline
 62
7
  6
CONTINUOUS
 70
0
 71
3
 72
9
 73
5
 74
0
 42
0.0000001
 43
0.0000001
 44
0.0000000001
 40
0.0
 40
0.0
 40
0.0
 40
0.0
 40
0.4719521296
 40
1.0
 40
1.0
 40
1.0
 40
1.0
 10
5.8663549904
 20
2.6753378814
 30
0.0
 10
5.8647379762
 20
2.6756134292
 30
0.0
 10
5.8612953553
 20
2.6761020356
 30
0.0
 10
5.8578362429
 20
2.6764486215
 30
0.0
 10
5.8560073496
 20
2.6766017277
 30
0.0
  0
LINE
  5
4D3
100
AcDbEntity
  8
0
100
AcDbLine
 62
7
  6
CONTINUOUS
 10
5.8560073496
 20
2.6766017277
 11
5.8435857977
 21
2.6772477827
  0
SPLINE
  5
4D4
100
AcDbEntity
  8
0
100
AcDbSpline
 62
7
  6
CONTINUOUS
 70
0
 71
3
 72
19
 73
15
 74
0
 42
0.0000001
 43
0.0000001
 44
0.0000000001
 40
0.0
 40
0.0
 40
0.0
 40
0.0
 40
0.0649984375
 40
0.1295984677
 40
0.2575725216
 40
0.3840558122
 40
0.4467935973
 40
0.5092001023
 40
0.5712991556
 40
0.6331178258
 40
0.6946888405
 40
0.7560482881
 40
0.8782145966
 40
1.0
 40
1.0
 40
1.0
 40
1.0
 10
4.0253292072
 20
2.587456729
 30
0.0
 10
4.0201117284
 20
2.5797419724
 30
0.0
 10
4.0092863124
 20
2.5646396387
 30
0.0
 10
3.9861427084
 20
2.5358721467
 30
0.0
 10
3.9545247894
 20
2.5027061659
 30
0.0
 10
3.9194731222
 20
2.4735969469
 30
0.0
 10
3.8897687917
 20
2.453128842
 30
0.0
 10
3.8667770338
 20
2.4392676032
 30
0.0
 10
3.8430938016
 20
2.4269073148
 30
0.0
 10
3.8187976299
 20
2.4160904521
 30
0.0
 10
3.793965658
 20
2.4068640169
 30
0.0
 10
3.7603140654
 20
2.3967481264
 30
0.0
 10
3.7172803127
 20
2.3882032656
 30
0.0
 10
3.6822851805
 20
2.3859118388
 30
0.0
 10
3.6648349606
 20
2.3859079188
 30
0.0
  0
SPLINE
  5
4D5
100
AcDbEntity
  8
0
100
AcDbSpline
 62
7
  6
CONTINUOUS
 70
0
 71
3
 72
13
 73
9
 74
0
 42
0.0000001
 43
0.0000001
 44
0.0000000001
 40
0.0
 40
0.0
 40
0.0
 40
0.0
 40
0.2521263611
 40
0.3775568214
 40
0.5025705797
 40
0.6272544142
 40
0.7517033209
 40
1.0
 40
1.0
 40
1.0
 40
1.0
 10
3.4632426436
 20
2.434286646
 30
0.0
 10
3.4781164748
 20
2.4264158934
 30
0.0
 10
3.5011130828
 20
2.4159212851
 30
0.0
 10
3.532772025
 20
2.4047931755
 30
0.0
 10
3.5568687542
 20
2.3979340658
 30
0.0
 10
3.5812755216
 20
2.3925721784
 30
0.0
 10
3.6140934008
 20
2.3874542351
 30
0.0
 10
3.6390078356
 20
2.3859047358
 30
0.0
 10
3.6555801681
 20
2.3859058212
 30
0.0
  0
SPLINE
  5
4D6
100
AcDbEntity
  8
0
100
AcDbSpline
 62
7
  6
CONTINUOUS
 70
0
 71
3
 72
11
 73
7
 74
0
 42
0.0000001
 43
0.0000001
 44
0.0000000001
 40
0.0
 40
0.0
 40
0.0
 40
0.0
 40
0.3919888692
 40
0.5214115526
 40
0.6655272115
 40
1.0
 40
1.0
 40
1.0
 40
1.0
 10
6.5892920332
 20
2.6930508969
 30
0.0
 10
6.5892918579
 20
2.6934343515
 30
0.0
 10
6.5895560482
 20
2.6939288663
 30
0.0
 10
6.5899718344
 20
2.6944228404
 30
0.0
 10
6.5903912294
 20
2.6948473237
 30
0.0
 10
6.5907531967
 20
2.695145352
 30
0.0
 10
6.5910136111
 20
2.6953434382
 30
0.0
  0
SPLINE
  5
4D7
100
AcDbEntity
  8
0
100
AcDbSpline
 62
7
  6
CONTINUOUS
 70
0
 71
3
 72
14
 73
10
 74
0
 42
0.0000001
 43
0.0000001
 44
0.0000000001
 40
0.0
 40
0.0
 40
0.0
 40
0.0
 40
0.068468991
 40
0.1540437588
 40
0.2565785602
 40
0.3755838644
 40
0.5102928035
 40
0.6598746176
 40
1.0
 40
1.0
 40
1.0
 40
1.0
 10
6.5910136111
 20
2.6953434382
 30
0.0
 10
6.5915362948
 20
2.6957410215
 30
0.0
 10
6.5927807608
 20
2.6965444204
 30
0.0
 10
6.5949512609
 20
2.6977065757
 30
0.0
 10
6.5976237227
 20
2.6989486383
 30
0.0
 10
6.6007790481
 20
2.7002614292
 30
0.0
 10
6.6043951232
 20
2.7016364573
 30
0.0
 10
6.610044353
 20
2.7036263084
 30
0.0
 10
6.6145226382
 20
2.7050472211
 30
0.0
 10
6.6176450045
 20
2.7059923369
 30
0.0
  0
SPLINE
  5
4D8
100
AcDbEntity
  8
0
100
AcDbSpline
 62
7
  6
CONTINUOUS
 70
0
 71
3
 72
18
 73
14
 74
0
 42
0.0000001
 43
0.0000001
 44
0.0000000001
 40
0.0
 40
0.0
 40
0.0
 40
0.0
 40
0.0291233046
 40
0.0653142825
 40
0.1081880099
 40
0.157340664
 40
0.2122365627
 40
0.272255898
 40
0.4051406049
 40
0.5504386406
 40
0.7021304925
 40
0.8540372745
 40
1.0
 40
1.0
 40
1.0
 40
1.0
 10
4.3536789147
 20
2.5363169014
 30
0.0
 10
4.3546025966
 20
2.5363169789
 30
0.0
 10
4.3566740368
 20
2.5362666657
 30
0.0
 10
4.3601012366
 20
2.5360955388
 30
0.0
 10
4.3641586057
 20
2.5358191811
 30
0.0
 10
4.3688030284
 20
2.5354394416
 30
0.0
 10
4.373984631
 20
2.53496039
 30
0.0
 10
4.3818040505
 20
2.5341690349
 30
0.0
 10
4.3924633672
 20
2.5329672223
 30
0.0
 10
4.4059934089
 20
2.5312848011
 30
0.0
 10
4.4201035151
 20
2.5293840157
 30
0.0
 10
4.4342155323
 20
2.5273446989
 30
0.0
 10
4.443551865
 20
2.5258995316
 30
0.0
 10
4.4481225741
 20
2.525164773
 30
0.0
  0
SPLINE
  5
4D9
100
AcDbEntity
  8
0
100
AcDbSpline
 62
7
  6
CONTINUOUS
 70
0
 71
3
 72
13
 73
9
 74
0
 42
0.0000001
 43
0.0000001
 44
0.0000000001
 40
0.0
 40
0.0
 40
0.0
 40
0.0
 40
0.1285120452
 40
0.2504250154
 40
0.3643754324
 40
0.4743220709
 40
0.7209033971
 40
1.0
 40
1.0
 40
1.0
 40
1.0
 10
4.3440780586
 20
2.5480133869
 30
0.0
 10
4.344774568
 20
2.5479112136
 30
0.0
 10
4.3461158312
 20
2.5475750865
 30
0.0
 10
4.3479318831
 20
2.5467211504
 30
0.0
 10
4.3494856094
 20
2.5456212531
 30
0.0
 10
4.3513249058
 20
2.5438028151
 30
0.0
 10
4.3531481116
 20
2.5407546391
 30
0.0
 10
4.3536846263
 20
2.5378456244
 30
0.0
 10
4.3536840371
 20
2.5363167885
 30
0.0
  0
SPLINE
  5
4DA
100
AcDbEntity
  8
0
100
AcDbSpline
 62
7
  6
CONTINUOUS
 70
0
 71
3
 72
18
 73
14
 74
0
 42
0.0000001
 43
0.0000001
 44
0.0000000001
 40
0.0
 40
0.0
 40
0.0
 40
0.0
 40
0.0149451387
 40
0.0369624218
 40
0.0659834528
 40
0.1019132441
 40
0.1446143859
 40
0.1939383331
 40
0.3116805776
 40
0.4533953455
 40
0.616988572
 40
0.8000703009
 40
1.0
 40
1.0
 40
1.0
 40
1.0
 10
4.3021707409
 20
2.5363168606
 30
0.0
 10
4.3023480674
 20
2.5363168636
 30
0.0
 10
4.302786438
 20
2.5362960351
 30
0.0
 10
4.3035670887
 20
2.536237534
 30
0.0
 10
4.3045946459
 20
2.536142167
 30
0.0
 10
4.3058651687
 20
2.5360107211
 30
0.0
 10
4.3073741096
 20
2.5358430932
 30
0.0
 10
4.3098462622
 20
2.535554587
 30
0.0
 10
4.3134824635
 20
2.5351059506
 30
0.0
 10
4.3184609076
 20
2.5344646934
 30
0.0
 10
4.3242052823
 20
2.5337016013
 30
0.0
 10
4.3306317131
 20
2.5328278147
 30
0.0
 10
4.335133216
 20
2.5322041616
 30
0.0
 10
4.3374826317
 20
2.5318761766
 30
0.0
  0
LINE
  5
4DB
100
AcDbEntity
  8
0
100
AcDbLine
 62
7
  6
CONTINUOUS
 10
4.2920318216
 20
2.548011685
 11
4.30564413
 21
2.54675074
  0
LINE
  5
4DC
100
AcDbEntity
  8
0
100
AcDbLine
 62
7
  6
CONTINUOUS
 10
4.30564413
 20
2.54675074
 11
4.347853849
 21
2.541798427
  0
SPLINE
  5
4DD
100
AcDbEntity
  8
0
100
AcDbSpline
 62
7
  6
CONTINUOUS
 70
0
 71
3
 72
13
 73
9
 74
0
 42
0.0000001
 43
0.0000001
 44
0.0000000001
 40
0.0
 40
0.0
 40
0.0
 40
0.0
 40
0.1340633713
 40
0.2612673248
 40
0.4917396879
 40
0.7305733471
 40
0.8620985037
 40
1.0
 40
1.0
 40
1.0
 40
1.0
 10
4.2920321911
 20
2.5480135536
 30
0.0
 10
4.2926974649
 20
2.5479210913
 30
0.0
 10
4.2939816156
 20
2.5476288875
 30
0.0
 10
4.2962664146
 20
2.5466835761
 30
0.0
 10
4.2987346368
 20
2.5449177549
 30
0.0
 10
4.3005812497
 20
2.5424768646
 30
0.0
 10
4.3016050751
 20
2.5401348408
 30
0.0
 10
4.3019291741
 20
2.5388157633
 30
0.0
 10
4.3020353735
 20
2.5381330763
 30
0.0
  0
SPLINE
  5
4DE
100
AcDbEntity
  8
0
100
AcDbSpline
 62
7
  6
CONTINUOUS
 70
0
 71
3
 72
17
 73
13
 74
0
 42
0.0000001
 43
0.0000001
 44
0.0000000001
 40
0.0
 40
0.0
 40
0.0
 40
0.0
 40
0.017535371
 40
0.0372032245
 40
0.0613212809
 40
0.0911859173
 40
0.1705106199
 40
0.2779110357
 40
0.414335094
 40
0.5802171666
 40
0.7755894078
 40
1.0
 40
1.0
 40
1.0
 40
1.0
 10
4.3496154279
 20
2.5357128721
 30
0.0
 10
4.3496155038
 20
2.5357375902
 30
0.0
 10
4.349627875
 20
2.5357905957
 30
0.0
 10
4.3496811919
 20
2.5358607768
 30
0.0
 10
4.3497647144
 20
2.5359237405
 30
0.0
 10
4.3499329539
 20
2.5360088354
 30
0.0
 10
4.3502275632
 20
2.5360954803
 30
0.0
 10
4.3506759754
 20
2.5361763282
 30
0.0
 10
4.3512504827
 20
2.5362394899
 30
0.0
 10
4.3519506696
 20
2.5362846564
 30
0.0
 10
4.35277593
 20
2.5363111597
 30
0.0
 10
4.3533676872
 20
2.5363160826
 30
0.0
 10
4.3536840208
 20
2.5363159783
 30
0.0
  0
SPLINE
  5
4DF
100
AcDbEntity
  8
0
100
AcDbSpline
 62
7
  6
CONTINUOUS
 70
0
 71
3
 72
23
 73
19
 74
0
 42
0.0000001
 43
0.0000001
 44
0.0000000001
 40
0.0
 40
0.0
 40
0.0
 40
0.0
 40
0.0660241698
 40
0.1315088906
 40
0.1964467425
 40
0.2608441362
 40
0.3247125823
 40
0.3880649826
 40
0.4509159463
 40
0.5132860725
 40
0.5752065199
 40
0.6367165038
 40
0.6978598099
 40
0.7586870365
 40
0.8192542481
 40
0.8796201974
 40
0.9398474946
 40
1.0
 40
1.0
 40
1.0
 40
1.0
 10
4.0127888799
 20
2.5960191759
 30
0.0
 10
4.007831274
 20
2.5881259568
 30
0.0
 10
3.9975269356
 20
2.5726688196
 30
0.0
 10
3.9808738713
 20
2.5504744573
 30
0.0
 10
3.9631425108
 20
2.529429726
 30
0.0
 10
3.9443913955
 20
2.5096008895
 30
0.0
 10
3.9246767301
 20
2.4910542425
 30
0.0
 10
3.9040650138
 20
2.4738482456
 30
0.0
 10
3.8826262709
 20
2.45803754
 30
0.0
 10
3.860428384
 20
2.4436796487
 30
0.0
 10
3.8375447339
 20
2.4308237279
 30
0.0
 10
3.8140537734
 20
2.4195072001
 30
0.0
 10
3.7900314355
 20
2.4097699084
 30
0.0
 10
3.7655557672
 20
2.4016482924
 30
0.0
 10
3.7407098457
 20
2.3951634663
 30
0.0
 10
3.7155747117
 20
2.390337663
 30
0.0
 10
3.6902343424
 20
2.3871938478
 30
0.0
 10
3.6732527902
 20
2.3862217403
 30
0.0
 10
3.6647631961
 20
2.3860174843
 30
0.0
  0
SPLINE
  5
4E0
100
AcDbEntity
  8
0
100
AcDbSpline
 62
7
  6
CONTINUOUS
 70
0
 71
3
 72
19
 73
15
 74
0
 42
0.0000001
 43
0.0000001
 44
0.0000000001
 40
0.0
 40
0.0
 40
0.0
 40
0.0
 40
0.0172687632
 40
0.0368622016
 40
0.0611448533
 40
0.0914177733
 40
0.1283255371
 40
0.1721657659
 40
0.2230806205
 40
0.2811314664
 40
0.418663149
 40
0.5846346628
 40
0.7786900531
 40
1.0
 40
1.0
 40
1.0
 40
1.0
 10
4.44809768
 20
2.5345688056
 30
0.0
 10
4.4480975265
 20
2.5346391984
 30
0.0
 10
4.4481336462
 20
2.5347912459
 30
0.0
 10
4.4482899883
 20
2.5349917268
 30
0.0
 10
4.4485351913
 20
2.5351721377
 30
0.0
 10
4.4488702792
 20
2.5353383298
 30
0.0
 10
4.4492966675
 20
2.5354918982
 30
0.0
 10
4.449814859
 20
2.535633158
 30
0.0
 10
4.4504245578
 20
2.5357619054
 30
0.0
 10
4.4514161536
 20
2.535925794
 30
0.0
 10
4.4528819234
 20
2.5360880515
 30
0.0
 10
4.4549060724
 20
2.5362219437
 30
0.0
 10
4.4572747981
 20
2.5363012112
 30
0.0
 10
4.4589680347
 20
2.5363161582
 30
0.0
 10
4.4598701639
 20
2.5363159781
 30
0.0
  0
SPLINE
  5
4E1
100
AcDbEntity
  8
0
100
AcDbSpline
 62
7
  6
CONTINUOUS
 70
0
 71
3
 72
15
 73
11
 74
0
 42
0.0000001
 43
0.0000001
 44
0.0000000001
 40
0.0
 40
0.0
 40
0.0
 40
0.0
 40
0.0719865216
 40
0.1512642985
 40
0.2440483568
 40
0.35430248
 40
0.4842053969
 40
0.6348304348
 40
0.8066948905
 40
1.0
 40
1.0
 40
1.0
 40
1.0
 10
5.007202063
 20
2.528073856
 30
0.0
 10
5.0072019895
 20
2.5282492289
 30
0.0
 10
5.0072701874
 20
2.5286202617
 30
0.0
 10
5.0075646378
 20
2.5291456234
 30
0.0
 10
5.0080382226
 20
2.5296508492
 30
0.0
 10
5.0086880997
 20
2.5301407135
 30
0.0
 10
5.0095136083
 20
2.5306182343
 30
0.0
 10
5.0105137403
 20
2.5310837987
 30
0.0
 10
5.0116866689
 20
2.5315365603
 30
0.0
 10
5.0125326919
 20
2.5318128783
 30
0.0
 10
5.0129831932
 20
2.5319500715
 30
0.0
  0
SPLINE
  5
4E2
100
AcDbEntity
  8
0
100
AcDbSpline
 62
7
  6
CONTINUOUS
 70
0
 71
3
 72
14
 73
10
 74
0
 42
0.0000001
 43
0.0000001
 44
0.0000000001
 40
0.0
 40
0.0
 40
0.0
 40
0.0
 40
0.0772434477
 40
0.1708618111
 40
0.2797652841
 40
0.4026018518
 40
0.5379141693
 40
0.6838958566
 40
1.0
 40
1.0
 40
1.0
 40
1.0
 10
5.0129831932
 20
2.5319500715
 30
0.0
 10
5.0142162532
 20
2.532325581
 30
0.0
 10
5.0169873956
 20
2.5330120875
 30
0.0
 10
5.0215814735
 20
2.5338507476
 30
0.0
 10
5.0269622404
 20
2.5345863881
 30
0.0
 10
5.0330567608
 20
2.5352062612
 30
0.0
 10
5.0397834275
 20
2.5356974673
 30
0.0
 10
5.04974095
 20
2.536185938
 30
0.0
 10
5.0574533548
 20
2.5363165741
 30
0.0
 10
5.062728221
 20
2.5363159783
 30
0.0
  0
SPLINE
  5
4E3
100
AcDbEntity
  8
0
100
AcDbSpline
 62
7
  6
CONTINUOUS
 70
0
 71
3
 72
25
 73
21
 74
0
 42
0.0000001
 43
0.0000001
 44
0.0000000001
 40
0.0
 40
0.0
 40
0.0
 40
0.0
 40
0.0070834347
 40
0.0149162041
 40
0.0240272746
 40
0.034749189
 40
0.0472793593
 40
0.0617309993
 40
0.0781541831
 40
0.0965657854
 40
0.1393321695
 40
0.1898776353
 40
0.247839398
 40
0.3127634198
 40
0.384077111
 40
0.4611402412
 40
0.5432284226
 40
0.629559448
 40
0.8115569638
 40
1.0
 40
1.0
 40
1.0
 40
1.0
 10
5.2268911274
 20
2.5255416022
 30
0.0
 10
5.226893225
 20
2.5257184919
 30
0.0
 10
5.2269643303
 20
2.526092241
 30
0.0
 10
5.2272524943
 20
2.5266261622
 30
0.0
 10
5.2277113435
 20
2.5271483169
 30
0.0
 10
5.2283379607
 20
2.5276627181
 30
0.0
 10
5.2291322776
 20
2.528171336
 30
0.0
 10
5.230093944
 20
2.5286738326
 30
0.0
 10
5.2312212393
 20
2.5291698499
 30
0.0
 10
5.2330346316
 20
2.5298555799
 30
0.0
 10
5.2357063989
 20
2.5306692689
 30
0.0
 10
5.2393789423
 20
2.5315606251
 30
0.0
 10
5.2436293186
 20
2.5323996866
 30
0.0
 10
5.2484173636
 20
2.5331766284
 30
0.0
 10
5.2536978328
 20
2.533883487
 30
0.0
 10
5.2594195007
 20
2.5345121749
 30
0.0
 10
5.2655263991
 20
2.5350562108
 30
0.0
 10
5.2742564942
 20
2.5356713606
 30
0.0
 10
5.2856546071
 20
2.536180959
 30
0.0
 10
5.2949065314
 20
2.5363168013
 30
0.0
 10
5.2996127184
 20
2.5363167936
 30
0.0
  0
SPLINE
  5
4E4
100
AcDbEntity
  8
0
100
AcDbSpline
 62
7
  6
CONTINUOUS
 70
0
 71
3
 72
14
 73
10
 74
0
 42
0.0000001
 43
0.0000001
 44
0.0000000001
 40
0.0
 40
0.0
 40
0.0
 40
0.0
 40
0.0746608196
 40
0.1571172682
 40
0.2524419601
 40
0.3638827691
 40
0.4934115475
 40
0.6422230395
 40
1.0
 40
1.0
 40
1.0
 40
1.0
 10
5.4451760069
 20
2.5229903957
 30
0.0
 10
5.4451763832
 20
2.5231483944
 30
0.0
 10
5.4452339265
 20
2.5234823683
 30
0.0
 10
5.4454741307
 20
2.5239655347
 30
0.0
 10
5.4458603735
 20
2.5244448228
 30
0.0
 10
5.4463901983
 20
2.5249230901
 30
0.0
 10
5.4470634206
 20
2.5254021031
 30
0.0
 10
5.4482254874
 20
2.5260839951
 30
0.0
 10
5.4492048368
 20
2.5265275349
 30
0.0
 10
5.4499052266
 20
2.526815128
 30
0.0
  0
SPLINE
  5
4E5
100
AcDbEntity
  8
0
100
AcDbSpline
 62
7
  6
CONTINUOUS
 70
0
 71
3
 72
18
 73
14
 74
0
 42
0.0000001
 43
0.0000001
 44
0.0000000001
 40
0.0
 40
0.0
 40
0.0
 40
0.0
 40
0.0323474857
 40
0.0705209129
 40
0.1143260271
 40
0.1635183708
 40
0.2177224297
 40
0.2765036455
 40
0.4060020816
 40
0.547921556
 40
0.6975335333
 40
0.8499200985
 40
1.0
 40
1.0
 40
1.0
 40
1.0
 10
5.4499052266
 20
2.526815128
 30
0.0
 10
5.4507621671
 20
2.5271670036
 30
0.0
 10
5.4526654833
 20
2.5278486064
 30
0.0
 10
5.4558072726
 20
2.5287735678
 30
0.0
 10
5.4594544508
 20
2.5296773618
 30
0.0
 10
5.4635792744
 20
2.5305503939
 30
0.0
 10
5.4681484295
 20
2.5313861602
 30
0.0
 10
5.4750070372
 20
2.5324767705
 30
0.0
 10
5.484389831
 20
2.5336719966
 30
0.0
 10
5.4963946563
 20
2.534814774
 30
0.0
 10
5.5090807511
 20
2.5356653937
 30
0.0
 10
5.522018077
 20
2.5361920297
 30
0.0
 10
5.5306805442
 20
2.5363164703
 30
0.0
 10
5.5349785501
 20
2.5363159783
 30
0.0
  0
SPLINE
  5
4E6
100
AcDbEntity
  8
0
100
AcDbSpline
 62
7
  6
CONTINUOUS
 70
0
 71
3
 72
31
 73
27
 74
0
 42
0.0000001
 43
0.0000001
 44
0.0000000001
 40
0.0
 40
0.0
 40
0.0
 40
0.0
 40
0.0038932038
 40
0.0067983036
 40
0.0104674814
 40
0.0149369992
 40
0.0202206553
 40
0.026322614
 40
0.0332420118
 40
0.0495097806
 40
0.0689377604
 40
0.0914117079
 40
0.1167951945
 40
0.1756036657
 40
0.2438541725
 40
0.3197860669
 40
0.4014408503
 40
0.4867165408
 40
0.57340604
 40
0.6592470313
 40
0.7419773126
 40
0.8193934081
 40
0.8894156311
 40
0.9501579681
 40
0.9765305373
 40
1.0
 40
1.0
 40
1.0
 40
1.0
 10
5.9834029706
 20
2.5167485152
 30
0.0
 10
5.9834031095
 20
2.5169224819
 30
0.0
 10
5.9835997415
 20
2.5172030133
 30
0.0
 10
5.9839555691
 20
2.5174935845
 30
0.0
 10
5.984374911
 20
2.5177610646
 30
0.0
 10
5.9849059069
 20
2.5180386221
 30
0.0
 10
5.9855519925
 20
2.5183309009
 30
0.0
 10
5.9863111716
 20
2.5186355622
 30
0.0
 10
5.9875414296
 20
2.5190827314
 30
0.0
 10
5.9893566218
 20
2.5196604283
 30
0.0
 10
5.9918590259
 20
2.520364584
 30
0.0
 10
5.994773084
 20
2.5211059873
 30
0.0
 10
5.9994144494
 20
2.5221912456
 30
0.0
 10
6.0060834069
 20
2.5235835574
 30
0.0
 10
6.0150003105
 20
2.5252486311
 30
0.0
 10
6.0249505219
 20
2.5269337749
 30
0.0
 10
6.0356752566
 20
2.5285944969
 30
0.0
 10
6.0468961118
 20
2.5301865282
 30
0.0
 10
6.0583207697
 20
2.5316677292
 30
0.0
 10
6.0696493916
 20
2.5329987775
 30
0.0
 10
6.0805817538
 20
2.534144085
 30
0.0
 10
6.0908251396
 20
2.5350732142
 30
0.0
 10
6.1001025913
 20
2.5357611832
 30
0.0
 10
6.1071150248
 20
2.5361368439
 30
0.0
 10
6.1120543035
 20
2.5362889288
 30
0.0
 10
6.1142815071
 20
2.5363167946
 30
0.0
 10
6.1153302341
 20
2.5363167912
 30
0.0
  0
SPLINE
  5
4E7
100
AcDbEntity
  8
0
100
AcDbSpline
 62
7
  6
CONTINUOUS
 70
0
 71
3
 72
17
 73
13
 74
0
 42
0.0000001
 43
0.0000001
 44
0.0000000001
 40
0.0
 40
0.0
 40
0.0
 40
0.0
 40
0.1592170799
 40
0.3186073382
 40
0.4729059657
 40
0.616907231
 40
0.7457325046
 40
0.8549106569
 40
0.9009091626
 40
0.9406641024
 40
0.973801082
 40
1.0
 40
1.0
 40
1.0
 40
1.0
 10
6.1288152661
 20
2.526815128
 30
0.0
 10
6.1331183534
 20
2.5274621352
 30
0.0
 10
6.1417342769
 20
2.5287233591
 30
0.0
 10
6.15453635
 20
2.5305002474
 30
0.0
 10
6.1669394161
 20
2.5321244337
 30
0.0
 10
6.1785267102
 20
2.5335417972
 30
0.0
 10
6.1889023607
 20
2.5347035543
 30
0.0
 10
6.1966269906
 20
2.5354672835
 30
0.0
 10
6.2019363529
 20
2.5359082813
 30
0.0
 10
6.2051779107
 20
2.5361348793
 30
0.0
 10
6.2078825769
 20
2.5362751801
 30
0.0
 10
6.2095041786
 20
2.536316257
 30
0.0
 10
6.2102202039
 20
2.5363159783
 30
0.0
  0
LINE
  5
4E8
100
AcDbEntity
  8
0
100
AcDbLine
 62
7
  6
CONTINUOUS
 10
6.2131824016
 20
2.5313099468
 11
6.2176163209
 21
2.5319500715
  0
LINE
  5
4E9
100
AcDbEntity
  8
0
100
AcDbLine
 62
7
  6
CONTINUOUS
 10
6.2176163209
 20
2.5319500715
 11
6.2236455626
 21
2.5328155561
  0
LINE
  5
4EA
100
AcDbEntity
  8
0
100
AcDbLine
 62
7
  6
CONTINUOUS
 10
6.2236455626
 20
2.5328155561
 11
6.24949823
 21
2.5363159783
  0
LINE
  5
4EB
100
AcDbEntity
  8
0
100
AcDbLine
 62
7
  6
CONTINUOUS
 10
6.2586716045
 20
2.5477897815
 11
6.2595931667
 21
2.547954062
  0
LINE
  5
4EC
100
AcDbEntity
  8
0
100
AcDbLine
 62
7
  6
CONTINUOUS
 10
6.2595931667
 20
2.547954062
 11
6.2597340713
 21
2.5480061086
  0
SPLINE
  5
4ED
100
AcDbEntity
  8
0
100
AcDbSpline
 62
7
  6
CONTINUOUS
 70
0
 71
3
 72
18
 73
14
 74
0
 42
0.0000001
 43
0.0000001
 44
0.0000000001
 40
0.0
 40
0.0
 40
0.0
 40
0.0
 40
0.1689636894
 40
0.3292411512
 40
0.4771305595
 40
0.6104467341
 40
0.6712616545
 40
0.7280897104
 40
0.8299744772
 40
0.8757857046
 40
0.91884756
 40
0.9599345981
 40
1.0
 40
1.0
 40
1.0
 40
1.0
 10
3.4610831202
 20
2.4928585016
 30
0.0
 10
3.4597883061
 20
2.4895676659
 30
0.0
 10
3.457512191
 20
2.4830542865
 30
0.0
 10
3.45501342
 20
2.4733719715
 30
0.0
 10
3.4535804753
 20
2.464227482
 30
0.0
 10
3.4532902007
 20
2.4570522988
 30
0.0
 10
3.4536720339
 20
2.4518072933
 30
0.0
 10
3.4543869386
 20
2.4472667443
 30
0.0
 10
3.4556406792
 20
2.4431276708
 30
0.0
 10
3.4575404197
 20
2.4396024229
 30
0.0
 10
3.4591778265
 20
2.4374159405
 30
0.0
 10
3.46107006
 20
2.4356145784
 30
0.0
 10
3.4625022596
 20
2.4346804377
 30
0.0
 10
3.4632438873
 20
2.4342890515
 30
0.0
  0
SPLINE
  5
4EE
100
AcDbEntity
  8
0
100
AcDbSpline
 62
7
  6
CONTINUOUS
 70
0
 71
3
 72
21
 73
17
 74
0
 42
0.0000001
 43
0.0000001
 44
0.0000000001
 40
0.0
 40
0.0
 40
0.0
 40
0.0
 40
0.0600420035
 40
0.1202002786
 40
0.1805338347
 40
0.2410991262
 40
0.3019489189
 40
0.3631332633
 40
0.4246962765
 40
0.4866758661
 40
0.5491057469
 40
0.6120119921
 40
0.7392617369
 40
0.8685628124
 40
0.9340220112
 40
1.0
 40
1.0
 40
1.0
 40
1.0
 10
3.6811965564
 20
2.38625826
 30
0.0
 10
3.689423153
 20
2.3866103834
 30
0.0
 10
3.7058745253
 20
2.3878440452
 30
0.0
 10
3.7304101343
 20
2.3912757838
 30
0.0
 10
3.754747538
 20
2.3962824581
 30
0.0
 10
3.7788108024
 20
2.402842037
 30
0.0
 10
3.8025259445
 20
2.4109348052
 30
0.0
 10
3.8258173479
 20
2.4205406737
 30
0.0
 10
3.8486145539
 20
2.4316250067
 30
0.0
 10
3.8708478856
 20
2.4441518141
 30
0.0
 10
3.8924463749
 20
2.4580876227
 30
0.0
 10
3.9204094174
 20
2.4785601674
 30
0.0
 10
3.9534495402
 20
2.5074853387
 30
0.0
 10
3.9832626575
 20
2.540192213
 30
0.0
 10
4.0051370878
 20
2.5684953102
 30
0.0
 10
4.0153833163
 20
2.5833380474
 30
0.0
 10
4.0203262359
 20
2.5909167831
 30
0.0
  0
SPLINE
  5
4EF
100
AcDbEntity
  8
0
100
AcDbSpline
 62
7
  6
CONTINUOUS
 70
0
 71
3
 72
28
 73
24
 74
0
 42
0.0000001
 43
0.0000001
 44
0.0000000001
 40
0.0
 40
0.0
 40
0.0
 40
0.0
 40
0.0330505293
 40
0.0659052217
 40
0.0985668132
 40
0.1310390959
 40
0.1954187943
 40
0.2590965151
 40
0.3221214071
 40
0.3845569251
 40
0.4464883431
 40
0.5080147656
 40
0.5692466901
 40
0.5997983601
 40
0.6303223906
 40
0.691333158
 40
0.7524216938
 40
0.7830444418
 40
0.8137367964
 40
0.8445162749
 40
0.8753978904
 40
0.9374764806
 40
1.0
 40
1.0
 40
1.0
 40
1.0
 10
3.9074433523
 20
2.5990691339
 30
0.0
 10
3.9040682802
 20
2.5947161785
 30
0.0
 10
3.8971684717
 20
2.5861659454
 30
0.0
 10
3.8863476771
 20
2.5738011337
 30
0.0
 10
3.8751062188
 20
2.5619491937
 30
0.0
 10
3.8596294055
 20
2.5468973519
 30
0.0
 10
3.839327313
 20
2.5294237931
 30
0.0
 10
3.8135223726
 20
2.5107009829
 30
0.0
 10
3.7865052654
 20
2.4943883506
 30
0.0
 10
3.7584388133
 20
2.4806009085
 30
0.0
 10
3.729497195
 20
2.4694333457
 30
0.0
 10
3.6998686821
 20
2.460944674
 30
0.0
 10
3.6747318756
 20
2.4561570304
 30
0.0
 10
3.6544887229
 20
2.4537183668
 30
0.0
 10
3.6341922837
 20
2.4522050704
 30
0.0
 10
3.6087194363
 20
2.4520503056
 30
0.0
 10
3.5833222486
 20
2.4542238002
 30
0.0
 10
3.5631575979
 20
2.4573488328
 30
0.0
 10
3.548107972
 20
2.4603897167
 30
0.0
 10
3.5331712212
 20
2.4641256467
 30
0.0
 10
3.5134079841
 20
2.4700364623
 30
0.0
 10
3.4890997674
 20
2.4791112234
 30
0.0
 10
3.4703088555
 20
2.4880146985
 30
0.0
 10
3.4610830329
 20
2.4928583271
 30
0.0
  0
SPLINE
  5
4F0
100
AcDbEntity
  8
0
100
AcDbSpline
 62
7
  6
CONTINUOUS
 70
0
 71
3
 72
23
 73
19
 74
0
 42
0.0000001
 43
0.0000001
 44
0.0000000001
 40
0.0
 40
0.0
 40
0.0
 40
0.0
 40
0.0593249222
 40
0.1200290111
 40
0.1821044895
 40
0.2455035575
 40
0.3100097647
 40
0.3753180488
 40
0.4410830388
 40
0.5069055473
 40
0.5723732903
 40
0.6371052168
 40
0.700784969
 40
0.7632099036
 40
0.824259288
 40
0.8839395569
 40
0.9424497456
 40
1.0
 40
1.0
 40
1.0
 40
1.0
 10
3.4610830329
 20
2.4928583271
 30
0.0
 10
3.4581312211
 20
2.494456901
 30
0.0
 10
3.4524059523
 20
2.4981707241
 30
0.0
 10
3.4447155101
 20
2.5050933241
 30
0.0
 10
3.4381030205
 20
2.5133516675
 30
0.0
 10
3.4327031871
 20
2.5226914397
 30
0.0
 10
3.4286354176
 20
2.5328787169
 30
0.0
 10
3.4259865475
 20
2.5436604436
 30
0.0
 10
3.4248451485
 20
2.5547781909
 30
0.0
 10
3.4252173163
 20
2.5659569521
 30
0.0
 10
3.427111303
 20
2.5769216179
 30
0.0
 10
3.4304648699
 20
2.5874055743
 30
0.0
 10
3.4352186424
 20
2.5971440664
 30
0.0
 10
3.4412351866
 20
2.6059079928
 30
0.0
 10
3.4483800274
 20
2.6134747004
 30
0.0
 10
3.4564906736
 20
2.6196477926
 30
0.0
 10
3.4653793391
 20
2.6242130876
 30
0.0
 10
3.4716759548
 20
2.6262000555
 30
0.0
 10
3.4748520306
 20
2.6269191308
 30
0.0
  0
SPLINE
  5
4F1
100
AcDbEntity
  8
0
100
AcDbSpline
 62
7
  6
CONTINUOUS
 70
0
 71
3
 72
13
 73
9
 74
0
 42
0.0000001
 43
0.0000001
 44
0.0000000001
 40
0.0
 40
0.0
 40
0.0
 40
0.0
 40
0.2498059108
 40
0.3745366582
 40
0.4992203326
 40
0.6240032686
 40
0.7490307877
 40
1.0
 40
1.0
 40
1.0
 40
1.0
 10
3.4748520306
 20
2.6269191308
 30
0.0
 10
3.4871135429
 20
2.6295563566
 30
0.0
 10
3.5057629877
 20
2.6324057004
 30
0.0
 10
3.5307944446
 20
2.6338877359
 30
0.0
 10
3.5495943773
 20
2.6338310023
 30
0.0
 10
3.5683694826
 20
2.632608521
 30
0.0
 10
3.5933204885
 20
2.6294223065
 30
0.0
 10
3.6118064527
 20
2.625307674
 30
0.0
 10
3.6239214569
 20
2.6218443289
 30
0.0
  0
SPLINE
  5
4F2
100
AcDbEntity
  8
0
100
AcDbSpline
 62
7
  6
CONTINUOUS
 70
0
 71
3
 72
20
 73
16
 74
0
 42
0.0000001
 43
0.0000001
 44
0.0000000001
 40
0.0
 40
0.0
 40
0.0
 40
0.0
 40
0.1634522174
 40
0.3209065302
 40
0.3959999982
 40
0.4681414264
 40
0.602250264
 40
0.6638427653
 40
0.7215811097
 40
0.7754549978
 40
0.8256621807
 40
0.8725712097
 40
0.9167341934
 40
0.9589110976
 40
1.0
 40
1.0
 40
1.0
 40
1.0
 10
3.4748525902
 20
2.6269163482
 30
0.0
 10
3.4741901201
 20
2.6309056738
 30
0.0
 10
3.4732446773
 20
2.6388014878
 30
0.0
 10
3.4729990954
 20
2.6486132165
 30
0.0
 10
3.4734246549
 20
2.6561436269
 30
0.0
 10
3.4742150725
 20
2.6630613182
 30
0.0
 10
3.4755672191
 20
2.6695749446
 30
0.0
 10
3.4775549954
 20
2.675528353
 30
0.0
 10
3.4792622746
 20
2.6794657215
 30
0.0
 10
3.4812191016
 20
2.6829672725
 30
0.0
 10
3.4834097551
 20
2.6860047986
 30
0.0
 10
3.4858184287
 20
2.6885538801
 30
0.0
 10
3.4884326755
 20
2.6905864983
 30
0.0
 10
3.4912286038
 20
2.69207702
 30
0.0
 10
3.4932052449
 20
2.6927048624
 30
0.0
 10
3.4941987062
 20
2.6929204152
 30
0.0
  0
SPLINE
  5
4F3
100
AcDbEntity
  8
0
100
AcDbSpline
 62
7
  6
CONTINUOUS
 70
0
 71
3
 72
18
 73
14
 74
0
 42
0.0000001
 43
0.0000001
 44
0.0000000001
 40
0.0
 40
0.0
 40
0.0
 40
0.0
 40
0.1689636912
 40
0.3292411425
 40
0.4771305346
 40
0.6104466944
 40
0.6712616099
 40
0.7280896637
 40
0.8299744369
 40
0.875785672
 40
0.9188475376
 40
0.959934587
 40
1.0
 40
1.0
 40
1.0
 40
1.0
 10
3.4610831153
 20
2.4928585015
 30
0.0
 10
3.4597883049
 20
2.4895676702
 30
0.0
 10
3.4575121967
 20
2.4830542998
 30
0.0
 10
3.4550134343
 20
2.4733719991
 30
0.0
 10
3.4535804963
 20
2.4642275239
 30
0.0
 10
3.4532902253
 20
2.4570523524
 30
0.0
 10
3.4536720602
 20
2.4518073556
 30
0.0
 10
3.4543869656
 20
2.4472668139
 30
0.0
 10
3.4556407058
 20
2.443127747
 30
0.0
 10
3.4575404445
 20
2.4396025046
 30
0.0
 10
3.4591778494
 20
2.4374160252
 30
0.0
 10
3.4610700803
 20
2.4356146654
 30
0.0
 10
3.4625022779
 20
2.4346805255
 30
0.0
 10
3.4632439045
 20
2.4342891396
 30
0.0
  0
SPLINE
  5
4F4
100
AcDbEntity
  8
0
100
AcDbSpline
 62
7
  6
CONTINUOUS
 70
0
 71
3
 72
28
 73
24
 74
0
 42
0.0000001
 43
0.0000001
 44
0.0000000001
 40
0.0
 40
0.0
 40
0.0
 40
0.0
 40
0.1252048617
 40
0.2388301767
 40
0.3401024653
 40
0.4282683751
 40
0.5026128309
 40
0.5627342782
 40
0.6089715336
 40
0.6271203995
 40
0.6421599602
 40
0.6543799512
 40
0.6643004358
 40
0.6728485046
 40
0.6813874911
 40
0.6912738232
 40
0.7034218032
 40
0.7183370331
 40
0.7362942022
 40
0.7818849535
 40
0.8409054954
 40
0.9136464433
 40
1.0
 40
1.0
 40
1.0
 40
1.0
 10
4.4513721823
 20
2.548011685
 30
0.0
 10
4.4505001195
 20
2.5480104298
 30
0.0
 10
4.4488366264
 20
2.5479977519
 30
0.0
 10
4.4464683178
 20
2.547942366
 30
0.0
 10
4.4443592262
 20
2.5478510959
 30
0.0
 10
4.4425261693
 20
2.5477235877
 30
0.0
 10
4.440983504
 20
2.5475601217
 30
0.0
 10
4.4397405427
 20
2.5473593049
 30
0.0
 10
4.4388961409
 20
2.5471517258
 30
0.0
 10
4.4383776604
 20
2.546956784
 30
0.0
 10
4.4380945169
 20
2.5468139175
 30
0.0
 10
4.4378831911
 20
2.5466617205
 30
0.0
 10
4.4377422245
 20
2.5464967949
 30
0.0
 10
4.437678383
 20
2.5463137782
 30
0.0
 10
4.4377015376
 20
2.5461215922
 30
0.0
 10
4.4378034162
 20
2.5459309748
 30
0.0
 10
4.4379760384
 20
2.5457381361
 30
0.0
 10
4.4382197647
 20
2.5455394762
 30
0.0
 10
4.4386786012
 20
2.545241312
 30
0.0
 10
4.4394464532
 20
2.5448629839
 30
0.0
 10
4.4405954255
 20
2.5444081236
 30
0.0
 10
4.4420370092
 20
2.5439267372
 30
0.0
 10
4.4431005918
 20
2.5436151842
 30
0.0
 10
4.44367989
 20
2.5434534171
 30
0.0
  0
SPLINE
  5
4F5
100
AcDbEntity
  8
0
100
AcDbSpline
 62
7
  6
CONTINUOUS
 70
0
 71
3
 72
29
 73
25
 74
0
 42
0.0000001
 43
0.0000001
 44
0.0000000001
 40
0.0
 40
0.0
 40
0.0
 40
0.0
 40
0.0850168596
 40
0.1561522791
 40
0.2132727772
 40
0.2567629469
 40
0.2736377356
 40
0.2874896196
 40
0.2986580722
 40
0.3077753498
 40
0.3159506194
 40
0.3246596517
 40
0.3351596334
 40
0.348203142
 40
0.3641902999
 40
0.3833399699
 40
0.4057807246
 40
0.4315938016
 40
0.4934734658
 40
0.5689202904
 40
0.6576519912
 40
0.7593309534
 40
0.8735891863
 40
1.0
 40
1.0
 40
1.0
 40
1.0
 10
4.5962895953
 20
2.5272103394
 30
0.0
 10
4.5969048915
 20
2.5272470355
 30
0.0
 10
4.5980342466
 20
2.5273286356
 30
0.0
 10
4.5995717993
 20
2.5274994446
 30
0.0
 10
4.6007998968
 20
2.5277077612
 30
0.0
 10
4.6016270279
 20
2.5279223565
 30
0.0
 10
4.6021266223
 20
2.5281244955
 30
0.0
 10
4.6023932951
 20
2.5282721664
 30
0.0
 10
4.6025863046
 20
2.5284300597
 30
0.0
 10
4.6027058283
 20
2.528603695
 30
0.0
 10
4.6027398107
 20
2.5287958167
 30
0.0
 10
4.6026829491
 20
2.5289916249
 30
0.0
 10
4.6025482664
 20
2.5291856932
 30
0.0
 10
4.6023397659
 20
2.5293841343
 30
0.0
 10
4.6020561755
 20
2.5295892736
 30
0.0
 10
4.6016964556
 20
2.5298018961
 30
0.0
 10
4.6012598701
 20
2.530022059
 30
0.0
 10
4.6005294293
 20
2.5303452413
 30
0.0
 10
4.5994200076
 20
2.5307579519
 30
0.0
 10
4.597858243
 20
2.5312560549
 30
0.0
 10
4.5960027571
 20
2.531779204
 30
0.0
 10
4.5938621831
 20
2.5323250582
 30
0.0
 10
4.5914453323
 20
2.5328909644
 30
0.0
 10
4.5897402291
 20
2.5332618222
 30
0.0
 10
4.5888434619
 20
2.5334510001
 30
0.0
  0
SPLINE
  5
4F6
100
AcDbEntity
  8
0
100
AcDbSpline
 62
7
  6
CONTINUOUS
 70
0
 71
3
 72
19
 73
15
 74
0
 42
0.0000001
 43
0.0000001
 44
0.0000000001
 40
0.0
 40
0.0
 40
0.0
 40
0.0
 40
0.0451038577
 40
0.0969154768
 40
0.1546998746
 40
0.2175839585
 40
0.3549251331
 40
0.5009046014
 40
0.6468589439
 40
0.7841436694
 40
0.8468851506
 40
0.9042857261
 40
0.9555118981
 40
1.0
 40
1.0
 40
1.0
 40
1.0
 10
4.5888434619
 20
2.5334510001
 30
0.0
 10
4.5868077216
 20
2.5338804506
 30
0.0
 10
4.5824206518
 20
2.5347424996
 30
0.0
 10
4.5753935219
 20
2.5359856872
 30
0.0
 10
4.5675389124
 20
2.5372543104
 30
0.0
 10
4.555766957
 20
2.539006671
 30
0.0
 10
4.5399339542
 20
2.5411000959
 30
0.0
 10
4.5202603873
 20
2.5433555154
 30
0.0
 10
4.5005542747
 20
2.5452797731
 30
0.0
 10
4.4846445951
 20
2.5465521896
 30
0.0
 10
4.4727935804
 20
2.5473033532
 30
0.0
 10
4.4648983758
 20
2.5476997539
 30
0.0
 10
4.4578393459
 20
2.5479412944
 30
0.0
 10
4.4534243209
 20
2.5480083701
 30
0.0
 10
4.4513721823
 20
2.548011685
 30
0.0
  0
SPLINE
  5
4F7
100
AcDbEntity
  8
0
100
AcDbSpline
 62
7
  6
CONTINUOUS
 70
0
 71
3
 72
38
 73
34
 74
0
 42
0.0000001
 43
0.0000001
 44
0.0000000001
 40
0.0
 40
0.0
 40
0.0
 40
0.0
 40
0.1001491616
 40
0.2022550758
 40
0.303987158
 40
0.4033114161
 40
0.4982625163
 40
0.5868390334
 40
0.6671370796
 40
0.7037184211
 40
0.7376991685
 40
0.7689206097
 40
0.7972518247
 40
0.8225755426
 40
0.844783878
 40
0.8637922294
 40
0.8795888326
 40
0.8922368524
 40
0.8974392838
 40
0.9019508159
 40
0.9058533236
 40
0.909281699
 40
0.912434653
 40
0.9155605712
 40
0.9189107361
 40
0.9226892442
 40
0.9270379662
 40
0.9320485573
 40
0.9377792469
 40
0.9442672812
 40
0.9595993443
 40
0.9781615819
 40
1.0
 40
1.0
 40
1.0
 40
1.0
 10
5.5377019344
 20
2.548011685
 30
0.0
 10
5.5337947487
 20
2.5480084973
 30
0.0
 10
5.5259039445
 20
2.5479322583
 30
0.0
 10
5.5140479803
 20
2.5476126529
 30
0.0
 10
5.5022320763
 20
2.5470742863
 30
0.0
 10
5.4907065107
 20
2.5463395255
 30
0.0
 10
5.4797080451
 20
2.5454324106
 30
0.0
 10
5.4694693124
 20
2.5443704453
 30
0.0
 10
5.4615191105
 20
2.5433388916
 30
0.0
 10
5.4557023546
 20
2.5424395682
 30
0.0
 10
5.4517894045
 20
2.5417618761
 30
0.0
 10
5.4482074428
 20
2.5410635414
 30
0.0
 10
5.4449737962
 20
2.5403485563
 30
0.0
 10
5.4421042983
 20
2.5396209474
 30
0.0
 10
5.4396140559
 20
2.5388848722
 30
0.0
 10
5.4375151933
 20
2.5381436437
 30
0.0
 10
5.4358173755
 20
2.5374017633
 30
0.0
 10
5.4346715878
 20
2.5367506488
 30
0.0
 10
5.4339790814
 20
2.5362175567
 30
0.0
 10
5.4335985174
 20
2.535844556
 30
0.0
 10
5.4333227027
 20
2.535470662
 30
0.0
 10
5.4331539051
 20
2.5350936692
 30
0.0
 10
5.4330970446
 20
2.5347137658
 30
0.0
 10
5.4331558243
 20
2.534337122
 30
0.0
 10
5.4333262187
 20
2.533970446
 30
0.0
 10
5.4336020302
 20
2.5336141809
 30
0.0
 10
5.4339806403
 20
2.533266057
 30
0.0
 10
5.4344616318
 20
2.5329245989
 30
0.0
 10
5.4350450684
 20
2.5325892179
 30
0.0
 10
5.436014952
 20
2.5321241637
 30
0.0
 10
5.4374943974
 20
2.5315742892
 30
0.0
 10
5.4395852005
 20
2.5309733281
 30
0.0
 10
5.4411226959
 20
2.5306227026
 30
0.0
 10
5.4419569093
 20
2.5304495353
 30
0.0
  0
SPLINE
  5
4F8
100
AcDbEntity
  8
0
100
AcDbSpline
 62
7
  6
CONTINUOUS
 70
0
 71
3
 72
22
 73
18
 74
0
 42
0.0000001
 43
0.0000001
 44
0.0000000001
 40
0.0
 40
0.0
 40
0.0
 40
0.0
 40
0.2135336235
 40
0.303688638
 40
0.3827564472
 40
0.4508702493
 40
0.5083707638
 40
0.5559645971
 40
0.595018849
 40
0.6281322525
 40
0.6595031897
 40
0.6939663122
 40
0.7352658131
 40
0.7855977953
 40
0.8461429077
 40
0.9175220044
 40
1.0
 40
1.0
 40
1.0
 40
1.0
 10
5.5896393865
 20
2.5355445465
 30
0.0
 10
5.590734631
 20
2.53585289
 30
0.0
 10
5.5922830923
 20
2.5363293094
 30
0.0
 10
5.5941891314
 20
2.5370570013
 30
0.0
 10
5.5953450913
 20
2.5375719287
 30
0.0
 10
5.5963083293
 20
2.5380860685
 30
0.0
 10
5.5970781003
 20
2.5385988869
 30
0.0
 10
5.5976548221
 20
2.5391114114
 30
0.0
 10
5.5980390398
 20
2.539629218
 30
0.0
 10
5.5982187523
 20
2.5401646343
 30
0.0
 10
5.5981659996
 20
2.5407050099
 30
0.0
 10
5.5978892973
 20
2.5412170337
 30
0.0
 10
5.5974160905
 20
2.5417014786
 30
0.0
 10
5.5967506878
 20
2.54217014
 30
0.0
 10
5.5958914105
 20
2.542626386
 30
0.0
 10
5.5948376877
 20
2.5430705474
 30
0.0
 10
5.5940624385
 20
2.5433387969
 30
0.0
 10
5.593643842
 20
2.5434726829
 30
0.0
  0
SPLINE
  5
4F9
100
AcDbEntity
  8
0
100
AcDbSpline
 62
7
  6
CONTINUOUS
 70
0
 71
3
 72
17
 73
13
 74
0
 42
0.0000001
 43
0.0000001
 44
0.0000000001
 40
0.0
 40
0.0
 40
0.0
 40
0.0
 40
0.0327076379
 40
0.0700839636
 40
0.1120590306
 40
0.1585383039
 40
0.2644569795
 40
0.386537126
 40
0.5231447546
 40
0.672370003
 40
0.8321033123
 40
1.0
 40
1.0
 40
1.0
 40
1.0
 10
5.593643842
 20
2.5434726829
 30
0.0
 10
5.5930595649
 20
2.5436595611
 30
0.0
 10
5.5917944049
 20
2.5440189173
 30
0.0
 10
5.5897480034
 20
2.5444998782
 30
0.0
 10
5.5874322767
 20
2.5449569534
 30
0.0
 10
5.5838362612
 20
2.5455579198
 30
0.0
 10
5.5787290871
 20
2.5462172379
 30
0.0
 10
5.5719201241
 20
2.546858923
 30
0.0
 10
5.5642859054
 20
2.5473693919
 30
0.0
 10
5.5559368715
 20
2.5477394651
 30
0.0
 10
5.5469957381
 20
2.5479635269
 30
0.0
 10
5.5408508563
 20
2.548012338
 30
0.0
 10
5.5377019344
 20
2.548011685
 30
0.0
  0
SPLINE
  5
4FA
100
AcDbEntity
  8
0
100
AcDbSpline
 62
7
  6
CONTINUOUS
 70
0
 71
3
 72
35
 73
31
 74
0
 42
0.0000001
 43
0.0000001
 44
0.0000000001
 40
0.0
 40
0.0
 40
0.0
 40
0.0
 40
0.1178123843
 40
0.2315036588
 40
0.3390874076
 40
0.4390443723
 40
0.5304304385
 40
0.6123278153
 40
0.6837288641
 40
0.7151797444
 40
0.7436412273
 40
0.7690601627
 40
0.7914342073
 40
0.8107806075
 40
0.8271493859
 40
0.8406527664
 40
0.8515371623
 40
0.8603118934
 40
0.864209924
 40
0.867988384
 40
0.8718353666
 40
0.8759306309
 40
0.8804252478
 40
0.885435027
 40
0.8972868302
 40
0.9118865962
 40
0.9294056777
 40
0.9499195072
 40
0.9734550827
 40
1.0
 40
1.0
 40
1.0
 40
1.0
 10
5.0605225282
 20
2.548011685
 30
0.0
 10
5.057517942
 20
2.5480092586
 30
0.0
 10
5.0516138067
 20
2.5479648947
 30
0.0
 10
5.0429678214
 20
2.5477713837
 30
0.0
 10
5.0347813825
 20
2.5474453625
 30
0.0
 10
5.0271710237
 20
2.546987065
 30
0.0
 10
5.0202256965
 20
2.5464104783
 30
0.0
 10
5.0140221394
 20
2.5457278096
 30
0.0
 10
5.009357296
 20
2.5450544442
 30
0.0
 10
5.0060623264
 20
2.5444537142
 30
0.0
 10
5.0039335023
 20
2.5440001527
 30
0.0
 10
5.0020469214
 20
2.5435260018
 30
0.0
 10
5.0004062067
 20
2.5430336372
 30
0.0
 10
4.9990136298
 20
2.5425249403
 30
0.0
 10
4.9978706201
 20
2.5420020677
 30
0.0
 10
4.9969770182
 20
2.5414647405
 30
0.0
 10
4.9963300988
 20
2.5409122763
 30
0.0
 10
4.9959845985
 20
2.540405075
 30
0.0
 10
4.9958655509
 20
2.5399993387
 30
0.0
 10
4.9958479589
 20
2.5397033739
 30
0.0
 10
4.995899098
 20
2.5394063621
 30
0.0
 10
4.9960177848
 20
2.5391100754
 30
0.0
 10
4.9962024732
 20
2.5388147452
 30
0.0
 10
4.9965560089
 20
2.5383984696
 30
0.0
 10
4.997179737
 20
2.5378852546
 30
0.0
 10
4.9981391228
 20
2.5373011334
 30
0.0
 10
4.9993493555
 20
2.5367166853
 30
0.0
 10
5.0008082247
 20
2.5361336806
 30
0.0
 10
5.002513439
 20
2.5355540995
 30
0.0
 10
5.0037388626
 20
2.5351929595
 30
0.0
 10
5.0043910913
 20
2.5350115804
 30
0.0
  0
SPLINE
  5
4FB
100
AcDbEntity
  8
0
100
AcDbSpline
 62
7
  6
CONTINUOUS
 70
0
 71
3
 72
22
 73
18
 74
0
 42
0.0000001
 43
0.0000001
 44
0.0000000001
 40
0.0
 40
0.0
 40
0.0
 40
0.0
 40
0.2160603778
 40
0.3077732821
 40
0.3885968983
 40
0.4586532706
 40
0.5182809327
 40
0.5681206729
 40
0.6093503753
 40
0.6441292574
 40
0.6760599886
 40
0.7097598156
 40
0.7492040399
 40
0.7968762711
 40
0.854135703
 40
0.9217117552
 40
1.0
 40
1.0
 40
1.0
 40
1.0
 10
5.152059765
 20
2.5308662477
 30
0.0
 10
5.1531491929
 20
2.5311039594
 30
0.0
 10
5.1546941556
 20
2.53148035
 30
0.0
 10
5.1566087116
 20
2.5320795721
 30
0.0
 10
5.1577829855
 20
2.5325159325
 30
0.0
 10
5.158774247
 20
2.5329631981
 30
0.0
 10
5.1595819386
 20
2.5334206186
 30
0.0
 10
5.1602067165
 20
2.5338887317
 30
0.0
 10
5.1606494013
 20
2.5343710673
 30
0.0
 10
5.1609047053
 20
2.5348778796
 30
0.0
 10
5.160947251
 20
2.5354088488
 30
0.0
 10
5.1607693907
 20
2.5359337914
 30
0.0
 10
5.1603977905
 20
2.5364421549
 30
0.0
 10
5.1598430829
 20
2.536944641
 30
0.0
 10
5.1591050642
 20
2.5374460836
 30
0.0
 10
5.1581832049
 20
2.5379476534
 30
0.0
 10
5.1574970099
 20
2.5382586186
 30
0.0
 10
5.1571247944
 20
2.5384157826
 30
0.0
  0
SPLINE
  5
4FC
100
AcDbEntity
  8
0
100
AcDbSpline
 62
7
  6
CONTINUOUS
 70
0
 71
3
 72
18
 73
14
 74
0
 42
0.0000001
 43
0.0000001
 44
0.0000000001
 40
0.0
 40
0.0
 40
0.0
 40
0.0
 40
0.0286601488
 40
0.0636064325
 40
0.1046597962
 40
0.1515841265
 40
0.2040310473
 40
0.2615965952
 40
0.3903178193
 40
0.5334738258
 40
0.6862728312
 40
0.8436723523
 40
1.0
 40
1.0
 40
1.0
 40
1.0
 10
5.1571247944
 20
2.5384157826
 30
0.0
 10
5.1562675654
 20
2.5387777385
 30
0.0
 10
5.154319081
 20
2.5394712691
 30
0.0
 10
5.1510491322
 20
2.5403995321
 30
0.0
 10
5.1471617672
 20
2.5413085631
 30
0.0
 10
5.1426876172
 20
2.5421885192
 30
0.0
 10
5.1376620412
 20
2.5430318466
 30
0.0
 10
5.1299898714
 20
2.5441382751
 30
0.0
 10
5.1193596334
 20
2.5453445724
 30
0.0
 10
5.1056184754
 20
2.546497644
 30
0.0
 10
5.0909231011
 20
2.5473600121
 30
0.0
 10
5.0757840992
 20
2.5478840738
 30
0.0
 10
5.0655980349
 20
2.5480070127
 30
0.0
 10
5.0605225282
 20
2.548011685
 30
0.0
  0
SPLINE
  5
4FD
100
AcDbEntity
  8
0
100
AcDbSpline
 62
7
  6
CONTINUOUS
 70
0
 71
3
 72
24
 73
20
 74
0
 42
0.0000001
 43
0.0000001
 44
0.0000000001
 40
0.0
 40
0.0
 40
0.0
 40
0.0
 40
0.0572463842
 40
0.1019387195
 40
0.1341403521
 40
0.1456531005
 40
0.1542467087
 40
0.1602495711
 40
0.1646430878
 40
0.1763398388
 40
0.1991269128
 40
0.2345397385
 40
0.2829960657
 40
0.3447041325
 40
0.4198074854
 40
0.5084233929
 40
0.6106564807
 40
0.7266045501
 40
1.0
 40
1.0
 40
1.0
 40
1.0
 10
4.2920318216
 20
2.548011685
 30
0.0
 10
4.291989153
 20
2.5480112902
 30
0.0
 10
4.2919131691
 20
2.548009733
 30
0.0
 10
4.291813335
 20
2.5480036649
 30
0.0
 10
4.2917478642
 20
2.5479954926
 30
0.0
 10
4.2917098491
 20
2.5479861897
 30
0.0
 10
4.2916918173
 20
2.5479790213
 30
0.0
 10
4.2916795143
 20
2.5479711479
 30
0.0
 10
4.2916732209
 20
2.5479541883
 30
0.0
 10
4.2916992374
 20
2.5479309241
 30
0.0
 10
4.2917433322
 20
2.5479096087
 30
0.0
 10
4.2918192243
 20
2.5478807415
 30
0.0
 10
4.2919224431
 20
2.5478494072
 30
0.0
 10
4.2920560641
 20
2.5478134721
 30
0.0
 10
4.292219289
 20
2.5477739159
 30
0.0
 10
4.2924127339
 20
2.5477304237
 30
0.0
 10
4.2926364631
 20
2.5476831187
 30
0.0
 10
4.2929956868
 20
2.547610852
 30
0.0
 10
4.2932808846
 20
2.5475570978
 30
0.0
 10
4.2934813119
 20
2.5475202631
 30
0.0
  0
SPLINE
  5
4FE
100
AcDbEntity
  8
0
100
AcDbSpline
 62
7
  6
CONTINUOUS
 70
0
 71
3
 72
28
 73
24
 74
0
 42
0.0000001
 43
0.0000001
 44
0.0000000001
 40
0.0
 40
0.0
 40
0.0
 40
0.0
 40
0.1106315577
 40
0.2082270295
 40
0.2924197442
 40
0.3628748383
 40
0.4193231232
 40
0.4422566362
 40
0.4616759953
 40
0.4776484925
 40
0.4903435902
 40
0.5077513565
 40
0.5154286521
 40
0.5246442044
 40
0.5364688293
 40
0.5513993162
 40
0.5696617854
 40
0.5913624975
 40
0.6452353185
 40
0.7131395712
 40
0.7949909399
 40
0.8906460052
 40
1.0
 40
1.0
 40
1.0
 40
1.0
 10
4.344077729
 20
2.548011685
 30
0.0
 10
4.343724415
 20
2.548010838
 30
0.0
 10
4.3430594095
 20
2.5480046139
 30
0.0
 10
4.3421258413
 20
2.5479782586
 30
0.0
 10
4.3413212785
 20
2.5479355292
 30
0.0
 10
4.3406495826
 20
2.5478762251
 30
0.0
 10
4.3401752555
 20
2.5478101293
 30
0.0
 10
4.3398663103
 20
2.5477446881
 30
0.0
 10
4.3396868745
 20
2.5476952088
 30
0.0
 10
4.3395421648
 20
2.54764038
 30
0.0
 10
4.3394139722
 20
2.5475731604
 30
0.0
 10
4.3393185643
 20
2.5474748697
 30
0.0
 10
4.3393293712
 20
2.5473600857
 30
0.0
 10
4.3393775046
 20
2.547280139
 30
0.0
 10
4.3394590701
 20
2.5471984215
 30
0.0
 10
4.3395752483
 20
2.5471131043
 30
0.0
 10
4.339726158
 20
2.54702355
 30
0.0
 10
4.3399939216
 20
2.5468886038
 30
0.0
 10
4.340418222
 20
2.5467142103
 30
0.0
 10
4.3410325207
 20
2.5465004009
 30
0.0
 10
4.3417820775
 20
2.5462708966
 30
0.0
 10
4.3426649927
 20
2.5460262223
 30
0.0
 10
4.3432994087
 20
2.5458642572
 30
0.0
 10
4.3436384282
 20
2.5457804071
 30
0.0
  0
SPLINE
  5
4FF
100
AcDbEntity
  8
0
100
AcDbSpline
 62
7
  6
CONTINUOUS
 70
0
 71
3
 72
13
 73
9
 74
0
 42
0.0000001
 43
0.0000001
 44
0.0000000001
 40
0.0
 40
0.0
 40
0.0
 40
0.0
 40
0.2783929662
 40
0.5533997356
 40
0.6820693393
 40
0.8011371552
 40
0.9079772418
 40
1.0
 40
1.0
 40
1.0
 40
1.0
 10
4.4426242357
 20
2.5384157826
 30
0.0
 10
4.4345753593
 20
2.5394690027
 30
0.0
 10
4.418561661
 20
2.5414576142
 30
0.0
 10
4.3987971256
 20
2.5436758098
 30
0.0
 10
4.3836326826
 20
2.5452164651
 30
0.0
 10
4.3733387418
 20
2.5461811791
 30
0.0
 10
4.3641010714
 20
2.5469603786
 30
0.0
 10
4.3583173907
 20
2.5473786878
 30
0.0
 10
4.3556393978
 20
2.5475463474
 30
0.0
  0
LINE
  5
500
100
AcDbEntity
  8
0
100
AcDbLine
 62
7
  6
CONTINUOUS
 10
4.3556393978
 20
2.5475463474
 11
4.3472857826
 21
2.547954062
  0
LINE
  5
501
100
AcDbEntity
  8
0
100
AcDbLine
 62
7
  6
CONTINUOUS
 10
4.3472857826
 20
2.547954062
 11
4.344077729
 21
2.548011685
  0
SPLINE
  5
502
100
AcDbEntity
  8
0
100
AcDbSpline
 62
7
  6
CONTINUOUS
 70
0
 71
3
 72
22
 73
18
 74
0
 42
0.0000001
 43
0.0000001
 44
0.0000000001
 40
0.0
 40
0.0
 40
0.0
 40
0.0
 40
0.2108110332
 40
0.2997789431
 40
0.3777270576
 40
0.4447566234
 40
0.5012463192
 40
0.5480393705
 40
0.5866780747
 40
0.6199158864
 40
0.6519882656
 40
0.6875990442
 40
0.7302760492
 40
0.7820283849
 40
0.8439108653
 40
0.9164734397
 40
1.0
 40
1.0
 40
1.0
 40
1.0
 10
5.3714898471
 20
2.5330555527
 30
0.0
 10
5.3726158096
 20
2.533344649
 30
0.0
 10
5.3742081659
 20
2.5337962349
 30
0.0
 10
5.3761690269
 20
2.5345010493
 30
0.0
 10
5.3773571292
 20
2.5350060133
 30
0.0
 10
5.3783453256
 20
2.5355166677
 30
0.0
 10
5.379132623
 20
2.5360329188
 30
0.0
 10
5.3797200822
 20
2.5365558752
 30
0.0
 10
5.3801085627
 20
2.5370917164
 30
0.0
 10
5.3802842585
 20
2.5376517847
 30
0.0
 10
5.3802197633
 20
2.5382203798
 30
0.0
 10
5.3799258737
 20
2.538765474
 30
0.0
 10
5.379429158
 20
2.5392897382
 30
0.0
 10
5.3787339686
 20
2.5398042873
 30
0.0
 10
5.3778396554
 20
2.5403121664
 30
0.0
 10
5.3767461279
 20
2.5408136509
 30
0.0
 10
5.3759416743
 20
2.5411212567
 30
0.0
 10
5.3755077201
 20
2.5412756277
 30
0.0
  0
SPLINE
  5
503
100
AcDbEntity
  8
0
100
AcDbSpline
 62
7
  6
CONTINUOUS
 70
0
 71
3
 72
18
 73
14
 74
0
 42
0.0000001
 43
0.0000001
 44
0.0000000001
 40
0.0
 40
0.0
 40
0.0
 40
0.0
 40
0.0323479106
 40
0.0698407678
 40
0.1123516468
 40
0.1597313781
 40
0.2117959839
 40
0.2682614728
 40
0.393130204
 40
0.5317458647
 40
0.6813189673
 40
0.8387592589
 40
1.0
 40
1.0
 40
1.0
 40
1.0
 10
5.3750366512
 20
2.5414388084
 30
0.0
 10
5.37426383
 20
2.5416996299
 30
0.0
 10
5.3725746962
 20
2.5422019493
 30
0.0
 10
5.3698226771
 20
2.5428770517
 30
0.0
 10
5.3666761564
 20
2.5435252257
 30
0.0
 10
5.3631498994
 20
2.544142057
 30
0.0
 10
5.3592614821
 20
2.5447230586
 30
0.0
 10
5.3534238953
 20
2.545472076
 30
0.0
 10
5.345395642
 20
2.5462817847
 30
0.0
 10
5.3350073301
 20
2.5470430088
 30
0.0
 10
5.3237836796
 20
2.5475998724
 30
0.0
 10
5.3119806257
 20
2.5479312163
 30
0.0
 10
5.3039450088
 20
2.5480080239
 30
0.0
 10
5.2998793515
 20
2.548011685
 30
0.0
  0
LINE
  5
504
100
AcDbEntity
  8
0
100
AcDbLine
 62
7
  6
CONTINUOUS
 10
6.2596793549
 20
2.548011685
 11
6.2440149504
 21
2.5462682319
  0
SPLINE
  5
505
100
AcDbEntity
  8
0
100
AcDbSpline
 62
7
  6
CONTINUOUS
 70
0
 71
3
 72
45
 73
41
 74
0
 42
0.0000001
 43
0.0000001
 44
0.0000000001
 40
0.0
 40
0.0
 40
0.0
 40
0.0
 40
0.0630616818
 40
0.137987437
 40
0.2223007245
 40
0.3132033286
 40
0.4077096244
 40
0.5027513549
 40
0.5952778046
 40
0.6396693274
 40
0.6823387696
 40
0.7229461127
 40
0.761170022
 40
0.79670505
 40
0.8292650501
 40
0.8585943069
 40
0.8844616909
 40
0.8960328209
 40
0.9066634393
 40
0.9163340335
 40
0.9250267234
 40
0.9327255327
 40
0.9394206945
 40
0.9451072009
 40
0.9497864832
 40
0.9534761661
 40
0.9562257934
 40
0.9572880328
 40
0.9581830339
 40
0.9589703794
 40
0.9597353345
 40
0.9605700797
 40
0.9615472622
 40
0.9640901215
 40
0.9675581648
 40
0.972015002
 40
0.9774857677
 40
0.9839778657
 40
0.9914859066
 40
1.0
 40
1.0
 40
1.0
 40
1.0
 10
6.1195562485
 20
2.5479589527
 30
0.0
 10
6.1162476319
 20
2.5478873222
 30
0.0
 10
6.109010744
 20
2.5476034983
 30
0.0
 10
6.0973653274
 20
2.5469022189
 30
0.0
 10
6.0842758702
 20
2.5459021379
 30
0.0
 10
6.0701776267
 20
2.5446357444
 30
0.0
 10
6.0555353829
 20
2.5431442928
 30
0.0
 10
6.0408264135
 20
2.5414767433
 30
0.0
 10
6.0287472685
 20
2.5399659341
 30
0.0
 10
6.0194072375
 20
2.5387064783
 30
0.0
 10
6.0127736632
 20
2.5377659492
 30
0.0
 10
6.0064673655
 20
2.5368240066
 30
0.0
 10
6.0005388816
 20
2.535888341
 30
0.0
 10
5.99503598
 20
2.5349665737
 30
0.0
 10
5.9900030577
 20
2.5340662034
 30
0.0
 10
5.9854807581
 20
2.5331947565
 30
0.0
 10
5.9820514117
 20
2.5324746577
 30
0.0
 10
5.9795918419
 20
2.5319140008
 30
0.0
 10
5.9779660366
 20
2.5315208094
 30
0.0
 10
5.9764928208
 20
2.5311400143
 30
0.0
 10
5.9751753151
 20
2.5307724779
 30
0.0
 10
5.9740163293
 20
2.5304190028
 30
0.0
 10
5.9730181062
 20
2.5300805125
 30
0.0
 10
5.972182622
 20
2.5297580025
 30
0.0
 10
5.9715103518
 20
2.5294523035
 30
0.0
 10
5.9710024601
 20
2.529164325
 30
0.0
 10
5.9706879618
 20
2.5289213187
 30
0.0
 10
5.9705314758
 20
2.5287285671
 30
0.0
 10
5.9704660184
 20
2.5285985215
 30
0.0
 10
5.9704446884
 20
2.5284692922
 30
0.0
 10
5.9704712096
 20
2.5283439776
 30
0.0
 10
5.9705432255
 20
2.5282271006
 30
0.0
 10
5.970709716
 20
2.5280681297
 30
0.0
 10
5.9710379849
 20
2.5278939895
 30
0.0
 10
5.971558985
 20
2.5277188507
 30
0.0
 10
5.972245297
 20
2.5275616493
 30
0.0
 10
5.9730960675
 20
2.5274234164
 30
0.0
 10
5.9741112823
 20
2.5273049557
 30
0.0
 10
5.9752888436
 20
2.5272066984
 30
0.0
 10
5.9761283376
 20
2.5271579863
 30
0.0
 10
5.9765746204
 20
2.5271363264
 30
0.0
  0
LINE
  5
506
100
AcDbEntity
  8
0
100
AcDbLine
 62
7
  6
CONTINUOUS
 10
5.9765746204
 20
2.5271363264
 11
5.9799298084
 21
2.5270386252
  0
SPLINE
  5
507
100
AcDbEntity
  8
0
100
AcDbSpline
 62
7
  6
CONTINUOUS
 70
0
 71
3
 72
28
 73
24
 74
0
 42
0.0000001
 43
0.0000001
 44
0.0000000001
 40
0.0
 40
0.0
 40
0.0
 40
0.0
 40
0.1023540695
 40
0.1911328939
 40
0.2663167093
 40
0.3279558453
 40
0.3762481894
 40
0.3955581347
 40
0.4118121421
 40
0.4252690831
 40
0.4364010984
 40
0.446041811
 40
0.4554411243
 40
0.4659447425
 40
0.4785571853
 40
0.4938798682
 40
0.512255225
 40
0.5588745581
 40
0.6193542601
 40
0.6940430221
 40
0.7826958479
 40
0.8848504975
 40
1.0
 40
1.0
 40
1.0
 40
1.0
 10
6.1298776112
 20
2.5439995391
 30
0.0
 10
6.1303470973
 20
2.5441286944
 30
0.0
 10
6.1312213169
 20
2.5443791833
 30
0.0
 10
6.1324287066
 20
2.5447636817
 30
0.0
 10
6.1334383474
 20
2.5451290631
 30
0.0
 10
6.1342488545
 20
2.5454744014
 30
0.0
 10
6.1347943084
 20
2.5457616524
 30
0.0
 10
6.1351236471
 20
2.5459876524
 30
0.0
 10
6.1353015854
 20
2.5461392962
 30
0.0
 10
6.135429816
 20
2.5462865979
 30
0.0
 10
6.1355082437
 20
2.5464315215
 30
0.0
 10
6.135532781
 20
2.5465764744
 30
0.0
 10
6.1354975826
 20
2.5467164819
 30
0.0
 10
6.1354068181
 20
2.5468448404
 30
0.0
 10
6.1352659827
 20
2.5469634112
 30
0.0
 10
6.1350751443
 20
2.5470749337
 30
0.0
 10
6.1347241801
 20
2.5472275165
 30
0.0
 10
6.1341484737
 20
2.5473924835
 30
0.0
 10
6.1332988006
 20
2.5475556666
 30
0.0
 10
6.132242477
 20
2.5476937907
 30
0.0
 10
6.1309843874
 20
2.5478075785
 30
0.0
 10
6.1295314237
 20
2.5478965955
 30
0.0
 10
6.1284983695
 20
2.5479371038
 30
0.0
 10
6.1279508332
 20
2.547954062
 30
0.0
  0
LINE
  5
508
100
AcDbEntity
  8
0
100
AcDbLine
 62
7
  6
CONTINUOUS
 10
6.2199913686
 20
2.548011685
 11
6.2098280688
 21
2.5475639325
  0
SPLINE
  5
509
100
AcDbEntity
  8
0
100
AcDbSpline
 62
7
  6
CONTINUOUS
 70
0
 71
3
 72
13
 73
9
 74
0
 42
0.0000001
 43
0.0000001
 44
0.0000000001
 40
0.0
 40
0.0
 40
0.0
 40
0.0
 40
0.088338323
 40
0.19151692
 40
0.3072773762
 40
0.4335878903
 40
0.7095828058
 40
1.0
 40
1.0
 40
1.0
 40
1.0
 10
6.2098280688
 20
2.5475639325
 30
0.0
 10
6.2076038625
 20
2.5474150128
 30
0.0
 10
6.2027846648
 20
2.5470494427
 30
0.0
 10
6.1950594237
 20
2.5463809272
 30
0.0
 10
6.186385798
 20
2.5455605785
 30
0.0
 10
6.1733790855
 20
2.5442429041
 30
0.0
 10
6.1560038962
 20
2.5423227186
 30
0.0
 10
6.1418122539
 20
2.540620002
 30
0.0
 10
6.1345399702
 20
2.539713418
 30
0.0
  0
SPLINE
  5
50A
100
AcDbEntity
  8
0
100
AcDbSpline
 62
7
  6
CONTINUOUS
 70
0
 71
3
 72
25
 73
21
 74
0
 42
0.0000001
 43
0.0000001
 44
0.0000000001
 40
0.0
 40
0.0
 40
0.0
 40
0.0
 40
0.2150640387
 40
0.3738371143
 40
0.4322773721
 40
0.4769811891
 40
0.508458199
 40
0.5196946799
 40
0.5284992419
 40
0.5358905499
 40
0.5435239104
 40
0.5529739946
 40
0.5651650883
 40
0.5805637044
 40
0.5994234665
 40
0.6480925228
 40
0.7120025986
 40
0.7916801025
 40
0.8875519727
 40
1.0
 40
1.0
 40
1.0
 40
1.0
 10
6.2196875423
 20
2.546244221
 30
0.0
 10
6.2202124774
 20
2.5463698789
 30
0.0
 10
6.2211222737
 20
2.5465996757
 30
0.0
 10
6.2221627527
 20
2.5469096005
 30
0.0
 10
6.2227782803
 20
2.5471423217
 30
0.0
 10
6.2230842683
 20
2.5472852407
 30
0.0
 10
6.2232723102
 20
2.5474023411
 30
0.0
 10
6.223363136
 20
2.5474953074
 30
0.0
 10
6.223398181
 20
2.5475560809
 30
0.0
 10
6.2234034902
 20
2.547618303
 30
0.0
 10
6.2233747194
 20
2.5476753603
 30
0.0
 10
6.2233184912
 20
2.5477241595
 30
0.0
 10
6.2232363449
 20
2.5477685527
 30
0.0
 10
6.2231268696
 20
2.547809333
 30
0.0
 10
6.2229258027
 20
2.547863816
 30
0.0
 10
6.2225997616
 20
2.547917977
 30
0.0
 10
6.2221194582
 20
2.5479653069
 30
0.0
 10
6.2215191503
 20
2.5479974901
 30
0.0
 10
6.2207964639
 20
2.5480139985
 30
0.0
 10
6.2202735801
 20
2.5480139862
 30
0.0
 10
6.2199913686
 20
2.548011685
 30
0.0
  0
SPLINE
  5
50B
100
AcDbEntity
  8
0
100
AcDbSpline
 62
7
  6
CONTINUOUS
 70
0
 71
3
 72
17
 73
13
 74
0
 42
0.0000001
 43
0.0000001
 44
0.0000000001
 40
0.0
 40
0.0
 40
0.0
 40
0.0
 40
0.2242959959
 40
0.4193557727
 40
0.5851264078
 40
0.7216652442
 40
0.8292427423
 40
0.908670656
 40
0.9385585163
 40
0.9626955508
 40
0.9823965401
 40
1.0
 40
1.0
 40
1.0
 40
1.0
 10
6.2102250081
 20
2.5363166997
 30
0.0
 10
6.210451822
 20
2.5363167031
 30
0.0
 10
6.2108759009
 20
2.5363130337
 30
0.0
 10
6.211467369
 20
2.5362937909
 30
0.0
 10
6.2119693467
 20
2.5362613552
 30
0.0
 10
6.2123816792
 20
2.5362161745
 30
0.0
 10
6.212703789
 20
2.5361583428
 30
0.0
 10
6.2129154791
 20
2.5360962213
 30
0.0
 10
6.2130362812
 20
2.5360350601
 30
0.0
 10
6.2130962027
 20
2.5359897575
 30
0.0
 10
6.2131343803
 20
2.5359391888
 30
0.0
 10
6.2131431349
 20
2.53590103
 30
0.0
 10
6.2131431434
 20
2.535883229
 30
0.0
  0
SPLINE
  5
50C
100
AcDbEntity
  8
0
100
AcDbSpline
 62
7
  6
CONTINUOUS
 70
0
 71
3
 72
15
 73
11
 74
0
 42
0.0000001
 43
0.0000001
 44
0.0000000001
 40
0.0
 40
0.0
 40
0.0
 40
0.0
 40
0.129358187
 40
0.2518243264
 40
0.3659965805
 40
0.4758577839
 40
0.5942712216
 40
0.7221431378
 40
0.8581554948
 40
1.0
 40
1.0
 40
1.0
 40
1.0
 10
6.2199910275
 20
2.5480133869
 30
0.0
 10
6.219283015
 20
2.5479112787
 30
0.0
 10
6.2179203643
 20
2.5475757953
 30
0.0
 10
6.2160732617
 20
2.5467223646
 30
0.0
 10
6.2144927456
 20
2.5456230932
 30
0.0
 10
6.2131291743
 20
2.5442977773
 30
0.0
 10
6.2119523168
 20
2.5427072303
 30
0.0
 10
6.2109991059
 20
2.5408076036
 30
0.0
 10
6.2103683974
 20
2.5386417511
 30
0.0
 10
6.2102199029
 20
2.537101174
 30
0.0
 10
6.2102202124
 20
2.5363167885
 30
0.0
  0
SPLINE
  5
50D
100
AcDbEntity
  8
0
100
AcDbSpline
 62
7
  6
CONTINUOUS
 70
0
 71
3
 72
19
 73
15
 74
0
 42
0.0000001
 43
0.0000001
 44
0.0000000001
 40
0.0
 40
0.0
 40
0.0
 40
0.0
 40
0.221815574
 40
0.4160160449
 40
0.5820749992
 40
0.7195627733
 40
0.7775200703
 40
0.8282838385
 40
0.8719170413
 40
0.9086157341
 40
0.9387519602
 40
0.9629983326
 40
0.9826375598
 40
1.0
 40
1.0
 40
1.0
 40
1.0
 10
6.1153305816
 20
2.5363169014
 30
0.0
 10
6.1160835627
 20
2.5363169429
 30
0.0
 10
6.1174958422
 20
2.5363041387
 30
0.0
 10
6.1194709404
 20
2.5362380609
 30
0.0
 10
6.1211572624
 20
2.5361272011
 30
0.0
 10
6.1223778189
 20
2.5359927519
 30
0.0
 10
6.1232026453
 20
2.5358565498
 30
0.0
 10
6.1237088461
 20
2.5357494432
 30
0.0
 10
6.12413835
 20
2.5356316375
 30
0.0
 10
6.124491289
 20
2.535503295
 30
0.0
 10
6.1247686109
 20
2.5353643362
 30
0.0
 10
6.1249718461
 20
2.5352135162
 30
0.0
 10
6.1251016677
 20
2.5350458936
 30
0.0
 10
6.125131937
 20
2.5349189144
 30
0.0
 10
6.1251320108
 20
2.5348599755
 30
0.0
  0
SPLINE
  5
50E
100
AcDbEntity
  8
0
100
AcDbSpline
 62
7
  6
CONTINUOUS
 70
0
 71
3
 72
14
 73
10
 74
0
 42
0.0000001
 43
0.0000001
 44
0.0000000001
 40
0.0
 40
0.0
 40
0.0
 40
0.0
 40
0.1224673506
 40
0.2400103698
 40
0.3514632619
 40
0.4606019715
 40
0.5802447124
 40
0.7114600599
 40
1.0
 40
1.0
 40
1.0
 40
1.0
 10
6.1241061497
 20
2.5480148374
 30
0.0
 10
6.1234673883
 20
2.5479119399
 30
0.0
 10
6.1222336241
 20
2.5475716405
 30
0.0
 10
6.1205740846
 20
2.5467140068
 30
0.0
 10
6.1191563306
 20
2.5456124072
 30
0.0
 10
6.117933304
 20
2.5442853502
 30
0.0
 10
6.1168781135
 20
2.5426923629
 30
0.0
 10
6.1157057218
 20
2.5400852166
 30
0.0
 10
6.1153296121
 20
2.5378411502
 30
0.0
 10
6.1153302343
 20
2.5363167912
 30
0.0
  0
SPLINE
  5
50F
100
AcDbEntity
  8
0
100
AcDbSpline
 62
7
  6
CONTINUOUS
 70
0
 71
3
 72
20
 73
16
 74
0
 42
0.0000001
 43
0.0000001
 44
0.0000000001
 40
0.0
 40
0.0
 40
0.0
 40
0.0
 40
0.1922532313
 40
0.3718106613
 40
0.5346114872
 40
0.6770739044
 40
0.7397323869
 40
0.7962482767
 40
0.846390336
 40
0.8899692712
 40
0.9269081558
 40
0.957274149
 40
0.9700776829
 40
0.9813809602
 40
1.0
 40
1.0
 40
1.0
 40
1.0
 10
5.534979893
 20
2.5363167825
 30
0.0
 10
5.5383632436
 20
2.5363167874
 30
0.0
 10
5.5449068408
 20
2.5362424349
 30
0.0
 10
5.5543098772
 20
2.5358926938
 30
0.0
 10
5.5628239045
 20
2.5353172564
 30
0.0
 10
5.5692655891
 20
2.5346389532
 30
0.0
 10
5.5738223292
 20
2.5339741453
 30
0.0
 10
5.5767563868
 20
2.5334511146
 30
0.0
 10
5.5793401008
 20
2.5328863326
 30
0.0
 10
5.581560404
 20
2.5322831791
 30
0.0
 10
5.5834063412
 20
2.531645276
 30
0.0
 10
5.5846930828
 20
2.5310604168
 30
0.0
 10
5.5855154433
 20
2.5305642405
 30
0.0
 10
5.5861184304
 20
2.5301161643
 30
0.0
 10
5.5864903172
 20
2.5297264665
 30
0.0
 10
5.5866590865
 20
2.5294456079
 30
0.0
  0
LINE
  5
510
100
AcDbEntity
  8
0
100
AcDbLine
 62
7
  6
CONTINUOUS
 10
5.5866590865
 20
2.5294456079
 11
5.5869079198
 21
2.5286078624
  0
SPLINE
  5
511
100
AcDbEntity
  8
0
100
AcDbSpline
 62
7
  6
CONTINUOUS
 70
0
 71
3
 72
16
 73
12
 74
0
 42
0.0000001
 43
0.0000001
 44
0.0000000001
 40
0.0
 40
0.0
 40
0.0
 40
0.0
 40
0.0630205438
 40
0.1013719485
 40
0.1439495997
 40
0.2386483959
 40
0.3460434625
 40
0.4771076157
 40
0.6327545448
 40
0.8094649042
 40
1.0
 40
1.0
 40
1.0
 40
1.0
 10
5.5377018216
 20
2.5480133869
 30
0.0
 10
5.537472376
 20
2.547894663
 30
0.0
 10
5.5371665076
 20
2.5475894663
 30
0.0
 10
5.5368386327
 20
2.5471009544
 30
0.0
 10
5.5365006505
 20
2.546463091
 30
0.0
 10
5.5361379255
 20
2.5455254022
 30
0.0
 10
5.535768197
 20
2.5442092911
 30
0.0
 10
5.5354476351
 20
2.5426245226
 30
0.0
 10
5.5351888214
 20
2.5407413897
 30
0.0
 10
5.5350183146
 20
2.5386036388
 30
0.0
 10
5.5349784912
 20
2.537097855
 30
0.0
 10
5.53497858
 20
2.5363167885
 30
0.0
  0
SPLINE
  5
512
100
AcDbEntity
  8
0
100
AcDbSpline
 62
7
  6
CONTINUOUS
 70
0
 71
3
 72
21
 73
17
 74
0
 42
0.0000001
 43
0.0000001
 44
0.0000000001
 40
0.0
 40
0.0
 40
0.0
 40
0.0
 40
0.1823553369
 40
0.3577938826
 40
0.5207194819
 40
0.6660223943
 40
0.7305892821
 40
0.7891650503
 40
0.841359602
 40
0.886810475
 40
0.925283493
 40
0.9567609633
 40
0.9699300368
 40
0.9814478147
 40
0.9914136458
 40
1.0
 40
1.0
 40
1.0
 40
1.0
 10
5.2996127285
 20
2.5363169014
 30
0.0
 10
5.303873084
 20
2.5363170207
 30
0.0
 10
5.3122326361
 20
2.5362051529
 30
0.0
 10
5.3243896897
 20
2.5357069939
 30
0.0
 10
5.3356621075
 20
2.5348937478
 30
0.0
 10
5.3443238273
 20
2.533953413
 30
0.0
 10
5.3505294442
 20
2.5330407042
 30
0.0
 10
5.3545638583
 20
2.5323266831
 30
0.0
 10
5.3581337921
 20
2.5315631791
 30
0.0
 10
5.3612116633
 20
2.530756667
 30
0.0
 10
5.3637741333
 20
2.5299128863
 30
0.0
 10
5.3655643011
 20
2.529148218
 30
0.0
 10
5.3667101541
 20
2.5285062443
 30
0.0
 10
5.3673793652
 20
2.5280479985
 30
0.0
 10
5.3679097975
 20
2.5275845407
 30
0.0
 10
5.3681882869
 20
2.5272483176
 30
0.0
 10
5.3682975859
 20
2.5270801063
 30
0.0
  0
LINE
  5
513
100
AcDbEntity
  8
0
100
AcDbLine
 62
7
  6
CONTINUOUS
 10
5.3682975859
 20
2.5270801063
 11
5.3686219522
 21
2.5260738556
  0
LINE
  5
514
100
AcDbEntity
  8
0
100
AcDbLine
 62
7
  6
CONTINUOUS
 10
5.2267563244
 20
2.53192111
 11
5.224077566
 21
2.5325314536
  0
SPLINE
  5
515
100
AcDbEntity
  8
0
100
AcDbSpline
 62
7
  6
CONTINUOUS
 70
0
 71
3
 72
22
 73
18
 74
0
 42
0.0000001
 43
0.0000001
 44
0.0000000001
 40
0.0
 40
0.0
 40
0.0
 40
0.0
 40
0.2138991716
 40
0.3045688757
 40
0.3843504728
 40
0.4533545729
 40
0.51191478
 40
0.5607350134
 40
0.6011170166
 40
0.6354427539
 40
0.6675398087
 40
0.7019995983
 40
0.7426126613
 40
0.7917124226
 40
0.8505829321
 40
0.9199081733
 40
1.0
 40
1.0
 40
1.0
 40
1.0
 10
5.224077566
 20
2.5325314536
 30
0.0
 10
5.2229617642
 20
2.532807643
 30
0.0
 10
5.2213812397
 20
2.5332401974
 30
0.0
 10
5.2194288407
 20
2.533916356
 30
0.0
 10
5.2182367448
 20
2.5344030631
 30
0.0
 10
5.2172363994
 20
2.5348966175
 30
0.0
 10
5.2164287844
 20
2.5353965711
 30
0.0
 10
5.215813327
 20
2.5359035966
 30
0.0
 10
5.2153893473
 20
2.5364222907
 30
0.0
 10
5.2151653423
 20
2.5369634501
 30
0.0
 10
5.21516677
 20
2.5375205017
 30
0.0
 10
5.2153934168
 20
2.5380625381
 30
0.0
 10
5.2158196457
 20
2.5385836852
 30
0.0
 10
5.2164373014
 20
2.5390948894
 30
0.0
 10
5.2172472485
 20
2.5396003238
 30
0.0
 10
5.2182497969
 20
2.5401007194
 30
0.0
 10
5.2189921034
 20
2.5404083498
 30
0.0
 10
5.219393722
 20
2.5405631153
 30
0.0
  0
SPLINE
  5
516
100
AcDbEntity
  8
0
100
AcDbSpline
 62
7
  6
CONTINUOUS
 70
0
 71
3
 72
18
 73
14
 74
0
 42
0.0000001
 43
0.0000001
 44
0.0000000001
 40
0.0
 40
0.0
 40
0.0
 40
0.0
 40
0.0301524026
 40
0.0658854956
 40
0.107083531
 40
0.1535640316
 40
0.205085256
 40
0.2613635134
 40
0.3868599527
 40
0.5270766996
 40
0.6785760912
 40
0.8375575267
 40
1.0
 40
1.0
 40
1.0
 40
1.0
 10
5.219393722
 20
2.5405631153
 30
0.0
 10
5.2201541379
 20
2.5408561448
 30
0.0
 10
5.2218455372
 20
2.5414189642
 30
0.0
 10
5.2246411754
 20
2.542171117
 30
0.0
 10
5.2278975633
 20
2.5428969535
 30
0.0
 10
5.2315956227
 20
2.5435911686
 30
0.0
 10
5.2357135306
 20
2.5442490268
 30
0.0
 10
5.2419611527
 20
2.545102606
 30
0.0
 10
5.2506163178
 20
2.5460259946
 30
0.0
 10
5.2618599447
 20
2.5468942065
 30
0.0
 10
5.2740252287
 20
2.5475330361
 30
0.0
 10
5.2868017384
 20
2.5479230438
 30
0.0
 10
5.295489054
 20
2.5480126797
 30
0.0
 10
5.2998793515
 20
2.548011685
 30
0.0
  0
SPLINE
  5
517
100
AcDbEntity
  8
0
100
AcDbSpline
 62
7
  6
CONTINUOUS
 70
0
 71
3
 72
17
 73
13
 74
0
 42
0.0000001
 43
0.0000001
 44
0.0000000001
 40
0.0
 40
0.0
 40
0.0
 40
0.0
 40
0.0180256934
 40
0.0441995771
 40
0.0775531497
 40
0.1170310208
 40
0.2094686315
 40
0.3179868883
 40
0.4528949643
 40
0.6148666591
 40
0.7999108646
 40
1.0
 40
1.0
 40
1.0
 40
1.0
 10
5.2998793369
 20
2.5480148369
 30
0.0
 10
5.2998663031
 20
2.5479457266
 30
0.0
 10
5.2998453349
 20
2.5477743414
 30
0.0
 10
5.2998190401
 20
2.5474729603
 30
0.0
 10
5.2997940715
 20
2.5470874371
 30
0.0
 10
5.2997608218
 20
2.5464434889
 30
0.0
 10
5.2997256698
 20
2.5455060293
 30
0.0
 10
5.2996897225
 20
2.5441961166
 30
0.0
 10
5.2996584941
 20
2.5426147154
 30
0.0
 10
5.299633234
 20
2.5407346098
 30
0.0
 10
5.2996165938
 20
2.5386000896
 30
0.0
 10
5.2996127089
 20
2.5370974576
 30
0.0
 10
5.2996127186
 20
2.5363167936
 30
0.0
  0
SPLINE
  5
518
100
AcDbEntity
  8
0
100
AcDbSpline
 62
7
  6
CONTINUOUS
 70
0
 71
3
 72
25
 73
21
 74
0
 42
0.0000001
 43
0.0000001
 44
0.0000000001
 40
0.0
 40
0.0
 40
0.0
 40
0.0
 40
0.176346233
 40
0.3525272762
 40
0.4379332513
 40
0.5201751182
 40
0.5982399477
 40
0.6712444488
 40
0.7383897524
 40
0.7988927805
 40
0.8521099653
 40
0.8975796234
 40
0.9172871464
 40
0.9349216038
 40
0.950470904
 40
0.9639666901
 40
0.9754763821
 40
0.9851270072
 40
0.9931563482
 40
1.0
 40
1.0
 40
1.0
 40
1.0
 10
5.0627270534
 20
2.5363169014
 30
0.0
 10
5.0679215626
 20
2.5363170503
 30
0.0
 10
5.0783062949
 20
2.5361408288
 30
0.0
 10
5.091193465
 20
2.5355177341
 30
0.0
 10
5.1012945028
 20
2.5347741777
 30
0.0
 10
5.1085027257
 20
2.5341160242
 30
0.0
 10
5.1153337836
 20
2.5333582123
 30
0.0
 10
5.121706092
 20
2.5325110651
 30
0.0
 10
5.1275446148
 20
2.5315871077
 30
0.0
 10
5.1327805682
 20
2.5305972933
 30
0.0
 10
5.1373531811
 20
2.5295531847
 30
0.0
 10
5.1407139006
 20
2.5286127317
 30
0.0
 10
5.1430242431
 20
2.5278281609
 30
0.0
 10
5.1444766755
 20
2.5272627474
 30
0.0
 10
5.1457292411
 20
2.5266934009
 30
0.0
 10
5.1467798098
 20
2.5261219763
 30
0.0
 10
5.1476276914
 20
2.5255497785
 30
0.0
 10
5.1482727783
 20
2.5249758481
 30
0.0
 10
5.1487151317
 20
2.5243974068
 30
0.0
 10
5.1488757588
 20
2.5239795419
 30
0.0
 10
5.1489099949
 20
2.5237808816
 30
0.0
  0
SPLINE
  5
519
100
AcDbEntity
  8
0
100
AcDbSpline
 62
7
  6
CONTINUOUS
 70
0
 71
3
 72
17
 73
13
 74
0
 42
0.0000001
 43
0.0000001
 44
0.0000000001
 40
0.0
 40
0.0
 40
0.0
 40
0.0
 40
0.0263179113
 40
0.0578098374
 40
0.0945581321
 40
0.1360969143
 40
0.2299470319
 40
0.3375724728
 40
0.4697337477
 40
0.6272755457
 40
0.8065284505
 40
1.0
 40
1.0
 40
1.0
 40
1.0
 10
5.060522603
 20
2.5480133869
 30
0.0
 10
5.0606121274
 20
2.5479561915
 30
0.0
 10
5.0607870734
 20
2.5477968985
 30
0.0
 10
5.0610120205
 20
2.5474870149
 30
0.0
 10
5.061223802
 20
2.5470966635
 30
0.0
 10
5.0614975776
 20
2.5464573247
 30
0.0
 10
5.0617908433
 20
2.5455190105
 30
0.0
 10
5.0620894891
 20
2.5442050388
 30
0.0
 10
5.0623487453
 20
2.5426213283
 30
0.0
 10
5.062558134
 20
2.5407392301
 30
0.0
 10
5.0626961054
 20
2.5386025139
 30
0.0
 10
5.0627283338
 20
2.5370977587
 30
0.0
 10
5.0627282677
 20
2.5363167885
 30
0.0
  0
SPLINE
  5
51A
100
AcDbEntity
  8
0
100
AcDbSpline
 62
7
  6
CONTINUOUS
 70
0
 71
3
 72
32
 73
28
 74
0
 42
0.0000001
 43
0.0000001
 44
0.0000000001
 40
0.0
 40
0.0
 40
0.0
 40
0.0
 40
0.0531266841
 40
0.116390534
 40
0.1882249013
 40
0.2667342758
 40
0.349895124
 40
0.4355898564
 40
0.521636453
 40
0.6058931975
 40
0.6862756362
 40
0.7607800138
 40
0.8276163944
 40
0.8576182598
 40
0.8850963756
 40
0.9098971328
 40
0.9318695571
 40
0.9508677661
 40
0.96678502
 40
0.973572452
 40
0.9795736888
 40
0.9847887293
 40
0.9892232327
 40
0.9928934088
 40
0.9958369795
 40
0.9981419293
 40
1.0
 40
1.0
 40
1.0
 40
1.0
 10
4.4598656487
 20
2.5363169022
 30
0.0
 10
4.4622060782
 20
2.5363170221
 30
0.0
 10
4.4673334332
 20
2.536199576
 30
0.0
 10
4.4756157099
 20
2.535786805
 30
0.0
 10
4.4850030976
 20
2.5351232696
 30
0.0
 10
4.4952512509
 20
2.534228609
 30
0.0
 10
4.5060927394
 20
2.5331230979
 30
0.0
 10
4.5172484921
 20
2.531836477
 30
0.0
 10
4.5284348682
 20
2.5304019248
 30
0.0
 10
4.5393699922
 20
2.5288552644
 30
0.0
 10
4.549780658
 20
2.5272378792
 30
0.0
 10
4.5594084778
 20
2.5255881371
 30
0.0
 10
4.566824618
 20
2.5241784814
 30
0.0
 10
4.572185106
 20
2.5230560077
 30
0.0
 10
4.5757221305
 20
2.5222625803
 30
0.0
 10
4.5789014027
 20
2.5214924063
 30
0.0
 10
4.5817026831
 20
2.5207508225
 30
0.0
 10
4.5841069939
 20
2.5200425513
 30
0.0
 10
4.585849318
 20
2.5194574045
 30
0.0
 10
4.5870294437
 20
2.519002378
 30
0.0
 10
4.587758942
 20
2.5186905672
 30
0.0
 10
4.5883800286
 20
2.5183904402
 30
0.0
 10
4.5888918506
 20
2.5181024504
 30
0.0
 10
4.5892943113
 20
2.5178271302
 30
0.0
 10
4.5895876437
 20
2.5175632507
 30
0.0
 10
4.5897746284
 20
2.5173078871
 30
0.0
 10
4.5898252055
 20
2.5171244555
 30
0.0
 10
4.5898253263
 20
2.5170426006
 30
0.0
  0
SPLINE
  5
51B
100
AcDbEntity
  8
0
100
AcDbSpline
 62
7
  6
CONTINUOUS
 70
0
 71
3
 72
14
 73
10
 74
0
 42
0.0000001
 43
0.0000001
 44
0.0000000001
 40
0.0
 40
0.0
 40
0.0
 40
0.0
 40
0.1203389005
 40
0.2363733344
 40
0.3470027548
 40
0.4559010523
 40
0.5758727272
 40
0.7080407301
 40
1.0
 40
1.0
 40
1.0
 40
1.0
 10
4.4513724737
 20
2.5480133867
 30
0.0
 10
4.4519918487
 20
2.5479106788
 30
0.0
 10
4.453189636
 20
2.547569512
 30
0.0
 10
4.4547965763
 20
2.5467112316
 30
0.0
 10
4.4561686363
 20
2.5456094064
 30
0.0
 10
4.4573521778
 20
2.5442821436
 30
0.0
 10
4.4583731893
 20
2.5426890704
 30
0.0
 10
4.4595088908
 20
2.5400780667
 30
0.0
 10
4.4598707082
 20
2.5378400005
 30
0.0
 10
4.4598701906
 20
2.5363167885
 30
0.0
  0
SPLINE
  5
51C
100
AcDbEntity
  8
0
100
AcDbSpline
 62
7
  6
CONTINUOUS
 70
0
 71
3
 72
23
 73
19
 74
0
 42
0.0000001
 43
0.0000001
 44
0.0000000001
 40
0.0
 40
0.0
 40
0.0
 40
0.0
 40
0.0543765353
 40
0.1124082662
 40
0.1737479181
 40
0.2379596432
 40
0.3045379648
 40
0.3728346928
 40
0.4421337553
 40
0.5117041663
 40
0.5808293645
 40
0.6488173419
 40
0.7149837262
 40
0.7786743398
 40
0.8393305444
 40
0.8965877818
 40
0.9501868304
 40
1.0
 40
1.0
 40
1.0
 40
1.0
 10
3.2490541105
 20
2.7343600634
 30
0.0
 10
3.2458532529
 20
2.7345278133
 30
0.0
 10
3.2392547273
 20
2.7352968443
 30
0.0
 10
3.2292467811
 20
2.7375410971
 30
0.0
 10
3.2189364427
 20
2.7408736697
 30
0.0
 10
3.2084788929
 20
2.7452533263
 30
0.0
 10
3.1980365049
 20
2.7506327774
 30
0.0
 10
3.1877573744
 20
2.7569116188
 30
0.0
 10
3.1777945686
 20
2.7639895795
 30
0.0
 10
3.1683026174
 20
2.7717653236
 30
0.0
 10
3.1594374736
 20
2.7801368562
 30
0.0
 10
3.1513191456
 20
2.7889637595
 30
0.0
 10
3.1440642117
 20
2.7981084017
 30
0.0
 10
3.1377871122
 20
2.8074356922
 30
0.0
 10
3.1326018492
 20
2.816817583
 30
0.0
 10
3.128568091
 20
2.8261068879
 30
0.0
 10
3.1257370494
 20
2.835164249
 30
0.0
 10
3.1246466713
 20
2.8411845249
 30
0.0
 10
3.124345681
 20
2.8441053178
 30
0.0
  0
SPLINE
  5
51D
100
AcDbEntity
  8
0
100
AcDbSpline
 62
7
  6
CONTINUOUS
 70
0
 71
3
 72
23
 73
19
 74
0
 42
0.0000001
 43
0.0000001
 44
0.0000000001
 40
0.0
 40
0.0
 40
0.0
 40
0.0
 40
0.0543765353
 40
0.1124082662
 40
0.1737479181
 40
0.2379596432
 40
0.3045379648
 40
0.3728346928
 40
0.4421337553
 40
0.5117041663
 40
0.5808293645
 40
0.6488173419
 40
0.7149837262
 40
0.7786743398
 40
0.8393305444
 40
0.8965877818
 40
0.9501868304
 40
1.0
 40
1.0
 40
1.0
 40
1.0
 10
7.2990541105
 20
2.7343600634
 30
0.0
 10
7.3022549682
 20
2.7345278133
 30
0.0
 10
7.3088534938
 20
2.7352968443
 30
0.0
 10
7.31886144
 20
2.7375410971
 30
0.0
 10
7.3291717783
 20
2.7408736697
 30
0.0
 10
7.3396293282
 20
2.7452533263
 30
0.0
 10
7.3500717162
 20
2.7506327774
 30
0.0
 10
7.3603508466
 20
2.7569116188
 30
0.0
 10
7.3703136525
 20
2.7639895795
 30
0.0
 10
7.3798056036
 20
2.7717653236
 30
0.0
 10
7.3886707474
 20
2.7801368562
 30
0.0
 10
7.3967890754
 20
2.7889637595
 30
0.0
 10
7.4040440094
 20
2.7981084017
 30
0.0
 10
7.4103211088
 20
2.8074356922
 30
0.0
 10
7.4155063718
 20
2.816817583
 30
0.0
 10
7.41954013
 20
2.8261068879
 30
0.0
 10
7.4223711716
 20
2.835164249
 30
0.0
 10
7.4234615497
 20
2.8411845249
 30
0.0
 10
7.4237625401
 20
2.8441053178
 30
0.0
  0
ENDSEC
  0
SECTION
  2
OBJECTS
  0
DICTIONARY
  5
C
100
AcDbDictionary
280
0
281
1
  3
ACAD_GROUP
350
D
  3
ACAD_MLINESTYLE
350
17
  3
ACAD_LAYOUT
350
1A
  3
ACAD_PLOTSETTINGS
350
19
  3
ACAD_PLOTSTYLENAME
350
E
  0
DICTIONARY
  5
D
102
{ACAD_REACTORS
330
C
102
}
100
AcDbDictionary
280
0
281
1
  0
ACDBDICTIONARYWDFLT
  5
E
102
{ACAD_REACTORS
330
C
102
}
100
AcDbDictionary
281
1
  3
Normal
350
F
100
AcDbDictionaryWithDefault
340
F
  0
DICTIONARY
  5
17
102
{ACAD_REACTORS
330
C
102
}
100
AcDbDictionary
280
0
281
1
  3
Standard
350
18
  0
DICTIONARY
  5
19
102
{ACAD_REACTORS
330
C
102
}
100
AcDbDictionary
281
1
  0
DICTIONARY
  5
1A
102
{ACAD_REACTORS
330
C
102
}
100
AcDbDictionary
281
1
  3
Model
350
51E
  3
Layout1
350
51F
  0
ACDBPLACEHOLDER
  5
F
102
{ACAD_REACTORS
330
E
102
}
  0
MLINESTYLE
  5
18
102
{ACAD_REACTORS
330
17
102
}
100
AcDbMlineStyle
  2
STANDARD
 70
0
  3

 62
256
 51
90.0
 52
90.0
 71
2
 49
0.5
 62
256
  6
BYLAYER
 49
-0.5
 62
256
  6
BYLAYER
  0
LAYOUT
  5
51E
102
{ACAD_REACTORS
330
1A
102
}
100
AcDbPlotSettings
  1

  2
none_device
  4
ANSI_A_(11.00_x_8.50_Inches)
  6

 40
0.0
 41
0.0
 42
0.0
 43
0.0
 44
279.4
 45
215.9
 46
0.0
 47
0.0
 48
0.0
 49
0.0
140
0.0
141
0.0
142
1.0
143
1.0
 70
1024
 72
0
 73
0
 74
0
  7

 75
0
147
1.0
148
0.0
149
0.0
100
AcDbLayout
  1
Model
 70
0
 71
0
 10
0.0
 20
0.0
 11
11.0
 21
8.5
 12
0.0
 22
0.0
 32
0.0
 14
0.0
 24
0.0
 34
0.0
 15
0.0
 25
0.0
 35
0.0
146
0.0
 13
0.0
 23
0.0
 33
0.0
 16
1.0
 26
0.0
 36
0.0
 17
0.0
 27
1.0
 37
0.0
 76
0
330
243
345
0
346
0
  0
LAYOUT
  5
51F
102
{ACAD_REACTORS
330
1A
102
}
100
AcDbPlotSettings
  1

  2
none_device
  4
ANSI_A_(11.00_x_8.50_Inches)
  6

 40
0.0
 41
0.0
 42
0.0
 43
0.0
 44
279.4
 45
215.9
 46
0.0
 47
0.0
 48
0.0
 49
0.0
140
0.0
141
0.0
142
1.0
143
1.0
 70
0
 72
0
 73
0
 74
0
  7

 75
0
147
1.0
148
0.0
149
0.0
100
AcDbLayout
  1
Layout1
 70
0
 71
1
 10
0.0
 20
0.0
 11
11.0
 21
8.5
 12
0.0
 22
0.0
 32
0.0
 14
0.0
 24
0.0
 34
0.0
 15
0.0
 25
0.0
 35
0.0
146
0.0
 13
0.0
 23
0.0
 33
0.0
 16
1.0
 26
0.0
 36
0.0
 17
0.0
 27
1.0
 37
0.0
 76
0
330
244
345
0
346
0
  0
ENDSEC
  0
EOF
