999
DXF file: E:\BT Custom\CADOUTPUT\_FRONT.dxf
999
Pro/ENGINEER 2018400 by Parametric Technology Corporation
  0
SECTION
  2
HEADER
  9
$ACADVER
  1
AC1018
  9
$DWGCODEPAGE
  3
ANSI_1252
  9
$EXTMAX
 10
22.0
 20
17.0
 30
0.0
  9
$EXTMIN
 10
0.0
 20
0.0
 30
0.0
  9
$LIMMIN
 10
0.0
 20
0.0
  9
$LIMMAX
 10
22.0
 20
17.0
  9
$VIEWCTR
 10
11.0
 20
8.5
  9
$VIEWSIZE
 40
17.0
  9
$CLAYER
  8
0
  9
$LTSCALE
 40
1.21
  9
$CELTYPE
  6
BYLAYER
  9
$DIMSCALE
 40
1.0
  9
$DIMASZ
 40
0.1
  9
$DIMEXO
 40
0.0625
  9
$DIMDLI
 40
0.836
  9
$DIMEXE
 40
0.125
  9
$DIMCEN
 40
0.198
  9
$DIMLFAC
 40
1.0
  9
$DIMBLK
  1
_FILLED
  9
$DIMALT
 70
1
  9
$DIMALTD
 70
2
  9
$DIMALTTD
 70
2
  9
$DIMALTF
 40
25.4
  9
$DIMTXT
 40
0.08
  9
$DIMTOL
 70
1
  9
$DIMLIM
 70
0
  9
$DIMTFAC
 40
1.0
  9
$DIMTP
 40
0.001
  9
$DIMTM
 40
0.001
  9
$DIMGAP
 40
0.09
  9
$DIMDSEP
 70
46
  9
$AUNITS
 70
0
  9
$PDMODE
 70
3
  9
$PDSIZE
 40
0.06
  9
$HANDSEED
  5
304
  9
$TILEMODE
 70
1
  9
$MEASUREMENT
 70
0
  9
$INSUNITS
 70
1
  0
ENDSEC
  0
SECTION
  2
CLASSES
  0
CLASS
  1
ACDBDICTIONARYWDFLT
  2
AcDbDictionaryWithDefault
  3
AutoCAD 2000
 90
0
 91
1
280
0
281
0
  0
CLASS
  1
ACDBPLACEHOLDER
  2
AcDbPlaceHolder
  3
AutoCAD 2000
 90
0
 91
1
280
0
281
0
  0
CLASS
  1
LAYOUT
  2
AcDbLayout
  3
AutoCAD 2000
 90
0
 91
0
280
0
281
0
  0
ENDSEC
  0
SECTION
  2
TABLES
  0
TABLE
  2
VPORT
  5
8
100
AcDbSymbolTable
 70
2
  0
VPORT
  5
1F4
100
AcDbSymbolTableRecord
100
AcDbViewportTableRecord
  2
*ACTIVE
 70
0
 10
0.0
 20
0.0
 11
1.0
 21
1.0
 12
11.0
 22
8.5
 13
0.0
 23
0.0
 14
1.0
 24
1.0
 15
0.0
 25
0.0
 16
0.0
 26
0.0
 36
1.0
 17
0.0
 27
0.0
 37
0.0
 40
17.0
 41
1.2941176471
 42
50.0
 43
0.0
 44
0.0
 50
0.0
 51
0.0
 71
0
 72
100
 73
1
 74
1
 75
0
 76
0
 77
0
 78
0
  0
ENDTAB
  0
TABLE
  2
LTYPE
  5
5
100
AcDbSymbolTable
 70
6
  0
LTYPE
  5
14
100
AcDbSymbolTableRecord
100
AcDbLinetypeTableRecord
  2
BYBLOCK
 70
0
  3

 72
65
 73
0
 40
0.0
  0
LTYPE
  5
15
100
AcDbSymbolTableRecord
100
AcDbLinetypeTableRecord
  2
BYLAYER
 70
0
  3

 72
65
 73
0
 40
0.0
  0
LTYPE
  5
16
100
AcDbSymbolTableRecord
100
AcDbLinetypeTableRecord
  2
CONTINUOUS
 70
64
  3
Solid line
 72
65
 73
0
 40
0.0
  0
LTYPE
  5
1F5
100
AcDbSymbolTableRecord
100
AcDbLinetypeTableRecord
  2
CENTER
 70
64
  3
____ _ ____ _ ____ _ ____ _ ____ _ ____ _ ____
 72
65
 73
4
 40
0.6
 49
0.375
 74
0
 49
-0.075
 74
0
 49
0.075
 74
0
 49
-0.075
 74
0
  0
LTYPE
  5
1F6
100
AcDbSymbolTableRecord
100
AcDbLinetypeTableRecord
  2
HIDDEN
 70
64
  3
- - - - - - - - - - - - - - - - - - - -
 72
65
 73
2
 40
0.2
 49
0.1
 74
0
 49
-0.1
 74
0
  0
LTYPE
  5
1F7
100
AcDbSymbolTableRecord
100
AcDbLinetypeTableRecord
  2
PHANTOM
 70
64
  3
_____ _ _ _____ _ _ _____ _ _ _____
 72
65
 73
6
 40
0.8
 49
0.45
 74
0
 49
-0.05
 74
0
 49
0.1
 74
0
 49
-0.05
 74
0
 49
0.1
 74
0
 49
-0.05
 74
0
  0
LTYPE
  5
1F8
100
AcDbSymbolTableRecord
100
AcDbLinetypeTableRecord
  2
DOT
 70
64
  3
. . . . . . . . . . . . . . . . . . . .
 72
65
 73
2
 40
0.2
 49
0.1
 74
0
 49
-0.1
 74
0
  0
LTYPE
  5
1F9
100
AcDbSymbolTableRecord
100
AcDbLinetypeTableRecord
  2
DASHED
 70
64
  3
- - - - - - - - - - - - - - - - - - - -
 72
65
 73
2
 40
0.2
 49
0.1
 74
0
 49
-0.1
 74
0
  0
ENDTAB
  0
TABLE
  2
LAYER
  5
2
100
AcDbSymbolTable
 70
36
  0
LAYER
  5
10
100
AcDbSymbolTableRecord
100
AcDbLayerTableRecord
  2
0
 70
0
 62
7
  6
CONTINUOUS
370
-3
390
F
  0
LAYER
  5
1FA
100
AcDbSymbolTableRecord
100
AcDbLayerTableRecord
  2
DEFAULT_1
 70
0
 62
7
  6
CENTER
370
-3
390
F
  0
LAYER
  5
1FB
100
AcDbSymbolTableRecord
100
AcDbLayerTableRecord
  2
DEFAULT_2
 70
0
 62
8
  6
HIDDEN
370
-3
390
F
  0
LAYER
  5
1FC
100
AcDbSymbolTableRecord
100
AcDbLayerTableRecord
  2
DEFAULT_3
 70
0
 62
7
  6
PHANTOM
370
-3
390
F
  0
LAYER
  5
1FD
100
AcDbSymbolTableRecord
100
AcDbLayerTableRecord
  2
ALL_FEATURES
 70
0
 62
7
  6
CONTINUOUS
370
-3
390
F
  0
LAYER
  5
1FE
100
AcDbSymbolTableRecord
100
AcDbLayerTableRecord
  2
AXES_FEATURES
 70
0
 62
7
  6
CONTINUOUS
370
-3
390
F
  0
LAYER
  5
1FF
100
AcDbSymbolTableRecord
100
AcDbLayerTableRecord
  2
DIMENSIONS
 70
0
 62
7
  6
CONTINUOUS
370
-3
390
F
  0
ENDTAB
  0
TABLE
  2
STYLE
  5
3
100
AcDbSymbolTable
 70
1
  0
STYLE
  5
11
100
AcDbSymbolTableRecord
100
AcDbTextStyleTableRecord
  2
STANDARD
 70
0
 40
0.0
 41
0.8
 50
0.0
 71
0
 42
0.2
  3
txt
  4

  0
STYLE
  5
200
100
AcDbSymbolTableRecord
100
AcDbTextStyleTableRecord
  2
TEXTSTYLE_1
 70
0
 40
0.0
 41
0.8
 50
0.0
 71
0
 42
0.2
  3
gdt
  4

  0
ENDTAB
  0
TABLE
  2
VIEW
  5
6
100
AcDbSymbolTable
 70
0
  0
ENDTAB
  0
TABLE
  2
UCS
  5
7
100
AcDbSymbolTable
 70
0
  0
ENDTAB
  0
TABLE
  2
APPID
  5
9
100
AcDbSymbolTable
 70
1
  0
APPID
  5
201
100
AcDbSymbolTableRecord
100
AcDbRegAppTableRecord
  2
ACAD
 70
0
  0
ENDTAB
  0
TABLE
  2
BLOCK_RECORD
  5
1
100
AcDbSymbolTable
 70
0
  0
BLOCK_RECORD
  5
202
100
AcDbSymbolTableRecord
100
AcDbBlockTableRecord
  2
*Model_Space
  0
BLOCK_RECORD
  5
203
100
AcDbSymbolTableRecord
100
AcDbBlockTableRecord
  2
*Paper_Space
  0
BLOCK_RECORD
  5
204
100
AcDbSymbolTableRecord
100
AcDbBlockTableRecord
  2
_FILLED
  0
ENDTAB
  0
TABLE
  2
DIMSTYLE
  5
A
100
AcDbSymbolTable
 70
1
100
AcDbDimStyleTable
 71
0
  0
DIMSTYLE
105
205
100
AcDbSymbolTableRecord
100
AcDbDimStyleTableRecord
  2
STANDARD
 70
0
  3

  4

 40
1.0
 41
0.1
 42
0.0625
 43
0.38
 44
0.125
 45
0.0
 46
0.0
 47
0.001
 48
0.001
140
0.08
141
0.09
142
0.0
143
25.4
144
1.0
145
0.0
146
1.0
147
0.09
 71
1.0
 72
0.0
 73
1
 74
1
 75
0
 76
0
 77
0
 78
4
 79
1
170
1
171
2
172
0
173
0
174
0
175
0
176
0
177
0
178
0
270
2
179
3
271
3
272
3
273
2
274
2
275
0
280
0
281
0
282
0
283
1
284
4
285
0
286
0
287
3
288
0
340
11
278
46
341
204
342
204
343
204
344
204
  0
ENDTAB
  0
ENDSEC
  0
SECTION
  2
BLOCKS
  0
BLOCK
  5
20
100
AcDbEntity
  8
0
100
AcDbBlockBegin
  2
*Model_Space
 70
0
 10
0.0
 20
0.0
 30
0.0
  3
*Model_Space
  1

  0
ENDBLK
  5
21
100
AcDbEntity
  8
0
100
AcDbBlockEnd
  0
BLOCK
  5
1C
100
AcDbEntity
  8
0
100
AcDbBlockBegin
  2
*Paper_Space
 70
0
 10
0.0
 20
0.0
 30
0.0
  3
*Paper_Space
  1

  0
ENDBLK
  5
1D
100
AcDbEntity
  8
0
100
AcDbBlockEnd
  0
BLOCK
  5
206
100
AcDbEntity
  8
0
100
AcDbBlockBegin
  2
_FILLED
 70
64
 10
0.0
 20
0.0
  3
_FILLED
  1

  0
SOLID
  5
207
100
AcDbEntity
  8
0
  6
BYBLOCK
 62
0
100
AcDbTrace
 10
0.0
 20
0.0
 11
-1.0
 21
0.2
 12
-1.0
 22
-0.2
 13
-1.0
 23
-0.2
  0
ENDBLK
  5
208
100
AcDbEntity
  8
0
  6
BYBLOCK
 62
0
100
AcDbBlockEnd
  0
ENDSEC
  0
SECTION
  2
ENTITIES
  0
LINE
  5
209
100
AcDbEntity
  8
0
100
AcDbLine
 62
9
  6
CONTINUOUS
 10
11.3298999103
 20
9.9469929346
 11
11.3234991511
 21
9.935906496
  0
LINE
  5
20A
100
AcDbEntity
  8
0
100
AcDbLine
 62
9
  6
CONTINUOUS
 10
11.3734380548
 20
10.0224032159
 11
11.3789423239
 21
10.0319368884
  0
LINE
  5
20B
100
AcDbEntity
  8
0
100
AcDbLine
 62
9
  6
CONTINUOUS
 10
10.5019466307
 20
8.5129357884
 11
10.4964423616
 21
8.5034021159
  0
LINE
  5
20C
100
AcDbEntity
  8
0
100
AcDbLine
 62
9
  6
CONTINUOUS
 10
10.5454847752
 20
8.5883460697
 11
10.5518855344
 21
8.5994325082
  0
LINE
  5
20D
100
AcDbEntity
  8
0
100
AcDbLine
 62
9
  6
CONTINUOUS
 10
10.1532772091
 20
9.267669503
 11
10.1660787261
 21
9.2676695022
  0
LINE
  5
20E
100
AcDbEntity
  8
0
100
AcDbLine
 62
9
  6
CONTINUOUS
 10
10.0662009175
 20
9.2676695015
 11
10.0551923804
 21
9.2676695021
  0
LINE
  5
20F
100
AcDbEntity
  8
0
100
AcDbLine
 62
9
  6
CONTINUOUS
 10
11.8091837679
 20
9.2676695028
 11
11.8201923051
 21
9.2676695022
  0
LINE
  5
210
100
AcDbEntity
  8
0
100
AcDbLine
 62
9
  6
CONTINUOUS
 10
11.7221074764
 20
9.2676695013
 11
11.7093059594
 21
9.2676695021
  0
LINE
  5
211
100
AcDbEntity
  8
0
100
AcDbLine
 62
9
  6
CONTINUOUS
 10
10.5454847766
 20
9.9469929354
 11
10.5518855344
 21
9.9359064961
  0
LINE
  5
212
100
AcDbEntity
  8
0
100
AcDbLine
 62
9
  6
CONTINUOUS
 10
10.5019466296
 20
10.0224032152
 11
10.4964423615
 21
10.0319368883
  0
LINE
  5
213
100
AcDbEntity
  8
0
100
AcDbLine
 62
9
  6
CONTINUOUS
 10
11.3734380559
 20
8.5129357891
 11
11.3789423239
 21
8.5034021159
  0
LINE
  5
214
100
AcDbEntity
  8
0
100
AcDbLine
 62
9
  6
CONTINUOUS
 10
11.3298999088
 20
8.5883460689
 11
11.323499151
 21
8.5994325082
  0
CIRCLE
  5
215
100
AcDbEntity
  8
0
100
AcDbCircle
 62
7
  6
CONTINUOUS
 10
10.3232811803
 20
8.7144511885
 40
0.0905511811
  0
CIRCLE
  5
216
100
AcDbEntity
  8
0
100
AcDbCircle
 62
7
  6
CONTINUOUS
 10
10.3229612815
 20
8.7141651101
 40
0.0648525769
  0
CIRCLE
  5
217
100
AcDbEntity
  8
0
100
AcDbCircle
 62
9
  6
CONTINUOUS
 10
10.323068792
 20
8.7142611904
 40
0.0554448773
  0
CIRCLE
  5
218
100
AcDbEntity
  8
0
100
AcDbCircle
 62
9
  6
CONTINUOUS
 10
10.3223979831
 20
8.7136688225
 40
0.0435174759
  0
CIRCLE
  5
219
100
AcDbEntity
  8
0
100
AcDbCircle
 62
7
  6
CONTINUOUS
 10
10.3232811803
 20
8.7144511885
 40
0.0196850394
  0
CIRCLE
  5
21A
100
AcDbEntity
  8
0
100
AcDbCircle
 62
7
  6
CONTINUOUS
 10
10.1109206029
 20
9.2676694064
 40
0.0905511811
  0
CIRCLE
  5
21B
100
AcDbEntity
  8
0
100
AcDbCircle
 62
7
  6
CONTINUOUS
 10
10.1513856879
 20
9.0121829149
 40
0.0905511811
  0
CIRCLE
  5
21C
100
AcDbEntity
  8
0
100
AcDbCircle
 62
7
  6
CONTINUOUS
 10
10.4124337433
 20
9.1367077503
 40
0.0905511811
  0
ARC
  5
21D
100
AcDbEntity
  8
0
100
AcDbCircle
 62
7
  6
CONTINUOUS
 10
10.1104913184
 20
9.2676678604
 40
0.0648526302
100
AcDbArc
 50
0.001450629
 51
179.9985495663
  0
CIRCLE
  5
21E
100
AcDbEntity
  8
0
100
AcDbCircle
 62
7
  6
CONTINUOUS
 10
10.1509770136
 20
9.012051634
 40
0.0648525386
  0
CIRCLE
  5
21F
100
AcDbEntity
  8
0
100
AcDbCircle
 62
7
  6
CONTINUOUS
 10
10.4121678515
 20
9.1366420225
 40
0.0632887235
  0
CIRCLE
  5
220
100
AcDbEntity
  8
0
100
AcDbCircle
 62
9
  6
CONTINUOUS
 10
10.1511150268
 20
9.0120938232
 40
0.0554461966
  0
ARC
  5
221
100
AcDbEntity
  8
0
100
AcDbCircle
 62
9
  6
CONTINUOUS
 10
10.1106355464
 20
9.2676684422
 40
0.0554446319
100
AcDbArc
 50
0.001095462
 51
179.9989047335
  0
CIRCLE
  5
222
100
AcDbEntity
  8
0
100
AcDbCircle
 62
9
  6
CONTINUOUS
 10
10.4122592958
 20
9.1366643654
 40
0.0538975281
  0
CIRCLE
  5
223
100
AcDbEntity
  8
0
100
AcDbCircle
 62
9
  6
CONTINUOUS
 10
10.150266475
 20
9.011809004
 40
0.0435187939
  0
ARC
  5
224
100
AcDbEntity
  8
0
100
AcDbCircle
 62
9
  6
CONTINUOUS
 10
10.1097391521
 20
9.2676597838
 40
0.0435172267
100
AcDbArc
 50
0.012788809
 51
179.9872111542
  0
ARC
  5
225
100
AcDbEntity
  8
0
100
AcDbCircle
 62
9
  6
CONTINUOUS
 10
10.4117226716
 20
9.1365700651
 40
0.0420433831
100
AcDbArc
 50
205.529351642
 51
269.9250464036
  0
ARC
  5
226
100
AcDbEntity
  8
0
100
AcDbCircle
 62
7
  6
CONTINUOUS
 10
10.4116588412
 20
9.1365364704
 40
0.042015704
100
AcDbArc
 50
270.0120157342
 51
25.4174072106
  0
CIRCLE
  5
227
100
AcDbEntity
  8
0
100
AcDbCircle
 62
7
  6
CONTINUOUS
 10
10.1109206029
 20
9.2676694064
 40
0.0196850394
  0
CIRCLE
  5
228
100
AcDbEntity
  8
0
100
AcDbCircle
 62
7
  6
CONTINUOUS
 10
10.4124337433
 20
9.1367077503
 40
0.0196850394
  0
CIRCLE
  5
229
100
AcDbEntity
  8
0
100
AcDbCircle
 62
7
  6
CONTINUOUS
 10
10.1513856879
 20
9.0121829149
 40
0.0196850394
  0
CIRCLE
  5
22A
100
AcDbEntity
  8
0
100
AcDbCircle
 62
7
  6
CONTINUOUS
 10
10.5243064297
 20
8.5516641513
 40
0.0905511811
  0
CIRCLE
  5
22B
100
AcDbEntity
  8
0
100
AcDbCircle
 62
7
  6
CONTINUOUS
 10
10.524090447
 20
8.5512931998
 40
0.0648526006
  0
CIRCLE
  5
22C
100
AcDbEntity
  8
0
100
AcDbCircle
 62
9
  6
CONTINUOUS
 10
10.5241648625
 20
8.5514167762
 40
0.0554446292
  0
CIRCLE
  5
22D
100
AcDbEntity
  8
0
100
AcDbCircle
 62
9
  6
CONTINUOUS
 10
10.5237074089
 20
8.5506459958
 40
0.0435172239
  0
CIRCLE
  5
22E
100
AcDbEntity
  8
0
100
AcDbCircle
 62
7
  6
CONTINUOUS
 10
10.5243064297
 20
8.5516641513
 40
0.0196850394
  0
CIRCLE
  5
22F
100
AcDbEntity
  8
0
100
AcDbCircle
 62
7
  6
CONTINUOUS
 10
10.7657967641
 20
8.4589646971
 40
0.0905511811
  0
CIRCLE
  5
230
100
AcDbEntity
  8
0
100
AcDbCircle
 62
7
  6
CONTINUOUS
 10
10.7657062703
 20
8.4585451184
 40
0.064852515
  0
CIRCLE
  5
231
100
AcDbEntity
  8
0
100
AcDbCircle
 62
9
  6
CONTINUOUS
 10
10.7657387154
 20
8.458685725
 40
0.0554461938
  0
CIRCLE
  5
232
100
AcDbEntity
  8
0
100
AcDbCircle
 62
9
  6
CONTINUOUS
 10
10.7655611
 20
8.457808448
 40
0.0435187938
  0
CIRCLE
  5
233
100
AcDbEntity
  8
0
100
AcDbCircle
 62
7
  6
CONTINUOUS
 10
10.7657967641
 20
8.4589646971
 40
0.0196850394
  0
ARC
  5
234
100
AcDbEntity
  8
0
100
AcDbCircle
 62
7
  6
CONTINUOUS
 10
10.788479121
 20
8.7473013623
 40
0.0905511811
100
AcDbArc
 50
269.9999189697
 51
90.0000254752
  0
CIRCLE
  5
235
100
AcDbEntity
  8
0
100
AcDbCircle
 62
7
  6
CONTINUOUS
 10
10.7884032497
 20
8.7470382153
 40
0.0632886978
  0
CIRCLE
  5
236
100
AcDbEntity
  8
0
100
AcDbCircle
 62
9
  6
CONTINUOUS
 10
10.7884295923
 20
8.7471285626
 40
0.0538975327
  0
ARC
  5
237
100
AcDbEntity
  8
0
100
AcDbCircle
 62
9
  6
CONTINUOUS
 10
10.7882429505
 20
8.7466166866
 40
0.0420433818
100
AcDbArc
 50
265.5293514156
 51
329.9250464686
  0
ARC
  5
238
100
AcDbEntity
  8
0
100
AcDbCircle
 62
7
  6
CONTINUOUS
 10
10.788240128
 20
8.7465446102
 40
0.0420157038
100
AcDbArc
 50
330.012015379
 51
85.4174062094
  0
CIRCLE
  5
239
100
AcDbEntity
  8
0
100
AcDbCircle
 62
7
  6
CONTINUOUS
 10
10.788479121
 20
8.7473013623
 40
0.0196850394
  0
CIRCLE
  5
23A
100
AcDbEntity
  8
0
100
AcDbCircle
 62
7
  6
CONTINUOUS
 10
10.6817867447
 20
9.2676694064
 40
0.0905511811
  0
CIRCLE
  5
23B
100
AcDbEntity
  8
0
100
AcDbCircle
 62
7
  6
CONTINUOUS
 10
10.5616468788
 20
8.8782630184
 40
0.0905511811
  0
CIRCLE
  5
23C
100
AcDbEntity
  8
0
100
AcDbCircle
 62
7
  6
CONTINUOUS
 10
10.8097395006
 20
9.0460487321
 40
0.0905511811
  0
CIRCLE
  5
23D
100
AcDbEntity
  8
0
100
AcDbCircle
 62
7
  6
CONTINUOUS
 10
10.5614562247
 20
8.8780664878
 40
0.0632887601
  0
CIRCLE
  5
23E
100
AcDbEntity
  8
0
100
AcDbCircle
 62
7
  6
CONTINUOUS
 10
10.8096754808
 20
9.0459385972
 40
0.0623787611
  0
ARC
  5
23F
100
AcDbEntity
  8
0
100
AcDbCircle
 62
7
  6
CONTINUOUS
 10
10.6816593131
 20
9.2676693454
 40
0.0623787611
100
AcDbArc
 50
0.0002565827
 51
179.9997436067
  0
CIRCLE
  5
240
100
AcDbEntity
  8
0
100
AcDbCircle
 62
9
  6
CONTINUOUS
 10
10.5615219531
 20
8.8781338524
 40
0.0538984451
  0
CIRCLE
  5
241
100
AcDbEntity
  8
0
100
AcDbCircle
 62
9
  6
CONTINUOUS
 10
10.8096979436
 20
9.045976922
 40
0.0529969047
  0
CIRCLE
  5
242
100
AcDbEntity
  8
0
100
AcDbCircle
 62
7
  6
CONTINUOUS
 10
10.561118728
 20
8.8777089454
 40
0.0419849774
  0
ARC
  5
243
100
AcDbEntity
  8
0
100
AcDbCircle
 62
9
  6
CONTINUOUS
 10
10.681426275
 20
9.2676685462
 40
0.0410868821
100
AcDbArc
 50
0.0016867741
 51
179.9986739761
  0
CIRCLE
  5
244
100
AcDbEntity
  8
0
100
AcDbCircle
 62
9
  6
CONTINUOUS
 10
10.8095582546
 20
9.045737153
 40
0.0410868819
  0
CIRCLE
  5
245
100
AcDbEntity
  8
0
100
AcDbCircle
 62
7
  6
CONTINUOUS
 10
10.8097395006
 20
9.0460487321
 40
0.0196850394
  0
CIRCLE
  5
246
100
AcDbEntity
  8
0
100
AcDbCircle
 62
7
  6
CONTINUOUS
 10
10.6817867447
 20
9.2676694064
 40
0.0196850394
  0
CIRCLE
  5
247
100
AcDbEntity
  8
0
100
AcDbCircle
 62
7
  6
CONTINUOUS
 10
10.5616468788
 20
8.8782630184
 40
0.0196850394
  0
CIRCLE
  5
248
100
AcDbEntity
  8
0
100
AcDbCircle
 62
7
  6
CONTINUOUS
 10
10.1513856879
 20
9.5231558978
 40
0.0905511811
  0
CIRCLE
  5
249
100
AcDbEntity
  8
0
100
AcDbCircle
 62
7
  6
CONTINUOUS
 10
10.4124337433
 20
9.3986310624
 40
0.0905511811
  0
ARC
  5
24A
100
AcDbEntity
  8
0
100
AcDbCircle
 62
7
  6
CONTINUOUS
 10
10.1104913184
 20
9.2676710998
 40
0.0648526006
100
AcDbArc
 50
180.0014114651
 51
359.9985887302
  0
CIRCLE
  5
24B
100
AcDbEntity
  8
0
100
AcDbCircle
 62
7
  6
CONTINUOUS
 10
10.1509779462
 20
9.5232900273
 40
0.0648525797
  0
CIRCLE
  5
24C
100
AcDbEntity
  8
0
100
AcDbCircle
 62
7
  6
CONTINUOUS
 10
10.412168176
 20
9.3986980312
 40
0.0632887602
  0
CIRCLE
  5
24D
100
AcDbEntity
  8
0
100
AcDbCircle
 62
9
  6
CONTINUOUS
 10
10.1511149108
 20
9.523244955
 40
0.0554448773
  0
ARC
  5
24E
100
AcDbEntity
  8
0
100
AcDbCircle
 62
9
  6
CONTINUOUS
 10
10.1106355464
 20
9.2676705598
 40
0.0554446278
100
AcDbArc
 50
180.0010929375
 51
359.998907258
  0
CIRCLE
  5
24F
100
AcDbEntity
  8
0
100
AcDbCircle
 62
9
  6
CONTINUOUS
 10
10.4122593796
 20
9.3986747908
 40
0.0538984451
  0
CIRCLE
  5
250
100
AcDbEntity
  8
0
100
AcDbCircle
 62
9
  6
CONTINUOUS
 10
10.1502665006
 20
9.5235297085
 40
0.0435174759
  0
ARC
  5
251
100
AcDbEntity
  8
0
100
AcDbCircle
 62
9
  6
CONTINUOUS
 10
10.1097393103
 20
9.2676792184
 40
0.0435172239
100
AcDbArc
 50
180.0127857908
 51
359.9872139664
  0
CIRCLE
  5
252
100
AcDbEntity
  8
0
100
AcDbCircle
 62
7
  6
CONTINUOUS
 10
10.4116897867
 20
9.3988115405
 40
0.0419849774
  0
CIRCLE
  5
253
100
AcDbEntity
  8
0
100
AcDbCircle
 62
7
  6
CONTINUOUS
 10
10.4124337433
 20
9.3986310624
 40
0.0196850394
  0
CIRCLE
  5
254
100
AcDbEntity
  8
0
100
AcDbCircle
 62
7
  6
CONTINUOUS
 10
10.1513856879
 20
9.5231558978
 40
0.0196850394
  0
CIRCLE
  5
255
100
AcDbEntity
  8
0
100
AcDbCircle
 62
7
  6
CONTINUOUS
 10
10.3232811803
 20
9.8208876242
 40
0.0905511811
  0
CIRCLE
  5
256
100
AcDbEntity
  8
0
100
AcDbCircle
 62
7
  6
CONTINUOUS
 10
10.3229631107
 20
9.8211760286
 40
0.0648525386
  0
CIRCLE
  5
257
100
AcDbEntity
  8
0
100
AcDbCircle
 62
9
  6
CONTINUOUS
 10
10.3230686542
 20
9.8210776003
 40
0.0554461966
  0
CIRCLE
  5
258
100
AcDbEntity
  8
0
100
AcDbCircle
 62
9
  6
CONTINUOUS
 10
10.3223977177
 20
9.8216700581
 40
0.0435187939
  0
CIRCLE
  5
259
100
AcDbEntity
  8
0
100
AcDbCircle
 62
7
  6
CONTINUOUS
 10
10.3232811803
 20
9.8208876242
 40
0.0196850394
  0
CIRCLE
  5
25A
100
AcDbEntity
  8
0
100
AcDbCircle
 62
7
  6
CONTINUOUS
 10
10.5616468788
 20
9.6570757943
 40
0.0905511811
  0
CIRCLE
  5
25B
100
AcDbEntity
  8
0
100
AcDbCircle
 62
7
  6
CONTINUOUS
 10
10.8097395006
 20
9.4892900806
 40
0.0905511811
  0
CIRCLE
  5
25C
100
AcDbEntity
  8
0
100
AcDbCircle
 62
7
  6
CONTINUOUS
 10
10.5614569712
 20
9.657273322
 40
0.0632887235
  0
ARC
  5
25D
100
AcDbEntity
  8
0
100
AcDbCircle
 62
7
  6
CONTINUOUS
 10
10.6816593152
 20
9.2676699049
 40
0.062378769
100
AcDbArc
 50
180.0002574722
 51
359.9997427172
  0
CIRCLE
  5
25E
100
AcDbEntity
  8
0
100
AcDbCircle
 62
7
  6
CONTINUOUS
 10
10.8096756923
 20
9.4894005317
 40
0.0623787611
  0
CIRCLE
  5
25F
100
AcDbEntity
  8
0
100
AcDbCircle
 62
9
  6
CONTINUOUS
 10
10.5615220428
 20
9.6572053004
 40
0.0538975281
  0
CIRCLE
  5
260
100
AcDbEntity
  8
0
100
AcDbCircle
 62
9
  6
CONTINUOUS
 10
10.6817037331
 20
9.2676696355
 40
0.0529969043
  0
CIRCLE
  5
261
100
AcDbEntity
  8
0
100
AcDbCircle
 62
9
  6
CONTINUOUS
 10
10.8096981534
 20
9.4893622078
 40
0.0529969043
  0
ARC
  5
262
100
AcDbEntity
  8
0
100
AcDbCircle
 62
9
  6
CONTINUOUS
 10
10.5611720639
 20
9.6576228805
 40
0.0420433831
100
AcDbArc
 50
145.5293514438
 51
209.9250467174
  0
ARC
  5
263
100
AcDbEntity
  8
0
100
AcDbCircle
 62
7
  6
CONTINUOUS
 10
10.5611110512
 20
9.6576613582
 40
0.0420157021
100
AcDbArc
 50
210.0120142346
 51
325.4174143677
  0
ARC
  5
264
100
AcDbEntity
  8
0
100
AcDbCircle
 62
9
  6
CONTINUOUS
 10
10.6814262464
 20
9.2676706995
 40
0.0410868821
100
AcDbArc
 50
180.0016766074
 51
359.9986841427
  0
CIRCLE
  5
265
100
AcDbEntity
  8
0
100
AcDbCircle
 62
9
  6
CONTINUOUS
 10
10.8095584801
 20
9.4896019505
 40
0.0410868821
  0
CIRCLE
  5
266
100
AcDbEntity
  8
0
100
AcDbCircle
 62
7
  6
CONTINUOUS
 10
10.8097395006
 20
9.4892900806
 40
0.0196850394
  0
CIRCLE
  5
267
100
AcDbEntity
  8
0
100
AcDbCircle
 62
7
  6
CONTINUOUS
 10
10.5616468788
 20
9.6570757943
 40
0.0196850394
  0
CIRCLE
  5
268
100
AcDbEntity
  8
0
100
AcDbCircle
 62
7
  6
CONTINUOUS
 10
10.5243064297
 20
9.9836746614
 40
0.0905511811
  0
CIRCLE
  5
269
100
AcDbEntity
  8
0
100
AcDbCircle
 62
7
  6
CONTINUOUS
 10
10.7657967641
 20
10.0763741156
 40
0.0905511811
  0
ARC
  5
26A
100
AcDbEntity
  8
0
100
AcDbCircle
 62
7
  6
CONTINUOUS
 10
10.788479121
 20
9.7880374504
 40
0.0905511811
100
AcDbArc
 50
269.9998705408
 51
89.9999346619
  0
CIRCLE
  5
26B
100
AcDbEntity
  8
0
100
AcDbCircle
 62
7
  6
CONTINUOUS
 10
10.5240932141
 20
9.9840474021
 40
0.0648526006
  0
CIRCLE
  5
26C
100
AcDbEntity
  8
0
100
AcDbCircle
 62
7
  6
CONTINUOUS
 10
10.7657090006
 20
10.0767944021
 40
0.0648525605
  0
CIRCLE
  5
26D
100
AcDbEntity
  8
0
100
AcDbCircle
 62
7
  6
CONTINUOUS
 10
10.7884042979
 20
9.7883010438
 40
0.0632887646
  0
CIRCLE
  5
26E
100
AcDbEntity
  8
0
100
AcDbCircle
 62
9
  6
CONTINUOUS
 10
10.7657384617
 20
10.0766532639
 40
0.0554448773
  0
CIRCLE
  5
26F
100
AcDbEntity
  8
0
100
AcDbCircle
 62
9
  6
CONTINUOUS
 10
10.5241648605
 20
9.983922227
 40
0.0554446278
  0
CIRCLE
  5
270
100
AcDbEntity
  8
0
100
AcDbCircle
 62
9
  6
CONTINUOUS
 10
10.7884297693
 20
9.7882104367
 40
0.0538984449
  0
CIRCLE
  5
271
100
AcDbEntity
  8
0
100
AcDbCircle
 62
9
  6
CONTINUOUS
 10
10.7655608597
 20
10.0775303907
 40
0.0435174757
  0
CIRCLE
  5
272
100
AcDbEntity
  8
0
100
AcDbCircle
 62
9
  6
CONTINUOUS
 10
10.5237242378
 20
9.9847027251
 40
0.0435172239
  0
CIRCLE
  5
273
100
AcDbEntity
  8
0
100
AcDbCircle
 62
7
  6
CONTINUOUS
 10
10.7882634038
 20
9.7887720886
 40
0.0419849739
  0
CIRCLE
  5
274
100
AcDbEntity
  8
0
100
AcDbCircle
 62
7
  6
CONTINUOUS
 10
10.7884791674
 20
9.7880376688
 40
0.0196850394
  0
CIRCLE
  5
275
100
AcDbEntity
  8
0
100
AcDbCircle
 62
7
  6
CONTINUOUS
 10
10.7657967641
 20
10.0763741156
 40
0.0196850394
  0
CIRCLE
  5
276
100
AcDbEntity
  8
0
100
AcDbCircle
 62
7
  6
CONTINUOUS
 10
10.5243064297
 20
9.9836746614
 40
0.0196850394
  0
CIRCLE
  5
277
100
AcDbEntity
  8
0
100
AcDbCircle
 62
7
  6
CONTINUOUS
 10
11.3510780833
 20
8.5516641513
 40
0.0905511811
  0
CIRCLE
  5
278
100
AcDbEntity
  8
0
100
AcDbCircle
 62
7
  6
CONTINUOUS
 10
11.1095877489
 20
8.4589646971
 40
0.0905511811
  0
ARC
  5
279
100
AcDbEntity
  8
0
100
AcDbCircle
 62
7
  6
CONTINUOUS
 10
11.086905392
 20
8.7473013623
 40
0.0905511811
100
AcDbArc
 50
89.9999776399
 51
270.0000881415
  0
CIRCLE
  5
27A
100
AcDbEntity
  8
0
100
AcDbCircle
 62
7
  6
CONTINUOUS
 10
11.3512914713
 20
8.5512916022
 40
0.0648526006
  0
CIRCLE
  5
27B
100
AcDbEntity
  8
0
100
AcDbCircle
 62
7
  6
CONTINUOUS
 10
11.1096756695
 20
8.4585445955
 40
0.0648525816
  0
CIRCLE
  5
27C
100
AcDbEntity
  8
0
100
AcDbCircle
 62
7
  6
CONTINUOUS
 10
11.0869803723
 20
8.7470379488
 40
0.0632887816
  0
CIRCLE
  5
27D
100
AcDbEntity
  8
0
100
AcDbCircle
 62
9
  6
CONTINUOUS
 10
11.109646224
 20
8.4586857376
 40
0.05544488
  0
CIRCLE
  5
27E
100
AcDbEntity
  8
0
100
AcDbCircle
 62
9
  6
CONTINUOUS
 10
11.3512216588
 20
8.5514178361
 40
0.0554446292
  0
CIRCLE
  5
27F
100
AcDbEntity
  8
0
100
AcDbCircle
 62
9
  6
CONTINUOUS
 10
11.0869549134
 20
8.747128559
 40
0.0538984498
  0
CIRCLE
  5
280
100
AcDbEntity
  8
0
100
AcDbCircle
 62
9
  6
CONTINUOUS
 10
11.1098238257
 20
8.457808614
 40
0.0435174757
  0
CIRCLE
  5
281
100
AcDbEntity
  8
0
100
AcDbCircle
 62
9
  6
CONTINUOUS
 10
11.3516604475
 20
8.5506362795
 40
0.0435172239
  0
CIRCLE
  5
282
100
AcDbEntity
  8
0
100
AcDbCircle
 62
7
  6
CONTINUOUS
 10
11.0871212836
 20
8.7465669106
 40
0.0419849725
  0
CIRCLE
  5
283
100
AcDbEntity
  8
0
100
AcDbCircle
 62
7
  6
CONTINUOUS
 10
11.086905392
 20
8.7473013623
 40
0.0196850394
  0
CIRCLE
  5
284
100
AcDbEntity
  8
0
100
AcDbCircle
 62
7
  6
CONTINUOUS
 10
11.1095877489
 20
8.4589646971
 40
0.0196850394
  0
CIRCLE
  5
285
100
AcDbEntity
  8
0
100
AcDbCircle
 62
7
  6
CONTINUOUS
 10
11.3510780833
 20
8.5516641513
 40
0.0196850394
  0
CIRCLE
  5
286
100
AcDbEntity
  8
0
100
AcDbCircle
 62
7
  6
CONTINUOUS
 10
11.1935977683
 20
9.2676694064
 40
0.0905511811
  0
CIRCLE
  5
287
100
AcDbEntity
  8
0
100
AcDbCircle
 62
7
  6
CONTINUOUS
 10
11.3137376342
 20
8.8782630184
 40
0.0905511811
  0
ARC
  5
288
100
AcDbEntity
  8
0
100
AcDbCircle
 62
7
  6
CONTINUOUS
 10
11.0656450124
 20
9.0460487321
 40
0.0905511811
100
AcDbArc
 50
90.0000472144
 51
269.999859238
  0
CIRCLE
  5
289
100
AcDbEntity
  8
0
100
AcDbCircle
 62
7
  6
CONTINUOUS
 10
11.3139276522
 20
8.8780656429
 40
0.0632887673
  0
CIRCLE
  5
28A
100
AcDbEntity
  8
0
100
AcDbCircle
 62
7
  6
CONTINUOUS
 10
11.0657085083
 20
9.0459381951
 40
0.0623787611
  0
ARC
  5
28B
100
AcDbEntity
  8
0
100
AcDbCircle
 62
7
  6
CONTINUOUS
 10
11.1937253702
 20
9.2676691001
 40
0.0623787611
100
AcDbArc
 50
0.0002568672
 51
179.9997433222
  0
CIRCLE
  5
28C
100
AcDbEntity
  8
0
100
AcDbCircle
 62
9
  6
CONTINUOUS
 10
11.3138626447
 20
8.8781336989
 40
0.0538975325
  0
CIRCLE
  5
28D
100
AcDbEntity
  8
0
100
AcDbCircle
 62
9
  6
CONTINUOUS
 10
11.1936809486
 20
9.267669391
 40
0.0529969047
  0
CIRCLE
  5
28E
100
AcDbEntity
  8
0
100
AcDbCircle
 62
9
  6
CONTINUOUS
 10
11.0656865494
 20
9.0459768108
 40
0.0529969047
  0
ARC
  5
28F
100
AcDbEntity
  8
0
100
AcDbCircle
 62
9
  6
CONTINUOUS
 10
11.3142126059
 20
8.8777161279
 40
0.0420433835
100
AcDbArc
 50
325.5293573606
 51
29.9250387158
  0
ARC
  5
290
100
AcDbEntity
  8
0
100
AcDbCircle
 62
7
  6
CONTINUOUS
 10
11.3142736274
 20
8.8776776459
 40
0.042015704
100
AcDbArc
 50
30.0120199186
 51
145.4174092547
  0
CIRCLE
  5
291
100
AcDbEntity
  8
0
100
AcDbCircle
 62
9
  6
CONTINUOUS
 10
11.065824351
 20
9.0457359522
 40
0.0410868819
  0
ARC
  5
292
100
AcDbEntity
  8
0
100
AcDbCircle
 62
9
  6
CONTINUOUS
 10
11.1939584421
 20
9.2676683013
 40
0.0410868819
100
AcDbArc
 50
0.0016861338
 51
179.9986746159
  0
CIRCLE
  5
293
100
AcDbEntity
  8
0
100
AcDbCircle
 62
7
  6
CONTINUOUS
 10
11.0656450124
 20
9.0460487321
 40
0.0196850394
  0
CIRCLE
  5
294
100
AcDbEntity
  8
0
100
AcDbCircle
 62
7
  6
CONTINUOUS
 10
11.3137376342
 20
8.8782630184
 40
0.0196850394
  0
CIRCLE
  5
295
100
AcDbEntity
  8
0
100
AcDbCircle
 62
7
  6
CONTINUOUS
 10
11.1935977683
 20
9.2676694064
 40
0.0196850394
  0
CIRCLE
  5
296
100
AcDbEntity
  8
0
100
AcDbCircle
 62
7
  6
CONTINUOUS
 10
11.5521033327
 20
8.7144511885
 40
0.0905511811
  0
CIRCLE
  5
297
100
AcDbEntity
  8
0
100
AcDbCircle
 62
7
  6
CONTINUOUS
 10
11.5524215691
 20
8.7141629934
 40
0.0648525313
  0
CIRCLE
  5
298
100
AcDbEntity
  8
0
100
AcDbCircle
 62
9
  6
CONTINUOUS
 10
11.5523160259
 20
8.7142614078
 40
0.0554461938
  0
CIRCLE
  5
299
100
AcDbEntity
  8
0
100
AcDbCircle
 62
9
  6
CONTINUOUS
 10
11.5529869658
 20
8.7136689475
 40
0.0435187938
  0
CIRCLE
  5
29A
100
AcDbEntity
  8
0
100
AcDbCircle
 62
7
  6
CONTINUOUS
 10
11.5521033327
 20
8.7144511885
 40
0.0196850394
  0
CIRCLE
  5
29B
100
AcDbEntity
  8
0
100
AcDbCircle
 62
7
  6
CONTINUOUS
 10
11.76446391
 20
9.2676694064
 40
0.0905511811
  0
CIRCLE
  5
29C
100
AcDbEntity
  8
0
100
AcDbCircle
 62
7
  6
CONTINUOUS
 10
11.7239988251
 20
9.0121829149
 40
0.0905511811
  0
CIRCLE
  5
29D
100
AcDbEntity
  8
0
100
AcDbCircle
 62
7
  6
CONTINUOUS
 10
11.4629507697
 20
9.1367077503
 40
0.0905511811
  0
ARC
  5
29E
100
AcDbEntity
  8
0
100
AcDbCircle
 62
7
  6
CONTINUOUS
 10
11.7648933671
 20
9.2676679045
 40
0.0648526006
100
AcDbArc
 50
0.0014114637
 51
179.9985887316
  0
CIRCLE
  5
29F
100
AcDbEntity
  8
0
100
AcDbCircle
 62
7
  6
CONTINUOUS
 10
11.7244067302
 20
9.0120489761
 40
0.0648525841
  0
CIRCLE
  5
2A0
100
AcDbEntity
  8
0
100
AcDbCircle
 62
7
  6
CONTINUOUS
 10
11.4632164966
 20
9.1366409632
 40
0.0632887769
  0
CIRCLE
  5
2A1
100
AcDbEntity
  8
0
100
AcDbCircle
 62
9
  6
CONTINUOUS
 10
11.7242697722
 20
9.0120940506
 40
0.05544488
  0
ARC
  5
2A2
100
AcDbEntity
  8
0
100
AcDbCircle
 62
9
  6
CONTINUOUS
 10
11.7647491391
 20
9.2676684445
 40
0.0554446306
100
AcDbArc
 50
0.001092893
 51
179.9989073026
  0
CIRCLE
  5
2A3
100
AcDbEntity
  8
0
100
AcDbCircle
 62
9
  6
CONTINUOUS
 10
11.4631253059
 20
9.1366642132
 40
0.0538984479
  0
CIRCLE
  5
2A4
100
AcDbEntity
  8
0
100
AcDbCircle
 62
9
  6
CONTINUOUS
 10
11.7251181843
 20
9.0118092959
 40
0.043517476
  0
ARC
  5
2A5
100
AcDbEntity
  8
0
100
AcDbCircle
 62
9
  6
CONTINUOUS
 10
11.7656453797
 20
9.2676597858
 40
0.0435172239
100
AcDbArc
 50
0.0127858641
 51
179.9872138957
  0
CIRCLE
  5
2A6
100
AcDbEntity
  8
0
100
AcDbCircle
 62
7
  6
CONTINUOUS
 10
11.4636948931
 20
9.136527465
 40
0.0419849726
  0
CIRCLE
  5
2A7
100
AcDbEntity
  8
0
100
AcDbCircle
 62
7
  6
CONTINUOUS
 10
11.4629507697
 20
9.1367077503
 40
0.0196850394
  0
CIRCLE
  5
2A8
100
AcDbEntity
  8
0
100
AcDbCircle
 62
7
  6
CONTINUOUS
 10
11.76446391
 20
9.2676694064
 40
0.0196850394
  0
CIRCLE
  5
2A9
100
AcDbEntity
  8
0
100
AcDbCircle
 62
7
  6
CONTINUOUS
 10
11.7239988251
 20
9.0121829149
 40
0.0196850394
  0
CIRCLE
  5
2AA
100
AcDbEntity
  8
0
100
AcDbCircle
 62
7
  6
CONTINUOUS
 10
10.9376923427
 20
9.2676695021
 40
1.363
  0
CIRCLE
  5
2AB
100
AcDbEntity
  8
0
100
AcDbCircle
 62
9
  6
CONTINUOUS
 10
10.9376923427
 20
9.2676695021
 40
1.348
  0
CIRCLE
  5
2AC
100
AcDbEntity
  8
0
100
AcDbCircle
 62
7
  6
CONTINUOUS
 10
10.9376923427
 20
9.2676695021
 40
1.011
  0
CIRCLE
  5
2AD
100
AcDbEntity
  8
0
100
AcDbCircle
 62
7
  6
CONTINUOUS
 10
10.9376923427
 20
9.2676695021
 40
0.9960630784
  0
CIRCLE
  5
2AE
100
AcDbEntity
  8
0
100
AcDbCircle
 62
9
  6
CONTINUOUS
 10
10.9376923427
 20
9.2676695021
 40
0.9781246901
  0
CIRCLE
  5
2AF
100
AcDbEntity
  8
0
100
AcDbCircle
 62
7
  6
CONTINUOUS
 10
11.0656450124
 20
9.4892900806
 40
0.0905511811
  0
CIRCLE
  5
2B0
100
AcDbEntity
  8
0
100
AcDbCircle
 62
7
  6
CONTINUOUS
 10
11.0657087219
 20
9.4894006883
 40
0.0623787611
  0
CIRCLE
  5
2B1
100
AcDbEntity
  8
0
100
AcDbCircle
 62
9
  6
CONTINUOUS
 10
11.065686763
 20
9.4893620745
 40
0.0529969043
  0
CIRCLE
  5
2B2
100
AcDbEntity
  8
0
100
AcDbCircle
 62
9
  6
CONTINUOUS
 10
11.0658264293
 20
9.4896018557
 40
0.0410868821
  0
CIRCLE
  5
2B3
100
AcDbEntity
  8
0
100
AcDbCircle
 62
7
  6
CONTINUOUS
 10
11.0656450124
 20
9.4892900806
 40
0.0196850394
  0
ARC
  5
2B4
100
AcDbEntity
  8
0
100
AcDbCircle
 62
7
  6
CONTINUOUS
 10
11.1937253724
 20
9.2676696595
 40
0.0623787689
100
AcDbArc
 50
180.0002571199
 51
359.9997430695
  0
ARC
  5
2B5
100
AcDbEntity
  8
0
100
AcDbCircle
 62
9
  6
CONTINUOUS
 10
11.1939584122
 20
9.2676704547
 40
0.0410868823
100
AcDbArc
 50
180.0016772478
 51
359.9986835016
  0
CIRCLE
  5
2B6
100
AcDbEntity
  8
0
100
AcDbCircle
 62
7
  6
CONTINUOUS
 10
11.3137376342
 20
9.6570757943
 40
0.0905511811
  0
CIRCLE
  5
2B7
100
AcDbEntity
  8
0
100
AcDbCircle
 62
7
  6
CONTINUOUS
 10
11.313928463
 20
9.6572725002
 40
0.0632887769
  0
CIRCLE
  5
2B8
100
AcDbEntity
  8
0
100
AcDbCircle
 62
9
  6
CONTINUOUS
 10
11.3138627326
 20
9.6572051518
 40
0.0538984479
  0
CIRCLE
  5
2B9
100
AcDbEntity
  8
0
100
AcDbCircle
 62
7
  6
CONTINUOUS
 10
11.3142659535
 20
9.6576300546
 40
0.0419849726
  0
CIRCLE
  5
2BA
100
AcDbEntity
  8
0
100
AcDbCircle
 62
7
  6
CONTINUOUS
 10
11.3137376342
 20
9.6570757943
 40
0.0196850394
  0
CIRCLE
  5
2BB
100
AcDbEntity
  8
0
100
AcDbCircle
 62
7
  6
CONTINUOUS
 10
11.1095877489
 20
10.0763741156
 40
0.0905511811
  0
CIRCLE
  5
2BC
100
AcDbEntity
  8
0
100
AcDbCircle
 62
7
  6
CONTINUOUS
 10
11.3510780833
 20
9.9836746614
 40
0.0905511811
  0
ARC
  5
2BD
100
AcDbEntity
  8
0
100
AcDbCircle
 62
7
  6
CONTINUOUS
 10
11.086905392
 20
9.7880374504
 40
0.0905511811
100
AcDbArc
 50
90.0000602218
 51
270.0001416245
  0
CIRCLE
  5
2BE
100
AcDbEntity
  8
0
100
AcDbCircle
 62
7
  6
CONTINUOUS
 10
11.3512942385
 20
9.9840458045
 40
0.0648526006
  0
CIRCLE
  5
2BF
100
AcDbEntity
  8
0
100
AcDbCircle
 62
7
  6
CONTINUOUS
 10
11.1096784461
 20
10.0767938983
 40
0.0648525439
  0
CIRCLE
  5
2C0
100
AcDbEntity
  8
0
100
AcDbCircle
 62
7
  6
CONTINUOUS
 10
11.0869814386
 20
9.7883007862
 40
0.0632887091
  0
CIRCLE
  5
2C1
100
AcDbEntity
  8
0
100
AcDbCircle
 62
9
  6
CONTINUOUS
 10
11.1096459696
 20
10.0766532727
 40
0.0554461966
  0
CIRCLE
  5
2C2
100
AcDbEntity
  8
0
100
AcDbCircle
 62
9
  6
CONTINUOUS
 10
11.3512216568
 20
9.9839211693
 40
0.0554446278
  0
CIRCLE
  5
2C3
100
AcDbEntity
  8
0
100
AcDbCircle
 62
9
  6
CONTINUOUS
 10
11.0869550892
 20
9.7882104332
 40
0.0538975279
  0
CIRCLE
  5
2C4
100
AcDbEntity
  8
0
100
AcDbCircle
 62
9
  6
CONTINUOUS
 10
11.1098235854
 20
10.0775305539
 40
0.0435187938
  0
ARC
  5
2C5
100
AcDbEntity
  8
0
100
AcDbCircle
 62
9
  6
CONTINUOUS
 10
11.3516605217
 20
9.9847028575
 40
0.0435172267
100
AcDbArc
 50
240.012788809
 51
59.9872111543
  0
ARC
  5
2C6
100
AcDbEntity
  8
0
100
AcDbCircle
 62
9
  6
CONTINUOUS
 10
11.0871417397
 20
9.7887223025
 40
0.042043382
100
AcDbArc
 50
85.5293586195
 51
149.92503923
  0
ARC
  5
2C7
100
AcDbEntity
  8
0
100
AcDbCircle
 62
7
  6
CONTINUOUS
 10
11.087144556
 20
9.7887943891
 40
0.042015704
100
AcDbArc
 50
150.0120164244
 51
265.4174076373
  0
CIRCLE
  5
2C8
100
AcDbEntity
  8
0
100
AcDbCircle
 62
7
  6
CONTINUOUS
 10
11.086905392
 20
9.7880374504
 40
0.0196850394
  0
CIRCLE
  5
2C9
100
AcDbEntity
  8
0
100
AcDbCircle
 62
7
  6
CONTINUOUS
 10
11.3510780833
 20
9.9836746614
 40
0.0196850394
  0
CIRCLE
  5
2CA
100
AcDbEntity
  8
0
100
AcDbCircle
 62
7
  6
CONTINUOUS
 10
11.1095877489
 20
10.0763741156
 40
0.0196850394
  0
CIRCLE
  5
2CB
100
AcDbEntity
  8
0
100
AcDbCircle
 62
7
  6
CONTINUOUS
 10
11.7239988251
 20
9.5231558978
 40
0.0905511811
  0
CIRCLE
  5
2CC
100
AcDbEntity
  8
0
100
AcDbCircle
 62
7
  6
CONTINUOUS
 10
11.4629507697
 20
9.3986310624
 40
0.0905511811
  0
ARC
  5
2CD
100
AcDbEntity
  8
0
100
AcDbCircle
 62
7
  6
CONTINUOUS
 10
11.7648933671
 20
9.2676711439
 40
0.0648526302
100
AcDbArc
 50
180.001450629
 51
359.9985495663
  0
CIRCLE
  5
2CE
100
AcDbEntity
  8
0
100
AcDbCircle
 62
7
  6
CONTINUOUS
 10
11.7244076537
 20
9.5232873742
 40
0.0648525313
  0
CIRCLE
  5
2CF
100
AcDbEntity
  8
0
100
AcDbCircle
 62
7
  6
CONTINUOUS
 10
11.4632168096
 20
9.3986970022
 40
0.0632886912
  0
CIRCLE
  5
2D0
100
AcDbEntity
  8
0
100
AcDbCircle
 62
9
  6
CONTINUOUS
 10
11.7242696527
 20
9.5232451783
 40
0.0554461938
  0
ARC
  5
2D1
100
AcDbEntity
  8
0
100
AcDbCircle
 62
9
  6
CONTINUOUS
 10
11.7647491391
 20
9.2676705621
 40
0.0554446292
100
AcDbArc
 50
180.0010955058
 51
359.9989046897
  0
CIRCLE
  5
2D2
100
AcDbEntity
  8
0
100
AcDbCircle
 62
9
  6
CONTINUOUS
 10
11.463125395
 20
9.3986746382
 40
0.0538975325
  0
CIRCLE
  5
2D3
100
AcDbEntity
  8
0
100
AcDbCircle
 62
9
  6
CONTINUOUS
 10
11.7251182083
 20
9.5235299992
 40
0.0435187938
  0
ARC
  5
2D4
100
AcDbEntity
  8
0
100
AcDbCircle
 62
9
  6
CONTINUOUS
 10
11.7656455334
 20
9.2676792205
 40
0.0435172267
100
AcDbArc
 50
180.0127888092
 51
359.987211154
  0
ARC
  5
2D5
100
AcDbEntity
  8
0
100
AcDbCircle
 62
9
  6
CONTINUOUS
 10
11.4636620029
 20
9.3987689273
 40
0.0420433835
100
AcDbArc
 50
25.5293582139
 51
89.9250390365
  0
ARC
  5
2D6
100
AcDbEntity
  8
0
100
AcDbCircle
 62
7
  6
CONTINUOUS
 10
11.4637258385
 20
9.3988025339
 40
0.0420157027
100
AcDbArc
 50
90.0120181576
 51
205.4174109341
  0
CIRCLE
  5
2D7
100
AcDbEntity
  8
0
100
AcDbCircle
 62
7
  6
CONTINUOUS
 10
11.4629507697
 20
9.3986310624
 40
0.0196850394
  0
CIRCLE
  5
2D8
100
AcDbEntity
  8
0
100
AcDbCircle
 62
7
  6
CONTINUOUS
 10
11.7239988251
 20
9.5231558978
 40
0.0196850394
  0
CIRCLE
  5
2D9
100
AcDbEntity
  8
0
100
AcDbCircle
 62
7
  6
CONTINUOUS
 10
11.5521033327
 20
9.8208876242
 40
0.0905511811
  0
CIRCLE
  5
2DA
100
AcDbEntity
  8
0
100
AcDbCircle
 62
7
  6
CONTINUOUS
 10
11.5524234057
 20
9.8211738841
 40
0.0648525841
  0
CIRCLE
  5
2DB
100
AcDbEntity
  8
0
100
AcDbCircle
 62
9
  6
CONTINUOUS
 10
11.5523158911
 20
9.8210778123
 40
0.05544488
  0
CIRCLE
  5
2DC
100
AcDbEntity
  8
0
100
AcDbCircle
 62
9
  6
CONTINUOUS
 10
11.5529867019
 20
9.8216701814
 40
0.043517476
  0
ARC
  5
2DD
100
AcDbEntity
  8
0
100
AcDbCircle
 62
9
  6
CONTINUOUS
 10
11.3516772767
 20
9.9846930089
 40
0.0435172239
100
AcDbArc
 50
60.0127857918
 51
239.9872139692
  0
CIRCLE
  5
2DE
100
AcDbEntity
  8
0
100
AcDbCircle
 62
7
  6
CONTINUOUS
 10
11.5521033327
 20
9.8208876242
 40
0.0196850394
  0
SPLINE
  5
2DF
100
AcDbEntity
  8
0
100
AcDbSpline
 62
7
  6
CONTINUOUS
 70
0
 71
3
 72
19
 73
15
 74
0
 42
0.0000001
 43
0.0000001
 44
0.0000000001
 40
0.0
 40
0.0
 40
0.0
 40
0.0
 40
0.0831963038
 40
0.1665679756
 40
0.2499175646
 40
0.3333049625
 40
0.4166985624
 40
0.5000875945
 40
0.5834593296
 40
0.6668044452
 40
0.7501242766
 40
0.8334136801
 40
0.9167176423
 40
1.0
 40
1.0
 40
1.0
 40
1.0
 10
11.0869056158
 20
9.6974862693
 30
0.0
 10
11.0947721085
 20
9.6975167547
 30
0.0
 10
11.110598566
 20
9.6995496541
 30
0.0
 10
11.1326725542
 20
9.7087046022
 30
0.0
 10
11.1516575794
 20
9.723256727
 30
0.0
 10
11.1662230207
 20
9.7422350046
 30
0.0
 10
11.1753793734
 20
9.7643401588
 30
0.0
 10
11.1784982231
 20
9.788061324
 30
0.0
 10
11.1753674281
 20
9.8117761401
 30
0.0
 10
11.1662066307
 20
9.8338652553
 30
0.0
 10
11.1516471663
 20
9.8528264387
 30
0.0
 10
11.1326766424
 20
9.867365597
 30
0.0
 10
11.1106083803
 20
9.8765245397
 30
0.0
 10
11.0947799104
 20
9.8785545443
 30
0.0
 10
11.0869052968
 20
9.8785886315
 30
0.0
  0
SPLINE
  5
2E0
100
AcDbEntity
  8
0
100
AcDbSpline
 62
7
  6
CONTINUOUS
 70
0
 71
3
 72
19
 73
15
 74
0
 42
0.0000001
 43
0.0000001
 44
0.0000000001
 40
0.0
 40
0.0
 40
0.0
 40
0.0
 40
0.0831734351
 40
0.166496799
 40
0.2497899593
 40
0.3331273817
 40
0.4164906126
 40
0.4998736959
 40
0.5832688319
 40
0.6666577832
 40
0.7500315248
 40
0.8333711442
 40
0.916709438
 40
1.0
 40
1.0
 40
1.0
 40
1.0
 10
10.7884792243
 20
9.8785886315
 30
0.0
 10
10.7806148962
 20
9.8785576664
 30
0.0
 10
10.764795228
 20
9.8765270078
 30
0.0
 10
10.7427313959
 20
9.8673799555
 30
0.0
 10
10.7237538169
 20
9.8528431306
 30
0.0
 10
10.7091873083
 20
9.8338825647
 30
0.0
 10
10.7000206756
 20
9.8117908249
 30
0.0
 10
10.6968860721
 20
9.7880730257
 30
0.0
 10
10.7000023845
 20
9.7643502249
 30
0.0
 10
10.7091559114
 20
9.7422452311
 30
0.0
 10
10.7237169568
 20
9.7232669883
 30
0.0
 10
10.7426951127
 20
9.7087153829
 30
0.0
 10
10.7647710127
 20
9.6995514162
 30
0.0
 10
10.780603523
 20
9.6975198418
 30
0.0
 10
10.7884789164
 20
9.6974862693
 30
0.0
  0
SPLINE
  5
2E1
100
AcDbEntity
  8
0
100
AcDbSpline
 62
7
  6
CONTINUOUS
 70
0
 71
3
 72
19
 73
15
 74
0
 42
0.0000001
 43
0.0000001
 44
0.0000000001
 40
0.0
 40
0.0
 40
0.0
 40
0.0
 40
0.0831968849
 40
0.1665685642
 40
0.2499181517
 40
0.3333055522
 40
0.4166991141
 40
0.5000881433
 40
0.583459877
 40
0.666805057
 40
0.7501249546
 40
0.8334144128
 40
0.9167184422
 40
1.0
 40
1.0
 40
1.0
 40
1.0
 10
10.7884790808
 20
8.8378525434
 30
0.0
 10
10.7806125348
 20
8.8378220753
 30
0.0
 10
10.7647860196
 20
8.8357891844
 30
0.0
 10
10.7427119787
 20
8.8266342256
 30
0.0
 10
10.7237269545
 20
8.8120821034
 30
0.0
 10
10.7091615096
 20
8.7931038376
 30
0.0
 10
10.700005153
 20
8.7709986929
 30
0.0
 10
10.6968862894
 20
8.7472775372
 30
0.0
 10
10.7000170726
 20
8.7235627169
 30
0.0
 10
10.7091778625
 20
8.7014735886
 30
0.0
 10
10.7237373292
 20
8.6825123884
 30
0.0
 10
10.7427078627
 20
8.6679732174
 30
0.0
 10
10.7647760632
 20
8.6588143045
 30
0.0
 10
10.7806044554
 20
8.6567842859
 30
0.0
 10
10.788478993
 20
8.6567501812
 30
0.0
  0
SPLINE
  5
2E2
100
AcDbEntity
  8
0
100
AcDbSpline
 62
7
  6
CONTINUOUS
 70
0
 71
3
 72
19
 73
15
 74
0
 42
0.0000001
 43
0.0000001
 44
0.0000000001
 40
0.0
 40
0.0
 40
0.0
 40
0.0
 40
0.0831241654
 40
0.1664871741
 40
0.2498020462
 40
0.3331351466
 40
0.4164707052
 40
0.4998099214
 40
0.5831555712
 40
0.6665026654
 40
0.7498521096
 40
0.8331920743
 40
0.9165532173
 40
1.0
 40
1.0
 40
1.0
 40
1.0
 10
11.0656720799
 20
8.9554976632
 30
0.0
 10
11.0735320055
 20
8.9555311049
 30
0.0
 10
11.0893505516
 20
8.9575649225
 30
0.0
 10
11.111414172
 20
8.9667176739
 30
0.0
 10
11.1303919523
 20
8.9812642773
 30
0.0
 10
11.1449514347
 20
9.0002296333
 30
0.0
 10
11.1541086005
 20
9.0223178119
 30
0.0
 10
11.1572369268
 20
9.0460250016
 30
0.0
 10
11.1541208611
 20
9.0697349895
 30
0.0
 10
11.144973214
 20
9.0918307112
 30
0.0
 10
11.1304191608
 20
9.1108068593
 30
0.0
 10
11.111443727
 20
9.1253626483
 30
0.0
 10
11.0893529062
 20
9.1345374103
 30
0.0
 10
11.0735021682
 20
9.1365687619
 30
0.0
 10
11.0656119452
 20
9.1366000498
 30
0.0
  0
SPLINE
  5
2E3
100
AcDbEntity
  8
0
100
AcDbSpline
 62
7
  6
CONTINUOUS
 70
0
 71
3
 72
19
 73
15
 74
0
 42
0.0000001
 43
0.0000001
 44
0.0000000001
 40
0.0
 40
0.0
 40
0.0
 40
0.0
 40
0.0832912113
 40
0.1666294988
 40
0.2499690851
 40
0.3333428115
 40
0.4167317487
 40
0.5001269181
 40
0.5835100334
 40
0.6668733456
 40
0.7502108194
 40
0.8335040036
 40
0.9168274086
 40
1.0
 40
1.0
 40
1.0
 40
1.0
 10
11.0869054273
 20
8.8378525434
 30
0.0
 10
11.0947808795
 20
8.8378189835
 30
0.0
 10
11.1106134508
 20
8.835787418
 30
0.0
 10
11.1326893989
 20
8.8266234305
 30
0.0
 10
11.1516675448
 20
8.8120718318
 30
0.0
 10
11.1662285877
 20
8.7930936031
 30
0.0
 10
11.1753821198
 20
8.7709886179
 30
0.0
 10
11.178498441
 20
8.7472658196
 30
0.0
 10
11.1753638448
 20
8.7235480112
 30
0.0
 10
11.1661972098
 20
8.7014562622
 30
0.0
 10
11.151630703
 20
8.6824956836
 30
0.0
 10
11.1326531171
 20
8.6679588589
 30
0.0
 10
11.1105893603
 20
8.6588118369
 30
0.0
 10
11.0947697783
 20
8.6567811663
 30
0.0
 10
11.0869055312
 20
8.6567501812
 30
0.0
  0
LINE
  5
2E4
100
AcDbEntity
  8
0
100
AcDbLine
 62
9
  6
CONTINUOUS
 10
10.7621737594
 20
10.1209371806
 11
10.7614264672
 21
10.1319286418
  0
LINE
  5
2E5
100
AcDbEntity
  8
0
100
AcDbLine
 62
9
  6
CONTINUOUS
 10
10.3582650994
 20
9.7969876342
 11
10.3687428263
 21
9.7896450586
  0
LINE
  5
2E6
100
AcDbEntity
  8
0
100
AcDbLine
 62
9
  6
CONTINUOUS
 10
10.2864989305
 20
9.8463074241
 11
10.2773536979
 21
9.852450326
  0
LINE
  5
2E7
100
AcDbEntity
  8
0
100
AcDbLine
 62
9
  6
CONTINUOUS
 10
11.6858089134
 20
9.5048091485
 11
11.674211193
 21
9.4994064586
  0
LINE
  5
2E8
100
AcDbEntity
  8
0
100
AcDbLine
 62
9
  6
CONTINUOUS
 10
11.7644041889
 20
9.5423005789
 11
11.7742967142
 21
9.5471491317
  0
LINE
  5
2E9
100
AcDbEntity
  8
0
100
AcDbLine
 62
9
  6
CONTINUOUS
 10
10.1895744678
 20
9.5048094941
 11
10.201172184
 21
9.4994068044
  0
LINE
  5
2EA
100
AcDbEntity
  8
0
100
AcDbLine
 62
9
  6
CONTINUOUS
 10
10.1109815653
 20
9.5422997894
 11
10.1010890343
 21
9.5471483461
  0
SPLINE
  5
2EB
100
AcDbEntity
  8
0
100
AcDbSpline
 62
7
  6
CONTINUOUS
 70
0
 71
3
 72
24
 73
20
 74
0
 42
0.0000001
 43
0.0000001
 44
0.0000000001
 40
0.0
 40
0.0
 40
0.0
 40
0.0
 40
0.0624752608
 40
0.125055474
 40
0.1875496732
 40
0.2500276327
 40
0.3125013938
 40
0.3749649684
 40
0.4374198129
 40
0.4998768103
 40
0.5623391797
 40
0.6248096685
 40
0.6872984137
 40
0.7185860924
 40
0.749879875
 40
0.8123910641
 40
0.8749159864
 40
0.9375176255
 40
1.0
 40
1.0
 40
1.0
 40
1.0
 10
11.4257808362
 20
9.3807707814
 30
0.0
 10
11.4269622722
 20
9.3782938636
 30
0.0
 10
11.4298250417
 20
9.3735572187
 30
0.0
 10
11.4354048101
 20
9.3674281654
 30
0.0
 10
11.4420788813
 20
9.3625065432
 30
0.0
 10
11.4495801043
 20
9.3589860285
 30
0.0
 10
11.4576218097
 20
9.3569914906
 30
0.0
 10
11.4658976749
 20
9.3566092038
 30
0.0
 10
11.4740876576
 20
9.3578501489
 30
0.0
 10
11.4818789703
 20
9.360663462
 30
0.0
 10
11.4889694118
 20
9.3649485408
 30
0.0
 10
11.4950890621
 20
9.3705324398
 30
0.0
 10
11.4991865766
 20
9.3760981337
 30
0.0
 10
11.5017616953
 20
9.3809596634
 30
0.0
 10
11.5038486728
 20
9.386050856
 30
0.0
 10
11.505509618
 20
9.3927628229
 30
0.0
 10
11.505890463
 20
9.4010491836
 30
0.0
 10
11.5046447748
 20
9.4092464435
 30
0.0
 10
11.5027688565
 20
9.4144546834
 30
0.0
 10
11.5015890826
 20
9.4169327393
 30
0.0
  0
SPLINE
  5
2EC
100
AcDbEntity
  8
0
100
AcDbSpline
 62
7
  6
CONTINUOUS
 70
0
 71
3
 72
24
 73
20
 74
0
 42
0.0000001
 43
0.0000001
 44
0.0000000001
 40
0.0
 40
0.0
 40
0.0
 40
0.0
 40
0.06247526
 40
0.1250554732
 40
0.1875496719
 40
0.2500276309
 40
0.3125013926
 40
0.3749649675
 40
0.437419812
 40
0.4998768098
 40
0.5623391795
 40
0.6248096685
 40
0.687298414
 40
0.7185860927
 40
0.7498798754
 40
0.8123910645
 40
0.8749159867
 40
0.9375176257
 40
1.0
 40
1.0
 40
1.0
 40
1.0
 10
10.5956995153
 20
9.6338158968
 30
0.0
 10
10.5972538694
 20
9.6360775103
 30
0.0
 10
10.5999245369
 20
9.6409250653
 30
0.0
 10
10.6024425668
 20
9.6488218134
 30
0.0
 10
10.6033677821
 20
9.6570625395
 30
0.0
 10
10.6026660261
 20
9.6653190467
 30
0.0
 10
10.6003724937
 20
9.6732806369
 30
0.0
 10
10.5965656313
 20
9.68063889
 30
0.0
 10
10.5913959499
 20
9.6871111507
 30
0.0
 10
10.585063893
 20
9.6924519689
 30
0.0
 10
10.5778076851
 20
9.6964499322
 30
0.0
 10
10.5699120615
 20
9.6989577554
 30
0.0
 10
10.5630432719
 20
9.6997234602
 30
0.0
 10
10.5575455042
 20
9.6995228136
 30
0.0
 10
10.5520929133
 20
9.6987845929
 30
0.0
 10
10.5454497068
 20
9.6968670303
 30
0.0
 10
10.5380830854
 20
9.6930536713
 30
0.0
 10
10.531606894
 20
9.6878762438
 30
0.0
 10
10.5280343851
 20
9.6836475309
 30
0.0
 10
10.5264782127
 20
9.6813867887
 30
0.0
  0
SPLINE
  5
2ED
100
AcDbEntity
  8
0
100
AcDbSpline
 62
7
  6
CONTINUOUS
 70
0
 71
3
 72
24
 73
20
 74
0
 42
0.0000001
 43
0.0000001
 44
0.0000000001
 40
0.0
 40
0.0
 40
0.0
 40
0.0
 40
0.0624752607
 40
0.1250554738
 40
0.1875496729
 40
0.2500276324
 40
0.3125013937
 40
0.3749649684
 40
0.437419813
 40
0.4998768104
 40
0.5623391798
 40
0.6248096685
 40
0.6872984137
 40
0.7185860924
 40
0.749879875
 40
0.8123910641
 40
0.8749159864
 40
0.9375176255
 40
1.0
 40
1.0
 40
1.0
 40
1.0
 10
11.0837880085
 20
9.7469171764
 30
0.0
 10
11.0865238001
 20
9.7467018715
 30
0.0
 10
11.0920572396
 20
9.7468127805
 30
0.0
 10
11.1001550393
 20
9.7485804753
 30
0.0
 10
11.1077543247
 20
9.7518995791
 30
0.0
 10
11.1145537913
 20
9.7566355712
 30
0.0
 10
11.1203019643
 20
9.7626026234
 30
0.0
 10
11.1247709671
 20
9.7695785893
 30
0.0
 10
11.1277912684
 20
9.7772917948
 30
0.0
 10
11.1292505241
 20
9.7854459259
 30
0.0
 10
11.1290847577
 20
9.7937289676
 30
0.0
 10
11.1273087846
 20
9.8018206895
 30
0.0
 10
11.1245375096
 20
9.808152088
 30
0.0
 10
11.1216148607
 20
9.8128129709
 30
0.0
 10
11.1182492474
 20
9.8171659427
 30
0.0
 10
11.1132669863
 20
9.8219603467
 30
0.0
 10
11.10628121
 20
9.8264333483
 30
0.0
 10
11.0985593307
 20
9.8294531806
 30
0.0
 10
11.0931109036
 20
9.8304327075
 30
0.0
 10
11.0903749573
 20
9.8306500213
 30
0.0
  0
SPLINE
  5
2EE
100
AcDbEntity
  8
0
100
AcDbSpline
 62
7
  6
CONTINUOUS
 70
0
 71
3
 72
24
 73
20
 74
0
 42
0.0000001
 43
0.0000001
 44
0.0000000001
 40
0.0
 40
0.0
 40
0.0
 40
0.0
 40
0.0624752608
 40
0.125055474
 40
0.1875496732
 40
0.2500276327
 40
0.3125013938
 40
0.3749649684
 40
0.4374198129
 40
0.4998768103
 40
0.5623391797
 40
0.6248096685
 40
0.6872984137
 40
0.7185860924
 40
0.749879875
 40
0.8123910641
 40
0.8749159864
 40
0.9375176255
 40
1.0
 40
1.0
 40
1.0
 40
1.0
 10
11.2796851705
 20
8.9015231071
 30
0.0
 10
11.2781308148
 20
8.8992614946
 30
0.0
 10
11.2754601447
 20
8.8944139411
 30
0.0
 10
11.2729421131
 20
8.8865171933
 30
0.0
 10
11.2720168988
 20
8.878276467
 30
0.0
 10
11.2727186551
 20
8.8700199599
 30
0.0
 10
11.2750121874
 20
8.8620583698
 30
0.0
 10
11.2788190498
 20
8.8547001168
 30
0.0
 10
11.2839887312
 20
8.8482278563
 30
0.0
 10
11.2903207882
 20
8.8428870382
 30
0.0
 10
11.2975769961
 20
8.8388890751
 30
0.0
 10
11.3054726195
 20
8.836381252
 30
0.0
 10
11.3123414091
 20
8.8356155473
 30
0.0
 10
11.3178391767
 20
8.835816194
 30
0.0
 10
11.3232917676
 20
8.8365544147
 30
0.0
 10
11.329934974
 20
8.8384719774
 30
0.0
 10
11.3373015953
 20
8.8422853363
 30
0.0
 10
11.3437777866
 20
8.8474627639
 30
0.0
 10
11.3473502955
 20
8.8516914768
 30
0.0
 10
11.3489064679
 20
8.8539522189
 30
0.0
  0
LINE
  5
2EF
100
AcDbEntity
  8
0
100
AcDbLine
 62
9
  6
CONTINUOUS
 10
11.5171205375
 20
9.7969885909
 11
11.5066428129
 21
9.7896460189
  0
LINE
  5
2F0
100
AcDbEntity
  8
0
100
AcDbLine
 62
9
  6
CONTINUOUS
 10
11.5888845369
 20
9.8463068934
 11
11.5980297756
 21
9.8524497982
  0
SPLINE
  5
2F1
100
AcDbEntity
  8
0
100
AcDbSpline
 62
7
  6
CONTINUOUS
 70
0
 71
3
 72
24
 73
20
 74
0
 42
0.0000001
 43
0.0000001
 44
0.0000000001
 40
0.0
 40
0.0
 40
0.0
 40
0.0
 40
0.0624752596
 40
0.1250554726
 40
0.1875496712
 40
0.2500276303
 40
0.3125013923
 40
0.3749649674
 40
0.4374198124
 40
0.4998768104
 40
0.5623391803
 40
0.6248096695
 40
0.6872984149
 40
0.7185860936
 40
0.7498798762
 40
0.8123910652
 40
0.8749159872
 40
0.937517626
 40
1.0
 40
1.0
 40
1.0
 40
1.0
 10
10.7915966773
 20
8.788421829
 30
0.0
 10
10.7888608856
 20
8.788637132
 30
0.0
 10
10.7833274463
 20
8.7885262199
 30
0.0
 10
10.7752296471
 20
8.7867585236
 30
0.0
 10
10.7676303613
 20
8.7834394206
 30
0.0
 10
10.7608308944
 20
8.7787034286
 30
0.0
 10
10.7550827214
 20
8.7727363763
 30
0.0
 10
10.7506137184
 20
8.7657604103
 30
0.0
 10
10.747593417
 20
8.7580472047
 30
0.0
 10
10.7461341612
 20
8.7498930734
 30
0.0
 10
10.7462999274
 20
8.7416100315
 30
0.0
 10
10.7480759004
 20
8.7335183095
 30
0.0
 10
10.7508471754
 20
8.7271869108
 30
0.0
 10
10.7537698242
 20
8.7225260278
 30
0.0
 10
10.7571354375
 20
8.7181730559
 30
0.0
 10
10.7621176986
 20
8.7133786518
 30
0.0
 10
10.7691034749
 20
8.70890565
 30
0.0
 10
10.7768253543
 20
8.7058858177
 30
0.0
 10
10.7822737814
 20
8.7049062907
 30
0.0
 10
10.7850097277
 20
8.704688977
 30
0.0
  0
LINE
  5
2F2
100
AcDbEntity
  8
0
100
AcDbLine
 62
9
  6
CONTINUOUS
 10
10.2865001486
 20
8.6890321109
 11
10.2773549099
 21
8.6828892061
  0
LINE
  5
2F3
100
AcDbEntity
  8
0
100
AcDbLine
 62
9
  6
CONTINUOUS
 10
10.358264148
 20
8.7383504134
 11
10.3687418726
 21
8.7456929854
  0
LINE
  5
2F4
100
AcDbEntity
  8
0
100
AcDbLine
 62
9
  6
CONTINUOUS
 10
10.1109804966
 20
8.9930384254
 11
10.1010879712
 21
8.9881898725
  0
LINE
  5
2F5
100
AcDbEntity
  8
0
100
AcDbLine
 62
9
  6
CONTINUOUS
 10
10.189575772
 20
9.0305298558
 11
10.2011734925
 21
9.0359325456
  0
SPLINE
  5
2F6
100
AcDbEntity
  8
0
100
AcDbSpline
 62
7
  6
CONTINUOUS
 70
0
 71
3
 72
24
 73
20
 74
0
 42
0.0000001
 43
0.0000001
 44
0.0000000001
 40
0.0
 40
0.0
 40
0.0
 40
0.0
 40
0.06247526
 40
0.1250554732
 40
0.1875496719
 40
0.2500276309
 40
0.3125013926
 40
0.3749649675
 40
0.4374198121
 40
0.4998768098
 40
0.5623391795
 40
0.6248096685
 40
0.687298414
 40
0.7185860927
 40
0.7498798753
 40
0.8123910645
 40
0.8749159867
 40
0.9375176257
 40
1.0
 40
1.0
 40
1.0
 40
1.0
 10
10.4496038498
 20
9.154568223
 30
0.0
 10
10.448422412
 20
9.1570451399
 30
0.0
 10
10.44555964
 20
9.1617817832
 30
0.0
 10
10.4399798706
 20
9.1679108352
 30
0.0
 10
10.4333058
 20
9.1728324582
 30
0.0
 10
10.425804577
 20
9.1763529733
 30
0.0
 10
10.4177628715
 20
9.178347511
 30
0.0
 10
10.4094870061
 20
9.1787297981
 30
0.0
 10
10.4012970233
 20
9.177488853
 30
0.0
 10
10.3935057105
 20
9.17467554
 30
0.0
 10
10.3864152689
 20
9.1703904612
 30
0.0
 10
10.3802956184
 20
9.1648065622
 30
0.0
 10
10.3761981038
 20
9.1592408683
 30
0.0
 10
10.3736229851
 20
9.1543793386
 30
0.0
 10
10.3715360075
 20
9.1492881459
 30
0.0
 10
10.3698750622
 20
9.1425761791
 30
0.0
 10
10.3694942172
 20
9.1342898183
 30
0.0
 10
10.3707399053
 20
9.1260925583
 30
0.0
 10
10.3726158237
 20
9.1208843184
 30
0.0
 10
10.3737955976
 20
9.1184062624
 30
0.0
  0
LINE
  5
2F7
100
AcDbEntity
  8
0
100
AcDbLine
 62
9
  6
CONTINUOUS
 10
11.7644031202
 20
8.9930392149
 11
11.7742956511
 21
8.9881906582
  0
LINE
  5
2F8
100
AcDbEntity
  8
0
100
AcDbLine
 62
9
  6
CONTINUOUS
 10
11.6858102177
 20
9.0305295102
 11
11.6742125015
 21
9.0359321999
  0
LINE
  5
2F9
100
AcDbEntity
  8
0
100
AcDbLine
 62
9
  6
CONTINUOUS
 10
11.1063816701
 20
10.0341272805
 11
11.1052616765
 21
10.0213820151
  0
LINE
  5
2FA
100
AcDbEntity
  8
0
100
AcDbLine
 62
9
  6
CONTINUOUS
 10
11.1132107767
 20
10.1209385009
 11
11.1139580694
 21
10.1319299556
  0
LINE
  5
2FB
100
AcDbEntity
  8
0
100
AcDbLine
 62
9
  6
CONTINUOUS
 10
10.7690030153
 20
8.5012117238
 11
10.7701230089
 21
8.5139569892
  0
LINE
  5
2FC
100
AcDbEntity
  8
0
100
AcDbLine
 62
9
  6
CONTINUOUS
 10
10.7621739088
 20
8.4144005034
 11
10.7614266161
 21
8.4034090487
  0
LINE
  5
2FD
100
AcDbEntity
  8
0
100
AcDbLine
 62
9
  6
CONTINUOUS
 10
11.5888857549
 20
8.6890315802
 11
11.5980309876
 21
8.6828886783
  0
LINE
  5
2FE
100
AcDbEntity
  8
0
100
AcDbLine
 62
9
  6
CONTINUOUS
 10
11.517119586
 20
8.7383513701
 11
11.5066418592
 21
8.7456939457
  0
LINE
  5
2FF
100
AcDbEntity
  8
0
100
AcDbLine
 62
9
  6
CONTINUOUS
 10
11.1063820229
 20
8.5012104214
 11
11.1052620314
 21
8.5139556829
  0
LINE
  5
300
100
AcDbEntity
  8
0
100
AcDbLine
 62
9
  6
CONTINUOUS
 10
11.113210926
 20
8.4144018236
 11
11.1139582183
 21
8.4034103625
  0
LINE
  5
301
100
AcDbEntity
  8
0
100
AcDbLine
 62
9
  6
CONTINUOUS
 10
10.7690026626
 20
10.0341285829
 11
10.7701226541
 21
10.0213833214
  0
ENDSEC
  0
SECTION
  2
OBJECTS
  0
DICTIONARY
  5
C
100
AcDbDictionary
280
0
281
1
  3
ACAD_GROUP
350
D
  3
ACAD_MLINESTYLE
350
17
  3
ACAD_LAYOUT
350
1A
  3
ACAD_PLOTSETTINGS
350
19
  3
ACAD_PLOTSTYLENAME
350
E
  0
DICTIONARY
  5
D
102
{ACAD_REACTORS
330
C
102
}
100
AcDbDictionary
280
0
281
1
  0
ACDBDICTIONARYWDFLT
  5
E
102
{ACAD_REACTORS
330
C
102
}
100
AcDbDictionary
281
1
  3
Normal
350
F
100
AcDbDictionaryWithDefault
340
F
  0
DICTIONARY
  5
17
102
{ACAD_REACTORS
330
C
102
}
100
AcDbDictionary
280
0
281
1
  3
Standard
350
18
  0
DICTIONARY
  5
19
102
{ACAD_REACTORS
330
C
102
}
100
AcDbDictionary
281
1
  0
DICTIONARY
  5
1A
102
{ACAD_REACTORS
330
C
102
}
100
AcDbDictionary
281
1
  3
Model
350
302
  3
Layout1
350
303
  0
ACDBPLACEHOLDER
  5
F
102
{ACAD_REACTORS
330
E
102
}
  0
MLINESTYLE
  5
18
102
{ACAD_REACTORS
330
17
102
}
100
AcDbMlineStyle
  2
STANDARD
 70
0
  3

 62
256
 51
90.0
 52
90.0
 71
2
 49
0.5
 62
256
  6
BYLAYER
 49
-0.5
 62
256
  6
BYLAYER
  0
LAYOUT
  5
302
102
{ACAD_REACTORS
330
1A
102
}
100
AcDbPlotSettings
  1

  2
none_device
  4
ANSI_C_(22.00_x_17.00_Inches)
  6

 40
0.0
 41
0.0
 42
0.0
 43
0.0
 44
558.8
 45
431.8
 46
0.0
 47
0.0
 48
0.0
 49
0.0
140
0.0
141
0.0
142
1.0
143
1.0
 70
1024
 72
0
 73
0
 74
0
  7

 75
0
147
1.0
148
0.0
149
0.0
100
AcDbLayout
  1
Model
 70
0
 71
0
 10
0.0
 20
0.0
 11
22.0
 21
17.0
 12
0.0
 22
0.0
 32
0.0
 14
0.0
 24
0.0
 34
0.0
 15
0.0
 25
0.0
 35
0.0
146
0.0
 13
0.0
 23
0.0
 33
0.0
 16
1.0
 26
0.0
 36
0.0
 17
0.0
 27
1.0
 37
0.0
 76
0
330
202
345
0
346
0
  0
LAYOUT
  5
303
102
{ACAD_REACTORS
330
1A
102
}
100
AcDbPlotSettings
  1

  2
none_device
  4
ANSI_C_(22.00_x_17.00_Inches)
  6

 40
0.0
 41
0.0
 42
0.0
 43
0.0
 44
558.8
 45
431.8
 46
0.0
 47
0.0
 48
0.0
 49
0.0
140
0.0
141
0.0
142
1.0
143
1.0
 70
0
 72
0
 73
0
 74
0
  7

 75
0
147
1.0
148
0.0
149
0.0
100
AcDbLayout
  1
Layout1
 70
0
 71
1
 10
0.0
 20
0.0
 11
22.0
 21
17.0
 12
0.0
 22
0.0
 32
0.0
 14
0.0
 24
0.0
 34
0.0
 15
0.0
 25
0.0
 35
0.0
146
0.0
 13
0.0
 23
0.0
 33
0.0
 16
1.0
 26
0.0
 36
0.0
 17
0.0
 27
1.0
 37
0.0
 76
0
330
203
345
0
346
0
  0
ENDSEC
  0
EOF
