999
DXF file: E:\BT Custom\CADOUTPUT\_RIGHT.dxf
999
Pro/ENGINEER 2018400 by Parametric Technology Corporation
  0
SECTION
  2
HEADER
  9
$ACADVER
  1
AC1018
  9
$DWGCODEPAGE
  3
ANSI_1252
  9
$EXTMAX
 10
22.0
 20
17.0
 30
0.0
  9
$EXTMIN
 10
0.0
 20
0.0
 30
0.0
  9
$LIMMIN
 10
0.0
 20
0.0
  9
$LIMMAX
 10
22.0
 20
17.0
  9
$VIEWCTR
 10
11.0
 20
8.5
  9
$VIEWSIZE
 40
17.0
  9
$CLAYER
  8
0
  9
$LTSCALE
 40
1.21
  9
$CELTYPE
  6
BYLAYER
  9
$DIMSCALE
 40
1.0
  9
$DIMASZ
 40
0.1
  9
$DIMEXO
 40
0.0625
  9
$DIMDLI
 40
0.836
  9
$DIMEXE
 40
0.125
  9
$DIMCEN
 40
0.198
  9
$DIMLFAC
 40
1.0
  9
$DIMBLK
  1
_FILLED
  9
$DIMALT
 70
1
  9
$DIMALTD
 70
2
  9
$DIMALTTD
 70
2
  9
$DIMALTF
 40
25.4
  9
$DIMTXT
 40
0.08
  9
$DIMTOL
 70
1
  9
$DIMLIM
 70
0
  9
$DIMTFAC
 40
1.0
  9
$DIMTP
 40
0.001
  9
$DIMTM
 40
0.001
  9
$DIMGAP
 40
0.09
  9
$DIMDSEP
 70
46
  9
$AUNITS
 70
0
  9
$PDMODE
 70
3
  9
$PDSIZE
 40
0.06
  9
$HANDSEED
  5
321
  9
$TILEMODE
 70
1
  9
$MEASUREMENT
 70
0
  9
$INSUNITS
 70
1
  0
ENDSEC
  0
SECTION
  2
CLASSES
  0
CLASS
  1
ACDBDICTIONARYWDFLT
  2
AcDbDictionaryWithDefault
  3
AutoCAD 2000
 90
0
 91
1
280
0
281
0
  0
CLASS
  1
ACDBPLACEHOLDER
  2
AcDbPlaceHolder
  3
AutoCAD 2000
 90
0
 91
1
280
0
281
0
  0
CLASS
  1
LAYOUT
  2
AcDbLayout
  3
AutoCAD 2000
 90
0
 91
0
280
0
281
0
  0
ENDSEC
  0
SECTION
  2
TABLES
  0
TABLE
  2
VPORT
  5
8
100
AcDbSymbolTable
 70
2
  0
VPORT
  5
1F4
100
AcDbSymbolTableRecord
100
AcDbViewportTableRecord
  2
*ACTIVE
 70
0
 10
0.0
 20
0.0
 11
1.0
 21
1.0
 12
11.0
 22
8.5
 13
0.0
 23
0.0
 14
1.0
 24
1.0
 15
0.0
 25
0.0
 16
0.0
 26
0.0
 36
1.0
 17
0.0
 27
0.0
 37
0.0
 40
17.0
 41
1.2941176471
 42
50.0
 43
0.0
 44
0.0
 50
0.0
 51
0.0
 71
0
 72
100
 73
1
 74
1
 75
0
 76
0
 77
0
 78
0
  0
ENDTAB
  0
TABLE
  2
LTYPE
  5
5
100
AcDbSymbolTable
 70
6
  0
LTYPE
  5
14
100
AcDbSymbolTableRecord
100
AcDbLinetypeTableRecord
  2
BYBLOCK
 70
0
  3

 72
65
 73
0
 40
0.0
  0
LTYPE
  5
15
100
AcDbSymbolTableRecord
100
AcDbLinetypeTableRecord
  2
BYLAYER
 70
0
  3

 72
65
 73
0
 40
0.0
  0
LTYPE
  5
16
100
AcDbSymbolTableRecord
100
AcDbLinetypeTableRecord
  2
CONTINUOUS
 70
64
  3
Solid line
 72
65
 73
0
 40
0.0
  0
LTYPE
  5
1F5
100
AcDbSymbolTableRecord
100
AcDbLinetypeTableRecord
  2
CENTER
 70
64
  3
____ _ ____ _ ____ _ ____ _ ____ _ ____ _ ____
 72
65
 73
4
 40
0.6
 49
0.375
 74
0
 49
-0.075
 74
0
 49
0.075
 74
0
 49
-0.075
 74
0
  0
LTYPE
  5
1F6
100
AcDbSymbolTableRecord
100
AcDbLinetypeTableRecord
  2
HIDDEN
 70
64
  3
- - - - - - - - - - - - - - - - - - - -
 72
65
 73
2
 40
0.2
 49
0.1
 74
0
 49
-0.1
 74
0
  0
LTYPE
  5
1F7
100
AcDbSymbolTableRecord
100
AcDbLinetypeTableRecord
  2
PHANTOM
 70
64
  3
_____ _ _ _____ _ _ _____ _ _ _____
 72
65
 73
6
 40
0.8
 49
0.45
 74
0
 49
-0.05
 74
0
 49
0.1
 74
0
 49
-0.05
 74
0
 49
0.1
 74
0
 49
-0.05
 74
0
  0
LTYPE
  5
1F8
100
AcDbSymbolTableRecord
100
AcDbLinetypeTableRecord
  2
DOT
 70
64
  3
. . . . . . . . . . . . . . . . . . . .
 72
65
 73
2
 40
0.2
 49
0.1
 74
0
 49
-0.1
 74
0
  0
LTYPE
  5
1F9
100
AcDbSymbolTableRecord
100
AcDbLinetypeTableRecord
  2
DASHED
 70
64
  3
- - - - - - - - - - - - - - - - - - - -
 72
65
 73
2
 40
0.2
 49
0.1
 74
0
 49
-0.1
 74
0
  0
ENDTAB
  0
TABLE
  2
LAYER
  5
2
100
AcDbSymbolTable
 70
36
  0
LAYER
  5
10
100
AcDbSymbolTableRecord
100
AcDbLayerTableRecord
  2
0
 70
0
 62
7
  6
CONTINUOUS
370
-3
390
F
  0
LAYER
  5
1FA
100
AcDbSymbolTableRecord
100
AcDbLayerTableRecord
  2
DEFAULT_1
 70
0
 62
7
  6
CENTER
370
-3
390
F
  0
LAYER
  5
1FB
100
AcDbSymbolTableRecord
100
AcDbLayerTableRecord
  2
DEFAULT_2
 70
0
 62
8
  6
HIDDEN
370
-3
390
F
  0
LAYER
  5
1FC
100
AcDbSymbolTableRecord
100
AcDbLayerTableRecord
  2
DEFAULT_3
 70
0
 62
7
  6
PHANTOM
370
-3
390
F
  0
LAYER
  5
1FD
100
AcDbSymbolTableRecord
100
AcDbLayerTableRecord
  2
ALL_FEATURES
 70
0
 62
7
  6
CONTINUOUS
370
-3
390
F
  0
LAYER
  5
1FE
100
AcDbSymbolTableRecord
100
AcDbLayerTableRecord
  2
AXES_FEATURES
 70
0
 62
7
  6
CONTINUOUS
370
-3
390
F
  0
LAYER
  5
1FF
100
AcDbSymbolTableRecord
100
AcDbLayerTableRecord
  2
DIMENSIONS
 70
0
 62
7
  6
CONTINUOUS
370
-3
390
F
  0
ENDTAB
  0
TABLE
  2
STYLE
  5
3
100
AcDbSymbolTable
 70
1
  0
STYLE
  5
11
100
AcDbSymbolTableRecord
100
AcDbTextStyleTableRecord
  2
STANDARD
 70
0
 40
0.0
 41
0.8
 50
0.0
 71
0
 42
0.2
  3
txt
  4

  0
STYLE
  5
200
100
AcDbSymbolTableRecord
100
AcDbTextStyleTableRecord
  2
TEXTSTYLE_1
 70
0
 40
0.0
 41
0.8
 50
0.0
 71
0
 42
0.2
  3
gdt
  4

  0
ENDTAB
  0
TABLE
  2
VIEW
  5
6
100
AcDbSymbolTable
 70
0
  0
ENDTAB
  0
TABLE
  2
UCS
  5
7
100
AcDbSymbolTable
 70
0
  0
ENDTAB
  0
TABLE
  2
APPID
  5
9
100
AcDbSymbolTable
 70
1
  0
APPID
  5
201
100
AcDbSymbolTableRecord
100
AcDbRegAppTableRecord
  2
ACAD
 70
0
  0
ENDTAB
  0
TABLE
  2
BLOCK_RECORD
  5
1
100
AcDbSymbolTable
 70
0
  0
BLOCK_RECORD
  5
202
100
AcDbSymbolTableRecord
100
AcDbBlockTableRecord
  2
*Model_Space
  0
BLOCK_RECORD
  5
203
100
AcDbSymbolTableRecord
100
AcDbBlockTableRecord
  2
*Paper_Space
  0
BLOCK_RECORD
  5
204
100
AcDbSymbolTableRecord
100
AcDbBlockTableRecord
  2
_FILLED
  0
ENDTAB
  0
TABLE
  2
DIMSTYLE
  5
A
100
AcDbSymbolTable
 70
1
100
AcDbDimStyleTable
 71
0
  0
DIMSTYLE
105
205
100
AcDbSymbolTableRecord
100
AcDbDimStyleTableRecord
  2
STANDARD
 70
0
  3

  4

 40
1.0
 41
0.1
 42
0.0625
 43
0.38
 44
0.125
 45
0.0
 46
0.0
 47
0.001
 48
0.001
140
0.08
141
0.09
142
0.0
143
25.4
144
1.0
145
0.0
146
1.0
147
0.09
 71
1.0
 72
0.0
 73
1
 74
1
 75
0
 76
0
 77
0
 78
4
 79
1
170
1
171
2
172
0
173
0
174
0
175
0
176
0
177
0
178
0
270
2
179
3
271
3
272
3
273
2
274
2
275
0
280
0
281
0
282
0
283
1
284
4
285
0
286
0
287
3
288
0
340
11
278
46
341
204
342
204
343
204
344
204
  0
ENDTAB
  0
ENDSEC
  0
SECTION
  2
BLOCKS
  0
BLOCK
  5
20
100
AcDbEntity
  8
0
100
AcDbBlockBegin
  2
*Model_Space
 70
0
 10
0.0
 20
0.0
 30
0.0
  3
*Model_Space
  1

  0
ENDBLK
  5
21
100
AcDbEntity
  8
0
100
AcDbBlockEnd
  0
BLOCK
  5
1C
100
AcDbEntity
  8
0
100
AcDbBlockBegin
  2
*Paper_Space
 70
0
 10
0.0
 20
0.0
 30
0.0
  3
*Paper_Space
  1

  0
ENDBLK
  5
1D
100
AcDbEntity
  8
0
100
AcDbBlockEnd
  0
BLOCK
  5
206
100
AcDbEntity
  8
0
100
AcDbBlockBegin
  2
_FILLED
 70
64
 10
0.0
 20
0.0
  3
_FILLED
  1

  0
SOLID
  5
207
100
AcDbEntity
  8
0
  6
BYBLOCK
 62
0
100
AcDbTrace
 10
0.0
 20
0.0
 11
-1.0
 21
0.2
 12
-1.0
 22
-0.2
 13
-1.0
 23
-0.2
  0
ENDBLK
  5
208
100
AcDbEntity
  8
0
  6
BYBLOCK
 62
0
100
AcDbBlockEnd
  0
ENDSEC
  0
SECTION
  2
ENTITIES
  0
LINE
  5
209
100
AcDbEntity
  8
0
100
AcDbLine
 62
7
  6
CONTINUOUS
 10
9.5230518889
 20
9.9077507879
 11
9.5430518889
 21
9.942391804
  0
LINE
  5
20A
100
AcDbEntity
  8
0
100
AcDbLine
 62
7
  6
CONTINUOUS
 10
9.5230518889
 20
8.1120328202
 11
9.5430518889
 21
8.077391804
  0
LINE
  5
20B
100
AcDbEntity
  8
0
100
AcDbLine
 62
7
  6
CONTINUOUS
 10
9.332913
 20
9.756141804
 11
9.332913
 21
8.263641804
  0
LINE
  5
20C
100
AcDbEntity
  8
0
100
AcDbLine
 62
9
  6
CONTINUOUS
 10
9.371663
 20
9.794891804
 11
9.371663
 21
8.224891804
  0
LINE
  5
20D
100
AcDbEntity
  8
0
100
AcDbLine
 62
7
  6
CONTINUOUS
 10
9.397913
 20
9.8188477195
 11
9.397913
 21
8.2009358886
  0
LINE
  5
20E
100
AcDbEntity
  8
0
100
AcDbLine
 62
7
  6
CONTINUOUS
 10
9.6481907777
 20
9.869891804
 11
9.6581907777
 21
9.879891804
  0
LINE
  5
20F
100
AcDbEntity
  8
0
100
AcDbLine
 62
7
  6
CONTINUOUS
 10
9.6481907777
 20
8.149891804
 11
9.6581907777
 21
8.139891804
  0
LINE
  5
210
100
AcDbEntity
  8
0
100
AcDbLine
 62
7
  6
CONTINUOUS
 10
9.5030518889
 20
9.942391804
 11
9.5030518889
 21
8.077391804
  0
LINE
  5
211
100
AcDbEntity
  8
0
100
AcDbLine
 62
7
  6
CONTINUOUS
 10
9.5230518889
 20
8.1120328202
 11
9.5230518889
 21
9.9077507879
  0
LINE
  5
212
100
AcDbEntity
  8
0
100
AcDbLine
 62
7
  6
CONTINUOUS
 10
9.5430518889
 20
8.077391804
 11
9.5430518889
 21
9.942391804
  0
LINE
  5
213
100
AcDbEntity
  8
0
100
AcDbLine
 62
7
  6
CONTINUOUS
 10
11.85182356
 20
7.841891804
 11
11.9160539783
 21
7.841891804
  0
LINE
  5
214
100
AcDbEntity
  8
0
100
AcDbLine
 62
7
  6
CONTINUOUS
 10
9.6481907777
 20
9.8698908959
 11
9.6481907777
 21
8.1498927122
  0
LINE
  5
215
100
AcDbEntity
  8
0
100
AcDbLine
 62
7
  6
CONTINUOUS
 10
9.6581907777
 20
9.879891804
 11
9.6581907777
 21
8.139891804
  0
LINE
  5
216
100
AcDbEntity
  8
0
100
AcDbLine
 62
7
  6
CONTINUOUS
 10
9.9397320631
 20
8.6140446446
 11
9.9376528055
 21
8.6351557007
  0
LINE
  5
217
100
AcDbEntity
  8
0
100
AcDbLine
 62
7
  6
CONTINUOUS
 10
9.8704546744
 20
9.3174297762
 11
9.8683754168
 21
9.3385408323
  0
LINE
  5
218
100
AcDbEntity
  8
0
100
AcDbLine
 62
7
  6
CONTINUOUS
 10
9.9024031237
 20
9.3738926615
 11
9.9024031237
 21
9.3526794581
  0
LINE
  5
219
100
AcDbEntity
  8
0
100
AcDbLine
 62
7
  6
CONTINUOUS
 10
9.9024031237
 20
8.66710415
 11
9.9024031237
 21
8.6458909466
  0
LINE
  5
21A
100
AcDbEntity
  8
0
100
AcDbLine
 62
7
  6
CONTINUOUS
 10
9.8683754168
 20
8.6812427758
 11
9.8704546744
 21
8.7023538318
  0
LINE
  5
21B
100
AcDbEntity
  8
0
100
AcDbLine
 62
7
  6
CONTINUOUS
 10
9.9376528055
 20
9.3846279074
 11
9.9397320631
 21
9.4057389635
  0
LINE
  5
21C
100
AcDbEntity
  8
0
100
AcDbLine
 62
7
  6
CONTINUOUS
 10
9.8379766479
 20
8.7197596748
 11
9.8421151385
 21
8.7405652725
  0
LINE
  5
21D
100
AcDbEntity
  8
0
100
AcDbLine
 62
7
  6
CONTINUOUS
 10
9.9758642462
 20
9.4129674432
 11
9.9800027369
 21
9.4337730409
  0
LINE
  5
21E
100
AcDbEntity
  8
0
100
AcDbLine
 62
7
  6
CONTINUOUS
 10
9.8114995736
 20
8.7610707048
 11
9.8176574415
 21
8.7813704748
  0
LINE
  5
21F
100
AcDbEntity
  8
0
100
AcDbLine
 62
7
  6
CONTINUOUS
 10
10.0166694485
 20
9.4374251403
 11
10.0228273164
 21
9.4577249103
  0
LINE
  5
220
100
AcDbEntity
  8
0
100
AcDbLine
 62
7
  6
CONTINUOUS
 10
9.7891991827
 20
8.804778018
 11
9.7973171242
 21
8.8243764625
  0
LINE
  5
221
100
AcDbEntity
  8
0
100
AcDbLine
 62
7
  6
CONTINUOUS
 10
10.0596754362
 20
9.4577654576
 11
10.0677933777
 21
9.4773639021
  0
LINE
  5
222
100
AcDbEntity
  8
0
100
AcDbLine
 62
7
  6
CONTINUOUS
 10
9.6581907777
 20
8.139891804
 11
10.4931907777
 21
8.139891804
  0
LINE
  5
223
100
AcDbEntity
  8
0
100
AcDbLine
 62
7
  6
CONTINUOUS
 10
9.371663
 20
8.224891804
 11
9.397913
 21
8.224891804
  0
LINE
  5
224
100
AcDbEntity
  8
0
100
AcDbLine
 62
7
  6
CONTINUOUS
 10
10.0677933777
 20
8.542419706
 11
10.0596754362
 21
8.5620181505
  0
LINE
  5
225
100
AcDbEntity
  8
0
100
AcDbLine
 62
7
  6
CONTINUOUS
 10
9.7973171242
 20
9.1954071456
 11
9.7891991827
 21
9.2150055901
  0
LINE
  5
226
100
AcDbEntity
  8
0
100
AcDbLine
 62
7
  6
CONTINUOUS
 10
10.0228273164
 20
8.5620586978
 11
10.0166694485
 21
8.5823584678
  0
LINE
  5
227
100
AcDbEntity
  8
0
100
AcDbLine
 62
7
  6
CONTINUOUS
 10
9.8176574415
 20
9.2384131333
 11
9.8114995736
 21
9.2587129033
  0
LINE
  5
228
100
AcDbEntity
  8
0
100
AcDbLine
 62
7
  6
CONTINUOUS
 10
9.9800027369
 20
8.5860105672
 11
9.9758642462
 21
8.6068161649
  0
LINE
  5
229
100
AcDbEntity
  8
0
100
AcDbLine
 62
7
  6
CONTINUOUS
 10
9.8421151385
 20
9.2792183356
 11
9.8379766479
 21
9.3000239333
  0
LINE
  5
22A
100
AcDbEntity
  8
0
100
AcDbLine
 62
7
  6
CONTINUOUS
 10
9.7712902401
 20
8.8504606891
 11
9.781290075
 21
8.8691690643
  0
LINE
  5
22B
100
AcDbEntity
  8
0
100
AcDbLine
 62
7
  6
CONTINUOUS
 10
10.104468038
 20
9.4737925068
 11
10.1144678729
 21
9.492500882
  0
LINE
  5
22C
100
AcDbEntity
  8
0
100
AcDbLine
 62
7
  6
CONTINUOUS
 10
9.7579452187
 20
8.897678769
 11
9.7697306431
 21
8.9153169031
  0
LINE
  5
22D
100
AcDbEntity
  8
0
100
AcDbLine
 62
7
  6
CONTINUOUS
 10
10.1506158768
 20
9.4853519387
 11
10.1624013011
 21
9.5029900727
  0
LINE
  5
22E
100
AcDbEntity
  8
0
100
AcDbLine
 62
7
  6
CONTINUOUS
 10
9.7492926385
 20
8.9459775218
 11
9.7627501523
 21
8.9623755498
  0
LINE
  5
22F
100
AcDbEntity
  8
0
100
AcDbLine
 62
7
  6
CONTINUOUS
 10
10.1976745235
 20
9.4923324295
 11
10.2111320373
 21
9.5087304575
  0
LINE
  5
230
100
AcDbEntity
  8
0
100
AcDbLine
 62
7
  6
CONTINUOUS
 10
9.7454158284
 20
8.994891804
 11
9.7604158284
 21
9.009891804
  0
LINE
  5
231
100
AcDbEntity
  8
0
100
AcDbLine
 62
7
  6
CONTINUOUS
 10
10.2451907777
 20
9.4946667534
 11
10.2601907777
 21
9.5096667534
  0
LINE
  5
232
100
AcDbEntity
  8
0
100
AcDbLine
 62
7
  6
CONTINUOUS
 10
9.7463521243
 20
9.0439505445
 11
9.7627501523
 21
9.0574080583
  0
LINE
  5
233
100
AcDbEntity
  8
0
100
AcDbLine
 62
7
  6
CONTINUOUS
 10
10.292707032
 20
9.4923324295
 11
10.30910506
 21
9.5057899433
  0
LINE
  5
234
100
AcDbEntity
  8
0
100
AcDbLine
 62
7
  6
CONTINUOUS
 10
10.30910506
 20
8.5139936648
 11
10.292707032
 21
8.5274511786
  0
LINE
  5
235
100
AcDbEntity
  8
0
100
AcDbLine
 62
7
  6
CONTINUOUS
 10
9.7627501523
 20
8.9623755498
 11
9.7463521243
 21
8.9758330636
  0
LINE
  5
236
100
AcDbEntity
  8
0
100
AcDbLine
 62
7
  6
CONTINUOUS
 10
10.2601907777
 20
8.5101168547
 11
10.2451907777
 21
8.5251168547
  0
LINE
  5
237
100
AcDbEntity
  8
0
100
AcDbLine
 62
7
  6
CONTINUOUS
 10
9.7604158284
 20
9.009891804
 11
9.7454158284
 21
9.024891804
  0
LINE
  5
238
100
AcDbEntity
  8
0
100
AcDbLine
 62
7
  6
CONTINUOUS
 10
10.2111320373
 20
8.5110531506
 11
10.1976745235
 21
8.5274511786
  0
LINE
  5
239
100
AcDbEntity
  8
0
100
AcDbLine
 62
7
  6
CONTINUOUS
 10
9.7627501523
 20
9.0574080583
 11
9.7492926385
 21
9.0738060863
  0
LINE
  5
23A
100
AcDbEntity
  8
0
100
AcDbLine
 62
7
  6
CONTINUOUS
 10
10.1624013011
 20
8.5167935354
 11
10.1506158768
 21
8.5344316694
  0
LINE
  5
23B
100
AcDbEntity
  8
0
100
AcDbLine
 62
7
  6
CONTINUOUS
 10
9.7697306431
 20
9.104466705
 11
9.7579452187
 21
9.1221048391
  0
LINE
  5
23C
100
AcDbEntity
  8
0
100
AcDbLine
 62
7
  6
CONTINUOUS
 10
10.1144678729
 20
8.5272827261
 11
10.104468038
 21
8.5459911013
  0
LINE
  5
23D
100
AcDbEntity
  8
0
100
AcDbLine
 62
7
  6
CONTINUOUS
 10
9.781290075
 20
9.1506145438
 11
9.7712902401
 21
9.169322919
  0
LINE
  5
23E
100
AcDbEntity
  8
0
100
AcDbLine
 62
7
  6
CONTINUOUS
 10
9.5230518889
 20
8.1120328202
 11
9.5030518889
 21
8.077391804
  0
LINE
  5
23F
100
AcDbEntity
  8
0
100
AcDbLine
 62
7
  6
CONTINUOUS
 10
9.7520925091
 20
9.0926812806
 11
9.7697306431
 21
9.104466705
  0
LINE
  5
240
100
AcDbEntity
  8
0
100
AcDbLine
 62
7
  6
CONTINUOUS
 10
10.3397656787
 20
9.4853519387
 11
10.3574038127
 21
9.4971373631
  0
LINE
  5
241
100
AcDbEntity
  8
0
100
AcDbLine
 62
7
  6
CONTINUOUS
 10
9.7625816998
 20
9.1406147089
 11
9.781290075
 21
9.1506145438
  0
LINE
  5
242
100
AcDbEntity
  8
0
100
AcDbLine
 62
7
  6
CONTINUOUS
 10
10.3859135175
 20
9.4737925068
 11
10.4046218926
 21
9.4837923417
  0
LINE
  5
243
100
AcDbEntity
  8
0
100
AcDbLine
 62
7
  6
CONTINUOUS
 10
9.7777186797
 20
9.1872892041
 11
9.7973171242
 21
9.1954071456
  0
LINE
  5
244
100
AcDbEntity
  8
0
100
AcDbLine
 62
7
  6
CONTINUOUS
 10
10.4307061193
 20
9.4577654576
 11
10.4503045638
 21
9.4658833991
  0
LINE
  5
245
100
AcDbEntity
  8
0
100
AcDbLine
 62
7
  6
CONTINUOUS
 10
10.9694411284
 20
8.478891804
 11
11.4794243936
 21
8.478891804
  0
LINE
  5
246
100
AcDbEntity
  8
0
100
AcDbLine
 62
7
  6
CONTINUOUS
 10
10.4503045638
 20
8.553900209
 11
10.4307061193
 21
8.5620181505
  0
LINE
  5
247
100
AcDbEntity
  8
0
100
AcDbLine
 62
7
  6
CONTINUOUS
 10
9.7973171242
 20
8.8243764625
 11
9.7777186797
 21
8.832494404
  0
LINE
  5
248
100
AcDbEntity
  8
0
100
AcDbLine
 62
7
  6
CONTINUOUS
 10
10.4046218926
 20
8.5359912664
 11
10.3859135175
 21
8.5459911013
  0
LINE
  5
249
100
AcDbEntity
  8
0
100
AcDbLine
 62
7
  6
CONTINUOUS
 10
9.781290075
 20
8.8691690643
 11
9.7625816998
 21
8.8791688992
  0
LINE
  5
24A
100
AcDbEntity
  8
0
100
AcDbLine
 62
7
  6
CONTINUOUS
 10
10.3574038128
 20
8.522646245
 11
10.3397656787
 21
8.5344316694
  0
LINE
  5
24B
100
AcDbEntity
  8
0
100
AcDbLine
 62
7
  6
CONTINUOUS
 10
9.7697306431
 20
8.9153169031
 11
9.7520925091
 21
8.9271023274
  0
LINE
  5
24C
100
AcDbEntity
  8
0
100
AcDbLine
 62
7
  6
CONTINUOUS
 10
9.5230518889
 20
9.9077507879
 11
9.5030518889
 21
9.942391804
  0
LINE
  5
24D
100
AcDbEntity
  8
0
100
AcDbLine
 62
7
  6
CONTINUOUS
 10
9.7973576715
 20
9.2322552654
 11
9.8176574415
 21
9.2384131333
  0
LINE
  5
24E
100
AcDbEntity
  8
0
100
AcDbLine
 62
7
  6
CONTINUOUS
 10
10.473712107
 20
9.4374251403
 11
10.494011877
 21
9.4435830082
  0
LINE
  5
24F
100
AcDbEntity
  8
0
100
AcDbLine
 62
7
  6
CONTINUOUS
 10
10.5681907777
 20
8.572391804
 11
10.6981907777
 21
8.572391804
  0
LINE
  5
250
100
AcDbEntity
  8
0
100
AcDbLine
 62
7
  6
CONTINUOUS
 10
10.573839806
 20
8.6330764431
 11
10.5527287499
 21
8.6351557007
  0
LINE
  5
251
100
AcDbEntity
  8
0
100
AcDbLine
 62
7
  6
CONTINUOUS
 10
9.8704546744
 20
8.7023538318
 11
9.8493436183
 21
8.7044330894
  0
LINE
  5
252
100
AcDbEntity
  8
0
100
AcDbLine
 62
7
  6
CONTINUOUS
 10
10.535322907
 20
8.6026776742
 11
10.5145173093
 21
8.6068161649
  0
LINE
  5
253
100
AcDbEntity
  8
0
100
AcDbLine
 62
7
  6
CONTINUOUS
 10
9.8421151385
 20
8.7405652725
 11
9.8213095409
 21
8.7447037632
  0
LINE
  5
254
100
AcDbEntity
  8
0
100
AcDbLine
 62
7
  6
CONTINUOUS
 10
10.494011877
 20
8.5762005999
 11
10.473712107
 21
8.5823584678
  0
LINE
  5
255
100
AcDbEntity
  8
0
100
AcDbLine
 62
7
  6
CONTINUOUS
 10
9.8176574415
 20
8.7813704748
 11
9.7973576715
 21
8.7875283427
  0
LINE
  5
256
100
AcDbEntity
  8
0
100
AcDbLine
 62
7
  6
CONTINUOUS
 10
10.6690720146
 20
8.7447037632
 11
10.6482664169
 21
8.7405652725
  0
LINE
  5
257
100
AcDbEntity
  8
0
100
AcDbLine
 62
7
  6
CONTINUOUS
 10
9.9758642462
 20
8.6068161649
 11
9.9550586485
 21
8.6026776742
  0
LINE
  5
258
100
AcDbEntity
  8
0
100
AcDbLine
 62
7
  6
CONTINUOUS
 10
10.6410379372
 20
8.7044330894
 11
10.6199268811
 21
8.7023538318
  0
LINE
  5
259
100
AcDbEntity
  8
0
100
AcDbLine
 62
7
  6
CONTINUOUS
 10
9.9376528055
 20
8.6351557007
 11
9.9165417495
 21
8.6330764431
  0
LINE
  5
25A
100
AcDbEntity
  8
0
100
AcDbLine
 62
7
  6
CONTINUOUS
 10
9.8811899203
 20
8.66710415
 11
9.9024031237
 21
8.66710415
  0
LINE
  5
25B
100
AcDbEntity
  8
0
100
AcDbLine
 62
7
  6
CONTINUOUS
 10
10.5879784318
 20
8.66710415
 11
10.6091916352
 21
8.66710415
  0
LINE
  5
25C
100
AcDbEntity
  8
0
100
AcDbLine
 62
7
  6
CONTINUOUS
 10
10.5506494924
 20
9.4057389635
 11
10.5527287499
 21
9.3846279074
  0
LINE
  5
25D
100
AcDbEntity
  8
0
100
AcDbLine
 62
7
  6
CONTINUOUS
 10
10.6199268811
 20
8.7023538318
 11
10.6220061387
 21
8.6812427758
  0
LINE
  5
25E
100
AcDbEntity
  8
0
100
AcDbLine
 62
7
  6
CONTINUOUS
 10
10.4931907777
 20
8.139891804
 11
10.4931907777
 21
8.5762005999
  0
LINE
  5
25F
100
AcDbEntity
  8
0
100
AcDbLine
 62
7
  6
CONTINUOUS
 10
10.4931907777
 20
9.4435830082
 11
10.4931907777
 21
9.879891804
  0
LINE
  5
260
100
AcDbEntity
  8
0
100
AcDbLine
 62
7
  6
CONTINUOUS
 10
10.5181907777
 20
8.1648926914
 11
10.5181907777
 21
8.6060854666
  0
LINE
  5
261
100
AcDbEntity
  8
0
100
AcDbLine
 62
7
  6
CONTINUOUS
 10
10.5181907777
 20
9.4136981415
 11
10.5181907777
 21
9.8548909167
  0
LINE
  5
262
100
AcDbEntity
  8
0
100
AcDbLine
 62
9
  6
CONTINUOUS
 10
10.5681907777
 20
9.447391804
 11
10.5681907777
 21
9.3861507842
  0
LINE
  5
263
100
AcDbEntity
  8
0
100
AcDbLine
 62
9
  6
CONTINUOUS
 10
10.5681907777
 20
8.6336328239
 11
10.5681907777
 21
8.572391804
  0
LINE
  5
264
100
AcDbEntity
  8
0
100
AcDbLine
 62
7
  6
CONTINUOUS
 10
10.5879784318
 20
8.6458909466
 11
10.5879784318
 21
8.66710415
  0
LINE
  5
265
100
AcDbEntity
  8
0
100
AcDbLine
 62
7
  6
CONTINUOUS
 10
10.5879784318
 20
9.3526794581
 11
10.5879784318
 21
9.3738926615
  0
LINE
  5
266
100
AcDbEntity
  8
0
100
AcDbLine
 62
7
  6
CONTINUOUS
 10
10.6220061387
 20
9.3385408323
 11
10.6199268811
 21
9.3174297762
  0
LINE
  5
267
100
AcDbEntity
  8
0
100
AcDbLine
 62
7
  6
CONTINUOUS
 10
10.5527287499
 20
8.6351557007
 11
10.5506494924
 21
8.6140446446
  0
LINE
  5
268
100
AcDbEntity
  8
0
100
AcDbLine
 62
7
  6
CONTINUOUS
 10
10.6524049076
 20
9.3000239333
 11
10.6482664169
 21
9.2792183356
  0
LINE
  5
269
100
AcDbEntity
  8
0
100
AcDbLine
 62
7
  6
CONTINUOUS
 10
10.5145173093
 20
8.6068161649
 11
10.5103788186
 21
8.5860105672
  0
LINE
  5
26A
100
AcDbEntity
  8
0
100
AcDbLine
 62
7
  6
CONTINUOUS
 10
10.9694411284
 20
8.8052921951
 11
11.4020539783
 21
8.8052921951
  0
LINE
  5
26B
100
AcDbEntity
  8
0
100
AcDbLine
 62
7
  6
CONTINUOUS
 10
10.7879995887
 20
8.852391804
 11
10.7331907777
 21
8.852391804
  0
LINE
  5
26C
100
AcDbEntity
  8
0
100
AcDbLine
 62
7
  6
CONTINUOUS
 10
10.5103788186
 20
9.4337730409
 11
10.5145173093
 21
9.4129674432
  0
LINE
  5
26D
100
AcDbEntity
  8
0
100
AcDbLine
 62
7
  6
CONTINUOUS
 10
10.6482664169
 20
8.7405652725
 11
10.6524049076
 21
8.7197596748
  0
LINE
  5
26E
100
AcDbEntity
  8
0
100
AcDbLine
 62
7
  6
CONTINUOUS
 10
10.6981907777
 20
8.572391804
 11
10.6981907777
 21
8.7982635574
  0
LINE
  5
26F
100
AcDbEntity
  8
0
100
AcDbLine
 62
7
  6
CONTINUOUS
 10
10.6981907777
 20
8.8120003675
 11
10.6981907777
 21
8.8264998647
  0
LINE
  5
270
100
AcDbEntity
  8
0
100
AcDbLine
 62
7
  6
CONTINUOUS
 10
10.6981907777
 20
9.1932837434
 11
10.6981907777
 21
9.2077832406
  0
LINE
  5
271
100
AcDbEntity
  8
0
100
AcDbLine
 62
7
  6
CONTINUOUS
 10
10.6981907777
 20
9.2215200507
 11
10.6981907777
 21
9.447391804
  0
LINE
  5
272
100
AcDbEntity
  8
0
100
AcDbLine
 62
7
  6
CONTINUOUS
 10
10.6788819819
 20
9.2587129033
 11
10.672724114
 21
9.2384131333
  0
LINE
  5
273
100
AcDbEntity
  8
0
100
AcDbLine
 62
7
  6
CONTINUOUS
 10
10.473712107
 20
8.5823584678
 11
10.467554239
 21
8.5620586978
  0
LINE
  5
274
100
AcDbEntity
  8
0
100
AcDbLine
 62
7
  6
CONTINUOUS
 10
10.7011823728
 20
9.2150055901
 11
10.6930644313
 21
9.1954071456
  0
LINE
  5
275
100
AcDbEntity
  8
0
100
AcDbLine
 62
7
  6
CONTINUOUS
 10
10.4307061193
 20
8.5620181505
 11
10.4225881778
 21
8.542419706
  0
LINE
  5
276
100
AcDbEntity
  8
0
100
AcDbLine
 62
7
  6
CONTINUOUS
 10
10.7190913154
 20
9.169322919
 11
10.7090914805
 21
9.1506145438
  0
LINE
  5
277
100
AcDbEntity
  8
0
100
AcDbLine
 62
7
  6
CONTINUOUS
 10
10.3859135175
 20
8.5459911013
 11
10.3759136826
 21
8.5272827261
  0
LINE
  5
278
100
AcDbEntity
  8
0
100
AcDbLine
 62
7
  6
CONTINUOUS
 10
10.9694411284
 20
9.540891804
 11
10.8620539783
 21
9.354891804
  0
LINE
  5
279
100
AcDbEntity
  8
0
100
AcDbLine
 62
7
  6
CONTINUOUS
 10
10.7324363367
 20
9.1221048391
 11
10.7206509124
 21
9.104466705
  0
LINE
  5
27A
100
AcDbEntity
  8
0
100
AcDbLine
 62
7
  6
CONTINUOUS
 10
10.3397656787
 20
8.5344316694
 11
10.3279802543
 21
8.5167935354
  0
LINE
  5
27B
100
AcDbEntity
  8
0
100
AcDbLine
 62
7
  6
CONTINUOUS
 10
10.741088917
 20
9.0738060863
 11
10.7276314032
 21
9.0574080583
  0
LINE
  5
27C
100
AcDbEntity
  8
0
100
AcDbLine
 62
7
  6
CONTINUOUS
 10
10.292707032
 20
8.5274511786
 11
10.2792495182
 21
8.5110531506
  0
LINE
  5
27D
100
AcDbEntity
  8
0
100
AcDbLine
 62
7
  6
CONTINUOUS
 10
10.7449657271
 20
9.024891804
 11
10.7299657271
 21
9.009891804
  0
LINE
  5
27E
100
AcDbEntity
  8
0
100
AcDbLine
 62
7
  6
CONTINUOUS
 10
10.2451907777
 20
8.5251168547
 11
10.2301907777
 21
8.5101168547
  0
LINE
  5
27F
100
AcDbEntity
  8
0
100
AcDbLine
 62
7
  6
CONTINUOUS
 10
10.2301907777
 20
9.5096667534
 11
10.2451907777
 21
9.4946667534
  0
LINE
  5
280
100
AcDbEntity
  8
0
100
AcDbLine
 62
7
  6
CONTINUOUS
 10
10.7299657271
 20
9.009891804
 11
10.7449657271
 21
8.994891804
  0
LINE
  5
281
100
AcDbEntity
  8
0
100
AcDbLine
 62
7
  6
CONTINUOUS
 10
10.2792495182
 20
9.5087304575
 11
10.292707032
 21
9.4923324295
  0
LINE
  5
282
100
AcDbEntity
  8
0
100
AcDbLine
 62
7
  6
CONTINUOUS
 10
10.7276314032
 20
8.9623755498
 11
10.741088917
 21
8.9459775218
  0
LINE
  5
283
100
AcDbEntity
  8
0
100
AcDbLine
 62
7
  6
CONTINUOUS
 10
10.3279802543
 20
9.5029900727
 11
10.3397656787
 21
9.4853519387
  0
LINE
  5
284
100
AcDbEntity
  8
0
100
AcDbLine
 62
7
  6
CONTINUOUS
 10
10.7206509124
 20
8.9153169031
 11
10.7324363367
 21
8.897678769
  0
LINE
  5
285
100
AcDbEntity
  8
0
100
AcDbLine
 62
7
  6
CONTINUOUS
 10
10.9694411284
 20
8.478891804
 11
10.8620539783
 21
8.664891804
  0
LINE
  5
286
100
AcDbEntity
  8
0
100
AcDbLine
 62
7
  6
CONTINUOUS
 10
10.3759136826
 20
9.492500882
 11
10.3859135175
 21
9.4737925068
  0
LINE
  5
287
100
AcDbEntity
  8
0
100
AcDbLine
 62
7
  6
CONTINUOUS
 10
10.7090914805
 20
8.8691690643
 11
10.7190913154
 21
8.8504606891
  0
LINE
  5
288
100
AcDbEntity
  8
0
100
AcDbLine
 62
7
  6
CONTINUOUS
 10
10.4225881778
 20
9.4773639021
 11
10.4307061193
 21
9.4577654576
  0
LINE
  5
289
100
AcDbEntity
  8
0
100
AcDbLine
 62
7
  6
CONTINUOUS
 10
10.6930644313
 20
8.8243764625
 11
10.7011823728
 21
8.804778018
  0
LINE
  5
28A
100
AcDbEntity
  8
0
100
AcDbLine
 62
7
  6
CONTINUOUS
 10
10.467554239
 20
9.4577249103
 11
10.473712107
 21
9.4374251403
  0
LINE
  5
28B
100
AcDbEntity
  8
0
100
AcDbLine
 62
7
  6
CONTINUOUS
 10
10.672724114
 20
8.7813704748
 11
10.6788819819
 21
8.7610707048
  0
LINE
  5
28C
100
AcDbEntity
  8
0
100
AcDbLine
 62
7
  6
CONTINUOUS
 10
10.7331907777
 20
8.6073925855
 11
10.7331907777
 21
8.9236957732
  0
LINE
  5
28D
100
AcDbEntity
  8
0
100
AcDbLine
 62
7
  6
CONTINUOUS
 10
10.7331907777
 20
8.9556014323
 11
10.7331907777
 21
8.9669380106
  0
LINE
  5
28E
100
AcDbEntity
  8
0
100
AcDbLine
 62
7
  6
CONTINUOUS
 10
10.7331907777
 20
9.0066667534
 11
10.7331907777
 21
9.0131168547
  0
LINE
  5
28F
100
AcDbEntity
  8
0
100
AcDbLine
 62
7
  6
CONTINUOUS
 10
10.7331907777
 20
9.0528455975
 11
10.7331907777
 21
9.0641821758
  0
LINE
  5
290
100
AcDbEntity
  8
0
100
AcDbLine
 62
7
  6
CONTINUOUS
 10
10.7331907777
 20
9.0960878349
 11
10.7331907777
 21
9.4123910226
  0
LINE
  5
291
100
AcDbEntity
  8
0
100
AcDbLine
 62
7
  6
CONTINUOUS
 10
10.7879995887
 20
8.8523918061
 11
10.7879995887
 21
9.167391804
  0
LINE
  5
292
100
AcDbEntity
  8
0
100
AcDbLine
 62
7
  6
CONTINUOUS
 10
10.7440294312
 20
8.9758330636
 11
10.7276314032
 21
8.9623755498
  0
LINE
  5
293
100
AcDbEntity
  8
0
100
AcDbLine
 62
7
  6
CONTINUOUS
 10
10.1976745235
 20
8.5274511786
 11
10.1812764955
 21
8.5139936648
  0
LINE
  5
294
100
AcDbEntity
  8
0
100
AcDbLine
 62
7
  6
CONTINUOUS
 10
10.7382890464
 20
8.9271023274
 11
10.7206509124
 21
8.9153169031
  0
LINE
  5
295
100
AcDbEntity
  8
0
100
AcDbLine
 62
7
  6
CONTINUOUS
 10
10.1506158768
 20
8.5344316694
 11
10.1329777427
 21
8.522646245
  0
LINE
  5
296
100
AcDbEntity
  8
0
100
AcDbLine
 62
7
  6
CONTINUOUS
 10
10.7277998557
 20
8.8791688992
 11
10.7090914805
 21
8.8691690643
  0
LINE
  5
297
100
AcDbEntity
  8
0
100
AcDbLine
 62
7
  6
CONTINUOUS
 10
10.104468038
 20
8.5459911013
 11
10.0857596628
 21
8.5359912664
  0
LINE
  5
298
100
AcDbEntity
  8
0
100
AcDbLine
 62
7
  6
CONTINUOUS
 10
10.0857596628
 20
9.4837923417
 11
10.104468038
 21
9.4737925068
  0
LINE
  5
299
100
AcDbEntity
  8
0
100
AcDbLine
 62
7
  6
CONTINUOUS
 10
10.7090914805
 20
9.1506145438
 11
10.7277998557
 21
9.1406147089
  0
LINE
  5
29A
100
AcDbEntity
  8
0
100
AcDbLine
 62
7
  6
CONTINUOUS
 10
10.1329777427
 20
9.4971373631
 11
10.1506158768
 21
9.4853519387
  0
LINE
  5
29B
100
AcDbEntity
  8
0
100
AcDbLine
 62
7
  6
CONTINUOUS
 10
10.7206509124
 20
9.104466705
 11
10.7382890464
 21
9.0926812806
  0
LINE
  5
29C
100
AcDbEntity
  8
0
100
AcDbLine
 62
7
  6
CONTINUOUS
 10
10.1812764955
 20
9.5057899433
 11
10.1976745235
 21
9.4923324295
  0
LINE
  5
29D
100
AcDbEntity
  8
0
100
AcDbLine
 62
7
  6
CONTINUOUS
 10
10.7276314032
 20
9.0574080583
 11
10.7440294312
 21
9.0439505445
  0
LINE
  5
29E
100
AcDbEntity
  8
0
100
AcDbLine
 62
7
  6
CONTINUOUS
 10
10.8620539783
 20
9.354891804
 11
10.8620539783
 21
8.664891804
  0
LINE
  5
29F
100
AcDbEntity
  8
0
100
AcDbLine
 62
7
  6
CONTINUOUS
 10
10.9694411284
 20
9.540891804
 11
10.9694411284
 21
9.214491413
  0
LINE
  5
2A0
100
AcDbEntity
  8
0
100
AcDbLine
 62
7
  6
CONTINUOUS
 10
10.9694411284
 20
8.8052921951
 11
10.9694411284
 21
8.478891804
  0
LINE
  5
2A1
100
AcDbEntity
  8
0
100
AcDbLine
 62
7
  6
CONTINUOUS
 10
10.7126628758
 20
8.832494404
 11
10.6930644313
 21
8.8243764625
  0
LINE
  5
2A2
100
AcDbEntity
  8
0
100
AcDbLine
 62
7
  6
CONTINUOUS
 10
10.0596754362
 20
8.5620181505
 11
10.0400769917
 21
8.553900209
  0
LINE
  5
2A3
100
AcDbEntity
  8
0
100
AcDbLine
 62
7
  6
CONTINUOUS
 10
10.693023884
 20
8.7875283427
 11
10.672724114
 21
8.7813704748
  0
LINE
  5
2A4
100
AcDbEntity
  8
0
100
AcDbLine
 62
7
  6
CONTINUOUS
 10
10.0166694485
 20
8.5823584678
 11
9.9963696785
 21
8.5762005999
  0
LINE
  5
2A5
100
AcDbEntity
  8
0
100
AcDbLine
 62
7
  6
CONTINUOUS
 10
10.7879995887
 20
9.167391804
 11
10.7331907777
 21
9.167391804
  0
LINE
  5
2A6
100
AcDbEntity
  8
0
100
AcDbLine
 62
7
  6
CONTINUOUS
 10
11.4020539783
 20
9.214491413
 11
10.9694411284
 21
9.214491413
  0
LINE
  5
2A7
100
AcDbEntity
  8
0
100
AcDbLine
 62
7
  6
CONTINUOUS
 10
9.9550586485
 20
9.4171059339
 11
9.9758642462
 21
9.4129674432
  0
LINE
  5
2A8
100
AcDbEntity
  8
0
100
AcDbLine
 62
7
  6
CONTINUOUS
 10
10.6482664169
 20
9.2792183356
 11
10.6690720146
 21
9.2750798449
  0
LINE
  5
2A9
100
AcDbEntity
  8
0
100
AcDbLine
 62
7
  6
CONTINUOUS
 10
9.9963696785
 20
9.4435830082
 11
10.0166694485
 21
9.4374251403
  0
LINE
  5
2AA
100
AcDbEntity
  8
0
100
AcDbLine
 62
7
  6
CONTINUOUS
 10
10.672724114
 20
9.2384131333
 11
10.693023884
 21
9.2322552654
  0
LINE
  5
2AB
100
AcDbEntity
  8
0
100
AcDbLine
 62
7
  6
CONTINUOUS
 10
10.0400769917
 20
9.4658833991
 11
10.0596754362
 21
9.4577654576
  0
LINE
  5
2AC
100
AcDbEntity
  8
0
100
AcDbLine
 62
7
  6
CONTINUOUS
 10
10.6930644313
 20
9.1954071456
 11
10.7126628758
 21
9.1872892041
  0
LINE
  5
2AD
100
AcDbEntity
  8
0
100
AcDbLine
 62
7
  6
CONTINUOUS
 10
10.7331907777
 20
8.607391804
 11
10.6981907777
 21
8.572391804
  0
LINE
  5
2AE
100
AcDbEntity
  8
0
100
AcDbLine
 62
7
  6
CONTINUOUS
 10
9.8493436183
 20
9.3153505187
 11
9.8704546744
 21
9.3174297762
  0
LINE
  5
2AF
100
AcDbEntity
  8
0
100
AcDbLine
 62
7
  6
CONTINUOUS
 10
10.5527287499
 20
9.3846279074
 11
10.573839806
 21
9.386707165
  0
LINE
  5
2B0
100
AcDbEntity
  8
0
100
AcDbLine
 62
7
  6
CONTINUOUS
 10
10.6091916352
 20
9.3526794581
 11
10.5879784318
 21
9.3526794581
  0
LINE
  5
2B1
100
AcDbEntity
  8
0
100
AcDbLine
 62
7
  6
CONTINUOUS
 10
9.9024031237
 20
9.3526794581
 11
9.8811899203
 21
9.3526794581
  0
LINE
  5
2B2
100
AcDbEntity
  8
0
100
AcDbLine
 62
7
  6
CONTINUOUS
 10
9.9165417495
 20
9.386707165
 11
9.9376528055
 21
9.3846279074
  0
LINE
  5
2B3
100
AcDbEntity
  8
0
100
AcDbLine
 62
7
  6
CONTINUOUS
 10
10.6199268811
 20
9.3174297762
 11
10.6410379372
 21
9.3153505187
  0
LINE
  5
2B4
100
AcDbEntity
  8
0
100
AcDbLine
 62
7
  6
CONTINUOUS
 10
10.7331907777
 20
9.412391804
 11
10.6981907777
 21
9.447391804
  0
LINE
  5
2B5
100
AcDbEntity
  8
0
100
AcDbLine
 62
7
  6
CONTINUOUS
 10
10.5181907777
 20
8.164891804
 11
10.4931907777
 21
8.139891804
  0
LINE
  5
2B6
100
AcDbEntity
  8
0
100
AcDbLine
 62
7
  6
CONTINUOUS
 10
9.8213095409
 20
9.2750798449
 11
9.8421151385
 21
9.2792183356
  0
LINE
  5
2B7
100
AcDbEntity
  8
0
100
AcDbLine
 62
7
  6
CONTINUOUS
 10
10.5145173093
 20
9.4129674432
 11
10.535322907
 21
9.4171059339
  0
LINE
  5
2B8
100
AcDbEntity
  8
0
100
AcDbLine
 62
7
  6
CONTINUOUS
 10
10.5681907777
 20
9.447391804
 11
10.6981907777
 21
9.447391804
  0
LINE
  5
2B9
100
AcDbEntity
  8
0
100
AcDbLine
 62
7
  6
CONTINUOUS
 10
10.9694411284
 20
9.540891804
 11
11.4794243936
 21
9.540891804
  0
LINE
  5
2BA
100
AcDbEntity
  8
0
100
AcDbLine
 62
7
  6
CONTINUOUS
 10
10.5181907777
 20
9.854891804
 11
10.4931907777
 21
9.879891804
  0
LINE
  5
2BB
100
AcDbEntity
  8
0
100
AcDbLine
 62
7
  6
CONTINUOUS
 10
11.4020539783
 20
9.214491413
 11
11.4020539783
 21
8.8052921951
  0
LINE
  5
2BC
100
AcDbEntity
  8
0
100
AcDbLine
 62
7
  6
CONTINUOUS
 10
11.4794243936
 20
9.565891804
 11
11.4794243936
 21
8.453891804
  0
LINE
  5
2BD
100
AcDbEntity
  8
0
100
AcDbLine
 62
9
  6
CONTINUOUS
 10
11.4798539243
 20
8.4509924737
 11
11.4798539243
 21
9.5687911344
  0
LINE
  5
2BE
100
AcDbEntity
  8
0
100
AcDbLine
 62
7
  6
CONTINUOUS
 10
11.4794243936
 20
9.565891804
 11
11.4798539243
 21
9.5687911344
  0
LINE
  5
2BF
100
AcDbEntity
  8
0
100
AcDbLine
 62
7
  6
CONTINUOUS
 10
9.371663
 20
9.794891804
 11
9.397913
 21
9.794891804
  0
LINE
  5
2C0
100
AcDbEntity
  8
0
100
AcDbLine
 62
7
  6
CONTINUOUS
 10
11.4794243936
 20
8.453891804
 11
11.4798539243
 21
8.4509924737
  0
LINE
  5
2C1
100
AcDbEntity
  8
0
100
AcDbLine
 62
7
  6
CONTINUOUS
 10
9.6581907777
 20
9.879891804
 11
10.4931907777
 21
9.879891804
  0
LINE
  5
2C2
100
AcDbEntity
  8
0
100
AcDbLine
 62
7
  6
CONTINUOUS
 10
11.6420539783
 20
10.009298095
 11
11.6420539783
 21
8.0104855131
  0
LINE
  5
2C3
100
AcDbEntity
  8
0
100
AcDbLine
 62
9
  6
CONTINUOUS
 10
11.6602469218
 20
10.0292180122
 11
11.6602469218
 21
7.9905655959
  0
LINE
  5
2C4
100
AcDbEntity
  8
0
100
AcDbLine
 62
9
  6
CONTINUOUS
 10
11.8329201448
 20
10.1644233348
 11
11.8329201448
 21
7.8553602733
  0
LINE
  5
2C5
100
AcDbEntity
  8
0
100
AcDbLine
 62
9
  6
CONTINUOUS
 10
11.85182356
 20
10.177891804
 11
11.85182356
 21
7.841891804
  0
LINE
  5
2C6
100
AcDbEntity
  8
0
100
AcDbLine
 62
7
  6
CONTINUOUS
 10
11.85182356
 20
10.177891804
 11
11.9160539783
 21
10.177891804
  0
LINE
  5
2C7
100
AcDbEntity
  8
0
100
AcDbLine
 62
7
  6
CONTINUOUS
 10
11.9160539783
 20
7.841891804
 11
11.9160539783
 21
10.177891804
  0
LINE
  5
2C8
100
AcDbEntity
  8
0
100
AcDbLine
 62
7
  6
CONTINUOUS
 10
12.1120539783
 20
7.6618925485
 11
12.1120539783
 21
10.3578910596
  0
ARC
  5
2C9
100
AcDbEntity
  8
0
100
AcDbCircle
 62
7
  6
CONTINUOUS
 10
11.0881585381
 20
9.0098703163
 40
0.3389610212
100
AcDbArc
 50
207.6837676507
 51
228.1602975631
  0
ARC
  5
2CA
100
AcDbEntity
  8
0
100
AcDbCircle
 62
7
  6
CONTINUOUS
 10
9.5230518889
 20
8.2009221303
 40
0.1251388889
100
AcDbArc
 50
180.0
 51
260.8034110298
  0
ARC
  5
2CB
100
AcDbEntity
  8
0
100
AcDbCircle
 62
7
  6
CONTINUOUS
 10
9.5230518889
 20
8.2009221303
 40
0.1251388889
100
AcDbArc
 50
279.1965889702
 51
360.0
  0
ARC
  5
2CC
100
AcDbEntity
  8
0
100
AcDbCircle
 62
7
  6
CONTINUOUS
 10
10.5681907777
 20
8.522391804
 40
0.05
100
AcDbArc
 50
90.0
 51
180.0
  0
ARC
  5
2CD
100
AcDbEntity
  8
0
100
AcDbCircle
 62
7
  6
CONTINUOUS
 10
9.371663
 20
8.263641804
 40
0.03875
100
AcDbArc
 50
180.0
 51
270.0
  0
ARC
  5
2CE
100
AcDbEntity
  8
0
100
AcDbCircle
 62
7
  6
CONTINUOUS
 10
9.5230518889
 20
9.009891804
 40
0.2151388889
100
AcDbArc
 50
152.5979803912
 51
207.4020196088
  0
ARC
  5
2CF
100
AcDbEntity
  8
0
100
AcDbCircle
 62
7
  6
CONTINUOUS
 10
9.5230518889
 20
9.8188614778
 40
0.1251388889
100
AcDbArc
 50
99.1965889702
 51
180.0
  0
ARC
  5
2D0
100
AcDbEntity
  8
0
100
AcDbCircle
 62
7
  6
CONTINUOUS
 10
9.5230518889
 20
9.8188614778
 40
0.1251388889
100
AcDbArc
 50
0.0
 51
80.8034110298
  0
ARC
  5
2D1
100
AcDbEntity
  8
0
100
AcDbCircle
 62
7
  6
CONTINUOUS
 10
9.371663
 20
9.756141804
 40
0.03875
100
AcDbArc
 50
90.0
 51
180.0
  0
ARC
  5
2D2
100
AcDbEntity
  8
0
100
AcDbCircle
 62
7
  6
CONTINUOUS
 10
10.2451907777
 20
9.009891804
 40
0.5
100
AcDbArc
 50
311.0941313209
 51
313.2808686791
  0
ARC
  5
2D3
100
AcDbEntity
  8
0
100
AcDbCircle
 62
7
  6
CONTINUOUS
 10
10.2451907777
 20
9.009891804
 40
0.5
100
AcDbArc
 50
316.7191313209
 51
318.9058686792
  0
ARC
  5
2D4
100
AcDbEntity
  8
0
100
AcDbCircle
 62
7
  6
CONTINUOUS
 10
10.2451907777
 20
9.009891804
 40
0.5
100
AcDbArc
 50
322.3441313209
 51
324.5308686791
  0
ARC
  5
2D5
100
AcDbEntity
  8
0
100
AcDbCircle
 62
7
  6
CONTINUOUS
 10
10.2451907777
 20
9.009891804
 40
0.5
100
AcDbArc
 50
327.9691313209
 51
330.1558686791
  0
ARC
  5
2D6
100
AcDbEntity
  8
0
100
AcDbCircle
 62
7
  6
CONTINUOUS
 10
10.2451907777
 20
9.009891804
 40
0.5
100
AcDbArc
 50
333.5941313209
 51
335.7808686791
  0
ARC
  5
2D7
100
AcDbEntity
  8
0
100
AcDbCircle
 62
7
  6
CONTINUOUS
 10
10.2451907777
 20
9.009891804
 40
0.5
100
AcDbArc
 50
339.2191313209
 51
341.4058686791
  0
ARC
  5
2D8
100
AcDbEntity
  8
0
100
AcDbCircle
 62
7
  6
CONTINUOUS
 10
10.2451907777
 20
9.009891804
 40
0.5
100
AcDbArc
 50
344.8441313209
 51
347.0308686791
  0
ARC
  5
2D9
100
AcDbEntity
  8
0
100
AcDbCircle
 62
7
  6
CONTINUOUS
 10
10.2451907777
 20
9.009891804
 40
0.5
100
AcDbArc
 50
350.4691313209
 51
352.6558686791
  0
ARC
  5
2DA
100
AcDbEntity
  8
0
100
AcDbCircle
 62
7
  6
CONTINUOUS
 10
10.2451907777
 20
9.009891804
 40
0.5
100
AcDbArc
 50
356.0941313209
 51
358.2808686791
  0
ARC
  5
2DB
100
AcDbEntity
  8
0
100
AcDbCircle
 62
7
  6
CONTINUOUS
 10
10.2451907777
 20
9.009891804
 40
0.5
100
AcDbArc
 50
1.7191313209
 51
3.9058686791
  0
ARC
  5
2DC
100
AcDbEntity
  8
0
100
AcDbCircle
 62
7
  6
CONTINUOUS
 10
10.2451907777
 20
9.009891804
 40
0.5
100
AcDbArc
 50
7.3441313209
 51
9.5308686791
  0
ARC
  5
2DD
100
AcDbEntity
  8
0
100
AcDbCircle
 62
7
  6
CONTINUOUS
 10
10.2451907777
 20
9.009891804
 40
0.5
100
AcDbArc
 50
12.9691313209
 51
15.1558686791
  0
ARC
  5
2DE
100
AcDbEntity
  8
0
100
AcDbCircle
 62
7
  6
CONTINUOUS
 10
10.2451907777
 20
9.009891804
 40
0.5
100
AcDbArc
 50
18.5941313209
 51
20.7808686791
  0
ARC
  5
2DF
100
AcDbEntity
  8
0
100
AcDbCircle
 62
7
  6
CONTINUOUS
 10
10.2451907777
 20
9.009891804
 40
0.5
100
AcDbArc
 50
24.2191313209
 51
26.4058686791
  0
ARC
  5
2E0
100
AcDbEntity
  8
0
100
AcDbCircle
 62
7
  6
CONTINUOUS
 10
10.2451907777
 20
9.009891804
 40
0.5
100
AcDbArc
 50
29.8441313209
 51
32.0308686791
  0
ARC
  5
2E1
100
AcDbEntity
  8
0
100
AcDbCircle
 62
7
  6
CONTINUOUS
 10
10.2451907777
 20
9.009891804
 40
0.5
100
AcDbArc
 50
35.4691313209
 51
37.6558686791
  0
ARC
  5
2E2
100
AcDbEntity
  8
0
100
AcDbCircle
 62
7
  6
CONTINUOUS
 10
10.2451907777
 20
9.009891804
 40
0.5
100
AcDbArc
 50
41.0941313208
 51
43.2808686791
  0
ARC
  5
2E3
100
AcDbEntity
  8
0
100
AcDbCircle
 62
7
  6
CONTINUOUS
 10
10.2451907777
 20
9.009891804
 40
0.5
100
AcDbArc
 50
46.7191313209
 51
48.9058686791
  0
ARC
  5
2E4
100
AcDbEntity
  8
0
100
AcDbCircle
 62
7
  6
CONTINUOUS
 10
10.2451907777
 20
9.009891804
 40
0.5
100
AcDbArc
 50
52.3441313209
 51
54.5308686791
  0
ARC
  5
2E5
100
AcDbEntity
  8
0
100
AcDbCircle
 62
7
  6
CONTINUOUS
 10
10.2451907777
 20
9.009891804
 40
0.5
100
AcDbArc
 50
57.9691313209
 51
60.1558686791
  0
ARC
  5
2E6
100
AcDbEntity
  8
0
100
AcDbCircle
 62
7
  6
CONTINUOUS
 10
10.2451907777
 20
9.009891804
 40
0.5
100
AcDbArc
 50
63.5941313208
 51
65.7808686791
  0
ARC
  5
2E7
100
AcDbEntity
  8
0
100
AcDbCircle
 62
7
  6
CONTINUOUS
 10
10.2451907777
 20
9.009891804
 40
0.5
100
AcDbArc
 50
69.2191313208
 51
71.4058686791
  0
ARC
  5
2E8
100
AcDbEntity
  8
0
100
AcDbCircle
 62
7
  6
CONTINUOUS
 10
10.2451907777
 20
9.009891804
 40
0.5
100
AcDbArc
 50
74.8441313208
 51
77.0308686792
  0
ARC
  5
2E9
100
AcDbEntity
  8
0
100
AcDbCircle
 62
7
  6
CONTINUOUS
 10
10.2451907777
 20
9.009891804
 40
0.5
100
AcDbArc
 50
80.4691313208
 51
82.6558686791
  0
ARC
  5
2EA
100
AcDbEntity
  8
0
100
AcDbCircle
 62
7
  6
CONTINUOUS
 10
10.2451907777
 20
9.009891804
 40
0.5
100
AcDbArc
 50
86.0941313209
 51
88.2808686791
  0
ARC
  5
2EB
100
AcDbEntity
  8
0
100
AcDbCircle
 62
7
  6
CONTINUOUS
 10
10.2451907777
 20
9.009891804
 40
0.5
100
AcDbArc
 50
91.7191313209
 51
93.9058686791
  0
ARC
  5
2EC
100
AcDbEntity
  8
0
100
AcDbCircle
 62
7
  6
CONTINUOUS
 10
10.2451907777
 20
9.009891804
 40
0.5
100
AcDbArc
 50
97.3441313209
 51
99.5308686791
  0
ARC
  5
2ED
100
AcDbEntity
  8
0
100
AcDbCircle
 62
7
  6
CONTINUOUS
 10
10.2451907777
 20
9.009891804
 40
0.5
100
AcDbArc
 50
102.9691313209
 51
105.1558686792
  0
ARC
  5
2EE
100
AcDbEntity
  8
0
100
AcDbCircle
 62
7
  6
CONTINUOUS
 10
10.2451907777
 20
9.009891804
 40
0.5
100
AcDbArc
 50
108.5941313209
 51
110.7808686792
  0
ARC
  5
2EF
100
AcDbEntity
  8
0
100
AcDbCircle
 62
7
  6
CONTINUOUS
 10
10.2451907777
 20
9.009891804
 40
0.5
100
AcDbArc
 50
114.2191313209
 51
116.4058686792
  0
ARC
  5
2F0
100
AcDbEntity
  8
0
100
AcDbCircle
 62
7
  6
CONTINUOUS
 10
10.2451907777
 20
9.009891804
 40
0.5
100
AcDbArc
 50
119.8441313209
 51
122.0308686792
  0
ARC
  5
2F1
100
AcDbEntity
  8
0
100
AcDbCircle
 62
7
  6
CONTINUOUS
 10
10.2451907777
 20
9.009891804
 40
0.5
100
AcDbArc
 50
125.4691313209
 51
127.6558686792
  0
ARC
  5
2F2
100
AcDbEntity
  8
0
100
AcDbCircle
 62
7
  6
CONTINUOUS
 10
10.2451907777
 20
9.009891804
 40
0.5
100
AcDbArc
 50
131.0941313209
 51
133.2808686791
  0
ARC
  5
2F3
100
AcDbEntity
  8
0
100
AcDbCircle
 62
7
  6
CONTINUOUS
 10
10.2451907777
 20
9.009891804
 40
0.5
100
AcDbArc
 50
136.7191313209
 51
138.9058686792
  0
ARC
  5
2F4
100
AcDbEntity
  8
0
100
AcDbCircle
 62
7
  6
CONTINUOUS
 10
10.2451907777
 20
9.009891804
 40
0.5
100
AcDbArc
 50
142.3441313209
 51
144.5308686791
  0
ARC
  5
2F5
100
AcDbEntity
  8
0
100
AcDbCircle
 62
7
  6
CONTINUOUS
 10
10.2451907777
 20
9.009891804
 40
0.5
100
AcDbArc
 50
147.9691313209
 51
150.1558686791
  0
ARC
  5
2F6
100
AcDbEntity
  8
0
100
AcDbCircle
 62
7
  6
CONTINUOUS
 10
10.2451907777
 20
9.009891804
 40
0.5
100
AcDbArc
 50
153.5941313209
 51
155.7808686792
  0
ARC
  5
2F7
100
AcDbEntity
  8
0
100
AcDbCircle
 62
7
  6
CONTINUOUS
 10
10.2451907777
 20
9.009891804
 40
0.5
100
AcDbArc
 50
159.2191313209
 51
161.4058686792
  0
ARC
  5
2F8
100
AcDbEntity
  8
0
100
AcDbCircle
 62
7
  6
CONTINUOUS
 10
10.2451907777
 20
9.009891804
 40
0.5
100
AcDbArc
 50
164.8441313209
 51
167.0308686791
  0
ARC
  5
2F9
100
AcDbEntity
  8
0
100
AcDbCircle
 62
7
  6
CONTINUOUS
 10
10.2451907777
 20
9.009891804
 40
0.5
100
AcDbArc
 50
170.4691313209
 51
172.6558686792
  0
ARC
  5
2FA
100
AcDbEntity
  8
0
100
AcDbCircle
 62
7
  6
CONTINUOUS
 10
10.2451907777
 20
9.009891804
 40
0.5
100
AcDbArc
 50
176.0941313208
 51
178.2808686791
  0
ARC
  5
2FB
100
AcDbEntity
  8
0
100
AcDbCircle
 62
7
  6
CONTINUOUS
 10
10.2451907777
 20
9.009891804
 40
0.5
100
AcDbArc
 50
181.7191313209
 51
183.9058686792
  0
ARC
  5
2FC
100
AcDbEntity
  8
0
100
AcDbCircle
 62
7
  6
CONTINUOUS
 10
10.2451907777
 20
9.009891804
 40
0.5
100
AcDbArc
 50
187.3441313208
 51
189.5308686791
  0
ARC
  5
2FD
100
AcDbEntity
  8
0
100
AcDbCircle
 62
7
  6
CONTINUOUS
 10
10.2451907777
 20
9.009891804
 40
0.5
100
AcDbArc
 50
192.9691313208
 51
195.1558686792
  0
ARC
  5
2FE
100
AcDbEntity
  8
0
100
AcDbCircle
 62
7
  6
CONTINUOUS
 10
10.2451907777
 20
9.009891804
 40
0.5
100
AcDbArc
 50
198.5941313209
 51
200.7808686791
  0
ARC
  5
2FF
100
AcDbEntity
  8
0
100
AcDbCircle
 62
7
  6
CONTINUOUS
 10
10.2451907777
 20
9.009891804
 40
0.5
100
AcDbArc
 50
204.2191313209
 51
206.4058686791
  0
ARC
  5
300
100
AcDbEntity
  8
0
100
AcDbCircle
 62
7
  6
CONTINUOUS
 10
10.2451907777
 20
9.009891804
 40
0.5
100
AcDbArc
 50
209.8441313209
 51
212.0308686791
  0
ARC
  5
301
100
AcDbEntity
  8
0
100
AcDbCircle
 62
7
  6
CONTINUOUS
 10
10.2451907777
 20
9.009891804
 40
0.5
100
AcDbArc
 50
215.4691313209
 51
217.6558686791
  0
ARC
  5
302
100
AcDbEntity
  8
0
100
AcDbCircle
 62
7
  6
CONTINUOUS
 10
10.2451907777
 20
9.009891804
 40
0.5
100
AcDbArc
 50
221.0941313208
 51
223.2808686791
  0
ARC
  5
303
100
AcDbEntity
  8
0
100
AcDbCircle
 62
7
  6
CONTINUOUS
 10
10.2451907777
 20
9.009891804
 40
0.5
100
AcDbArc
 50
226.7191313209
 51
228.9058686791
  0
ARC
  5
304
100
AcDbEntity
  8
0
100
AcDbCircle
 62
7
  6
CONTINUOUS
 10
10.2451907777
 20
9.009891804
 40
0.5
100
AcDbArc
 50
232.3441313209
 51
234.5308686791
  0
ARC
  5
305
100
AcDbEntity
  8
0
100
AcDbCircle
 62
7
  6
CONTINUOUS
 10
10.2451907777
 20
9.009891804
 40
0.5
100
AcDbArc
 50
237.9691313209
 51
240.1558686791
  0
ARC
  5
306
100
AcDbEntity
  8
0
100
AcDbCircle
 62
7
  6
CONTINUOUS
 10
10.2451907777
 20
9.009891804
 40
0.5
100
AcDbArc
 50
243.5941313208
 51
245.7808686791
  0
ARC
  5
307
100
AcDbEntity
  8
0
100
AcDbCircle
 62
7
  6
CONTINUOUS
 10
10.2451907777
 20
9.009891804
 40
0.5
100
AcDbArc
 50
249.2191313208
 51
251.4058686791
  0
ARC
  5
308
100
AcDbEntity
  8
0
100
AcDbCircle
 62
7
  6
CONTINUOUS
 10
10.2451907777
 20
9.009891804
 40
0.5
100
AcDbArc
 50
254.8441313208
 51
257.0308686792
  0
ARC
  5
309
100
AcDbEntity
  8
0
100
AcDbCircle
 62
7
  6
CONTINUOUS
 10
10.2451907777
 20
9.009891804
 40
0.5
100
AcDbArc
 50
260.4691313208
 51
262.6558686791
  0
ARC
  5
30A
100
AcDbEntity
  8
0
100
AcDbCircle
 62
7
  6
CONTINUOUS
 10
10.2451907777
 20
9.009891804
 40
0.5
100
AcDbArc
 50
266.0941313209
 51
268.2808686791
  0
ARC
  5
30B
100
AcDbEntity
  8
0
100
AcDbCircle
 62
7
  6
CONTINUOUS
 10
10.2451907777
 20
9.009891804
 40
0.5
100
AcDbArc
 50
271.7191313209
 51
273.9058686791
  0
ARC
  5
30C
100
AcDbEntity
  8
0
100
AcDbCircle
 62
7
  6
CONTINUOUS
 10
10.2451907777
 20
9.009891804
 40
0.5
100
AcDbArc
 50
277.3441313209
 51
279.5308686791
  0
ARC
  5
30D
100
AcDbEntity
  8
0
100
AcDbCircle
 62
7
  6
CONTINUOUS
 10
10.2451907777
 20
9.009891804
 40
0.5
100
AcDbArc
 50
282.9691313209
 51
285.1558686792
  0
ARC
  5
30E
100
AcDbEntity
  8
0
100
AcDbCircle
 62
7
  6
CONTINUOUS
 10
10.2451907777
 20
9.009891804
 40
0.5
100
AcDbArc
 50
288.5941313209
 51
290.7808686792
  0
ARC
  5
30F
100
AcDbEntity
  8
0
100
AcDbCircle
 62
7
  6
CONTINUOUS
 10
10.2451907777
 20
9.009891804
 40
0.5
100
AcDbArc
 50
294.2191313209
 51
296.4058686792
  0
ARC
  5
310
100
AcDbEntity
  8
0
100
AcDbCircle
 62
7
  6
CONTINUOUS
 10
10.2451907777
 20
9.009891804
 40
0.5
100
AcDbArc
 50
299.8441313209
 51
302.0308686792
  0
ARC
  5
311
100
AcDbEntity
  8
0
100
AcDbCircle
 62
7
  6
CONTINUOUS
 10
10.2451907777
 20
9.009891804
 40
0.5
100
AcDbArc
 50
305.4691313209
 51
307.6558686792
  0
ARC
  5
312
100
AcDbEntity
  8
0
100
AcDbCircle
 62
7
  6
CONTINUOUS
 10
11.0881907777
 20
9.009891804
 40
0.339
100
AcDbArc
 50
131.8413425327
 51
152.3155476719
  0
ARC
  5
313
100
AcDbEntity
  8
0
100
AcDbCircle
 62
7
  6
CONTINUOUS
 10
10.5681907777
 20
9.497391804
 40
0.05
100
AcDbArc
 50
180.0
 51
270.0
  0
ARC
  5
314
100
AcDbEntity
  8
0
100
AcDbCircle
 62
7
  6
CONTINUOUS
 10
13.3247383251
 20
9.0098915481
 40
1.9276841894
100
AcDbArc
 50
196.8539381226
 51
209.2020561443
  0
ARC
  5
315
100
AcDbEntity
  8
0
100
AcDbCircle
 62
7
  6
CONTINUOUS
 10
11.6419956514
 20
7.7893918125
 40
0.202
100
AcDbArc
 50
19.0611164949
 51
84.816094898
  0
ARC
  5
316
100
AcDbEntity
  8
0
100
AcDbCircle
 62
7
  6
CONTINUOUS
 10
12.1113999148
 20
7.8578907127
 40
0.196
100
AcDbArc
 50
184.6820967714
 51
270.1911997222
  0
ARC
  5
317
100
AcDbEntity
  8
0
100
AcDbCircle
 62
7
  6
CONTINUOUS
 10
11.6620539783
 20
8.0104837922
 40
0.02
100
AcDbArc
 50
180.0
 51
264.816094898
  0
ARC
  5
318
100
AcDbEntity
  8
0
100
AcDbCircle
 62
7
  6
CONTINUOUS
 10
11.85182356
 20
7.861891804
 40
0.02
100
AcDbArc
 50
199.0611164952
 51
270.0
  0
ARC
  5
319
100
AcDbEntity
  8
0
100
AcDbCircle
 62
7
  6
CONTINUOUS
 10
13.324738162
 20
9.009891804
 40
1.9276841837
100
AcDbArc
 50
150.7979348328
 51
163.1460528921
  0
ARC
  5
31A
100
AcDbEntity
  8
0
100
AcDbCircle
 62
7
  6
CONTINUOUS
 10
11.6419956514
 20
10.2303917956
 40
0.202
100
AcDbArc
 50
275.183905102
 51
340.9388835051
  0
ARC
  5
31B
100
AcDbEntity
  8
0
100
AcDbCircle
 62
7
  6
CONTINUOUS
 10
12.1113999148
 20
10.1618928954
 40
0.196
100
AcDbArc
 50
89.8088002778
 51
175.3179032286
  0
ARC
  5
31C
100
AcDbEntity
  8
0
100
AcDbCircle
 62
7
  6
CONTINUOUS
 10
11.6620539783
 20
10.0092998158
 40
0.02
100
AcDbArc
 50
95.183905102
 51
180.0
  0
ARC
  5
31D
100
AcDbEntity
  8
0
100
AcDbCircle
 62
7
  6
CONTINUOUS
 10
11.85182356
 20
10.157891804
 40
0.02
100
AcDbArc
 50
90.0
 51
160.9388835048
  0
SPLINE
  5
31E
100
AcDbEntity
  8
0
100
AcDbSpline
 62
7
  6
CONTINUOUS
 70
0
 71
3
 72
17
 73
13
 74
0
 42
0.0000001
 43
0.0000001
 44
0.0000000001
 40
0.0
 40
0.0
 40
0.0
 40
0.0
 40
0.1249882523
 40
0.249990133
 40
0.3124964864
 40
0.3750005667
 40
0.5
 40
0.6249994333
 40
0.6875035136
 40
0.7500098669
 40
0.8750117477
 40
1.0
 40
1.0
 40
1.0
 40
1.0
 10
10.9694411284
 20
9.214491413
 30
0.0
 10
10.9657071695
 20
9.1977064696
 30
0.0
 10
10.9589837245
 20
9.1639629325
 30
0.0
 10
10.9527221356
 20
9.1214075657
 30
0.0
 10
10.9491468762
 20
9.0871941523
 30
0.0
 10
10.9465565786
 20
9.0528924948
 30
0.0
 10
10.9452512865
 20
9.009891804
 30
0.0
 10
10.9465565786
 20
8.9668911133
 30
0.0
 10
10.9491468762
 20
8.9325894558
 30
0.0
 10
10.9527221356
 20
8.8983760424
 30
0.0
 10
10.9589837245
 20
8.8558206755
 30
0.0
 10
10.9657071695
 20
8.8220771385
 30
0.0
 10
10.9694411284
 20
8.8052921951
 30
0.0
  0
ENDSEC
  0
SECTION
  2
OBJECTS
  0
DICTIONARY
  5
C
100
AcDbDictionary
280
0
281
1
  3
ACAD_GROUP
350
D
  3
ACAD_MLINESTYLE
350
17
  3
ACAD_LAYOUT
350
1A
  3
ACAD_PLOTSETTINGS
350
19
  3
ACAD_PLOTSTYLENAME
350
E
  0
DICTIONARY
  5
D
102
{ACAD_REACTORS
330
C
102
}
100
AcDbDictionary
280
0
281
1
  0
ACDBDICTIONARYWDFLT
  5
E
102
{ACAD_REACTORS
330
C
102
}
100
AcDbDictionary
281
1
  3
Normal
350
F
100
AcDbDictionaryWithDefault
340
F
  0
DICTIONARY
  5
17
102
{ACAD_REACTORS
330
C
102
}
100
AcDbDictionary
280
0
281
1
  3
Standard
350
18
  0
DICTIONARY
  5
19
102
{ACAD_REACTORS
330
C
102
}
100
AcDbDictionary
281
1
  0
DICTIONARY
  5
1A
102
{ACAD_REACTORS
330
C
102
}
100
AcDbDictionary
281
1
  3
Model
350
31F
  3
Layout1
350
320
  0
ACDBPLACEHOLDER
  5
F
102
{ACAD_REACTORS
330
E
102
}
  0
MLINESTYLE
  5
18
102
{ACAD_REACTORS
330
17
102
}
100
AcDbMlineStyle
  2
STANDARD
 70
0
  3

 62
256
 51
90.0
 52
90.0
 71
2
 49
0.5
 62
256
  6
BYLAYER
 49
-0.5
 62
256
  6
BYLAYER
  0
LAYOUT
  5
31F
102
{ACAD_REACTORS
330
1A
102
}
100
AcDbPlotSettings
  1

  2
none_device
  4
ANSI_C_(22.00_x_17.00_Inches)
  6

 40
0.0
 41
0.0
 42
0.0
 43
0.0
 44
558.8
 45
431.8
 46
0.0
 47
0.0
 48
0.0
 49
0.0
140
0.0
141
0.0
142
1.0
143
1.0
 70
1024
 72
0
 73
0
 74
0
  7

 75
0
147
1.0
148
0.0
149
0.0
100
AcDbLayout
  1
Model
 70
0
 71
0
 10
0.0
 20
0.0
 11
22.0
 21
17.0
 12
0.0
 22
0.0
 32
0.0
 14
0.0
 24
0.0
 34
0.0
 15
0.0
 25
0.0
 35
0.0
146
0.0
 13
0.0
 23
0.0
 33
0.0
 16
1.0
 26
0.0
 36
0.0
 17
0.0
 27
1.0
 37
0.0
 76
0
330
202
345
0
346
0
  0
LAYOUT
  5
320
102
{ACAD_REACTORS
330
1A
102
}
100
AcDbPlotSettings
  1

  2
none_device
  4
ANSI_C_(22.00_x_17.00_Inches)
  6

 40
0.0
 41
0.0
 42
0.0
 43
0.0
 44
558.8
 45
431.8
 46
0.0
 47
0.0
 48
0.0
 49
0.0
140
0.0
141
0.0
142
1.0
143
1.0
 70
0
 72
0
 73
0
 74
0
  7

 75
0
147
1.0
148
0.0
149
0.0
100
AcDbLayout
  1
Layout1
 70
0
 71
1
 10
0.0
 20
0.0
 11
22.0
 21
17.0
 12
0.0
 22
0.0
 32
0.0
 14
0.0
 24
0.0
 34
0.0
 15
0.0
 25
0.0
 35
0.0
146
0.0
 13
0.0
 23
0.0
 33
0.0
 16
1.0
 26
0.0
 36
0.0
 17
0.0
 27
1.0
 37
0.0
 76
0
330
203
345
0
346
0
  0
ENDSEC
  0
EOF
