999
DXF file: E:\BT Custom\CADOUTPUT\_RIGHT.dxf
999
Pro/ENGINEER 2018400 by Parametric Technology Corporation
  0
SECTION
  2
HEADER
  9
$ACADVER
  1
AC1018
  9
$DWGCODEPAGE
  3
ANSI_1252
  9
$EXTMAX
 10
22.0
 20
17.0
 30
0.0
  9
$EXTMIN
 10
0.0
 20
0.0
 30
0.0
  9
$LIMMIN
 10
0.0
 20
0.0
  9
$LIMMAX
 10
22.0
 20
17.0
  9
$VIEWCTR
 10
11.0
 20
8.5
  9
$VIEWSIZE
 40
17.0
  9
$CLAYER
  8
0
  9
$LTSCALE
 40
1.21
  9
$CELTYPE
  6
BYLAYER
  9
$DIMSCALE
 40
1.0
  9
$DIMASZ
 40
0.1
  9
$DIMEXO
 40
0.0625
  9
$DIMDLI
 40
0.836
  9
$DIMEXE
 40
0.125
  9
$DIMCEN
 40
0.198
  9
$DIMLFAC
 40
1.0
  9
$DIMBLK
  1
_FILLED
  9
$DIMALT
 70
1
  9
$DIMALTD
 70
2
  9
$DIMALTTD
 70
2
  9
$DIMALTF
 40
25.4
  9
$DIMTXT
 40
0.08
  9
$DIMTOL
 70
1
  9
$DIMLIM
 70
0
  9
$DIMTFAC
 40
1.0
  9
$DIMTP
 40
0.001
  9
$DIMTM
 40
0.001
  9
$DIMGAP
 40
0.09
  9
$DIMDSEP
 70
46
  9
$AUNITS
 70
0
  9
$PDMODE
 70
3
  9
$PDSIZE
 40
0.06
  9
$HANDSEED
  5
506
  9
$TILEMODE
 70
1
  9
$MEASUREMENT
 70
0
  9
$INSUNITS
 70
1
  0
ENDSEC
  0
SECTION
  2
CLASSES
  0
CLASS
  1
ACDBDICTIONARYWDFLT
  2
AcDbDictionaryWithDefault
  3
AutoCAD 2000
 90
0
 91
1
280
0
281
0
  0
CLASS
  1
ACDBPLACEHOLDER
  2
AcDbPlaceHolder
  3
AutoCAD 2000
 90
0
 91
1
280
0
281
0
  0
CLASS
  1
LAYOUT
  2
AcDbLayout
  3
AutoCAD 2000
 90
0
 91
0
280
0
281
0
  0
ENDSEC
  0
SECTION
  2
TABLES
  0
TABLE
  2
VPORT
  5
8
100
AcDbSymbolTable
 70
2
  0
VPORT
  5
1F4
100
AcDbSymbolTableRecord
100
AcDbViewportTableRecord
  2
*ACTIVE
 70
0
 10
0.0
 20
0.0
 11
1.0
 21
1.0
 12
11.0
 22
8.5
 13
0.0
 23
0.0
 14
1.0
 24
1.0
 15
0.0
 25
0.0
 16
0.0
 26
0.0
 36
1.0
 17
0.0
 27
0.0
 37
0.0
 40
17.0
 41
1.2941176471
 42
50.0
 43
0.0
 44
0.0
 50
0.0
 51
0.0
 71
0
 72
100
 73
1
 74
1
 75
0
 76
0
 77
0
 78
0
  0
ENDTAB
  0
TABLE
  2
LTYPE
  5
5
100
AcDbSymbolTable
 70
6
  0
LTYPE
  5
14
100
AcDbSymbolTableRecord
100
AcDbLinetypeTableRecord
  2
BYBLOCK
 70
0
  3

 72
65
 73
0
 40
0.0
  0
LTYPE
  5
15
100
AcDbSymbolTableRecord
100
AcDbLinetypeTableRecord
  2
BYLAYER
 70
0
  3

 72
65
 73
0
 40
0.0
  0
LTYPE
  5
16
100
AcDbSymbolTableRecord
100
AcDbLinetypeTableRecord
  2
CONTINUOUS
 70
64
  3
Solid line
 72
65
 73
0
 40
0.0
  0
LTYPE
  5
1F5
100
AcDbSymbolTableRecord
100
AcDbLinetypeTableRecord
  2
CENTER
 70
64
  3
____ _ ____ _ ____ _ ____ _ ____ _ ____ _ ____
 72
65
 73
4
 40
0.6
 49
0.375
 74
0
 49
-0.075
 74
0
 49
0.075
 74
0
 49
-0.075
 74
0
  0
LTYPE
  5
1F6
100
AcDbSymbolTableRecord
100
AcDbLinetypeTableRecord
  2
HIDDEN
 70
64
  3
- - - - - - - - - - - - - - - - - - - -
 72
65
 73
2
 40
0.2
 49
0.1
 74
0
 49
-0.1
 74
0
  0
LTYPE
  5
1F7
100
AcDbSymbolTableRecord
100
AcDbLinetypeTableRecord
  2
PHANTOM
 70
64
  3
_____ _ _ _____ _ _ _____ _ _ _____
 72
65
 73
6
 40
0.8
 49
0.45
 74
0
 49
-0.05
 74
0
 49
0.1
 74
0
 49
-0.05
 74
0
 49
0.1
 74
0
 49
-0.05
 74
0
  0
LTYPE
  5
1F8
100
AcDbSymbolTableRecord
100
AcDbLinetypeTableRecord
  2
DOT
 70
64
  3
. . . . . . . . . . . . . . . . . . . .
 72
65
 73
2
 40
0.2
 49
0.1
 74
0
 49
-0.1
 74
0
  0
LTYPE
  5
1F9
100
AcDbSymbolTableRecord
100
AcDbLinetypeTableRecord
  2
DASHED
 70
64
  3
- - - - - - - - - - - - - - - - - - - -
 72
65
 73
2
 40
0.2
 49
0.1
 74
0
 49
-0.1
 74
0
  0
ENDTAB
  0
TABLE
  2
LAYER
  5
2
100
AcDbSymbolTable
 70
36
  0
LAYER
  5
10
100
AcDbSymbolTableRecord
100
AcDbLayerTableRecord
  2
0
 70
0
 62
7
  6
CONTINUOUS
370
-3
390
F
  0
LAYER
  5
1FA
100
AcDbSymbolTableRecord
100
AcDbLayerTableRecord
  2
DEFAULT_1
 70
0
 62
7
  6
CENTER
370
-3
390
F
  0
LAYER
  5
1FB
100
AcDbSymbolTableRecord
100
AcDbLayerTableRecord
  2
DEFAULT_2
 70
0
 62
8
  6
HIDDEN
370
-3
390
F
  0
LAYER
  5
1FC
100
AcDbSymbolTableRecord
100
AcDbLayerTableRecord
  2
DEFAULT_3
 70
0
 62
7
  6
PHANTOM
370
-3
390
F
  0
LAYER
  5
1FD
100
AcDbSymbolTableRecord
100
AcDbLayerTableRecord
  2
ALL_FEATURES
 70
0
 62
7
  6
CONTINUOUS
370
-3
390
F
  0
LAYER
  5
1FE
100
AcDbSymbolTableRecord
100
AcDbLayerTableRecord
  2
AXES_FEATURES
 70
0
 62
7
  6
CONTINUOUS
370
-3
390
F
  0
LAYER
  5
1FF
100
AcDbSymbolTableRecord
100
AcDbLayerTableRecord
  2
DIMENSIONS
 70
0
 62
7
  6
CONTINUOUS
370
-3
390
F
  0
ENDTAB
  0
TABLE
  2
STYLE
  5
3
100
AcDbSymbolTable
 70
1
  0
STYLE
  5
11
100
AcDbSymbolTableRecord
100
AcDbTextStyleTableRecord
  2
STANDARD
 70
0
 40
0.0
 41
0.8
 50
0.0
 71
0
 42
0.2
  3
txt
  4

  0
STYLE
  5
200
100
AcDbSymbolTableRecord
100
AcDbTextStyleTableRecord
  2
TEXTSTYLE_1
 70
0
 40
0.0
 41
0.8
 50
0.0
 71
0
 42
0.2
  3
gdt
  4

  0
ENDTAB
  0
TABLE
  2
VIEW
  5
6
100
AcDbSymbolTable
 70
0
  0
ENDTAB
  0
TABLE
  2
UCS
  5
7
100
AcDbSymbolTable
 70
0
  0
ENDTAB
  0
TABLE
  2
APPID
  5
9
100
AcDbSymbolTable
 70
1
  0
APPID
  5
201
100
AcDbSymbolTableRecord
100
AcDbRegAppTableRecord
  2
ACAD
 70
0
  0
ENDTAB
  0
TABLE
  2
BLOCK_RECORD
  5
1
100
AcDbSymbolTable
 70
0
  0
BLOCK_RECORD
  5
202
100
AcDbSymbolTableRecord
100
AcDbBlockTableRecord
  2
*Model_Space
  0
BLOCK_RECORD
  5
203
100
AcDbSymbolTableRecord
100
AcDbBlockTableRecord
  2
*Paper_Space
  0
BLOCK_RECORD
  5
204
100
AcDbSymbolTableRecord
100
AcDbBlockTableRecord
  2
_FILLED
  0
ENDTAB
  0
TABLE
  2
DIMSTYLE
  5
A
100
AcDbSymbolTable
 70
1
100
AcDbDimStyleTable
 71
0
  0
DIMSTYLE
105
205
100
AcDbSymbolTableRecord
100
AcDbDimStyleTableRecord
  2
STANDARD
 70
0
  3

  4

 40
1.0
 41
0.1
 42
0.0625
 43
0.38
 44
0.125
 45
0.0
 46
0.0
 47
0.001
 48
0.001
140
0.08
141
0.09
142
0.0
143
25.4
144
1.0
145
0.0
146
1.0
147
0.09
 71
1.0
 72
0.0
 73
1
 74
1
 75
0
 76
0
 77
0
 78
4
 79
1
170
1
171
2
172
0
173
0
174
0
175
0
176
0
177
0
178
0
270
2
179
3
271
3
272
3
273
2
274
2
275
0
280
0
281
0
282
0
283
1
284
4
285
0
286
0
287
3
288
0
340
11
278
46
341
204
342
204
343
204
344
204
  0
ENDTAB
  0
ENDSEC
  0
SECTION
  2
BLOCKS
  0
BLOCK
  5
20
100
AcDbEntity
  8
0
100
AcDbBlockBegin
  2
*Model_Space
 70
0
 10
0.0
 20
0.0
 30
0.0
  3
*Model_Space
  1

  0
ENDBLK
  5
21
100
AcDbEntity
  8
0
100
AcDbBlockEnd
  0
BLOCK
  5
1C
100
AcDbEntity
  8
0
100
AcDbBlockBegin
  2
*Paper_Space
 70
0
 10
0.0
 20
0.0
 30
0.0
  3
*Paper_Space
  1

  0
ENDBLK
  5
1D
100
AcDbEntity
  8
0
100
AcDbBlockEnd
  0
BLOCK
  5
206
100
AcDbEntity
  8
0
100
AcDbBlockBegin
  2
_FILLED
 70
64
 10
0.0
 20
0.0
  3
_FILLED
  1

  0
SOLID
  5
207
100
AcDbEntity
  8
0
  6
BYBLOCK
 62
0
100
AcDbTrace
 10
0.0
 20
0.0
 11
-1.0
 21
0.2
 12
-1.0
 22
-0.2
 13
-1.0
 23
-0.2
  0
ENDBLK
  5
208
100
AcDbEntity
  8
0
  6
BYBLOCK
 62
0
100
AcDbBlockEnd
  0
ENDSEC
  0
SECTION
  2
ENTITIES
  0
LINE
  5
209
100
AcDbEntity
  8
0
100
AcDbLine
 62
7
  6
CONTINUOUS
 10
9.5741887656
 20
9.8701802459
 11
9.5723308813
 21
9.8672599111
  0
LINE
  5
20A
100
AcDbEntity
  8
0
100
AcDbLine
 62
7
  6
CONTINUOUS
 10
9.5772041517
 20
9.8727017952
 11
9.5741887656
 21
9.8701802459
  0
LWPOLYLINE
  5
20B
100
AcDbEntity
  8
0
100
AcDbPolyline
 62
7
  6
CONTINUOUS
 90
3
 70
0
 10
9.5733939261
 20
8.1507862723
 10
9.5751192851
 20
8.1486489902
 10
9.5759243259
 20
8.1481057588
  0
LINE
  5
20C
100
AcDbEntity
  8
0
100
AcDbLine
 62
7
  6
CONTINUOUS
 10
9.5723308813
 20
9.8672599111
 11
9.572109727
 21
9.8666067152
  0
LINE
  5
20D
100
AcDbEntity
  8
0
100
AcDbLine
 62
7
  6
CONTINUOUS
 10
9.662443677
 20
7.759891804
 11
10.096443677
 21
7.759891804
  0
LWPOLYLINE
  5
20E
100
AcDbEntity
  8
0
100
AcDbPolyline
 62
7
  6
CONTINUOUS
 90
10
 70
0
 10
9.5702909131
 20
8.1651939866
 10
9.570573489
 20
8.1622647001
 10
9.5708173929
 20
8.1599075103
 10
9.5710285715
 20
8.1580563548
 10
9.5712232684
 20
8.1565885265
 10
9.5714640662
 20
8.1552122938
 10
9.5721154397
 20
8.1530315689
 10
9.5737864262
 20
8.1500969578
 10
9.5766539267
 20
8.1474262225
 10
9.5806840779
 20
8.1457081663
  0
LWPOLYLINE
  5
20F
100
AcDbEntity
  8
0
100
AcDbPolyline
 62
7
  6
CONTINUOUS
 90
4
 70
0
 10
9.5673929041
 20
8.4310414349
 10
9.5679784482
 20
8.4249094086
 10
9.5685636276
 20
8.4197971467
 10
9.5691530758
 20
8.4156474749
  0
LWPOLYLINE
  5
210
100
AcDbEntity
  8
0
100
AcDbPolyline
 62
7
  6
CONTINUOUS
 90
3
 70
0
 10
9.5681499329
 20
8.2709222432
 10
9.5686611236
 20
8.2652717332
 10
9.5691479526
 20
8.2603987653
  0
LINE
  5
211
100
AcDbEntity
  8
0
100
AcDbLine
 62
7
  6
CONTINUOUS
 10
9.5696004161
 20
8.1729396869
 11
9.5702909131
 21
8.1651939866
  0
LINE
  5
212
100
AcDbEntity
  8
0
100
AcDbLine
 62
7
  6
CONTINUOUS
 10
9.5691966032
 20
8.177747797
 11
9.5696004161
 21
8.1729396869
  0
LINE
  5
213
100
AcDbEntity
  8
0
100
AcDbLine
 62
7
  6
CONTINUOUS
 10
9.5676232165
 20
8.2772982822
 11
9.5681499329
 21
8.2709222432
  0
LINE
  5
214
100
AcDbEntity
  8
0
100
AcDbLine
 62
9
  6
CONTINUOUS
 10
9.5649136874
 20
8.7727518121
 11
9.5648843867
 21
8.7731370302
  0
LINE
  5
215
100
AcDbEntity
  8
0
100
AcDbLine
 62
7
  6
CONTINUOUS
 10
9.5670896285
 20
8.2843588336
 11
9.5676232165
 21
8.2772982822
  0
LWPOLYLINE
  5
216
100
AcDbEntity
  8
0
100
AcDbPolyline
 62
7
  6
CONTINUOUS
 90
3
 70
0
 10
9.5659001663
 20
8.7327277973
 10
9.5664227523
 20
8.7254386472
 10
9.5669964278
 20
8.7194043666
  0
LINE
  5
217
100
AcDbEntity
  8
0
100
AcDbLine
 62
7
  6
CONTINUOUS
 10
9.5665615062
 20
8.2920243286
 11
9.5670896285
 21
8.2843588336
  0
LWPOLYLINE
  5
218
100
AcDbEntity
  8
0
100
AcDbPolyline
 62
7
  6
CONTINUOUS
 90
3
 70
0
 10
9.5662790524
 20
8.4460207779
 10
9.5668200273
 20
8.4381265667
 10
9.5673929041
 20
8.4310414349
  0
LINE
  5
219
100
AcDbEntity
  8
0
100
AcDbLine
 62
9
  6
CONTINUOUS
 10
9.5649286047
 20
8.480573672
 11
9.5648994404
 21
8.4810043905
  0
LINE
  5
21A
100
AcDbEntity
  8
0
100
AcDbLine
 62
7
  6
CONTINUOUS
 10
9.5660566432
 20
8.3001541534
 11
9.5665615062
 21
8.2920243286
  0
LINE
  5
21B
100
AcDbEntity
  8
0
100
AcDbLine
 62
7
  6
CONTINUOUS
 10
9.5657929483
 20
8.4545062881
 11
9.5662790524
 21
8.4460207779
  0
LINE
  5
21C
100
AcDbEntity
  8
0
100
AcDbLine
 62
7
  6
CONTINUOUS
 10
9.5656009603
 20
8.3084847884
 11
9.5660566432
 21
8.3001541534
  0
LINE
  5
21D
100
AcDbEntity
  8
0
100
AcDbLine
 62
7
  6
CONTINUOUS
 10
9.5654521173
 20
8.7411786004
 11
9.5659001663
 21
8.7327277973
  0
LINE
  5
21E
100
AcDbEntity
  8
0
100
AcDbLine
 62
7
  6
CONTINUOUS
 10
9.565385965
 20
8.4632980015
 11
9.5657929483
 21
8.4545062881
  0
LINE
  5
21F
100
AcDbEntity
  8
0
100
AcDbLine
 62
9
  6
CONTINUOUS
 10
9.5648829665
 20
8.3305683708
 11
9.5648530006
 21
8.3313022823
  0
LINE
  5
220
100
AcDbEntity
  8
0
100
AcDbLine
 62
7
  6
CONTINUOUS
 10
9.5651073626
 20
8.7506155881
 11
9.5654521173
 21
8.7411786004
  0
LWPOLYLINE
  5
221
100
AcDbEntity
  8
0
100
AcDbPolyline
 62
7
  6
CONTINUOUS
 90
9
 70
0
 10
9.5650132071
 20
9.2403673588
 10
9.5652325286
 20
9.2342900499
 10
9.5655425091
 20
9.2291741259
 10
9.5659454952
 20
9.2249937947
 10
9.5664614844
 20
9.2216758545
 10
9.5673109338
 20
9.2185638428
 10
9.5694684768
 20
9.2146656503
 10
9.5737665772
 20
9.2112097171
 10
9.5780564353
 20
9.2100213345
  0
LINE
  5
222
100
AcDbEntity
  8
0
100
AcDbLine
 62
7
  6
CONTINUOUS
 10
9.5650824835
 20
8.4720677032
 11
9.565385965
 21
8.4632980015
  0
LWPOLYLINE
  5
223
100
AcDbEntity
  8
0
100
AcDbPolyline
 62
7
  6
CONTINUOUS
 90
10
 70
0
 10
9.5649604609
 20
8.9986875788
 10
9.5652113738
 20
8.9898280551
 10
9.5655779452
 20
8.9821790709
 10
9.5660330625
 20
8.9758602398
 10
9.5665619574
 20
8.9708354506
 10
9.5671819796
 20
8.9669071687
 10
9.5680491914
 20
8.9635554613
 10
9.570022663
 20
8.9596410589
 10
9.5744157098
 20
8.9558057246
 10
9.5790427209
 20
8.9544496063
  0
LWPOLYLINE
  5
224
100
AcDbEntity
  8
0
100
AcDbPolyline
 62
7
  6
CONTINUOUS
 90
8
 70
0
 10
9.5648601299
 20
9.6870639153
 10
9.5649102576
 20
9.684841321
 10
9.5650088412
 20
9.6830900573
 10
9.5652117397
 20
9.6813422659
 10
9.5658762849
 20
9.6787295479
 10
9.5679946197
 20
9.6750214155
 10
9.5720108991
 20
9.671869423
 10
9.573927376
 20
9.6713388437
  0
LINE
  5
225
100
AcDbEntity
  8
0
100
AcDbLine
 62
7
  6
CONTINUOUS
 10
9.5648994285
 20
8.4810045956
 11
9.5650824835
 21
8.4720677032
  0
LINE
  5
226
100
AcDbEntity
  8
0
100
AcDbLine
 62
7
  6
CONTINUOUS
 10
9.5649000763
 20
8.7607220875
 11
9.5651073626
 21
8.7506155881
  0
LINE
  5
227
100
AcDbEntity
  8
0
100
AcDbLine
 62
7
  6
CONTINUOUS
 10
9.5648992933
 20
9.2466461693
 11
9.5650132071
 21
9.2403673588
  0
LINE
  5
228
100
AcDbEntity
  8
0
100
AcDbLine
 62
7
  6
CONTINUOUS
 10
9.5648546414
 20
9.0085066813
 11
9.5649604609
 21
8.9986875788
  0
LINE
  5
229
100
AcDbEntity
  8
0
100
AcDbLine
 62
7
  6
CONTINUOUS
 10
9.5648866044
 20
9.2480150642
 11
9.5648993086
 21
9.2466457872
  0
LWPOLYLINE
  5
22A
100
AcDbEntity
  8
0
100
AcDbPolyline
 62
7
  6
CONTINUOUS
 90
8
 70
0
 10
9.5648529898
 20
9.6884805129
 10
9.5648737704
 20
9.6861481413
 10
9.5649512472
 20
9.6839507822
 10
9.5651019493
 20
9.6821363688
 10
9.5655297362
 20
9.6798352886
 10
9.5672012095
 20
9.6760895989
 10
9.5710775475
 20
9.672375358
 10
9.5762373682
 20
9.6706992587
  0
LINE
  5
22B
100
AcDbEntity
  8
0
100
AcDbLine
 62
7
  6
CONTINUOUS
 10
9.5648664747
 20
8.7710342224
 11
9.5649000763
 21
8.7607220875
  0
LWPOLYLINE
  5
22C
100
AcDbEntity
  8
0
100
AcDbPolyline
 62
7
  6
CONTINUOUS
 90
5
 70
0
 10
9.5648529949
 20
8.3313120861
 10
9.5648547294
 20
8.3305513652
 10
9.5649657606
 20
8.3241584848
 10
9.5652259867
 20
8.3166378467
 10
9.5656009603
 20
8.3084847884
  0
LINE
  5
22D
100
AcDbEntity
  8
0
100
AcDbLine
 62
7
  6
CONTINUOUS
 10
9.5648529897
 20
9.0098918045
 11
9.5648546414
 21
9.0085066813
  0
LINE
  5
22E
100
AcDbEntity
  8
0
100
AcDbLine
 62
7
  6
CONTINUOUS
 10
9.5649058199
 20
9.2582732135
 11
9.5648866044
 21
9.2480150642
  0
LWPOLYLINE
  5
22F
100
AcDbEntity
  8
0
100
AcDbPolyline
 62
7
  6
CONTINUOUS
 90
9
 70
0
 10
9.5648845104
 20
9.5387799318
 10
9.5648569647
 20
9.5334563606
 10
9.5649275823
 20
9.5279459613
 10
9.5651105241
 20
9.5235587011
 10
9.5654246594
 20
9.5201405894
 10
9.5660876919
 20
9.5168984977
 10
9.5680929802
 20
9.5128208508
 10
9.5722463389
 20
9.5092258559
 10
9.5768759544
 20
9.5078574441
  0
LINE
  5
230
100
AcDbEntity
  8
0
100
AcDbLine
 62
7
  6
CONTINUOUS
 10
9.5648843833
 20
8.7731377921
 11
9.5648664747
 21
8.7710342224
  0
LINE
  5
231
100
AcDbEntity
  8
0
100
AcDbLine
 62
7
  6
CONTINUOUS
 10
9.5649616634
 20
9.0211573774
 11
9.5648530006
 21
9.0098918033
  0
LINE
  5
232
100
AcDbEntity
  8
0
100
AcDbLine
 62
7
  6
CONTINUOUS
 10
9.5649786683
 20
8.7786349234
 11
9.5648843867
 21
8.7731370302
  0
LINE
  5
233
100
AcDbEntity
  8
0
100
AcDbLine
 62
7
  6
CONTINUOUS
 10
9.5650229236
 20
9.5460566575
 11
9.5648845307
 21
9.538780796
  0
LINE
  5
234
100
AcDbEntity
  8
0
100
AcDbLine
 62
7
  6
CONTINUOUS
 10
9.5650995863
 20
9.2683579677
 11
9.5649058199
 21
9.2582732135
  0
LWPOLYLINE
  5
235
100
AcDbEntity
  8
0
100
AcDbPolyline
 62
7
  6
CONTINUOUS
 90
3
 70
0
 10
9.5648908237
 20
9.7782904315
 10
9.5648573607
 20
9.7766509688
 10
9.5648753803
 20
9.7752884983
  0
LWPOLYLINE
  5
236
100
AcDbEntity
  8
0
100
AcDbPolyline
 62
7
  6
CONTINUOUS
 90
4
 70
0
 10
9.5649289856
 20
9.7790039567
 10
9.5648820731
 20
9.7773484483
 10
9.5648722544
 20
9.7760504063
 10
9.5649202161
 20
9.774757552
  0
LWPOLYLINE
  5
237
100
AcDbEntity
  8
0
100
AcDbPolyline
 62
7
  6
CONTINUOUS
 90
3
 70
0
 10
9.5651306561
 20
9.7007024627
 10
9.5649268012
 20
9.6940820742
 10
9.5648530007
 20
9.6884825353
  0
LINE
  5
238
100
AcDbEntity
  8
0
100
AcDbLine
 62
7
  6
CONTINUOUS
 10
9.5652850752
 20
9.5542920812
 11
9.5650229236
 21
9.5460566575
  0
LINE
  5
239
100
AcDbEntity
  8
0
100
AcDbLine
 62
7
  6
CONTINUOUS
 10
9.5654324387
 20
9.2778187299
 11
9.5650995863
 21
9.2683579677
  0
LINE
  5
23A
100
AcDbEntity
  8
0
100
AcDbLine
 62
7
  6
CONTINUOUS
 10
9.5650157442
 20
9.7811594687
 11
9.5648908237
 21
9.7782904315
  0
LINE
  5
23B
100
AcDbEntity
  8
0
100
AcDbLine
 62
9
  6
CONTINUOUS
 10
9.5648829665
 20
9.6892152365
 11
9.5648530007
 21
9.6884825353
  0
LINE
  5
23C
100
AcDbEntity
  8
0
100
AcDbLine
 62
7
  6
CONTINUOUS
 10
9.5656449172
 20
9.5626259857
 11
9.5652850752
 21
9.5542920812
  0
LINE
  5
23D
100
AcDbEntity
  8
0
100
AcDbLine
 62
7
  6
CONTINUOUS
 10
9.565146531
 20
9.7838800246
 11
9.5649715169
 21
9.7804844036
  0
LWPOLYLINE
  5
23E
100
AcDbEntity
  8
0
100
AcDbPolyline
 62
7
  6
CONTINUOUS
 90
3
 70
0
 10
9.5656274989
 20
9.0384204697
 10
9.5652309223
 20
9.0304641896
 10
9.5649616634
 20
9.0211573774
  0
LWPOLYLINE
  5
23F
100
AcDbEntity
  8
0
100
AcDbPolyline
 62
7
  6
CONTINUOUS
 90
3
 70
0
 10
9.5658257683
 20
9.7155595838
 10
9.5654378699
 20
9.7079592904
 10
9.5651306561
 20
9.7007024627
  0
LINE
  5
240
100
AcDbEntity
  8
0
100
AcDbLine
 62
7
  6
CONTINUOUS
 10
9.5658717067
 20
9.286347791
 11
9.5654324387
 21
9.2778187299
  0
LINE
  5
241
100
AcDbEntity
  8
0
100
AcDbLine
 62
7
  6
CONTINUOUS
 10
9.5653035412
 20
9.7870882011
 11
9.5651065877
 21
9.7833866609
  0
LINE
  5
242
100
AcDbEntity
  8
0
100
AcDbLine
 62
7
  6
CONTINUOUS
 10
9.5660820845
 20
9.5707720413
 11
9.5656449172
 21
9.5626259857
  0
LINE
  5
243
100
AcDbEntity
  8
0
100
AcDbLine
 62
7
  6
CONTINUOUS
 10
9.5662746239
 20
9.7232526236
 11
9.5658257683
 21
9.7155595838
  0
LINE
  5
244
100
AcDbEntity
  8
0
100
AcDbLine
 62
7
  6
CONTINUOUS
 10
9.5665758376
 20
9.5784736365
 11
9.5660820845
 21
9.5707720413
  0
LINE
  5
245
100
AcDbEntity
  8
0
100
AcDbLine
 62
7
  6
CONTINUOUS
 10
9.5667667895
 20
9.7308279542
 11
9.5662746239
 21
9.7232526236
  0
LWPOLYLINE
  5
246
100
AcDbEntity
  8
0
100
AcDbPolyline
 62
7
  6
CONTINUOUS
 90
3
 70
0
 10
9.5662454857
 20
9.8022865647
 10
9.5658814561
 20
9.7966936453
 10
9.5653035412
 20
9.7870882011
  0
LINE
  5
247
100
AcDbEntity
  8
0
100
AcDbLine
 62
9
  6
CONTINUOUS
 10
9.5649136874
 20
9.5392108928
 11
9.5648845307
 21
9.538780796
  0
LINE
  5
248
100
AcDbEntity
  8
0
100
AcDbLine
 62
7
  6
CONTINUOUS
 10
9.5664045078
 20
9.2941233337
 11
9.5658717067
 21
9.286347791
  0
LINE
  5
249
100
AcDbEntity
  8
0
100
AcDbLine
 62
7
  6
CONTINUOUS
 10
9.5672842442
 20
9.7380736195
 11
9.5667667895
 21
9.7308279542
  0
LINE
  5
24A
100
AcDbEntity
  8
0
100
AcDbLine
 62
7
  6
CONTINUOUS
 10
9.5671061014
 20
9.5855249516
 11
9.5665758376
 21
9.5784736365
  0
LINE
  5
24B
100
AcDbEntity
  8
0
100
AcDbLine
 62
9
  6
CONTINUOUS
 10
9.5649286047
 20
9.2470314504
 11
9.5648993044
 21
9.24664617
  0
LINE
  5
24C
100
AcDbEntity
  8
0
100
AcDbLine
 62
7
  6
CONTINUOUS
 10
9.5693892702
 20
9.8441728536
 11
9.5686436037
 21
9.8349997702
  0
LWPOLYLINE
  5
24D
100
AcDbEntity
  8
0
100
AcDbPolyline
 62
7
  6
CONTINUOUS
 90
3
 70
0
 10
9.5683275467
 20
9.7508847518
 10
9.5678095174
 20
9.7448055712
 10
9.5672842442
 20
9.7380736195
  0
LINE
  5
24E
100
AcDbEntity
  8
0
100
AcDbLine
 62
7
  6
CONTINUOUS
 10
9.570026269
 20
9.8515379436
 11
9.5693892702
 21
9.8441728536
  0
LINE
  5
24F
100
AcDbEntity
  8
0
100
AcDbLine
 62
7
  6
CONTINUOUS
 10
9.5669799917
 20
9.3002289807
 11
9.5663908445
 21
9.2937724201
  0
LINE
  5
250
100
AcDbEntity
  8
0
100
AcDbLine
 62
7
  6
CONTINUOUS
 10
9.5705488724
 20
9.8571196798
 11
9.570026269
 21
9.8515379436
  0
LWPOLYLINE
  5
251
100
AcDbEntity
  8
0
100
AcDbPolyline
 62
7
  6
CONTINUOUS
 90
3
 70
0
 10
9.5692958741
 20
9.7607612533
 10
9.568825983
 20
9.7562191657
 10
9.5683275467
 20
9.7508847518
  0
LINE
  5
252
100
AcDbEntity
  8
0
100
AcDbLine
 62
7
  6
CONTINUOUS
 10
9.5697320684
 20
9.7645068917
 11
9.5692958741
 21
9.7607612533
  0
LWPOLYLINE
  5
253
100
AcDbEntity
  8
0
100
AcDbPolyline
 62
7
  6
CONTINUOUS
 90
5
 70
0
 10
9.5693136402
 20
9.6051756847
 10
9.5687604956
 20
9.6015930972
 10
9.5682090473
 20
9.5971403033
 10
9.5676551875
 20
9.5917759645
 10
9.5671061014
 20
9.5855249516
  0
LWPOLYLINE
  5
254
100
AcDbEntity
  8
0
100
AcDbPolyline
 62
7
  6
CONTINUOUS
 90
3
 70
0
 10
9.571582953
 20
9.3164180272
 10
9.5692959256
 20
9.3124262205
 10
9.5682878353
 20
9.3089459365
  0
LINE
  5
255
100
AcDbEntity
  8
0
100
AcDbLine
 62
7
  6
CONTINUOUS
 10
9.5811421403
 20
9.8741626014
 11
9.5772041517
 21
9.8727017952
  0
LINE
  5
256
100
AcDbEntity
  8
0
100
AcDbLine
 62
7
  6
CONTINUOUS
 10
11.8807796154
 20
7.822391804
 11
11.5707796154
 21
7.822391804
  0
LINE
  5
257
100
AcDbEntity
  8
0
100
AcDbLine
 62
7
  6
CONTINUOUS
 10
9.5727462589
 20
8.4056058645
 11
9.5772741627
 21
8.4020856846
  0
LWPOLYLINE
  5
258
100
AcDbEntity
  8
0
100
AcDbPolyline
 62
7
  6
CONTINUOUS
 90
4
 70
0
 10
9.5691530758
 20
8.4156474749
 10
9.5697738279
 20
8.4123659721
 10
9.5706313278
 20
8.4094067229
 10
9.5727828421
 20
8.4055779368
  0
LWPOLYLINE
  5
259
100
AcDbEntity
  8
0
100
AcDbPolyline
 62
7
  6
CONTINUOUS
 90
7
 70
0
 10
9.5669964278
 20
8.7194043666
 10
9.5676101201
 20
8.7145980538
 10
9.5683015514
 20
8.7107756101
 10
9.5692898162
 20
8.7073733375
 10
9.5715245186
 20
8.7034369905
 10
9.5759449837
 20
8.699975938
 10
9.5800563197
 20
8.6988734368
  0
LWPOLYLINE
  5
25A
100
AcDbEntity
  8
0
100
AcDbPolyline
 62
7
  6
CONTINUOUS
 90
9
 70
0
 10
9.5691479526
 20
8.2603987653
 10
9.5696041941
 20
8.2563235602
 10
9.5700299234
 20
8.2530197867
 10
9.5704406534
 20
8.2503775627
 10
9.5708892942
 20
8.2481934678
 10
9.5716818891
 20
8.2457443239
 10
9.5738662379
 20
8.2422453376
 10
9.5782303905
 20
8.239103263
 10
9.5818822943
 20
8.2381948927
  0
LINE
  5
25B
100
AcDbEntity
  8
0
100
AcDbLine
 62
7
  6
CONTINUOUS
 10
9.5649202161
 20
9.774757552
 11
9.5649913892
 21
9.7740322276
  0
LINE
  5
25C
100
AcDbEntity
  8
0
100
AcDbLine
 62
7
  6
CONTINUOUS
 10
9.5648753803
 20
9.7752884983
 11
9.5649784928
 21
9.774017226
  0
LINE
  5
25D
100
AcDbEntity
  8
0
100
AcDbLine
 62
9
  6
CONTINUOUS
 10
9.5649286047
 20
9.7763495824
 11
9.5649913892
 21
9.7740322276
  0
LINE
  5
25E
100
AcDbEntity
  8
0
100
AcDbLine
 62
7
  6
CONTINUOUS
 10
9.6377487515
 20
7.998891804
 11
9.6377487515
 21
10.020891804
  0
LINE
  5
25F
100
AcDbEntity
  8
0
100
AcDbLine
 62
7
  6
CONTINUOUS
 10
9.662443677
 20
10.259891804
 11
9.662443677
 21
7.759891804
  0
LINE
  5
260
100
AcDbEntity
  8
0
100
AcDbLine
 62
9
  6
CONTINUOUS
 10
9.5649136874
 20
8.2434327233
 11
9.564980611
 21
8.245782792
  0
LWPOLYLINE
  5
261
100
AcDbEntity
  8
0
100
AcDbPolyline
 62
7
  6
CONTINUOUS
 90
8
 70
0
 10
9.5649805797
 20
8.2457827901
 10
9.5648747031
 20
8.2444785099
 10
9.5648570222
 20
8.2431811413
 10
9.5648829079
 20
8.2417700154
 10
9.5649423278
 20
8.2400170565
 10
9.5650364481
 20
8.2378427417
 10
9.565167288
 20
8.2352121253
 10
9.565542578
 20
8.2285706423
  0
LINE
  5
262
100
AcDbEntity
  8
0
100
AcDbLine
 62
7
  6
CONTINUOUS
 10
9.564980611
 20
8.245782792
 11
9.5649837906
 21
8.2458074457
  0
LINE
  5
263
100
AcDbEntity
  8
0
100
AcDbLine
 62
7
  6
CONTINUOUS
 10
9.5806840779
 20
8.1457081663
 11
9.5822539356
 21
8.1454653661
  0
LINE
  5
264
100
AcDbEntity
  8
0
100
AcDbLine
 62
7
  6
CONTINUOUS
 10
9.5649913892
 20
9.7740322276
 11
9.5649975749
 21
9.773983593
  0
LINE
  5
265
100
AcDbEntity
  8
0
100
AcDbLine
 62
9
  6
CONTINUOUS
 10
9.5633677331
 20
8.4354516515
 11
9.5634077154
 21
8.4356146971
  0
LINE
  5
266
100
AcDbEntity
  8
0
100
AcDbLine
 62
7
  6
CONTINUOUS
 10
9.5494123735
 20
8.5091480818
 11
9.5494311493
 21
8.5092087036
  0
LINE
  5
267
100
AcDbEntity
  8
0
100
AcDbLine
 62
7
  6
CONTINUOUS
 10
9.5512990591
 20
8.4698992203
 11
9.5512798708
 21
8.469838598
  0
LINE
  5
268
100
AcDbEntity
  8
0
100
AcDbLine
 62
7
  6
CONTINUOUS
 10
9.5759876862
 20
9.3198274856
 11
9.571582953
 21
9.3164180272
  0
LINE
  5
269
100
AcDbEntity
  8
0
100
AcDbLine
 62
7
  6
CONTINUOUS
 10
9.5822539448
 20
8.1454627492
 11
9.6330483307
 21
8.1410188162
  0
LINE
  5
26A
100
AcDbEntity
  8
0
100
AcDbLine
 62
7
  6
CONTINUOUS
 10
9.5494207568
 20
9.5105747129
 11
9.5494019882
 21
9.5106353409
  0
LINE
  5
26B
100
AcDbEntity
  8
0
100
AcDbLine
 62
7
  6
CONTINUOUS
 10
9.5512699011
 20
9.5499447917
 11
9.5512886731
 21
9.5498841637
  0
LINE
  5
26C
100
AcDbEntity
  8
0
100
AcDbLine
 62
9
  6
CONTINUOUS
 10
9.5633976856
 20
9.5841680362
 11
9.563357769
 21
9.5843310842
  0
LWPOLYLINE
  5
26D
100
AcDbEntity
  8
0
100
AcDbPolyline
 62
7
  6
CONTINUOUS
 90
3
 70
0
 10
9.5649975466
 20
9.7739835836
 10
9.5652178881
 20
9.7727489945
 10
9.5661926222
 20
9.7700334629
  0
LINE
  5
26E
100
AcDbEntity
  8
0
100
AcDbLine
 62
7
  6
CONTINUOUS
 10
9.564980201
 20
9.7740040253
 11
9.5651091825
 21
9.7731943763
  0
LINE
  5
26F
100
AcDbEntity
  8
0
100
AcDbLine
 62
9
  6
CONTINUOUS
 10
9.5822523829
 20
8.1454628858
 11
9.582298366
 21
8.1456305001
  0
LINE
  5
270
100
AcDbEntity
  8
0
100
AcDbLine
 62
7
  6
CONTINUOUS
 10
9.566530817
 20
8.2208114104
 11
9.5665514596
 21
8.2208720384
  0
LINE
  5
271
100
AcDbEntity
  8
0
100
AcDbLine
 62
7
  6
CONTINUOUS
 10
9.56945084
 20
8.1815625876
 11
9.5694301903
 21
8.1815019596
  0
LINE
  5
272
100
AcDbEntity
  8
0
100
AcDbLine
 62
7
  6
CONTINUOUS
 10
9.5818814726
 20
8.2381947425
 11
9.6340166054
 21
8.2336335094
  0
LINE
  5
273
100
AcDbEntity
  8
0
100
AcDbLine
 62
7
  6
CONTINUOUS
 10
9.5772944872
 20
8.4020698835
 11
9.5812365685
 21
8.4010392672
  0
LINE
  5
274
100
AcDbEntity
  8
0
100
AcDbLine
 62
7
  6
CONTINUOUS
 10
9.5665664317
 20
9.7989113781
 11
9.566545817
 21
9.7989720061
  0
LINE
  5
275
100
AcDbEntity
  8
0
100
AcDbLine
 62
7
  6
CONTINUOUS
 10
9.5694452199
 20
9.8382814569
 11
9.5694658405
 21
9.8382208289
  0
LINE
  5
276
100
AcDbEntity
  8
0
100
AcDbLine
 62
7
  6
CONTINUOUS
 10
9.5651091825
 20
9.7731943763
 11
9.5659761201
 21
9.7704581634
  0
LINE
  5
277
100
AcDbEntity
  8
0
100
AcDbLine
 62
9
  6
CONTINUOUS
 10
9.5823134811
 20
9.8741544264
 11
9.5822679633
 21
9.8743220854
  0
LINE
  5
278
100
AcDbEntity
  8
0
100
AcDbLine
 62
7
  6
CONTINUOUS
 10
9.5812513384
 20
8.4010370798
 11
9.6343482387
 21
8.396391703
  0
LINE
  5
279
100
AcDbEntity
  8
0
100
AcDbLine
 62
7
  6
CONTINUOUS
 10
9.5633683544
 20
8.4354515937
 11
9.5670624474
 21
8.4351284024
  0
LINE
  5
27A
100
AcDbEntity
  8
0
100
AcDbLine
 62
7
  6
CONTINUOUS
 10
10.096443677
 20
7.759891804
 11
10.096443677
 21
10.259891804
  0
LINE
  5
27B
100
AcDbEntity
  8
0
100
AcDbLine
 62
7
  6
CONTINUOUS
 10
9.5762379871
 20
8.349084465
 11
9.6262278085
 21
8.3534580076
  0
LINE
  5
27C
100
AcDbEntity
  8
0
100
AcDbLine
 62
7
  6
CONTINUOUS
 10
9.5659761201
 20
9.7704581634
 11
9.5678166359
 21
9.7675702546
  0
LINE
  5
27D
100
AcDbEntity
  8
0
100
AcDbLine
 62
7
  6
CONTINUOUS
 10
11.3907796154
 20
8.509891804
 11
11.5707796154
 21
8.509891804
  0
LINE
  5
27E
100
AcDbEntity
  8
0
100
AcDbLine
 62
7
  6
CONTINUOUS
 10
10.7123710488
 20
8.540891804
 11
11.3907796154
 21
8.540891804
  0
LINE
  5
27F
100
AcDbEntity
  8
0
100
AcDbLine
 62
7
  6
CONTINUOUS
 10
9.5628561111
 20
8.566458161
 11
9.6142253751
 21
8.5619639327
  0
LINE
  5
280
100
AcDbEntity
  8
0
100
AcDbLine
 62
7
  6
CONTINUOUS
 10
9.5661926222
 20
9.7700334629
 11
9.5681046178
 21
9.7672620728
  0
LWPOLYLINE
  5
281
100
AcDbEntity
  8
0
100
AcDbPolyline
 62
7
  6
CONTINUOUS
 90
3
 70
0
 10
9.5678330753
 20
8.2519677121
 10
9.5667877553
 20
8.2508042463
 10
9.566741189
 20
8.2506995146
  0
LINE
  5
282
100
AcDbEntity
  8
0
100
AcDbLine
 62
7
  6
CONTINUOUS
 10
9.5762373863
 20
8.349084351
 11
9.5719955227
 21
8.3479067371
  0
LINE
  5
283
100
AcDbEntity
  8
0
100
AcDbLine
 62
7
  6
CONTINUOUS
 10
9.5768911121
 20
8.5119288137
 11
9.6283307881
 21
8.5164292022
  0
LINE
  5
284
100
AcDbEntity
  8
0
100
AcDbLine
 62
7
  6
CONTINUOUS
 10
9.5594197347
 20
8.5432502216
 11
9.608013917
 21
8.5475016617
  0
LINE
  5
285
100
AcDbEntity
  8
0
100
AcDbLine
 62
7
  6
CONTINUOUS
 10
10.096443677
 20
8.576891804
 11
10.490443677
 21
8.576891804
  0
LINE
  5
286
100
AcDbEntity
  8
0
100
AcDbLine
 62
7
  6
CONTINUOUS
 10
9.5800555504
 20
8.6988734242
 11
9.6337658464
 21
8.6941743822
  0
LINE
  5
287
100
AcDbEntity
  8
0
100
AcDbLine
 62
7
  6
CONTINUOUS
 10
9.551909642
 20
8.7352014978
 11
9.5658336009
 21
8.7339833092
  0
LINE
  5
288
100
AcDbEntity
  8
0
100
AcDbLine
 62
7
  6
CONTINUOUS
 10
10.490443677
 20
8.576891804
 11
10.490443677
 21
9.442891804
  0
LINE
  5
289
100
AcDbEntity
  8
0
100
AcDbLine
 62
7
  6
CONTINUOUS
 10
10.6407796154
 20
9.354891804
 11
10.7123710488
 21
9.478891804
  0
LINE
  5
28A
100
AcDbEntity
  8
0
100
AcDbLine
 62
7
  6
CONTINUOUS
 10
9.5599019046
 20
8.674254158
 11
9.6101072071
 21
8.6786465528
  0
LINE
  5
28B
100
AcDbEntity
  8
0
100
AcDbLine
 62
7
  6
CONTINUOUS
 10
9.5618832962
 20
8.8249880032
 11
9.6137801168
 21
8.8204476197
  0
LINE
  5
28C
100
AcDbEntity
  8
0
100
AcDbLine
 62
7
  6
CONTINUOUS
 10
10.6407796154
 20
8.664891804
 11
10.7123710488
 21
8.540891804
  0
LINE
  5
28D
100
AcDbEntity
  8
0
100
AcDbLine
 62
7
  6
CONTINUOUS
 10
10.5552524879
 20
8.8523918041
 11
10.5552524879
 21
9.167391804
  0
LWPOLYLINE
  5
28E
100
AcDbEntity
  8
0
100
AcDbPolyline
 62
7
  6
CONTINUOUS
 90
5
 70
0
 10
9.5719955227
 20
8.3479067371
 10
9.5679963304
 20
8.3447642405
 10
9.5658888743
 20
8.3410885905
 10
9.565216124
 20
8.3384685492
 10
9.5650125781
 20
8.3367400359
  0
LINE
  5
28F
100
AcDbEntity
  8
0
100
AcDbLine
 62
7
  6
CONTINUOUS
 10
9.5780417727
 20
8.8097612099
 11
9.6309833848
 21
8.8143930008
  0
LINE
  5
290
100
AcDbEntity
  8
0
100
AcDbLine
 62
7
  6
CONTINUOUS
 10
10.5552524879
 20
8.852391804
 11
10.490443677
 21
8.852391804
  0
LINE
  5
291
100
AcDbEntity
  8
0
100
AcDbLine
 62
7
  6
CONTINUOUS
 10
9.5510859572
 20
8.9568942082
 11
9.6326167869
 21
8.9497613075
  0
LINE
  5
292
100
AcDbEntity
  8
0
100
AcDbLine
 62
7
  6
CONTINUOUS
 10
9.5681046178
 20
9.7672620728
 11
9.5699101329
 21
9.7658269493
  0
LINE
  5
293
100
AcDbEntity
  8
0
100
AcDbLine
 62
7
  6
CONTINUOUS
 10
9.5678166359
 20
9.7675702546
 11
9.5699067933
 21
9.7658021918
  0
LINE
  5
294
100
AcDbEntity
  8
0
100
AcDbLine
 62
7
  6
CONTINUOUS
 10
10.6407796154
 20
9.354891804
 11
10.6407796154
 21
8.664891804
  0
LINE
  5
295
100
AcDbEntity
  8
0
100
AcDbLine
 62
7
  6
CONTINUOUS
 10
10.7123710488
 20
9.478891804
 11
10.7123710488
 21
8.540891804
  0
LINE
  5
296
100
AcDbEntity
  8
0
100
AcDbLine
 62
9
  6
CONTINUOUS
 10
9.5648829665
 20
9.0098918032
 11
9.5648530006
 21
9.0098918033
  0
LINE
  5
297
100
AcDbEntity
  8
0
100
AcDbLine
 62
9
  6
CONTINUOUS
 10
9.5714064527
 20
9.0098918047
 11
9.582323608
 21
9.0098918041
  0
LINE
  5
298
100
AcDbEntity
  8
0
100
AcDbLine
 62
7
  6
CONTINUOUS
 10
9.5608791207
 20
9.0869992919
 11
9.6123918683
 21
9.0824925104
  0
LWPOLYLINE
  5
299
100
AcDbEntity
  8
0
100
AcDbPolyline
 62
7
  6
CONTINUOUS
 90
5
 70
0
 10
9.5699046314
 20
8.2539920865
 10
9.5692785994
 20
8.2536466508
 10
9.5666278204
 20
8.25056784
 10
9.5652730157
 20
8.2473214384
 10
9.5649837906
 20
8.2458074457
  0
LWPOLYLINE
  5
29A
100
AcDbEntity
  8
0
100
AcDbPolyline
 62
7
  6
CONTINUOUS
 90
9
 70
0
 10
9.5780411566
 20
8.8097611343
 10
9.5739545421
 20
8.8086693151
 10
9.569646132
 20
8.8053531822
 10
9.5673745235
 20
8.801428827
 10
9.5664492495
 20
8.7981203146
 10
9.5659103404
 20
8.7946209629
 10
9.5655060083
 20
8.7903226575
 10
9.5651941346
 20
8.7849865148
 10
9.5649786683
 20
8.7786349234
  0
LINE
  5
29B
100
AcDbEntity
  8
0
100
AcDbLine
 62
7
  6
CONTINUOUS
 10
9.5608895442
 20
8.9327852971
 11
9.6123944551
 21
8.9372913929
  0
LINE
  5
29C
100
AcDbEntity
  8
0
100
AcDbLine
 62
7
  6
CONTINUOUS
 10
9.5780568069
 20
9.2100213012
 11
9.6309785345
 21
9.20539125
  0
LWPOLYLINE
  5
29D
100
AcDbEntity
  8
0
100
AcDbPolyline
 62
7
  6
CONTINUOUS
 90
10
 70
0
 10
9.5768909586
 20
8.5119276946
 10
9.5720175938
 20
8.5104265347
 10
9.5678600736
 20
8.506614084
 10
9.5660487604
 20
8.5027031009
 10
9.5654783292
 20
8.4999280892
 10
9.5652022244
 20
8.4973211032
 10
9.5650223436
 20
8.4942307948
 10
9.5649104277
 20
8.4903584234
 10
9.5648710718
 20
8.4854940618
 10
9.5648994404
 20
8.4810043905
  0
LINE
  5
29E
100
AcDbEntity
  8
0
100
AcDbLine
 62
7
  6
CONTINUOUS
 10
9.5510859583
 20
9.0628891548
 11
9.6326166681
 21
9.0700222902
  0
LINE
  5
29F
100
AcDbEntity
  8
0
100
AcDbLine
 62
7
  6
CONTINUOUS
 10
10.5552524879
 20
9.167391804
 11
10.490443677
 21
9.167391804
  0
LINE
  5
2A0
100
AcDbEntity
  8
0
100
AcDbLine
 62
7
  6
CONTINUOUS
 10
9.5599122704
 20
9.3455286123
 11
9.6101083412
 21
9.3411370251
  0
LWPOLYLINE
  5
2A1
100
AcDbEntity
  8
0
100
AcDbPolyline
 62
7
  6
CONTINUOUS
 90
9
 70
0
 10
9.5762372296
 20
8.3490842513
 10
9.5718429778
 20
8.3478308722
 10
9.5678529377
 20
8.3445884791
 10
9.56581363
 20
8.3408772268
 10
9.5651916341
 20
8.3383129339
 10
9.5650008577
 20
8.3365912483
 10
9.564906891
 20
8.3348507588
 10
9.5648593826
 20
8.3326467695
 10
9.5648530006
 20
8.3313022823
  0
LWPOLYLINE
  5
2A2
100
AcDbEntity
  8
0
100
AcDbPolyline
 62
7
  6
CONTINUOUS
 90
8
 70
0
 10
9.5790432316
 20
9.0653340372
 10
9.5750865021
 20
9.064303639
 10
9.5706859596
 20
9.0609906577
 10
9.5683429801
 20
9.0570294355
 10
9.5673311616
 20
9.0535944785
 10
9.5666744539
 20
9.0497936766
 10
9.5661160711
 20
9.0448456217
 10
9.5656274989
 20
9.0384204697
  0
LINE
  5
2A3
100
AcDbEntity
  8
0
100
AcDbLine
 62
7
  6
CONTINUOUS
 10
9.5618729177
 20
9.1947947659
 11
9.6137797544
 21
9.1993360257
  0
LINE
  5
2A4
100
AcDbEntity
  8
0
100
AcDbLine
 62
7
  6
CONTINUOUS
 10
11.1407796154
 20
8.540891804
 11
11.1407796154
 21
9.478891804
  0
LINE
  5
2A5
100
AcDbEntity
  8
0
100
AcDbLine
 62
7
  6
CONTINUOUS
 10
11.1717796154
 20
9.478891804
 11
11.1717796154
 21
8.540891804
  0
LINE
  5
2A6
100
AcDbEntity
  8
0
100
AcDbLine
 62
7
  6
CONTINUOUS
 10
9.5519096529
 20
9.2845819887
 11
9.565843548
 21
9.2858010466
  0
LINE
  5
2A7
100
AcDbEntity
  8
0
100
AcDbLine
 62
7
  6
CONTINUOUS
 10
9.5800705652
 20
9.3209117159
 11
9.633765354
 21
9.3256094012
  0
LINE
  5
2A8
100
AcDbEntity
  8
0
100
AcDbLine
 62
7
  6
CONTINUOUS
 10
10.096443677
 20
9.442891804
 11
10.490443677
 21
9.442891804
  0
LINE
  5
2A9
100
AcDbEntity
  8
0
100
AcDbLine
 62
7
  6
CONTINUOUS
 10
10.7123710488
 20
9.478891804
 11
11.3907796154
 21
9.478891804
  0
LINE
  5
2AA
100
AcDbEntity
  8
0
100
AcDbLine
 62
7
  6
CONTINUOUS
 10
9.559409318
 20
9.4765342977
 11
9.6080162556
 21
9.4722817417
  0
LINE
  5
2AB
100
AcDbEntity
  8
0
100
AcDbLine
 62
7
  6
CONTINUOUS
 10
9.576876144
 20
9.5078563223
 11
9.6283225232
 21
9.5033553473
  0
LINE
  5
2AC
100
AcDbEntity
  8
0
100
AcDbLine
 62
7
  6
CONTINUOUS
 10
9.5628665372
 20
9.4533264282
 11
9.6142254148
 21
9.4578197478
  0
LINE
  5
2AD
100
AcDbEntity
  8
0
100
AcDbLine
 62
7
  6
CONTINUOUS
 10
11.3907796154
 20
9.509891804
 11
11.5707796154
 21
9.509891804
  0
LINE
  5
2AE
100
AcDbEntity
  8
0
100
AcDbLine
 62
7
  6
CONTINUOUS
 10
9.5762380087
 20
9.6706991412
 11
9.6262297311
 21
9.6663254323
  0
LINE
  5
2AF
100
AcDbEntity
  8
0
100
AcDbLine
 62
7
  6
CONTINUOUS
 10
11.3907796154
 20
9.509891804
 11
11.3907796154
 21
9.478891804
  0
LINE
  5
2B0
100
AcDbEntity
  8
0
100
AcDbLine
 62
7
  6
CONTINUOUS
 10
11.3907796154
 20
8.540891804
 11
11.3907796154
 21
8.509891804
  0
LWPOLYLINE
  5
2B1
100
AcDbEntity
  8
0
100
AcDbPolyline
 62
7
  6
CONTINUOUS
 90
7
 70
0
 10
9.5800710334
 20
9.320911726
 10
9.5759254642
 20
9.3197931121
 10
9.5715246952
 20
9.3163298941
 10
9.5692710281
 20
9.3123225778
 10
9.5682751805
 20
9.3088207561
 10
9.567585122
 20
9.3049179154
 10
9.5669668189
 20
9.2999700777
  0
LINE
  5
2B2
100
AcDbEntity
  8
0
100
AcDbLine
 62
7
  6
CONTINUOUS
 10
9.563357886
 20
9.5843310986
 11
9.5670405518
 21
9.5846532901
  0
LINE
  5
2B3
100
AcDbEntity
  8
0
100
AcDbLine
 62
7
  6
CONTINUOUS
 10
9.5812362723
 20
9.6187454285
 11
9.6343536503
 21
9.6233925969
  0
LINE
  5
2B4
100
AcDbEntity
  8
0
100
AcDbLine
 62
7
  6
CONTINUOUS
 10
11.5707796154
 20
10.197391804
 11
11.5707796154
 21
7.822391804
  0
LWPOLYLINE
  5
2B5
100
AcDbEntity
  8
0
100
AcDbPolyline
 62
7
  6
CONTINUOUS
 90
6
 70
0
 10
9.5812365113
 20
9.618744336
 10
9.577508838
 20
9.617807997
 10
9.5729920629
 20
9.6144749167
 10
9.5707848913
 20
9.6108071325
 10
9.5699040846
 20
9.6080313651
 10
9.5693136402
 20
9.6051756847
  0
LINE
  5
2B6
100
AcDbEntity
  8
0
100
AcDbLine
 62
7
  6
CONTINUOUS
 10
9.5818814744
 20
9.7815888657
 11
9.6340168627
 21
9.7861501212
  0
LWPOLYLINE
  5
2B7
100
AcDbEntity
  8
0
100
AcDbPolyline
 62
7
  6
CONTINUOUS
 90
8
 70
0
 10
9.5818821973
 20
9.7815888062
 10
9.5784602826
 20
9.7807749506
 10
9.5740805073
 20
9.7777744424
 10
9.5718059253
 20
9.7743255234
 10
9.5709682083
 20
9.7719013452
 10
9.5705265249
 20
9.7698819103
 10
9.5701361704
 20
9.767502649
 10
9.5697320684
 20
9.7645068917
  0
LWPOLYLINE
  5
2B8
100
AcDbEntity
  8
0
100
AcDbPolyline
 62
7
  6
CONTINUOUS
 90
11
 70
0
 10
9.582269135
 20
9.8743195121
 10
9.5810545723
 20
9.8741504094
 10
9.5770566267
 20
9.8726055102
 10
9.5740564324
 20
9.8700067043
 10
9.5722503505
 20
9.8670434009
 10
9.5715316215
 20
9.8648114929
 10
9.5712969984
 20
9.8635782591
 10
9.5711324704
 20
9.8624325823
 10
9.5709613467
 20
9.8610329781
 10
9.5707677175
 20
9.859270573
 10
9.5705488724
 20
9.8571196798
  0
LINE
  5
2B9
100
AcDbEntity
  8
0
100
AcDbLine
 62
7
  6
CONTINUOUS
 10
9.5822690586
 20
9.8743221813
 11
9.6330485492
 21
9.878764811
  0
LINE
  5
2BA
100
AcDbEntity
  8
0
100
AcDbLine
 62
7
  6
CONTINUOUS
 10
11.8807796154
 20
7.822391804
 11
11.8807796154
 21
10.197391804
  0
LINE
  5
2BB
100
AcDbEntity
  8
0
100
AcDbLine
 62
7
  6
CONTINUOUS
 10
11.8807796154
 20
10.197391804
 11
11.5707796154
 21
10.197391804
  0
LINE
  5
2BC
100
AcDbEntity
  8
0
100
AcDbLine
 62
7
  6
CONTINUOUS
 10
9.662443677
 20
10.259891804
 11
10.096443677
 21
10.259891804
  0
ARC
  5
2BD
100
AcDbEntity
  8
0
100
AcDbCircle
 62
7
  6
CONTINUOUS
 10
4.0701553934
 20
7.7924414932
 40
5.5738408538
100
AcDbArc
 50
4.2240227347
 51
4.5495821249
  0
ARC
  5
2BE
100
AcDbEntity
  8
0
100
AcDbCircle
 62
7
  6
CONTINUOUS
 10
4.0849492138
 20
8.2320581092
 40
5.5320890301
100
AcDbArc
 50
2.9305616229
 51
3.087211945
  0
ARC
  5
2BF
100
AcDbEntity
  8
0
100
AcDbCircle
 62
9
  6
CONTINUOUS
 10
4.5487795916
 20
8.3057167635
 40
5.0165424278
100
AcDbArc
 50
1.9537635824
 51
2.1460324094
  0
ARC
  5
2C0
100
AcDbEntity
  8
0
100
AcDbCircle
 62
9
  6
CONTINUOUS
 10
5.661001853
 20
8.3430715576
 40
3.9036932475
100
AcDbArc
 50
1.7335369717
 51
1.9623632378
  0
ARC
  5
2C1
100
AcDbEntity
  8
0
100
AcDbCircle
 62
7
  6
CONTINUOUS
 10
6.5118261274
 20
8.345642836
 40
3.0425646483
100
AcDbArc
 50
2.5101448864
 51
2.9957234071
  0
ARC
  5
2C2
100
AcDbEntity
  8
0
100
AcDbCircle
 62
9
  6
CONTINUOUS
 10
6.6612199622
 20
8.0401813985
 40
2.9229177932
100
AcDbArc
 50
3.5688543457
 51
3.8809853476
  0
ARC
  5
2C3
100
AcDbEntity
  8
0
100
AcDbCircle
 62
9
  6
CONTINUOUS
 10
6.835089772
 20
7.99961889
 40
2.7410720532
100
AcDbArc
 50
3.9732296622
 51
4.5393737196
  0
ARC
  5
2C4
100
AcDbEntity
  8
0
100
AcDbCircle
 62
7
  6
CONTINUOUS
 10
7.0378723339
 20
8.3685218602
 40
2.5160211828
100
AcDbArc
 50
2.3057070612
 51
2.5142848027
  0
ARC
  5
2C5
100
AcDbEntity
  8
0
100
AcDbCircle
 62
9
  6
CONTINUOUS
 10
7.2600627688
 20
8.0289816467
 40
2.3150859134
100
AcDbArc
 50
3.7747387911
 51
3.977049737
  0
ARC
  5
2C6
100
AcDbEntity
  8
0
100
AcDbCircle
 62
9
  6
CONTINUOUS
 10
6.0404199157
 20
8.7178528426
 40
3.5008949808
100
AcDbArc
 50
1.0800611577
 51
1.2889189558
  0
ARC
  5
2C7
100
AcDbEntity
  8
0
100
AcDbCircle
 62
9
  6
CONTINUOUS
 10
6.283698988
 20
8.722309024
 40
3.2575751371
100
AcDbArc
 50
0.8601722219
 51
1.0823529521
  0
ARC
  5
2C8
100
AcDbEntity
  8
0
100
AcDbCircle
 62
7
  6
CONTINUOUS
 10
6.9571244686
 20
8.3911646485
 40
2.6555101137
100
AcDbArc
 50
3.1096148336
 51
3.7143023273
  0
ARC
  5
2C9
100
AcDbEntity
  8
0
100
AcDbCircle
 62
9
  6
CONTINUOUS
 10
7.4598597578
 20
8.3965573003
 40
2.1040408397
100
AcDbArc
 50
1.4103477288
 51
1.7595850231
  0
ARC
  5
2CA
100
AcDbEntity
  8
0
100
AcDbCircle
 62
7
  6
CONTINUOUS
 10
7.5172426954
 20
8.3979853337
 40
2.0357865693
100
AcDbArc
 50
3.0034216275
 51
3.3194251105
  0
ARC
  5
2CB
100
AcDbEntity
  8
0
100
AcDbCircle
 62
9
  6
CONTINUOUS
 10
10.7212627074
 20
8.3678045581
 40
1.1571785198
100
AcDbArc
 50
183.4706677331
 51
184.147300078
  0
ARC
  5
2CC
100
AcDbEntity
  8
0
100
AcDbCircle
 62
9
  6
CONTINUOUS
 10
8.4172923634
 20
8.2180470664
 40
1.154908834
100
AcDbArc
 50
3.4796186813
 51
4.1598381785
  0
ARC
  5
2CD
100
AcDbEntity
  8
0
100
AcDbCircle
 62
9
  6
CONTINUOUS
 10
10.6764465715
 20
8.2945647825
 40
1.1128615149
100
AcDbArc
 50
183.1511675154
 51
183.6769530345
  0
ARC
  5
2CE
100
AcDbEntity
  8
0
100
AcDbCircle
 62
9
  6
CONTINUOUS
 10
8.5230960554
 20
8.2243100451
 40
1.048920088
100
AcDbArc
 50
2.8687696627
 51
3.488913513
  0
ARC
  5
2CF
100
AcDbEntity
  8
0
100
AcDbCircle
 62
9
  6
CONTINUOUS
 10
10.5854055332
 20
8.3598549015
 40
1.0210893068
100
AcDbArc
 50
182.7502889615
 51
183.4869057132
  0
ARC
  5
2D0
100
AcDbEntity
  8
0
100
AcDbCircle
 62
9
  6
CONTINUOUS
 10
10.5502964897
 20
8.3553092659
 40
0.9857563258
100
AcDbArc
 50
184.1415952256
 51
184.8882179818
  0
ARC
  5
2D1
100
AcDbEntity
  8
0
100
AcDbCircle
 62
9
  6
CONTINUOUS
 10
8.5876586553
 20
8.2305345141
 40
0.9840855368
100
AcDbArc
 50
4.1542295056
 51
4.9016831258
  0
ARC
  5
2D2
100
AcDbEntity
  8
0
100
AcDbCircle
 62
9
  6
CONTINUOUS
 10
8.6517282271
 20
8.2308339924
 40
0.9201226092
100
AcDbArc
 50
2.7484100207
 51
2.8639178128
  0
ARC
  5
2D3
100
AcDbEntity
  8
0
100
AcDbCircle
 62
7
  6
CONTINUOUS
 10
9.0595601528
 20
8.260880154
 40
0.510232364
100
AcDbArc
 50
2.9514966298
 51
3.7089828724
  0
ARC
  5
2D4
100
AcDbEntity
  8
0
100
AcDbCircle
 62
7
  6
CONTINUOUS
 10
10.0762854625
 20
8.3268797875
 40
0.5101022932
100
AcDbArc
 50
182.9508215566
 51
183.7084708338
  0
ARC
  5
2D5
100
AcDbEntity
  8
0
100
AcDbCircle
 62
7
  6
CONTINUOUS
 10
9.0728747435
 20
8.2618819631
 40
0.4968808743
100
AcDbArc
 50
3.6930231
 51
4.4728858521
  0
ARC
  5
2D6
100
AcDbEntity
  8
0
100
AcDbCircle
 62
7
  6
CONTINUOUS
 10
10.0629100382
 20
8.3258744616
 40
0.496689871
100
AcDbArc
 50
183.6925402252
 51
184.4727258892
  0
ARC
  5
2D7
100
AcDbEntity
  8
0
100
AcDbCircle
 62
9
  6
CONTINUOUS
 10
9.575808939
 20
8.2451489846
 40
0.0105835406
100
AcDbArc
 50
137.4766960848
 51
142.3878418822
  0
ARC
  5
2D8
100
AcDbEntity
  8
0
100
AcDbCircle
 62
7
  6
CONTINUOUS
 10
8.3556888587
 20
8.5777016785
 40
1.1969298735
100
AcDbArc
 50
1.5135958931
 51
2.0777303028
  0
ARC
  5
2D9
100
AcDbEntity
  8
0
100
AcDbCircle
 62
7
  6
CONTINUOUS
 10
8.3655309591
 20
8.5782243757
 40
1.1870753047
100
AcDbArc
 50
2.0697409947
 51
2.6928439514
  0
ARC
  5
2DA
100
AcDbEntity
  8
0
100
AcDbCircle
 62
7
  6
CONTINUOUS
 10
8.678785769
 20
8.585441308
 40
0.8737405906
100
AcDbArc
 50
0.7043092713
 51
1.483962179
  0
ARC
  5
2DB
100
AcDbEntity
  8
0
100
AcDbCircle
 62
9
  6
CONTINUOUS
 10
8.8088460023
 20
8.4175550566
 40
0.7627038135
100
AcDbArc
 50
2.1012742245
 51
2.9532376409
  0
ARC
  5
2DC
100
AcDbEntity
  8
0
100
AcDbCircle
 62
9
  6
CONTINUOUS
 10
8.8116857733
 20
8.4179216736
 40
0.7598489573
100
AcDbArc
 50
2.9366621034
 51
3.9561420761
  0
ARC
  5
2DD
100
AcDbEntity
  8
0
100
AcDbCircle
 62
9
  6
CONTINUOUS
 10
8.8871887414
 20
8.4204878298
 40
0.6843062234
100
AcDbArc
 50
1.9131514786
 51
2.09639358
  0
ARC
  5
2DE
100
AcDbEntity
  8
0
100
AcDbCircle
 62
9
  6
CONTINUOUS
 10
9.020522941
 20
8.4243924154
 40
0.5509162675
100
AcDbArc
 50
0.7136168395
 51
1.970237391
  0
ARC
  5
2DF
100
AcDbEntity
  8
0
100
AcDbCircle
 62
7
  6
CONTINUOUS
 10
9.0099233513
 20
8.6015835816
 40
0.5414206935
100
AcDbArc
 50
2.0006807732
 51
2.7411461152
  0
ARC
  5
2E0
100
AcDbEntity
  8
0
100
AcDbCircle
 62
7
  6
CONTINUOUS
 10
9.2377243997
 20
8.44021631
 40
0.3317840999
100
AcDbArc
 50
2.8431563566
 51
4.054017342
  0
ARC
  5
2E1
100
AcDbEntity
  8
0
100
AcDbCircle
 62
7
  6
CONTINUOUS
 10
9.5644460306
 20
8.4475397381
 40
0.0121208739
100
AcDbArc
 50
222.6332283732
 51
241.2229558611
  0
ARC
  5
2E2
100
AcDbEntity
  8
0
100
AcDbCircle
 62
7
  6
CONTINUOUS
 10
9.560453451
 20
8.5313464389
 40
0.0119407286
100
AcDbArc
 50
95.0147917701
 51
129.8975219586
  0
ARC
  5
2E3
100
AcDbEntity
  8
0
100
AcDbCircle
 62
7
  6
CONTINUOUS
 10
9.564289981
 20
8.4471720757
 40
0.0117322991
100
AcDbArc
 50
241.2590265217
 51
244.6952548311
  0
ARC
  5
2E4
100
AcDbEntity
  8
0
100
AcDbCircle
 62
7
  6
CONTINUOUS
 10
9.563762088
 20
8.4469143454
 40
0.0111941146
100
AcDbArc
 50
215.6153702099
 51
222.6492596719
  0
ARC
  5
2E5
100
AcDbEntity
  8
0
100
AcDbCircle
 62
7
  6
CONTINUOUS
 10
7.8974624148
 20
8.7553942148
 40
1.6431645061
100
AcDbArc
 50
0.9116445733
 51
1.1464638418
  0
ARC
  5
2E6
100
AcDbEntity
  8
0
100
AcDbCircle
 62
7
  6
CONTINUOUS
 10
7.9431513923
 20
8.7564469715
 40
1.5974636169
100
AcDbArc
 50
1.1415002389
 51
1.3830656874
  0
ARC
  5
2E7
100
AcDbEntity
  8
0
100
AcDbCircle
 62
7
  6
CONTINUOUS
 10
8.4851658412
 20
8.972014782
 40
1.1161257514
100
AcDbArc
 50
358.1369857893
 51
358.9767604641
  0
ARC
  5
2E8
100
AcDbEntity
  8
0
100
AcDbCircle
 62
7
  6
CONTINUOUS
 10
8.6746077678
 20
8.8682974033
 40
0.8779049009
100
AcDbArc
 50
0.3227509882
 51
1.1825437032
  0
ARC
  5
2E9
100
AcDbEntity
  8
0
100
AcDbCircle
 62
7
  6
CONTINUOUS
 10
8.7962518468
 20
8.8686189234
 40
0.7562610282
100
AcDbArc
 50
359.3950013445
 51
0.3503064045
  0
ARC
  5
2EA
100
AcDbEntity
  8
0
100
AcDbCircle
 62
9
  6
CONTINUOUS
 10
8.9629412788
 20
8.7398809831
 40
0.6084732704
100
AcDbArc
 50
0.7755665836
 51
2.0485134416
  0
ARC
  5
2EB
100
AcDbEntity
  8
0
100
AcDbCircle
 62
9
  6
CONTINUOUS
 10
9.0480912233
 20
8.7407711308
 40
0.5233191438
100
AcDbArc
 50
359.3967668825
 51
0.8043069808
  0
ARC
  5
2EC
100
AcDbEntity
  8
0
100
AcDbCircle
 62
7
  6
CONTINUOUS
 10
9.1625140074
 20
8.8742668771
 40
0.3888037326
100
AcDbArc
 50
359.4382267024
 51
0.6872018713
  0
ARC
  5
2ED
100
AcDbEntity
  8
0
100
AcDbCircle
 62
7
  6
CONTINUOUS
 10
9.1681380131
 20
8.8745533834
 40
0.3831767577
100
AcDbArc
 50
0.6544501711
 51
1.761056636
  0
ARC
  5
2EE
100
AcDbEntity
  8
0
100
AcDbCircle
 62
7
  6
CONTINUOUS
 10
9.3134979493
 20
8.7486442931
 40
0.2559582237
100
AcDbArc
 50
1.2896811077
 51
2.947863491
  0
ARC
  5
2EF
100
AcDbEntity
  8
0
100
AcDbCircle
 62
7
  6
CONTINUOUS
 10
9.5767537563
 20
8.9168212553
 40
0.0275340802
100
AcDbArc
 50
170.1463850405
 51
171.2277027799
  0
ARC
  5
2F0
100
AcDbEntity
  8
0
100
AcDbCircle
 62
7
  6
CONTINUOUS
 10
9.5620064207
 20
8.9206178212
 40
0.0122361371
100
AcDbArc
 50
119.9338474876
 51
127.6173852286
  0
ARC
  5
2F1
100
AcDbEntity
  8
0
100
AcDbCircle
 62
7
  6
CONTINUOUS
 10
9.5529841849
 20
8.747222061
 40
0.0120648227
100
AcDbArc
 50
256.0176481433
 51
264.8916652754
  0
ARC
  5
2F2
100
AcDbEntity
  8
0
100
AcDbCircle
 62
7
  6
CONTINUOUS
 10
9.5513219825
 20
8.8292424484
 40
0.0119977115
100
AcDbArc
 50
95.0502124324
 51
118.2050302609
  0
ARC
  5
2F3
100
AcDbEntity
  8
0
100
AcDbCircle
 62
7
  6
CONTINUOUS
 10
11.541281324
 20
8.6185541717
 40
1.936443128
100
AcDbArc
 50
181.6444500129
 51
182.1055430201
  0
ARC
  5
2F4
100
AcDbEntity
  8
0
100
AcDbCircle
 62
7
  6
CONTINUOUS
 10
11.4260168007
 20
8.5832873841
 40
1.8784808973
100
AcDbArc
 50
182.0597076756
 51
182.412849065
  0
ARC
  5
2F5
100
AcDbEntity
  8
0
100
AcDbCircle
 62
7
  6
CONTINUOUS
 10
11.1929394388
 20
8.5575126475
 40
1.6444371209
100
AcDbArc
 50
183.1907929361
 51
183.3598957626
  0
ARC
  5
2F6
100
AcDbEntity
  8
0
100
AcDbCircle
 62
7
  6
CONTINUOUS
 10
10.7306364252
 20
8.6613961056
 40
1.1823470244
100
AcDbArc
 50
182.0998123852
 51
182.6865168401
  0
ARC
  5
2F7
100
AcDbEntity
  8
0
100
AcDbCircle
 62
7
  6
CONTINUOUS
 10
10.6816281035
 20
8.6591960403
 40
1.1332954444
100
AcDbArc
 50
182.3382687729
 51
182.7556672593
  0
ARC
  5
2F8
100
AcDbEntity
  8
0
100
AcDbCircle
 62
7
  6
CONTINUOUS
 10
10.4707370074
 20
8.6491257284
 40
0.922164069
100
AcDbArc
 50
182.7606582384
 51
183.1896771636
  0
ARC
  5
2F9
100
AcDbEntity
  8
0
100
AcDbCircle
 62
7
  6
CONTINUOUS
 10
10.4212295742
 20
8.6469066704
 40
0.872601093
100
AcDbArc
 50
182.6884090146
 51
183.4454669835
  0
ARC
  5
2FA
100
AcDbEntity
  8
0
100
AcDbCircle
 62
7
  6
CONTINUOUS
 10
10.4187261529
 20
8.6543126675
 40
0.8703602453
100
AcDbArc
 50
180.6956592856
 51
181.4768678922
  0
ARC
  5
2FB
100
AcDbEntity
  8
0
100
AcDbCircle
 62
7
  6
CONTINUOUS
 10
10.4150877813
 20
8.6544678142
 40
0.8667321421
100
AcDbArc
 50
180.6922080789
 51
181.4146108192
  0
ARC
  5
2FC
100
AcDbEntity
  8
0
100
AcDbCircle
 62
9
  6
CONTINUOUS
 10
10.3258035219
 20
8.4938963865
 40
0.7610141137
100
AcDbArc
 50
182.9234961725
 51
183.934891863
  0
ARC
  5
2FD
100
AcDbEntity
  8
0
100
AcDbCircle
 62
9
  6
CONTINUOUS
 10
10.3111570489
 20
8.4934636251
 40
0.7463646972
100
AcDbArc
 50
181.9183806426
 51
182.9476629068
  0
ARC
  5
2FE
100
AcDbEntity
  8
0
100
AcDbCircle
 62
7
  6
CONTINUOUS
 10
10.1237181628
 20
8.6406840855
 40
0.5743967869
100
AcDbArc
 50
181.6235662423
 51
182.0152318239
  0
ARC
  5
2FF
100
AcDbEntity
  8
0
100
AcDbCircle
 62
9
  6
CONTINUOUS
 10
10.1147275918
 20
8.4873445595
 40
0.5498406851
100
AcDbArc
 50
180.7055734653
 51
181.9663144173
  0
ARC
  5
300
100
AcDbEntity
  8
0
100
AcDbCircle
 62
7
  6
CONTINUOUS
 10
10.0906708142
 20
8.6393809324
 40
0.5413240702
100
AcDbArc
 50
182.0003892269
 51
182.7409861471
  0
ARC
  5
301
100
AcDbEntity
  8
0
100
AcDbCircle
 62
7
  6
CONTINUOUS
 10
10.0597411467
 20
8.638853861
 40
0.5103935995
100
AcDbArc
 50
181.1987202288
 51
181.621675502
  0
ARC
  5
302
100
AcDbEntity
  8
0
100
AcDbCircle
 62
7
  6
CONTINUOUS
 10
9.9507444853
 20
8.6365495763
 40
0.4013725868
100
AcDbArc
 50
180.7016459998
 51
181.1953569665
  0
ARC
  5
303
100
AcDbEntity
  8
0
100
AcDbCircle
 62
7
  6
CONTINUOUS
 10
9.9179050642
 20
8.474247809
 40
0.3514332671
100
AcDbArc
 50
182.2259078978
 51
182.8664174254
  0
ARC
  5
304
100
AcDbEntity
  8
0
100
AcDbCircle
 62
7
  6
CONTINUOUS
 10
9.8891165085
 20
8.6293526404
 40
0.3395210062
100
AcDbArc
 50
182.6771474152
 51
183.7045412724
  0
ARC
  5
305
100
AcDbEntity
  8
0
100
AcDbCircle
 62
7
  6
CONTINUOUS
 10
9.898261405
 20
8.4731259435
 40
0.3317581123
100
AcDbArc
 50
182.8425618123
 51
184.0535299706
  0
ARC
  5
306
100
AcDbEntity
  8
0
100
AcDbCircle
 62
7
  6
CONTINUOUS
 10
9.8786695228
 20
8.4727062337
 40
0.3121674568
100
AcDbArc
 50
181.5311822127
 51
182.222876253
  0
ARC
  5
307
100
AcDbEntity
  8
0
100
AcDbCircle
 62
7
  6
CONTINUOUS
 10
9.8118867066
 20
8.4708969643
 40
0.2453601425
100
AcDbArc
 50
180.7179242542
 51
181.5255497098
  0
ARC
  5
308
100
AcDbEntity
  8
0
100
AcDbCircle
 62
7
  6
CONTINUOUS
 10
11.5768745391
 20
8.8216639681
 40
2.0374602812
100
AcDbArc
 50
181.536182585
 51
181.6712820001
  0
ARC
  5
309
100
AcDbEntity
  8
0
100
AcDbCircle
 62
7
  6
CONTINUOUS
 10
10.4373603773
 20
8.8892749793
 40
0.8889735523
100
AcDbArc
 50
180.269748846
 51
180.9812696594
  0
ARC
  5
30A
100
AcDbEntity
  8
0
100
AcDbCircle
 62
7
  6
CONTINUOUS
 10
10.4261202926
 20
8.8891476567
 40
0.8777214602
100
AcDbArc
 50
180.3252789356
 51
181.1822269667
  0
ARC
  5
30B
100
AcDbEntity
  8
0
100
AcDbCircle
 62
7
  6
CONTINUOUS
 10
10.387917615
 20
8.8883755222
 40
0.839522639
100
AcDbArc
 50
180.9776804484
 51
181.6308714759
  0
ARC
  5
30C
100
AcDbEntity
  8
0
100
AcDbCircle
 62
7
  6
CONTINUOUS
 10
10.3141329176
 20
8.8890246617
 40
0.7657463509
100
AcDbArc
 50
179.3998448813
 51
180.294428506
  0
ARC
  5
30D
100
AcDbEntity
  8
0
100
AcDbCircle
 62
7
  6
CONTINUOUS
 10
10.3060452989
 20
8.8865979745
 40
0.7576194243
100
AcDbArc
 50
181.1768032591
 51
182.1137661874
  0
ARC
  5
30E
100
AcDbEntity
  8
0
100
AcDbCircle
 62
7
  6
CONTINUOUS
 10
10.3059436208
 20
8.8888294904
 40
0.7575450062
100
AcDbArc
 50
179.3978331742
 51
180.3528171572
  0
ARC
  5
30F
100
AcDbEntity
  8
0
100
AcDbCircle
 62
7
  6
CONTINUOUS
 10
10.3478764594
 20
8.8590684349
 40
0.7416603212
100
AcDbArc
 50
182.9731178046
 51
183.6166344761
  0
ARC
  5
310
100
AcDbEntity
  8
0
100
AcDbCircle
 62
7
  6
CONTINUOUS
 10
10.2247579581
 20
8.8838161809
 40
0.6762993194
100
AcDbArc
 50
181.6381630739
 51
182.3110746827
  0
ARC
  5
311
100
AcDbEntity
  8
0
100
AcDbCircle
 62
7
  6
CONTINUOUS
 10
10.1830673825
 20
8.8902127129
 40
0.6346749349
100
AcDbArc
 50
179.2324681415
 51
179.3836442557
  0
ARC
  5
312
100
AcDbEntity
  8
0
100
AcDbCircle
 62
9
  6
CONTINUOUS
 10
10.1707676
 20
8.7681215163
 40
0.6058855277
100
AcDbArc
 50
180.7723127001
 51
182.0443975433
  0
ARC
  5
313
100
AcDbEntity
  8
0
100
AcDbCircle
 62
9
  6
CONTINUOUS
 10
10.0982345384
 20
8.7653805805
 40
0.5333008763
100
AcDbArc
 50
182.0281044101
 51
183.4065870408
  0
ARC
  5
314
100
AcDbEntity
  8
0
100
AcDbCircle
 62
9
  6
CONTINUOUS
 10
10.089026443
 20
8.7673130434
 40
0.5241409813
100
AcDbArc
 50
179.4054576087
 51
180.8043841196
  0
ARC
  5
315
100
AcDbEntity
  8
0
100
AcDbCircle
 62
7
  6
CONTINUOUS
 10
9.9522934364
 20
8.8837141431
 40
0.4029002001
100
AcDbArc
 50
179.8618286637
 51
180.6803537559
  0
ARC
  5
316
100
AcDbEntity
  8
0
100
AcDbCircle
 62
7
  6
CONTINUOUS
 10
9.9326327442
 20
8.8833067173
 40
0.3832360957
100
AcDbArc
 50
180.6543483118
 51
181.7607875182
  0
ARC
  5
317
100
AcDbEntity
  8
0
100
AcDbCircle
 62
7
  6
CONTINUOUS
 10
9.8899571322
 20
8.8837967991
 40
0.3405638846
100
AcDbArc
 50
179.3929006269
 51
179.8504438498
  0
ARC
  5
318
100
AcDbEntity
  8
0
100
AcDbCircle
 62
7
  6
CONTINUOUS
 10
9.8353241229
 20
8.7606348686
 40
0.2688060305
100
AcDbArc
 50
180.1010125483
 51
181.3279639378
  0
ARC
  5
319
100
AcDbEntity
  8
0
100
AcDbCircle
 62
7
  6
CONTINUOUS
 10
9.8225223418
 20
8.7601654207
 40
0.2559968664
100
AcDbArc
 50
181.2893252641
 51
182.9472631624
  0
ARC
  5
31A
100
AcDbEntity
  8
0
100
AcDbCircle
 62
7
  6
CONTINUOUS
 10
9.7936690745
 20
8.7604935732
 40
0.2271508079
100
AcDbArc
 50
179.3979255251
 51
180.0838964292
  0
ARC
  5
31B
100
AcDbEntity
  8
0
100
AcDbCircle
 62
9
  6
CONTINUOUS
 10
6.0103571455
 20
9.3025522574
 40
3.5309641276
100
AcDbArc
 50
358.7119660137
 51
358.9190461858
  0
ARC
  5
31C
100
AcDbEntity
  8
0
100
AcDbCircle
 62
9
  6
CONTINUOUS
 10
6.4079270537
 20
9.2953717225
 40
3.1333295266
100
AcDbArc
 50
358.9131776403
 51
359.1401026142
  0
ARC
  5
31D
100
AcDbEntity
  8
0
100
AcDbCircle
 62
7
  6
CONTINUOUS
 10
7.7306470871
 20
9.6099977394
 40
1.822046551
100
AcDbArc
 50
356.6547118759
 51
357.0055106325
  0
ARC
  5
31E
100
AcDbEntity
  8
0
100
AcDbCircle
 62
9
  6
CONTINUOUS
 10
7.8123774925
 20
9.0098895325
 40
1.7287105987
100
AcDbArc
 50
359.5744458803
 51
0.0000685086
  0
ARC
  5
31F
100
AcDbEntity
  8
0
100
AcDbCircle
 62
9
  6
CONTINUOUS
 10
7.8558897494
 20
9.0100552996
 40
1.6851983497
100
AcDbArc
 50
359.994434292
 51
0.4310503585
  0
ARC
  5
320
100
AcDbEntity
  8
0
100
AcDbCircle
 62
7
  6
CONTINUOUS
 10
7.9423210796
 20
9.2635835306
 40
1.5982987007
100
AcDbArc
 50
358.850236967
 51
359.09165162
  0
ARC
  5
321
100
AcDbEntity
  8
0
100
AcDbCircle
 62
7
  6
CONTINUOUS
 10
4.2800006439
 20
10.2112926577
 40
5.3633837155
100
AcDbArc
 50
355.4435053417
 51
355.781841941
  0
ARC
  5
322
100
AcDbEntity
  8
0
100
AcDbCircle
 62
7
  6
CONTINUOUS
 10
4.5274442768
 20
9.7644824327
 40
5.0889843503
100
AcDbArc
 50
356.8538838381
 51
357.0763473083
  0
ARC
  5
323
100
AcDbEntity
  8
0
100
AcDbCircle
 62
9
  6
CONTINUOUS
 10
4.487418531
 20
9.7162247931
 40
5.077930868
100
AcDbArc
 50
357.8555607157
 51
358.0454798695
  0
ARC
  5
324
100
AcDbEntity
  8
0
100
AcDbCircle
 62
9
  6
CONTINUOUS
 10
5.4017973535
 20
9.6850443819
 40
4.1630205727
100
AcDbArc
 50
358.0451535163
 51
358.2597625199
  0
ARC
  5
325
100
AcDbEntity
  8
0
100
AcDbCircle
 62
7
  6
CONTINUOUS
 10
6.4563523699
 20
9.6766572089
 40
3.0980850036
100
AcDbArc
 50
357.2408445615
 51
357.4820846383
  0
ARC
  5
326
100
AcDbEntity
  8
0
100
AcDbCircle
 62
7
  6
CONTINUOUS
 10
6.7605819727
 20
9.6616809246
 40
2.7934871852
100
AcDbArc
 50
356.9863025293
 51
357.2472848124
  0
ARC
  5
327
100
AcDbEntity
  8
0
100
AcDbCircle
 62
9
  6
CONTINUOUS
 10
6.7833517117
 20
10.0238443478
 40
2.7929557574
100
AcDbArc
 50
355.7344427854
 51
356.0163850022
  0
ARC
  5
328
100
AcDbEntity
  8
0
100
AcDbCircle
 62
9
  6
CONTINUOUS
 10
6.8842371695
 20
9.9650396359
 40
2.6994416645
100
AcDbArc
 50
356.1298553724
 51
356.4449480458
  0
ARC
  5
329
100
AcDbEntity
  8
0
100
AcDbCircle
 62
7
  6
CONTINUOUS
 10
6.9301146463
 20
9.6302653868
 40
2.6825699328
100
AcDbArc
 50
356.2895163926
 51
356.8998091629
  0
ARC
  5
32A
100
AcDbEntity
  8
0
100
AcDbCircle
 62
7
  6
CONTINUOUS
 10
7.0096811875
 20
9.6523496185
 40
2.5442225309
100
AcDbArc
 50
357.4815308274
 51
357.7551688396
  0
ARC
  5
32B
100
AcDbEntity
  8
0
100
AcDbCircle
 62
9
  6
CONTINUOUS
 10
7.0490666733
 20
10.0037454597
 40
2.5264818942
100
AcDbArc
 50
355.4384293069
 51
355.7407820161
  0
ARC
  5
32C
100
AcDbEntity
  8
0
100
AcDbCircle
 62
9
  6
CONTINUOUS
 10
7.1564009415
 20
9.631605432
 40
2.4076034021
100
AcDbArc
 50
358.2628596402
 51
358.5680770691
  0
ARC
  5
32D
100
AcDbEntity
  8
0
100
AcDbCircle
 62
9
  6
CONTINUOUS
 10
7.2938496159
 20
9.9883751806
 40
2.2812271536
100
AcDbArc
 50
356.0143398545
 51
356.3349356262
  0
ARC
  5
32E
100
AcDbEntity
  8
0
100
AcDbCircle
 62
9
  6
CONTINUOUS
 10
7.9510158993
 20
9.9310774683
 40
1.6216104847
100
AcDbArc
 50
355.0520391677
 51
355.463355598
  0
ARC
  5
32F
100
AcDbEntity
  8
0
100
AcDbCircle
 62
7
  6
CONTINUOUS
 10
8.6766588985
 20
9.1514603818
 40
0.8758432424
100
AcDbArc
 50
358.8028787318
 51
359.673684114
  0
ARC
  5
330
100
AcDbEntity
  8
0
100
AcDbCircle
 62
7
  6
CONTINUOUS
 10
8.7030435855
 20
9.1513137942
 40
0.8494581485
100
AcDbArc
 50
359.6734357427
 51
359.8711306656
  0
ARC
  5
331
100
AcDbEntity
  8
0
100
AcDbCircle
 62
7
  6
CONTINUOUS
 10
8.7803223244
 20
9.151216113
 40
0.772179389
100
AcDbArc
 50
359.8654815319
 51
0.5890571851
  0
ARC
  5
332
100
AcDbEntity
  8
0
100
AcDbCircle
 62
9
  6
CONTINUOUS
 10
8.963426501
 20
9.2798893222
 40
0.6080030118
100
AcDbArc
 50
357.9328891324
 51
359.216031942
  0
ARC
  5
333
100
AcDbEntity
  8
0
100
AcDbCircle
 62
9
  6
CONTINUOUS
 10
8.9951473261
 20
9.279378519
 40
0.576278172
100
AcDbArc
 50
359.2236615808
 51
359.4560192416
  0
ARC
  5
334
100
AcDbEntity
  8
0
100
AcDbCircle
 62
9
  6
CONTINUOUS
 10
9.0046450637
 20
9.0099226198
 40
0.5667613826
100
AcDbArc
 50
359.9968847231
 51
1.3345911089
  0
ARC
  5
335
100
AcDbEntity
  8
0
100
AcDbCircle
 62
9
  6
CONTINUOUS
 10
9.0216380143
 20
9.0096659947
 40
0.5497684775
100
AcDbArc
 50
358.6318992851
 51
0.0235333944
  0
ARC
  5
336
100
AcDbEntity
  8
0
100
AcDbCircle
 62
9
  6
CONTINUOUS
 10
9.0365125009
 20
9.2790615464
 40
0.5349118576
100
AcDbArc
 50
359.4479036086
 51
0.5849874997
  0
ARC
  5
337
100
AcDbEntity
  8
0
100
AcDbCircle
 62
9
  6
CONTINUOUS
 10
10.0626718185
 20
9.2560941575
 40
0.4976856238
100
AcDbArc
 50
176.5012085304
 51
177.9909412514
  0
ARC
  5
338
100
AcDbEntity
  8
0
100
AcDbCircle
 62
7
  6
CONTINUOUS
 10
9.1539160201
 20
9.1455292927
 40
0.3973908872
100
AcDbArc
 50
358.2601475767
 51
359.3258095569
  0
ARC
  5
339
100
AcDbEntity
  8
0
100
AcDbCircle
 62
7
  6
CONTINUOUS
 10
9.91936348
 20
9.1362108544
 40
0.3699813442
100
AcDbArc
 50
179.2810361475
 51
180.59355428
  0
ARC
  5
33A
100
AcDbEntity
  8
0
100
AcDbCircle
 62
7
  6
CONTINUOUS
 10
9.1813859308
 20
9.1454958814
 40
0.3699225986
100
AcDbArc
 50
359.2809208976
 51
0.5936474407
  0
ARC
  5
33B
100
AcDbEntity
  8
0
100
AcDbCircle
 62
7
  6
CONTINUOUS
 10
9.9041063188
 20
9.1501081146
 40
0.3553434105
100
AcDbArc
 50
176.3694556912
 51
177.4037770396
  0
ARC
  5
33C
100
AcDbEntity
  8
0
100
AcDbCircle
 62
7
  6
CONTINUOUS
 10
9.3040602266
 20
9.2714881291
 40
0.2654164529
100
AcDbArc
 50
357.0863075279
 51
358.6809254515
  0
ARC
  5
33D
100
AcDbEntity
  8
0
100
AcDbCircle
 62
7
  6
CONTINUOUS
 10
9.8133362218
 20
9.259408762
 40
0.246803126
100
AcDbArc
 50
178.6140493952
 51
180.5817397599
  0
ARC
  5
33E
100
AcDbEntity
  8
0
100
AcDbCircle
 62
7
  6
CONTINUOUS
 10
9.3227380821
 20
9.2713476401
 40
0.2467404828
100
AcDbArc
 50
358.6136968534
 51
0.5818868279
  0
ARC
  5
33F
100
AcDbEntity
  8
0
100
AcDbCircle
 62
7
  6
CONTINUOUS
 10
9.5529802274
 20
9.2725343993
 40
0.0120915022
100
AcDbArc
 50
95.0781490758
 51
117.6902847935
  0
ARC
  5
340
100
AcDbEntity
  8
0
100
AcDbCircle
 62
7
  6
CONTINUOUS
 10
8.3426993752
 20
9.4424701236
 40
1.2099352767
100
AcDbArc
 50
357.9261184957
 51
358.5434253552
  0
ARC
  5
341
100
AcDbEntity
  8
0
100
AcDbCircle
 62
7
  6
CONTINUOUS
 10
8.4001194638
 20
9.4401208387
 40
1.1524678139
100
AcDbArc
 50
357.2976422327
 51
357.9395327368
  0
ARC
  5
342
100
AcDbEntity
  8
0
100
AcDbCircle
 62
7
  6
CONTINUOUS
 10
8.6103745872
 20
9.435643441
 40
0.9421730274
100
AcDbArc
 50
358.5446637494
 51
359.2676960337
  0
ARC
  5
343
100
AcDbEntity
  8
0
100
AcDbCircle
 62
9
  6
CONTINUOUS
 10
8.802608173
 20
9.6024632132
 40
0.7689303659
100
AcDbArc
 50
357.0546085959
 51
358.063838328
  0
ARC
  5
344
100
AcDbEntity
  8
0
100
AcDbCircle
 62
9
  6
CONTINUOUS
 10
8.8384488377
 20
9.6002503202
 40
0.7330234331
100
AcDbArc
 50
356.0196948384
 51
357.0833984492
  0
ARC
  5
345
100
AcDbEntity
  8
0
100
AcDbCircle
 62
9
  6
CONTINUOUS
 10
8.9815750875
 20
9.5963028527
 40
0.5898575018
100
AcDbArc
 50
358.0745497442
 51
359.2448844009
  0
ARC
  5
346
100
AcDbEntity
  8
0
100
AcDbCircle
 62
7
  6
CONTINUOUS
 10
8.9919248126
 20
9.4189456574
 40
0.5594446749
100
AcDbArc
 50
357.2715150145
 51
357.9873722483
  0
ARC
  5
347
100
AcDbEntity
  8
0
100
AcDbCircle
 62
7
  6
CONTINUOUS
 10
10.0167506753
 20
9.3822150148
 40
0.4673759838
100
AcDbArc
 50
177.9053126908
 51
179.2725386478
  0
ARC
  5
348
100
AcDbEntity
  8
0
100
AcDbCircle
 62
7
  6
CONTINUOUS
 10
9.0839962513
 20
9.4163819796
 40
0.4673404806
100
AcDbArc
 50
357.9050551042
 51
359.2723850685
  0
ARC
  5
349
100
AcDbEntity
  8
0
100
AcDbCircle
 62
7
  6
CONTINUOUS
 10
9.2267753906
 20
9.5802249799
 40
0.3427372727
100
AcDbArc
 50
355.9686241784
 51
357.1376665382
  0
ARC
  5
34A
100
AcDbEntity
  8
0
100
AcDbCircle
 62
7
  6
CONTINUOUS
 10
9.9091921576
 20
9.5459990256
 40
0.3427230884
100
AcDbArc
 50
175.9691332167
 51
177.1382431029
  0
ARC
  5
34B
100
AcDbEntity
  8
0
100
AcDbCircle
 62
7
  6
CONTINUOUS
 10
9.5656885743
 20
9.4403059869
 40
0.0141076746
100
AcDbArc
 50
154.491220906
 51
156.8048966467
  0
ARC
  5
34C
100
AcDbEntity
  8
0
100
AcDbCircle
 62
7
  6
CONTINUOUS
 10
9.5640671347
 20
9.4411259387
 40
0.0122970979
100
AcDbArc
 50
135.3995591054
 51
138.6148707306
  0
ARC
  5
34D
100
AcDbEntity
  8
0
100
AcDbCircle
 62
7
  6
CONTINUOUS
 10
9.5609081049
 20
9.3574913965
 40
0.0119812384
100
AcDbArc
 50
233.2472335994
 51
239.9063039337
  0
ARC
  5
34E
100
AcDbEntity
  8
0
100
AcDbCircle
 62
7
  6
CONTINUOUS
 10
11.739591045
 20
9.1821149006
 40
2.2004701669
100
AcDbArc
 50
179.1485948949
 51
179.4105804061
  0
ARC
  5
34F
100
AcDbEntity
  8
0
100
AcDbCircle
 62
9
  6
CONTINUOUS
 10
11.5307329057
 20
9.1847935322
 40
1.9915948662
100
AcDbArc
 50
179.123697134
 51
179.4327712306
  0
ARC
  5
350
100
AcDbEntity
  8
0
100
AcDbCircle
 62
9
  6
CONTINUOUS
 10
11.3047676566
 20
9.2055033599
 40
1.7652521934
100
AcDbArc
 50
178.1569787455
 51
178.4786684473
  0
ARC
  5
351
100
AcDbEntity
  8
0
100
AcDbCircle
 62
9
  6
CONTINUOUS
 10
10.7100518711
 20
9.1929181503
 40
1.1708736163
100
AcDbArc
 50
179.4327517834
 51
179.6282911768
  0
ARC
  5
352
100
AcDbEntity
  8
0
100
AcDbCircle
 62
7
  6
CONTINUOUS
 10
10.437582034
 20
9.1305044514
 40
0.8892055896
100
AcDbArc
 50
178.8882586134
 51
179.6593841743
  0
ARC
  5
353
100
AcDbEntity
  8
0
100
AcDbCircle
 62
7
  6
CONTINUOUS
 10
10.4241181036
 20
9.1306618675
 40
0.8757295146
100
AcDbArc
 50
178.8154695403
 51
179.6754343342
  0
ARC
  5
354
100
AcDbEntity
  8
0
100
AcDbCircle
 62
7
  6
CONTINUOUS
 10
10.4098036205
 20
9.1306820948
 40
0.8614266109
100
AcDbArc
 50
179.6602157319
 51
179.8928610986
  0
ARC
  5
355
100
AcDbEntity
  8
0
100
AcDbCircle
 62
7
  6
CONTINUOUS
 10
10.345722462
 20
9.1310053554
 40
0.7973331914
100
AcDbArc
 50
179.6682048536
 51
180.5761236258
  0
ARC
  5
356
100
AcDbEntity
  8
0
100
AcDbCircle
 62
7
  6
CONTINUOUS
 10
10.3295666284
 20
9.130762042
 40
0.7811896128
100
AcDbArc
 50
179.8877203922
 51
180.5884800278
  0
ARC
  5
357
100
AcDbEntity
  8
0
100
AcDbCircle
 62
7
  6
CONTINUOUS
 10
10.3253345255
 20
9.132909131
 40
0.7769325875
100
AcDbArc
 50
178.1527325095
 51
178.9049520689
  0
ARC
  5
358
100
AcDbEntity
  8
0
100
AcDbCircle
 62
7
  6
CONTINUOUS
 10
10.2639770307
 20
9.1343937579
 40
0.7155456397
100
AcDbArc
 50
177.8582472572
 51
178.8491465116
  0
ARC
  5
359
100
AcDbEntity
  8
0
100
AcDbCircle
 62
7
  6
CONTINUOUS
 10
10.2934621586
 20
9.1638581583
 40
0.6871562047
100
AcDbArc
 50
176.3305255459
 51
177.0515044067
  0
ARC
  5
35A
100
AcDbEntity
  8
0
100
AcDbCircle
 62
9
  6
CONTINUOUS
 10
10.1694325653
 20
9.1960868858
 40
0.6302452212
100
AcDbArc
 50
179.5975091781
 51
179.9860187958
  0
ARC
  5
35B
100
AcDbEntity
  8
0
100
AcDbCircle
 62
9
  6
CONTINUOUS
 10
10.1728151241
 20
9.2516144779
 40
0.607918582
100
AcDbArc
 50
177.9329237137
 51
179.2132311835
  0
ARC
  5
35C
100
AcDbEntity
  8
0
100
AcDbCircle
 62
7
  6
CONTINUOUS
 10
10.1296344607
 20
9.1289134381
 40
0.5812484518
100
AcDbArc
 50
180.6081564671
 51
181.3287822263
  0
ARC
  5
35D
100
AcDbEntity
  8
0
100
AcDbCircle
 62
7
  6
CONTINUOUS
 10
10.1212782357
 20
9.1397463745
 40
0.5727620007
100
AcDbArc
 50
177.3523755716
 51
178.1783284074
  0
ARC
  5
35E
100
AcDbEntity
  8
0
100
AcDbCircle
 62
9
  6
CONTINUOUS
 10
10.1317494307
 20
9.0098615503
 40
0.5668664722
100
AcDbArc
 50
179.9969421267
 51
181.3369201903
  0
ARC
  5
35F
100
AcDbEntity
  8
0
100
AcDbCircle
 62
9
  6
CONTINUOUS
 10
10.1151386761
 20
9.0101154572
 40
0.5502557622
100
AcDbArc
 50
178.6431027537
 51
180.0232880596
  0
ARC
  5
360
100
AcDbEntity
  8
0
100
AcDbCircle
 62
9
  6
CONTINUOUS
 10
10.1119854358
 20
9.2524281318
 40
0.5470834565
100
AcDbArc
 50
179.2109593961
 51
180.5652007091
  0
ARC
  5
361
100
AcDbEntity
  8
0
100
AcDbCircle
 62
7
  6
CONTINUOUS
 10
10.8554849389
 20
9.0099282152
 40
0.3390535154
100
AcDbArc
 50
207.6866614179
 51
230.7098538107
  0
ARC
  5
362
100
AcDbEntity
  8
0
100
AcDbCircle
 62
7
  6
CONTINUOUS
 10
10.855443677
 20
9.009891804
 40
0.339
100
AcDbArc
 50
129.2886317884
 51
152.3155476719
  0
ARC
  5
363
100
AcDbEntity
  8
0
100
AcDbCircle
 62
7
  6
CONTINUOUS
 10
11.7917318773
 20
9.3931025573
 40
2.1870234076
100
AcDbArc
 50
177.9328682459
 51
178.3400377879
  0
ARC
  5
364
100
AcDbEntity
  8
0
100
AcDbCircle
 62
7
  6
CONTINUOUS
 10
11.5978424955
 20
9.4297981155
 40
2.0504466589
100
AcDbArc
 50
177.6063773081
 51
177.9306448099
  0
ARC
  5
365
100
AcDbEntity
  8
0
100
AcDbCircle
 62
7
  6
CONTINUOUS
 10
11.3972526994
 20
9.4504591103
 40
1.8491008656
100
AcDbArc
 50
176.6692741019
 51
177.005593387
  0
ARC
  5
366
100
AcDbEntity
  8
0
100
AcDbCircle
 62
7
  6
CONTINUOUS
 10
11.1448012084
 20
9.464715877
 40
1.5962486818
100
AcDbArc
 50
176.5548627445
 51
176.9669969857
  0
ARC
  5
367
100
AcDbEntity
  8
0
100
AcDbCircle
 62
7
  6
CONTINUOUS
 10
10.7260667165
 20
9.3586665336
 40
1.177765168
100
AcDbArc
 50
177.3829514946
 51
177.9184807548
  0
ARC
  5
368
100
AcDbEntity
  8
0
100
AcDbCircle
 62
7
  6
CONTINUOUS
 10
10.6963614092
 20
9.3598076624
 40
1.1480326986
100
AcDbArc
 50
177.2888536382
 51
177.935393475
  0
ARC
  5
369
100
AcDbEntity
  8
0
100
AcDbCircle
 62
7
  6
CONTINUOUS
 10
10.5175702174
 20
9.3634390609
 40
0.9692195592
100
AcDbArc
 50
178.4952062096
 51
179.2700638832
  0
ARC
  5
36A
100
AcDbEntity
  8
0
100
AcDbCircle
 62
7
  6
CONTINUOUS
 10
10.4883413896
 20
9.3641566226
 40
0.9399759437
100
AcDbArc
 50
178.5484857965
 51
179.2757154082
  0
ARC
  5
36B
100
AcDbEntity
  8
0
100
AcDbCircle
 62
7
  6
CONTINUOUS
 10
10.4747067905
 20
9.3704068085
 40
0.9261313737
100
AcDbArc
 50
176.836259193
 51
177.398472211
  0
ARC
  5
36C
100
AcDbEntity
  8
0
100
AcDbCircle
 62
7
  6
CONTINUOUS
 10
10.3393858195
 20
9.3772762658
 40
0.7906305972
100
AcDbArc
 50
176.4964185033
 51
177.3297134388
  0
ARC
  5
36D
100
AcDbEntity
  8
0
100
AcDbCircle
 62
9
  6
CONTINUOUS
 10
10.3337465571
 20
9.5253607708
 40
0.7689886477
100
AcDbArc
 50
177.0515592231
 51
178.0590589639
  0
ARC
  5
36E
100
AcDbEntity
  8
0
100
AcDbCircle
 62
9
  6
CONTINUOUS
 10
10.2975824265
 20
9.5275765444
 40
0.7327585016
100
AcDbArc
 50
176.0214455649
 51
177.0791340328
  0
ARC
  5
36F
100
AcDbEntity
  8
0
100
AcDbCircle
 62
9
  6
CONTINUOUS
 10
10.1558550165
 20
9.5314808945
 40
0.5909918914
100
AcDbArc
 50
178.067934071
 51
179.2505668893
  0
ARC
  5
370
100
AcDbEntity
  8
0
100
AcDbCircle
 62
7
  6
CONTINUOUS
 10
10.1086523148
 20
9.37965828
 40
0.5593102429
100
AcDbArc
 50
177.2716702995
 51
177.9876821994
  0
ARC
  5
371
100
AcDbEntity
  8
0
100
AcDbCircle
 62
9
  6
CONTINUOUS
 10
10.0723786597
 20
9.5437906087
 40
0.5069727718
100
AcDbArc
 50
174.7119680745
 51
176.083565419
  0
ARC
  5
372
100
AcDbEntity
  8
0
100
AcDbCircle
 62
9
  6
CONTINUOUS
 10
10.8630593109
 20
9.7140722547
 40
1.2997903406
100
AcDbArc
 50
176.3403993847
 51
176.8027856992
  0
ARC
  5
373
100
AcDbEntity
  8
0
100
AcDbCircle
 62
9
  6
CONTINUOUS
 10
8.4191845425
 20
9.8016114857
 40
1.1530125542
100
AcDbArc
 50
355.8286745101
 51
356.5136448415
  0
ARC
  5
374
100
AcDbEntity
  8
0
100
AcDbCircle
 62
9
  6
CONTINUOUS
 10
10.7060815405
 20
9.6529938576
 40
1.1419637429
100
AcDbArc
 50
175.8320894231
 51
176.5197662518
  0
ARC
  5
375
100
AcDbEntity
  8
0
100
AcDbCircle
 62
9
  6
CONTINUOUS
 10
10.6313343024
 20
9.6574184173
 40
1.0670857712
100
AcDbArc
 50
176.5132655053
 51
177.2250117711
  0
ARC
  5
376
100
AcDbEntity
  8
0
100
AcDbCircle
 62
9
  6
CONTINUOUS
 10
8.5071317667
 20
9.7963163687
 40
1.0649060945
100
AcDbArc
 50
356.5102645367
 51
357.2234215087
  0
ARC
  5
377
100
AcDbEntity
  8
0
100
AcDbCircle
 62
9
  6
CONTINUOUS
 10
10.5147206022
 20
9.6672827851
 40
0.9500704376
100
AcDbArc
 50
175.0839355106
 51
175.8527805376
  0
ARC
  5
378
100
AcDbEntity
  8
0
100
AcDbCircle
 62
7
  6
CONTINUOUS
 10
9.0574633391
 20
9.7590013914
 40
0.5123311247
100
AcDbArc
 50
355.5402796725
 51
356.2952350782
  0
ARC
  5
379
100
AcDbEntity
  8
0
100
AcDbCircle
 62
7
  6
CONTINUOUS
 10
10.0783432744
 20
9.6928078373
 40
0.5121620049
100
AcDbArc
 50
175.540509025
 51
176.2957252534
  0
ARC
  5
37A
100
AcDbEntity
  8
0
100
AcDbCircle
 62
7
  6
CONTINUOUS
 10
9.0739654434
 20
9.758064717
 40
0.4958029997
100
AcDbArc
 50
356.2800304766
 51
357.0596566556
  0
ARC
  5
37B
100
AcDbEntity
  8
0
100
AcDbCircle
 62
7
  6
CONTINUOUS
 10
10.061948882
 20
9.6937375802
 40
0.4957418134
100
AcDbArc
 50
176.2805399558
 51
177.0602628555
  0
ARC
  5
37C
100
AcDbEntity
  8
0
100
AcDbCircle
 62
9
  6
CONTINUOUS
 10
9.5778708156
 20
9.7758460313
 40
0.0129978569
100
AcDbArc
 50
195.256201854
 51
199.9978184083
  0
ARC
  5
37D
100
AcDbEntity
  8
0
100
AcDbCircle
 62
9
  6
CONTINUOUS
 10
9.5776076987
 20
9.7757838978
 40
0.0127276664
100
AcDbArc
 50
188.0231567604
 51
195.2980297268
  0
ARC
  5
37E
100
AcDbEntity
  8
0
100
AcDbCircle
 62
7
  6
CONTINUOUS
 10
20.619936667
 20
9.0099058568
 40
11.0237849325
100
AcDbArc
 50
184.6797149812
 51
184.9742082421
  0
ARC
  5
37F
100
AcDbEntity
  8
0
100
AcDbCircle
 62
7
  6
CONTINUOUS
 10
20.6198521917
 20
9.0098855636
 40
11.0237001004
100
AcDbArc
 50
175.0307432881
 51
175.3203123642
  0
ARC
  5
380
100
AcDbEntity
  8
0
100
AcDbCircle
 62
7
  6
CONTINUOUS
 10
20.5911901742
 20
9.009891804
 40
11.0
100
AcDbArc
 50
185.273445234
 51
186.5249788441
  0
ARC
  5
381
100
AcDbEntity
  8
0
100
AcDbCircle
 62
7
  6
CONTINUOUS
 10
20.5911901742
 20
9.009891804
 40
11.0
100
AcDbArc
 50
173.4750211559
 51
174.726554766
  0
LINE
  5
382
100
AcDbEntity
  8
0
100
AcDbLine
 62
7
  6
CONTINUOUS
 10
9.5404644075
 20
9.2511975829
 11
9.5405253333
 21
9.2485602722
  0
SPLINE
  5
383
100
AcDbEntity
  8
0
100
AcDbSpline
 62
7
  6
CONTINUOUS
 70
0
 71
3
 72
9
 73
5
 74
0
 42
0.0000001
 43
0.0000001
 44
0.0000000001
 40
0.0
 40
0.0
 40
0.0
 40
0.0
 40
0.2514037821
 40
1.0
 40
1.0
 40
1.0
 40
1.0
 10
9.5473614042
 20
9.2832410911
 30
0.0
 10
9.5470839831
 20
9.2830950969
 30
0.0
 10
9.5460041547
 20
9.2824702931
 30
0.0
 10
9.5450233016
 20
9.281675965
 30
0.0
 10
9.5443694068
 20
9.2810097882
 30
0.0
  0
LINE
  5
384
100
AcDbEntity
  8
0
100
AcDbLine
 62
7
  6
CONTINUOUS
 10
9.5392373135
 20
9.2047514258
 11
9.5391855413
 21
9.1960404749
  0
SPLINE
  5
385
100
AcDbEntity
  8
0
100
AcDbSpline
 62
7
  6
CONTINUOUS
 70
0
 71
3
 72
19
 73
15
 74
0
 42
0.0000001
 43
0.0000001
 44
0.0000000001
 40
0.0
 40
0.0
 40
0.0
 40
0.0
 40
0.0895101067
 40
0.16206571
 40
0.2202057715
 40
0.279794659
 40
0.3385168774
 40
0.4250016845
 40
0.4723886872
 40
0.5199157587
 40
0.6155390707
 40
0.7116180101
 40
0.807801094
 40
1.0
 40
1.0
 40
1.0
 40
1.0
 10
9.5391855195
 20
9.196041082
 30
0.0
 10
9.5391854951
 20
9.1953468225
 30
0.0
 10
9.5391881229
 20
9.1940898158
 30
0.0
 10
9.5392042392
 20
9.1923818535
 30
0.0
 10
9.5392363258
 20
9.1909064044
 30
0.0
 10
9.5393074241
 20
9.1895386892
 30
0.0
 10
9.5395398289
 20
9.1879643615
 30
0.0
 10
9.5399663004
 20
9.1865249603
 30
0.0
 10
9.5405254218
 20
9.1852321003
 30
0.0
 10
9.5412422758
 20
9.1839373731
 30
0.0
 10
9.5423636502
 20
9.1824452994
 30
0.0
 10
9.544017846
 20
9.1809252331
 30
0.0
 10
9.5465620508
 20
9.1793463445
 30
0.0
 10
9.5487807728
 20
9.178720091
 30
0.0
 10
9.5502658239
 20
9.1785900276
 30
0.0
  0
SPLINE
  5
386
100
AcDbEntity
  8
0
100
AcDbSpline
 62
7
  6
CONTINUOUS
 70
0
 71
3
 72
15
 73
11
 74
0
 42
0.0000001
 43
0.0000001
 44
0.0000000001
 40
0.0
 40
0.0
 40
0.0
 40
0.0
 40
0.0230880771
 40
0.0739177323
 40
0.1551324812
 40
0.2668202695
 40
0.4084442541
 40
0.5787673384
 40
0.7764171541
 40
1.0
 40
1.0
 40
1.0
 40
1.0
 10
9.5505782044
 20
9.1605382178
 30
0.0
 10
9.5506183987
 20
9.1605378368
 30
0.0
 10
9.5506986336
 20
9.1603980545
 30
0.0
 10
9.5507591198
 20
9.1601577308
 30
0.0
 10
9.550839571
 20
9.1597287452
 30
0.0
 10
9.5509086682
 20
9.1591553131
 30
0.0
 10
9.5509778756
 20
9.1584190666
 30
0.0
 10
9.5510410062
 20
9.1575347254
 30
0.0
 10
9.5510991883
 20
9.1565062253
 30
0.0
 10
9.5511318277
 20
9.1557736312
 30
0.0
 10
9.5511473955
 20
9.1553846872
 30
0.0
  0
LINE
  5
387
100
AcDbEntity
  8
0
100
AcDbLine
 62
7
  6
CONTINUOUS
 10
9.5511473955
 20
9.1553846872
 11
9.5512886735
 21
9.1493286188
  0
SPLINE
  5
388
100
AcDbEntity
  8
0
100
AcDbSpline
 62
7
  6
CONTINUOUS
 70
0
 71
3
 72
24
 73
20
 74
0
 42
0.0000001
 43
0.0000001
 44
0.0000000001
 40
0.0
 40
0.0
 40
0.0
 40
0.0
 40
0.1934193888
 40
0.3795370672
 40
0.5509322368
 40
0.7012580991
 40
0.7666831029
 40
0.8248017171
 40
0.8750751889
 40
0.9170597593
 40
0.9348487295
 40
0.9504581549
 40
0.9638635802
 40
0.9750635474
 40
0.9840956705
 40
0.9910500879
 40
0.9938145067
 40
0.9961667939
 40
1.0
 40
1.0
 40
1.0
 40
1.0
 10
9.6343858102
 20
9.0098917561
 30
0.0
 10
9.6343858099
 20
9.0157867273
 30
0.0
 10
9.6343012818
 20
9.0273543085
 30
0.0
 10
9.6339258416
 20
9.0441419538
 30
0.0
 10
9.6333166996
 20
9.0596084473
 30
0.0
 10
9.6326121201
 20
9.0713880837
 30
0.0
 10
9.6319278049
 20
9.0797072119
 30
0.0
 10
9.6313992632
 20
9.0849787125
 30
0.0
 10
9.6308372337
 20
9.089527667
 30
0.0
 10
9.6303226024
 20
9.0928429548
 30
0.0
 10
9.6298862551
 20
9.0950988968
 30
0.0
 10
9.6295725363
 20
9.0964907623
 30
0.0
 10
9.6292549287
 20
9.0976749274
 30
0.0
 10
9.6289345595
 20
9.0986497649
 30
0.0
 10
9.6286123497
 20
9.0994139695
 30
0.0
 10
9.628325724
 20
9.0999122659
 30
0.0
 10
9.6280855403
 20
9.1001931616
 30
0.0
 10
9.627878228
 20
9.1003702198
 30
0.0
 10
9.627689775
 20
9.1004428894
 30
0.0
 10
9.6275729478
 20
9.1004428894
 30
0.0
  0
LINE
  5
389
100
AcDbEntity
  8
0
100
AcDbLine
 62
7
  6
CONTINUOUS
 10
9.601113471
 20
9.067707264
 11
9.6007012943
 21
9.084063562
  0
SPLINE
  5
38A
100
AcDbEntity
  8
0
100
AcDbSpline
 62
7
  6
CONTINUOUS
 70
0
 71
3
 72
24
 73
20
 74
0
 42
0.0000001
 43
0.0000001
 44
0.0000000001
 40
0.0
 40
0.0
 40
0.0
 40
0.0
 40
0.139616319
 40
0.2616191402
 40
0.3649055698
 40
0.4512334673
 40
0.4901496759
 40
0.5310206493
 40
0.554322955
 40
0.5808959368
 40
0.6119897857
 40
0.6483287735
 40
0.6885211394
 40
0.7309654914
 40
0.7746896574
 40
0.8192500095
 40
0.8642687433
 40
0.9095013652
 40
1.0
 40
1.0
 40
1.0
 40
1.0
 10
9.5485423146
 20
9.1154345504
 30
0.0
 10
9.548580431
 20
9.1138328111
 30
0.0
 10
9.548667144
 20
9.110831734
 30
0.0
 10
9.5488451135
 20
9.1066477641
 30
0.0
 10
9.5490655823
 20
9.1030783603
 30
0.0
 10
9.5493031743
 20
9.1004657397
 30
0.0
 10
9.5495595214
 20
9.0985762576
 30
0.0
 10
9.5497778098
 20
9.0974130048
 30
0.0
 10
9.550009458
 20
9.0963974477
 30
0.0
 10
9.5502732585
 20
9.0955055694
 30
0.0
 10
9.5506630831
 20
9.0944983551
 30
0.0
 10
9.5512029249
 20
9.0933858829
 30
0.0
 10
9.5519085578
 20
9.0922143484
 30
0.0
 10
9.5527942379
 20
9.091061418
 30
0.0
 10
9.5538566321
 20
9.0899964641
 30
0.0
 10
9.5550636759
 20
9.0890506934
 30
0.0
 10
9.5563956082
 20
9.0882544857
 30
0.0
 10
9.5583029449
 20
9.0874294982
 30
0.0
 10
9.5598457199
 20
9.0870880759
 30
0.0
 10
9.5608802448
 20
9.0869969143
 30
0.0
  0
SPLINE
  5
38B
100
AcDbEntity
  8
0
100
AcDbSpline
 62
7
  6
CONTINUOUS
 70
0
 71
3
 72
21
 73
17
 74
0
 42
0.0000001
 43
0.0000001
 44
0.0000000001
 40
0.0
 40
0.0
 40
0.0
 40
0.0
 40
0.0925496344
 40
0.1849315942
 40
0.2764893291
 40
0.3640171489
 40
0.4434865738
 40
0.5101891714
 40
0.5607287542
 40
0.6020576035
 40
0.6418450613
 40
0.682856665
 40
0.7264018187
 40
0.7733063195
 40
0.878602572
 40
1.0
 40
1.0
 40
1.0
 40
1.0
 10
9.5618735287
 20
9.1947972248
 30
0.0
 10
9.5610070434
 20
9.1947213055
 30
0.0
 10
9.5592863569
 20
9.1943826518
 30
0.0
 10
9.5568851743
 20
9.1933364739
 30
0.0
 10
9.5548102203
 20
9.1918211782
 30
0.0
 10
9.5531473453
 20
9.1900260651
 30
0.0
 10
9.5520119952
 20
9.1881310153
 30
0.0
 10
9.5512977871
 20
9.186422107
 30
0.0
 10
9.5508577472
 20
9.1849952412
 30
0.0
 10
9.5506226681
 20
9.1837793459
 30
0.0
 10
9.5504334106
 20
9.1826474106
 30
0.0
 10
9.5502618696
 20
9.1814913077
 30
0.0
 10
9.5501089346
 20
9.1802652145
 30
0.0
 10
9.5499163389
 20
9.1784355736
 30
0.0
 10
9.5496981762
 20
9.1758733069
 30
0.0
 10
9.549548808
 20
9.1737479691
 30
0.0
 10
9.5494760423
 20
9.1726093681
 30
0.0
  0
LINE
  5
38C
100
AcDbEntity
  8
0
100
AcDbLine
 62
7
  6
CONTINUOUS
 10
9.6288561148
 20
9.816792936
 11
9.6289890989
 21
9.8185964175
  0
SPLINE
  5
38D
100
AcDbEntity
  8
0
100
AcDbSpline
 62
7
  6
CONTINUOUS
 70
0
 71
3
 72
29
 73
25
 74
0
 42
0.0000001
 43
0.0000001
 44
0.0000000001
 40
0.0
 40
0.0
 40
0.0
 40
0.0
 40
0.194820687
 40
0.2900131131
 40
0.3823565402
 40
0.4710084137
 40
0.5551433614
 40
0.6339689833
 40
0.7067147363
 40
0.772641639
 40
0.8311364336
 40
0.8816193007
 40
0.9036931228
 40
0.9235903929
 40
0.9412651849
 40
0.9566717643
 40
0.9697649539
 40
0.9805119948
 40
0.9888988819
 40
0.9949163595
 40
0.9970369094
 40
0.9985695292
 40
0.999529472
 40
1.0
 40
1.0
 40
1.0
 40
1.0
 10
9.6289890989
 20
9.8185964175
 30
0.0
 10
9.629421546
 20
9.8244736362
 30
0.0
 10
9.6300520788
 20
9.8332235363
 30
0.0
 10
9.6308562918
 20
9.8447614021
 30
0.0
 10
9.6314233592
 20
9.8530965074
 30
0.0
 10
9.6319535899
 20
9.861098857
 30
0.0
 10
9.6324419416
 20
9.8686941728
 30
0.0
 10
9.6328838465
 20
9.8758103231
 30
0.0
 10
9.6332750976
 20
9.8823777658
 30
0.0
 10
9.6336117783
 20
9.8883323609
 30
0.0
 10
9.6338908147
 20
9.8936156768
 30
0.0
 10
9.6340810133
 20
9.8975752976
 30
0.0
 10
9.6342004885
 20
9.9003693782
 30
0.0
 10
9.6342701037
 20
9.9021722643
 30
0.0
 10
9.6343237365
 20
9.9037739122
 30
0.0
 10
9.634361272
 20
9.9051701725
 30
0.0
 10
9.6343827256
 20
9.9063571039
 30
0.0
 10
9.634388041
 20
9.9073321481
 30
0.0
 10
9.6343781984
 20
9.9080924624
 30
0.0
 10
9.6343553992
 20
9.9085929757
 30
0.0
 10
9.6343278255
 20
9.9088829838
 30
0.0
 10
9.6343024614
 20
9.9090227734
 30
0.0
 10
9.6342828496
 20
9.9091055061
 30
0.0
 10
9.6342511181
 20
9.9091475986
 30
0.0
 10
9.6342368852
 20
9.9091475986
 30
0.0
  0
SPLINE
  5
38E
100
AcDbEntity
  8
0
100
AcDbSpline
 62
7
  6
CONTINUOUS
 70
0
 71
3
 72
14
 73
10
 74
0
 42
0.0000001
 43
0.0000001
 44
0.0000000001
 40
0.0
 40
0.0
 40
0.0
 40
0.0
 40
0.0363339218
 40
0.0926048979
 40
0.1745038615
 40
0.2836691574
 40
0.4206702139
 40
0.5857104257
 40
1.0
 40
1.0
 40
1.0
 40
1.0
 10
9.6216758104
 20
9.6353457822
 30
0.0
 10
9.6217190399
 20
9.6353457822
 30
0.0
 10
9.6218234317
 20
9.6354066444
 30
0.0
 10
9.6219403757
 20
9.6355781806
 30
0.0
 10
9.6220703039
 20
9.6358435273
 30
0.0
 10
9.6222048632
 20
9.6362101566
 30
0.0
 10
9.6223477537
 20
9.6366782851
 30
0.0
 10
9.6225632088
 20
9.6375030256
 30
0.0
 10
9.6227077141
 20
9.6381773267
 30
0.0
 10
9.6228045502
 20
9.6386606366
 30
0.0
  0
SPLINE
  5
38F
100
AcDbEntity
  8
0
100
AcDbSpline
 62
7
  6
CONTINUOUS
 70
0
 71
3
 72
15
 73
11
 74
0
 42
0.0000001
 43
0.0000001
 44
0.0000000001
 40
0.0
 40
0.0
 40
0.0
 40
0.0
 40
0.0262080185
 40
0.0587688029
 40
0.142081219
 40
0.2478109636
 40
0.3732334924
 40
0.5149909166
 40
0.6694092255
 40
1.0
 40
1.0
 40
1.0
 40
1.0
 10
9.6228045502
 20
9.6386606366
 30
0.0
 10
9.6229549739
 20
9.6394114032
 30
0.0
 10
9.6232555239
 20
9.641102231
 30
0.0
 10
9.6238860518
 20
9.6452052425
 30
0.0
 10
9.6247075145
 20
9.651628074
 30
0.0
 10
9.6257168567
 20
9.6607599359
 30
0.0
 10
9.6267797189
 20
9.6716030767
 30
0.0
 10
9.6278686544
 20
9.683872298
 30
0.0
 10
9.6293475183
 20
9.7021240821
 30
0.0
 10
9.630350847
 20
9.7162589323
 30
0.0
 10
9.6309788394
 20
9.7258969633
 30
0.0
  0
SPLINE
  5
390
100
AcDbEntity
  8
0
100
AcDbSpline
 62
7
  6
CONTINUOUS
 70
0
 71
3
 72
26
 73
22
 74
0
 42
0.0000001
 43
0.0000001
 44
0.0000000001
 40
0.0
 40
0.0
 40
0.0
 40
0.0
 40
0.1946524505
 40
0.3820073245
 40
0.470559834
 40
0.5545872154
 40
0.6332973607
 40
0.7059210449
 40
0.7717227675
 40
0.8300958322
 40
0.880468257
 40
0.9223535209
 40
0.9400009294
 40
0.9553948194
 40
0.968495257
 40
0.9792779307
 40
0.9877427532
 40
0.9939090792
 40
0.9961528945
 40
0.9978670111
 40
1.0
 40
1.0
 40
1.0
 40
1.0
 10
9.6309788394
 20
9.7258969633
 30
0.0
 10
9.6313618449
 20
9.7317750908
 30
0.0
 10
9.6320714608
 20
9.7433137516
 30
0.0
 10
9.6328396487
 20
9.7575333078
 30
0.0
 10
9.6333566521
 20
9.7684134469
 30
0.0
 10
9.6336816875
 20
9.7760110941
 30
0.0
 10
9.6339484932
 20
9.7831286569
 30
0.0
 10
9.6341547688
 20
9.7896964456
 30
0.0
 10
9.6342982266
 20
9.7956503129
 30
0.0
 10
9.6343782844
 20
9.8009319701
 30
0.0
 10
9.6343943516
 20
9.8054904505
 30
0.0
 10
9.6343536082
 20
9.8088164207
 30
0.0
 10
9.6342825071
 20
9.8110828167
 30
0.0
 10
9.634216576
 20
9.8124776689
 30
0.0
 10
9.6341350098
 20
9.8136636335
 30
0.0
 10
9.6340393589
 20
9.8146379397
 30
0.0
 10
9.6339281413
 20
9.815399728
 30
0.0
 10
9.6338211628
 20
9.815898743
 30
0.0
 10
9.6337157144
 20
9.8161898045
 30
0.0
 10
9.6336370291
 20
9.816350422
 30
0.0
 10
9.6335373599
 20
9.8164481444
 30
0.0
 10
9.6334728111
 20
9.8164481444
 30
0.0
  0
SPLINE
  5
391
100
AcDbEntity
  8
0
100
AcDbSpline
 62
7
  6
CONTINUOUS
 70
0
 71
3
 72
44
 73
40
 74
0
 42
0.0000001
 43
0.0000001
 44
0.0000000001
 40
0.0
 40
0.0
 40
0.0
 40
0.0
 40
0.0015123162
 40
0.0025482173
 40
0.0038239095
 40
0.0071610261
 40
0.0115996191
 40
0.0171627651
 40
0.0238566544
 40
0.0316721822
 40
0.0405924369
 40
0.0616699988
 40
0.0869208126
 40
0.1161051394
 40
0.1489481952
 40
0.1851524492
 40
0.2243650004
 40
0.310327545
 40
0.4035752813
 40
0.500560555
 40
0.597573823
 40
0.6908857433
 40
0.7769015771
 40
0.8161209292
 40
0.8523033269
 40
0.8850907223
 40
0.9141851608
 40
0.9393030373
 40
0.9602113823
 40
0.9690346557
 40
0.9767449633
 40
0.9833257543
 40
0.9887708493
 40
0.9930891689
 40
0.9963078207
 40
0.9975280706
 40
0.9985146928
 40
0.9993113315
 40
1.0
 40
1.0
 40
1.0
 40
1.0
 10
9.6230166059
 20
9.472558745
 30
0.0
 10
9.6231085464
 20
9.472558745
 30
0.0
 10
9.6232582325
 20
9.4726417465
 30
0.0
 10
9.6234129263
 20
9.472812649
 30
0.0
 10
9.6236077457
 20
9.4730977795
 30
0.0
 10
9.6238437804
 20
9.4735967204
 30
0.0
 10
9.6241208671
 20
9.4743594037
 30
0.0
 10
9.6244071674
 20
9.4753337234
 30
0.0
 10
9.6247024791
 20
9.476517965
 30
0.0
 10
9.6250053727
 20
9.4779099591
 30
0.0
 10
9.625443011
 20
9.4801669055
 30
0.0
 10
9.6259916891
 20
9.4834811673
 30
0.0
 10
9.6266374474
 20
9.4880265077
 30
0.0
 10
9.6272945871
 20
9.4932919077
 30
0.0
 10
9.627956281
 20
9.4992272125
 30
0.0
 10
9.6286152092
 20
9.505775859
 30
0.0
 10
9.6295098517
 20
9.5155460671
 30
0.0
 10
9.6305632136
 20
9.5287836234
 30
0.0
 10
9.631686908
 20
9.5455375099
 30
0.0
 10
9.6326602484
 20
9.562973714
 30
0.0
 10
9.6334461739
 20
9.5804232769
 30
0.0
 10
9.6340137691
 20
9.5972140588
 30
0.0
 10
9.6342967163
 20
9.6104980091
 30
0.0
 10
9.6343877435
 20
9.6203109965
 30
0.0
 10
9.6343891064
 20
9.626888414
 30
0.0
 10
9.6343254987
 20
9.6328499744
 30
0.0
 10
9.6341988441
 20
9.6381377826
 30
0.0
 10
9.6340105945
 20
9.6427010544
 30
0.0
 10
9.6337952001
 20
9.6460292253
 30
0.0
 10
9.6335841461
 20
9.648295827
 30
0.0
 10
9.6334210522
 20
9.6496917536
 30
0.0
 10
9.6332446284
 20
9.6508787445
 30
0.0
 10
9.6330559592
 20
9.651854982
 30
0.0
 10
9.6328558759
 20
9.6526186898
 30
0.0
 10
9.6326687948
 20
9.6531199326
 30
0.0
 10
9.6325032388
 20
9.6534062856
 30
0.0
 10
9.6323868195
 20
9.653548398
 30
0.0
 10
9.6322639154
 20
9.6536390711
 30
0.0
 10
9.6321729024
 20
9.6536611072
 30
0.0
 10
9.6321310351
 20
9.6536611072
 30
0.0
  0
SPLINE
  5
392
100
AcDbEntity
  8
0
100
AcDbSpline
 62
7
  6
CONTINUOUS
 70
0
 71
3
 72
23
 73
19
 74
0
 42
0.0000001
 43
0.0000001
 44
0.0000000001
 40
0.0
 40
0.0
 40
0.0
 40
0.0
 40
0.0084956503
 40
0.0117109805
 40
0.0154347956
 40
0.0244730672
 40
0.0356972456
 40
0.0491385656
 40
0.0647890057
 40
0.0826216152
 40
0.1246956336
 40
0.1750524626
 40
0.2332390384
 40
0.2987190658
 40
0.4491052895
 40
0.6205064619
 40
0.8066121827
 40
1.0
 40
1.0
 40
1.0
 40
1.0
 10
9.6254685112
 20
9.1748270186
 30
0.0
 10
9.6257276362
 20
9.1748270186
 30
0.0
 10
9.6260348951
 20
9.1751323335
 30
0.0
 10
9.6262863083
 20
9.1755172004
 30
0.0
 10
9.6265213916
 20
9.1759481418
 30
0.0
 10
9.6268052204
 20
9.1766219634
 30
0.0
 10
9.6271332428
 20
9.1775975211
 30
0.0
 10
9.6274624728
 20
9.1787825105
 30
0.0
 10
9.6277932889
 20
9.1801753141
 30
0.0
 10
9.628260624
 20
9.1824322107
 30
0.0
 10
9.6288270466
 20
9.1857482368
 30
0.0
 10
9.6294670611
 20
9.1902977753
 30
0.0
 10
9.6300920114
 20
9.1955690823
 30
0.0
 10
9.6309356748
 20
9.2038855462
 30
0.0
 10
9.6318796567
 20
9.2156610157
 30
0.0
 10
9.6328181267
 20
9.231124439
 30
0.0
 10
9.633565297
 20
9.2479112438
 30
0.0
 10
9.6339150709
 20
9.2594812919
 30
0.0
 10
9.6340522107
 20
9.2653781997
 30
0.0
  0
SPLINE
  5
393
100
AcDbEntity
  8
0
100
AcDbSpline
 62
7
  6
CONTINUOUS
 70
0
 71
3
 72
24
 73
20
 74
0
 42
0.0000001
 43
0.0000001
 44
0.0000000001
 40
0.0
 40
0.0
 40
0.0
 40
0.0
 40
0.1937188392
 40
0.3801268361
 40
0.5517773867
 40
0.7022798018
 40
0.7677479574
 40
0.8258728815
 40
0.8761100659
 40
0.9180117312
 40
0.9357405602
 40
0.9512764015
 40
0.9645936225
 40
0.9756899515
 40
0.9846002818
 40
0.9914100672
 40
0.9940918033
 40
0.9963544776
 40
1.0
 40
1.0
 40
1.0
 40
1.0
 10
9.6340522107
 20
9.2653781997
 30
0.0
 10
9.6341891954
 20
9.2712684363
 30
0.0
 10
9.6343776889
 20
9.2828286431
 30
0.0
 10
9.6344113196
 20
9.2996111967
 30
0.0
 10
9.6341920796
 20
9.3150778613
 30
0.0
 10
9.6337960154
 20
9.3268617024
 30
0.0
 10
9.6333384756
 20
9.3351858636
 30
0.0
 10
9.6329583146
 20
9.3404594688
 30
0.0
 10
9.6325295108
 20
9.3450098572
 30
0.0
 10
9.63211705
 20
9.3483267982
 30
0.0
 10
9.6317542683
 20
9.3505842025
 30
0.0
 10
9.631488254
 20
9.3519760586
 30
0.0
 10
9.6312137171
 20
9.3531600083
 30
0.0
 10
9.6309318424
 20
9.3541344806
 30
0.0
 10
9.6306434046
 20
9.3548981059
 30
0.0
 10
9.6303826689
 20
9.3553970271
 30
0.0
 10
9.6301600688
 20
9.3556789388
 30
0.0
 10
9.629968002
 20
9.3558557133
 30
0.0
 10
9.6297886612
 20
9.3559293808
 30
0.0
 10
9.6296777851
 20
9.3559293808
 30
0.0
  0
SPLINE
  5
394
100
AcDbEntity
  8
0
100
AcDbSpline
 62
7
  6
CONTINUOUS
 70
0
 71
3
 72
11
 73
7
 74
0
 42
0.0000001
 43
0.0000001
 44
0.0000000001
 40
0.0
 40
0.0
 40
0.0
 40
0.0
 40
0.1900143326
 40
0.4303009268
 40
0.7060191316
 40
1.0
 40
1.0
 40
1.0
 40
1.0
 10
9.6087955121
 20
9.3230449921
 30
0.0
 10
9.6092228218
 20
9.3278632736
 30
0.0
 10
9.6100246234
 20
9.3387890567
 30
0.0
 10
9.6110846237
 20
9.3567310942
 30
0.0
 10
9.6120805907
 20
9.3773272057
 30
0.0
 10
9.6126531246
 20
9.3918189082
 30
0.0
 10
9.6129177272
 20
9.3992980962
 30
0.0
  0
SPLINE
  5
395
100
AcDbEntity
  8
0
100
AcDbSpline
 62
7
  6
CONTINUOUS
 70
0
 71
3
 72
25
 73
21
 74
0
 42
0.0000001
 43
0.0000001
 44
0.0000000001
 40
0.0
 40
0.0
 40
0.0
 40
0.0
 40
0.1947139426
 40
0.3820999148
 40
0.4706540761
 40
0.55467462
 40
0.6333722569
 40
0.705981501
 40
0.7717714166
 40
0.8301393546
 40
0.8805160907
 40
0.9224174709
 40
0.9554840851
 40
0.979395384
 40
0.9878720348
 40
0.9912435869
 40
0.994042531
 40
0.9962788286
 40
0.99797439
 40
1.0
 40
1.0
 40
1.0
 40
1.0
 10
9.6129177272
 20
9.3992980962
 30
0.0
 10
9.613125906
 20
9.4051824227
 30
0.0
 10
9.613495659
 20
9.4167310262
 30
0.0
 10
9.6138542217
 20
9.4309588792
 30
0.0
 10
9.6140642658
 20
9.4418418287
 30
0.0
 10
9.6141783173
 20
9.4494392918
 30
0.0
 10
9.6142510379
 20
9.4565550802
 30
0.0
 10
9.6142819852
 20
9.4631198976
 30
0.0
 10
9.6142706205
 20
9.4690700265
 30
0.0
 10
9.6142177925
 20
9.4743476524
 30
0.0
 10
9.6141242137
 20
9.4789021732
 30
0.0
 10
9.6139921307
 20
9.4826905382
 30
0.0
 10
9.6138231552
 20
9.4856757566
 30
0.0
 10
9.6136448763
 20
9.4876483903
 30
0.0
 10
9.6134813795
 20
9.4887175957
 30
0.0
 10
9.6133891542
 20
9.4891513489
 30
0.0
 10
9.6133245534
 20
9.4893964577
 30
0.0
 10
9.6132557299
 20
9.489590943
 30
0.0
 10
9.6131820639
 20
9.4897478081
 30
0.0
 10
9.613090276
 20
9.4898492774
 30
0.0
 10
9.613029023
 20
9.4898492774
 30
0.0
  0
SPLINE
  5
396
100
AcDbEntity
  8
0
100
AcDbSpline
 62
7
  6
CONTINUOUS
 70
0
 71
3
 72
11
 73
7
 74
0
 42
0.0000001
 43
0.0000001
 44
0.0000000001
 40
0.0
 40
0.0
 40
0.0
 40
0.0
 40
0.1973363315
 40
0.4388733924
 40
0.7114916087
 40
1.0
 40
1.0
 40
1.0
 40
1.0
 10
9.6114908559
 20
9.0675776575
 30
0.0
 10
9.6118641631
 20
9.072386941
 30
0.0
 10
9.612512837
 20
9.083096594
 30
0.0
 10
9.6132545081
 20
9.1004731187
 30
0.0
 10
9.6138223512
 20
9.1200860248
 30
0.0
 10
9.6140616129
 20
9.1338006085
 30
0.0
 10
9.6141455307
 20
9.1408524973
 30
0.0
  0
SPLINE
  5
397
100
AcDbEntity
  8
0
100
AcDbSpline
 62
7
  6
CONTINUOUS
 70
0
 71
3
 72
11
 73
7
 74
0
 42
0.0000001
 43
0.0000001
 44
0.0000000001
 40
0.0
 40
0.0
 40
0.0
 40
0.0
 40
0.2785299186
 40
0.5454934434
 40
0.7893187916
 40
1.0
 40
1.0
 40
1.0
 40
1.0
 10
9.6141455307
 20
9.1408524973
 30
0.0
 10
9.6142188503
 20
9.14701379
 30
0.0
 10
9.6143037964
 20
9.1590812951
 30
0.0
 10
9.6142523333
 20
9.1765431228
 30
0.0
 10
9.6140231397
 20
9.1925024004
 30
0.0
 10
9.6137378313
 20
9.2025537097
 30
0.0
 10
9.6135537941
 20
9.2072108326
 30
0.0
  0
LINE
  5
398
100
AcDbEntity
  8
0
100
AcDbLine
 62
7
  6
CONTINUOUS
 10
9.5997936351
 20
9.1978273467
 11
9.6000398017
 21
9.2080943158
  0
SPLINE
  5
399
100
AcDbEntity
  8
0
100
AcDbSpline
 62
7
  6
CONTINUOUS
 70
0
 71
3
 72
24
 73
20
 74
0
 42
0.0000001
 43
0.0000001
 44
0.0000000001
 40
0.0
 40
0.0
 40
0.0
 40
0.0
 40
0.0038332931
 40
0.0061857322
 40
0.0089503593
 40
0.0159052675
 40
0.0249378124
 40
0.0361379413
 40
0.0495432157
 40
0.0651525364
 40
0.0829414494
 40
0.124925873
 40
0.175199
 40
0.233317346
 40
0.2987419866
 40
0.4490665708
 40
0.6204605889
 40
0.8065793568
 40
1.0
 40
1.0
 40
1.0
 40
1.0
 10
9.6275729494
 20
8.9193405272
 30
0.0
 10
9.6276897793
 20
8.9193405272
 30
0.0
 10
9.6278782374
 20
8.919413213
 30
0.0
 10
9.6280855493
 20
8.9195902915
 30
0.0
 10
9.6283257382
 20
8.9198712175
 30
0.0
 10
9.6286123703
 20
8.9203695492
 30
0.0
 10
9.6289345909
 20
8.9211337854
 30
0.0
 10
9.629254972
 20
8.9221086336
 30
0.0
 10
9.6295725928
 20
8.9232927934
 30
0.0
 10
9.6298863096
 20
8.924684651
 30
0.0
 10
9.6303226489
 20
8.9269405872
 30
0.0
 10
9.630837261
 20
8.930255864
 30
0.0
 10
9.6313992784
 20
8.9348048005
 30
0.0
 10
9.6319278111
 20
8.9400762768
 30
0.0
 10
9.6326121209
 20
8.9483953544
 30
0.0
 10
9.6333167013
 20
8.9601749159
 30
0.0
 10
9.633925844
 20
8.9756413822
 30
0.0
 10
9.6343012779
 20
8.9924290787
 30
0.0
 10
9.6343858105
 20
9.0039967415
 30
0.0
 10
9.6343858102
 20
9.0098917561
 30
0.0
  0
LINE
  5
39A
100
AcDbEntity
  8
0
100
AcDbLine
 62
7
  6
CONTINUOUS
 10
9.5518922369
 20
9.4431880951
 11
9.5527212372
 21
9.445862483
  0
SPLINE
  5
39B
100
AcDbEntity
  8
0
100
AcDbSpline
 62
7
  6
CONTINUOUS
 70
0
 71
3
 72
9
 73
5
 74
0
 42
0.0000001
 43
0.0000001
 44
0.0000000001
 40
0.0
 40
0.0
 40
0.0
 40
0.0
 40
0.4823083719
 40
1.0
 40
1.0
 40
1.0
 40
1.0
 10
9.5529561256
 20
9.4463814484
 30
0.0
 10
9.5531947003
 20
9.4468814099
 30
0.0
 10
9.5537496285
 20
9.4478910902
 30
0.0
 10
9.5544477245
 20
9.4488096424
 30
0.0
 10
9.5548408351
 20
9.4492557611
 30
0.0
  0
SPLINE
  5
39C
100
AcDbEntity
  8
0
100
AcDbSpline
 62
7
  6
CONTINUOUS
 70
0
 71
3
 72
9
 73
5
 74
0
 42
0.0000001
 43
0.0000001
 44
0.0000000001
 40
0.0
 40
0.0
 40
0.0
 40
0.0
 40
0.2482203188
 40
1.0
 40
1.0
 40
1.0
 40
1.0
 10
9.5553113472
 20
9.4497604509
 30
0.0
 10
9.5555418999
 20
9.4499942309
 30
0.0
 10
9.5565081958
 20
9.4508982758
 30
0.0
 10
9.5576238997
 20
9.4516432313
 30
0.0
 10
9.5585139158
 20
9.4520868302
 30
0.0
  0
SPLINE
  5
39D
100
AcDbEntity
  8
0
100
AcDbSpline
 62
7
  6
CONTINUOUS
 70
0
 71
3
 72
9
 73
5
 74
0
 42
0.0000001
 43
0.0000001
 44
0.0000000001
 40
0.0
 40
0.0
 40
0.0
 40
0.0
 40
0.7495164883
 40
1.0
 40
1.0
 40
1.0
 40
1.0
 10
9.5585139158
 20
9.4520868302
 30
0.0
 10
9.5595261043
 20
9.4525913219
 30
0.0
 10
9.5609840629
 20
9.453074111
 30
0.0
 10
9.5624796931
 20
9.4532796418
 30
0.0
 10
9.5628561389
 20
9.4533133797
 30
0.0
  0
SPLINE
  5
39E
100
AcDbEntity
  8
0
100
AcDbSpline
 62
7
  6
CONTINUOUS
 70
0
 71
3
 72
24
 73
20
 74
0
 42
0.0000001
 43
0.0000001
 44
0.0000000001
 40
0.0
 40
0.0
 40
0.0
 40
0.0
 40
0.0036455396
 40
0.0059082449
 40
0.0085900252
 40
0.0153999264
 40
0.0243103861
 40
0.0354068324
 40
0.0487241673
 40
0.064260222
 40
0.0819893281
 40
0.1238915205
 40
0.1741290629
 40
0.2322545789
 40
0.297723083
 40
0.4482260635
 40
0.6198765323
 40
0.8062824796
 40
1.0
 40
1.0
 40
1.0
 40
1.0
 10
9.6296777911
 20
8.6638540357
 30
0.0
 10
9.6297886678
 20
8.6638540357
 30
0.0
 10
9.6299680096
 20
8.6639277063
 30
0.0
 10
9.6301600763
 20
8.6641044847
 30
0.0
 10
9.6303826777
 20
8.6643864028
 30
0.0
 10
9.6306434151
 20
8.6648853329
 30
0.0
 10
9.630931856
 20
8.6656489688
 30
0.0
 10
9.6312137346
 20
8.6666234513
 30
0.0
 10
9.6314882765
 20
8.6678074137
 30
0.0
 10
9.631754292
 20
8.6691992883
 30
0.0
 10
9.6321170743
 20
8.6714567238
 30
0.0
 10
9.6325295341
 20
8.6747737004
 30
0.0
 10
9.6329583407
 20
8.6793241336
 30
0.0
 10
9.6333384965
 20
8.6845977786
 30
0.0
 10
9.6337960377
 20
8.6929219853
 30
0.0
 10
9.6341920891
 20
8.7047058519
 30
0.0
 10
9.6344113291
 20
8.7201724684
 30
0.0
 10
9.6343776977
 20
8.7369549167
 30
0.0
 10
9.6341891926
 20
8.7485150204
 30
0.0
 10
9.6340522088
 20
8.7544052168
 30
0.0
  0
SPLINE
  5
39F
100
AcDbEntity
  8
0
100
AcDbSpline
 62
7
  6
CONTINUOUS
 70
0
 71
3
 72
23
 73
19
 74
0
 42
0.0000001
 43
0.0000001
 44
0.0000000001
 40
0.0
 40
0.0
 40
0.0
 40
0.0
 40
0.1933634888
 40
0.379436384
 40
0.5508434908
 40
0.7012451351
 40
0.7667318426
 40
0.824927567
 40
0.8752904391
 40
0.9173702568
 40
0.9352055984
 40
0.950858186
 40
0.964300745
 40
0.9755256951
 40
0.9845645605
 40
0.9882886029
 40
0.9915041124
 40
1.0
 40
1.0
 40
1.0
 40
1.0
 10
9.6340522088
 20
8.7544052168
 30
0.0
 10
9.6339150862
 20
8.7603013821
 30
0.0
 10
9.6335654605
 20
8.771869689
 30
0.0
 10
9.6328183481
 20
8.7886549314
 30
0.0
 10
9.6318799067
 20
8.8041180025
 30
0.0
 10
9.6309360243
 20
8.8158943371
 30
0.0
 10
9.6300922932
 20
8.824211751
 30
0.0
 10
9.6294673546
 20
8.8294837306
 30
0.0
 10
9.6288272613
 20
8.8340339044
 30
0.0
 10
9.6282607821
 20
8.8373503712
 30
0.0
 10
9.627793406
 20
8.8396075916
 30
0.0
 10
9.627462564
 20
8.8410005808
 30
0.0
 10
9.6271333002
 20
8.8421856925
 30
0.0
 10
9.6268052517
 20
8.8431613253
 30
0.0
 10
9.6265214107
 20
8.8438351936
 30
0.0
 10
9.6262863201
 20
8.8442661665
 30
0.0
 10
9.6260349055
 20
8.8446510533
 30
0.0
 10
9.6257276463
 20
8.8449563979
 30
0.0
 10
9.6254685141
 20
8.8449563979
 30
0.0
  0
SPLINE
  5
3A0
100
AcDbEntity
  8
0
100
AcDbSpline
 62
7
  6
CONTINUOUS
 70
0
 71
3
 72
44
 73
40
 74
0
 42
0.0000001
 43
0.0000001
 44
0.0000000001
 40
0.0
 40
0.0
 40
0.0
 40
0.0
 40
0.0006886565
 40
0.0014852113
 40
0.0024716599
 40
0.0036916583
 40
0.0069096458
 40
0.01122721
 40
0.0166715974
 40
0.023251657
 40
0.0309605677
 40
0.0397820021
 40
0.0606866586
 40
0.0858014329
 40
0.1148904103
 40
0.1476731
 40
0.1838505748
 40
0.2230631732
 40
0.3090676565
 40
0.4023678075
 40
0.4993698905
 40
0.5963467157
 40
0.689590052
 40
0.7755604787
 40
0.8147869711
 40
0.8510047431
 40
0.8838604601
 40
0.9130592257
 40
0.9383196544
 40
0.9594035299
 40
0.968326282
 40
0.9761437947
 40
0.9828390809
 40
0.9884026105
 40
0.9928407481
 40
0.9961770295
 40
0.9974523121
 40
0.9984878895
 40
1.0
 40
1.0
 40
1.0
 40
1.0
 10
9.6321310201
 20
8.3661223093
 30
0.0
 10
9.6321728867
 20
8.3661223093
 30
0.0
 10
9.6322638941
 20
8.3661443346
 30
0.0
 10
9.6323868007
 20
8.3662349763
 30
0.0
 10
9.6325032219
 20
8.3663770476
 30
0.0
 10
9.6326687784
 20
8.3666633243
 30
0.0
 10
9.632855858
 20
8.3671644609
 30
0.0
 10
9.6330559307
 20
8.3679280384
 30
0.0
 10
9.6332445771
 20
8.3689041455
 30
0.0
 10
9.6334209618
 20
8.3700909683
 30
0.0
 10
9.633584049
 20
8.3714866534
 30
0.0
 10
9.6337951009
 20
8.3737528338
 30
0.0
 10
9.6340105029
 20
8.3770804805
 30
0.0
 10
9.6341987463
 20
8.3816430095
 30
0.0
 10
9.6343254863
 20
8.3869300116
 30
0.0
 10
9.6343890995
 20
8.3928906582
 30
0.0
 10
9.6343877553
 20
8.3994670831
 30
0.0
 10
9.6342968318
 20
8.409278677
 30
0.0
 10
9.6340140498
 20
8.4225608217
 30
0.0
 10
9.6334466066
 20
8.4393495318
 30
0.0
 10
9.6326608125
 20
8.4567971986
 30
0.0
 10
9.6316878544
 20
8.4742319701
 30
0.0
 10
9.6305643291
 20
8.4909855754
 30
0.0
 10
9.6295109964
 20
8.5042242034
 30
0.0
 10
9.6286163406
 20
8.5139965733
 30
0.0
 10
9.6279572283
 20
8.5205476569
 30
0.0
 10
9.6272952511
 20
8.5264854177
 30
0.0
 10
9.6266379912
 20
8.5317530548
 30
0.0
 10
9.6259920256
 20
8.536300234
 30
0.0
 10
9.6254431489
 20
8.5396156005
 30
0.0
 10
9.6250053946
 20
8.5418731942
 30
0.0
 10
9.6247024396
 20
8.5432655414
 30
0.0
 10
9.6244071111
 20
8.5444500151
 30
0.0
 10
9.624120815
 20
8.5454244215
 30
0.0
 10
9.6238437448
 20
8.5461870521
 30
0.0
 10
9.6236077236
 20
8.5466858896
 30
0.0
 10
9.6234129176
 20
8.5469709117
 30
0.0
 10
9.6232582211
 20
8.547141744
 30
0.0
 10
9.6231085485
 20
8.5472246715
 30
0.0
 10
9.6230166204
 20
8.5472246715
 30
0.0
  0
SPLINE
  5
3A1
100
AcDbEntity
  8
0
100
AcDbSpline
 62
7
  6
CONTINUOUS
 70
0
 71
3
 72
26
 73
22
 74
0
 42
0.0000001
 43
0.0000001
 44
0.0000000001
 40
0.0
 40
0.0
 40
0.0
 40
0.0
 40
0.0021329644
 40
0.0038470441
 40
0.0060908109
 40
0.012257018
 40
0.0207217134
 40
0.0315042742
 40
0.0446045959
 40
0.0599982591
 40
0.0776453728
 40
0.1195300742
 40
0.1699020867
 40
0.2282744859
 40
0.2940758227
 40
0.3666992399
 40
0.4454089515
 40
0.5294361492
 40
0.6179888194
 40
0.8053460096
 40
1.0
 40
1.0
 40
1.0
 40
1.0
 10
9.6334728252
 20
8.2033352721
 30
0.0
 10
9.6335373732
 20
8.2033352721
 30
0.0
 10
9.6336370422
 20
8.2034329907
 30
0.0
 10
9.6337157271
 20
8.2035936053
 30
0.0
 10
9.6338211743
 20
8.2038846604
 30
0.0
 10
9.6339281509
 20
8.2043836669
 30
0.0
 10
9.6340393662
 20
8.2051454444
 30
0.0
 10
9.6341350148
 20
8.2061197401
 30
0.0
 10
9.6342165793
 20
8.2073056909
 30
0.0
 10
9.6342825118
 20
8.2087005237
 30
0.0
 10
9.634353616
 20
8.2109668867
 30
0.0
 10
9.6343943634
 20
8.2142928184
 30
0.0
 10
9.6343782945
 20
8.218851249
 30
0.0
 10
9.6342982379
 20
8.2241328619
 30
0.0
 10
9.6341547828
 20
8.2300866892
 30
0.0
 10
9.6339485213
 20
8.2366544453
 30
0.0
 10
9.6336817303
 20
8.2437719817
 30
0.0
 10
9.6333566892
 20
8.2513696147
 30
0.0
 10
9.6328396512
 20
8.2622498215
 30
0.0
 10
9.6320714502
 20
8.2764694981
 30
0.0
 10
9.6313618832
 20
8.2880082786
 30
0.0
 10
9.6309788745
 20
8.2938864525
 30
0.0
  0
SPLINE
  5
3A2
100
AcDbEntity
  8
0
100
AcDbSpline
 62
7
  6
CONTINUOUS
 70
0
 71
3
 72
15
 73
11
 74
0
 42
0.0000001
 43
0.0000001
 44
0.0000000001
 40
0.0
 40
0.0
 40
0.0
 40
0.0
 40
0.3318396177
 40
0.486724622
 40
0.6287469349
 40
0.7541670099
 40
0.8595807997
 40
0.9422362743
 40
0.974336759
 40
1.0
 40
1.0
 40
1.0
 40
1.0
 10
9.6309788745
 20
8.2938864525
 30
0.0
 10
9.6303470325
 20
8.3035835632
 30
0.0
 10
9.6293372104
 20
8.3178016154
 30
0.0
 10
9.6278482939
 20
8.3361538253
 30
0.0
 10
9.6267526729
 20
8.348472868
 30
0.0
 10
9.6256843143
 20
8.3593395612
 30
0.0
 10
9.6246711025
 20
8.3684639116
 30
0.0
 10
9.623847575
 20
8.3748595184
 30
0.0
 10
9.6232156339
 20
8.3789229102
 30
0.0
 10
9.6229147346
 20
8.3805878995
 30
0.0
 10
9.6227638748
 20
8.3813241309
 30
0.0
  0
SPLINE
  5
3A3
100
AcDbEntity
  8
0
100
AcDbSpline
 62
7
  6
CONTINUOUS
 70
0
 71
3
 72
14
 73
10
 74
0
 42
0.0000001
 43
0.0000001
 44
0.0000000001
 40
0.0
 40
0.0
 40
0.0
 40
0.0
 40
0.4134419597
 40
0.5781827961
 40
0.7149966467
 40
0.8241181927
 40
0.9061649618
 40
0.9628599273
 40
1.0
 40
1.0
 40
1.0
 40
1.0
 10
9.6227638748
 20
8.3813241309
 30
0.0
 10
9.6226708041
 20
8.3817783374
 30
0.0
 10
9.6225318588
 20
8.3824120005
 30
0.0
 10
9.6223244629
 20
8.3831866792
 30
0.0
 10
9.622186822
 20
8.3836263679
 30
0.0
 10
9.6220569314
 20
8.3839707544
 30
0.0
 10
9.6219315737
 20
8.3842199965
 30
0.0
 10
9.6218177246
 20
8.3843814378
 30
0.0
 10
9.6217173997
 20
8.3844376343
 30
0.0
 10
9.6216757499
 20
8.3844376343
 30
0.0
  0
SPLINE
  5
3A4
100
AcDbEntity
  8
0
100
AcDbSpline
 62
7
  6
CONTINUOUS
 70
0
 71
3
 72
29
 73
25
 74
0
 42
0.0000001
 43
0.0000001
 44
0.0000000001
 40
0.0
 40
0.0
 40
0.0
 40
0.0
 40
0.000470398
 40
0.0014301338
 40
0.0029625286
 40
0.0050828484
 40
0.0110998823
 40
0.0194863898
 40
0.0302331658
 40
0.0433261311
 40
0.0587322027
 40
0.0764063132
 40
0.0963028787
 40
0.1183761279
 40
0.1688581759
 40
0.2273516937
 40
0.2932781254
 40
0.3660238747
 40
0.4448491062
 40
0.5289837779
 40
0.6176356776
 40
0.7099804325
 40
0.8051758674
 40
1.0
 40
1.0
 40
1.0
 40
1.0
 10
9.6342376475
 20
8.1106358179
 30
0.0
 10
9.6342518765
 20
8.1106358179
 30
0.0
 10
9.6342835964
 20
8.1106779087
 30
0.0
 10
9.6343031644
 20
8.1107606358
 30
0.0
 10
9.6343284739
 20
8.110900414
 30
0.0
 10
9.6343559367
 20
8.1111904055
 30
0.0
 10
9.6343785795
 20
8.1116908927
 30
0.0
 10
9.6343882381
 20
8.1124511759
 30
0.0
 10
9.6343827606
 20
8.1134261919
 30
0.0
 10
9.6343612034
 20
8.1146130904
 30
0.0
 10
9.6343236256
 20
8.1160093058
 30
0.0
 10
9.6342699945
 20
8.1176108956
 30
0.0
 10
9.6342004128
 20
8.1194137228
 30
0.0
 10
9.6340810092
 20
8.1222077414
 30
0.0
 10
9.6338909074
 20
8.1261672841
 30
0.0
 10
9.6336119388
 20
8.1314505231
 30
0.0
 10
9.6332752295
 20
8.1374050606
 30
0.0
 10
9.632883819
 20
8.1439724642
 30
0.0
 10
9.6324417805
 20
8.1510885821
 30
0.0
 10
9.6319534962
 20
8.1586838786
 30
0.0
 10
9.6314235457
 20
8.1666862752
 30
0.0
 10
9.6308566919
 20
8.1750215232
 30
0.0
 10
9.6300522979
 20
8.1865596065
 30
0.0
 10
9.6294213434
 20
8.1953096672
 30
0.0
 10
9.6289888888
 20
8.2011869867
 30
0.0
  0
LINE
  5
3A5
100
AcDbEntity
  8
0
100
AcDbLine
 62
7
  6
CONTINUOUS
 10
9.6289888888
 20
8.2011869867
 11
9.6288559261
 21
8.2029902132
  0
SPLINE
  5
3A6
100
AcDbEntity
  8
0
100
AcDbSpline
 62
7
  6
CONTINUOUS
 70
0
 71
3
 72
9
 73
5
 74
0
 42
0.0000001
 43
0.0000001
 44
0.0000000001
 40
0.0
 40
0.0
 40
0.0
 40
0.0
 40
0.4995478616
 40
1.0
 40
1.0
 40
1.0
 40
1.0
 10
9.5599039288
 20
9.3455402503
 30
0.0
 10
9.5590281689
 20
9.3456171776
 30
0.0
 10
9.5572876507
 20
9.3459685524
 30
0.0
 10
9.5556626811
 20
9.3466837964
 30
0.0
 10
9.5549005257
 20
9.3471251501
 30
0.0
  0
SPLINE
  5
3A7
100
AcDbEntity
  8
0
100
AcDbSpline
 62
7
  6
CONTINUOUS
 70
0
 71
3
 72
9
 73
5
 74
0
 42
0.0000001
 43
0.0000001
 44
0.0000000001
 40
0.0
 40
0.0
 40
0.0
 40
0.0
 40
0.253449261
 40
1.0
 40
1.0
 40
1.0
 40
1.0
 10
9.5537389717
 20
9.3478917298
 30
0.0
 10
9.5534946005
 20
9.348074139
 30
0.0
 10
9.552557858
 20
9.3488297551
 30
0.0
 10
9.5517319493
 20
9.3497238366
 30
0.0
 10
9.5512036317
 20
9.3504502641
 30
0.0
  0
LINE
  5
3A8
100
AcDbEntity
  8
0
100
AcDbLine
 62
7
  6
CONTINUOUS
 10
9.5512036317
 20
9.3504502641
 11
9.5504034769
 21
9.351719352
  0
LINE
  5
3A9
100
AcDbEntity
  8
0
100
AcDbLine
 62
7
  6
CONTINUOUS
 10
9.5504034769
 20
9.351719352
 11
9.5494201097
 21
9.3539762513
  0
LINE
  5
3AA
100
AcDbEntity
  8
0
100
AcDbLine
 62
7
  6
CONTINUOUS
 10
9.5494201097
 20
9.3539762513
 11
9.5491420234
 21
9.3548882484
  0
LINE
  5
3AB
100
AcDbEntity
  8
0
100
AcDbLine
 62
7
  6
CONTINUOUS
 10
9.5491420234
 20
9.3548882484
 11
9.5488492994
 21
9.3563683318
  0
LINE
  5
3AC
100
AcDbEntity
  8
0
100
AcDbLine
 62
7
  6
CONTINUOUS
 10
9.6090096089
 20
8.5299939894
 11
9.6087245595
 21
8.5352164516
  0
SPLINE
  5
3AD
100
AcDbEntity
  8
0
100
AcDbSpline
 62
7
  6
CONTINUOUS
 70
0
 71
3
 72
25
 73
21
 74
0
 42
0.0000001
 43
0.0000001
 44
0.0000000001
 40
0.0
 40
0.0
 40
0.0
 40
0.0
 40
0.0020254422
 40
0.0037208624
 40
0.0059570168
 40
0.0087558247
 40
0.0121272523
 40
0.0206037011
 40
0.0445148173
 40
0.0775812802
 40
0.1194825574
 40
0.169859333
 40
0.228227287
 40
0.2940173129
 40
0.3666267464
 40
0.445324565
 40
0.5293453314
 40
0.6178997368
 40
0.8052859823
 40
1.0
 40
1.0
 40
1.0
 40
1.0
 10
9.6130293532
 20
8.5299341392
 30
0.0
 10
9.6130906011
 20
8.5299341392
 30
0.0
 10
9.6131823804
 20
8.5300356062
 30
0.0
 10
9.6132560161
 20
8.5301924709
 30
0.0
 10
9.6133248086
 20
8.5303869532
 30
0.0
 10
9.6133893722
 20
8.530632059
 30
0.0
 10
9.6134815401
 20
8.5310658096
 30
0.0
 10
9.6136449226
 20
8.5321350153
 30
0.0
 10
9.6138231072
 20
8.5341076368
 30
0.0
 10
9.613992091
 20
8.5370928386
 30
0.0
 10
9.6141242156
 20
8.5408811925
 30
0.0
 10
9.6142178161
 20
8.5454357078
 30
0.0
 10
9.6142706396
 20
8.5507133342
 30
0.0
 10
9.6142819941
 20
8.5566634676
 30
0.0
 10
9.6142510444
 20
8.5632282941
 30
0.0
 10
9.6141783262
 20
8.5703440944
 30
0.0
 10
9.6140642764
 20
8.5779415708
 30
0.0
 10
9.6138542314
 20
8.5888245334
 30
0.0
 10
9.6134956663
 20
8.6030523922
 30
0.0
 10
9.6131259132
 20
8.6146009965
 30
0.0
 10
9.6129177344
 20
8.6204853203
 30
0.0
  0
SPLINE
  5
3AE
100
AcDbEntity
  8
0
100
AcDbSpline
 62
7
  6
CONTINUOUS
 70
0
 71
3
 72
11
 73
7
 74
0
 42
0.0000001
 43
0.0000001
 44
0.0000000001
 40
0.0
 40
0.0
 40
0.0
 40
0.0
 40
0.2940419296
 40
0.5698013078
 40
0.810073042
 40
1.0
 40
1.0
 40
1.0
 40
1.0
 10
9.6129177344
 20
8.6204853203
 30
0.0
 10
9.6126529667
 20
8.6279691733
 30
0.0
 10
9.6120800442
 20
8.6424695031
 30
0.0
 10
9.6110833993
 20
8.6630763977
 30
0.0
 10
9.610022684
 20
8.6810243229
 30
0.0
 10
9.6092203809
 20
8.6919520317
 30
0.0
 10
9.6087927127
 20
8.6967700673
 30
0.0
  0
SPLINE
  5
3AF
100
AcDbEntity
  8
0
100
AcDbSpline
 62
7
  6
CONTINUOUS
 70
0
 71
3
 72
11
 73
7
 74
0
 42
0.0000001
 43
0.0000001
 44
0.0000000001
 40
0.0
 40
0.0
 40
0.0
 40
0.0
 40
0.2106718147
 40
0.4544955266
 40
0.7214620048
 40
1.0
 40
1.0
 40
1.0
 40
1.0
 10
9.613553567
 20
8.8125667106
 30
0.0
 10
9.6137376576
 20
8.8172239758
 30
0.0
 10
9.6140230461
 20
8.827275799
 30
0.0
 10
9.6142523065
 20
8.843236103
 30
0.0
 10
9.6143038084
 20
8.8606994577
 30
0.0
 10
9.6142188746
 20
8.8727681188
 30
0.0
 10
9.6141455505
 20
8.8789300557
 30
0.0
  0
SPLINE
  5
3B0
100
AcDbEntity
  8
0
100
AcDbSpline
 62
7
  6
CONTINUOUS
 70
0
 71
3
 72
11
 73
7
 74
0
 42
0.0000001
 43
0.0000001
 44
0.0000000001
 40
0.0
 40
0.0
 40
0.0
 40
0.0
 40
0.2884803391
 40
0.5610778157
 40
0.8026410906
 40
1.0
 40
1.0
 40
1.0
 40
1.0
 10
9.6141455505
 20
8.8789300557
 30
0.0
 10
9.6140616435
 20
8.8859813461
 30
0.0
 10
9.6138223897
 20
8.8996949065
 30
0.0
 10
9.6132546564
 20
8.9193075062
 30
0.0
 10
9.6125129434
 20
8.9366849318
 30
0.0
 10
9.6118641766
 20
8.9473959061
 30
0.0
 10
9.6114908629
 20
8.9522058025
 30
0.0
  0
LINE
  5
3B1
100
AcDbEntity
  8
0
100
AcDbLine
 62
7
  6
CONTINUOUS
 10
9.6000392691
 20
8.8116996958
 11
9.5997932752
 21
8.8219578088
  0
SPLINE
  5
3B2
100
AcDbEntity
  8
0
100
AcDbSpline
 62
7
  6
CONTINUOUS
 70
0
 71
3
 72
10
 73
6
 74
0
 42
0.0000001
 43
0.0000001
 44
0.0000000001
 40
0.0
 40
0.0
 40
0.0
 40
0.0
 40
0.4476272644
 40
0.7178454839
 40
1.0
 40
1.0
 40
1.0
 40
1.0
 10
9.5485087319
 20
9.4871541653
 30
0.0
 10
9.5486000511
 20
9.4864155953
 30
0.0
 10
9.5488462774
 20
9.4852389803
 30
0.0
 10
9.5494349431
 20
9.4836814796
 30
0.0
 10
9.5498480751
 20
9.482858705
 30
0.0
 10
9.550083332
 20
9.4824528723
 30
0.0
  0
SPLINE
  5
3B3
100
AcDbEntity
  8
0
100
AcDbSpline
 62
7
  6
CONTINUOUS
 70
0
 71
3
 72
11
 73
7
 74
0
 42
0.0000001
 43
0.0000001
 44
0.0000000001
 40
0.0
 40
0.0
 40
0.0
 40
0.0
 40
0.2489052516
 40
0.4986308417
 40
0.7494625426
 40
1.0
 40
1.0
 40
1.0
 40
1.0
 10
9.550083332
 20
9.4824528723
 30
0.0
 10
9.550559567
 20
9.4816313378
 30
0.0
 10
9.5517219181
 20
9.4800980208
 30
0.0
 10
9.5539562061
 20
9.4782728047
 30
0.0
 10
9.5565645334
 20
9.4770235277
 30
0.0
 10
9.5584574766
 20
9.4766254711
 30
0.0
 10
9.5594096525
 20
9.4765421353
 30
0.0
  0
SPLINE
  5
3B4
100
AcDbEntity
  8
0
100
AcDbSpline
 62
7
  6
CONTINUOUS
 70
0
 71
3
 72
25
 73
21
 74
0
 42
0.0000001
 43
0.0000001
 44
0.0000000001
 40
0.0
 40
0.0
 40
0.0
 40
0.0
 40
0.0987855915
 40
0.1482734341
 40
0.197606374
 40
0.2467208329
 40
0.2954877193
 40
0.3441165605
 40
0.3933688492
 40
0.4413920149
 40
0.4835721331
 40
0.5165779804
 40
0.5414784541
 40
0.5599663982
 40
0.5745287883
 40
0.6023976732
 40
0.6704394299
 40
0.7588186417
 40
0.8690769047
 40
1.0
 40
1.0
 40
1.0
 40
1.0
 10
9.563359076
 20
9.584322285
 30
0.0
 10
9.5623892943
 20
9.584236118
 30
0.0
 10
9.5609415422
 20
9.5839288412
 30
0.0
 10
9.5591375104
 20
9.583185917
 30
0.0
 10
9.5578658995
 20
9.5824644305
 30
0.0
 10
9.5566959841
 20
9.5816008129
 30
0.0
 10
9.5556385437
 20
9.5806129301
 30
0.0
 10
9.5547047814
 20
9.579504285
 30
0.0
 10
9.5539365259
 20
9.578283788
 30
0.0
 10
9.5533383051
 20
9.5770441156
 30
0.0
 10
9.5529052377
 20
9.5759079618
 30
0.0
 10
9.552642957
 20
9.5749552487
 30
0.0
 10
9.5525109498
 20
9.5742135161
 30
0.0
 10
9.5524266202
 20
9.5736486542
 30
0.0
 10
9.5523461638
 20
9.5730536265
 30
0.0
 10
9.552229758
 20
9.5719709557
 30
0.0
 10
9.5520734696
 20
9.5701612959
 30
0.0
 10
9.5518794835
 20
9.5675401231
 30
0.0
 10
9.5516624804
 20
9.564299308
 30
0.0
 10
9.5515151339
 20
9.5619268582
 30
0.0
 10
9.551437272
 20
9.5606388693
 30
0.0
  0
SPLINE
  5
3B5
100
AcDbEntity
  8
0
100
AcDbSpline
 62
7
  6
CONTINUOUS
 70
0
 71
3
 72
11
 73
7
 74
0
 42
0.0000001
 43
0.0000001
 44
0.0000000001
 40
0.0
 40
0.0
 40
0.0
 40
0.0
 40
0.3543943374
 40
0.6325321924
 40
0.8300902349
 40
1.0
 40
1.0
 40
1.0
 40
1.0
 10
9.5487330357
 20
9.5038381243
 30
0.0
 10
9.5486628729
 20
9.5018710576
 30
0.0
 10
9.5485447327
 20
9.4983602661
 30
0.0
 10
9.5484190325
 20
9.4937504275
 30
0.0
 10
9.5483620734
 20
9.4901678094
 30
0.0
 10
9.5483906352
 20
9.4881208308
 30
0.0
 10
9.548503068
 20
9.4871838682
 30
0.0
  0
SPLINE
  5
3B6
100
AcDbEntity
  8
0
100
AcDbSpline
 62
7
  6
CONTINUOUS
 70
0
 71
3
 72
15
 73
11
 74
0
 42
0.0000001
 43
0.0000001
 44
0.0000000001
 40
0.0
 40
0.0
 40
0.0
 40
0.0
 40
0.0211331972
 40
0.0704458554
 40
0.1504085663
 40
0.2612673992
 40
0.4024988634
 40
0.5732760766
 40
0.7727361044
 40
1.0
 40
1.0
 40
1.0
 40
1.0
 10
9.5510481335
 20
9.41898213
 30
0.0
 10
9.5510730387
 20
9.4189818293
 30
0.0
 10
9.5511169472
 20
9.418884031
 30
0.0
 10
9.5511482883
 20
9.4187283267
 30
0.0
 10
9.5511886884
 20
9.4184379377
 30
0.0
 10
9.5512202947
 20
9.4180521107
 30
0.0
 10
9.5512499034
 20
9.4175529301
 30
0.0
 10
9.5512739674
 20
9.4169511697
 30
0.0
 10
9.5512933266
 20
9.416247025
 30
0.0
 10
9.5513021084
 20
9.415744222
 30
0.0
 10
9.5513057987
 20
9.4154764011
 30
0.0
  0
LINE
  5
3B7
100
AcDbEntity
  8
0
100
AcDbLine
 62
7
  6
CONTINUOUS
 10
9.5513057987
 20
9.4154764011
 11
9.551299048
 21
9.4104472532
  0
SPLINE
  5
3B8
100
AcDbEntity
  8
0
100
AcDbSpline
 62
7
  6
CONTINUOUS
 70
0
 71
3
 72
18
 73
14
 74
0
 42
0.0000001
 43
0.0000001
 44
0.0000000001
 40
0.0
 40
0.0
 40
0.0
 40
0.0
 40
0.182732342
 40
0.3632336739
 40
0.4528532057
 40
0.539426346
 40
0.6161943764
 40
0.6781676516
 40
0.7282549374
 40
0.7701522704
 40
0.8416298848
 40
0.9152825393
 40
1.0
 40
1.0
 40
1.0
 40
1.0
 10
9.5628669949
 20
9.4533139527
 30
0.0
 10
9.5615811392
 20
9.4531977241
 30
0.0
 10
9.559047838
 20
9.4525521031
 30
0.0
 10
9.5562878911
 20
9.4508177396
 30
0.0
 10
9.5545595015
 20
9.4489687632
 30
0.0
 10
9.5535453119
 20
9.4474908744
 30
0.0
 10
9.5527933372
 20
9.4460843183
 30
0.0
 10
9.5523005292
 20
9.4448409316
 30
0.0
 10
9.5520197841
 20
9.4437883403
 30
0.0
 10
9.5517937919
 20
9.4426556267
 30
0.0
 10
9.5515636079
 20
9.4413540292
 30
0.0
 10
9.5513545915
 20
9.4397431661
 30
0.0
 10
9.5512335471
 20
9.4386307575
 30
0.0
 10
9.5511728681
 20
9.4380352686
 30
0.0
  0
LINE
  5
3B9
100
AcDbEntity
  8
0
100
AcDbLine
 62
7
  6
CONTINUOUS
 10
9.5511728681
 20
9.4380352686
 11
9.5499869424
 21
9.421519664
  0
SPLINE
  5
3BA
100
AcDbEntity
  8
0
100
AcDbSpline
 62
7
  6
CONTINUOUS
 70
0
 71
3
 72
14
 73
10
 74
0
 42
0.0000001
 43
0.0000001
 44
0.0000000001
 40
0.0
 40
0.0
 40
0.0
 40
0.0
 40
0.0289426222
 40
0.0520229289
 40
0.0820111878
 40
0.1637011971
 40
0.2748773387
 40
0.5837467292
 40
1.0
 40
1.0
 40
1.0
 40
1.0
 10
9.5684608231
 20
9.2850630489
 30
0.0
 10
9.5685119006
 20
9.285062724
 30
0.0
 10
9.5685906524
 20
9.2849873633
 30
0.0
 10
9.5686571843
 20
9.2848635485
 30
0.0
 10
9.5687469776
 20
9.284640713
 30
0.0
 10
9.5688441351
 20
9.2842598441
 30
0.0
 10
9.5690030034
 20
9.2833878235
 30
0.0
 10
9.5691597806
 20
9.2819192021
 30
0.0
 10
9.5692465333
 20
9.2806423517
 30
0.0
 10
9.5692866055
 20
9.2799088334
 30
0.0
  0
LINE
  5
3BB
100
AcDbEntity
  8
0
100
AcDbLine
 62
7
  6
CONTINUOUS
 10
9.5692866055
 20
9.2799088334
 11
9.5694658405
 21
9.2738534541
  0
SPLINE
  5
3BC
100
AcDbEntity
  8
0
100
AcDbSpline
 62
7
  6
CONTINUOUS
 70
0
 71
3
 72
14
 73
10
 74
0
 42
0.0000001
 43
0.0000001
 44
0.0000000001
 40
0.0
 40
0.0
 40
0.0
 40
0.0
 40
0.0273614649
 40
0.0496392812
 40
0.0788548634
 40
0.1592023321
 40
0.269472816
 40
0.5783212841
 40
1.0
 40
1.0
 40
1.0
 40
1.0
 10
9.568976073
 20
9.5827939593
 30
0.0
 10
9.5690087645
 20
9.5827937189
 30
0.0
 10
9.5690584783
 20
9.5827426238
 30
0.0
 10
9.5690982453
 20
9.5826605579
 30
0.0
 10
9.5691521118
 20
9.5825106841
 30
0.0
 10
9.5692075801
 20
9.5822542279
 30
0.0
 10
9.5692950484
 20
9.5816632512
 30
0.0
 10
9.5693725804
 20
9.5806610765
 30
0.0
 10
9.569409066
 20
9.5797889218
 30
0.0
 10
9.5694241818
 20
9.5792853135
 30
0.0
  0
LINE
  5
3BD
100
AcDbEntity
  8
0
100
AcDbLine
 62
7
  6
CONTINUOUS
 10
9.5694241818
 20
9.5792853135
 11
9.5694508244
 21
9.5742590831
  0
LINE
  5
3BE
100
AcDbEntity
  8
0
100
AcDbLine
 62
7
  6
CONTINUOUS
 10
9.5692629089
 20
9.7455818916
 11
9.5693716993
 21
9.7452810029
  0
LINE
  5
3BF
100
AcDbEntity
  8
0
100
AcDbLine
 62
7
  6
CONTINUOUS
 10
9.5693716993
 20
9.7452810029
 11
9.5694602382
 21
9.7429447075
  0
LINE
  5
3C0
100
AcDbEntity
  8
0
100
AcDbLine
 62
7
  6
CONTINUOUS
 10
9.5405253329
 20
9.0098917083
 11
9.540392191
 21
8.9959733605
  0
LINE
  5
3C1
100
AcDbEntity
  8
0
100
AcDbLine
 62
7
  6
CONTINUOUS
 10
9.540392191
 20
8.9959733605
 11
9.5400706498
 21
8.9902066689
  0
SPLINE
  5
3C2
100
AcDbEntity
  8
0
100
AcDbSpline
 62
7
  6
CONTINUOUS
 70
0
 71
3
 72
9
 73
5
 74
0
 42
0.0000001
 43
0.0000001
 44
0.0000000001
 40
0.0
 40
0.0
 40
0.0
 40
0.0
 40
0.5412586028
 40
1.0
 40
1.0
 40
1.0
 40
1.0
 10
9.5694602412
 20
9.0098917083
 30
0.0
 10
9.5694602412
 20
9.0073748618
 30
0.0
 10
9.5693946887
 20
9.0027248683
 30
0.0
 10
9.5691870466
 20
8.9980777574
 30
0.0
 10
9.5690273154
 20
8.9959506038
 30
0.0
  0
SPLINE
  5
3C3
100
AcDbEntity
  8
0
100
AcDbSpline
 62
7
  6
CONTINUOUS
 70
0
 71
3
 72
14
 73
10
 74
0
 42
0.0000001
 43
0.0000001
 44
0.0000000001
 40
0.0
 40
0.0
 40
0.0
 40
0.0
 40
0.4137766375
 40
0.7231830426
 40
0.8349393087
 40
0.9172474149
 40
0.9475219517
 40
0.9708464061
 40
1.0
 40
1.0
 40
1.0
 40
1.0
 10
9.5690273154
 20
8.9959506038
 30
0.0
 10
9.5689661878
 20
8.9951365623
 30
0.0
 10
9.5688401895
 20
8.9937152671
 30
0.0
 10
9.5686317198
 20
8.992080148
 30
0.0
 10
9.5684340669
 20
8.9911056498
 30
0.0
 10
9.5683165168
 20
8.9906793119
 30
0.0
 10
9.5682111436
 20
8.99042975
 30
0.0
 10
9.5681339478
 20
8.99029139
 30
0.0
 10
9.5680450075
 20
8.9902067667
 30
0.0
 10
9.5679874909
 20
8.9902066797
 30
0.0
  0
LINE
  5
3C4
100
AcDbEntity
  8
0
100
AcDbLine
 62
7
  6
CONTINUOUS
 10
9.5396769157
 20
8.8079559876
 11
9.5401496158
 21
8.7950044809
  0
SPLINE
  5
3C5
100
AcDbEntity
  8
0
100
AcDbSpline
 62
7
  6
CONTINUOUS
 70
0
 71
3
 72
19
 73
15
 74
0
 42
0.0000001
 43
0.0000001
 44
0.0000000001
 40
0.0
 40
0.0
 40
0.0
 40
0.0
 40
0.1924660598
 40
0.3838938511
 40
0.4795980739
 40
0.575341324
 40
0.6203923889
 40
0.6606859083
 40
0.694588142
 40
0.7205561806
 40
0.779534005
 40
0.8379910954
 40
0.9105024574
 40
1.0
 40
1.0
 40
1.0
 40
1.0
 10
9.5502658553
 20
8.8411934233
 30
0.0
 10
9.5487800208
 20
8.8410632697
 30
0.0
 10
9.5458368204
 20
8.8402369871
 30
0.0
 10
9.5428080553
 20
8.8379329478
 30
0.0
 10
9.5410136975
 20
8.8355505151
 30
0.0
 10
9.5402115562
 20
8.8338898033
 30
0.0
 10
9.5397584568
 20
8.8325605224
 30
0.0
 10
9.5395359227
 20
8.8316623366
 30
0.0
 10
9.5394063154
 20
8.8308966207
 30
0.0
 10
9.5392913825
 20
8.8299824701
 30
0.0
 10
9.5392391482
 20
8.8288712983
 30
0.0
 10
9.5392028662
 20
8.8273999974
 30
0.0
 10
9.5391887222
 20
8.8256913915
 30
0.0
 10
9.5391855302
 20
8.8244359328
 30
0.0
 10
9.5391855546
 20
8.8237423677
 30
0.0
  0
LINE
  5
3C6
100
AcDbEntity
  8
0
100
AcDbLine
 62
7
  6
CONTINUOUS
 10
9.539185561
 20
8.8237430668
 11
9.5393582255
 21
8.8053519964
  0
SPLINE
  5
3C7
100
AcDbEntity
  8
0
100
AcDbSpline
 62
7
  6
CONTINUOUS
 70
0
 71
3
 72
21
 73
17
 74
0
 42
0.0000001
 43
0.0000001
 44
0.0000000001
 40
0.0
 40
0.0
 40
0.0
 40
0.0
 40
0.2691081949
 40
0.3701415948
 40
0.4473797234
 40
0.4779025013
 40
0.5057070649
 40
0.5201503246
 40
0.5393360333
 40
0.5686859009
 40
0.6090136938
 40
0.6563016811
 40
0.7048074994
 40
0.8025857312
 40
0.9009507108
 40
1.0
 40
1.0
 40
1.0
 40
1.0
 10
9.5402809854
 20
8.7622409554
 30
0.0
 10
9.5403623711
 20
8.7594602985
 30
0.0
 10
9.54048195
 20
8.7556358576
 30
0.0
 10
9.5406624863
 20
8.7510146617
 30
0.0
 10
9.5407649537
 20
8.748858693
 30
0.0
 10
9.5408484361
 20
8.7474597448
 30
0.0
 10
9.5409082306
 20
8.7467098444
 30
0.0
 10
9.5409682388
 20
8.7460775576
 30
0.0
 10
9.5410550921
 20
8.7454322269
 30
0.0
 10
9.541215544
 20
8.7445269456
 30
0.0
 10
9.5415437185
 20
8.7433610029
 30
0.0
 10
9.5420573413
 20
8.7420474387
 30
0.0
 10
9.5430225406
 20
8.7402891451
 30
0.0
 10
9.5446513049
 20
8.7383166554
 30
0.0
 10
9.5471465255
 20
8.7365055454
 30
0.0
 10
9.5490753889
 20
8.7357617342
 30
0.0
 10
9.5500690461
 20
8.7355147166
 30
0.0
  0
SPLINE
  5
3C8
100
AcDbEntity
  8
0
100
AcDbSpline
 62
7
  6
CONTINUOUS
 70
0
 71
3
 72
18
 73
14
 74
0
 42
0.0000001
 43
0.0000001
 44
0.0000000001
 40
0.0
 40
0.0
 40
0.0
 40
0.0
 40
0.0991688414
 40
0.1821870108
 40
0.2503099827
 40
0.3099489327
 40
0.3431355428
 40
0.3969650578
 40
0.4355583558
 40
0.4807989984
 40
0.5823291401
 40
0.7903830985
 40
1.0
 40
1.0
 40
1.0
 40
1.0
 10
9.539185561
 20
8.8237425126
 30
0.0
 10
9.5391855384
 20
8.8243503532
 30
0.0
 10
9.539187488
 20
8.8254670492
 30
0.0
 10
9.5392000796
 20
8.8270012349
 30
0.0
 10
9.5392206569
 20
8.8282930677
 30
0.0
 10
9.5392576985
 20
8.8292789687
 30
0.0
 10
9.5393134502
 20
8.8301762954
 30
0.0
 10
9.5394085052
 20
8.8309410616
 30
0.0
 10
9.5395611432
 20
8.8317713749
 30
0.0
 10
9.5398448598
 20
8.8328723767
 30
0.0
 10
9.5405986176
 20
8.8349205206
 30
0.0
 10
9.5424184799
 20
8.8376010693
 30
0.0
 10
9.5444864271
 20
8.8391950373
 30
0.0
 10
9.5456180335
 20
8.8398034924
 30
0.0
  0
SPLINE
  5
3C9
100
AcDbEntity
  8
0
100
AcDbSpline
 62
7
  6
CONTINUOUS
 70
0
 71
3
 72
16
 73
12
 74
0
 42
0.0000001
 43
0.0000001
 44
0.0000000001
 40
0.0
 40
0.0
 40
0.0
 40
0.0
 40
0.0087375071
 40
0.0232423666
 40
0.0743685546
 40
0.1562130289
 40
0.2685694271
 40
0.4107760257
 40
0.5813179223
 40
0.7783480502
 40
1.0
 40
1.0
 40
1.0
 40
1.0
 10
9.5501227574
 20
8.8986149147
 30
0.0
 10
9.5501404002
 20
8.898615079
 30
0.0
 10
9.5501834576
 20
8.8985844253
 30
0.0
 10
9.5502522181
 20
8.8984518426
 30
0.0
 10
9.5503335085
 20
8.8981619182
 30
0.0
 10
9.5504235636
 20
8.8976759475
 30
0.0
 10
9.550515995
 20
8.8970021932
 30
0.0
 10
9.550607682
 20
8.8961488474
 30
0.0
 10
9.5506977765
 20
8.8951232741
 30
0.0
 10
9.5507849875
 20
8.8939366529
 30
0.0
 10
9.5508375774
 20
8.893092822
 30
0.0
 10
9.5508634748
 20
8.8926459902
 30
0.0
  0
LINE
  5
3CA
100
AcDbEntity
  8
0
100
AcDbLine
 62
7
  6
CONTINUOUS
 10
9.5508634748
 20
8.8926459902
 11
9.5511337884
 21
8.8863289406
  0
LINE
  5
3CB
100
AcDbEntity
  8
0
100
AcDbLine
 62
7
  6
CONTINUOUS
 10
9.5490087274
 20
8.8565444611
 11
9.5496186891
 21
8.8452128462
  0
SPLINE
  5
3CC
100
AcDbEntity
  8
0
100
AcDbSpline
 62
7
  6
CONTINUOUS
 70
0
 71
3
 72
19
 73
15
 74
0
 42
0.0000001
 43
0.0000001
 44
0.0000000001
 40
0.0
 40
0.0
 40
0.0
 40
0.0
 40
0.1132646545
 40
0.2116781997
 40
0.2975893584
 40
0.3376809953
 40
0.3779051851
 40
0.4235793536
 40
0.48085799
 40
0.6349614524
 40
0.6793336847
 40
0.7243331665
 40
0.8155321745
 40
1.0
 40
1.0
 40
1.0
 40
1.0
 10
9.5496186891
 20
8.8452128462
 30
0.0
 10
9.5496892631
 20
8.8442262243
 30
0.0
 10
9.5498332373
 20
8.8423831481
 30
0.0
 10
9.5500816516
 20
8.8397960722
 30
0.0
 10
9.5503249007
 20
8.8378507771
 30
0.0
 10
9.5505580192
 20
8.8364178832
 30
0.0
 10
9.5507625395
 20
8.8353363882
 30
0.0
 10
9.5510744094
 20
8.8341245507
 30
0.0
 10
9.5517770521
 20
8.8319905864
 30
0.0
 10
9.5529486874
 20
8.8300338575
 30
0.0
 10
9.5543746539
 20
8.8284551895
 30
0.0
 10
9.555546555
 20
8.8273953262
 30
0.0
 10
9.5578892544
 20
8.8258363063
 30
0.0
 10
9.5602781734
 20
8.8251298854
 30
0.0
 10
9.5618827338
 20
8.8249864167
 30
0.0
  0
SPLINE
  5
3CD
100
AcDbEntity
  8
0
100
AcDbSpline
 62
7
  6
CONTINUOUS
 70
0
 71
3
 72
11
 73
7
 74
0
 42
0.0000001
 43
0.0000001
 44
0.0000000001
 40
0.0
 40
0.0
 40
0.0
 40
0.0
 40
0.3237404557
 40
0.6057144646
 40
0.8336282142
 40
1.0
 40
1.0
 40
1.0
 40
1.0
 10
9.5694508302
 20
8.7459299624
 30
0.0
 10
9.5694391561
 20
8.744851309
 30
0.0
 10
9.5694010724
 20
8.7428333318
 30
0.0
 10
9.5692938335
 20
8.7400572827
 30
0.0
 10
9.5691414065
 20
8.7378091633
 30
0.0
 10
9.5689976285
 20
8.736501809
 30
0.0
 10
9.5689055957
 20
8.7359551442
 30
0.0
  0
SPLINE
  5
3CE
100
AcDbEntity
  8
0
100
AcDbSpline
 62
7
  6
CONTINUOUS
 70
0
 71
3
 72
12
 73
8
 74
0
 42
0.0000001
 43
0.0000001
 44
0.0000000001
 40
0.0
 40
0.0
 40
0.0
 40
0.0
 40
0.4027750008
 40
0.6991192543
 40
0.8082060594
 40
0.892523078
 40
1.0
 40
1.0
 40
1.0
 40
1.0
 10
9.5689055957
 20
8.7359551442
 30
0.0
 10
9.5688753467
 20
8.7357754682
 30
0.0
 10
9.568815588
 20
8.7354645061
 30
0.0
 10
9.568721508
 20
8.7351112792
 30
0.0
 10
9.5686349395
 20
8.734905051
 30
0.0
 10
9.5685701646
 20
8.7347893857
 30
0.0
 10
9.5684944398
 20
8.734720648
 30
0.0
 10
9.5684458211
 20
8.7347203497
 30
0.0
  0
SPLINE
  5
3CF
100
AcDbEntity
  8
0
100
AcDbSpline
 62
7
  6
CONTINUOUS
 70
0
 71
3
 72
25
 73
21
 74
0
 42
0.0000001
 43
0.0000001
 44
0.0000000001
 40
0.0
 40
0.0
 40
0.0
 40
0.0
 40
0.0879688896
 40
0.1319868431
 40
0.1758796102
 40
0.2190630567
 40
0.2605384877
 40
0.2992333184
 40
0.3344014072
 40
0.3651344313
 40
0.3905576927
 40
0.4118907287
 40
0.4310957203
 40
0.4499133209
 40
0.4690371396
 40
0.5092619112
 40
0.6025264952
 40
0.7161659469
 40
0.8495153847
 40
1.0
 40
1.0
 40
1.0
 40
1.0
 10
9.5608909204
 20
8.9327877366
 30
0.0
 10
9.5597207979
 20
8.9326853259
 30
0.0
 10
9.5579739755
 20
8.9322720629
 30
0.0
 10
9.5558556132
 20
8.9312437128
 30
0.0
 10
9.55441028
 20
8.9302440116
 30
0.0
 10
9.5531427537
 20
8.9290797361
 30
0.0
 10
9.552077976
 20
8.9278166568
 30
0.0
 10
9.5512531123
 20
8.9265107023
 30
0.0
 10
9.5506549873
 20
8.9252456415
 30
0.0
 10
9.5502371015
 20
8.9240989141
 30
0.0
 10
9.5499438853
 20
8.9231060009
 30
0.0
 10
9.5497496028
 20
8.9222463252
 30
0.0
 10
9.5496191188
 20
8.9214644094
 30
0.0
 10
9.5495079228
 20
8.9207095161
 30
0.0
 10
9.5493691671
 20
8.9196750341
 30
0.0
 10
9.549147157
 20
8.9176490702
 30
0.0
 10
9.5489211844
 20
8.9143561699
 30
0.0
 10
9.5487052148
 20
8.9098180649
 30
0.0
 10
9.5485454021
 20
8.9045129787
 30
0.0
 10
9.5484763223
 20
8.9007236872
 30
0.0
 10
9.5484493935
 20
8.8987145374
 30
0.0
  0
LINE
  5
3D0
100
AcDbEntity
  8
0
100
AcDbLine
 62
7
  6
CONTINUOUS
 10
9.5693913334
 20
8.7544052167
 11
9.5694508302
 21
8.7459299624
  0
LINE
  5
3D1
100
AcDbEntity
  8
0
100
AcDbLine
 62
7
  6
CONTINUOUS
 10
9.5496528725
 20
8.6401693564
 11
9.5500415362
 21
8.6379296645
  0
LINE
  5
3D2
100
AcDbEntity
  8
0
100
AcDbLine
 62
7
  6
CONTINUOUS
 10
9.5500415362
 20
8.6379296645
 11
9.550724545
 21
8.6274763638
  0
SPLINE
  5
3D3
100
AcDbEntity
  8
0
100
AcDbSpline
 62
7
  6
CONTINUOUS
 70
0
 71
3
 72
10
 73
6
 74
0
 42
0.0000001
 43
0.0000001
 44
0.0000000001
 40
0.0
 40
0.0
 40
0.0
 40
0.0
 40
0.5905617629
 40
0.8186866056
 40
1.0
 40
1.0
 40
1.0
 40
1.0
 10
9.5500015502
 20
8.597815028
 30
0.0
 10
9.5502046273
 20
8.5941881971
 30
0.0
 10
9.550515059
 20
8.5891614714
 30
0.0
 10
9.5510238395
 20
8.5830315351
 30
0.0
 10
9.5512854079
 20
8.5805261641
 30
0.0
 10
9.5514276441
 20
8.5794200232
 30
0.0
  0
SPLINE
  5
3D4
100
AcDbEntity
  8
0
100
AcDbSpline
 62
7
  6
CONTINUOUS
 70
0
 71
3
 72
18
 73
14
 74
0
 42
0.0000001
 43
0.0000001
 44
0.0000000001
 40
0.0
 40
0.0
 40
0.0
 40
0.0
 40
0.0684291236
 40
0.1352435539
 40
0.1725090794
 40
0.2160874935
 40
0.3347612857
 40
0.41025326
 40
0.4907984408
 40
0.6577463602
 40
0.7427169703
 40
0.82837312
 40
1.0
 40
1.0
 40
1.0
 40
1.0
 10
9.5514276441
 20
8.5794200232
 30
0.0
 10
9.5514825252
 20
8.5789932245
 30
0.0
 10
9.5515995971
 20
8.5781507887
 30
0.0
 10
9.5517843638
 20
8.5770813578
 30
0.0
 10
9.551983925
 20
8.5761743981
 30
0.0
 10
9.5522905856
 20
8.5749573432
 30
0.0
 10
9.5528396512
 20
8.573557593
 30
0.0
 10
9.5536697457
 20
8.5720393252
 30
0.0
 10
9.5548604489
 20
8.5703881891
 30
0.0
 10
9.5564045794
 20
8.5689380876
 30
0.0
 10
9.5582106058
 20
8.5678120042
 30
0.0
 10
9.5601789917
 20
8.5669297095
 30
0.0
 10
9.5617811795
 20
8.5665665675
 30
0.0
 10
9.562856137
 20
8.5664702275
 30
0.0
  0
SPLINE
  5
3D5
100
AcDbEntity
  8
0
100
AcDbSpline
 62
7
  6
CONTINUOUS
 70
0
 71
3
 72
18
 73
14
 74
0
 42
0.0000001
 43
0.0000001
 44
0.0000000001
 40
0.0
 40
0.0
 40
0.0
 40
0.0
 40
0.2174801891
 40
0.4136782861
 40
0.5851165628
 40
0.7286817701
 40
0.8426351025
 40
0.8880929308
 40
0.9256726308
 40
0.9552959737
 40
0.9770750055
 40
0.9914218923
 40
1.0
 40
1.0
 40
1.0
 40
1.0
 10
9.569465849
 20
8.4455243334
 30
0.0
 10
9.5694732488
 20
8.4449000325
 30
0.0
 10
9.5694816696
 20
8.4437124416
 30
0.0
 10
9.5694739447
 20
8.4420326608
 30
0.0
 10
9.5694457887
 20
8.4405652816
 30
0.0
 10
9.5693972113
 20
8.4393347139
 30
0.0
 10
9.5693380571
 20
8.4384666708
 30
0.0
 10
9.5692775427
 20
8.4379043177
 30
0.0
 10
9.5692309013
 20
8.4375841452
 30
0.0
 10
9.5691818512
 20
8.4373333842
 30
0.0
 10
9.5691262238
 20
8.4371520638
 30
0.0
 10
9.5690749782
 20
8.4370351892
 30
0.0
 10
9.5690157277
 20
8.4369896259
 30
0.0
 10
9.5689911023
 20
8.4369894442
 30
0.0
  0
SPLINE
  5
3D6
100
AcDbEntity
  8
0
100
AcDbSpline
 62
7
  6
CONTINUOUS
 70
0
 71
3
 72
26
 73
22
 74
0
 42
0.0000001
 43
0.0000001
 44
0.0000000001
 40
0.0
 40
0.0
 40
0.0
 40
0.0
 40
0.0914187651
 40
0.1372997955
 40
0.1830819114
 40
0.228552737
 40
0.2733377655
 40
0.3170264219
 40
0.3586054633
 40
0.3958703164
 40
0.4264023822
 40
0.4506415398
 40
0.4709515285
 40
0.4894453629
 40
0.5072261987
 40
0.5433171103
 40
0.5830318788
 40
0.6274169559
 40
0.7316461492
 40
0.8565100892
 40
1.0
 40
1.0
 40
1.0
 40
1.0
 10
9.5599039143
 20
8.674243355
 30
0.0
 10
9.5588069499
 20
8.6741469968
 30
0.0
 10
9.5571692228
 20
8.6737678939
 30
0.0
 10
9.555159882
 20
8.6728480679
 30
0.0
 10
9.5537625455
 20
8.6719562759
 30
0.0
 10
9.5525105985
 20
8.6708917484
 30
0.0
 10
9.5514262229
 20
8.6696902627
 30
0.0
 10
9.5505470612
 20
8.6683874043
 30
0.0
 10
9.5498863037
 20
8.6670640026
 30
0.0
 10
9.5494120988
 20
8.6658332303
 30
0.0
 10
9.5490948634
 20
8.6647697543
 30
0.0
 10
9.5489090445
 20
8.6638835133
 30
0.0
 10
9.5488115995
 20
8.6631300764
 30
0.0
 10
9.5487382974
 20
8.662452473
 30
0.0
 10
9.5486518484
 20
8.661585056
 30
0.0
 10
9.5485674524
 20
8.6604607149
 30
0.0
 10
9.5485008283
 20
8.6590143731
 30
0.0
 10
9.5484297482
 20
8.6567469274
 30
0.0
 10
9.5483782997
 20
8.6534529392
 30
0.0
 10
9.5483719986
 20
8.6489649019
 30
0.0
 10
9.5483980319
 20
8.6457324931
 30
0.0
 10
9.5484183595
 20
8.6440041993
 30
0.0
  0
LINE
  5
3D7
100
AcDbEntity
  8
0
100
AcDbLine
 62
7
  6
CONTINUOUS
 10
9.569100093
 20
8.4566734905
 11
9.569465849
 21
8.4455243334
  0
SPLINE
  5
3D8
100
AcDbEntity
  8
0
100
AcDbSpline
 62
7
  6
CONTINUOUS
 70
0
 71
3
 72
25
 73
21
 74
0
 42
0.0000001
 43
0.0000001
 44
0.0000000001
 40
0.0
 40
0.0
 40
0.0
 40
0.0
 40
0.0004670006
 40
0.0014538398
 40
0.0051663776
 40
0.0112391241
 40
0.0196759663
 40
0.0304722279
 40
0.043616221
 40
0.0590695344
 40
0.0767843407
 40
0.1188058888
 40
0.1692948762
 40
0.2278068861
 40
0.2937197024
 40
0.3663766609
 40
0.4451125885
 40
0.6178019518
 40
0.8053976485
 40
1.0
 40
1.0
 40
1.0
 40
1.0
 10
9.5494303626
 20
8.5092080252
 30
0.0
 10
9.5494334302
 20
8.5092078829
 30
0.0
 10
9.5494398002
 20
8.5091982529
 30
0.0
 10
9.5494500702
 20
8.5091679728
 30
0.0
 10
9.549464621
 20
8.5090964463
 30
0.0
 10
9.5494820436
 20
8.5089790882
 30
0.0
 10
9.5495023091
 20
8.5088133842
 30
0.0
 10
9.5495246461
 20
8.5086018554
 30
0.0
 10
9.5495491302
 20
8.5083438986
 30
0.0
 10
9.5495756009
 20
8.5080405396
 30
0.0
 10
9.5496157951
 20
8.5075477394
 30
0.0
 10
9.5496698114
 20
8.5068249458
 30
0.0
 10
9.5497382725
 20
8.5058342249
 30
0.0
 10
9.5498127692
 20
8.5046864583
 30
0.0
 10
9.549892605
 20
8.5033929683
 30
0.0
 10
9.5499769556
 20
8.5019665229
 30
0.0
 10
9.5500980748
 20
8.4998389004
 30
0.0
 10
9.5502538484
 20
8.496956232
 30
0.0
 10
9.5504396525
 20
8.4933121915
 30
0.0
 10
9.55056093
 20
8.4908018984
 30
0.0
 10
9.5506210205
 20
8.4895236645
 30
0.0
  0
SPLINE
  5
3D9
100
AcDbEntity
  8
0
100
AcDbSpline
 62
7
  6
CONTINUOUS
 70
0
 71
3
 72
11
 73
7
 74
0
 42
0.0000001
 43
0.0000001
 44
0.0000000001
 40
0.0
 40
0.0
 40
0.0
 40
0.0
 40
0.1692179668
 40
0.3668280551
 40
0.6452750602
 40
1.0
 40
1.0
 40
1.0
 40
1.0
 10
9.5485133929
 20
8.5326007213
 30
0.0
 10
9.5484002527
 20
8.5316578545
 30
0.0
 10
9.5483724889
 20
8.5295931067
 30
0.0
 10
9.5484305582
 20
8.525975071
 30
0.0
 10
9.548558433
 20
8.5213133439
 30
0.0
 10
9.5486783554
 20
8.5177624177
 30
0.0
 10
9.5487495604
 20
8.5157730182
 30
0.0
  0
SPLINE
  5
3DA
100
AcDbEntity
  8
0
100
AcDbSpline
 62
7
  6
CONTINUOUS
 70
0
 71
3
 72
20
 73
16
 74
0
 42
0.0000001
 43
0.0000001
 44
0.0000000001
 40
0.0
 40
0.0
 40
0.0
 40
0.0
 40
0.1383108133
 40
0.2557062375
 40
0.3504313057
 40
0.4226051428
 40
0.4520876381
 40
0.4811558634
 40
0.5274958342
 40
0.5657758472
 40
0.611541118
 40
0.7072778244
 40
0.8042490304
 40
0.9019257068
 40
1.0
 40
1.0
 40
1.0
 40
1.0
 10
9.5513289492
 20
8.4611360684
 30
0.0
 10
9.5514143615
 20
8.4596843385
 30
0.0
 10
9.5515765017
 20
8.4570006545
 30
0.0
 10
9.5518149703
 20
8.4533238263
 30
0.0
 10
9.5520278576
 20
8.4503422316
 30
0.0
 10
9.5521962933
 20
8.4482842444
 30
0.0
 10
9.5523338789
 20
8.4469165209
 30
0.0
 10
9.5524728496
 20
8.4458225429
 30
0.0
 10
9.5526892197
 20
8.4446442581
 30
0.0
 10
9.5531013325
 20
8.4433343891
 30
0.0
 10
9.5538285691
 20
8.4415861224
 30
0.0
 10
9.5552414525
 20
8.4394781753
 30
0.0
 10
9.5575363214
 20
8.4374162599
 30
0.0
 10
9.5603063479
 20
8.435999126
 30
0.0
 10
9.5623424686
 20
8.4355526633
 30
0.0
 10
9.5633695532
 20
8.4354608314
 30
0.0
  0
SPLINE
  5
3DB
100
AcDbEntity
  8
0
100
AcDbSpline
 62
7
  6
CONTINUOUS
 70
0
 71
3
 72
14
 73
10
 74
0
 42
0.0000001
 43
0.0000001
 44
0.0000000001
 40
0.0
 40
0.0
 40
0.0
 40
0.0
 40
0.2601691556
 40
0.3906726282
 40
0.5206771487
 40
0.6503033306
 40
0.7799508329
 40
0.9013106874
 40
1.0
 40
1.0
 40
1.0
 40
1.0
 10
9.5594200725
 20
8.5432423238
 30
0.0
 10
9.558000878
 20
8.5431181156
 30
0.0
 10
9.5558784814
 20
8.54254004
 30
0.0
 10
9.5534185261
 20
8.5410779937
 30
0.0
 10
9.5517917313
 20
8.5396754078
 30
0.0
 10
9.5504405957
 20
8.5380114572
 30
0.0
 10
9.5494409987
 20
8.5361704206
 30
0.0
 10
9.548804415
 20
8.5343556626
 30
0.0
 10
9.5485854737
 20
8.5331666851
 30
0.0
 10
9.5485191586
 20
8.5326303721
 30
0.0
  0
LINE
  5
3DC
100
AcDbEntity
  8
0
100
AcDbLine
 62
7
  6
CONTINUOUS
 10
9.5694602509
 20
8.276838709
 11
9.5692629217
 21
8.2742015217
  0
LINE
  5
3DD
100
AcDbEntity
  8
0
100
AcDbLine
 62
7
  6
CONTINUOUS
 10
9.5691156842
 20
8.2871523012
 11
9.569371516
 21
8.2812297823
  0
LINE
  5
3DE
100
AcDbEntity
  8
0
100
AcDbLine
 62
7
  6
CONTINUOUS
 10
9.569371516
 20
8.2812297823
 11
9.5694602509
 21
8.276838709
  0
SPLINE
  5
3DF
100
AcDbEntity
  8
0
100
AcDbSpline
 62
7
  6
CONTINUOUS
 70
0
 71
3
 72
12
 73
8
 74
0
 42
0.0000001
 43
0.0000001
 44
0.0000000001
 40
0.0
 40
0.0
 40
0.0
 40
0.0
 40
0.2076164704
 40
0.4641156082
 40
0.598365091
 40
0.7323000141
 40
1.0
 40
1.0
 40
1.0
 40
1.0
 10
9.5485087564
 20
8.5326294296
 30
0.0
 10
9.5485863894
 20
8.5332573084
 30
0.0
 10
9.5488591428
 20
8.5346513565
 30
0.0
 10
9.5495301352
 20
8.5363598797
 30
0.0
 10
9.5503157109
 20
8.5377551054
 30
0.0
 10
9.5512654986
 20
8.5390863488
 30
0.0
 10
9.5521292324
 20
8.5399690438
 30
0.0
 10
9.5527555108
 20
8.540491751
 30
0.0
  0
SPLINE
  5
3E0
100
AcDbEntity
  8
0
100
AcDbSpline
 62
7
  6
CONTINUOUS
 70
0
 71
3
 72
8
 73
4
 74
0
 42
0.0000001
 43
0.0000001
 44
0.0000000001
 40
0.0
 40
0.0
 40
0.0
 40
0.0
 40
1.0
 40
1.0
 40
1.0
 40
1.0
 10
9.5626480648
 20
8.4355458181
 30
0.0
 10
9.5614863387
 20
8.4357188519
 30
0.0
 10
9.5603371135
 20
8.4360636137
 30
0.0
 10
9.5592752123
 20
8.4365655241
 30
0.0
  0
LINE
  5
3E1
100
AcDbEntity
  8
0
100
AcDbLine
 62
7
  6
CONTINUOUS
 10
9.5546618933
 20
8.4403955527
 11
9.5539774851
 21
8.4414814477
  0
LINE
  5
3E2
100
AcDbEntity
  8
0
100
AcDbLine
 62
7
  6
CONTINUOUS
 10
9.5539774851
 20
8.4414814477
 11
9.5530473475
 21
8.4435209121
  0
LINE
  5
3E3
100
AcDbEntity
  8
0
100
AcDbLine
 62
7
  6
CONTINUOUS
 10
9.5530473475
 20
8.4435209121
 11
9.5528206206
 21
8.4442053377
  0
LINE
  5
3E4
100
AcDbEntity
  8
0
100
AcDbLine
 62
7
  6
CONTINUOUS
 10
9.5528206206
 20
8.4442053377
 11
9.5525247444
 21
8.445503047
  0
SPLINE
  5
3E5
100
AcDbEntity
  8
0
100
AcDbSpline
 62
7
  6
CONTINUOUS
 70
0
 71
3
 72
14
 73
10
 74
0
 42
0.0000001
 43
0.0000001
 44
0.0000000001
 40
0.0
 40
0.0
 40
0.0
 40
0.0
 40
0.362866984
 40
0.5194103142
 40
0.6554467084
 40
0.7688024749
 40
0.8584134037
 40
0.9266415922
 40
1.0
 40
1.0
 40
1.0
 40
1.0
 10
9.5491848766
 20
8.504349787
 30
0.0
 10
9.5490424751
 20
8.5077659167
 30
0.0
 10
9.5488480514
 20
8.5126562073
 30
0.0
 10
9.5486307916
 20
8.5188282934
 30
0.0
 10
9.5485108394
 20
8.522651368
 30
0.0
 10
9.5484268143
 20
8.5258444167
 30
0.0
 10
9.5483805267
 20
8.5283996446
 30
0.0
 10
9.548368511
 20
8.5305773499
 30
0.0
 10
9.5484207179
 20
8.5319134531
 30
0.0
 10
9.5485030714
 20
8.5325997456
 30
0.0
  0
SPLINE
  5
3E6
100
AcDbEntity
  8
0
100
AcDbSpline
 62
7
  6
CONTINUOUS
 70
0
 71
3
 72
18
 73
14
 74
0
 42
0.0000001
 43
0.0000001
 44
0.0000000001
 40
0.0
 40
0.0
 40
0.0
 40
0.0
 40
0.1855387056
 40
0.3653643072
 40
0.5323044905
 40
0.6807080536
 40
0.8055146441
 40
0.8577363951
 40
0.9025027192
 40
0.9393586128
 40
0.9680355267
 40
0.9883164122
 40
1.0
 40
1.0
 40
1.0
 40
1.0
 10
9.5682969021
 20
8.2011869993
 30
0.0
 10
9.5683856462
 20
8.1999742543
 30
0.0
 10
9.5685569164
 20
8.1975858507
 30
0.0
 10
9.5687963762
 20
8.1941054454
 30
0.0
 10
9.5690085598
 20
8.1908671294
 30
0.0
 10
9.5691859871
 20
8.1879879202
 30
0.0
 10
9.5693064223
 20
8.1858584757
 30
0.0
 10
9.5693795646
 20
8.1844067216
 30
0.0
 10
9.5694192458
 20
8.1835303979
 30
0.0
 10
9.5694462704
 20
8.1828080863
 30
0.0
 10
9.569462061
 20
8.1822457036
 30
0.0
 10
9.5694638599
 20
8.1818486054
 30
0.0
 10
9.5694603047
 20
8.1816385726
 30
0.0
 10
9.56945084
 20
8.1815625876
 30
0.0
  0
LINE
  5
3E7
100
AcDbEntity
  8
0
100
AcDbLine
 62
7
  6
CONTINUOUS
 10
9.5492717655
 20
8.9188669258
 11
9.5495417633
 21
8.921020423
  0
LINE
  5
3E8
100
AcDbEntity
  8
0
100
AcDbLine
 62
7
  6
CONTINUOUS
 10
9.5496258536
 20
8.9215332045
 11
9.5499688143
 21
8.9231898481
  0
LINE
  5
3E9
100
AcDbEntity
  8
0
100
AcDbLine
 62
7
  6
CONTINUOUS
 10
9.5499688143
 20
8.9231898481
 11
9.5502312378
 21
8.9241094991
  0
LINE
  5
3EA
100
AcDbEntity
  8
0
100
AcDbLine
 62
7
  6
CONTINUOUS
 10
9.5502312378
 20
8.9241094991
 11
9.5512033282
 21
8.9263567302
  0
LINE
  5
3EB
100
AcDbEntity
  8
0
100
AcDbLine
 62
7
  6
CONTINUOUS
 10
9.5512033282
 20
8.9263567302
 11
9.5520004048
 21
8.927655302
  0
SPLINE
  5
3EC
100
AcDbEntity
  8
0
100
AcDbSpline
 62
7
  6
CONTINUOUS
 70
0
 71
3
 72
9
 73
5
 74
0
 42
0.0000001
 43
0.0000001
 44
0.0000000001
 40
0.0
 40
0.0
 40
0.0
 40
0.0
 40
0.4920501132
 40
1.0
 40
1.0
 40
1.0
 40
1.0
 10
9.5520004048
 20
8.927655302
 30
0.0
 10
9.5523455712
 20
8.92815109
 30
0.0
 10
9.5531250782
 20
8.9291066488
 30
0.0
 10
9.554043573
 20
8.9299296069
 30
0.0
 10
9.5545376596
 20
8.93031012
 30
0.0
  0
SPLINE
  5
3ED
100
AcDbEntity
  8
0
100
AcDbSpline
 62
7
  6
CONTINUOUS
 70
0
 71
3
 72
9
 73
5
 74
0
 42
0.0000001
 43
0.0000001
 44
0.0000000001
 40
0.0
 40
0.0
 40
0.0
 40
0.0
 40
0.4993042235
 40
1.0
 40
1.0
 40
1.0
 40
1.0
 10
9.5559005911
 20
8.9312216834
 30
0.0
 10
9.5566580541
 20
8.9316574008
 30
0.0
 10
9.5582761893
 20
8.9323636916
 30
0.0
 10
9.5600073585
 20
8.9327097705
 30
0.0
 10
9.5608802534
 20
8.9327866894
 30
0.0
  0
SPLINE
  5
3EE
100
AcDbEntity
  8
0
100
AcDbSpline
 62
7
  6
CONTINUOUS
 70
0
 71
3
 72
24
 73
20
 74
0
 42
0.0000001
 43
0.0000001
 44
0.0000000001
 40
0.0
 40
0.0
 40
0.0
 40
0.0
 40
0.0014940674
 40
0.0052537765
 40
0.0113689724
 40
0.0198469964
 40
0.0306841463
 40
0.0438688257
 40
0.0593622011
 40
0.0771160122
 40
0.1192102968
 40
0.1697612052
 40
0.2283190148
 40
0.2942581315
 40
0.3669195225
 40
0.4456356576
 40
0.6182157455
 40
0.8056257428
 40
1.0
 40
1.0
 40
1.0
 40
1.0
 10
9.5665504398
 20
8.2208713556
 30
0.0
 10
9.5665602775
 20
8.2208709581
 30
0.0
 10
9.5665731213
 20
8.2208267609
 30
0.0
 10
9.5665920614
 20
8.2207645432
 30
0.0
 10
9.5666144662
 20
8.2206399876
 30
0.0
 10
9.5666410129
 20
8.2204769827
 30
0.0
 10
9.5666708351
 20
8.2202639329
 30
0.0
 10
9.5667040066
 20
8.2200059938
 30
0.0
 10
9.5667403329
 20
8.2197020577
 30
0.0
 10
9.5667960859
 20
8.2192087535
 30
0.0
 10
9.5668721536
 20
8.2184851855
 30
0.0
 10
9.5669699679
 20
8.2174935965
 30
0.0
 10
9.5670777046
 20
8.2163450866
 30
0.0
 10
9.5671943403
 20
8.2150510818
 30
0.0
 10
9.5673186793
 20
8.2136243968
 30
0.0
 10
9.5674986641
 20
8.2114971537
 30
0.0
 10
9.5677328705
 20
8.2086156258
 30
0.0
 10
9.5680160754
 20
8.2049734191
 30
0.0
 10
9.5682034205
 20
8.2024644867
 30
0.0
 10
9.5682969021
 20
8.2011869993
 30
0.0
  0
LINE
  5
3EF
100
AcDbEntity
  8
0
100
AcDbLine
 62
7
  6
CONTINUOUS
 10
9.5667122981
 20
8.3135713845
 11
9.5672499264
 21
8.3109447768
  0
LINE
  5
3F0
100
AcDbEntity
  8
0
100
AcDbLine
 62
7
  6
CONTINUOUS
 10
9.5672499264
 20
8.3109447768
 11
9.5682422933
 21
8.3006323682
  0
SPLINE
  5
3F1
100
AcDbEntity
  8
0
100
AcDbSpline
 62
7
  6
CONTINUOUS
 70
0
 71
3
 72
12
 73
8
 74
0
 42
0.0000001
 43
0.0000001
 44
0.0000000001
 40
0.0
 40
0.0
 40
0.0
 40
0.0
 40
0.0323347982
 40
0.0865971936
 40
0.2781969549
 40
0.5835429061
 40
1.0
 40
1.0
 40
1.0
 40
1.0
 10
9.5670204669
 20
8.4763575363
 30
0.0
 10
9.5670458213
 20
8.4763577234
 30
0.0
 10
9.5671078251
 20
8.4763133302
 30
0.0
 10
9.5672118665
 20
8.476123564
 30
0.0
 10
9.5673411847
 20
8.4757057568
 30
0.0
 10
9.5674930593
 20
8.4750078305
 30
0.0
 10
9.5675878329
 20
8.4744489157
 30
0.0
 10
9.5676383566
 20
8.4741262865
 30
0.0
  0
LINE
  5
3F2
100
AcDbEntity
  8
0
100
AcDbLine
 62
7
  6
CONTINUOUS
 10
9.5676383566
 20
8.4741262865
 11
9.5681687732
 21
8.4697550932
  0
LINE
  5
3F3
100
AcDbEntity
  8
0
100
AcDbLine
 62
7
  6
CONTINUOUS
 10
9.5681687732
 20
8.4697550932
 11
9.5686783233
 21
8.4636724261
  0
SPLINE
  5
3F4
100
AcDbEntity
  8
0
100
AcDbSpline
 62
7
  6
CONTINUOUS
 70
0
 71
3
 72
15
 73
11
 74
0
 42
0.0000001
 43
0.0000001
 44
0.0000000001
 40
0.0
 40
0.0
 40
0.0
 40
0.0
 40
0.0281005755
 40
0.0512948932
 40
0.0815865646
 40
0.164161196
 40
0.2762591361
 40
0.4174283071
 40
0.586284089
 40
1.0
 40
1.0
 40
1.0
 40
1.0
 10
9.5675356424
 20
8.7740900837
 30
0.0
 10
9.5675931941
 20
8.774090437
 30
0.0
 10
9.5676810588
 20
8.7740000883
 30
0.0
 10
9.5677580685
 20
8.7738584632
 30
0.0
 10
9.56786633
 20
8.7735981572
 30
0.0
 10
9.5679900546
 20
8.7731552288
 30
0.0
 10
9.5681333984
 20
8.7724815582
 30
0.0
 10
9.5682751993
 20
8.7716287547
 30
0.0
 10
9.568476728
 20
8.7701599989
 30
0.0
 10
9.5685996966
 20
8.7689728897
 30
0.0
 10
9.5686776238
 20
8.7681291486
 30
0.0
  0
LINE
  5
3F5
100
AcDbEntity
  8
0
100
AcDbLine
 62
7
  6
CONTINUOUS
 10
9.5686776238
 20
8.7681291486
 11
9.5691174748
 21
8.761807515
  0
LINE
  5
3F6
100
AcDbEntity
  8
0
100
AcDbLine
 62
7
  6
CONTINUOUS
 10
9.5506210205
 20
8.4895236645
 11
9.5512990587
 21
8.4698992568
  0
LINE
  5
3F7
100
AcDbEntity
  8
0
100
AcDbLine
 62
7
  6
CONTINUOUS
 10
9.5510140014
 20
8.6204853204
 11
9.5512886794
 21
8.6093361633
  0
SPLINE
  5
3F8
100
AcDbEntity
  8
0
100
AcDbSpline
 62
7
  6
CONTINUOUS
 70
0
 71
3
 72
18
 73
14
 74
0
 42
0.0000001
 43
0.0000001
 44
0.0000000001
 40
0.0
 40
0.0
 40
0.0
 40
0.0
 40
0.218588907
 40
0.4157915059
 40
0.5881009873
 40
0.7323567234
 40
0.8467425516
 40
0.892279245
 40
0.9298109362
 40
0.95920622
 40
0.9804723079
 40
0.9937621848
 40
1.0
 40
1.0
 40
1.0
 40
1.0
 10
9.5512886794
 20
8.6093361633
 30
0.0
 10
9.5512960657
 20
8.6087120502
 30
0.0
 10
9.5513066602
 20
8.6075248373
 30
0.0
 10
9.5513096577
 20
8.6058455767
 30
0.0
 10
9.5512991894
 20
8.6043785458
 30
0.0
 10
9.551275219
 20
8.6031483002
 30
0.0
 10
9.5512430118
 20
8.6022800574
 30
0.0
 10
9.551208761
 20
8.6017175616
 30
0.0
 10
9.5511814825
 20
8.6013969011
 30
0.0
 10
9.55115354
 20
8.6011483144
 30
0.0
 10
9.5511190609
 20
8.6009645676
 30
0.0
 10
9.5510930076
 20
8.6008591965
 30
0.0
 10
9.5510555741
 20
8.6008015001
 30
0.0
 10
9.551037764
 20
8.6008012843
 30
0.0
  0
SPLINE
  5
3F9
100
AcDbEntity
  8
0
100
AcDbSpline
 62
7
  6
CONTINUOUS
 70
0
 71
3
 72
14
 73
10
 74
0
 42
0.0000001
 43
0.0000001
 44
0.0000000001
 40
0.0
 40
0.0
 40
0.0
 40
0.0
 40
0.0289442348
 40
0.0522448147
 40
0.0825326269
 40
0.1649265516
 40
0.2767731938
 40
0.5863400274
 40
1.0
 40
1.0
 40
1.0
 40
1.0
 10
9.5679875622
 20
9.0295767367
 30
0.0
 10
9.5680459912
 20
9.0295768255
 30
0.0
 10
9.5681361847
 20
9.0294895778
 30
0.0
 10
9.5682140235
 20
9.0293480898
 30
0.0
 10
9.568320723
 20
9.029092013
 30
0.0
 10
9.5684395367
 20
9.0286550724
 30
0.0
 10
9.5686393772
 20
9.0276567413
 30
0.0
 10
9.5688495242
 20
9.0259830526
 30
0.0
 10
9.5689762016
 20
9.024528468
 30
0.0
 10
9.5690375168
 20
9.023695675
 30
0.0
  0
SPLINE
  5
3FA
100
AcDbEntity
  8
0
100
AcDbSpline
 62
7
  6
CONTINUOUS
 70
0
 71
3
 72
9
 73
5
 74
0
 42
0.0000001
 43
0.0000001
 44
0.0000000001
 40
0.0
 40
0.0
 40
0.0
 40
0.0
 40
0.4598005966
 40
1.0
 40
1.0
 40
1.0
 40
1.0
 10
9.5690375168
 20
9.023695675
 30
0.0
 10
9.569192962
 20
9.0215843931
 30
0.0
 10
9.5693961271
 20
9.0169830566
 30
0.0
 10
9.5694602412
 20
9.012378874
 30
0.0
 10
9.5694602412
 20
9.0098917083
 30
0.0
  0
SPLINE
  5
3FB
100
AcDbEntity
  8
0
100
AcDbSpline
 62
7
  6
CONTINUOUS
 70
0
 71
3
 72
11
 73
7
 74
0
 42
0.0000001
 43
0.0000001
 44
0.0000000001
 40
0.0
 40
0.0
 40
0.0
 40
0.0
 40
0.3240432059
 40
0.6062182904
 40
0.8341124103
 40
1.0
 40
1.0
 40
1.0
 40
1.0
 10
9.5512990515
 20
8.8704547978
 30
0.0
 10
9.5512873947
 20
8.8693759297
 30
0.0
 10
9.5512547479
 20
8.867357705
 30
0.0
 10
9.5511732824
 20
8.8645814496
 30
0.0
 10
9.551063495
 20
8.8623334979
 30
0.0
 10
9.5509629626
 20
8.8610255594
 30
0.0
 10
9.5508992938
 20
8.8604769036
 30
0.0
  0
LINE
  5
3FC
100
AcDbEntity
  8
0
100
AcDbLine
 62
7
  6
CONTINUOUS
 10
9.5508992938
 20
8.8604769036
 11
9.550588584
 21
8.8592451898
  0
LINE
  5
3FD
100
AcDbEntity
  8
0
100
AcDbLine
 62
7
  6
CONTINUOUS
 10
9.5400706499
 20
9.0295767476
 11
9.5403921879
 21
9.0238101361
  0
LINE
  5
3FE
100
AcDbEntity
  8
0
100
AcDbLine
 62
7
  6
CONTINUOUS
 10
9.5403921879
 20
9.0238101361
 11
9.540525331
 21
9.0098917083
  0
SPLINE
  5
3FF
100
AcDbEntity
  8
0
100
AcDbSpline
 62
7
  6
CONTINUOUS
 70
0
 71
3
 72
24
 73
20
 74
0
 42
0.0000001
 43
0.0000001
 44
0.0000000001
 40
0.0
 40
0.0
 40
0.0
 40
0.0
 40
0.0860931191
 40
0.1290825173
 40
0.1718798855
 40
0.2147756737
 40
0.2559289881
 40
0.291871977
 40
0.320418017
 40
0.3404217923
 40
0.3554232868
 40
0.3700135117
 40
0.3855907136
 40
0.4203013431
 40
0.4610872427
 40
0.5629721047
 40
0.6899034872
 40
0.8375079648
 40
1.0
 40
1.0
 40
1.0
 40
1.0
 10
9.5510860044
 20
9.0628892617
 30
0.0
 10
9.5496830549
 20
9.0627650645
 30
0.0
 10
9.5475915235
 20
9.0621930386
 30
0.0
 10
9.5451493368
 20
9.0607807788
 30
0.0
 10
9.5435319272
 20
9.0594127848
 30
0.0
 10
9.542217353
 20
9.0577941366
 30
0.0
 10
9.5412245772
 20
9.0560918032
 30
0.0
 10
9.5405935661
 20
9.0544751435
 30
0.0
 10
9.5402699679
 20
9.0531292849
 30
0.0
 10
9.5400860501
 20
9.0521053617
 30
0.0
 10
9.5399991103
 20
9.05129834
 30
0.0
 10
9.5399342095
 20
9.0505623049
 30
0.0
 10
9.5398472122
 20
9.0495044632
 30
0.0
 10
9.5397591087
 20
9.0480170035
 30
0.0
 10
9.539630647
 20
9.0451179658
 30
0.0
 10
9.5394932298
 20
9.0407093873
 30
0.0
 10
9.5393658483
 20
9.0345526218
 30
0.0
 10
9.5392680321
 20
9.0274037039
 30
0.0
 10
9.5392274413
 20
9.0223308319
 30
0.0
 10
9.5392125317
 20
9.0196725934
 30
0.0
  0
SPLINE
  5
400
100
AcDbEntity
  8
0
100
AcDbSpline
 62
7
  6
CONTINUOUS
 70
0
 71
3
 72
24
 73
20
 74
0
 42
0.0000001
 43
0.0000001
 44
0.0000000001
 40
0.0
 40
0.0
 40
0.0
 40
0.0
 40
0.1574680451
 40
0.2971620354
 40
0.4148747661
 40
0.5079154947
 40
0.54523971
 40
0.577749998
 40
0.5932360136
 40
0.6093252178
 40
0.6288475449
 40
0.6563009514
 40
0.6921231925
 40
0.7338782138
 40
0.7775063111
 40
0.8215068125
 40
0.8659202684
 40
0.9106638405
 40
1.0
 40
1.0
 40
1.0
 40
1.0
 10
9.5392615069
 20
8.9937108238
 30
0.0
 10
9.5392834978
 20
8.9914703776
 30
0.0
 10
9.5393350287
 20
8.9872424654
 30
0.0
 10
9.5394419629
 20
8.9813402723
 30
0.0
 10
9.539572061
 20
8.9763555665
 30
0.0
 10
9.5397043099
 20
8.9728280006
 30
0.0
 10
9.5398320683
 20
8.9705140208
 30
0.0
 10
9.5399199478
 20
8.9693030066
 30
0.0
 10
9.5400119715
 20
8.9683957992
 30
0.0
 10
9.5400949967
 20
8.9676733773
 30
0.0
 10
9.5402421696
 20
8.9667877908
 30
0.0
 10
9.5405064874
 20
8.9656383898
 30
0.0
 10
9.5409972794
 20
8.9642226446
 30
0.0
 10
9.541775528
 20
8.962677317
 30
0.0
 10
9.5428366906
 20
8.9611637075
 30
0.0
 10
9.5441541647
 20
8.9598136368
 30
0.0
 10
9.5456746473
 20
8.9586692029
 30
0.0
 10
9.5479300915
 20
8.9574853905
 30
0.0
 10
9.5498197511
 20
8.9570058868
 30
0.0
 10
9.5510859552
 20
8.9568940791
 30
0.0
  0
LINE
  5
401
100
AcDbEntity
  8
0
100
AcDbLine
 62
7
  6
CONTINUOUS
 10
9.5405253353
 20
8.7712232899
 11
9.5404643987
 21
8.7685860805
  0
LINE
  5
402
100
AcDbEntity
  8
0
100
AcDbLine
 62
7
  6
CONTINUOUS
 10
9.5404189283
 20
8.7815378298
 11
9.5405253342
 21
8.7712232899
  0
LINE
  5
403
100
AcDbEntity
  8
0
100
AcDbLine
 62
7
  6
CONTINUOUS
 10
9.6157688
 20
8.3525455515
 11
9.6145177363
 21
8.3738343289
  0
LINE
  5
404
100
AcDbEntity
  8
0
100
AcDbLine
 62
7
  6
CONTINUOUS
 10
9.6145177363
 20
8.3738343289
 11
9.613933217
 21
8.384029838
  0
LINE
  5
405
100
AcDbEntity
  8
0
100
AcDbLine
 62
7
  6
CONTINUOUS
 10
9.613933217
 20
8.384029838
 11
9.6130966221
 21
8.3989191052
  0
LINE
  5
406
100
AcDbEntity
  8
0
100
AcDbLine
 62
7
  6
CONTINUOUS
 10
9.6011536772
 20
8.6778666379
 11
9.6006791269
 21
8.6940077924
  0
LINE
  5
407
100
AcDbEntity
  8
0
100
AcDbLine
 62
7
  6
CONTINUOUS
 10
9.6006791269
 20
8.6940077924
 11
9.6005737744
 21
8.6977044908
  0
LINE
  5
408
100
AcDbEntity
  8
0
100
AcDbLine
 62
7
  6
CONTINUOUS
 10
9.5964007136
 20
8.9358923692
 11
9.5962994858
 21
8.9529343247
  0
LINE
  5
409
100
AcDbEntity
  8
0
100
AcDbLine
 62
7
  6
CONTINUOUS
 10
9.5962995877
 20
9.0668685106
 11
9.5964005715
 21
9.0838695501
  0
LINE
  5
40A
100
AcDbEntity
  8
0
100
AcDbLine
 62
7
  6
CONTINUOUS
 10
9.6005740746
 20
9.3220897125
 11
9.601153556
 21
9.3419129271
  0
LINE
  5
40B
100
AcDbEntity
  8
0
100
AcDbLine
 62
7
  6
CONTINUOUS
 10
9.6130964777
 20
9.6208619016
 11
9.6141597457
 21
9.6397246601
  0
LINE
  5
40C
100
AcDbEntity
  8
0
100
AcDbLine
 62
7
  6
CONTINUOUS
 10
9.6141597457
 20
9.6397246601
 11
9.6157686566
 21
9.6672356502
  0
LINE
  5
40D
100
AcDbEntity
  8
0
100
AcDbLine
 62
7
  6
CONTINUOUS
 10
9.6304339359
 20
9.8785916754
 11
9.6329009975
 21
9.909256098
  0
LINE
  5
40E
100
AcDbEntity
  8
0
100
AcDbLine
 62
7
  6
CONTINUOUS
 10
9.5402979813
 20
9.2315123825
 11
9.5397223437
 21
9.212126199
  0
LINE
  5
40F
100
AcDbEntity
  8
0
100
AcDbLine
 62
7
  6
CONTINUOUS
 10
9.5397223437
 20
9.212126199
 11
9.5396769118
 21
9.2118274288
  0
LINE
  5
410
100
AcDbEntity
  8
0
100
AcDbLine
 62
7
  6
CONTINUOUS
 10
9.5405253314
 20
9.2485601285
 11
9.5404189273
 21
9.2382456918
  0
SPLINE
  5
411
100
AcDbEntity
  8
0
100
AcDbSpline
 62
7
  6
CONTINUOUS
 70
0
 71
3
 72
12
 73
8
 74
0
 42
0.0000001
 43
0.0000001
 44
0.0000000001
 40
0.0
 40
0.0
 40
0.0
 40
0.0
 40
0.3392277386
 40
0.6279952222
 40
0.8520399885
 40
0.9361289507
 40
1.0
 40
1.0
 40
1.0
 40
1.0
 10
9.5511237037
 20
9.1334639146
 30
0.0
 10
9.5510831361
 20
9.1321556764
 30
0.0
 10
9.5509940766
 20
9.1297341494
 30
0.0
 10
9.5508221009
 20
9.1264511271
 30
0.0
 10
9.5506531177
 20
9.1241537259
 30
0.0
 10
9.5504998933
 20
9.1227265312
 30
0.0
 10
9.5504199807
 20
9.1221609672
 30
0.0
 10
9.5503765466
 20
9.1219183866
 30
0.0
  0
LINE
  5
412
100
AcDbEntity
  8
0
100
AcDbLine
 62
7
  6
CONTINUOUS
 10
9.5503765466
 20
9.1219183866
 11
9.5501123821
 21
9.1211685109
  0
SPLINE
  5
413
100
AcDbEntity
  8
0
100
AcDbSpline
 62
7
  6
CONTINUOUS
 70
0
 71
3
 72
18
 73
14
 74
0
 42
0.0000001
 43
0.0000001
 44
0.0000000001
 40
0.0
 40
0.0
 40
0.0
 40
0.0
 40
0.0116839556
 40
0.0319656326
 40
0.0606432861
 40
0.0974993909
 40
0.1422656029
 40
0.1944872747
 40
0.3192929171
 40
0.467694199
 40
0.6346334777
 40
0.8144603932
 40
1.0
 40
1.0
 40
1.0
 40
1.0
 10
9.5694658405
 20
9.8382208289
 30
0.0
 10
9.5694753055
 20
9.8381448416
 30
0.0
 10
9.5694788596
 20
9.8379348011
 30
0.0
 10
9.5694770601
 20
9.8375376905
 30
0.0
 10
9.5694612687
 20
9.8369752964
 30
0.0
 10
9.5694342445
 20
9.8362529792
 30
0.0
 10
9.5693945639
 20
9.8353766553
 30
0.0
 10
9.5693214223
 20
9.8339249087
 30
0.0
 10
9.5692009885
 20
9.8317954859
 30
0.0
 10
9.5690235623
 20
9.8289163038
 30
0.0
 10
9.5688113785
 20
9.8256780001
 30
0.0
 10
9.5685719186
 20
9.8221975862
 30
0.0
 10
9.5684006479
 20
9.8198091681
 30
0.0
 10
9.5683119034
 20
9.8185964172
 30
0.0
  0
SPLINE
  5
414
100
AcDbEntity
  8
0
100
AcDbSpline
 62
7
  6
CONTINUOUS
 70
0
 71
3
 72
24
 73
20
 74
0
 42
0.0000001
 43
0.0000001
 44
0.0000000001
 40
0.0
 40
0.0
 40
0.0
 40
0.0
 40
0.1943727266
 40
0.3817801956
 40
0.5543609174
 40
0.6330778505
 40
0.7057400823
 40
0.7716800117
 40
0.8302384363
 40
0.8807896687
 40
0.9228841056
 40
0.9406379685
 40
0.9561314011
 40
0.9693161585
 40
0.9801533401
 40
0.9886313186
 40
0.9947464214
 40
0.99850602
 40
1.0
 40
1.0
 40
1.0
 40
1.0
 10
9.5683119034
 20
9.8185964172
 30
0.0
 10
9.5682184224
 20
9.8173189397
 30
0.0
 10
9.5680310795
 20
9.8148100337
 30
0.0
 10
9.567747876
 20
9.8111678491
 30
0.0
 10
9.5675136717
 20
9.808286328
 30
0.0
 10
9.5673336857
 20
9.8061590697
 30
0.0
 10
9.5672093446
 20
9.8047323685
 30
0.0
 10
9.5670927067
 20
9.8034383487
 30
0.0
 10
9.5669849682
 20
9.8022898272
 30
0.0
 10
9.5668871531
 20
9.801298231
 30
0.0
 10
9.5668110853
 20
9.8005746594
 30
0.0
 10
9.5667553325
 20
9.8000813535
 30
0.0
 10
9.5667190063
 20
9.7997774161
 30
0.0
 10
9.5666858349
 20
9.7995194758
 30
0.0
 10
9.5666560127
 20
9.7993064255
 30
0.0
 10
9.5666294663
 20
9.7991434215
 30
0.0
 10
9.566607061
 20
9.799018867
 30
0.0
 10
9.5665881222
 20
9.7989566521
 30
0.0
 10
9.566575277
 20
9.7989124555
 30
0.0
 10
9.5665654398
 20
9.7989120592
 30
0.0
  0
LINE
  5
415
100
AcDbEntity
  8
0
100
AcDbLine
 62
7
  6
CONTINUOUS
 10
9.5694602382
 20
9.7429447075
 11
9.5691157115
 21
9.732631932
  0
LINE
  5
416
100
AcDbEntity
  8
0
100
AcDbLine
 62
7
  6
CONTINUOUS
 10
9.5682432508
 20
9.7191634296
 11
9.5672505637
 21
9.7088436293
  0
LINE
  5
417
100
AcDbEntity
  8
0
100
AcDbLine
 62
7
  6
CONTINUOUS
 10
9.5672505637
 20
9.7088436293
 11
9.5668592354
 21
9.7065100209
  0
LINE
  5
418
100
AcDbEntity
  8
0
100
AcDbLine
 62
7
  6
CONTINUOUS
 10
9.5668592354
 20
9.7065100209
 11
9.5667122857
 21
9.7062120351
  0
SPLINE
  5
419
100
AcDbEntity
  8
0
100
AcDbSpline
 62
7
  6
CONTINUOUS
 70
0
 71
3
 72
25
 73
21
 74
0
 42
0.0000001
 43
0.0000001
 44
0.0000000001
 40
0.0
 40
0.0
 40
0.0
 40
0.0
 40
0.1946015803
 40
0.3821959508
 40
0.5548855341
 40
0.6336218144
 40
0.7062791771
 40
0.772192402
 40
0.8307047166
 40
0.8811938837
 40
0.9232155742
 40
0.9409304422
 40
0.9563838134
 40
0.9695278618
 40
0.9803241506
 40
0.9887609837
 40
0.994833698
 40
0.9985461937
 40
0.9995330129
 40
1.0
 40
1.0
 40
1.0
 40
1.0
 10
9.5506106358
 20
9.530259752
 30
0.0
 10
9.5505505455
 20
9.5289815231
 30
0.0
 10
9.550429269
 20
9.5264712436
 30
0.0
 10
9.5502434656
 20
9.5228272154
 30
0.0
 10
9.5500876926
 20
9.5199445518
 30
0.0
 10
9.5499665733
 20
9.5178169227
 30
0.0
 10
9.5498822226
 20
9.5163904696
 30
0.0
 10
9.5498023867
 20
9.5150969722
 30
0.0
 10
9.5497278898
 20
9.5139491996
 30
0.0
 10
9.5496594284
 20
9.5129584745
 30
0.0
 10
9.5496054118
 20
9.5122356785
 30
0.0
 10
9.5495652173
 20
9.5117428765
 30
0.0
 10
9.5495387464
 20
9.5114395164
 30
0.0
 10
9.549514262
 20
9.5111815586
 30
0.0
 10
9.5494919249
 20
9.5109700294
 30
0.0
 10
9.5494716591
 20
9.5108043255
 30
0.0
 10
9.5494542365
 20
9.5106869679
 30
0.0
 10
9.5494396854
 20
9.5106154421
 30
0.0
 10
9.5494294156
 20
9.5105851626
 30
0.0
 10
9.5494230454
 20
9.5105755328
 30
0.0
 10
9.5494199779
 20
9.5105753907
 30
0.0
  0
LINE
  5
41A
100
AcDbEntity
  8
0
100
AcDbLine
 62
7
  6
CONTINUOUS
 10
9.5512886731
 20
9.5498841637
 11
9.5506106358
 21
9.530259752
  0
LINE
  5
41B
100
AcDbEntity
  8
0
100
AcDbLine
 62
7
  6
CONTINUOUS
 10
9.5694508244
 20
9.5742590831
 11
9.5690850647
 21
9.563109926
  0
LINE
  5
41C
100
AcDbEntity
  8
0
100
AcDbLine
 62
7
  6
CONTINUOUS
 10
9.5686646289
 20
9.5561296103
 11
9.5681557963
 21
9.5500488936
  0
SPLINE
  5
41D
100
AcDbEntity
  8
0
100
AcDbSpline
 62
7
  6
CONTINUOUS
 70
0
 71
3
 72
17
 73
13
 74
0
 42
0.0000001
 43
0.0000001
 44
0.0000000001
 40
0.0
 40
0.0
 40
0.0
 40
0.0
 40
0.2193984122
 40
0.4151627593
 40
0.5851666779
 40
0.7273395981
 40
0.8402312487
 40
0.9229921608
 40
0.952919714
 40
0.9752542129
 40
0.9904006553
 40
1.0
 40
1.0
 40
1.0
 40
1.0
 10
9.5681557963
 20
9.5500488936
 30
0.0
 10
9.5681067719
 20
9.5495556358
 30
0.0
 10
9.5680094125
 20
9.5486227014
 30
0.0
 10
9.5678557996
 20
9.547309536
 30
0.0
 10
9.5677043669
 20
9.546171937
 30
0.0
 10
9.5675570647
 20
9.5452227676
 30
0.0
 10
9.5674156796
 20
9.5444727036
 30
0.0
 10
9.5672962278
 20
9.5439765359
 30
0.0
 10
9.567199835
 20
9.5436869347
 30
0.0
 10
9.5671367512
 20
9.5435476416
 30
0.0
 10
9.5670799239
 20
9.5434578153
 30
0.0
 10
9.5670271358
 20
9.5434257335
 30
0.0
 10
9.5670054485
 20
9.543425893
 30
0.0
  0
SPLINE
  5
41E
100
AcDbEntity
  8
0
100
AcDbSpline
 62
7
  6
CONTINUOUS
 70
0
 71
3
 72
19
 73
15
 74
0
 42
0.0000001
 43
0.0000001
 44
0.0000000001
 40
0.0
 40
0.0
 40
0.0
 40
0.0
 40
0.2098077058
 40
0.4019217379
 40
0.572326428
 40
0.7174769499
 40
0.8344481414
 40
0.8815048947
 40
0.9206374791
 40
0.9517836062
 40
0.9749736545
 40
0.9836724942
 40
0.9905623113
 40
1.0
 40
1.0
 40
1.0
 40
1.0
 10
9.5691335592
 20
9.2579965831
 30
0.0
 10
9.5690882835
 20
9.2571231763
 30
0.0
 10
9.5689915942
 20
9.2554505074
 30
0.0
 10
9.5688208085
 20
9.2530708181
 30
0.0
 10
9.5686336941
 20
9.2509627382
 30
0.0
 10
9.5684341217
 20
9.2491707195
 30
0.0
 10
9.5682528626
 20
9.247894267
 30
0.0
 10
9.5680987611
 20
9.2470614052
 30
0.0
 10
9.5679919713
 20
9.246583921
 30
0.0
 10
9.5678856464
 20
9.2462087968
 30
0.0
 10
9.5677933958
 20
9.2459622879
 30
0.0
 10
9.5677144613
 20
9.2458199164
 30
0.0
 10
9.5676537582
 20
9.2457370497
 30
0.0
 10
9.5675900003
 20
9.2456931001
 30
0.0
 10
9.5675506603
 20
9.2456933505
 30
0.0
  0
SPLINE
  5
41F
100
AcDbEntity
  8
0
100
AcDbSpline
 62
7
  6
CONTINUOUS
 70
0
 71
3
 72
19
 73
15
 74
0
 42
0.0000001
 43
0.0000001
 44
0.0000000001
 40
0.0
 40
0.0
 40
0.0
 40
0.0
 40
0.210895934
 40
0.404426236
 40
0.5763328434
 40
0.7228701947
 40
0.785580332
 40
0.8406999832
 40
0.8879078238
 40
0.9270062533
 40
0.9578151407
 40
0.9801777543
 40
0.9940285645
 40
1.0
 40
1.0
 40
1.0
 40
1.0
 10
9.550735263
 20
9.3923143847
 30
0.0
 10
9.5506921745
 20
9.3914174186
 30
0.0
 10
9.5506046471
 20
9.389697576
 30
0.0
 10
9.550463758
 20
9.3872475549
 30
0.0
 10
9.5503209906
 20
9.3850722282
 30
0.0
 10
9.5501979166
 20
9.3834538396
 30
0.0
 10
9.550099283
 20
9.3823325515
 30
0.0
 10
9.5500307306
 20
9.3816329659
 30
0.0
 10
9.5499645059
 20
9.3810349632
 30
0.0
 10
9.5499000758
 20
9.3805388327
 30
0.0
 10
9.5498410982
 20
9.3801545302
 30
0.0
 10
9.5497812185
 20
9.379865425
 30
0.0
 10
9.5497377968
 20
9.3797096606
 30
0.0
 10
9.5496886644
 20
9.3796137557
 30
0.0
 10
9.5496632398
 20
9.3796140627
 30
0.0
  0
SPLINE
  5
420
100
AcDbEntity
  8
0
100
AcDbSpline
 62
7
  6
CONTINUOUS
 70
0
 71
3
 72
17
 73
13
 74
0
 42
0.0000001
 43
0.0000001
 44
0.0000000001
 40
0.0
 40
0.0
 40
0.0
 40
0.0
 40
0.0067623138
 40
0.0202728053
 40
0.0416048857
 40
0.07090652
 40
0.1531717711
 40
0.2663027545
 40
0.4093232954
 40
0.5807094421
 40
0.7783272633
 40
1.0
 40
1.0
 40
1.0
 40
1.0
 10
9.551037764
 20
8.6008012843
 30
0.0
 10
9.551022707
 20
8.6008011019
 30
0.0
 10
9.5509875266
 20
8.6008418266
 30
0.0
 10
9.5509571728
 20
8.6009246521
 30
0.0
 10
9.5509169856
 20
8.6010642647
 30
0.0
 10
9.5508576857
 20
8.6013529987
 30
0.0
 10
9.5507820099
 20
8.601848759
 30
0.0
 10
9.550692648
 20
8.6025966126
 30
0.0
 10
9.5505982997
 20
8.6035441767
 30
0.0
 10
9.550500668
 20
8.6046801113
 30
0.0
 10
9.5504008317
 20
8.6059916563
 30
0.0
 10
9.5503371247
 20
8.6069231481
 30
0.0
 10
9.5503049313
 20
8.6074157119
 30
0.0
  0
SPLINE
  5
421
100
AcDbEntity
  8
0
100
AcDbSpline
 62
7
  6
CONTINUOUS
 70
0
 71
3
 72
11
 73
7
 74
0
 42
0.0000001
 43
0.0000001
 44
0.0000000001
 40
0.0
 40
0.0
 40
0.0
 40
0.0
 40
0.3237395965
 40
0.6057131787
 40
0.8336272377
 40
1.0
 40
1.0
 40
1.0
 40
1.0
 10
9.5665308077
 20
8.7628804713
 30
0.0
 10
9.5665424787
 20
8.7639591164
 30
0.0
 10
9.5665805517
 20
8.7659770795
 30
0.0
 10
9.5666877628
 20
8.7687531125
 30
0.0
 10
9.5668401539
 20
8.7710012258
 30
0.0
 10
9.5669839019
 20
8.7723085808
 30
0.0
 10
9.5670759182
 20
8.7728552489
 30
0.0
  0
SPLINE
  5
422
100
AcDbEntity
  8
0
100
AcDbSpline
 62
7
  6
CONTINUOUS
 70
0
 71
3
 72
12
 73
8
 74
0
 42
0.0000001
 43
0.0000001
 44
0.0000000001
 40
0.0
 40
0.0
 40
0.0
 40
0.0
 40
0.4027802126
 40
0.6991267352
 40
0.8082133827
 40
0.8925292078
 40
1.0
 40
1.0
 40
1.0
 40
1.0
 10
9.5670759182
 20
8.7728552489
 30
0.0
 10
9.5671061625
 20
8.7730349304
 30
0.0
 10
9.5671659125
 20
8.7733459018
 30
0.0
 10
9.56725998
 20
8.7736991397
 30
0.0
 10
9.5673465397
 20
8.7739053755
 30
0.0
 10
9.5674113066
 20
8.7740210423
 30
0.0
 10
9.5674870258
 20
8.7740897853
 30
0.0
 10
9.5675356424
 20
8.7740900837
 30
0.0
  0
SPLINE
  5
423
100
AcDbEntity
  8
0
100
AcDbSpline
 62
9
  6
CONTINUOUS
 70
0
 71
3
 72
21
 73
17
 74
0
 42
0.0000001
 43
0.0000001
 44
0.0000000001
 40
0.0
 40
0.0
 40
0.0
 40
0.0
 40
0.0020284124
 40
0.0055295155
 40
0.0109514092
 40
0.0183924394
 40
0.0394174171
 40
0.0686424451
 40
0.106009541
 40
0.1514374166
 40
0.2047891015
 40
0.2658528785
 40
0.4102355995
 40
0.5827521172
 40
0.7805568097
 40
1.0
 40
1.0
 40
1.0
 40
1.0
 10
9.5628569167
 20
8.5664581526
 30
0.0
 10
9.5628727135
 20
8.5664566932
 30
0.0
 10
9.5629137858
 20
8.5664852935
 30
0.0
 10
9.5629478722
 20
8.5665633508
 30
0.0
 10
9.5629876025
 20
8.5666855855
 30
0.0
 10
9.5630422242
 20
8.5669450516
 30
0.0
 10
9.5631032102
 20
8.5673925482
 30
0.0
 10
9.563166062
 20
8.5680749316
 30
0.0
 10
9.5632236049
 20
8.5689492436
 30
0.0
 10
9.5632749928
 20
8.5700128246
 30
0.0
 10
9.5633198064
 20
8.5712621781
 30
0.0
 10
9.5633734814
 20
8.5732855375
 30
0.0
 10
9.5634186775
 20
8.5762413104
 30
0.0
 10
9.5634421776
 20
8.5802667571
 30
0.0
 10
9.5634365064
 20
8.5848793117
 30
0.0
 10
9.5634142637
 20
8.5881425326
 30
0.0
 10
9.5633986144
 20
8.5898587186
 30
0.0
  0
SPLINE
  5
424
100
AcDbEntity
  8
0
100
AcDbSpline
 62
9
  6
CONTINUOUS
 70
0
 71
3
 72
26
 73
22
 74
0
 42
0.0000001
 43
0.0000001
 44
0.0000000001
 40
0.0
 40
0.0
 40
0.0
 40
0.0
 40
0.0020642681
 40
0.0039244376
 40
0.0064254357
 40
0.0095889129
 40
0.0134212769
 40
0.0230882018
 40
0.0354024532
 40
0.0503253029
 40
0.0878125839
 40
0.1349954228
 40
0.1911006994
 40
0.2552929644
 40
0.326525512
 40
0.4036870128
 40
0.4855591609
 40
0.5708072301
 40
0.6580887926
 40
0.8333487681
 40
1.0
 40
1.0
 40
1.0
 40
1.0
 10
9.5608809679
 20
9.0870003035
 30
0.0
 10
9.5609340047
 20
9.086996217
 30
0.0
 10
9.5610148746
 20
9.0870957564
 30
0.0
 10
9.5610788383
 20
9.0872385732
 30
0.0
 10
9.5611434799
 20
9.0874251902
 30
0.0
 10
9.5612057958
 20
9.087660681
 30
0.0
 10
9.561298358
 20
9.0880806481
 30
0.0
 10
9.5614090249
 20
9.0887365095
 30
0.0
 10
9.561535836
 20
9.0896792145
 30
0.0
 10
9.5617190643
 20
9.0913370546
 30
0.0
 10
9.5619352752
 20
9.0938946973
 30
0.0
 10
9.5621743865
 20
9.0975145075
 30
0.0
 10
9.5624030869
 20
9.1018243408
 30
0.0
 10
9.5626168349
 20
9.1067552831
 30
0.0
 10
9.5628122863
 20
9.1122299588
 30
0.0
 10
9.5629857877
 20
9.1181611651
 30
0.0
 10
9.563134468
 20
9.1244543116
 30
0.0
 10
9.5632561984
 20
9.1310088645
 30
0.0
 10
9.563379495
 20
9.1399702042
 30
0.0
 10
9.5634555926
 20
9.1510299237
 30
0.0
 10
9.5634343724
 20
9.1598407603
 30
0.0
 10
9.5633986144
 20
9.1641350318
 30
0.0
  0
LINE
  5
425
100
AcDbEntity
  8
0
100
AcDbLine
 62
9
  6
CONTINUOUS
 10
9.5665833665
 20
8.4416734324
 11
9.5675457976
 21
8.4296223734
  0
LINE
  5
426
100
AcDbEntity
  8
0
100
AcDbLine
 62
9
  6
CONTINUOUS
 10
9.5675457976
 20
8.4296223734
 11
9.5685710545
 21
8.4201323419
  0
SPLINE
  5
427
100
AcDbEntity
  8
0
100
AcDbSpline
 62
9
  6
CONTINUOUS
 70
0
 71
3
 72
28
 73
24
 74
0
 42
0.0000001
 43
0.0000001
 44
0.0000000001
 40
0.0
 40
0.0
 40
0.0
 40
0.0
 40
0.1074629695
 40
0.2015000145
 40
0.2816686035
 40
0.3475486275
 40
0.3750176513
 40
0.3988068455
 40
0.4189150242
 40
0.4353647657
 40
0.4482297032
 40
0.4577112696
 40
0.464390029
 40
0.4699093701
 40
0.4768539541
 40
0.4867333961
 40
0.5169566741
 40
0.561827577
 40
0.6213409233
 40
0.6952651937
 40
0.7832670289
 40
0.8849743142
 40
1.0
 40
1.0
 40
1.0
 40
1.0
 10
9.5685710545
 20
8.4201323419
 30
0.0
 10
9.5686513117
 20
8.419516046
 30
0.0
 10
9.5688090297
 20
8.4183613701
 30
0.0
 10
9.5690562967
 20
8.4167511401
 30
0.0
 10
9.5692972087
 20
8.4153835777
 30
0.0
 10
9.5695011576
 20
8.4144006953
 30
0.0
 10
9.5696639877
 20
8.4137429989
 30
0.0
 10
9.5697760013
 20
8.4133456835
 30
0.0
 10
9.5698852079
 20
8.413013956
 30
0.0
 10
9.5699910257
 20
8.4127484112
 30
0.0
 10
9.5700939482
 20
8.4125477678
 30
0.0
 10
9.5701927579
 20
8.4124125552
 30
0.0
 10
9.570298537
 20
8.4123330648
 30
0.0
 10
9.5704186277
 20
8.4123447202
 30
0.0
 10
9.5705129721
 20
8.4124417079
 30
0.0
 10
9.5706443153
 20
8.4126794346
 30
0.0
 10
9.5707791083
 20
8.4131577624
 30
0.0
 10
9.5709198944
 20
8.4139217938
 30
0.0
 10
9.5710453549
 20
8.4149466643
 30
0.0
 10
9.5711558869
 20
8.4162223711
 30
0.0
 10
9.5712488162
 20
8.4177444764
 30
0.0
 10
9.571323375
 20
8.4195053288
 30
0.0
 10
9.5713579883
 20
8.4207583548
 30
0.0
 10
9.5713725986
 20
8.4214234321
 30
0.0
  0
LINE
  5
428
100
AcDbEntity
  8
0
100
AcDbLine
 62
9
  6
CONTINUOUS
 10
9.5713725986
 20
8.4214234321
 11
9.5713964783
 21
8.4312538799
  0
SPLINE
  5
429
100
AcDbEntity
  8
0
100
AcDbSpline
 62
9
  6
CONTINUOUS
 70
0
 71
3
 72
14
 73
10
 74
0
 42
0.0000001
 43
0.0000001
 44
0.0000000001
 40
0.0
 40
0.0
 40
0.0
 40
0.0
 40
0.179437277
 40
0.2883834821
 40
0.4112276366
 40
0.5483765556
 40
0.6961509493
 40
0.8487855679
 40
1.0
 40
1.0
 40
1.0
 40
1.0
 10
9.5713964856
 20
8.4312538821
 30
0.0
 10
9.5715064254
 20
8.4304613084
 30
0.0
 10
9.5721306333
 20
8.4292511396
 30
0.0
 10
9.5734185221
 20
8.4279448506
 30
0.0
 10
9.5747840066
 20
8.4270053291
 30
0.0
 10
9.5764438716
 20
8.4262479717
 30
0.0
 10
9.578310256
 20
8.4256647617
 30
0.0
 10
9.5802884441
 20
8.4252701702
 30
0.0
 10
9.5816399387
 20
8.4251388413
 30
0.0
 10
9.5823136714
 20
8.4251109802
 30
0.0
  0
SPLINE
  5
42A
100
AcDbEntity
  8
0
100
AcDbSpline
 62
9
  6
CONTINUOUS
 70
0
 71
3
 72
10
 73
6
 74
0
 42
0.0000001
 43
0.0000001
 44
0.0000000001
 40
0.0
 40
0.0
 40
0.0
 40
0.0
 40
0.5598328898
 40
0.7978817053
 40
1.0
 40
1.0
 40
1.0
 40
1.0
 10
9.5697241277
 20
8.4703458209
 30
0.0
 10
9.5694453746
 20
8.4743446349
 30
0.0
 10
9.5689989698
 20
8.4800408799
 30
0.0
 10
9.5682934464
 20
8.4871664097
 30
0.0
 10
9.5679288001
 20
8.4902972435
 30
0.0
 10
9.5677409638
 20
8.4917322103
 30
0.0
  0
SPLINE
  5
42B
100
AcDbEntity
  8
0
100
AcDbSpline
 62
9
  6
CONTINUOUS
 70
0
 71
3
 72
28
 73
24
 74
0
 42
0.0000001
 43
0.0000001
 44
0.0000000001
 40
0.0
 40
0.0
 40
0.0
 40
0.0
 40
0.1071900125
 40
0.2009347478
 40
0.2807984595
 40
0.3463682224
 40
0.3736826331
 40
0.3973187821
 40
0.4172765594
 40
0.4335804206
 40
0.4463078441
 40
0.455669773
 40
0.462274132
 40
0.4678182431
 40
0.4748709638
 40
0.4848850939
 40
0.4983484446
 40
0.5154247625
 40
0.5605721685
 40
0.6203517229
 40
0.6945323073
 40
0.7827832193
 40
1.0
 40
1.0
 40
1.0
 40
1.0
 10
9.5677409638
 20
8.4917322103
 30
0.0
 10
9.5676610918
 20
8.4923423887
 30
0.0
 10
9.5675041582
 20
8.4934852877
 30
0.0
 10
9.567258117
 20
8.4950785895
 30
0.0
 10
9.5670184635
 20
8.4964307641
 30
0.0
 10
9.5668156012
 20
8.4974018603
 30
0.0
 10
9.5666536408
 20
8.4980510085
 30
0.0
 10
9.5665422835
 20
8.4984426404
 30
0.0
 10
9.5664337182
 20
8.4987691698
 30
0.0
 10
9.5663285671
 20
8.4990300644
 30
0.0
 10
9.5662261956
 20
8.4992265258
 30
0.0
 10
9.5661280246
 20
8.4993584065
 30
0.0
 10
9.5660218319
 20
8.4994345529
 30
0.0
 10
9.5659027764
 20
8.4994189071
 30
0.0
 10
9.5658098369
 20
8.4993203795
 30
0.0
 10
9.5657255643
 20
8.4991671441
 30
0.0
 10
9.5656443418
 20
8.4989478422
 30
0.0
 10
9.5655295724
 20
8.4985287121
 30
0.0
 10
9.5654056175
 20
8.4978381006
 30
0.0
 10
9.5652796815
 20
8.496817564
 30
0.0
 10
9.5651700042
 20
8.4955462536
 30
0.0
 10
9.5650371565
 20
8.4933706317
 30
0.0
 10
9.5649814138
 20
8.4916174032
 30
0.0
 10
9.5649538557
 20
8.4903706541
 30
0.0
  0
LINE
  5
42C
100
AcDbEntity
  8
0
100
AcDbLine
 62
9
  6
CONTINUOUS
 10
9.5649538557
 20
8.4903706541
 11
9.5649285976
 21
8.4805736735
  0
SPLINE
  5
42D
100
AcDbEntity
  8
0
100
AcDbSpline
 62
9
  6
CONTINUOUS
 70
0
 71
3
 72
26
 73
22
 74
0
 42
0.0000001
 43
0.0000001
 44
0.0000000001
 40
0.0
 40
0.0
 40
0.0
 40
0.0
 40
0.1542847382
 40
0.3237956631
 40
0.4103027407
 40
0.4959038635
 40
0.5790107637
 40
0.6580709108
 40
0.7316626223
 40
0.7984130966
 40
0.8571315401
 40
0.9067323548
 40
0.9463143292
 40
0.9621376073
 40
0.9752099708
 40
0.9854778826
 40
0.9895588224
 40
0.9929413293
 40
0.9956345934
 40
0.9976609642
 40
1.0
 40
1.0
 40
1.0
 40
1.0
 10
9.5823134811
 20
8.4251097497
 30
0.0
 10
9.5822711099
 20
8.4295928242
 30
0.0
 10
9.5820978307
 20
8.4390006392
 30
0.0
 10
9.5817262364
 20
8.4509178786
 30
0.0
 10
9.5813304144
 20
8.4608369548
 30
0.0
 10
9.5809908678
 20
8.4682453772
 30
0.0
 10
9.5806174185
 20
8.4754354919
 30
0.0
 10
9.580216303
 20
8.4822745771
 30
0.0
 10
9.5797958827
 20
8.4886362625
 30
0.0
 10
9.5793634957
 20
8.494404552
 30
0.0
 10
9.5789283277
 20
8.499473317
 30
0.0
 10
9.5784987315
 20
8.5037496935
 30
0.0
 10
9.5781318368
 20
8.5067793664
 30
0.0
 10
9.5778375597
 20
8.5087474512
 30
0.0
 10
9.5776402371
 20
8.5098684996
 30
0.0
 10
9.5774732173
 20
8.5106476998
 30
0.0
 10
9.5773380892
 20
8.5111456343
 30
0.0
 10
9.5772483325
 20
8.5114256512
 30
0.0
 10
9.5771577469
 20
8.5116469982
 30
0.0
 10
9.5770670432
 20
8.5118204257
 30
0.0
 10
9.5769588897
 20
8.5119345753
 30
0.0
 10
9.576891167
 20
8.5119287973
 30
0.0
  0
SPLINE
  5
42E
100
AcDbEntity
  8
0
100
AcDbSpline
 62
7
  6
CONTINUOUS
 70
0
 71
3
 72
14
 73
10
 74
0
 42
0.0000001
 43
0.0000001
 44
0.0000000001
 40
0.0
 40
0.0
 40
0.0
 40
0.0
 40
0.0289412143
 40
0.0520210468
 40
0.0820089514
 40
0.1636985357
 40
0.2748745666
 40
0.5837446039
 40
1.0
 40
1.0
 40
1.0
 40
1.0
 10
9.5675506603
 20
9.2456933505
 30
0.0
 10
9.5674995874
 20
9.2456936754
 30
0.0
 10
9.5674208442
 20
9.2457690352
 30
0.0
 10
9.5673543223
 20
9.2458928436
 30
0.0
 10
9.5672645413
 20
9.2461156711
 30
0.0
 10
9.5671673997
 20
9.2464965253
 30
0.0
 10
9.567008559
 20
9.2473685138
 30
0.0
 10
9.5668518143
 20
9.2488370813
 30
0.0
 10
9.5667650811
 20
9.2501138848
 30
0.0
 10
9.566725018
 20
9.2508473768
 30
0.0
  0
LINE
  5
42F
100
AcDbEntity
  8
0
100
AcDbLine
 62
7
  6
CONTINUOUS
 10
9.566725018
 20
9.2508473768
 11
9.5665458171
 21
9.2569029452
  0
SPLINE
  5
430
100
AcDbEntity
  8
0
100
AcDbSpline
 62
7
  6
CONTINUOUS
 70
0
 71
3
 72
18
 73
14
 74
0
 42
0.0000001
 43
0.0000001
 44
0.0000000001
 40
0.0
 40
0.0
 40
0.0
 40
0.0
 40
0.2174808052
 40
0.4136794418
 40
0.5851181659
 40
0.7286837525
 40
0.8426373557
 40
0.8880952342
 40
0.9256748966
 40
0.9552980845
 40
0.9770767933
 40
0.9914230622
 40
1.0
 40
1.0
 40
1.0
 40
1.0
 10
9.5665458252
 20
8.4678226474
 30
0.0
 10
9.5665384274
 20
8.4684469481
 30
0.0
 10
9.5665300088
 20
8.4696345386
 30
0.0
 10
9.5665377315
 20
8.4713143187
 30
0.0
 10
9.5665658801
 20
8.4727816973
 30
0.0
 10
9.566614445
 20
8.4740122647
 30
0.0
 10
9.5666735846
 20
8.474880308
 30
0.0
 10
9.5667340848
 20
8.4754426615
 30
0.0
 10
9.5667807159
 20
8.4757628343
 30
0.0
 10
9.5668297547
 20
8.4760135948
 30
0.0
 10
9.5668853714
 20
8.4761949152
 30
0.0
 10
9.5669366031
 20
8.4763117867
 30
0.0
 10
9.5669958449
 20
8.4763573545
 30
0.0
 10
9.5670204669
 20
8.4763575363
 30
0.0
  0
SPLINE
  5
431
100
AcDbEntity
  8
0
100
AcDbSpline
 62
9
  6
CONTINUOUS
 70
0
 71
3
 72
10
 73
6
 74
0
 42
0.0000001
 43
0.0000001
 44
0.0000000001
 40
0.0
 40
0.0
 40
0.0
 40
0.0
 40
0.1934593351
 40
0.4286007811
 40
1.0
 40
1.0
 40
1.0
 40
1.0
 10
9.5648829594
 20
8.3305683707
 30
0.0
 10
9.5648830333
 20
8.3292967383
 30
0.0
 10
9.5649174235
 20
8.326479511
 30
0.0
 10
9.565088763
 20
8.3199085229
 30
0.0
 10
9.5653127723
 20
8.3146113858
 30
0.0
 10
9.5654923738
 20
8.3108598038
 30
0.0
  0
SPLINE
  5
432
100
AcDbEntity
  8
0
100
AcDbSpline
 62
9
  6
CONTINUOUS
 70
0
 71
3
 72
35
 73
31
 74
0
 42
0.0000001
 43
0.0000001
 44
0.0000000001
 40
0.0
 40
0.0
 40
0.0
 40
0.0
 40
0.1287889997
 40
0.2489743261
 40
0.3594647595
 40
0.4591830427
 40
0.5471546063
 40
0.6224561544
 40
0.6550694661
 40
0.6841927964
 40
0.7097918191
 40
0.7318448244
 40
0.750333917
 40
0.7652487569
 40
0.7765962583
 40
0.7844328915
 40
0.7871061839
 40
0.7890579139
 40
0.79053946
 40
0.7920613488
 40
0.794107138
 40
0.796902641
 40
0.8005382246
 40
0.8050554969
 40
0.8168142057
 40
0.8322813939
 40
0.8514643213
 40
0.8742834435
 40
0.930450732
 40
1.0
 40
1.0
 40
1.0
 40
1.0
 10
9.5681255176
 20
8.2713109606
 30
0.0
 10
9.5682292821
 20
8.2701074785
 30
0.0
 10
9.5684354055
 20
8.2677813834
 30
0.0
 10
9.5687512928
 20
8.2644246779
 30
0.0
 10
9.5690610042
 20
8.2613413146
 30
0.0
 10
9.5693615415
 20
8.25856076
 30
0.0
 10
9.5696497637
 20
8.2561109509
 30
0.0
 10
9.5698868012
 20
8.2542889509
 30
0.0
 10
9.5700704486
 20
8.2530167999
 30
0.0
 10
9.5701966882
 20
8.2522074155
 30
0.0
 10
9.5703177404
 20
8.2514975461
 30
0.0
 10
9.5704332292
 20
8.2508879575
 30
0.0
 10
9.570542899
 20
8.2503795171
 30
0.0
 10
9.5706458699
 20
8.2499722427
 30
0.0
 10
9.5707423758
 20
8.2496675918
 30
0.0
 10
9.5708222284
 20
8.2494771784
 30
0.0
 10
9.5708885946
 20
8.2493805595
 30
0.0
 10
9.5709310866
 20
8.2493406933
 30
0.0
 10
9.5709791908
 20
8.2493279539
 30
0.0
 10
9.571023941
 20
8.2493513929
 30
0.0
 10
9.5710602678
 20
8.2493995666
 30
0.0
 10
9.5710949289
 20
8.2494714325
 30
0.0
 10
9.5711277199
 20
8.2495689212
 30
0.0
 10
9.5711735442
 20
8.2497500791
 30
0.0
 10
9.5712225542
 20
8.2500441346
 30
0.0
 10
9.5712712912
 20
8.2504767279
 30
0.0
 10
9.571312736
 20
8.2510142535
 30
0.0
 10
9.5713617631
 20
8.2519337494
 30
0.0
 10
9.5713985912
 20
8.2533266294
 30
0.0
 10
9.5714064095
 20
8.2545057686
 30
0.0
 10
9.5714064455
 20
8.2551580901
 30
0.0
  0
SPLINE
  5
433
100
AcDbEntity
  8
0
100
AcDbSpline
 62
9
  6
CONTINUOUS
 70
0
 71
3
 72
14
 73
10
 74
0
 42
0.0000001
 43
0.0000001
 44
0.0000000001
 40
0.0
 40
0.0
 40
0.0
 40
0.0
 40
0.10829324
 40
0.2240340234
 40
0.4708979538
 40
0.6019833163
 40
0.7361247754
 40
0.8700623178
 40
1.0
 40
1.0
 40
1.0
 40
1.0
 10
9.5714064527
 20
8.255158091
 30
0.0
 10
9.5714579214
 20
8.2545941185
 30
0.0
 10
9.5716908417
 20
8.2534363907
 30
0.0
 10
9.5726097672
 20
8.251142562
 30
0.0
 10
9.5742253028
 20
8.2490342733
 30
0.0
 10
9.5764090431
 20
8.2474633546
 30
0.0
 10
9.5782882498
 20
8.2465343134
 30
0.0
 10
9.5802772187
 20
8.245897909
 30
0.0
 10
9.5816460434
 20
8.2456757345
 30
0.0
 10
9.582323608
 20
8.2456244178
 30
0.0
  0
SPLINE
  5
434
100
AcDbEntity
  8
0
100
AcDbSpline
 62
9
  6
CONTINUOUS
 70
0
 71
3
 72
10
 73
6
 74
0
 42
0.0000001
 43
0.0000001
 44
0.0000000001
 40
0.0
 40
0.0
 40
0.0
 40
0.0
 40
0.1933585681
 40
0.4284890773
 40
1.0
 40
1.0
 40
1.0
 40
1.0
 10
9.5714064455
 20
8.2551580901
 30
0.0
 10
9.5714063673
 20
8.2564347131
 30
0.0
 10
9.5713717371
 20
8.259263733
 30
0.0
 10
9.571199122
 20
8.2658639346
 30
0.0
 10
9.5709733483
 20
8.2711852671
 30
0.0
 10
9.5707924354
 20
8.2749542489
 30
0.0
  0
SPLINE
  5
435
100
AcDbEntity
  8
0
100
AcDbSpline
 62
9
  6
CONTINUOUS
 70
0
 71
3
 72
35
 73
31
 74
0
 42
0.0000001
 43
0.0000001
 44
0.0000000001
 40
0.0
 40
0.0
 40
0.0
 40
0.0
 40
0.128326549
 40
0.2486338843
 40
0.359411752
 40
0.459210854
 40
0.5470253976
 40
0.6220518318
 40
0.6545209498
 40
0.6835135218
 40
0.7089944388
 40
0.7309375907
 40
0.7493207863
 40
0.7641296357
 40
0.7753676987
 40
0.7830911635
 40
0.7857110887
 40
0.7876202128
 40
0.7890886684
 40
0.7906408903
 40
0.7927419461
 40
0.7956023838
 40
0.7993068456
 40
0.8038946445
 40
0.8157952135
 40
0.8314013073
 40
0.8507207755
 40
0.8736769355
 40
0.9301303647
 40
1.0
 40
1.0
 40
1.0
 40
1.0
 10
9.5681451812
 20
8.3146208757
 30
0.0
 10
9.5680418022
 20
8.3158112167
 30
0.0
 10
9.567836367
 20
8.3181170723
 30
0.0
 10
9.5675220838
 20
8.3214487064
 30
0.0
 10
9.5672139338
 20
8.3245140747
 30
0.0
 10
9.5669148537
 20
8.3272762278
 30
0.0
 10
9.5666281607
 20
8.3297047904
 30
0.0
 10
9.566392458
 20
8.3315080265
 30
0.0
 10
9.5662099067
 20
8.332765679
 30
0.0
 10
9.5660844645
 20
8.3335654309
 30
0.0
 10
9.5659641731
 20
8.334266707
 30
0.0
 10
9.5658494103
 20
8.334868663
 30
0.0
 10
9.5657404446
 20
8.335370296
 30
0.0
 10
9.5656381619
 20
8.3357715258
 30
0.0
 10
9.5655423676
 20
8.3360706843
 30
0.0
 10
9.5654630424
 20
8.3362570488
 30
0.0
 10
9.5653970484
 20
8.3363504507
 30
0.0
 10
9.5653545134
 20
8.3363884534
 30
0.0
 10
9.5653063241
 20
8.3363984507
 30
0.0
 10
9.5652625564
 20
8.3363728293
 30
0.0
 10
9.5652266249
 20
8.3363233592
 30
0.0
 10
9.5651922251
 20
8.336250026
 30
0.0
 10
9.5651596679
 20
8.336151275
 30
0.0
 10
9.5651142354
 20
8.335968719
 30
0.0
 10
9.5650655779
 20
8.3356735161
 30
0.0
 10
9.5650171684
 20
8.3352401701
 30
0.0
 10
9.5649759898
 20
8.3347027236
 30
0.0
 10
9.5649272943
 20
8.3337847231
 30
0.0
 10
9.5648906893
 20
8.3323950906
 30
0.0
 10
9.5648829589
 20
8.3312189124
 30
0.0
 10
9.5648829594
 20
8.3305683707
 30
0.0
  0
SPLINE
  5
436
100
AcDbEntity
  8
0
100
AcDbSpline
 62
9
  6
CONTINUOUS
 70
0
 71
3
 72
30
 73
26
 74
0
 42
0.0000001
 43
0.0000001
 44
0.0000000001
 40
0.0
 40
0.0
 40
0.0
 40
0.0
 40
0.0497830113
 40
0.1107249948
 40
0.2589674675
 40
0.3423336397
 40
0.4289247851
 40
0.516430214
 40
0.6025103099
 40
0.6848787104
 40
0.7613414615
 40
0.8298668148
 40
0.8605783884
 40
0.8886291742
 40
0.9138461433
 40
0.9360683128
 40
0.9551353775
 40
0.9709093382
 40
0.9833101559
 40
0.9922730354
 40
0.9954510244
 40
0.9977603019
 40
0.998596741
 40
0.9992317818
 40
1.0
 40
1.0
 40
1.0
 40
1.0
 10
9.5823234178
 20
8.2456225348
 30
0.0
 10
9.582323222
 20
8.2473442113
 30
0.0
 10
9.5822840168
 20
8.2511734557
 30
0.0
 10
9.5820925555
 20
8.2601275253
 30
0.0
 10
9.5817465819
 20
8.2702394738
 30
0.0
 10
9.5812886166
 20
8.2812344354
 30
0.0
 10
9.580873117
 20
8.2901287762
 30
0.0
 10
9.5804105157
 20
8.2991147572
 30
0.0
 10
9.5799132369
 20
8.3079526264
 30
0.0
 10
9.57939454
 20
8.3164066869
 30
0.0
 10
9.5788686921
 20
8.3242519377
 30
0.0
 10
9.5784216245
 20
8.3303118686
 30
0.0
 10
9.5780681272
 20
8.3346997375
 30
0.0
 10
9.5778196719
 20
8.3375934162
 30
0.0
 10
9.5775798842
 20
8.3401931152
 30
0.0
 10
9.5773505681
 20
8.3424817154
 30
0.0
 10
9.5771332371
 20
8.3444431989
 30
0.0
 10
9.5769301311
 20
8.3460644309
 30
0.0
 10
9.5767418371
 20
8.3473349968
 30
0.0
 10
9.5765902008
 20
8.3481704352
 30
0.0
 10
9.5764686276
 20
8.3486557436
 30
0.0
 10
9.5764025101
 20
8.3488638401
 30
0.0
 10
9.5763467566
 20
8.3489837875
 30
0.0
 10
9.5763084253
 20
8.3490479784
 30
0.0
 10
9.5762644987
 20
8.3490868158
 30
0.0
 10
9.5762380346
 20
8.3490844707
 30
0.0
  0
LINE
  5
437
100
AcDbEntity
  8
0
100
AcDbLine
 62
7
  6
CONTINUOUS
 10
9.56685952
 20
8.3006203398
 11
9.5666037417
 21
8.3065427359
  0
LINE
  5
438
100
AcDbEntity
  8
0
100
AcDbLine
 62
7
  6
CONTINUOUS
 10
9.5666037417
 20
8.3065427359
 11
9.5665150176
 21
8.3109341973
  0
SPLINE
  5
439
100
AcDbEntity
  8
0
100
AcDbSpline
 62
9
  6
CONTINUOUS
 70
0
 71
3
 72
27
 73
23
 74
0
 42
0.0000001
 43
0.0000001
 44
0.0000000001
 40
0.0
 40
0.0
 40
0.0
 40
0.0
 40
0.0012516697
 40
0.0028005396
 40
0.0048459748
 40
0.0074770993
 40
0.0107352378
 40
0.0146381707
 40
0.0243971193
 40
0.0367606763
 40
0.051703498
 40
0.0691891127
 40
0.0891705232
 40
0.1362794862
 40
0.1922775215
 40
0.2563424246
 40
0.3274387984
 40
0.4044626589
 40
0.4862023067
 40
0.6584888122
 40
0.8335443633
 40
1.0
 40
1.0
 40
1.0
 40
1.0
 10
9.5780566945
 20
9.2100225197
 30
0.0
 10
9.5780898389
 20
9.2100195778
 30
0.0
 10
9.5781665489
 20
9.2100369978
 30
0.0
 10
9.578267327
 20
9.2101211974
 30
0.0
 10
9.5783657115
 20
9.210255158
 30
0.0
 10
9.5784644239
 20
9.210442177
 30
0.0
 10
9.5785640592
 20
9.2106829057
 30
0.0
 10
9.5787089915
 20
9.2111089634
 30
0.0
 10
9.578884634
 20
9.2117788681
 30
0.0
 10
9.5790860255
 20
9.2127435939
 30
0.0
 10
9.5792884948
 20
9.2139172245
 30
0.0
 10
9.579491132
 20
9.2152957815
 30
0.0
 10
9.5797754816
 20
9.2175262273
 30
0.0
 10
9.5801149244
 20
9.2207811614
 30
0.0
 10
9.5804908218
 20
9.2252095408
 30
0.0
 10
9.5808458465
 20
9.2302791086
 30
0.0
 10
9.5811749397
 20
9.2359103832
 30
0.0
 10
9.5814718006
 20
9.2420139113
 30
0.0
 10
9.5818241979
 20
9.2508076539
 30
0.0
 10
9.5821488121
 20
9.2622103089
 30
0.0
 10
9.5823482764
 20
9.2758681637
 30
0.0
 10
9.5823511736
 20
9.2849474329
 30
0.0
 10
9.5823134811
 20
9.289372372
 30
0.0
  0
LINE
  5
43A
100
AcDbEntity
  8
0
100
AcDbLine
 62
7
  6
CONTINUOUS
 10
9.5665150176
 20
8.3109341973
 11
9.5667122981
 21
8.3135713845
  0
LINE
  5
43B
100
AcDbEntity
  8
0
100
AcDbLine
 62
9
  6
CONTINUOUS
 10
9.5649136803
 20
8.2434327228
 11
9.5649371144
 21
8.2403505656
  0
LINE
  5
43C
100
AcDbEntity
  8
0
100
AcDbLine
 62
9
  6
CONTINUOUS
 10
9.5649371144
 20
8.2403505656
 11
9.5652677282
 21
8.2333901995
  0
SPLINE
  5
43D
100
AcDbEntity
  8
0
100
AcDbSpline
 62
9
  6
CONTINUOUS
 70
0
 71
3
 72
25
 73
21
 74
0
 42
0.0000001
 43
0.0000001
 44
0.0000000001
 40
0.0
 40
0.0
 40
0.0
 40
0.0
 40
0.2270285766
 40
0.3326121883
 40
0.4320179766
 40
0.5246984918
 40
0.6102288114
 40
0.6881897149
 40
0.7581623169
 40
0.8197431758
 40
0.8725577969
 40
0.9162358889
 40
0.9345337284
 40
0.9504099138
 40
0.9638329522
 40
0.9748049463
 40
0.9833351037
 40
0.9894385055
 40
0.9945578117
 40
1.0
 40
1.0
 40
1.0
 40
1.0
 10
9.5689012476
 20
8.18138303
 30
0.0
 10
9.5690543339
 20
8.1794851531
 30
0.0
 10
9.5692823408
 20
8.1767049323
 30
0.0
 10
9.5695877615
 20
8.1730945823
 30
0.0
 10
9.5698029584
 20
8.1706073776
 30
0.0
 10
9.5700086975
 20
8.1682881712
 30
0.0
 10
9.5702038504
 20
8.166148591
 30
0.0
 10
9.570387386
 20
8.1641991985
 30
0.0
 10
9.5705582896
 20
8.1624503657
 30
0.0
 10
9.5707155151
 20
8.1609121362
 30
0.0
 10
9.5708581008
 20
8.1595940288
 30
0.0
 10
9.5709692836
 20
8.1586378738
 30
0.0
 10
9.5710513668
 20
8.1579898735
 30
0.0
 10
9.5711046524
 20
8.157594828
 30
0.0
 10
9.5711544649
 20
8.1572590751
 30
0.0
 10
9.571197266
 20
8.1569909485
 30
0.0
 10
9.5712418989
 20
8.1567686421
 30
0.0
 10
9.5712679308
 20
8.1566347517
 30
0.0
 10
9.5713462044
 20
8.1564202626
 30
0.0
 10
9.5713755724
 20
8.1565788514
 30
0.0
 10
9.5713813631
 20
8.156624125
 30
0.0
  0
SPLINE
  5
43E
100
AcDbEntity
  8
0
100
AcDbSpline
 62
9
  6
CONTINUOUS
 70
0
 71
3
 72
12
 73
8
 74
0
 42
0.0000001
 43
0.0000001
 44
0.0000000001
 40
0.0
 40
0.0
 40
0.0
 40
0.0
 40
0.2348513993
 40
0.4849028192
 40
0.6127611416
 40
0.7415896995
 40
1.0
 40
1.0
 40
1.0
 40
1.0
 10
9.5713813704
 20
8.1566241255
 30
0.0
 10
9.5714574499
 20
8.155656297
 30
0.0
 10
9.5718901152
 20
8.1536751454
 30
0.0
 10
9.5730004846
 20
8.1513702211
 30
0.0
 10
9.5742566707
 20
8.1496858226
 30
0.0
 10
9.5757684655
 20
8.1481776885
 30
0.0
 10
9.5771336003
 20
8.1472963536
 30
0.0
 10
9.5780942761
 20
8.1468292836
 30
0.0
  0
SPLINE
  5
43F
100
AcDbEntity
  8
0
100
AcDbSpline
 62
9
  6
CONTINUOUS
 70
0
 71
3
 72
9
 73
5
 74
0
 42
0.0000001
 43
0.0000001
 44
0.0000000001
 40
0.0
 40
0.0
 40
0.0
 40
0.0
 40
0.2576392649
 40
1.0
 40
1.0
 40
1.0
 40
1.0
 10
9.5780942761
 20
8.1468292836
 30
0.0
 10
9.5784329064
 20
8.1466646453
 30
0.0
 10
9.579773927
 20
8.1460834202
 30
0.0
 10
9.5812177916
 20
8.1457277312
 30
0.0
 10
9.5822985559
 20
8.1456326644
 30
0.0
  0
SPLINE
  5
440
100
AcDbEntity
  8
0
100
AcDbSpline
 62
9
  6
CONTINUOUS
 70
0
 71
3
 72
17
 73
13
 74
0
 42
0.0000001
 43
0.0000001
 44
0.0000000001
 40
0.0
 40
0.0
 40
0.0
 40
0.0
 40
0.0127290835
 40
0.0328773837
 40
0.0604015615
 40
0.0952422902
 40
0.1865277748
 40
0.3050214497
 40
0.4482485557
 40
0.613643934
 40
0.7985088851
 40
1.0
 40
1.0
 40
1.0
 40
1.0
 10
9.5713813631
 20
8.156624125
 30
0.0
 10
9.5713945136
 20
8.1567285521
 30
0.0
 10
9.5714065037
 20
8.1570006228
 30
0.0
 10
9.5714120321
 20
8.1574998388
 30
0.0
 10
9.5714034831
 20
8.1581821982
 30
0.0
 10
9.5713716187
 20
8.1594522361
 30
0.0
 10
9.5712921627
 20
8.161473456
 30
0.0
 10
9.5711521524
 20
8.1643889558
 30
0.0
 10
9.570961494
 20
8.1679154881
 30
0.0
 10
9.5707237643
 20
8.1719890158
 30
0.0
 10
9.5704423191
 20
8.1765425506
 30
0.0
 10
9.5702359322
 20
8.1797305073
 30
0.0
 10
9.5701263137
 20
8.1813929479
 30
0.0
  0
LINE
  5
441
100
AcDbEntity
  8
0
100
AcDbLine
 62
9
  6
CONTINUOUS
 10
9.5675635787
 20
8.2165587345
 11
9.5657758764
 21
8.2372083111
  0
SPLINE
  5
442
100
AcDbEntity
  8
0
100
AcDbSpline
 62
9
  6
CONTINUOUS
 70
0
 71
3
 72
21
 73
17
 74
0
 42
0.0000001
 43
0.0000001
 44
0.0000000001
 40
0.0
 40
0.0
 40
0.0
 40
0.0
 40
0.2536164922
 40
0.4714392703
 40
0.6518853661
 40
0.7933808154
 40
0.8490692842
 40
0.8946500462
 40
0.9301564794
 40
0.955643698
 40
0.9712440788
 40
0.9776566225
 40
0.9800415165
 40
0.9843362011
 40
0.9909560369
 40
1.0
 40
1.0
 40
1.0
 40
1.0
 10
9.5657758764
 20
8.2372083111
 30
0.0
 10
9.5657212333
 20
8.2377612705
 30
0.0
 10
9.5656176038
 20
8.2387889274
 30
0.0
 10
9.565466313
 20
8.2402092053
 30
0.0
 10
9.5653318638
 20
8.2413839214
 30
0.0
 10
9.5652280489
 20
8.2422052584
 30
0.0
 10
9.5651527918
 20
8.2427310678
 30
0.0
 10
9.5651047961
 20
8.2430284297
 30
0.0
 10
9.5650645168
 20
8.2432544133
 30
0.0
 10
9.5650233301
 20
8.2434266529
 30
0.0
 10
9.5650008311
 20
8.2435108897
 30
0.0
 10
9.564964844
 20
8.2435785572
 30
0.0
 10
9.5649391265
 20
8.2435568698
 30
0.0
 10
9.5649311947
 20
8.2435290065
 30
0.0
 10
9.5649206
 20
8.2434864457
 30
0.0
 10
9.5649161079
 20
8.2434523881
 30
0.0
 10
9.5649136803
 20
8.2434327228
 30
0.0
  0
SPLINE
  5
443
100
AcDbEntity
  8
0
100
AcDbSpline
 62
9
  6
CONTINUOUS
 70
0
 71
3
 72
21
 73
17
 74
0
 42
0.0000001
 43
0.0000001
 44
0.0000000001
 40
0.0
 40
0.0
 40
0.0
 40
0.0
 40
0.0045823802
 40
0.0116575569
 40
0.0211953488
 40
0.0331622011
 40
0.0642419423
 40
0.1044866163
 40
0.1532884141
 40
0.2100075172
 40
0.2738389619
 40
0.3438739176
 40
0.4986555855
 40
0.6657681975
 40
0.8360028367
 40
1.0
 40
1.0
 40
1.0
 40
1.0
 10
9.582298366
 20
8.1456305001
 30
0.0
 10
9.5823098396
 20
8.1457469389
 30
0.0
 10
9.5823215184
 20
8.1460446538
 30
0.0
 10
9.5823281859
 20
8.1465856984
 30
0.0
 10
9.5823236774
 20
8.1473155007
 30
0.0
 10
9.5823015978
 20
8.1486579484
 30
0.0
 10
9.5822421417
 20
8.1507838811
 30
0.0
 10
9.5821336513
 20
8.1538491619
 30
0.0
 10
9.5819831464
 20
8.1575679917
 30
0.0
 10
9.5817927417
 20
8.1618879029
 30
0.0
 10
9.5815649533
 20
8.166748825
 30
0.0
 10
9.5812031923
 20
8.1741100436
 30
0.0
 10
9.5806822139
 20
8.1841036886
 30
0.0
 10
9.5799897883
 20
8.1966502196
 30
0.0
 10
9.5792486399
 20
8.2094296697
 30
0.0
 10
9.5787305629
 20
8.2179479397
 30
0.0
 10
9.5784693804
 20
8.2221271523
 30
0.0
  0
LINE
  5
444
100
AcDbEntity
  8
0
100
AcDbLine
 62
9
  6
CONTINUOUS
 10
9.5774349086
 20
8.2380167135
 11
9.5772890106
 21
8.2401320012
  0
LINE
  5
445
100
AcDbEntity
  8
0
100
AcDbLine
 62
7
  6
CONTINUOUS
 10
9.5670054485
 20
9.543425893
 11
9.566770657
 21
9.5440053857
  0
LINE
  5
446
100
AcDbEntity
  8
0
100
AcDbLine
 62
7
  6
CONTINUOUS
 10
9.566770657
 20
9.5440053857
 11
9.5665574432
 21
9.5469343618
  0
LINE
  5
447
100
AcDbEntity
  8
0
100
AcDbLine
 62
7
  6
CONTINUOUS
 10
9.5665574432
 20
9.5469343618
 11
9.5665308022
 21
9.5519607692
  0
LINE
  5
448
100
AcDbEntity
  8
0
100
AcDbLine
 62
7
  6
CONTINUOUS
 10
9.5978661985
 20
8.9526356616
 11
9.5982925373
 21
8.9356132224
  0
SPLINE
  5
449
100
AcDbEntity
  8
0
100
AcDbSpline
 62
7
  6
CONTINUOUS
 70
0
 71
3
 72
18
 73
14
 74
0
 42
0.0000001
 43
0.0000001
 44
0.0000000001
 40
0.0
 40
0.0
 40
0.0
 40
0.0
 40
0.4129225765
 40
0.5818802867
 40
0.7232723401
 40
0.783224891
 40
0.8358387776
 40
0.881006163
 40
0.9186785259
 40
0.9489424912
 40
0.9613731807
 40
0.9720735919
 40
1.0
 40
1.0
 40
1.0
 40
1.0
 10
9.622445991
 20
8.9503014361
 30
0.0
 10
9.6227327106
 20
8.9459364263
 30
0.0
 10
9.623207588
 20
8.9397885523
 30
0.0
 10
9.6240542745
 20
8.9321727248
 30
0.0
 10
9.6246017855
 20
8.9282871399
 30
0.0
 10
9.6250690977
 20
8.925637408
 30
0.0
 10
9.6254064522
 20
8.9240004385
 30
0.0
 10
9.6257483672
 20
8.9226065933
 30
0.0
 10
9.6260953841
 20
8.9214581844
 30
0.0
 10
9.6264005886
 20
8.9206641387
 30
0.0
 10
9.6266576716
 20
8.9201552988
 30
0.0
 10
9.626931619
 20
8.9197050037
 30
0.0
 10
9.6272771028
 20
8.9193405272
 30
0.0
 10
9.6275729494
 20
8.9193405272
 30
0.0
  0
SPLINE
  5
44A
100
AcDbEntity
  8
0
100
AcDbSpline
 62
9
  6
CONTINUOUS
 70
0
 71
3
 72
26
 73
22
 74
0
 42
0.0000001
 43
0.0000001
 44
0.0000000001
 40
0.0
 40
0.0
 40
0.0
 40
0.0
 40
0.002339324
 40
0.0043660078
 40
0.0070596433
 40
0.0104425456
 40
0.0145238734
 40
0.0247924191
 40
0.0378655561
 40
0.053690657
 40
0.0932768312
 40
0.1428797298
 40
0.2016017868
 40
0.2683539793
 40
0.341947437
 40
0.4210079292
 40
0.5041126443
 40
0.5897103699
 40
0.6762115109
 40
0.8457124854
 40
1.0
 40
1.0
 40
1.0
 40
1.0
 10
9.5768762139
 20
9.507856344
 30
0.0
 10
9.576943944
 20
9.5078505724
 30
0.0
 10
9.5770520913
 20
9.5079647541
 30
0.0
 10
9.5771427972
 20
9.5081382027
 30
0.0
 10
9.5772333845
 20
9.5083595781
 30
0.0
 10
9.5773231442
 20
9.5086396213
 30
0.0
 10
9.577458275
 20
9.5091375851
 30
0.0
 10
9.5776253035
 20
9.509916817
 30
0.0
 10
9.57782264
 20
9.5110379307
 30
0.0
 10
9.5781169225
 20
9.5130061662
 30
0.0
 10
9.5784838233
 20
9.5160360018
 30
0.0
 10
9.5789134404
 20
9.5203125617
 30
0.0
 10
9.5793485677
 20
9.5253814242
 30
0.0
 10
9.5797809435
 20
9.5311497816
 30
0.0
 10
9.5802013199
 20
9.5375114277
 30
0.0
 10
9.5806024069
 20
9.5443503472
 30
0.0
 10
9.5809758447
 20
9.5515401372
 30
0.0
 10
9.5813153612
 20
9.5589480479
 30
0.0
 10
9.5817111567
 20
9.5688663262
 30
0.0
 10
9.5820826981
 20
9.5807828998
 30
0.0
 10
9.5822560208
 20
9.5901902801
 30
0.0
 10
9.582298366
 20
9.594673328
 30
0.0
  0
LINE
  5
44B
100
AcDbEntity
  8
0
100
AcDbLine
 62
7
  6
CONTINUOUS
 10
9.5667122857
 20
9.7062120351
 11
9.5665150055
 21
9.7088492192
  0
SPLINE
  5
44C
100
AcDbEntity
  8
0
100
AcDbSpline
 62
9
  6
CONTINUOUS
 70
0
 71
3
 72
9
 73
5
 74
0
 42
0.0000001
 43
0.0000001
 44
0.0000000001
 40
0.0
 40
0.0
 40
0.0
 40
0.0
 40
0.2485063171
 40
1.0
 40
1.0
 40
1.0
 40
1.0
 10
9.5654656003
 20
8.2477710443
 30
0.0
 10
9.5655711188
 20
8.2481130597
 30
0.0
 10
9.5660518446
 20
8.2494708675
 30
0.0
 10
9.5667643925
 20
8.250750924
 30
0.0
 10
9.5674250799
 20
8.25160826
 30
0.0
  0
SPLINE
  5
44D
100
AcDbEntity
  8
0
100
AcDbSpline
 62
9
  6
CONTINUOUS
 70
0
 71
3
 72
26
 73
22
 74
0
 42
0.0000001
 43
0.0000001
 44
0.0000000001
 40
0.0
 40
0.0
 40
0.0
 40
0.0
 40
0.1949746251
 40
0.3828077412
 40
0.4715194273
 40
0.5556620379
 40
0.6344377519
 40
0.7071125092
 40
0.7730005433
 40
0.8314204871
 40
0.8817995287
 40
0.9237025072
 40
0.9413427627
 40
0.9567055203
 40
0.9697539254
 40
0.9804701508
 40
0.98883918
 40
0.9948504382
 40
0.9985094277
 40
0.9994859794
 40
1.0
 40
1.0
 40
1.0
 40
1.0
 10
9.5520380616
 20
9.0098916816
 30
0.0
 10
9.5520379575
 20
9.0133387686
 30
0.0
 10
9.5520259592
 20
9.0201066877
 30
0.0
 10
9.5519815896
 20
9.0284428991
 30
0.0
 10
9.5519277148
 20
9.0348195102
 30
0.0
 10
9.5518801738
 20
9.0392679958
 30
0.0
 10
9.5518251188
 20
9.0434328448
 30
0.0
 10
9.5517631294
 20
9.0472748241
 30
0.0
 10
9.551694949
 20
9.0507567545
 30
0.0
 10
9.5516212679
 20
9.0538442967
 30
0.0
 10
9.5515427732
 20
9.0565075181
 30
0.0
 10
9.5514709873
 20
9.0584496085
 30
0.0
 10
9.5514099766
 20
9.059772538
 30
0.0
 10
9.5513662679
 20
9.0605855175
 30
0.0
 10
9.551321969
 20
9.0612759639
 30
0.0
 10
9.5512777586
 20
9.0618421252
 30
0.0
 10
9.5512329306
 20
9.0622842779
 30
0.0
 10
9.5511909834
 20
9.0625989713
 30
0.0
 10
9.5511499324
 20
9.0627858977
 30
0.0
 10
9.5511188206
 20
9.0628688978
 30
0.0
 10
9.5510957041
 20
9.0628899853
 30
0.0
 10
9.5510866491
 20
9.0628892146
 30
0.0
  0
LINE
  5
44E
100
AcDbEntity
  8
0
100
AcDbLine
 62
9
  6
CONTINUOUS
 10
9.5392417782
 20
9.0235899471
 11
9.5395825016
 21
9.0432374415
  0
SPLINE
  5
44F
100
AcDbEntity
  8
0
100
AcDbSpline
 62
9
  6
CONTINUOUS
 70
0
 71
3
 72
33
 73
29
 74
0
 42
0.0000001
 43
0.0000001
 44
0.0000000001
 40
0.0
 40
0.0
 40
0.0
 40
0.0
 40
0.1136289454
 40
0.2135665381
 40
0.2992566488
 40
0.3701467259
 40
0.3998788343
 40
0.4257530751
 40
0.4477500699
 40
0.4658538279
 40
0.4800555282
 40
0.4903645213
 40
0.4940789894
 40
0.4968629836
 40
0.4999815777
 40
0.5031018166
 40
0.5058869601
 40
0.5096026315
 40
0.5199140915
 40
0.534118281
 40
0.5522245268
 40
0.5742239969
 40
0.6001006928
 40
0.6298352298
 40
0.7007300726
 40
0.7864248016
 40
0.8863668313
 40
1.0
 40
1.0
 40
1.0
 40
1.0
 10
9.5395825016
 20
9.0432374415
 30
0.0
 10
9.5396014416
 20
9.0438270956
 30
0.0
 10
9.539639782
 20
9.0449352705
 30
0.0
 10
9.5397036349
 20
9.0464877047
 30
0.0
 10
9.5397697892
 20
9.0478179112
 30
0.0
 10
9.5398291385
 20
9.0487834564
 30
0.0
 10
9.5398789903
 20
9.0494383465
 30
0.0
 10
9.5399144194
 20
9.0498396961
 30
0.0
 10
9.539950135
 20
9.05018044
 30
0.0
 10
9.5399855644
 20
9.0504600287
 30
0.0
 10
9.5400216002
 20
9.0506787961
 30
0.0
 10
9.5400519467
 20
9.0508213731
 30
0.0
 10
9.5400802683
 20
9.0509056052
 30
0.0
 10
9.5400978656
 20
9.0509489943
 30
0.0
 10
9.5401377087
 20
9.0509961518
 30
0.0
 10
9.5401775195
 20
9.0509489504
 30
0.0
 10
9.5401951223
 20
9.0509055471
 30
0.0
 10
9.5402234408
 20
9.050821285
 30
0.0
 10
9.5402537898
 20
9.0506786782
 30
0.0
 10
9.5402898252
 20
9.0504598705
 30
0.0
 10
9.5403252556
 20
9.0501802433
 30
0.0
 10
9.5403609717
 20
9.0498394605
 30
0.0
 10
9.5403964016
 20
9.0494380728
 30
0.0
 10
9.5404462545
 20
9.0487831325
 30
0.0
 10
9.5405056057
 20
9.047817526
 30
0.0
 10
9.5405717626
 20
9.0464872477
 30
0.0
 10
9.5406356181
 20
9.0449347447
 30
0.0
 10
9.5406739599
 20
9.0438265248
 30
0.0
 10
9.5406929004
 20
9.0432368488
 30
0.0
  0
LINE
  5
450
100
AcDbEntity
  8
0
100
AcDbLine
 62
9
  6
CONTINUOUS
 10
9.5406929004
 20
9.0432368488
 11
9.5410404089
 21
9.0227333451
  0
LINE
  5
451
100
AcDbEntity
  8
0
100
AcDbLine
 62
9
  6
CONTINUOUS
 10
9.5410404092
 20
8.9970499629
 11
9.5406928973
 21
8.9765463988
  0
SPLINE
  5
452
100
AcDbEntity
  8
0
100
AcDbSpline
 62
9
  6
CONTINUOUS
 70
0
 71
3
 72
33
 73
29
 74
0
 42
0.0000001
 43
0.0000001
 44
0.0000000001
 40
0.0
 40
0.0
 40
0.0
 40
0.0
 40
0.1136320616
 40
0.2135729372
 40
0.2992664709
 40
0.3701600833
 40
0.3998939935
 40
0.4257700557
 40
0.4477688867
 40
0.4658744897
 40
0.4800780355
 40
0.4903888566
 40
0.4941042159
 40
0.4968890607
 40
0.5000088694
 40
0.5031278864
 40
0.505912178
 40
0.5096269579
 40
0.5199365913
 40
0.5341389386
 40
0.5522433438
 40
0.574240983
 40
0.6001158631
 40
0.6298486041
 40
0.7007399224
 40
0.7864312332
 40
0.8863699728
 40
1.0
 40
1.0
 40
1.0
 40
1.0
 10
9.5406928973
 20
8.9765463988
 30
0.0
 10
9.5406739567
 20
8.9759567259
 30
0.0
 10
9.5406356148
 20
8.9748485125
 30
0.0
 10
9.540571759
 20
8.9732960201
 30
0.0
 10
9.5405056018
 20
8.9719657542
 30
0.0
 10
9.5404462503
 20
8.9710001591
 30
0.0
 10
9.5403963971
 20
8.9703452287
 30
0.0
 10
9.5403609671
 20
8.9699438489
 30
0.0
 10
9.5403252509
 20
8.9696030746
 30
0.0
 10
9.5402898204
 20
8.9693234561
 30
0.0
 10
9.5402537848
 20
8.9691046578
 30
0.0
 10
9.5402234363
 20
8.968962058
 30
0.0
 10
9.5401951168
 20
8.9688778033
 30
0.0
 10
9.5401775155
 20
8.9688344035
 30
0.0
 10
9.5401376961
 20
8.9687872132
 30
0.0
 10
9.5400978613
 20
8.9688343824
 30
0.0
 10
9.5400802626
 20
8.9688777754
 30
0.0
 10
9.5400519418
 20
8.9689620156
 30
0.0
 10
9.5400215946
 20
8.9691046011
 30
0.0
 10
9.539985559
 20
8.96932338
 30
0.0
 10
9.5399501293
 20
8.9696029801
 30
0.0
 10
9.5399144137
 20
8.9699437358
 30
0.0
 10
9.5398789846
 20
8.9703450972
 30
0.0
 10
9.5398291327
 20
8.9710000034
 30
0.0
 10
9.5397697835
 20
8.9719655692
 30
0.0
 10
9.5397036292
 20
8.9732958006
 30
0.0
 10
9.5396397763
 20
8.9748482599
 30
0.0
 10
9.539601436
 20
8.9759564516
 30
0.0
 10
9.5395824961
 20
8.9765461141
 30
0.0
  0
LINE
  5
453
100
AcDbEntity
  8
0
100
AcDbLine
 62
9
  6
CONTINUOUS
 10
9.5395824961
 20
8.9765461141
 11
9.5392350203
 21
8.9970497649
  0
SPLINE
  5
454
100
AcDbEntity
  8
0
100
AcDbSpline
 62
9
  6
CONTINUOUS
 70
0
 71
3
 72
14
 73
10
 74
0
 42
0.0000001
 43
0.0000001
 44
0.0000000001
 40
0.0
 40
0.0
 40
0.0
 40
0.0
 40
0.081172834
 40
0.1948452173
 40
0.3324690919
 40
0.4837006814
 40
0.781358361
 40
0.9054314324
 40
1.0
 40
1.0
 40
1.0
 40
1.0
 10
9.5505288554
 20
9.1831346334
 30
0.0
 10
9.5506199775
 20
9.1856862003
 30
0.0
 10
9.5507920112
 20
9.1918125191
 30
0.0
 10
9.5510356872
 20
9.2022670785
 30
0.0
 10
9.5512862504
 20
9.2149256635
 30
0.0
 10
9.5516026705
 20
9.233371012
 30
0.0
 10
9.5518520251
 20
9.2513912438
 30
0.0
 10
9.5520025338
 20
9.2676301221
 30
0.0
 10
9.5520378432
 20
9.2745072047
 30
0.0
 10
9.5520380178
 20
9.2774817448
 30
0.0
  0
LINE
  5
455
100
AcDbEntity
  8
0
100
AcDbLine
 62
7
  6
CONTINUOUS
 10
9.5692629217
 20
8.2742015217
 11
9.5687252028
 21
8.276828065
  0
LINE
  5
456
100
AcDbEntity
  8
0
100
AcDbLine
 62
7
  6
CONTINUOUS
 10
9.5687252028
 20
8.276828065
 11
9.5677328019
 21
8.2871403348
  0
SPLINE
  5
457
100
AcDbEntity
  8
0
100
AcDbSpline
 62
7
  6
CONTINUOUS
 70
0
 71
3
 72
23
 73
19
 74
0
 42
0.0000001
 43
0.0000001
 44
0.0000000001
 40
0.0
 40
0.0
 40
0.0
 40
0.0
 40
0.0016607087
 40
0.0050868926
 40
0.0104936454
 40
0.0179195916
 40
0.0273735969
 40
0.0388556842
 40
0.0678879095
 40
0.1049732247
 40
0.1500440388
 40
0.2029544095
 40
0.2635312461
 40
0.3316004603
 40
0.4069874051
 40
0.5789168996
 40
0.7773141434
 40
1.0
 40
1.0
 40
1.0
 40
1.0
 10
9.6342368852
 20
9.9091475986
 30
0.0
 10
9.6342200021
 20
9.9091475986
 30
0.0
 10
9.6341818922
 20
9.9090985957
 30
0.0
 10
9.6341456868
 20
9.9090049875
 30
0.0
 10
9.6340964695
 20
9.9088435759
 30
0.0
 10
9.6340453414
 20
9.9086242061
 30
0.0
 10
9.6339878456
 20
9.9083410995
 30
0.0
 10
9.6338984571
 20
9.9078412551
 30
0.0
 10
9.6337780689
 20
9.9070613544
 30
0.0
 10
9.6336246602
 20
9.9059414963
 30
0.0
 10
9.6334540777
 20
9.9045789692
 30
0.0
 10
9.6332668487
 20
9.9029779437
 30
0.0
 10
9.633063669
 20
9.9011434092
 30
0.0
 10
9.6328451561
 20
9.8990807048
 30
0.0
 10
9.6325197105
 20
9.8958909829
 30
0.0
 10
9.6320819498
 20
9.8913809369
 30
0.0
 10
9.6315265151
 20
9.8853778783
 30
0.0
 10
9.631147357
 20
9.8811138769
 30
0.0
 10
9.6309499792
 20
9.8788586278
 30
0.0
  0
SPLINE
  5
458
100
AcDbEntity
  8
0
100
AcDbSpline
 62
7
  6
CONTINUOUS
 70
0
 71
3
 72
23
 73
19
 74
0
 42
0.0000001
 43
0.0000001
 44
0.0000000001
 40
0.0
 40
0.0
 40
0.0
 40
0.0
 40
0.1944890322
 40
0.3822928862
 40
0.5550702776
 40
0.6337837117
 40
0.7063874145
 40
0.7721714503
 40
0.8305631041
 40
0.8810244002
 40
0.9230187402
 40
0.9560725057
 40
0.9691717787
 40
0.9799595673
 40
0.9884192233
 40
0.9945410972
 40
0.998340093
 40
1.0
 40
1.0
 40
1.0
 40
1.0
 10
9.5396159869
 20
9.0098917083
 30
0.0
 10
9.5396159869
 20
9.0111693513
 30
0.0
 10
9.539621705
 20
9.0136807245
 30
0.0
 10
9.5396465826
 20
9.0173270359
 30
0.0
 10
9.5396813529
 20
9.0202126723
 30
0.0
 10
9.5397175273
 20
9.0223414204
 30
0.0
 10
9.5397471052
 20
9.023767304
 30
0.0
 10
9.5397797399
 20
9.0250595896
 30
0.0
 10
9.5398150167
 20
9.0262062739
 30
0.0
 10
9.5398524755
 20
9.0271965589
 30
0.0
 10
9.5398916387
 20
9.0280200558
 30
0.0
 10
9.5399274976
 20
9.0285982453
 30
0.0
 10
9.5399580021
 20
9.0289707684
 30
0.0
 10
9.5399795495
 20
9.0291828299
 30
0.0
 10
9.5400000269
 20
9.0293465462
 30
0.0
 10
9.5400224563
 20
9.0294692959
 30
0.0
 10
9.5400390351
 20
9.0295359842
 30
0.0
 10
9.5400597456
 20
9.0295767476
 30
0.0
 10
9.5400706499
 20
9.0295767476
 30
0.0
  0
SPLINE
  5
459
100
AcDbEntity
  8
0
100
AcDbSpline
 62
9
  6
CONTINUOUS
 70
0
 71
3
 72
30
 73
26
 74
0
 42
0.0000001
 43
0.0000001
 44
0.0000000001
 40
0.0
 40
0.0
 40
0.0
 40
0.0
 40
0.0007682357
 40
0.0014032969
 40
0.0022397611
 40
0.0045490961
 40
0.007727108
 40
0.0166899433
 40
0.0290906924
 40
0.0448646778
 40
0.0639318822
 40
0.0861541964
 40
0.1113713144
 40
0.1394222551
 40
0.1701339878
 40
0.2386595643
 40
0.3151222389
 40
0.3974903034
 40
0.4835698139
 40
0.5710746107
 40
0.6576654173
 40
0.74103151
 40
0.8892746755
 40
0.9502173742
 40
1.0
 40
1.0
 40
1.0
 40
1.0
 10
9.5762380331
 20
9.6706991243
 30
0.0
 10
9.5762644979
 20
9.6706967806
 30
0.0
 10
9.5763084233
 20
9.6707356214
 30
0.0
 10
9.5763467545
 20
9.6707998147
 30
0.0
 10
9.5764025076
 20
9.6709197663
 30
0.0
 10
9.5764686246
 20
9.6711278666
 30
0.0
 10
9.5765901978
 20
9.6716131764
 30
0.0
 10
9.5767418347
 20
9.6724486116
 30
0.0
 10
9.5769301292
 20
9.6737191744
 30
0.0
 10
9.5771332356
 20
9.6753404099
 30
0.0
 10
9.5773505667
 20
9.6773019043
 30
0.0
 10
9.5775798838
 20
9.6795905197
 30
0.0
 10
9.5778196725
 20
9.6821902344
 30
0.0
 10
9.5780681292
 20
9.6850839293
 30
0.0
 10
9.5784216285
 20
9.6894718171
 30
0.0
 10
9.5788686977
 20
9.695531759
 30
0.0
 10
9.5793945424
 20
9.7033770041
 30
0.0
 10
9.579913231
 20
9.7118310313
 30
0.0
 10
9.580410505
 20
9.7206688478
 30
0.0
 10
9.5808731044
 20
9.7296547757
 30
0.0
 10
9.5812886011
 20
9.7385490812
 30
0.0
 10
9.5817465665
 20
9.7495440532
 30
0.0
 10
9.5820925294
 20
9.7596560488
 30
0.0
 10
9.5822840278
 20
9.7686101536
 30
0.0
 10
9.5823232398
 20
9.7724394099
 30
0.0
 10
9.5823234178
 20
9.7741610733
 30
0.0
  0
SPLINE
  5
45A
100
AcDbEntity
  8
0
100
AcDbSpline
 62
9
  6
CONTINUOUS
 70
0
 71
3
 72
18
 73
14
 74
0
 42
0.0000001
 43
0.0000001
 44
0.0000000001
 40
0.0
 40
0.0
 40
0.0
 40
0.0
 40
0.0077860688
 40
0.0209455979
 40
0.0412607287
 40
0.0691705412
 40
0.1048310772
 40
0.1483120498
 40
0.258784504
 40
0.4000865656
 40
0.5713379683
 40
0.7716206196
 40
1.0
 40
1.0
 40
1.0
 40
1.0
 10
9.5818815463
 20
8.2381947235
 30
0.0
 10
9.5819009394
 20
8.2381932268
 30
0.0
 10
9.5819507063
 20
8.2382272258
 30
0.0
 10
9.581991583
 20
8.2383217056
 30
0.0
 10
9.5820373079
 20
8.2384685908
 30
0.0
 10
9.5820774266
 20
8.2386744561
 30
0.0
 10
9.5821163237
 20
8.2389390875
 30
0.0
 10
9.5821676683
 20
8.2394100678
 30
0.0
 10
9.5822195616
 20
8.2401460216
 30
0.0
 10
9.5822659914
 20
8.2412018292
 30
0.0
 10
9.5822993562
 20
8.2424825873
 30
0.0
 10
9.5823193907
 20
8.2439811454
 30
0.0
 10
9.5823233588
 20
8.2450520114
 30
0.0
 10
9.5823234178
 20
8.2456225348
 30
0.0
  0
SPLINE
  5
45B
100
AcDbEntity
  8
0
100
AcDbSpline
 62
7
  6
CONTINUOUS
 70
0
 71
3
 72
17
 73
13
 74
0
 42
0.0000001
 43
0.0000001
 44
0.0000000001
 40
0.0
 40
0.0
 40
0.0
 40
0.0
 40
0.0096108107
 40
0.0247631326
 40
0.0470993248
 40
0.077024572
 40
0.1597732955
 40
0.2726490397
 40
0.4148085816
 40
0.5848049612
 40
0.7805748658
 40
1.0
 40
1.0
 40
1.0
 40
1.0
 10
9.5689911023
 20
8.4369894442
 30
0.0
 10
9.5689694555
 20
8.4369892844
 30
0.0
 10
9.5689167707
 20
8.4370212312
 30
0.0
 10
9.5688600116
 20
8.4371107799
 30
0.0
 10
9.5687970372
 20
8.4372496189
 30
0.0
 10
9.5687008043
 20
8.4375382622
 30
0.0
 10
9.5685815619
 20
8.4380328056
 30
0.0
 10
9.5684404259
 20
8.4387804474
 30
0.0
 10
9.5682933875
 20
8.4397266023
 30
0.0
 10
9.5681422194
 20
8.440860662
 30
0.0
 10
9.5679888662
 20
8.4421698441
 30
0.0
 10
9.5678916671
 20
8.4430999849
 30
0.0
 10
9.5678427205
 20
8.4435917879
 30
0.0
  0
LINE
  5
45C
100
AcDbEntity
  8
0
100
AcDbLine
 62
7
  6
CONTINUOUS
 10
9.5678427205
 20
8.4435917879
 11
9.5673332045
 21
8.4496744796
  0
SPLINE
  5
45D
100
AcDbEntity
  8
0
100
AcDbSpline
 62
9
  6
CONTINUOUS
 70
0
 71
3
 72
20
 73
16
 74
0
 42
0.0000001
 43
0.0000001
 44
0.0000000001
 40
0.0
 40
0.0
 40
0.0
 40
0.0
 40
0.0069990303
 40
0.0127810371
 40
0.0204368949
 40
0.0416551708
 40
0.0709097133
 40
0.1082146616
 40
0.1535234579
 40
0.2067199101
 40
0.2676032775
 40
0.4115718496
 40
0.5836296695
 40
0.7809739051
 40
1.0
 40
1.0
 40
1.0
 40
1.0
 10
9.5812513905
 20
8.401037156
 30
0.0
 10
9.5813076833
 20
8.4010320964
 30
0.0
 10
9.581401037
 20
8.4011176916
 30
0.0
 10
9.5814719074
 20
8.4012604566
 30
0.0
 10
9.5815718218
 20
8.4015253301
 30
0.0
 10
9.5816754704
 20
8.4019826253
 30
0.0
 10
9.5817886626
 20
8.4026831584
 30
0.0
 10
9.5818915636
 20
8.4035806848
 30
0.0
 10
9.5819859266
 20
8.404673486
 30
0.0
 10
9.5820698781
 20
8.4059579191
 30
0.0
 10
9.5821736828
 20
8.4080392345
 30
0.0
 10
9.582268393
 20
8.4110816766
 30
0.0
 10
9.582331891
 20
8.4152269467
 30
0.0
 10
9.5823488
 20
8.4199787775
 30
0.0
 10
9.5823299708
 20
8.4233411108
 30
0.0
 10
9.5823134811
 20
8.4251097497
 30
0.0
  0
SPLINE
  5
45E
100
AcDbEntity
  8
0
100
AcDbSpline
 62
9
  6
CONTINUOUS
 70
0
 71
3
 72
10
 73
6
 74
0
 42
0.0000001
 43
0.0000001
 44
0.0000000001
 40
0.0
 40
0.0
 40
0.0
 40
0.0
 40
0.555721131
 40
0.7947897345
 40
1.0
 40
1.0
 40
1.0
 40
1.0
 10
9.5650372695
 20
8.9966356815
 30
0.0
 10
9.5651339786
 20
8.9925977121
 30
0.0
 10
9.5653391601
 20
8.9868234086
 30
0.0
 10
9.5657870618
 20
8.9795686819
 30
0.0
 10
9.5660562038
 20
8.9763502842
 30
0.0
 10
9.5662065443
 20
8.9748663583
 30
0.0
  0
SPLINE
  5
45F
100
AcDbEntity
  8
0
100
AcDbSpline
 62
9
  6
CONTINUOUS
 70
0
 71
3
 72
28
 73
24
 74
0
 42
0.0000001
 43
0.0000001
 44
0.0000000001
 40
0.0
 40
0.0
 40
0.0
 40
0.0
 40
0.1104950984
 40
0.2079071142
 40
0.2918219239
 40
0.3618566052
 40
0.4177269504
 40
0.4403445603
 40
0.4594515682
 40
0.4751296743
 40
0.4875594399
 40
0.5044861773
 40
0.5119798584
 40
0.5211280851
 40
0.5329945522
 40
0.5480539964
 40
0.5665169584
 40
0.5884799194
 40
0.6430392615
 40
0.7117868971
 40
0.7944509307
 40
0.8906576009
 40
1.0
 40
1.0
 40
1.0
 40
1.0
 10
9.5662065443
 20
8.9748663583
 30
0.0
 10
9.5662718804
 20
8.9742214628
 30
0.0
 10
9.5664044117
 20
8.9730089563
 30
0.0
 10
9.5666256969
 20
8.9713112657
 30
0.0
 10
9.5668551862
 20
8.9698544107
 30
0.0
 10
9.5670913185
 20
8.9686460972
 30
0.0
 10
9.5673031566
 20
8.9678002022
 30
0.0
 10
9.5674819684
 20
8.9672557742
 30
0.0
 10
9.5676062916
 20
8.9669431449
 30
0.0
 10
9.5677334536
 20
8.9666944925
 30
0.0
 10
9.5678785228
 20
8.9664795442
 30
0.0
 10
9.5680739416
 20
8.9663276528
 30
0.0
 10
9.5682760221
 20
8.9663772256
 30
0.0
 10
9.5684065186
 20
8.9664863126
 30
0.0
 10
9.568533246
 20
8.9666570295
 30
0.0
 10
9.5686586514
 20
8.9668926684
 30
0.0
 10
9.5687837523
 20
8.9671934806
 30
0.0
 10
9.5689628612
 20
8.9677214433
 30
0.0
 10
9.569175378
 20
8.9685476967
 30
0.0
 10
9.5694119877
 20
8.9697328489
 30
0.0
 10
9.5696422677
 20
8.9711673787
 30
0.0
 10
9.5698644862
 20
8.9728435913
 30
0.0
 10
9.5699975729
 20
8.9740421246
 30
0.0
 10
9.5700632264
 20
8.9746801904
 30
0.0
  0
SPLINE
  5
460
100
AcDbEntity
  8
0
100
AcDbSpline
 62
9
  6
CONTINUOUS
 70
0
 71
3
 72
10
 73
6
 74
0
 42
0.0000001
 43
0.0000001
 44
0.0000000001
 40
0.0
 40
0.0
 40
0.0
 40
0.0
 40
0.2043996947
 40
0.4432506487
 40
1.0
 40
1.0
 40
1.0
 40
1.0
 10
9.5700632264
 20
8.9746801904
 30
0.0
 10
9.5702159241
 20
8.976164212
 30
0.0
 10
9.5704890065
 20
8.9793883524
 30
0.0
 10
9.570943645
 20
8.9866731864
 30
0.0
 10
9.571151635
 20
8.9924775723
 30
0.0
 10
9.5712497734
 20
8.9965399463
 30
0.0
  0
SPLINE
  5
461
100
AcDbEntity
  8
0
100
AcDbSpline
 62
9
  6
CONTINUOUS
 70
0
 71
3
 72
21
 73
17
 74
0
 42
0.0000001
 43
0.0000001
 44
0.0000000001
 40
0.0
 40
0.0
 40
0.0
 40
0.0
 40
0.206967587
 40
0.3980730412
 40
0.5689350572
 40
0.7152003993
 40
0.7778146966
 40
0.8329649367
 40
0.8804170105
 40
0.9199554588
 40
0.9514231268
 40
0.9641303142
 40
0.9748421006
 40
0.9836087578
 40
0.9905403391
 40
1.0
 40
1.0
 40
1.0
 40
1.0
 10
9.571252701
 20
9.0231230041
 30
0.0
 10
9.5712020357
 20
9.0252416487
 30
0.0
 10
9.571078309
 20
9.0293159966
 30
0.0
 10
9.5708169396
 20
9.0351360073
 30
0.0
 10
9.5704936014
 20
9.0403302728
 30
0.0
 10
9.570167059
 20
9.0442054885
 30
0.0
 10
9.5698702396
 20
9.0468928466
 30
0.0
 10
9.5696490447
 20
9.0485702098
 30
0.0
 10
9.5694197817
 20
9.0500077654
 30
0.0
 10
9.5691838997
 20
9.0511978723
 30
0.0
 10
9.5689721411
 20
9.052029311
 30
0.0
 10
9.5687933601
 20
9.0525626536
 30
0.0
 10
9.5686692449
 20
9.0528677272
 30
0.0
 10
9.5685423844
 20
9.053108953
 30
0.0
 10
9.5683975375
 20
9.0533169015
 30
0.0
 10
9.568242043
 20
9.0534289972
 30
0.0
 10
9.5681451812
 20
9.0534293526
 30
0.0
  0
SPLINE
  5
462
100
AcDbEntity
  8
0
100
AcDbSpline
 62
9
  6
CONTINUOUS
 70
0
 71
3
 72
20
 73
16
 74
0
 42
0.0000001
 43
0.0000001
 44
0.0000000001
 40
0.0
 40
0.0
 40
0.0
 40
0.0
 40
0.0096548239
 40
0.0166045741
 40
0.0253192504
 40
0.0484814755
 40
0.0796783096
 40
0.1190767005
 40
0.1665105539
 40
0.2217141175
 40
0.2844017664
 40
0.430742048
 40
0.6016485694
 40
0.7928667063
 40
1.0
 40
1.0
 40
1.0
 40
1.0
 10
9.5681451812
 20
9.0534293526
 30
0.0
 10
9.5680467481
 20
9.0534211799
 30
0.0
 10
9.5678952321
 20
9.0533064502
 30
0.0
 10
9.5677480252
 20
9.0530974583
 30
0.0
 10
9.5675612995
 20
9.0527439699
 30
0.0
 10
9.5673462397
 20
9.0521342728
 30
0.0
 10
9.5671052614
 20
9.0512051344
 30
0.0
 10
9.5668704422
 20
9.050020258
 30
0.0
 10
9.5666411324
 20
9.0485851778
 30
0.0
 10
9.566420151
 20
9.0469081813
 30
0.0
 10
9.5661233999
 20
9.0442212003
 30
0.0
 10
9.5657966031
 20
9.0403475371
 30
0.0
 10
9.5654730077
 20
9.0351556014
 30
0.0
 10
9.5652116915
 20
9.0293375296
 30
0.0
 10
9.565087944
 20
9.0252640051
 30
0.0
 10
9.5650372129
 20
9.0231455747
 30
0.0
  0
SPLINE
  5
463
100
AcDbEntity
  8
0
100
AcDbSpline
 62
9
  6
CONTINUOUS
 70
0
 71
3
 72
22
 73
18
 74
0
 42
0.0000001
 43
0.0000001
 44
0.0000000001
 40
0.0
 40
0.0
 40
0.0
 40
0.0
 40
0.1944922481
 40
0.3818138307
 40
0.5541243081
 40
0.7050228827
 40
0.7706510008
 40
0.8288354666
 40
0.8790252108
 40
0.9208102445
 40
0.938430863
 40
0.9538102576
 40
0.966925483
 40
0.9777781976
 40
0.9863876464
 40
0.9928135814
 40
1.0
 40
1.0
 40
1.0
 40
1.0
 10
9.5823234178
 20
9.009891804
 30
0.0
 10
9.5823232121
 20
9.013509114
 30
0.0
 10
9.5822823327
 20
9.0206104325
 30
0.0
 10
9.5821017469
 20
9.0309151327
 30
0.0
 10
9.5818079148
 20
9.0404060993
 30
0.0
 10
9.5814678519
 20
9.0476304987
 30
0.0
 10
9.581138499
 20
9.0527292788
 30
0.0
 10
9.5808841702
 20
9.0559556367
 30
0.0
 10
9.5806133794
 20
9.0587354424
 30
0.0
 10
9.5803658853
 20
9.060759008
 30
0.0
 10
9.5801556516
 20
9.0621341903
 30
0.0
 10
9.5800051343
 20
9.0629783295
 30
0.0
 10
9.5798518454
 20
9.063695161
 30
0.0
 10
9.5797005341
 20
9.0642790516
 30
0.0
 10
9.5795410814
 20
9.064742694
 30
0.0
 10
9.5793822543
 20
9.0650999152
 30
0.0
 10
9.5791763315
 20
9.0653469532
 30
0.0
 10
9.5790431899
 20
9.0653352123
 30
0.0
  0
SPLINE
  5
464
100
AcDbEntity
  8
0
100
AcDbSpline
 62
7
  6
CONTINUOUS
 70
0
 71
3
 72
15
 73
11
 74
0
 42
0.0000001
 43
0.0000001
 44
0.0000000001
 40
0.0
 40
0.0
 40
0.0
 40
0.0
 40
0.0281019798
 40
0.0512965464
 40
0.0815882943
 40
0.1641627872
 40
0.2762604427
 40
0.4174292986
 40
0.5862847154
 40
1.0
 40
1.0
 40
1.0
 40
1.0
 10
9.5684458211
 20
8.7347203497
 30
0.0
 10
9.5683882673
 20
8.7347199967
 30
0.0
 10
9.5683003974
 20
8.7348103407
 30
0.0
 10
9.5682233833
 20
8.7349519661
 30
0.0
 10
9.5681151191
 20
8.7352122666
 30
0.0
 10
9.5679913937
 20
8.735655188
 30
0.0
 10
9.5678480529
 20
8.7363288476
 30
0.0
 10
9.5677062586
 20
8.737181638
 30
0.0
 10
9.5675047443
 20
8.7386503721
 30
0.0
 10
9.5673817895
 20
8.7398374639
 30
0.0
 10
9.5673038725
 20
8.7406811926
 30
0.0
  0
LINE
  5
465
100
AcDbEntity
  8
0
100
AcDbLine
 62
7
  6
CONTINUOUS
 10
9.5673038725
 20
8.7406811926
 11
9.5668640867
 21
8.7470028902
  0
SPLINE
  5
466
100
AcDbEntity
  8
0
100
AcDbSpline
 62
7
  6
CONTINUOUS
 70
0
 71
3
 72
18
 73
14
 74
0
 42
0.0000001
 43
0.0000001
 44
0.0000000001
 40
0.0
 40
0.0
 40
0.0
 40
0.0
 40
0.02683307
 40
0.0373334763
 40
0.0495915435
 40
0.0795832225
 40
0.117067831
 40
0.162125784
 40
0.2147049589
 40
0.2746883221
 40
0.4163078441
 40
0.5856938389
 40
1.0
 40
1.0
 40
1.0
 40
1.0
 10
9.6254685141
 20
8.8449563979
 30
0.0
 10
9.6251848208
 20
8.8449563979
 30
0.0
 10
9.6248622597
 20
8.8445839437
 30
0.0
 10
9.6246156864
 20
8.8441384391
 30
0.0
 10
9.6243821054
 20
8.8436266756
 30
0.0
 10
9.6241101943
 20
8.8428298791
 30
0.0
 10
9.6238064814
 20
8.8416779033
 30
0.0
 10
9.6235134055
 20
8.8402795855
 30
0.0
 10
9.6232302866
 20
8.838636997
 30
0.0
 10
9.6228468793
 20
8.8359769281
 30
0.0
 10
9.6224161104
 20
8.8320773799
 30
0.0
 10
9.6217876838
 20
8.8244342974
 30
0.0
 10
9.6214795039
 20
8.8182691957
 30
0.0
 10
9.6213085857
 20
8.8138922697
 30
0.0
  0
SPLINE
  5
467
100
AcDbEntity
  8
0
100
AcDbSpline
 62
7
  6
CONTINUOUS
 70
0
 71
3
 72
21
 73
17
 74
0
 42
0.0000001
 43
0.0000001
 44
0.0000000001
 40
0.0
 40
0.0
 40
0.0
 40
0.0
 40
0.2180980014
 40
0.4126406893
 40
0.5815632541
 40
0.7229910297
 40
0.7829821668
 40
0.8356405332
 40
0.8808498413
 40
0.9185489528
 40
0.9488065923
 40
0.9612120477
 40
0.9718648813
 40
0.9808569069
 40
0.9883474144
 40
1.0
 40
1.0
 40
1.0
 40
1.0
 10
9.624092433
 20
8.6946884567
 30
0.0
 10
9.624289946
 20
8.6923906763
 30
0.0
 10
9.6246910088
 20
8.6880455528
 30
0.0
 10
9.6253547197
 20
8.6819314417
 30
0.0
 10
9.6260396784
 20
8.6766362311
 30
0.0
 10
9.6266493307
 20
8.6727669085
 30
0.0
 10
9.6271543935
 20
8.6701278328
 30
0.0
 10
9.6275125551
 20
8.6684972093
 30
0.0
 10
9.627869669
 20
8.6671083731
 30
0.0
 10
9.6282250502
 20
8.6659652006
 30
0.0
 10
9.6285345974
 20
8.6651722186
 30
0.0
 10
9.6287881562
 20
8.6646680922
 30
0.0
 10
9.6289641547
 20
8.6643781326
 30
0.0
 10
9.6291406147
 20
8.6641500225
 30
0.0
 10
9.6293544681
 20
8.6639446426
 30
0.0
 10
9.6295545721
 20
8.6638540357
 30
0.0
 10
9.6296777911
 20
8.6638540357
 30
0.0
  0
SPLINE
  5
468
100
AcDbEntity
  8
0
100
AcDbSpline
 62
7
  6
CONTINUOUS
 70
0
 71
3
 72
21
 73
17
 74
0
 42
0.0000001
 43
0.0000001
 44
0.0000000001
 40
0.0
 40
0.0
 40
0.0
 40
0.0
 40
0.0043515983
 40
0.0095018628
 40
0.0160189537
 40
0.0241856709
 40
0.045942967
 40
0.0752979701
 40
0.1124000489
 40
0.1572730912
 40
0.2098234865
 40
0.2699182151
 40
0.4121506935
 40
0.5825863963
 40
0.77924882
 40
1.0
 40
1.0
 40
1.0
 40
1.0
 10
9.623016617
 20
8.5472246715
 30
0.0
 10
9.6229710072
 20
8.5472246715
 30
0.0
 10
9.6228706782
 20
8.5471978314
 30
0.0
 10
9.62273817
 20
8.5470900926
 30
0.0
 10
9.6226130371
 20
8.546922647
 30
0.0
 10
9.6224345898
 20
8.5465838124
 30
0.0
 10
9.6222347149
 20
8.5459926582
 30
0.0
 10
9.6220220402
 20
8.5450926357
 30
0.0
 10
9.6218232464
 20
8.5439421274
 30
0.0
 10
9.621639179
 20
8.5425440365
 30
0.0
 10
9.6214709606
 20
8.540901457
 30
0.0
 10
9.6212566868
 20
8.5382385069
 30
0.0
 10
9.6210457075
 20
8.5343366225
 30
0.0
 10
9.6208742362
 20
8.5290007656
 30
0.0
 10
9.6207760071
 20
8.5228399848
 30
0.0
 10
9.6207616718
 20
8.518464926
 30
0.0
 10
9.620765483
 20
8.516151201
 30
0.0
  0
SPLINE
  5
469
100
AcDbEntity
  8
0
100
AcDbSpline
 62
7
  6
CONTINUOUS
 70
0
 71
3
 72
20
 73
16
 74
0
 42
0.0000001
 43
0.0000001
 44
0.0000000001
 40
0.0
 40
0.0
 40
0.0
 40
0.0
 40
0.2193509121
 40
0.4150469211
 40
0.5849249965
 40
0.7270618939
 40
0.7872920865
 40
0.8400867664
 40
0.8853023445
 40
0.92284611
 40
0.952734941
 40
0.975090792
 40
0.9835615233
 40
0.9903627512
 40
1.0
 40
1.0
 40
1.0
 40
1.0
 10
9.6267829116
 20
8.3968642324
 30
0.0
 10
9.6270106145
 20
8.3945750567
 30
0.0
 10
9.6274628448
 20
8.3902456481
 30
0.0
 10
9.6281765518
 20
8.3841526101
 30
0.0
 10
9.6288807738
 20
8.3788744594
 30
0.0
 10
9.6294805926
 20
8.375016265
 30
0.0
 10
9.6299595755
 20
8.3723832887
 30
0.0
 10
9.630291263
 20
8.3707570292
 30
0.0
 10
9.6306145555
 20
8.3693724104
 30
0.0
 10
9.6309276462
 20
8.3682327304
 30
0.0
 10
9.6312303961
 20
8.3673403886
 30
0.0
 10
9.6314873655
 20
8.3667561489
 30
0.0
 10
9.6317002005
 20
8.3664209509
 30
0.0
 10
9.6318659239
 20
8.3662228794
 30
0.0
 10
9.6320301107
 20
8.3661223093
 30
0.0
 10
9.6321311826
 20
8.3661223093
 30
0.0
  0
SPLINE
  5
46A
100
AcDbEntity
  8
0
100
AcDbSpline
 62
9
  6
CONTINUOUS
 70
0
 71
3
 72
22
 73
18
 74
0
 42
0.0000001
 43
0.0000001
 44
0.0000000001
 40
0.0
 40
0.0
 40
0.0
 40
0.0
 40
0.00351263
 40
0.007999308
 40
0.0140985632
 40
0.022069294
 40
0.0320245626
 40
0.0440194958
 40
0.0741670196
 40
0.1124619448
 40
0.158759004
 40
0.2128836802
 40
0.2746320336
 40
0.4197630695
 40
0.5914937732
 40
0.7864699966
 40
1.0
 40
1.0
 40
1.0
 40
1.0
 10
9.5800557234
 20
8.6988745578
 30
0.0
 10
9.5800928651
 20
8.6988714588
 30
0.0
 10
9.5801803213
 20
8.6988955842
 30
0.0
 10
9.580288577
 20
8.6990033707
 30
0.0
 10
9.5803923432
 20
8.6991714309
 30
0.0
 10
9.5804942887
 20
8.6994057961
 30
0.0
 10
9.5805951326
 20
8.699707037
 30
0.0
 10
9.5807386205
 20
8.7002411422
 30
0.0
 10
9.5809050511
 20
8.7010789583
 30
0.0
 10
9.581086734
 20
8.7022829434
 30
0.0
 10
9.5812597216
 20
8.703744809
 30
0.0
 10
9.58142301
 20
8.7054578461
 30
0.0
 10
9.5816373591
 20
8.7082190338
 30
0.0
 10
9.5818637193
 20
8.7122302867
 30
0.0
 10
9.5820715256
 20
8.717657348
 30
0.0
 10
9.5822211718
 20
8.7238122946
 30
0.0
 10
9.5822788061
 20
8.7281464491
 30
0.0
 10
9.582298366
 20
8.7304120241
 30
0.0
  0
SPLINE
  5
46B
100
AcDbEntity
  8
0
100
AcDbSpline
 62
7
  6
CONTINUOUS
 70
0
 71
3
 72
15
 73
11
 74
0
 42
0.0000001
 43
0.0000001
 44
0.0000000001
 40
0.0
 40
0.0
 40
0.0
 40
0.0
 40
0.0230875306
 40
0.0739169499
 40
0.1551316127
 40
0.2668194377
 40
0.4084435583
 40
0.5787668437
 40
0.7764168994
 40
1.0
 40
1.0
 40
1.0
 40
1.0
 10
9.5501123821
 20
9.1211685109
 30
0.0
 10
9.5500721887
 20
9.1211688921
 30
0.0
 10
9.5499919587
 20
9.1213086775
 30
0.0
 10
9.549931477
 20
9.1215489996
 30
0.0
 10
9.549851032
 20
9.1219779879
 30
0.0
 10
9.5497819414
 20
9.122551422
 30
0.0
 10
9.5497127412
 20
9.1232876718
 30
0.0
 10
9.549649618
 20
9.1241720168
 30
0.0
 10
9.5495914436
 20
9.1252005211
 30
0.0
 10
9.5495588089
 20
9.1259331181
 30
0.0
 10
9.5495432435
 20
9.1263220636
 30
0.0
  0
LINE
  5
46C
100
AcDbEntity
  8
0
100
AcDbLine
 62
7
  6
CONTINUOUS
 10
9.5495432435
 20
9.1263220636
 11
9.5494019886
 21
9.1323781099
  0
SPLINE
  5
46D
100
AcDbEntity
  8
0
100
AcDbSpline
 62
7
  6
CONTINUOUS
 70
0
 71
3
 72
20
 73
16
 74
0
 42
0.0000001
 43
0.0000001
 44
0.0000000001
 40
0.0
 40
0.0
 40
0.0
 40
0.0
 40
0.0073384063
 40
0.0133998996
 40
0.0213117988
 40
0.0311411108
 40
0.0429180999
 40
0.072359787
 40
0.1096737265
 40
0.1548260442
 40
0.268104251
 40
0.4109357303
 40
0.5818705684
 40
0.7789384086
 40
1.0
 40
1.0
 40
1.0
 40
1.0
 10
9.6334733663
 20
9.8164481444
 30
0.0
 10
9.6333977525
 20
9.8164481444
 30
0.0
 10
9.6332821137
 20
9.8163317328
 30
0.0
 10
9.6331740296
 20
9.8161493761
 30
0.0
 10
9.6330699914
 20
9.8159238864
 30
0.0
 10
9.6329641416
 20
9.8156396284
 30
0.0
 10
9.6328041195
 20
9.8151379465
 30
0.0
 10
9.6326013669
 20
9.8143543632
 30
0.0
 10
9.6323562881
 20
9.8132273823
 30
0.0
 10
9.631982148
 20
9.8112453108
 30
0.0
 10
9.6314972484
 20
9.8081787049
 30
0.0
 10
9.6309020544
 20
9.8038188112
 30
0.0
 10
9.630267981
 20
9.7985934118
 30
0.0
 10
9.6296016546
 20
9.7925603913
 30
0.0
 10
9.6291650543
 20
9.7882741743
 30
0.0
 10
9.6289417158
 20
9.786007364
 30
0.0
  0
LINE
  5
46E
100
AcDbEntity
  8
0
100
AcDbLine
 62
9
  6
CONTINUOUS
 10
9.5773024818
 20
9.7796292894
 11
9.5775229852
 21
9.7828397043
  0
SPLINE
  5
46F
100
AcDbEntity
  8
0
100
AcDbSpline
 62
9
  6
CONTINUOUS
 70
0
 71
3
 72
21
 73
17
 74
0
 42
0.0000001
 43
0.0000001
 44
0.0000000001
 40
0.0
 40
0.0
 40
0.0
 40
0.0
 40
0.1639953383
 40
0.3342288981
 40
0.5013408691
 40
0.6561224081
 40
0.7261577266
 40
0.7899897246
 40
0.8467093324
 40
0.8955117157
 40
0.9357571522
 40
0.9668378397
 40
0.9788051079
 40
0.9883431137
 40
0.9954181774
 40
1.0
 40
1.0
 40
1.0
 40
1.0
 10
9.5784842443
 20
9.7976538532
 30
0.0
 10
9.5787454418
 20
9.8018332335
 30
0.0
 10
9.5792635514
 20
9.8103518658
 30
0.0
 10
9.5800047374
 20
9.8231318809
 30
0.0
 10
9.580697198
 20
9.8356790082
 30
0.0
 10
9.5812182103
 20
9.8456731551
 30
0.0
 10
9.5815799953
 20
9.8530347713
 30
0.0
 10
9.5818077996
 20
9.8578959788
 30
0.0
 10
9.5819982168
 20
9.8622161535
 30
0.0
 10
9.582148732
 20
9.8659352214
 30
0.0
 10
9.5822572339
 20
9.8690007178
 30
0.0
 10
9.5823167084
 20
9.8711268134
 30
0.0
 10
9.5823388025
 20
9.8724693699
 30
0.0
 10
9.5823433176
 20
9.873199223
 30
0.0
 10
9.5823366486
 20
9.8737402833
 30
0.0
 10
9.5823249649
 20
9.8740379969
 30
0.0
 10
9.5823134811
 20
9.8741544264
 30
0.0
  0
SPLINE
  5
470
100
AcDbEntity
  8
0
100
AcDbSpline
 62
7
  6
CONTINUOUS
 70
0
 71
3
 72
19
 73
15
 74
0
 42
0.0000001
 43
0.0000001
 44
0.0000000001
 40
0.0
 40
0.0
 40
0.0
 40
0.0
 40
0.0069014955
 40
0.0126639685
 40
0.0202778107
 40
0.0298229522
 40
0.0413362083
 40
0.070327697
 40
0.1521841583
 40
0.2652148677
 40
0.4083049096
 40
0.5798011524
 40
0.7777976589
 40
1.0
 40
1.0
 40
1.0
 40
1.0
 10
9.6216759317
 20
8.3844376343
 30
0.0
 10
9.6216037718
 20
8.3844376343
 30
0.0
 10
9.6214955913
 20
8.3843176082
 30
0.0
 10
9.6214130277
 20
8.3841309667
 30
0.0
 10
9.6213370995
 20
8.3839002521
 30
0.0
 10
9.6212682592
 20
8.3836093305
 30
0.0
 10
9.6211727964
 20
8.3830941738
 30
0.0
 10
9.6210145708
 20
8.381824223
 30
0.0
 10
9.6208714401
 20
8.3794861362
 30
0.0
 10
9.6207753827
 20
8.3759536924
 30
0.0
 10
9.6207537743
 20
8.3714822983
 30
0.0
 10
9.6208059597
 20
8.3661230707
 30
0.0
 10
9.6209339533
 20
8.3599376931
 30
0.0
 10
9.6210620152
 20
8.3555460432
 30
0.0
 10
9.621137423
 20
8.3532239859
 30
0.0
  0
SPLINE
  5
471
100
AcDbEntity
  8
0
100
AcDbSpline
 62
7
  6
CONTINUOUS
 70
0
 71
3
 72
9
 73
5
 74
0
 42
0.0000001
 43
0.0000001
 44
0.0000000001
 40
0.0
 40
0.0
 40
0.0
 40
0.0
 40
0.5412560617
 40
1.0
 40
1.0
 40
1.0
 40
1.0
 10
9.5665150084
 20
9.0098917083
 30
0.0
 10
9.5665150084
 20
9.0124084834
 30
0.0
 10
9.5665805398
 20
9.0170583669
 30
0.0
 10
9.5667881204
 20
9.0217053698
 30
0.0
 10
9.5669478114
 20
9.0238324877
 30
0.0
  0
SPLINE
  5
472
100
AcDbEntity
  8
0
100
AcDbSpline
 62
7
  6
CONTINUOUS
 70
0
 71
3
 72
14
 73
10
 74
0
 42
0.0000001
 43
0.0000001
 44
0.0000000001
 40
0.0
 40
0.0
 40
0.0
 40
0.0
 40
0.4137768979
 40
0.7231839718
 40
0.8349403539
 40
0.9172483612
 40
0.9475227598
 40
0.9708470097
 40
1.0
 40
1.0
 40
1.0
 40
1.0
 10
9.5669478114
 20
9.0238324877
 30
0.0
 10
9.5670089279
 20
9.0246465732
 30
0.0
 10
9.567134906
 20
9.0260679466
 30
0.0
 10
9.5673433507
 20
9.0277031572
 30
0.0
 10
9.5675409907
 20
9.0286777123
 30
0.0
 10
9.5676585357
 20
9.0291040751
 30
0.0
 10
9.5677639072
 20
9.0293536521
 30
0.0
 10
9.567841102
 20
9.0294920198
 30
0.0
 10
9.5679300438
 20
9.0295766493
 30
0.0
 10
9.5679875622
 20
9.0295767367
 30
0.0
  0
SPLINE
  5
473
100
AcDbEntity
  8
0
100
AcDbSpline
 62
7
  6
CONTINUOUS
 70
0
 71
3
 72
20
 73
16
 74
0
 42
0.0000001
 43
0.0000001
 44
0.0000000001
 40
0.0
 40
0.0
 40
0.0
 40
0.0
 40
0.2210468722
 40
0.4181122744
 40
0.5890468076
 40
0.7318822259
 40
0.8451679551
 40
0.8903219044
 40
0.9276370472
 40
0.9570806109
 40
0.9688585518
 40
0.9786886899
 40
0.9866011749
 40
0.9926628797
 40
1.0
 40
1.0
 40
1.0
 40
1.0
 10
9.6289395284
 20
8.2337980501
 30
0.0
 10
9.6291629568
 20
8.2315297678
 30
0.0
 10
9.6295997666
 20
8.2272406594
 30
0.0
 10
9.6302664295
 20
8.2212034993
 30
0.0
 10
9.6309008494
 20
8.2159743456
 30
0.0
 10
9.6314963486
 20
8.2116112086
 30
0.0
 10
9.6319814606
 20
8.2085422567
 30
0.0
 10
9.6323557775
 20
8.2065586452
 30
0.0
 10
9.6326009681
 20
8.2054307965
 30
0.0
 10
9.632803803
 20
8.2046465959
 30
0.0
 10
9.6329638884
 20
8.2041444998
 30
0.0
 10
9.6330697789
 20
8.2038600015
 30
0.0
 10
9.6331738571
 20
8.2036343132
 30
0.0
 10
9.6332819706
 20
8.2034518149
 30
0.0
 10
9.6333976502
 20
8.2033352721
 30
0.0
 10
9.6334733048
 20
8.2033352721
 30
0.0
  0
SPLINE
  5
474
100
AcDbEntity
  8
0
100
AcDbSpline
 62
7
  6
CONTINUOUS
 70
0
 71
3
 72
19
 73
15
 74
0
 42
0.0000001
 43
0.0000001
 44
0.0000000001
 40
0.0
 40
0.0
 40
0.0
 40
0.0
 40
0.222281745
 40
0.4202735048
 40
0.5917981285
 40
0.7348169849
 40
0.8478492317
 40
0.9296701517
 40
0.9586449315
 40
0.97015642
 40
0.9797028843
 40
0.9873202098
 40
0.9930874796
 40
1.0
 40
1.0
 40
1.0
 40
1.0
 10
9.6211316861
 20
9.6663773415
 30
0.0
 10
9.6210570561
 20
9.6640679459
 30
0.0
 10
9.6209303962
 20
9.6597010285
 30
0.0
 10
9.6208044592
 20
9.6535505103
 30
0.0
 10
9.6207533698
 20
9.6482229209
 30
0.0
 10
9.6207762802
 20
9.643777954
 30
0.0
 10
9.6208727512
 20
9.6402671658
 30
0.0
 10
9.6210161802
 20
9.6379432541
 30
0.0
 10
9.6211743382
 20
9.6366813557
 30
0.0
 10
9.621269577
 20
9.6361694382
 30
0.0
 10
9.621338238
 20
9.6358802246
 30
0.0
 10
9.6214139246
 20
9.6356508182
 30
0.0
 10
9.6214962461
 20
9.6354651326
 30
0.0
 10
9.6216040058
 20
9.6353457822
 30
0.0
 10
9.6216758609
 20
9.6353457822
 30
0.0
  0
SPLINE
  5
475
100
AcDbEntity
  8
0
100
AcDbSpline
 62
7
  6
CONTINUOUS
 70
0
 71
3
 72
23
 73
19
 74
0
 42
0.0000001
 43
0.0000001
 44
0.0000000001
 40
0.0
 40
0.0
 40
0.0
 40
0.0
 40
0.2227117584
 40
0.4211161925
 40
0.5930485889
 40
0.668434882
 40
0.7364994003
 40
0.7970698278
 40
0.8499744056
 40
0.8950423494
 40
0.932125186
 40
0.9611531919
 40
0.9726329444
 40
0.9820846957
 40
0.9895086471
 40
0.9949138537
 40
0.9983391623
 40
1.0
 40
1.0
 40
1.0
 40
1.0
 10
9.6309524169
 20
8.1408972953
 30
0.0
 10
9.6311496716
 20
8.1386438274
 30
0.0
 10
9.6315285638
 20
8.134383353
 30
0.0
 10
9.6320835955
 20
8.1283853674
 30
0.0
 10
9.6325210242
 20
8.1238793114
 30
0.0
 10
9.6328462285
 20
8.1206925056
 30
0.0
 10
9.6330645777
 20
8.118631791
 30
0.0
 10
9.6332676023
 20
8.116799092
 30
0.0
 10
9.6334546899
 20
8.1151996724
 30
0.0
 10
9.6336251378
 20
8.1138384946
 30
0.0
 10
9.6337784208
 20
8.1127197493
 30
0.0
 10
9.633898714
 20
8.1119406493
 30
0.0
 10
9.6339880326
 20
8.1114413494
 30
0.0
 10
9.6340454832
 20
8.1111585697
 30
0.0
 10
9.6340965728
 20
8.1109394574
 30
0.0
 10
9.6341457553
 20
8.1107782489
 30
0.0
 10
9.6341819406
 20
8.110684741
 30
0.0
 10
9.6342200317
 20
8.1106358179
 30
0.0
 10
9.6342369009
 20
8.1106358179
 30
0.0
  0
LINE
  5
476
100
AcDbEntity
  8
0
100
AcDbLine
 62
9
  6
CONTINUOUS
 10
9.5634094376
 20
8.4356145469
 11
9.5634357107
 21
8.4395403542
  0
LINE
  5
477
100
AcDbEntity
  8
0
100
AcDbLine
 62
9
  6
CONTINUOUS
 10
9.5634357107
 20
8.4395403542
 11
9.5632632014
 21
8.4483434805
  0
SPLINE
  5
478
100
AcDbEntity
  8
0
100
AcDbSpline
 62
9
  6
CONTINUOUS
 70
0
 71
3
 72
29
 73
25
 74
0
 42
0.0000001
 43
0.0000001
 44
0.0000000001
 40
0.0
 40
0.0
 40
0.0
 40
0.0
 40
0.1990546592
 40
0.388271731
 40
0.4771126822
 40
0.5610885107
 40
0.6394459261
 40
0.7114895786
 40
0.7766334744
 40
0.8343038406
 40
0.8839540259
 40
0.9056442454
 40
0.925186958
 40
0.942539054
 40
0.9576575166
 40
0.9704994927
 40
0.9810296168
 40
0.9892378297
 40
0.9924701975
 40
0.9951212296
 40
0.9971915039
 40
0.9986831744
 40
0.999603932
 40
1.0
 40
1.0
 40
1.0
 40
1.0
 10
9.5618035725
 20
8.4935690923
 30
0.0
 10
9.5616800324
 20
8.4968676307
 30
0.0
 10
9.5614327999
 20
8.5033014561
 30
0.0
 10
9.561112734
 20
8.5112067727
 30
0.0
 10
9.5608588663
 20
8.51720488
 30
0.0
 10
9.5606772378
 20
8.5213660497
 30
0.0
 10
9.5605019369
 20
8.5252486829
 30
0.0
 10
9.5603344627
 20
8.5288190632
 30
0.0
 10
9.5601763715
 20
8.5320464544
 30
0.0
 10
9.5600290994
 20
8.5349025788
 30
0.0
 10
9.5599117791
 20
8.5370387048
 30
0.0
 10
9.5598236104
 20
8.5385432072
 30
0.0
 10
9.5597639702
 20
8.5395128699
 30
0.0
 10
9.5597079361
 20
8.5403735698
 30
0.0
 10
9.5596556577
 20
8.5411231461
 30
0.0
 10
9.5596073155
 20
8.5417596155
 30
0.0
 10
9.5595630364
 20
8.5422813734
 30
0.0
 10
9.55952746
 20
8.5426441207
 30
0.0
 10
9.5595003849
 20
8.5428760282
 30
0.0
 10
9.5594826298
 20
8.5430071593
 30
0.0
 10
9.5594666967
 20
8.543107839
 30
0.0
 10
9.5594506915
 20
8.5431831081
 30
0.0
 10
9.559439332
 20
8.543223369
 30
0.0
 10
9.5594263935
 20
8.5432482028
 30
0.0
 10
9.5594198287
 20
8.5432480034
 30
0.0
  0
SPLINE
  5
479
100
AcDbEntity
  8
0
100
AcDbSpline
 62
9
  6
CONTINUOUS
 70
0
 71
3
 72
9
 73
5
 74
0
 42
0.0000001
 43
0.0000001
 44
0.0000000001
 40
0.0
 40
0.0
 40
0.0
 40
0.0
 40
0.2491545111
 40
1.0
 40
1.0
 40
1.0
 40
1.0
 10
9.5656566561
 20
9.7714009675
 30
0.0
 10
9.565764262
 20
9.7711053434
 30
0.0
 10
9.5662390023
 20
9.7699352386
 30
0.0
 10
9.5668917413
 20
9.7688344149
 30
0.0
 10
9.5674781108
 20
9.7680894295
 30
0.0
  0
SPLINE
  5
47A
100
AcDbEntity
  8
0
100
AcDbSpline
 62
7
  6
CONTINUOUS
 70
0
 71
3
 72
17
 73
13
 74
0
 42
0.0000001
 43
0.0000001
 44
0.0000000001
 40
0.0
 40
0.0
 40
0.0
 40
0.0
 40
0.0129129565
 40
0.0332577899
 40
0.060936137
 40
0.0958375033
 40
0.1868218208
 40
0.3046928826
 40
0.4474157507
 40
0.6127599073
 40
0.797932253
 40
1.0
 40
1.0
 40
1.0
 40
1.0
 10
9.5524707165
 20
8.4469226619
 30
0.0
 10
9.5524829594
 20
8.4470201811
 30
0.0
 10
9.5524969166
 20
8.4472732664
 30
0.0
 10
9.5525092531
 20
8.4477367772
 30
0.0
 10
9.5525131989
 20
8.4483680286
 30
0.0
 10
9.5525078437
 20
8.4495368171
 30
0.0
 10
9.5524766679
 20
8.4513919457
 30
0.0
 10
9.552411154
 20
8.4540671144
 30
0.0
 10
9.552314387
 20
8.4573076421
 30
0.0
 10
9.55218794
 20
8.4610597212
 30
0.0
 10
9.5520337283
 20
8.4652627972
 30
0.0
 10
9.5519183337
 20
8.4682079503
 30
0.0
 10
9.5518565277
 20
8.4697447112
 30
0.0
  0
SPLINE
  5
47B
100
AcDbEntity
  8
0
100
AcDbSpline
 62
7
  6
CONTINUOUS
 70
0
 71
3
 72
29
 73
25
 74
0
 42
0.0000001
 43
0.0000001
 44
0.0000000001
 40
0.0
 40
0.0
 40
0.0
 40
0.0
 40
0.2391622744
 40
0.4498585662
 40
0.5435812179
 40
0.6290548888
 40
0.7059971211
 40
0.7741801786
 40
0.8333775596
 40
0.883363586
 40
0.9239152953
 40
0.9406000669
 40
0.9548831458
 40
0.9667624094
 40
0.97623768
 40
0.9833133778
 40
0.9880079381
 40
0.9894853793
 40
0.990427022
 40
0.9910020419
 40
0.9917209534
 40
0.9929240249
 40
0.994691629
 40
1.0
 40
1.0
 40
1.0
 40
1.0
 10
9.5496137099
 20
8.5158624525
 30
0.0
 10
9.5495434479
 20
8.5170644791
 30
0.0
 10
9.549408379
 20
8.519325294
 30
0.0
 10
9.5492361395
 20
8.5220565719
 30
0.0
 10
9.5491058416
 20
8.5240151847
 30
0.0
 10
9.5490167792
 20
8.5253016538
 30
0.0
 10
9.5489328344
 20
8.5264595833
 30
0.0
 10
9.548854311
 20
8.5274852609
 30
0.0
 10
9.5487815289
 20
8.52837526
 30
0.0
 10
9.548714777
 20
8.5291261538
 30
0.0
 10
9.5486616324
 20
8.5296633745
 30
0.0
 10
9.5486215106
 20
8.5300211991
 30
0.0
 10
9.5485951217
 20
8.5302353204
 30
0.0
 10
9.5485703778
 20
8.5304129826
 30
0.0
 10
9.5485476996
 20
8.5305544637
 30
0.0
 10
9.5485264169
 20
8.5306590087
 30
0.0
 10
9.548509961
 20
8.5307242809
 30
0.0
 10
9.548495293
 20
8.5307566509
 30
0.0
 10
9.548487483
 20
8.5307701522
 30
0.0
 10
9.5484749914
 20
8.530773854
 30
0.0
 10
9.5484660645
 20
8.5307625328
 30
0.0
 10
9.548459412
 20
8.5307458834
 30
0.0
 10
9.5484486352
 20
8.5307050681
 30
0.0
 10
9.5484438287
 20
8.5306699102
 30
0.0
 10
9.548440547
 20
8.5306433872
 30
0.0
  0
LINE
  5
47C
100
AcDbEntity
  8
0
100
AcDbLine
 62
7
  6
CONTINUOUS
 10
9.5484404556
 20
8.5306450351
 11
9.5484129803
 21
8.5275533431
  0
LINE
  5
47D
100
AcDbEntity
  8
0
100
AcDbLine
 62
7
  6
CONTINUOUS
 10
9.5484129803
 20
8.5275533431
 11
9.5485859728
 21
8.5206617774
  0
LINE
  5
47E
100
AcDbEntity
  8
0
100
AcDbLine
 62
7
  6
CONTINUOUS
 10
9.5485859728
 20
8.5206617774
 11
9.5494070343
 21
8.4993961003
  0
SPLINE
  5
47F
100
AcDbEntity
  8
0
100
AcDbSpline
 62
7
  6
CONTINUOUS
 70
0
 71
3
 72
30
 73
26
 74
0
 42
0.0000001
 43
0.0000001
 44
0.0000000001
 40
0.0
 40
0.0
 40
0.0
 40
0.0
 40
0.2285760281
 40
0.3346350046
 40
0.4343964295
 40
0.5273491338
 40
0.613021954
 40
0.6909439794
 40
0.7606497469
 40
0.8217707331
 40
0.8740235446
 40
0.9171285152
 40
0.9508087115
 40
0.9640458656
 40
0.9748705671
 40
0.9832807309
 40
0.9865810997
 40
0.9892798363
 40
0.9913802343
 40
0.9928904292
 40
0.9938354209
 40
0.9943368375
 40
0.9949357564
 40
0.9960392312
 40
1.0
 40
1.0
 40
1.0
 40
1.0
 10
9.550848679
 20
8.4696962614
 30
0.0
 10
9.5509435373
 20
8.467939088
 30
0.0
 10
9.5510854323
 20
8.4653667492
 30
0.0
 10
9.5512771799
 20
8.462027974
 30
0.0
 10
9.5514129163
 20
8.4597318251
 30
0.0
 10
9.5515434473
 20
8.4575925925
 30
0.0
 10
9.5516680546
 20
8.4556214499
 30
0.0
 10
9.5517860323
 20
8.4538292215
 30
0.0
 10
9.5518967301
 20
8.4522259464
 30
0.0
 10
9.5519995379
 20
8.4508202272
 30
0.0
 10
9.5520937841
 20
8.4496192308
 30
0.0
 10
9.5521789386
 20
8.4486294593
 30
0.0
 10
9.5522459027
 20
8.4479396152
 30
0.0
 10
9.5522959835
 20
8.447497897
 30
0.0
 10
9.5523278221
 20
8.447249929
 30
0.0
 10
9.5523537199
 20
8.4470783587
 30
0.0
 10
9.5523736536
 20
8.4469692067
 30
0.0
 10
9.5523868875
 20
8.4469082837
 30
0.0
 10
9.552398705
 20
8.4468610989
 30
0.0
 10
9.5524111629
 20
8.4468282497
 30
0.0
 10
9.5524196717
 20
8.4468071848
 30
0.0
 10
9.5524361914
 20
8.4467978039
 30
0.0
 10
9.5524482401
 20
8.4468146133
 30
0.0
 10
9.5524604881
 20
8.446853981
 30
0.0
 10
9.5524667595
 20
8.4468940736
 30
0.0
 10
9.5524706376
 20
8.4469243187
 30
0.0
  0
SPLINE
  5
480
100
AcDbEntity
  8
0
100
AcDbSpline
 62
7
  6
CONTINUOUS
 70
0
 71
3
 72
20
 73
16
 74
0
 42
0.0000001
 43
0.0000001
 44
0.0000000001
 40
0.0
 40
0.0
 40
0.0
 40
0.0
 40
0.0096533951
 40
0.0164586602
 40
0.0249313448
 40
0.0472869436
 40
0.0771727515
 40
0.1147131717
 40
0.1599213684
 40
0.2127000512
 40
0.2729114374
 40
0.4150260962
 40
0.5848937256
 40
0.7805845336
 40
1.0
 40
1.0
 40
1.0
 40
1.0
 10
9.6321311714
 20
9.6536611072
 30
0.0
 10
9.6320303865
 20
9.6536611072
 30
0.0
 10
9.6318666426
 20
9.653561171
 30
0.0
 10
9.6317012377
 20
9.6533640124
 30
0.0
 10
9.6314889642
 20
9.653030518
 30
0.0
 10
9.6312326559
 20
9.6524491268
 30
0.0
 10
9.6309307387
 20
9.6515610632
 30
0.0
 10
9.6306185569
 20
9.6504268043
 30
0.0
 10
9.6302962132
 20
9.6490488337
 30
0.0
 10
9.6299654578
 20
9.6474304698
 30
0.0
 10
9.6294877978
 20
9.6448101207
 30
0.0
 10
9.6288896538
 20
9.6409700219
 30
0.0
 10
9.6281873098
 20
9.6357162391
 30
0.0
 10
9.6274752756
 20
9.6296503361
 30
0.0
 10
9.6270242128
 20
9.6253399134
 30
0.0
 10
9.6267970079
 20
9.6230604334
 30
0.0
  0
SPLINE
  5
481
100
AcDbEntity
  8
0
100
AcDbSpline
 62
7
  6
CONTINUOUS
 70
0
 71
3
 72
21
 73
17
 74
0
 42
0.0000001
 43
0.0000001
 44
0.0000000001
 40
0.0
 40
0.0
 40
0.0
 40
0.0
 40
0.2207668291
 40
0.4174342965
 40
0.5878706062
 40
0.7300996187
 40
0.7901902788
 40
0.8427367315
 40
0.8876072157
 40
0.9247074365
 40
0.9540599659
 40
0.975814951
 40
0.9839808528
 40
0.990497519
 40
0.9956478633
 40
1.0
 40
1.0
 40
1.0
 40
1.0
 10
9.6207654404
 20
9.5036224001
 30
0.0
 10
9.6207616681
 20
9.5013092315
 30
0.0
 10
9.6207760674
 20
9.4969353185
 30
0.0
 10
9.620874373
 20
9.4907762345
 30
0.0
 10
9.6210458867
 20
9.4854420193
 30
0.0
 10
9.6212568848
 20
9.4815414266
 30
0.0
 10
9.6214711738
 20
9.4788794329
 30
0.0
 10
9.6216393918
 20
9.4772374815
 30
0.0
 10
9.6218234404
 20
9.4758399196
 30
0.0
 10
9.6220221965
 20
9.4746898467
 30
0.0
 10
9.6222348371
 20
9.4737901833
 30
0.0
 10
9.6224346808
 20
9.473199284
 30
0.0
 10
9.6226130991
 20
9.4728606107
 30
0.0
 10
9.6227382132
 20
9.4726932468
 30
0.0
 10
9.6228707028
 20
9.4725855662
 30
0.0
 10
9.6229710077
 20
9.472558745
 30
0.0
 10
9.6230166089
 20
9.472558745
 30
0.0
  0
SPLINE
  5
482
100
AcDbEntity
  8
0
100
AcDbSpline
 62
7
  6
CONTINUOUS
 70
0
 71
3
 72
21
 73
17
 74
0
 42
0.0000001
 43
0.0000001
 44
0.0000000001
 40
0.0
 40
0.0
 40
0.0
 40
0.0
 40
0.0116495427
 40
0.0191384124
 40
0.0281288083
 40
0.0387801026
 40
0.0511841994
 40
0.0814400493
 40
0.1191392764
 40
0.1643506234
 40
0.2170118755
 40
0.2770063151
 40
0.4184403313
 40
0.5873702891
 40
0.7819159379
 40
1.0
 40
1.0
 40
1.0
 40
1.0
 10
9.6296777851
 20
9.3559293808
 30
0.0
 10
9.6295545321
 20
9.3559293808
 30
0.0
 10
9.6293543704
 20
9.3558387387
 30
0.0
 10
9.6291404659
 20
9.3556332786
 30
0.0
 10
9.6289639613
 20
9.3554050717
 30
0.0
 10
9.6287879189
 20
9.3551149819
 30
0.0
 10
9.6285342917
 20
9.3546106065
 30
0.0
 10
9.6282246612
 20
9.3538172013
 30
0.0
 10
9.6278691862
 20
9.3526733814
 30
0.0
 10
9.6275119707
 20
9.3512837222
 30
0.0
 10
9.6271536934
 20
9.349652118
 30
0.0
 10
9.6266484657
 20
9.3470114723
 30
0.0
 10
9.6260386076
 20
9.3431398733
 30
0.0
 10
9.6253534747
 20
9.3378416192
 30
0.0
 10
9.6246896427
 20
9.3317242406
 30
0.0
 10
9.6242884964
 20
9.3273768902
 30
0.0
 10
9.6240909598
 20
9.3250780178
 30
0.0
  0
SPLINE
  5
483
100
AcDbEntity
  8
0
100
AcDbSpline
 62
7
  6
CONTINUOUS
 70
0
 71
3
 72
18
 73
14
 74
0
 42
0.0000001
 43
0.0000001
 44
0.0000000001
 40
0.0
 40
0.0
 40
0.0
 40
0.0
 40
0.4143280166
 40
0.583714085
 40
0.7253282639
 40
0.7853056696
 40
0.837879791
 40
0.882935752
 40
0.9204185044
 40
0.9504073185
 40
0.9626640466
 40
0.9731634467
 40
1.0
 40
1.0
 40
1.0
 40
1.0
 10
9.6213095684
 20
9.2058659886
 30
0.0
 10
9.6214805668
 20
9.2014923017
 30
0.0
 10
9.6217887914
 20
9.195331857
 30
0.0
 10
9.6224172061
 20
9.1876946832
 30
0.0
 10
9.6228478919
 20
9.183798366
 30
0.0
 10
9.6232312134
 20
9.1811406064
 30
0.0
 10
9.6235142486
 20
9.179499481
 30
0.0
 10
9.6238071891
 20
9.1781023849
 30
0.0
 10
9.6241107547
 20
9.1769514193
 30
0.0
 10
9.624382551
 20
9.1761553483
 30
0.0
 10
9.6246160326
 20
9.1756440955
 30
0.0
 10
9.6248625338
 20
9.1751989737
 30
0.0
 10
9.6251850055
 20
9.1748270186
 30
0.0
 10
9.6254685112
 20
9.1748270186
 30
0.0
  0
SPLINE
  5
484
100
AcDbEntity
  8
0
100
AcDbSpline
 62
7
  6
CONTINUOUS
 70
0
 71
3
 72
21
 73
17
 74
0
 42
0.0000001
 43
0.0000001
 44
0.0000000001
 40
0.0
 40
0.0
 40
0.0
 40
0.0
 40
0.0067450623
 40
0.0126038185
 40
0.0203566274
 40
0.0300603032
 40
0.0417391086
 40
0.0710538429
 40
0.1083200253
 40
0.1534888888
 40
0.2064192956
 40
0.2669453204
 40
0.4100997923
 40
0.5814069027
 40
0.7787831403
 40
1.0
 40
1.0
 40
1.0
 40
1.0
 10
9.6130259329
 20
9.4898492774
 30
0.0
 10
9.612953185
 20
9.4898492774
 30
0.0
 10
9.6128474106
 20
9.4897207752
 30
0.0
 10
9.612753698
 20
9.4895333445
 30
0.0
 10
9.6126620003
 20
9.4892949618
 30
0.0
 10
9.6125704687
 20
9.4889956046
 30
0.0
 10
9.6124332295
 20
9.4884655564
 30
0.0
 10
9.6122632046
 20
9.4876387761
 30
0.0
 10
9.6120619008
 20
9.4864501797
 30
0.0
 10
9.6118533697
 20
9.4850051199
 30
0.0
 10
9.6116379117
 20
9.4833078391
 30
0.0
 10
9.6113250948
 20
9.4805578807
 30
0.0
 10
9.6109309048
 20
9.476532542
 30
0.0
 10
9.6104648943
 20
9.4710318059
 30
0.0
 10
9.6099893944
 20
9.4646872341
 30
0.0
 10
9.6096863505
 20
9.4601827024
 30
0.0
 10
9.6095332829
 20
9.4578017153
 30
0.0
  0
SPLINE
  5
485
100
AcDbEntity
  8
0
100
AcDbSpline
 62
9
  6
CONTINUOUS
 70
0
 71
3
 72
27
 73
23
 74
0
 42
0.0000001
 43
0.0000001
 44
0.0000000001
 40
0.0
 40
0.0
 40
0.0
 40
0.0
 40
0.1543901124
 40
0.3240155166
 40
0.4105915514
 40
0.4962716797
 40
0.5794663093
 40
0.658619508
 40
0.7323040176
 40
0.7991406292
 40
0.8579303564
 40
0.8839641489
 40
0.907579427
 40
0.9286775809
 40
0.9471738326
 40
0.9629840376
 40
0.9760253203
 40
0.9862349793
 40
0.9935925725
 40
0.9981037794
 40
0.9993298272
 40
1.0
 40
1.0
 40
1.0
 40
1.0
 10
9.5633976859
 20
8.5898587646
 30
0.0
 10
9.5633570602
 20
8.5942095156
 30
0.0
 10
9.5632219784
 20
8.6033398959
 30
0.0
 10
9.5629627466
 20
8.61490816
 30
0.0
 10
9.5626961276
 20
8.6245392142
 30
0.0
 10
9.5624709916
 20
8.6317346886
 30
0.0
 10
9.5622265312
 20
8.6387202227
 30
0.0
 10
9.5619668612
 20
8.6453669107
 30
0.0
 10
9.5616973349
 20
8.651551812
 30
0.0
 10
9.5614226579
 20
8.657161994
 30
0.0
 10
9.5611855664
 20
8.6614294666
 30
0.0
 10
9.5609949598
 20
8.6644794954
 30
0.0
 10
9.5608597648
 20
8.6664686739
 30
0.0
 10
9.560727173
 20
8.6682451075
 30
0.0
 10
9.5605979744
 20
8.6698011071
 30
0.0
 10
9.5604727449
 20
8.6711297396
 30
0.0
 10
9.5603529134
 20
8.6722236174
 30
0.0
 10
9.560237943
 20
8.6730798017
 30
0.0
 10
9.5601335737
 20
8.6736906987
 30
0.0
 10
9.5600400533
 20
8.6740534217
 30
0.0
 10
9.5599690401
 20
8.6742153765
 30
0.0
 10
9.5599213423
 20
8.6742554141
 30
0.0
 10
9.5599024963
 20
8.6742541785
 30
0.0
  0
LINE
  5
486
100
AcDbEntity
  8
0
100
AcDbLine
 62
7
  6
CONTINUOUS
 10
9.5522333185
 20
8.608068682
 11
9.5522011057
 21
8.6093175749
  0
LINE
  5
487
100
AcDbEntity
  8
0
100
AcDbLine
 62
7
  6
CONTINUOUS
 10
9.5512954367
 20
8.6339951825
 11
9.5500354094
 21
8.6545308981
  0
SPLINE
  5
488
100
AcDbEntity
  8
0
100
AcDbSpline
 62
7
  6
CONTINUOUS
 70
0
 71
3
 72
32
 73
28
 74
0
 42
0.0000001
 43
0.0000001
 44
0.0000000001
 40
0.0
 40
0.0
 40
0.0
 40
0.0
 40
0.1087516148
 40
0.2037662444
 40
0.2845162745
 40
0.3193800509
 40
0.3504847499
 40
0.3777769469
 40
0.4012369733
 40
0.4208580848
 40
0.4366443308
 40
0.448624496
 40
0.4568977161
 40
0.4597495319
 40
0.4618947328
 40
0.4636425359
 40
0.4655153924
 40
0.4679592115
 40
0.4711894857
 40
0.4803148898
 40
0.4931905699
 40
0.5098829157
 40
0.5304042329
 40
0.5547467154
 40
0.6148210987
 40
0.7794413018
 40
1.0
 40
1.0
 40
1.0
 40
1.0
 10
9.5500354094
 20
8.6545308981
 30
0.0
 10
9.5499857903
 20
8.6551166454
 30
0.0
 10
9.5498886062
 20
8.6562138058
 30
0.0
 10
9.5497370534
 20
8.6577442702
 30
0.0
 10
9.5496094851
 20
8.6588756935
 30
0.0
 10
9.5495084157
 20
8.659662313
 30
0.0
 10
9.5494379267
 20
8.6601614903
 30
0.0
 10
9.5493690935
 20
8.6605985883
 30
0.0
 10
9.5493021149
 20
8.6609731011
 30
0.0
 10
9.549237132
 20
8.6612845905
 30
0.0
 10
9.5491746057
 20
8.661533274
 30
0.0
 10
9.5491144787
 20
8.6617183824
 30
0.0
 10
9.5490629351
 20
8.6618334334
 30
0.0
 10
9.549019051
 20
8.6618905247
 30
0.0
 10
9.5489895482
 20
8.6619134246
 30
0.0
 10
9.5489568902
 20
8.6619182907
 30
0.0
 10
9.5489265458
 20
8.6619021553
 30
0.0
 10
9.548899915
 20
8.661870763
 30
0.0
 10
9.5488609513
 20
8.6618005404
 30
0.0
 10
9.5488180923
 20
8.6616702471
 30
0.0
 10
9.5487715265
 20
8.6614663899
 30
0.0
 10
9.5487271361
 20
8.6611991114
 30
0.0
 10
9.5486847844
 20
8.6608690668
 30
0.0
 10
9.5486275381
 20
8.6603046661
 30
0.0
 10
9.5485324343
 20
8.658961664
 30
0.0
 10
9.5484462256
 20
8.6565559713
 30
0.0
 10
9.5484136698
 20
8.6544741515
 30
0.0
 10
9.5484026398
 20
8.6532819961
 30
0.0
  0
LINE
  5
489
100
AcDbEntity
  8
0
100
AcDbLine
 62
7
  6
CONTINUOUS
 10
9.5484026398
 20
8.6532819961
 11
9.5484295787
 21
8.643752009
  0
LINE
  5
48A
100
AcDbEntity
  8
0
100
AcDbLine
 62
7
  6
CONTINUOUS
 10
9.5502057503
 20
8.5944646479
 11
9.5508457865
 21
8.5854278624
  0
SPLINE
  5
48B
100
AcDbEntity
  8
0
100
AcDbSpline
 62
7
  6
CONTINUOUS
 70
0
 71
3
 72
32
 73
28
 74
0
 42
0.0000001
 43
0.0000001
 44
0.0000000001
 40
0.0
 40
0.0
 40
0.0
 40
0.0
 40
0.1090592555
 40
0.2044049041
 40
0.2855024463
 40
0.3205439574
 40
0.3518278337
 40
0.379300917
 40
0.4029435348
 40
0.4227476633
 40
0.4387156643
 40
0.4508735209
 40
0.4593136248
 40
0.4622375466
 40
0.4644358173
 40
0.4661968529
 40
0.4680332863
 40
0.470411731
 40
0.4735644103
 40
0.4825211873
 40
0.4952232738
 40
0.5117417222
 40
0.532090885
 40
0.5562642642
 40
0.6160136173
 40
0.7800245137
 40
1.0
 40
1.0
 40
1.0
 40
1.0
 10
9.5508457865
 20
8.5854278624
 30
0.0
 10
9.5508956233
 20
8.5848367452
 30
0.0
 10
9.5509932568
 20
8.5837291854
 30
0.0
 10
9.5511455123
 20
8.5821836842
 30
0.0
 10
9.5512736895
 20
8.5810404401
 30
0.0
 10
9.5513752484
 20
8.5802449936
 30
0.0
 10
9.5514461113
 20
8.5797397147
 30
0.0
 10
9.5515153214
 20
8.5792968719
 30
0.0
 10
9.5515826775
 20
8.5789169806
 30
0.0
 10
9.5516480428
 20
8.5786004821
 30
0.0
 10
9.551710952
 20
8.5783472112
 30
0.0
 10
9.551771484
 20
8.57815791
 30
0.0
 10
9.5518233057
 20
8.5780397339
 30
0.0
 10
9.5518673699
 20
8.5779802213
 30
0.0
 10
9.5518967696
 20
8.5779558147
 30
0.0
 10
9.551929421
 20
8.5779489539
 30
0.0
 10
9.5519603518
 20
8.5779635181
 30
0.0
 10
9.5519872478
 20
8.5779938366
 30
0.0
 10
9.5520265416
 20
8.578062498
 30
0.0
 10
9.5520696442
 20
8.5781912855
 30
0.0
 10
9.5521164822
 20
8.5783935235
 30
0.0
 10
9.5521611373
 20
8.5786596345
 30
0.0
 10
9.5522037613
 20
8.5789889242
 30
0.0
 10
9.5522614166
 20
8.5795532285
 30
0.0
 10
9.5523572136
 20
8.5808986518
 30
0.0
 10
9.5524440005
 20
8.5833112129
 30
0.0
 10
9.5524768086
 20
8.5853996321
 30
0.0
 10
9.5524879363
 20
8.5865961099
 30
0.0
  0
LINE
  5
48C
100
AcDbEntity
  8
0
100
AcDbLine
 62
7
  6
CONTINUOUS
 10
9.5524879363
 20
8.5865961099
 11
9.5524609046
 21
8.5961749186
  0
SPLINE
  5
48D
100
AcDbEntity
  8
0
100
AcDbSpline
 62
7
  6
CONTINUOUS
 70
0
 71
3
 72
18
 73
14
 74
0
 42
0.0000001
 43
0.0000001
 44
0.0000000001
 40
0.0
 40
0.0
 40
0.0
 40
0.0
 40
0.2185891254
 40
0.415791896
 40
0.5881014853
 40
0.7323573093
 40
0.8467432186
 40
0.8922799295
 40
0.9298116093
 40
0.9592068579
 40
0.9804728793
 40
0.9937626032
 40
1.0
 40
1.0
 40
1.0
 40
1.0
 10
9.5494019941
 20
8.6316344772
 30
0.0
 10
9.549394611
 20
8.6322585904
 30
0.0
 10
9.5493840201
 20
8.6334458034
 30
0.0
 10
9.5493810218
 20
8.6351250639
 30
0.0
 10
9.5493914857
 20
8.6365920946
 30
0.0
 10
9.5494154511
 20
8.63782234
 30
0.0
 10
9.5494476533
 20
8.6386905828
 30
0.0
 10
9.549481899
 20
8.6392530785
 30
0.0
 10
9.5495091736
 20
8.6395737391
 30
0.0
 10
9.5495371121
 20
8.6398223252
 30
0.0
 10
9.5495715864
 20
8.6400060732
 30
0.0
 10
9.5495976356
 20
8.6401114411
 30
0.0
 10
9.5496350636
 20
8.6401691405
 30
0.0
 10
9.5496528725
 20
8.6401693564
 30
0.0
  0
LINE
  5
48E
100
AcDbEntity
  8
0
100
AcDbLine
 62
7
  6
CONTINUOUS
 10
9.6053989003
 20
9.3411128786
 11
9.6054653984
 21
9.3228103723
  0
SPLINE
  5
48F
100
AcDbEntity
  8
0
100
AcDbSpline
 62
9
  6
CONTINUOUS
 70
0
 71
3
 72
29
 73
25
 74
0
 42
0.0000001
 43
0.0000001
 44
0.0000000001
 40
0.0
 40
0.0
 40
0.0
 40
0.0
 40
0.0003960456
 40
0.0013167875
 40
0.0028084464
 40
0.004878712
 40
0.0075297376
 40
0.0107621004
 40
0.0189703068
 40
0.0295004262
 40
0.042342382
 40
0.0574607977
 40
0.0748128323
 40
0.0943554813
 40
0.1160456473
 40
0.165695804
 40
0.2233661823
 40
0.288510106
 40
0.3605538657
 40
0.438911495
 40
0.5228875525
 40
0.6117286786
 40
0.8009457422
 40
1.0
 40
1.0
 40
1.0
 40
1.0
 10
9.5594098854
 20
9.4765364717
 30
0.0
 10
9.5594164498
 20
9.476536272
 30
0.0
 10
9.5594293872
 20
9.476561106
 30
0.0
 10
9.5594407452
 20
9.4766013652
 30
0.0
 10
9.5594567487
 20
9.4766766334
 30
0.0
 10
9.5594726798
 20
9.4767773115
 30
0.0
 10
9.5594904328
 20
9.4769084409
 30
0.0
 10
9.5595175043
 20
9.4771403455
 30
0.0
 10
9.5595530757
 20
9.4775030884
 30
0.0
 10
9.5595973483
 20
9.4780248396
 30
0.0
 10
9.5596456831
 20
9.4786613002
 30
0.0
 10
9.5596979531
 20
9.4794108654
 30
0.0
 10
9.5597539781
 20
9.480271552
 30
0.0
 10
9.5598136083
 20
9.4812412
 30
0.0
 10
9.5599017621
 20
9.4827456816
 30
0.0
 10
9.5600190617
 20
9.4848817803
 30
0.0
 10
9.5601663072
 20
9.4877378697
 30
0.0
 10
9.5603243693
 20
9.4909652237
 30
0.0
 10
9.5604918118
 20
9.4945355657
 30
0.0
 10
9.5606670792
 20
9.49841816
 30
0.0
 10
9.5608486721
 20
9.5025792885
 30
0.0
 10
9.5611024891
 20
9.5085773279
 30
0.0
 10
9.5614224888
 20
9.5164825425
 30
0.0
 10
9.5616696682
 20
9.5229162811
 30
0.0
 10
9.5617931813
 20
9.5262147718
 30
0.0
  0
LINE
  5
490
100
AcDbEntity
  8
0
100
AcDbLine
 62
9
  6
CONTINUOUS
 10
9.5632525019
 20
9.5714414254
 11
9.5634249094
 21
9.580242864
  0
LINE
  5
491
100
AcDbEntity
  8
0
100
AcDbLine
 62
9
  6
CONTINUOUS
 10
9.5634249094
 20
9.580242864
 11
9.5633986139
 21
9.5841681172
  0
SPLINE
  5
492
100
AcDbEntity
  8
0
100
AcDbSpline
 62
9
  6
CONTINUOUS
 70
0
 71
3
 72
26
 73
22
 74
0
 42
0.0000001
 43
0.0000001
 44
0.0000000001
 40
0.0
 40
0.0
 40
0.0
 40
0.0
 40
0.1666405763
 40
0.3418896953
 40
0.429166301
 40
0.5144100036
 40
0.5962786642
 40
0.6734378432
 40
0.7446693989
 40
0.8088622456
 40
0.8649698333
 40
0.9121567383
 40
0.9496498397
 40
0.9645761946
 40
0.9768943554
 40
0.9865656003
 40
0.9904002739
 40
0.9935661497
 40
0.9960695904
 40
0.9979321716
 40
1.0
 40
1.0
 40
1.0
 40
1.0
 10
9.5634094329
 20
8.8556482381
 30
0.0
 10
9.5634451889
 20
8.8599422987
 30
0.0
 10
9.5634664042
 20
8.8687527116
 30
0.0
 10
9.5633902908
 20
8.8798119129
 30
0.0
 10
9.5632669765
 20
8.8887728651
 30
0.0
 10
9.5631452303
 20
8.8953271848
 30
0.0
 10
9.5629965316
 20
8.9016201619
 30
0.0
 10
9.5628230099
 20
8.9075512803
 30
0.0
 10
9.5626275352
 20
8.913025966
 30
0.0
 10
9.5624137609
 20
8.9179570294
 30
0.0
 10
9.562185031
 20
8.9222671048
 30
0.0
 10
9.5619458863
 20
8.9258872817
 30
0.0
 10
9.5617296463
 20
8.9284453063
 30
0.0
 10
9.5615463947
 20
8.9301035117
 30
0.0
 10
9.5614195643
 20
8.9310465334
 30
0.0
 10
9.5613088771
 20
8.9317026765
 30
0.0
 10
9.5612163086
 20
8.9321228865
 30
0.0
 10
9.5611539721
 20
8.9323585668
 30
0.0
 10
9.5610893413
 20
8.9325453846
 30
0.0
 10
9.561025297
 20
8.9326884144
 30
0.0
 10
9.5609445737
 20
8.932788197
 30
0.0
 10
9.5608914308
 20
8.9327842888
 30
0.0
  0
SPLINE
  5
493
100
AcDbEntity
  8
0
100
AcDbSpline
 62
7
  6
CONTINUOUS
 70
0
 71
3
 72
14
 73
10
 74
0
 42
0.0000001
 43
0.0000001
 44
0.0000000001
 40
0.0
 40
0.0
 40
0.0
 40
0.0
 40
0.0289442952
 40
0.0522447647
 40
0.0825324268
 40
0.1649260288
 40
0.2767724355
 40
0.5863392749
 40
1.0
 40
1.0
 40
1.0
 40
1.0
 10
9.5679874909
 20
8.9902066797
 30
0.0
 10
9.5679290634
 20
8.9902065913
 30
0.0
 10
9.5678388725
 20
8.9902938361
 30
0.0
 10
9.5677610376
 20
8.9904353207
 30
0.0
 10
9.5676543445
 20
8.99069139
 30
0.0
 10
9.5675355408
 20
8.9911283183
 30
0.0
 10
9.5673357213
 20
8.9921266221
 30
0.0
 10
9.5671256059
 20
8.9938002662
 30
0.0
 10
9.5669989515
 20
8.9952548116
 30
0.0
 10
9.5669376481
 20
8.9960875825
 30
0.0
  0
SPLINE
  5
494
100
AcDbEntity
  8
0
100
AcDbSpline
 62
7
  6
CONTINUOUS
 70
0
 71
3
 72
9
 73
5
 74
0
 42
0.0000001
 43
0.0000001
 44
0.0000000001
 40
0.0
 40
0.0
 40
0.0
 40
0.0
 40
0.4597991522
 40
1.0
 40
1.0
 40
1.0
 40
1.0
 10
9.5669376481
 20
8.9960875825
 30
0.0
 10
9.5667822275
 20
8.9981988835
 30
0.0
 10
9.566579107
 20
9.0028002735
 30
0.0
 10
9.5665150085
 20
9.0074045079
 30
0.0
 10
9.5665150084
 20
9.0098917083
 30
0.0
  0
SPLINE
  5
495
100
AcDbEntity
  8
0
100
AcDbSpline
 62
7
  6
CONTINUOUS
 70
0
 71
3
 72
9
 73
5
 74
0
 42
0.0000001
 43
0.0000001
 44
0.0000000001
 40
0.0
 40
0.0
 40
0.0
 40
0.0
 40
0.5425535467
 40
1.0
 40
1.0
 40
1.0
 40
1.0
 10
9.5523256904
 20
8.886415443
 30
0.0
 10
9.5522404977
 20
8.8905273504
 30
0.0
 10
9.5520291023
 20
8.8981050761
 30
0.0
 10
9.5516848154
 20
8.905678547
 30
0.0
 10
9.5514713838
 20
8.9091396138
 30
0.0
  0
SPLINE
  5
496
100
AcDbEntity
  8
0
100
AcDbSpline
 62
7
  6
CONTINUOUS
 70
0
 71
3
 72
29
 73
25
 74
0
 42
0.0000001
 43
0.0000001
 44
0.0000000001
 40
0.0
 40
0.0
 40
0.0
 40
0.0
 40
0.1287517327
 40
0.245751932
 40
0.3503285056
 40
0.4418144366
 40
0.5196091814
 40
0.5833530905
 40
0.6098714607
 40
0.6327824087
 40
0.6520686179
 40
0.667731398
 40
0.6798213749
 40
0.6885232795
 40
0.6943656409
 40
0.6989852393
 40
0.7050917121
 40
0.7141427809
 40
0.7266000371
 40
0.7426318032
 40
0.7856094148
 40
0.8430376205
 40
0.9146187998
 40
1.0
 40
1.0
 40
1.0
 40
1.0
 10
9.5514713838
 20
8.9091396138
 30
0.0
 10
9.5514266571
 20
8.9098649132
 30
0.0
 10
9.5513361358
 20
8.9112490033
 30
0.0
 10
9.5511890266
 20
8.913220817
 30
0.0
 10
9.551037855
 20
8.9149813126
 30
0.0
 10
9.5508837834
 20
8.9165193464
 30
0.0
 10
9.5507276008
 20
8.9178253195
 30
0.0
 10
9.5505901632
 20
8.9187640363
 30
0.0
 10
9.5504767267
 20
8.9193927171
 30
0.0
 10
9.5503971837
 20
8.9197723246
 30
0.0
 10
9.5503180253
 20
8.9200893991
 30
0.0
 10
9.5502398336
 20
8.9203429185
 30
0.0
 10
9.5501620661
 20
8.9205348658
 30
0.0
 10
9.5500864396
 20
8.9206632111
 30
0.0
 10
9.5500031878
 20
8.9207434106
 30
0.0
 10
9.549899778
 20
8.920736401
 30
0.0
 10
9.5498214383
 20
8.9206484022
 30
0.0
 10
9.5497483051
 20
8.9205121213
 30
0.0
 10
9.5496754045
 20
8.9203118611
 30
0.0
 10
9.5495684012
 20
8.9199231636
 30
0.0
 10
9.5494465
 20
8.9192762624
 30
0.0
 10
9.5493129486
 20
8.9183148915
 30
0.0
 10
9.5491851954
 20
8.917111368
 30
0.0
 10
9.5491108084
 20
8.9162285759
 30
0.0
 10
9.5490739685
 20
8.9157480931
 30
0.0
  0
SPLINE
  5
497
100
AcDbEntity
  8
0
100
AcDbSpline
 62
7
  6
CONTINUOUS
 70
0
 71
3
 72
10
 73
6
 74
0
 42
0.0000001
 43
0.0000001
 44
0.0000000001
 40
0.0
 40
0.0
 40
0.0
 40
0.0
 40
0.1899992669
 40
0.424109691
 40
1.0
 40
1.0
 40
1.0
 40
1.0
 10
9.5490739685
 20
8.9157480931
 30
0.0
 10
9.548982117
 20
8.9145501265
 30
0.0
 10
9.5488244285
 20
8.9118724891
 30
0.0
 10
9.5485732316
 20
8.9055537127
 30
0.0
 10
9.5484797963
 20
8.9004317745
 30
0.0
 10
9.5484405483
 20
8.8967902761
 30
0.0
  0
LINE
  5
498
100
AcDbEntity
  8
0
100
AcDbLine
 62
7
  6
CONTINUOUS
 10
9.5489413887
 20
8.8586540824
 11
9.5494442399
 21
8.8482554987
  0
SPLINE
  5
499
100
AcDbEntity
  8
0
100
AcDbSpline
 62
7
  6
CONTINUOUS
 70
0
 71
3
 72
33
 73
29
 74
0
 42
0.0000001
 43
0.0000001
 44
0.0000000001
 40
0.0
 40
0.0
 40
0.0
 40
0.0
 40
0.1078275054
 40
0.2029467539
 40
0.2844705568
 40
0.3198626632
 40
0.351563982
 40
0.3795248584
 40
0.4036998376
 40
0.4240499395
 40
0.440548948
 40
0.4531995995
 40
0.4621003469
 40
0.4652627296
 40
0.4677152578
 40
0.4697317148
 40
0.471769112
 40
0.4742723661
 40
0.4774986197
 40
0.4865352097
 40
0.49931372
 40
0.515955164
 40
0.56080425
 40
0.6207720541
 40
0.6953849657
 40
0.7840315079
 40
0.8858647014
 40
1.0
 40
1.0
 40
1.0
 40
1.0
 10
9.5494442399
 20
8.8482554987
 30
0.0
 10
9.5494996127
 20
8.8473619224
 30
0.0
 10
9.5496115558
 20
8.8456805396
 30
0.0
 10
9.5497968561
 20
8.843325807
 30
0.0
 10
9.5499622419
 20
8.8415729418
 30
0.0
 10
9.5500997196
 20
8.8403466269
 30
0.0
 10
9.550198649
 20
8.8395635818
 30
0.0
 10
9.5502979673
 20
8.8388745697
 30
0.0
 10
9.550397322
 20
8.8382808785
 30
0.0
 10
9.5504963786
 20
8.8377839481
 30
0.0
 10
9.5505943781
 20
8.8373843782
 30
0.0
 10
9.5506911986
 20
8.8370837926
 30
0.0
 10
9.5507767088
 20
8.8368952788
 30
0.0
 10
9.5508504429
 20
8.8367992196
 30
0.0
 10
9.5509006971
 20
8.836758866
 30
0.0
 10
9.5509553972
 20
8.8367449645
 30
0.0
 10
9.5510093575
 20
8.8367626731
 30
0.0
 10
9.5510583448
 20
8.8368060839
 30
0.0
 10
9.5511295884
 20
8.8369065467
 30
0.0
 10
9.5512105551
 20
8.8370998802
 30
0.0
 10
9.5513003974
 20
8.8374061845
 30
0.0
 10
9.5514316622
 20
8.8380092794
 30
0.0
 10
9.5515794074
 20
8.8390074846
 30
0.0
 10
9.5517384509
 20
8.8404889308
 30
0.0
 10
9.551886726
 20
8.8423366264
 30
0.0
 10
9.5520227457
 20
8.8445335534
 30
0.0
 10
9.5521447227
 20
8.8470598877
 30
0.0
 10
9.5522120765
 20
8.8488518368
 30
0.0
 10
9.5522436949
 20
8.849798973
 30
0.0
  0
LINE
  5
49A
100
AcDbEntity
  8
0
100
AcDbLine
 62
7
  6
CONTINUOUS
 10
9.5522436949
 20
8.849798973
 11
9.5524706603
 21
8.8606342691
  0
SPLINE
  5
49B
100
AcDbEntity
  8
0
100
AcDbSpline
 62
7
  6
CONTINUOUS
 70
0
 71
3
 72
11
 73
7
 74
0
 42
0.0000001
 43
0.0000001
 44
0.0000000001
 40
0.0
 40
0.0
 40
0.0
 40
0.0
 40
0.324041152
 40
0.6062153042
 40
0.8341100493
 40
1.0
 40
1.0
 40
1.0
 40
1.0
 10
9.5494123655
 20
8.8874053066
 30
0.0
 10
9.5494240212
 20
8.8884841583
 30
0.0
 10
9.5494566622
 20
8.8905023552
 30
0.0
 10
9.5495381115
 20
8.8932785785
 30
0.0
 10
9.5496478807
 20
8.895526518
 30
0.0
 10
9.5497483991
 20
8.8968344558
 30
0.0
 10
9.5498120596
 20
8.8973831155
 30
0.0
  0
LINE
  5
49C
100
AcDbEntity
  8
0
100
AcDbLine
 62
7
  6
CONTINUOUS
 10
9.5498120596
 20
8.8973831155
 11
9.5501227574
 21
8.8986149147
  0
LINE
  5
49D
100
AcDbEntity
  8
0
100
AcDbLine
 62
7
  6
CONTINUOUS
 10
9.6054683233
 20
8.697128224
 11
9.605400994
 21
8.678360515
  0
SPLINE
  5
49E
100
AcDbEntity
  8
0
100
AcDbSpline
 62
7
  6
CONTINUOUS
 70
0
 71
3
 72
21
 73
17
 74
0
 42
0.0000001
 43
0.0000001
 44
0.0000000001
 40
0.0
 40
0.0
 40
0.0
 40
0.0
 40
0.2211875818
 40
0.4185596261
 40
0.5898690873
 40
0.7330284891
 40
0.7935615488
 40
0.846498422
 40
0.8916704867
 40
0.928938357
 40
0.9582561633
 40
0.9699366768
 40
0.9796419752
 40
0.9873961494
 40
0.9932558002
 40
1.0
 40
1.0
 40
1.0
 40
1.0
 10
9.6095309236
 20
8.5620184056
 30
0.0
 10
9.609684072
 20
8.5596350173
 30
0.0
 10
9.6099873235
 20
8.5551257078
 30
0.0
 10
9.6104631152
 20
8.5487742279
 30
0.0
 10
9.6109294291
 20
8.5432671737
 30
0.0
 10
9.6113238732
 20
8.5392370761
 30
0.0
 10
9.611636888
 20
8.5364837671
 30
0.0
 10
9.6118525048
 20
8.5347843602
 30
0.0
 10
9.6120612217
 20
8.5333375229
 30
0.0
 10
9.6122627486
 20
8.5321474839
 30
0.0
 10
9.6124329695
 20
8.5313196919
 30
0.0
 10
9.6125703671
 20
8.530788968
 30
0.0
 10
9.6126620031
 20
8.5304892195
 30
0.0
 10
9.6127537983
 20
8.5302505116
 30
0.0
 10
9.612847597
 20
8.5300628575
 30
0.0
 10
9.6129534421
 20
8.5299341392
 30
0.0
 10
9.6130262635
 20
8.5299341392
 30
0.0
  0
SPLINE
  5
49F
100
AcDbEntity
  8
0
100
AcDbSpline
 62
9
  6
CONTINUOUS
 70
0
 71
3
 72
22
 73
18
 74
0
 42
0.0000001
 43
0.0000001
 44
0.0000000001
 40
0.0
 40
0.0
 40
0.0
 40
0.0
 40
0.0071863453
 40
0.0136122527
 40
0.0222216699
 40
0.0330743355
 40
0.04618948
 40
0.0615687457
 40
0.0791891772
 40
0.1209737473
 40
0.1711630691
 40
0.2293472451
 40
0.2949749496
 40
0.4458733028
 40
0.6181846529
 40
0.805507369
 40
1.0
 40
1.0
 40
1.0
 40
1.0
 10
9.5790431883
 20
8.9544483963
 30
0.0
 10
9.5791763284
 20
8.9544366529
 30
0.0
 10
9.5793822517
 20
8.9546836904
 30
0.0
 10
9.5795410755
 20
8.9550409097
 30
0.0
 10
9.5797005265
 20
8.9555045507
 30
0.0
 10
9.5798518357
 20
8.9560884386
 30
0.0
 10
9.5800051228
 20
8.9568052656
 30
0.0
 10
9.5801556386
 20
8.9576493976
 30
0.0
 10
9.5803658707
 20
8.9590245654
 30
0.0
 10
9.5806133639
 20
8.9610481108
 30
0.0
 10
9.5808841537
 20
8.9638278946
 30
0.0
 10
9.5811384805
 20
8.9670542315
 30
0.0
 10
9.5814678346
 20
8.972152994
 30
0.0
 10
9.5818078951
 20
8.9793773977
 30
0.0
 10
9.5821017252
 20
8.988868397
 30
0.0
 10
9.5822823425
 20
8.9991731405
 30
0.0
 10
9.5823232308
 20
9.0062744871
 30
0.0
 10
9.5823234178
 20
9.009891804
 30
0.0
  0
SPLINE
  5
4A0
100
AcDbEntity
  8
0
100
AcDbSpline
 62
7
  6
CONTINUOUS
 70
0
 71
3
 72
23
 73
19
 74
0
 42
0.0000001
 43
0.0000001
 44
0.0000000001
 40
0.0
 40
0.0
 40
0.0
 40
0.0
 40
0.0016599066
 40
0.0054589023
 40
0.0115807777
 40
0.0200404359
 40
0.030828226
 40
0.0439274988
 40
0.0769812531
 40
0.11897557
 40
0.1694368409
 40
0.2278284721
 40
0.2936124924
 40
0.3662161856
 40
0.4449296149
 40
0.6177070305
 40
0.8055109368
 40
1.0
 40
1.0
 40
1.0
 40
1.0
 10
9.5400706498
 20
8.9902066689
 30
0.0
 10
9.5400597455
 20
8.9902066689
 30
0.0
 10
9.5400390348
 20
8.9902474322
 30
0.0
 10
9.540022456
 20
8.9903141205
 30
0.0
 10
9.5400000265
 20
8.9904368702
 30
0.0
 10
9.5399795491
 20
8.9906005865
 30
0.0
 10
9.5399580016
 20
8.9908126481
 30
0.0
 10
9.539927497
 20
8.991185171
 30
0.0
 10
9.5398916379
 20
8.9917633604
 30
0.0
 10
9.5398524746
 20
8.9925868569
 30
0.0
 10
9.5398150156
 20
8.9935771414
 30
0.0
 10
9.5397797387
 20
8.9947238253
 30
0.0
 10
9.5397471039
 20
8.9960161106
 30
0.0
 10
9.5397175258
 20
8.997441994
 30
0.0
 10
9.5396813513
 20
8.9995707422
 30
0.0
 10
9.5396465808
 20
9.0024563791
 30
0.0
 10
9.5396217031
 20
9.0061026912
 30
0.0
 10
9.539615985
 20
9.008614065
 30
0.0
 10
9.539615985
 20
9.0098917083
 30
0.0
  0
SPLINE
  5
4A1
100
AcDbEntity
  8
0
100
AcDbSpline
 62
9
  6
CONTINUOUS
 70
0
 71
3
 72
26
 73
22
 74
0
 42
0.0000001
 43
0.0000001
 44
0.0000000001
 40
0.0
 40
0.0
 40
0.0
 40
0.0
 40
0.000513472
 40
0.0014891169
 40
0.0051462418
 40
0.0111557426
 40
0.0195231498
 40
0.0302378963
 40
0.0432849693
 40
0.0586465472
 40
0.0762857862
 40
0.1181872034
 40
0.1685652711
 40
0.2269848017
 40
0.2928730097
 40
0.3655484407
 40
0.4443252338
 40
0.5284693002
 40
0.6171827725
 40
0.8050202679
 40
1.0
 40
1.0
 40
1.0
 40
1.0
 10
9.5510866057
 20
8.956894152
 30
0.0
 10
9.5510956491
 20
8.9568933604
 30
0.0
 10
9.5511187888
 20
8.956914394
 30
0.0
 10
9.5511498818
 20
8.9569973508
 30
0.0
 10
9.5511909496
 20
8.9571841794
 30
0.0
 10
9.5512328832
 20
8.9574987893
 30
0.0
 10
9.551277715
 20
8.957940852
 30
0.0
 10
9.5513219225
 20
8.9585069366
 30
0.0
 10
9.5513662217
 20
8.9591973123
 30
0.0
 10
9.5514099297
 20
8.9600102301
 30
0.0
 10
9.5514709405
 20
8.9613330938
 30
0.0
 10
9.5515427263
 20
8.9632751227
 30
0.0
 10
9.5516212209
 20
8.9659382935
 30
0.0
 10
9.5516949022
 20
8.9690258162
 30
0.0
 10
9.5517630827
 20
8.9725077565
 30
0.0
 10
9.5518250724
 20
8.9763497722
 30
0.0
 10
9.5518801279
 20
8.9805146806
 30
0.0
 10
9.5519276691
 20
8.9849632454
 30
0.0
 10
9.5519815445
 20
8.9913399953
 30
0.0
 10
9.5520259152
 20
8.9996764112
 30
0.0
 10
9.5520379139
 20
9.0064445022
 30
0.0
 10
9.5520380178
 20
9.0098916816
 30
0.0
  0
LINE
  5
4A2
100
AcDbEntity
  8
0
100
AcDbLine
 62
7
  6
CONTINUOUS
 10
9.606434525
 20
8.9525577614
 11
9.6058225809
 21
8.9371008459
  0
LINE
  5
4A3
100
AcDbEntity
  8
0
100
AcDbLine
 62
7
  6
CONTINUOUS
 10
9.5396769118
 20
9.2118274288
 11
9.5396159848
 21
9.2144645555
  0
SPLINE
  5
4A4
100
AcDbEntity
  8
0
100
AcDbSpline
 62
9
  6
CONTINUOUS
 70
0
 71
3
 72
14
 73
10
 74
0
 42
0.0000001
 43
0.0000001
 44
0.0000000001
 40
0.0
 40
0.0
 40
0.0
 40
0.0
 40
0.0946574907
 40
0.2188688766
 40
0.5168017076
 40
0.6680868621
 40
0.8056589615
 40
0.9191493461
 40
1.0
 40
1.0
 40
1.0
 40
1.0
 10
9.5520380616
 20
8.7423017375
 30
0.0
 10
9.5520378868
 20
8.7452811545
 30
0.0
 10
9.5520024699
 20
8.7521701937
 30
0.0
 10
9.5518515719
 20
8.7684362273
 30
0.0
 10
9.5516016526
 20
8.7864837444
 30
0.0
 10
9.5512845606
 20
8.8049506889
 30
0.0
 10
9.5510336608
 20
8.8176124411
 30
0.0
 10
9.5507898022
 20
8.8280567986
 30
0.0
 10
9.5506177346
 20
8.8341715265
 30
0.0
 10
9.5505264737
 20
8.8367147259
 30
0.0
  0
SPLINE
  5
4A5
100
AcDbEntity
  8
0
100
AcDbSpline
 62
9
  6
CONTINUOUS
 70
0
 71
3
 72
38
 73
34
 74
0
 42
0.0000001
 43
0.0000001
 44
0.0000000001
 40
0.0
 40
0.0
 40
0.0
 40
0.0
 40
0.0687950495
 40
0.1240239071
 40
0.1463408899
 40
0.165014653
 40
0.1799660306
 40
0.1860338661
 40
0.1911631356
 40
0.1953546077
 40
0.1986101797
 40
0.2009346935
 40
0.2023437045
 40
0.2029332984
 40
0.2036356684
 40
0.2051930553
 40
0.2076723795
 40
0.2110872214
 40
0.2154424111
 40
0.2207364303
 40
0.2269643906
 40
0.2422001896
 40
0.2611043051
 40
0.283629394
 40
0.3097274193
 40
0.3393499925
 40
0.3724370372
 40
0.4486095045
 40
0.5374177077
 40
0.6380223523
 40
0.7494365972
 40
0.870490138
 40
1.0
 40
1.0
 40
1.0
 40
1.0
 10
9.5410880912
 20
8.752374742
 30
0.0
 10
9.5410880688
 20
8.7517519528
 30
0.0
 10
9.5410857015
 20
8.7506291859
 30
0.0
 10
9.5410745626
 20
8.7493044137
 30
0.0
 10
9.5410598276
 20
8.7484334768
 30
0.0
 10
9.5410473495
 20
8.7479271826
 30
0.0
 10
9.5410346305
 20
8.7475680816
 30
0.0
 10
9.5410226367
 20
8.7473316257
 30
0.0
 10
9.541014008
 20
8.7471926641
 30
0.0
 10
9.5410042442
 20
8.7470789736
 30
0.0
 10
9.5409958764
 20
8.7469915562
 30
0.0
 10
9.5409831388
 20
8.7469278112
 30
0.0
 10
9.5409787109
 20
8.746891976
 30
0.0
 10
9.5409585669
 20
8.7468665231
 30
0.0
 10
9.5409416374
 20
8.7468979285
 30
0.0
 10
9.5409334795
 20
8.7469342103
 30
0.0
 10
9.5409192795
 20
8.7470032574
 30
0.0
 10
9.5409067431
 20
8.7470939306
 30
0.0
 10
9.5408925667
 20
8.7472118383
 30
0.0
 10
9.5408782168
 20
8.7473546869
 30
0.0
 10
9.5408567508
 20
8.7475960471
 30
0.0
 10
9.5408295467
 20
8.7479604439
 30
0.0
 10
9.5407966943
 20
8.7484723928
 30
0.0
 10
9.5407621042
 20
8.7490827233
 30
0.0
 10
9.5407258548
 20
8.749790144
 30
0.0
 10
9.5406880808
 20
8.750593217
 30
0.0
 10
9.5406332194
 20
8.7518492963
 30
0.0
 10
9.5405624467
 20
8.7536409776
 30
0.0
 10
9.5404764709
 20
8.7560437398
 30
0.0
 10
9.5403869649
 20
8.7587656056
 30
0.0
 10
9.5402948477
 20
8.7617794455
 30
0.0
 10
9.5402010229
 20
8.7650550226
 30
0.0
 10
9.540139859
 20
8.7673225046
 30
0.0
 10
9.540109095
 20
8.7684945305
 30
0.0
  0
LINE
  5
4A6
100
AcDbEntity
  8
0
100
AcDbLine
 62
9
  6
CONTINUOUS
 10
9.5393716993
 20
8.8044821338
 11
9.5391873629
 21
8.8235428924
  0
SPLINE
  5
4A7
100
AcDbEntity
  8
0
100
AcDbSpline
 62
9
  6
CONTINUOUS
 70
0
 71
3
 72
40
 73
36
 74
0
 42
0.0000001
 43
0.0000001
 44
0.0000000001
 40
0.0
 40
0.0
 40
0.0
 40
0.0
 40
0.0300683662
 40
0.0568521766
 40
0.0802534893
 40
0.1001745625
 40
0.1165180441
 40
0.1291907654
 40
0.1341354251
 40
0.1381522819
 40
0.1412426282
 40
0.1434102172
 40
0.1441516842
 40
0.144670386
 40
0.144982055
 40
0.1451668261
 40
0.145449967
 40
0.1459350771
 40
0.1475757548
 40
0.1501365623
 40
0.1536260761
 40
0.1633852423
 40
0.1768115401
 40
0.1938513444
 40
0.2144492528
 40
0.2385491657
 40
0.2660866457
 40
0.2969545893
 40
0.3310317458
 40
0.3681967866
 40
0.4513031869
 40
0.5451610053
 40
0.648419386
 40
0.7596915801
 40
1.0
 40
1.0
 40
1.0
 40
1.0
 10
9.5391873629
 20
8.8235428924
 30
0.0
 10
9.5391873579
 20
8.8239235964
 30
0.0
 10
9.5391882818
 20
8.8246434185
 30
0.0
 10
9.539192986
 20
8.8256595218
 30
0.0
 10
9.539200874
 20
8.8265471249
 30
0.0
 10
9.5392118327
 20
8.8273024957
 30
0.0
 10
9.5392258056
 20
8.8279219602
 30
0.0
 10
9.5392406086
 20
8.8283516989
 30
0.0
 10
9.5392549057
 20
8.8286252814
 30
0.0
 10
9.539265383
 20
8.82877746
 30
0.0
 10
9.5392763914
 20
8.828894553
 30
0.0
 10
9.5392868004
 20
8.8289695115
 30
0.0
 10
9.5392959738
 20
8.8290124306
 30
0.0
 10
9.5393025415
 20
8.8290305734
 30
0.0
 10
9.5393081304
 20
8.8290435118
 30
0.0
 10
9.5393195872
 20
8.8290451636
 30
0.0
 10
9.5393264706
 20
8.829033153
 30
0.0
 10
9.5393376403
 20
8.829006141
 30
0.0
 10
9.5393500958
 20
8.8289466069
 30
0.0
 10
9.5393654397
 20
8.8288512121
 30
0.0
 10
9.5393894936
 20
8.8286520055
 30
0.0
 10
9.5394196587
 20
8.8283159004
 30
0.0
 10
9.5394562335
 20
8.8278077491
 30
0.0
 10
9.5394954286
 20
8.8271624503
 30
0.0
 10
9.5395370849
 20
8.8263818588
 30
0.0
 10
9.5395809269
 20
8.8254683222
 30
0.0
 10
9.5396267625
 20
8.8244247006
 30
0.0
 10
9.5396744282
 20
8.8232547224
 30
0.0
 10
9.5397237441
 20
8.8219628167
 30
0.0
 10
9.5397941074
 20
8.8200098317
 30
0.0
 10
9.5398841212
 20
8.8173001703
 30
0.0
 10
9.539992216
 20
8.8137538371
 30
0.0
 10
9.5401025676
 20
8.8098508018
 30
0.0
 10
9.5402544047
 20
8.804093957
 30
0.0
 10
9.5403605954
 20
8.7996437534
 30
0.0
 10
9.5404290943
 20
8.7966019121
 30
0.0
  0
LINE
  5
4A8
100
AcDbEntity
  8
0
100
AcDbLine
 62
9
  6
CONTINUOUS
 10
9.5409070272
 20
8.7712126328
 11
9.5409472725
 21
8.7684047176
  0
LINE
  5
4A9
100
AcDbEntity
  8
0
100
AcDbLine
 62
9
  6
CONTINUOUS
 10
9.5409472725
 20
8.7684047176
 11
9.5410880912
 21
8.752374742
  0
SPLINE
  5
4AA
100
AcDbEntity
  8
0
100
AcDbSpline
 62
7
  6
CONTINUOUS
 70
0
 71
3
 72
18
 73
14
 74
0
 42
0.0000001
 43
0.0000001
 44
0.0000000001
 40
0.0
 40
0.0
 40
0.0
 40
0.0
 40
0.0279254815
 40
0.0386245817
 40
0.0510537758
 40
0.0813147188
 40
0.1189848565
 40
0.1641500247
 40
0.2167603219
 40
0.2767091077
 40
0.4180980903
 40
0.5870579679
 40
1.0
 40
1.0
 40
1.0
 40
1.0
 10
9.6275729478
 20
9.1004428894
 30
0.0
 10
9.6272771716
 20
9.1004428894
 30
0.0
 10
9.6269317158
 20
9.100078615
 30
0.0
 10
9.626657796
 20
9.0996284639
 30
0.0
 10
9.6264007518
 20
9.0991198075
 30
0.0
 10
9.6260955944
 20
9.0983260039
 30
0.0
 10
9.6257486456
 20
9.0971779145
 30
0.0
 10
9.6254067899
 20
9.0957844451
 30
0.0
 10
9.6250694691
 20
9.0941479221
 30
0.0
 10
9.6246021877
 20
9.0914988566
 30
0.0
 10
9.6240547081
 20
9.0876141288
 30
0.0
 10
9.6232080402
 20
9.0799996814
 30
0.0
 10
9.6227331585
 20
9.0738528449
 30
0.0
 10
9.6224464309
 20
9.0694885275
 30
0.0
  0
LINE
  5
4AB
100
AcDbEntity
  8
0
100
AcDbLine
 62
7
  6
CONTINUOUS
 10
9.6058228453
 20
9.082674264
 11
9.6064332405
 21
9.0672500944
  0
LINE
  5
4AC
100
AcDbEntity
  8
0
100
AcDbLine
 62
7
  6
CONTINUOUS
 10
9.5396159889
 20
8.8053187782
 11
9.5396769157
 21
8.8079559876
  0
LINE
  5
4AD
100
AcDbEntity
  8
0
100
AcDbLine
 62
9
  6
CONTINUOUS
 10
9.5519099593
 20
8.735201489
 11
9.5520380178
 21
8.7423017408
  0
LINE
  5
4AE
100
AcDbEntity
  8
0
100
AcDbLine
 62
7
  6
CONTINUOUS
 10
9.5496632398
 20
9.3796140627
 11
9.549522531
 21
9.380192544
  0
LINE
  5
4AF
100
AcDbEntity
  8
0
100
AcDbLine
 62
7
  6
CONTINUOUS
 10
9.549522531
 20
9.380192544
 11
9.5494056125
 21
9.3831198024
  0
LINE
  5
4B0
100
AcDbEntity
  8
0
100
AcDbLine
 62
7
  6
CONTINUOUS
 10
9.5494056125
 20
9.3831198024
 11
9.5494123623
 21
9.3881489393
  0
SPLINE
  5
4B1
100
AcDbEntity
  8
0
100
AcDbSpline
 62
9
  6
CONTINUOUS
 70
0
 71
3
 72
27
 73
23
 74
0
 42
0.0000001
 43
0.0000001
 44
0.0000000001
 40
0.0
 40
0.0
 40
0.0
 40
0.0
 40
0.0006694788
 40
0.0018944791
 40
0.0064036209
 40
0.0137594727
 40
0.0239678712
 40
0.037008758
 40
0.0528198041
 40
0.0713176284
 40
0.0924175482
 40
0.1160342768
 40
0.1420706133
 40
0.2008684546
 40
0.2677106569
 40
0.3414010093
 40
0.4205574508
 40
0.5037510418
 40
0.5894295043
 40
0.6760017301
 40
0.8456135807
 40
1.0
 40
1.0
 40
1.0
 40
1.0
 10
9.5599129771
 20
9.3455285886
 30
0.0
 10
9.5599318014
 20
9.3455273154
 30
0.0
 10
9.5599795278
 20
9.3455672638
 30
0.0
 10
9.5600505013
 20
9.345729137
 30
0.0
 10
9.5601440301
 20
9.3460917083
 30
0.0
 10
9.5602483641
 20
9.3467024866
 30
0.0
 10
9.560363327
 20
9.347558586
 30
0.0
 10
9.560483144
 20
9.3486524627
 30
0.0
 10
9.5606083628
 20
9.3499811756
 30
0.0
 10
9.5607375531
 20
9.3515373207
 30
0.0
 10
9.5608701375
 20
9.3533139205
 30
0.0
 10
9.561005331
 20
9.3553032957
 30
0.0
 10
9.5611959301
 20
9.3583537188
 30
0.0
 10
9.5614329953
 20
9.3626217241
 30
0.0
 10
9.5617076663
 20
9.3682325532
 30
0.0
 10
9.5619771471
 20
9.3744179757
 30
0.0
 10
9.5622367762
 20
9.3810650051
 30
0.0
 10
9.5624811954
 20
9.3880506745
 30
0.0
 10
9.5627062692
 20
9.3952460892
 30
0.0
 10
9.5629728378
 20
9.4048767718
 30
0.0
 10
9.5632320187
 20
9.4164446397
 30
0.0
 10
9.563367087
 20
9.425574689
 30
0.0
 10
9.5634077137
 20
9.4299254096
 30
0.0
  0
LINE
  5
4B2
100
AcDbEntity
  8
0
100
AcDbLine
 62
7
  6
CONTINUOUS
 10
9.5402446879
 20
9.2471301985
 11
9.5404644075
 21
9.2511975829
  0
LINE
  5
4B3
100
AcDbEntity
  8
0
100
AcDbLine
 62
7
  6
CONTINUOUS
 10
9.5982948649
 20
9.0842394896
 11
9.5978713265
 21
9.0674158462
  0
LINE
  5
4B4
100
AcDbEntity
  8
0
100
AcDbLine
 62
9
  6
CONTINUOUS
 10
9.5410880912
 20
9.2674086604
 11
9.5409037094
 21
9.2483483511
  0
SPLINE
  5
4B5
100
AcDbEntity
  8
0
100
AcDbSpline
 62
9
  6
CONTINUOUS
 70
0
 71
3
 72
40
 73
36
 74
0
 42
0.0000001
 43
0.0000001
 44
0.0000000001
 40
0.0
 40
0.0
 40
0.0
 40
0.0
 40
0.2403088875
 40
0.3515811612
 40
0.4548395205
 40
0.5486972211
 40
0.6318034114
 40
0.6689683136
 40
0.7030453113
 40
0.7339130777
 40
0.7614503639
 40
0.7855500659
 40
0.8061477456
 40
0.8231873034
 40
0.8366133373
 40
0.8463722225
 40
0.8498615895
 40
0.8524222468
 40
0.8540627733
 40
0.8545478107
 40
0.8548308918
 40
0.8550156716
 40
0.8553274058
 40
0.8558461832
 40
0.8565877285
 40
0.8587554768
 40
0.8618459829
 40
0.8658629983
 40
0.8708078146
 40
0.883480839
 40
0.8998246045
 40
0.9197459368
 40
0.9431474783
 40
0.9699314818
 40
1.0
 40
1.0
 40
1.0
 40
1.0
 10
9.5404290892
 20
9.2231813373
 30
0.0
 10
9.5403605903
 20
9.220139506
 30
0.0
 10
9.5402543996
 20
9.2156893189
 30
0.0
 10
9.5401025625
 20
9.2099324977
 30
0.0
 10
9.5399922111
 20
9.2060294836
 30
0.0
 10
9.5398841166
 20
9.2024831735
 30
0.0
 10
9.5397941031
 20
9.1997735322
 30
0.0
 10
9.53972374
 20
9.1978205639
 30
0.0
 10
9.5396744243
 20
9.196528671
 30
0.0
 10
9.5396267588
 20
9.1953587057
 30
0.0
 10
9.5395809235
 20
9.1943150969
 30
0.0
 10
9.5395370816
 20
9.1934015732
 30
0.0
 10
9.5394954256
 20
9.1926209944
 30
0.0
 10
9.5394562308
 20
9.1919757085
 30
0.0
 10
9.5394196562
 20
9.1914675698
 30
0.0
 10
9.5393894915
 20
9.1911314753
 30
0.0
 10
9.5393654375
 20
9.190932277
 30
0.0
 10
9.5393500943
 20
9.1908368887
 30
0.0
 10
9.539337638
 20
9.1907773593
 30
0.0
 10
9.5393264695
 20
9.1907503515
 30
0.0
 10
9.5393195842
 20
9.1907383429
 30
0.0
 10
9.539308128
 20
9.1907400008
 30
0.0
 10
9.5393025405
 20
9.1907529403
 30
0.0
 10
9.5392959722
 20
9.1907710865
 30
0.0
 10
9.5392867993
 20
9.1908140091
 30
0.0
 10
9.5392763901
 20
9.1908889725
 30
0.0
 10
9.5392653819
 20
9.1910060709
 30
0.0
 10
9.5392549047
 20
9.1911582548
 30
0.0
 10
9.5392406078
 20
9.1914318436
 30
0.0
 10
9.5392258049
 20
9.1918615895
 30
0.0
 10
9.5392118322
 20
9.1924810615
 30
0.0
 10
9.5392008737
 20
9.1932364381
 30
0.0
 10
9.5391929858
 20
9.1941240452
 30
0.0
 10
9.5391882817
 20
9.1951401504
 30
0.0
 10
9.5391873579
 20
9.1958599731
 30
0.0
 10
9.5391873629
 20
9.196240677
 30
0.0
  0
SPLINE
  5
4B6
100
AcDbEntity
  8
0
100
AcDbSpline
 62
9
  6
CONTINUOUS
 70
0
 71
3
 72
37
 73
33
 74
0
 42
0.0000001
 43
0.0000001
 44
0.0000000001
 40
0.0
 40
0.0
 40
0.0
 40
0.0
 40
0.1283573859
 40
0.2442710993
 40
0.3470578642
 40
0.4360347871
 40
0.5105851399
 40
0.5423301706
 40
0.5703357429
 40
0.5945627043
 40
0.6149724313
 40
0.6315273356
 40
0.6441921698
 40
0.6490580977
 40
0.6529484891
 40
0.6558696405
 40
0.6578365177
 40
0.6589037558
 40
0.6594883181
 40
0.6607024715
 40
0.6628317388
 40
0.6659168585
 40
0.6699695292
 40
0.6809932971
 40
0.6959188952
 40
0.7147494465
 40
0.7374711178
 40
0.764025248
 40
0.7943437749
 40
0.8283582461
 40
0.9072000777
 40
1.0
 40
1.0
 40
1.0
 40
1.0
 10
9.5404286397
 20
9.2622760632
 30
0.0
 10
9.5404513154
 20
9.2629674157
 30
0.0
 10
9.5404957317
 20
9.2642830563
 30
0.0
 10
9.5405633238
 20
9.2661521484
 30
0.0
 10
9.5406281563
 20
9.2678089723
 30
0.0
 10
9.5406897924
 20
9.2692428317
 30
0.0
 10
9.5407404779
 20
9.2702939503
 30
0.0
 10
9.540779771
 20
9.271016641
 30
0.0
 10
9.5408066006
 20
9.2714684033
 30
0.0
 10
9.5408323374
 20
9.2718590428
 30
0.0
 10
9.5408568944
 20
9.272187868
 30
0.0
 10
9.5408801978
 20
9.2724543975
 30
0.0
 10
9.5408997338
 20
9.272636881
 30
0.0
 10
9.5409153364
 20
9.2727515585
 30
0.0
 10
9.540925761
 20
9.272813058
 30
0.0
 10
9.5409352948
 20
9.2728608157
 30
0.0
 10
9.5409451158
 20
9.2728885772
 30
0.0
 10
9.5409529665
 20
9.2729113476
 30
0.0
 10
9.5409711754
 20
9.2729076792
 30
0.0
 10
9.5409763438
 20
9.2728842224
 30
0.0
 10
9.5409859438
 20
9.2728525667
 30
0.0
 10
9.5409931562
 20
9.2728022729
 30
0.0
 10
9.5410051354
 20
9.2727055963
 30
0.0
 10
9.5410174332
 20
9.2725439863
 30
0.0
 10
9.5410307148
 20
9.2723031935
 30
0.0
 10
9.5410425437
 20
9.2719989863
 30
0.0
 10
9.5410531695
 20
9.2716321317
 30
0.0
 10
9.5410624179
 20
9.2712032826
 30
0.0
 10
9.5410703013
 20
9.2707135516
 30
0.0
 10
9.5410793819
 20
9.2699420259
 30
0.0
 10
9.5410864901
 20
9.2688337508
 30
0.0
 10
9.5410880737
 20
9.2679087637
 30
0.0
 10
9.5410880912
 20
9.2674086604
 30
0.0
  0
LINE
  5
4B7
100
AcDbEntity
  8
0
100
AcDbLine
 62
9
  6
CONTINUOUS
 10
9.5520380616
 20
9.2774817482
 11
9.551909998
 21
9.2845819992
  0
SPLINE
  5
4B8
100
AcDbEntity
  8
0
100
AcDbSpline
 62
7
  6
CONTINUOUS
 70
0
 71
3
 72
16
 73
12
 74
0
 42
0.0000001
 43
0.0000001
 44
0.0000000001
 40
0.0
 40
0.0
 40
0.0
 40
0.0
 40
0.0087377032
 40
0.02324265
 40
0.0743689274
 40
0.1562134602
 40
0.2685698752
 40
0.4107764506
 40
0.5813183001
 40
0.7783483049
 40
1.0
 40
1.0
 40
1.0
 40
1.0
 10
9.550588584
 20
8.8592451898
 30
0.0
 10
9.5505709404
 20
8.8592450254
 30
0.0
 10
9.5505278812
 20
8.8592756791
 30
0.0
 10
9.5504591178
 20
8.8594082647
 30
0.0
 10
9.5503778258
 20
8.8596981946
 30
0.0
 10
9.55028777
 20
8.8601841747
 30
0.0
 10
9.5501953398
 20
8.8608579416
 30
0.0
 10
9.5501036554
 20
8.8617113033
 30
0.0
 10
9.5500135651
 20
8.8627368953
 30
0.0
 10
9.5499263597
 20
8.8639235377
 30
0.0
 10
9.5498737738
 20
8.8647673834
 30
0.0
 10
9.5498478787
 20
8.865214223
 30
0.0
  0
LINE
  5
4B9
100
AcDbEntity
  8
0
100
AcDbLine
 62
7
  6
CONTINUOUS
 10
9.5498478787
 20
8.865214223
 11
9.5495776037
 21
8.8715311357
  0
SPLINE
  5
4BA
100
AcDbEntity
  8
0
100
AcDbSpline
 62
9
  6
CONTINUOUS
 70
0
 71
3
 72
21
 73
17
 74
0
 42
0.0000001
 43
0.0000001
 44
0.0000000001
 40
0.0
 40
0.0
 40
0.0
 40
0.0
 40
0.0060029901
 40
0.0116764031
 40
0.0193765416
 40
0.0291586844
 40
0.0410471143
 40
0.0711198718
 40
0.1094598954
 40
0.1558823082
 40
0.2101891968
 40
0.2721622859
 40
0.4178339429
 40
0.5901698371
 40
0.7857917194
 40
1.0
 40
1.0
 40
1.0
 40
1.0
 10
9.5618844121
 20
8.8249890213
 30
0.0
 10
9.5619458123
 20
8.8249838348
 30
0.0
 10
9.5620339592
 20
8.8251136336
 30
0.0
 10
9.5621003331
 20
8.8252865611
 30
0.0
 10
9.5621686323
 20
8.8255198466
 30
0.0
 10
9.5622328302
 20
8.8258125625
 30
0.0
 10
9.5623268856
 20
8.826336309
 30
0.0
 10
9.5624353819
 20
8.8271531475
 30
0.0
 10
9.5625551454
 20
8.8283261083
 30
0.0
 10
9.5626698205
 20
8.8297490069
 30
0.0
 10
9.562779022
 20
8.8314155934
 30
0.0
 10
9.5629236681
 20
8.8341005915
 30
0.0
 10
9.563079309
 20
8.8379980454
 30
0.0
 10
9.5632271323
 20
8.8432682991
 30
0.0
 10
9.5633400282
 20
8.8492430632
 30
0.0
 10
9.5633889466
 20
8.8534495988
 30
0.0
 10
9.5634077137
 20
8.8556483029
 30
0.0
  0
LINE
  5
4BB
100
AcDbEntity
  8
0
100
AcDbLine
 62
7
  6
CONTINUOUS
 10
9.549411264
 20
9.1408533644
 11
9.549836784
 21
9.1545568142
  0
SPLINE
  5
4BC
100
AcDbEntity
  8
0
100
AcDbSpline
 62
7
  6
CONTINUOUS
 70
0
 71
3
 72
16
 73
12
 74
0
 42
0.0000001
 43
0.0000001
 44
0.0000000001
 40
0.0
 40
0.0
 40
0.0
 40
0.0
 40
0.2216350201
 40
0.4186612188
 40
0.589207065
 40
0.7314204185
 40
0.8437855588
 40
0.9256384208
 40
0.9767673749
 40
0.9912692285
 40
1.0
 40
1.0
 40
1.0
 40
1.0
 10
9.549836784
 20
9.1545568142
 30
0.0
 10
9.5498626939
 20
9.1550045363
 30
0.0
 10
9.5499153142
 20
9.1558500712
 30
0.0
 10
9.5500025867
 20
9.1570391158
 30
0.0
 10
9.5500927566
 20
9.1580668291
 30
0.0
 10
9.5501845306
 20
9.1589219865
 30
0.0
 10
9.5502770607
 20
9.1595971926
 30
0.0
 10
9.5503672065
 20
9.1600842235
 30
0.0
 10
9.5504485957
 20
9.1603747832
 30
0.0
 10
9.5505174176
 20
9.1605076572
 30
0.0
 10
9.5505605388
 20
9.1605383853
 30
0.0
 10
9.5505782044
 20
9.1605382178
 30
0.0
  0
SPLINE
  5
4BD
100
AcDbEntity
  8
0
100
AcDbSpline
 62
7
  6
CONTINUOUS
 70
0
 71
3
 72
10
 73
6
 74
0
 42
0.0000001
 43
0.0000001
 44
0.0000000001
 40
0.0
 40
0.0
 40
0.0
 40
0.0
 40
0.574908967
 40
0.8092218104
 40
1.0
 40
1.0
 40
1.0
 40
1.0
 10
9.5484300598
 20
9.1229930833
 30
0.0
 10
9.548469071
 20
9.1193769312
 30
0.0
 10
9.5485618202
 20
9.1142868742
 30
0.0
 10
9.5488098739
 20
9.1080012968
 30
0.0
 10
9.5489655443
 20
9.1053315194
 30
0.0
 10
9.5490560484
 20
9.1041348808
 30
0.0
  0
SPLINE
  5
4BE
100
AcDbEntity
  8
0
100
AcDbSpline
 62
7
  6
CONTINUOUS
 70
0
 71
3
 72
29
 73
25
 74
0
 42
0.0000001
 43
0.0000001
 44
0.0000000001
 40
0.0
 40
0.0
 40
0.0
 40
0.0
 40
0.1596512395
 40
0.2184036276
 40
0.2423667602
 40
0.2626794154
 40
0.2793369348
 40
0.2923982377
 40
0.3020092136
 40
0.3085574186
 40
0.3132700376
 40
0.3187879516
 40
0.3270148778
 40
0.3385907805
 40
0.3537325184
 40
0.3725020503
 40
0.3949064857
 40
0.4209319003
 40
0.4837392565
 40
0.5606744091
 40
0.6513874385
 40
0.7552859819
 40
0.8717114692
 40
1.0
 40
1.0
 40
1.0
 40
1.0
 10
9.5490560484
 20
9.1041348808
 30
0.0
 10
9.5491234484
 20
9.1032437215
 30
0.0
 10
9.5492291658
 20
9.1020251761
 30
0.0
 10
9.5494107331
 20
9.1006801864
 30
0.0
 10
9.5495110638
 20
9.1001121993
 30
0.0
 10
9.5495821556
 20
9.0997784001
 30
0.0
 10
9.5496542872
 20
9.0995078738
 30
0.0
 10
9.5497265779
 20
9.0992989189
 30
0.0
 10
9.5498002239
 20
9.0991535857
 30
0.0
 10
9.5498749973
 20
9.0990584563
 30
0.0
 10
9.5499763677
 20
9.0990350928
 30
0.0
 10
9.5500640696
 20
9.0991048892
 30
0.0
 10
9.5501385887
 20
9.0992241685
 30
0.0
 10
9.5502164176
 20
9.0994050367
 30
0.0
 10
9.5502940801
 20
9.0996474237
 30
0.0
 10
9.5503730081
 20
9.0999528659
 30
0.0
 10
9.5504522728
 20
9.1003206275
 30
0.0
 10
9.55056557
 20
9.1009330056
 30
0.0
 10
9.5507027471
 20
9.1018509806
 30
0.0
 10
9.5508586505
 20
9.1031316674
 30
0.0
 10
9.5510125589
 20
9.104644015
 30
0.0
 10
9.5511636961
 20
9.1063786268
 30
0.0
 10
9.5513108908
 20
9.1083245843
 30
0.0
 10
9.5514014872
 20
9.1096914779
 30
0.0
 10
9.5514462776
 20
9.1104082203
 30
0.0
  0
SPLINE
  5
4BF
100
AcDbEntity
  8
0
100
AcDbSpline
 62
7
  6
CONTINUOUS
 70
0
 71
3
 72
9
 73
5
 74
0
 42
0.0000001
 43
0.0000001
 44
0.0000000001
 40
0.0
 40
0.0
 40
0.0
 40
0.0
 40
0.4565354488
 40
1.0
 40
1.0
 40
1.0
 40
1.0
 10
9.5514462776
 20
9.1104082203
 30
0.0
 10
9.5516624093
 20
9.1138667912
 30
0.0
 10
9.552010632
 20
9.1214501613
 30
0.0
 10
9.5522245304
 20
9.1290378563
 30
0.0
 10
9.5523109744
 20
9.1331621005
 30
0.0
  0
LINE
  5
4C0
100
AcDbEntity
  8
0
100
AcDbLine
 62
7
  6
CONTINUOUS
 10
9.5524603468
 20
9.1591497359
 11
9.5522333185
 21
9.1699834257
  0
SPLINE
  5
4C1
100
AcDbEntity
  8
0
100
AcDbSpline
 62
7
  6
CONTINUOUS
 70
0
 71
3
 72
33
 73
29
 74
0
 42
0.0000001
 43
0.0000001
 44
0.0000000001
 40
0.0
 40
0.0
 40
0.0
 40
0.0
 40
0.1141434456
 40
0.2159891912
 40
0.3046502235
 40
0.3792773622
 40
0.4392588569
 40
0.4841216606
 40
0.5007701142
 40
0.5135557292
 40
0.5225992701
 40
0.5258286721
 40
0.5283344604
 40
0.5303730632
 40
0.5323887803
 40
0.5348390717
 40
0.5379984477
 40
0.5468922043
 40
0.5595353994
 40
0.5760267837
 40
0.5963692164
 40
0.6205365507
 40
0.6484898554
 40
0.6801837162
 40
0.7155685132
 40
0.7970782464
 40
0.8921843818
 40
1.0
 40
1.0
 40
1.0
 40
1.0
 10
9.5522333185
 20
9.1699834257
 30
0.0
 10
9.5522017005
 20
9.1709304537
 30
0.0
 10
9.5521343513
 20
9.1727222419
 30
0.0
 10
9.5520123943
 20
9.1752483997
 30
0.0
 10
9.5518764002
 20
9.1774452623
 30
0.0
 10
9.5517281484
 20
9.1792929679
 30
0.0
 10
9.5515691261
 20
9.1807744856
 30
0.0
 10
9.5514213981
 20
9.1817727931
 30
0.0
 10
9.5512901537
 20
9.1823760102
 30
0.0
 10
9.5512003205
 20
9.1826824391
 30
0.0
 10
9.5511193645
 20
9.1828758846
 30
0.0
 10
9.5510481366
 20
9.1829764585
 30
0.0
 10
9.5509991668
 20
9.1830199489
 30
0.0
 10
9.550945232
 20
9.183037769
 30
0.0
 10
9.5508905243
 20
9.1830239899
 30
0.0
 10
9.5508402625
 20
9.1829837352
 30
0.0
 10
9.550766531
 20
9.1828878293
 30
0.0
 10
9.5506810293
 20
9.1826995071
 30
0.0
 10
9.5505842229
 20
9.1823991724
 30
0.0
 10
9.5504862357
 20
9.1819998714
 30
0.0
 10
9.5503871903
 20
9.181503229
 30
0.0
 10
9.5502878457
 20
9.1809098418
 30
0.0
 10
9.5501885367
 20
9.1802211491
 30
0.0
 10
9.5500896155
 20
9.1794384375
 30
0.0
 10
9.5499521464
 20
9.1782125929
 30
0.0
 10
9.5497867696
 20
9.1764603425
 30
0.0
 10
9.5496014775
 20
9.1741063743
 30
0.0
 10
9.5494895387
 20
9.1724255126
 30
0.0
 10
9.5494341674
 20
9.1715322015
 30
0.0
  0
LINE
  5
4C2
100
AcDbEntity
  8
0
100
AcDbLine
 62
7
  6
CONTINUOUS
 10
9.5494341674
 20
9.1715322015
 11
9.548931253
 21
9.1611350811
  0
SPLINE
  5
4C3
100
AcDbEntity
  8
0
100
AcDbSpline
 62
9
  6
CONTINUOUS
 70
0
 71
3
 72
21
 73
17
 74
0
 42
0.0000001
 43
0.0000001
 44
0.0000000001
 40
0.0
 40
0.0
 40
0.0
 40
0.0
 40
0.2141326743
 40
0.4097051265
 40
0.5820172303
 40
0.7276790221
 40
0.7896564054
 40
0.843970002
 40
0.8904011316
 40
0.9287564084
 40
0.9588553906
 40
0.9707621292
 40
0.9805627633
 40
0.9882805714
 40
0.9939710459
 40
1.0
 40
1.0
 40
1.0
 40
1.0
 10
9.5633976859
 20
9.1641349968
 30
0.0
 10
9.5633789266
 20
9.1663328463
 30
0.0
 10
9.5633300265
 20
9.170537948
 30
0.0
 10
9.5632171772
 20
9.1765109712
 30
0.0
 10
9.5630694217
 20
9.1817801851
 30
0.0
 10
9.5629138235
 20
9.1856771992
 30
0.0
 10
9.5627692459
 20
9.1883621162
 30
0.0
 10
9.5626600879
 20
9.1900288485
 30
0.0
 10
9.5625454393
 20
9.1914520138
 30
0.0
 10
9.5624257095
 20
9.1926254532
 30
0.0
 10
9.5623172224
 20
9.1934428817
 30
0.0
 10
9.5622232472
 20
9.1939672766
 30
0.0
 10
9.5621590378
 20
9.1942605575
 30
0.0
 10
9.5620908441
 20
9.1944944114
 30
0.0
 10
9.5620242315
 20
9.1946679652
 30
0.0
 10
9.5619366662
 20
9.1947984077
 30
0.0
 10
9.5618749551
 20
9.1947937951
 30
0.0
  0
SPLINE
  5
4C4
100
AcDbEntity
  8
0
100
AcDbSpline
 62
9
  6
CONTINUOUS
 70
0
 71
3
 72
17
 73
13
 74
0
 42
0.0000001
 43
0.0000001
 44
0.0000000001
 40
0.0
 40
0.0
 40
0.0
 40
0.0
 40
0.0445447167
 40
0.0773160461
 40
0.0987747874
 40
0.1108000992
 40
0.1411746436
 40
0.2158678788
 40
0.3385741873
 40
0.5099871893
 40
0.7304013486
 40
1.0
 40
1.0
 40
1.0
 40
1.0
 10
9.5649285976
 20
9.7763495831
 30
0.0
 10
9.5649310016
 20
9.7763301236
 30
0.0
 10
9.5649354823
 20
9.7762964084
 30
0.0
 10
9.564945875
 20
9.7762538952
 30
0.0
 10
9.5649538347
 20
9.7762263338
 30
0.0
 10
9.5649781031
 20
9.7762037848
 30
0.0
 10
9.5650152883
 20
9.7762674499
 30
0.0
 10
9.5650360457
 20
9.7763494018
 30
0.0
 10
9.5650771911
 20
9.7765154184
 30
0.0
 10
9.5651163552
 20
9.776734743
 30
0.0
 10
9.5651635742
 20
9.777023537
 30
0.0
 10
9.5651942552
 20
9.777236628
 30
0.0
 10
9.5652106679
 20
9.7773541579
 30
0.0
  0
LINE
  5
4C5
100
AcDbEntity
  8
0
100
AcDbLine
 62
9
  6
CONTINUOUS
 10
9.5652106679
 20
9.7773541579
 11
9.5665833663
 21
9.7912120911
  0
SPLINE
  5
4C6
100
AcDbEntity
  8
0
100
AcDbSpline
 62
9
  6
CONTINUOUS
 70
0
 71
3
 72
17
 73
13
 74
0
 42
0.0000001
 43
0.0000001
 44
0.0000000001
 40
0.0
 40
0.0
 40
0.0
 40
0.0
 40
0.2034982323
 40
0.3889309418
 40
0.5539191436
 40
0.6961683037
 40
0.8135226688
 40
0.9039172199
 40
0.9386129453
 40
0.9662249291
 40
0.9866997868
 40
1.0
 40
1.0
 40
1.0
 40
1.0
 10
9.57041116
 20
9.8425504141
 30
0.0
 10
9.5705001683
 20
9.8439475596
 30
0.0
 10
9.5706669949
 20
9.8466180303
 30
0.0
 10
9.5708934603
 20
9.8504220212
 30
0.0
 10
9.571082913
 20
9.85380608
 30
0.0
 10
9.5712330074
 20
9.8567232473
 30
0.0
 10
9.5713413479
 20
9.859128638
 30
0.0
 10
9.5714006477
 20
9.8607955906
 30
0.0
 10
9.5714224173
 20
9.8618458703
 30
0.0
 10
9.5714266609
 20
9.862415465
 30
0.0
 10
9.5714198084
 20
9.8628376069
 30
0.0
 10
9.5714079199
 20
9.8630700218
 30
0.0
 10
9.5713964783
 20
9.8631608032
 30
0.0
  0
SPLINE
  5
4C7
100
AcDbEntity
  8
0
100
AcDbSpline
 62
9
  6
CONTINUOUS
 70
0
 71
3
 72
13
 73
9
 74
0
 42
0.0000001
 43
0.0000001
 44
0.0000000001
 40
0.0
 40
0.0
 40
0.0
 40
0.0
 40
0.1162095198
 40
0.2388687755
 40
0.4925763756
 40
0.7506409773
 40
0.8779029006
 40
1.0
 40
1.0
 40
1.0
 40
1.0
 10
9.5713964856
 20
9.8631608028
 30
0.0
 10
9.5714473854
 20
9.8638083104
 30
0.0
 10
9.5716767798
 20
9.8651319567
 30
0.0
 10
9.5725796218
 20
9.867740119
 30
0.0
 10
9.5745643655
 20
9.8707832869
 30
0.0
 10
9.5775886914
 20
9.8728444108
 30
0.0
 10
9.5802547609
 20
9.8738325824
 30
0.0
 10
9.5816338848
 20
9.8740924618
 30
0.0
 10
9.5823136714
 20
9.8741522575
 30
0.0
  0
SPLINE
  5
4C8
100
AcDbEntity
  8
0
100
AcDbSpline
 62
9
  6
CONTINUOUS
 70
0
 71
3
 72
29
 73
25
 74
0
 42
0.0000001
 43
0.0000001
 44
0.0000000001
 40
0.0
 40
0.0
 40
0.0
 40
0.0
 40
0.0021444151
 40
0.0037004808
 40
0.0046950307
 40
0.0052463073
 40
0.0058526836
 40
0.0069401185
 40
0.0108478593
 40
0.0171656108
 40
0.0259246274
 40
0.0371386735
 40
0.0508164747
 40
0.085504365
 40
0.129667238
 40
0.1829192432
 40
0.2448724038
 40
0.3151285227
 40
0.3932571394
 40
0.4788206957
 40
0.5713814594
 40
0.6704558258
 40
0.7753846067
 40
1.0
 40
1.0
 40
1.0
 40
1.0
 10
9.5713964783
 20
9.8631608032
 30
0.0
 10
9.5713940188
 20
9.8631800162
 30
0.0
 10
9.5713894504
 20
9.8632131325
 30
0.0
 10
9.5713788591
 20
9.863254431
 30
0.0
 10
9.5713705675
 20
9.8632808559
 30
0.0
 10
9.5713524535
 20
9.863295335
 30
0.0
 10
9.5713342103
 20
9.8632793483
 30
0.0
 10
9.5713129474
 20
9.8632355105
 30
0.0
 10
9.5712822665
 20
9.8631356864
 30
0.0
 10
9.5712457988
 20
9.8629692317
 30
0.0
 10
9.5712029221
 20
9.8627351275
 30
0.0
 10
9.5711554003
 20
9.8624350807
 30
0.0
 10
9.5710791963
 20
9.8619022359
 30
0.0
 10
9.5709748885
 20
9.8610730027
 30
0.0
 10
9.5708393651
 20
9.8598874501
 30
0.0
 10
9.5706871285
 20
9.8584559997
 30
0.0
 10
9.5705192365
 20
9.8567892158
 30
0.0
 10
9.5703369356
 20
9.8548980659
 30
0.0
 10
9.570141345
 20
9.8527939564
 30
0.0
 10
9.5699336308
 20
9.8504886452
 30
0.0
 10
9.5697149818
 20
9.8479943647
 30
0.0
 10
9.5694867354
 20
9.8453253414
 30
0.0
 10
9.5691640037
 20
9.841467246
 30
0.0
 10
9.5689233419
 20
9.8385003215
 30
0.0
 10
9.5687620282
 20
9.8364778685
 30
0.0
  0
LINE
  5
4C9
100
AcDbEntity
  8
0
100
AcDbLine
 62
9
  6
CONTINUOUS
 10
9.5652921238
 20
9.7865654108
 11
9.5649285976
 21
9.7763495831
  0
SPLINE
  5
4CA
100
AcDbEntity
  8
0
100
AcDbSpline
 62
9
  6
CONTINUOUS
 70
0
 71
3
 72
38
 73
34
 74
0
 42
0.0000001
 43
0.0000001
 44
0.0000000001
 40
0.0
 40
0.0
 40
0.0
 40
0.0
 40
0.0298988487
 40
0.0565704338
 40
0.0798942044
 40
0.0997517668
 40
0.1160289703
 40
0.1227924569
 40
0.1286325406
 40
0.1335578418
 40
0.1375815966
 40
0.1407259917
 40
0.1430353432
 40
0.1446205759
 40
0.1458086649
 40
0.1472277117
 40
0.1493023776
 40
0.1558963142
 40
0.1659709555
 40
0.1795782457
 40
0.196718649
 40
0.2173764876
 40
0.2415294201
 40
0.2691271574
 40
0.3000484055
 40
0.3341586774
 40
0.3713227486
 40
0.454267271
 40
0.5477195732
 40
0.6504157524
 40
0.7610620661
 40
0.8781406197
 40
1.0
 40
1.0
 40
1.0
 40
1.0
 10
9.5648829594
 20
9.6892152373
 30
0.0
 10
9.5648829829
 20
9.6888111157
 30
0.0
 10
9.5648861734
 20
9.6880464858
 30
0.0
 10
9.564902213
 20
9.6869667086
 30
0.0
 10
9.5649290582
 20
9.6860228946
 30
0.0
 10
9.5649666095
 20
9.6852200683
 30
0.0
 10
9.5650084679
 20
9.6846416312
 30
0.0
 10
9.5650493982
 20
9.6842533758
 30
0.0
 10
9.5650808257
 20
9.6840185238
 30
0.0
 10
9.5651147286
 20
9.6838214034
 30
0.0
 10
9.5651510187
 20
9.6836620714
 30
0.0
 10
9.5651893951
 20
9.6835392277
 30
0.0
 10
9.5652301479
 20
9.6834536907
 30
0.0
 10
9.5652745958
 20
9.683397556
 30
0.0
 10
9.5653356744
 20
9.6833850173
 30
0.0
 10
9.5653904955
 20
9.6834249193
 30
0.0
 10
9.5654695523
 20
9.6835352514
 30
0.0
 10
9.5655651271
 20
9.6837735139
 30
0.0
 10
9.5656809509
 20
9.684164823
 30
0.0
 10
9.5658064034
 20
9.6847029571
 30
0.0
 10
9.5659411528
 20
9.6853844191
 30
0.0
 10
9.5660840006
 20
9.6862096388
 30
0.0
 10
9.5662343842
 20
9.6871767167
 30
0.0
 10
9.5663915728
 20
9.6882830578
 30
0.0
 10
9.5665551118
 20
9.6895243489
 30
0.0
 10
9.5667243279
 20
9.6908952642
 30
0.0
 10
9.5669655914
 20
9.6929657346
 30
0.0
 10
9.5672742165
 20
9.6958357965
 30
0.0
 10
9.5676450205
 20
9.6995898644
 30
0.0
 10
9.568023355
 20
9.7037193285
 30
0.0
 10
9.5684035376
 20
9.7081692089
 30
0.0
 10
9.5687806186
 20
9.7128792408
 30
0.0
 10
9.5690228881
 20
9.7160997095
 30
0.0
 10
9.5691427728
 20
9.7177424278
 30
0.0
  0
LINE
  5
4CB
100
AcDbEntity
  8
0
100
AcDbLine
 62
9
  6
CONTINUOUS
 10
9.5707876858
 20
9.7447307507
 11
9.5708279923
 21
9.7455769408
  0
SPLINE
  5
4CC
100
AcDbEntity
  8
0
100
AcDbSpline
 62
9
  6
CONTINUOUS
 70
0
 71
3
 72
10
 73
6
 74
0
 42
0.0000001
 43
0.0000001
 44
0.0000000001
 40
0.0
 40
0.0
 40
0.0
 40
0.0
 40
0.5706339783
 40
0.805810484
 40
1.0
 40
1.0
 40
1.0
 40
1.0
 10
9.5708279923
 20
9.7455769408
 30
0.0
 10
9.570998737
 20
9.7491980923
 30
0.0
 10
9.571211713
 20
9.7543132441
 30
0.0
 10
9.5713739572
 20
9.7606641545
 30
0.0
 10
9.5714063776
 20
9.7633918533
 30
0.0
 10
9.5714064455
 20
9.7646255179
 30
0.0
  0
SPLINE
  5
4CD
100
AcDbEntity
  8
0
100
AcDbSpline
 62
9
  6
CONTINUOUS
 70
0
 71
3
 72
14
 73
10
 74
0
 42
0.0000001
 43
0.0000001
 44
0.0000000001
 40
0.0
 40
0.0
 40
0.0
 40
0.0
 40
0.1082932364
 40
0.2240340166
 40
0.4708979441
 40
0.6019833076
 40
0.7361247688
 40
0.8700623143
 40
1.0
 40
1.0
 40
1.0
 40
1.0
 10
9.5714064527
 20
9.7646255178
 30
0.0
 10
9.5714579214
 20
9.7651894902
 30
0.0
 10
9.5716908417
 20
9.766347218
 30
0.0
 10
9.5726097673
 20
9.7686410465
 30
0.0
 10
9.5742253028
 20
9.7707493351
 30
0.0
 10
9.5764090431
 20
9.7723202537
 30
0.0
 10
9.5782882498
 20
9.7732492948
 30
0.0
 10
9.5802772187
 20
9.7738856992
 30
0.0
 10
9.5816460434
 20
9.7741078736
 30
0.0
 10
9.582323608
 20
9.7741591903
 30
0.0
  0
SPLINE
  5
4CE
100
AcDbEntity
  8
0
100
AcDbSpline
 62
9
  6
CONTINUOUS
 70
0
 71
3
 72
35
 73
31
 74
0
 42
0.0000001
 43
0.0000001
 44
0.0000000001
 40
0.0
 40
0.0
 40
0.0
 40
0.0
 40
0.0698760122
 40
0.1263706512
 40
0.1493517232
 40
0.1686943391
 40
0.1843189515
 40
0.1962340519
 40
0.2008281434
 40
0.2045384992
 40
0.2074045557
 40
0.2095108481
 40
0.2110669667
 40
0.2125358523
 40
0.2144419191
 40
0.2170565309
 40
0.2247642476
 40
0.2359810948
 40
0.2507663805
 40
0.2691268796
 40
0.2910513175
 40
0.3165205722
 40
0.3455115795
 40
0.3779899248
 40
0.4530412669
 40
0.5408448605
 40
0.6405438979
 40
0.7511491084
 40
0.871399742
 40
1.0
 40
1.0
 40
1.0
 40
1.0
 10
9.5714064455
 20
9.7646255179
 30
0.0
 10
9.5714064056
 20
9.7652755952
 30
0.0
 10
9.5713986388
 20
9.7664512688
 30
0.0
 10
9.5713620915
 20
9.7678404574
 30
0.0
 10
9.5713134625
 20
9.7687585521
 30
0.0
 10
9.5712723201
 20
9.7692961874
 30
0.0
 10
9.5712239225
 20
9.7697297082
 30
0.0
 10
9.5711752555
 20
9.7700250363
 30
0.0
 10
9.5711298121
 20
9.7702076905
 30
0.0
 10
9.5710972418
 20
9.7703065219
 30
0.0
 10
9.5710628306
 20
9.7703799525
 30
0.0
 10
9.5710268863
 20
9.7704295125
 30
0.0
 10
9.5709831696
 20
9.7704552837
 30
0.0
 10
9.5709349611
 20
9.7704455388
 30
0.0
 10
9.570892381
 20
9.7704077402
 30
0.0
 10
9.5708263877
 20
9.7703147275
 30
0.0
 10
9.5707470644
 20
9.770128954
 30
0.0
 10
9.570651303
 20
9.7698306446
 30
0.0
 10
9.5705490687
 20
9.7694303912
 30
0.0
 10
9.5704401644
 20
9.7689297865
 30
0.0
 10
9.5703254678
 20
9.768328822
 30
0.0
 10
9.5702052414
 20
9.7676284172
 30
0.0
 10
9.5700798606
 20
9.7668293526
 30
0.0
 10
9.5698973955
 20
9.765572415
 30
0.0
 10
9.5696618215
 20
9.7637704211
 30
0.0
 10
9.5693752454
 20
9.7613446342
 30
0.0
 10
9.5690761671
 20
9.7585873857
 30
0.0
 10
9.5687677993
 20
9.7555276116
 30
0.0
 10
9.568453392
 20
9.7521982789
 30
0.0
 10
9.5682483095
 20
9.7498922344
 30
0.0
 10
9.5681451812
 20
9.748700281
 30
0.0
  0
SPLINE
  5
4CF
100
AcDbEntity
  8
0
100
AcDbSpline
 62
9
  6
CONTINUOUS
 70
0
 71
3
 72
10
 73
6
 74
0
 42
0.0000001
 43
0.0000001
 44
0.0000000001
 40
0.0
 40
0.0
 40
0.0
 40
0.0
 40
0.5715843204
 40
0.8067532954
 40
1.0
 40
1.0
 40
1.0
 40
1.0
 10
9.5654998312
 20
9.7090800395
 30
0.0
 10
9.56531806
 20
9.7052975085
 30
0.0
 10
9.5650914517
 20
9.699956978
 30
0.0
 10
9.5649178511
 20
9.6933338946
 30
0.0
 10
9.5648829584
 20
9.6904955474
 30
0.0
 10
9.5648829594
 20
9.6892152373
 30
0.0
  0
SPLINE
  5
4D0
100
AcDbEntity
  8
0
100
AcDbSpline
 62
9
  6
CONTINUOUS
 70
0
 71
3
 72
18
 73
14
 74
0
 42
0.0000001
 43
0.0000001
 44
0.0000000001
 40
0.0
 40
0.0
 40
0.0
 40
0.0
 40
0.2283819224
 40
0.4286690608
 40
0.5999251246
 40
0.7412302624
 40
0.8517025277
 40
0.8951821572
 40
0.9308406657
 40
0.9587477906
 40
0.9790596574
 40
0.9922156942
 40
1.0
 40
1.0
 40
1.0
 40
1.0
 10
9.5823234178
 20
9.7741610733
 30
0.0
 10
9.5823233529
 20
9.7747316065
 30
0.0
 10
9.5823193769
 20
9.7758024965
 30
0.0
 10
9.5822993399
 20
9.7773010929
 30
0.0
 10
9.5822659785
 20
9.7785818893
 30
0.0
 10
9.5822195549
 20
9.7796377225
 30
0.0
 10
9.5821676653
 20
9.7803736849
 30
0.0
 10
9.5821163205
 20
9.7808446595
 30
0.0
 10
9.5820774224
 20
9.7811092764
 30
0.0
 10
9.5820373034
 20
9.7813151245
 30
0.0
 10
9.5819915746
 20
9.781461981
 30
0.0
 10
9.5819506985
 20
9.7815564463
 30
0.0
 10
9.5819009168
 20
9.7815904076
 30
0.0
 10
9.5818815291
 20
9.7815888968
 30
0.0
  0
LINE
  5
4D1
100
AcDbEntity
  8
0
100
AcDbLine
 62
9
  6
CONTINUOUS
 10
9.5658760031
 20
8.7336912364
 11
9.5667079517
 21
8.7228279273
  0
SPLINE
  5
4D2
100
AcDbEntity
  8
0
100
AcDbSpline
 62
9
  6
CONTINUOUS
 70
0
 71
3
 72
30
 73
26
 74
0
 42
0.0000001
 43
0.0000001
 44
0.0000000001
 40
0.0
 40
0.0
 40
0.0
 40
0.0
 40
0.1070701637
 40
0.2018113605
 40
0.2832711997
 40
0.3505759562
 40
0.378773124
 40
0.4032976666
 40
0.4241377281
 40
0.4413044572
 40
0.4548574813
 40
0.4649814282
 40
0.4722054207
 40
0.4751621225
 40
0.4780484968
 40
0.4848100816
 40
0.4943078224
 40
0.5072285283
 40
0.5238428311
 40
0.5683235188
 40
0.6275581642
 40
0.7010063857
 40
0.7880315752
 40
0.8879356661
 40
1.0
 40
1.0
 40
1.0
 40
1.0
 10
9.5667079517
 20
8.7228279273
 30
0.0
 10
9.5667997724
 20
8.7218761967
 30
0.0
 10
9.5669848786
 20
8.7200834479
 30
0.0
 10
9.567288572
 20
8.7175719188
 30
0.0
 10
9.5675988105
 20
8.7154194303
 30
0.0
 10
9.5678737312
 20
8.71386272
 30
0.0
 10
9.5681010456
 20
8.7128151014
 30
0.0
 10
9.5682610078
 20
8.7121778249
 30
0.0
 10
9.5684202073
 20
8.7116422928
 30
0.0
 10
9.5685776712
 20
8.7112093659
 30
0.0
 10
9.5687339008
 20
8.710878455
 30
0.0
 10
9.5688869485
 20
8.7106483136
 30
0.0
 10
9.569030978
 20
8.7105270561
 30
0.0
 10
9.5691467121
 20
8.7104994259
 30
0.0
 10
9.5692608413
 20
8.7105146244
 30
0.0
 10
9.5694033291
 20
8.7106237586
 30
0.0
 10
9.5695459923
 20
8.7108428968
 30
0.0
 10
9.5696874953
 20
8.7111628152
 30
0.0
 10
9.5698905975
 20
8.7117923644
 30
0.0
 10
9.5701176606
 20
8.7128446726
 30
0.0
 10
9.5703591363
 20
8.7144083473
 30
0.0
 10
9.5705818876
 20
8.7163581906
 30
0.0
 10
9.5707835319
 20
8.7186747757
 30
0.0
 10
9.5709607464
 20
8.7213390994
 30
0.0
 10
9.5710557528
 20
8.7232296915
 30
0.0
 10
9.57109955
 20
8.7242294809
 30
0.0
  0
LINE
  5
4D3
100
AcDbEntity
  8
0
100
AcDbLine
 62
9
  6
CONTINUOUS
 10
9.57109955
 20
8.7242294809
 11
9.5713813631
 21
8.7352615172
  0
SPLINE
  5
4D4
100
AcDbEntity
  8
0
100
AcDbSpline
 62
9
  6
CONTINUOUS
 70
0
 71
3
 72
13
 73
9
 74
0
 42
0.0000001
 43
0.0000001
 44
0.0000000001
 40
0.0
 40
0.0
 40
0.0
 40
0.0
 40
0.1555311096
 40
0.2590306551
 40
0.3813942117
 40
0.5225761696
 40
0.6775350985
 40
1.0
 40
1.0
 40
1.0
 40
1.0
 10
9.5713813704
 20
8.7352615168
 30
0.0
 10
9.571497569
 20
8.7346210205
 30
0.0
 10
9.5721778963
 20
8.7336677599
 30
0.0
 10
9.5734301118
 20
8.7326913565
 30
0.0
 10
9.5747939363
 20
8.7319601406
 30
0.0
 10
9.5764442174
 20
8.7313640017
 30
0.0
 10
9.578957102
 20
8.730729646
 30
0.0
 10
9.5809503927
 20
8.7304757969
 30
0.0
 10
9.5822985559
 20
8.7304129601
 30
0.0
  0
LINE
  5
4D5
100
AcDbEntity
  8
0
100
AcDbLine
 62
7
  6
CONTINUOUS
 10
9.5665150055
 20
9.7088492192
 11
9.5668594507
 21
9.7191619884
  0
LINE
  5
4D6
100
AcDbEntity
  8
0
100
AcDbLine
 62
7
  6
CONTINUOUS
 10
9.5677318111
 20
9.7326306047
 11
9.5687245521
 21
9.7429504442
  0
LINE
  5
4D7
100
AcDbEntity
  8
0
100
AcDbLine
 62
7
  6
CONTINUOUS
 10
9.5687245521
 20
9.7429504442
 11
9.5691159475
 21
9.7452839789
  0
LINE
  5
4D8
100
AcDbEntity
  8
0
100
AcDbLine
 62
7
  6
CONTINUOUS
 10
9.5691159475
 20
9.7452839789
 11
9.5692629089
 21
9.7455818916
  0
SPLINE
  5
4D9
100
AcDbEntity
  8
0
100
AcDbSpline
 62
9
  6
CONTINUOUS
 70
0
 71
3
 72
9
 73
5
 74
0
 42
0.0000001
 43
0.0000001
 44
0.0000000001
 40
0.0
 40
0.0
 40
0.0
 40
0.0
 40
0.5422287867
 40
1.0
 40
1.0
 40
1.0
 40
1.0
 10
9.5710256854
 20
8.7616312785
 30
0.0
 10
9.5708717249
 20
8.7659311662
 30
0.0
 10
9.5705044507
 20
8.7738583647
 30
0.0
 10
9.5699250649
 20
8.7817743062
 30
0.0
 10
9.5695737508
 20
8.7853897409
 30
0.0
  0
SPLINE
  5
4DA
100
AcDbEntity
  8
0
100
AcDbSpline
 62
9
  6
CONTINUOUS
 70
0
 71
3
 72
30
 73
26
 74
0
 42
0.0000001
 43
0.0000001
 44
0.0000000001
 40
0.0
 40
0.0
 40
0.0
 40
0.0
 40
0.1069270584
 40
0.2014898394
 40
0.2827491872
 40
0.349844199
 40
0.3779357378
 40
0.4023553399
 40
0.4230923542
 40
0.4401596781
 40
0.4536199692
 40
0.4636645255
 40
0.4708387709
 40
0.4737923705
 40
0.4766935894
 40
0.4835249787
 40
0.4931124194
 40
0.506126327
 40
0.5228322766
 40
0.5674874194
 40
0.6268867285
 40
0.7004948466
 40
0.7876808779
 40
0.8877532756
 40
1.0
 40
1.0
 40
1.0
 40
1.0
 10
9.5695737508
 20
8.7853897409
 30
0.0
 10
9.569482107
 20
8.7863328639
 30
0.0
 10
9.5692974445
 20
8.7881089301
 30
0.0
 10
9.5689946179
 20
8.7905964068
 30
0.0
 10
9.5686854374
 20
8.7927269655
 30
0.0
 10
9.568411535
 20
8.7942669372
 30
0.0
 10
9.5681850925
 20
8.7953025405
 30
0.0
 10
9.5680258093
 20
8.7959319407
 30
0.0
 10
9.5678673077
 20
8.7964603792
 30
0.0
 10
9.5677105723
 20
8.7968870486
 30
0.0
 10
9.5675550394
 20
8.797212535
 30
0.0
 10
9.5674026807
 20
8.7974382977
 30
0.0
 10
9.5672589399
 20
8.7975560751
 30
0.0
 10
9.5671438855
 20
8.7975812163
 30
0.0
 10
9.5670302555
 20
8.7975639162
 30
0.0
 10
9.5668889704
 20
8.7974532888
 30
0.0
 10
9.5667469407
 20
8.7972335203
 30
0.0
 10
9.5666061089
 20
8.7969135707
 30
0.0
 10
9.5664039876
 20
8.7962856957
 30
0.0
 10
9.5661778615
 20
8.7952377135
 30
0.0
 10
9.5659373243
 20
8.7936816677
 30
0.0
 10
9.5657154051
 20
8.7917425151
 30
0.0
 10
9.5655144777
 20
8.7894393772
 30
0.0
 10
9.5653377622
 20
8.7867909547
 30
0.0
 10
9.5652428857
 20
8.7849117476
 30
0.0
 10
9.5651991016
 20
8.7839180048
 30
0.0
  0
LINE
  5
4DB
100
AcDbEntity
  8
0
100
AcDbLine
 62
9
  6
CONTINUOUS
 10
9.5651991016
 20
8.7839180048
 11
9.5649136803
 21
8.7727518112
  0
LINE
  5
4DC
100
AcDbEntity
  8
0
100
AcDbLine
 62
9
  6
CONTINUOUS
 10
9.5649136803
 20
9.5392108925
 11
9.5649371144
 21
9.5294960285
  0
SPLINE
  5
4DD
100
AcDbEntity
  8
0
100
AcDbSpline
 62
9
  6
CONTINUOUS
 70
0
 71
3
 72
28
 73
24
 74
0
 42
0.0000001
 43
0.0000001
 44
0.0000000001
 40
0.0
 40
0.0
 40
0.0
 40
0.0
 40
0.2193590717
 40
0.3087557015
 40
0.3841424459
 40
0.4451897568
 40
0.4916443507
 40
0.5093752587
 40
0.5234794728
 40
0.5340918114
 40
0.5416146367
 40
0.5472736561
 40
0.5535431278
 40
0.562359196
 40
0.5744616228
 40
0.590105937
 40
0.6093869953
 40
0.6323375656
 40
0.6589622943
 40
0.7231501164
 40
0.8016491341
 40
0.8940702905
 40
1.0
 40
1.0
 40
1.0
 40
1.0
 10
9.5649371144
 20
9.5294960285
 30
0.0
 10
9.5649640846
 20
9.5282502999
 30
0.0
 10
9.5650189028
 20
9.5264969483
 30
0.0
 10
9.5651494903
 20
9.5243187277
 30
0.0
 10
9.5652575646
 20
9.5230402292
 30
0.0
 10
9.5653817856
 20
9.52200878
 30
0.0
 10
9.5655040134
 20
9.5213069161
 30
0.0
 10
9.5656170745
 20
9.5208767281
 30
0.0
 10
9.5656970712
 20
9.5206484241
 30
0.0
 10
9.5657807927
 20
9.5204856095
 30
0.0
 10
9.5658695553
 20
9.5203786573
 30
0.0
 10
9.5659850011
 20
9.5203455999
 30
0.0
 10
9.5660945542
 20
9.5204079537
 30
0.0
 10
9.5661915216
 20
9.5205284319
 30
0.0
 10
9.5662928948
 20
9.5207108296
 30
0.0
 10
9.5663966703
 20
9.5209571524
 30
0.0
 10
9.5665040035
 20
9.5212681072
 30
0.0
 10
9.5666141076
 20
9.5216435047
 30
0.0
 10
9.5667745893
 20
9.522269568
 30
0.0
 10
9.5669755012
 20
9.5232104193
 30
0.0
 10
9.5672128568
 20
9.5245247519
 30
0.0
 10
9.5674567358
 20
9.5260784249
 30
0.0
 10
9.5676122446
 20
9.5271943764
 30
0.0
 10
9.5676914447
 20
9.5277908515
 30
0.0
  0
SPLINE
  5
4DE
100
AcDbEntity
  8
0
100
AcDbSpline
 62
9
  6
CONTINUOUS
 70
0
 71
3
 72
10
 73
6
 74
0
 42
0.0000001
 43
0.0000001
 44
0.0000000001
 40
0.0
 40
0.0
 40
0.0
 40
0.0
 40
0.2007939157
 40
0.4385160662
 40
1.0
 40
1.0
 40
1.0
 40
1.0
 10
9.5676914447
 20
9.5277908515
 30
0.0
 10
9.5678823889
 20
9.5292288986
 30
0.0
 10
9.568252667
 20
9.5323756567
 30
0.0
 10
9.5689694071
 20
9.5395648561
 30
0.0
 10
9.5694216797
 20
9.5453218661
 30
0.0
 10
9.5697041958
 20
9.5493685489
 30
0.0
  0
SPLINE
  5
4DF
100
AcDbEntity
  8
0
100
AcDbSpline
 62
9
  6
CONTINUOUS
 70
0
 71
3
 72
14
 73
10
 74
0
 42
0.0000001
 43
0.0000001
 44
0.0000000001
 40
0.0
 40
0.0
 40
0.0
 40
0.0
 40
0.1794154876
 40
0.2883518302
 40
0.4111898509
 40
0.5483389728
 40
0.6961199212
 40
0.8487670635
 40
1.0
 40
1.0
 40
1.0
 40
1.0
 10
9.5713813704
 20
9.5885291953
 30
0.0
 10
9.5714912963
 20
9.5893216737
 30
0.0
 10
9.5721153611
 20
9.5905317319
 30
0.0
 10
9.5734030693
 20
9.5918379727
 30
0.0
 10
9.5747684613
 20
9.5927775073
 30
0.0
 10
9.5764283069
 20
9.5935349208
 30
0.0
 10
9.5782947588
 20
9.5941182125
 30
0.0
 10
9.5802731059
 20
9.5945128812
 30
0.0
 10
9.5816247399
 20
9.5946442355
 30
0.0
 10
9.5822985559
 20
9.5946721001
 30
0.0
  0
LINE
  5
4E0
100
AcDbEntity
  8
0
100
AcDbLine
 62
9
  6
CONTINUOUS
 10
9.5713813631
 20
9.5885291962
 11
9.5713588053
 21
9.5983000017
  0
SPLINE
  5
4E1
100
AcDbEntity
  8
0
100
AcDbSpline
 62
9
  6
CONTINUOUS
 70
0
 71
3
 72
27
 73
23
 74
0
 42
0.0000001
 43
0.0000001
 44
0.0000000001
 40
0.0
 40
0.0
 40
0.0
 40
0.0
 40
0.2188755055
 40
0.3831219006
 40
0.4438838629
 40
0.4900414153
 40
0.5076224948
 40
0.5215790954
 40
0.5320520658
 40
0.5394614808
 40
0.5450824332
 40
0.5514199308
 40
0.5603578409
 40
0.5726030106
 40
0.5883994438
 40
0.6078373654
 40
0.6309472214
 40
0.6577322473
 40
0.7222419172
 40
0.801058484
 40
0.8937849077
 40
1.0
 40
1.0
 40
1.0
 40
1.0
 10
9.5713588053
 20
9.5983000017
 30
0.0
 10
9.5713317736
 20
9.599549206
 30
0.0
 10
9.5712613417
 20
9.6017351718
 30
0.0
 10
9.5710974441
 20
9.6042655029
 30
0.0
 10
9.5709123478
 20
9.6058024969
 30
0.0
 10
9.5707895144
 20
9.6065036644
 30
0.0
 10
9.5706759247
 20
9.606932486
 30
0.0
 10
9.5705955542
 20
9.6071593618
 30
0.0
 10
9.5705115681
 20
9.6073203857
 30
0.0
 10
9.5704218378
 20
9.6074257881
 30
0.0
 10
9.5703051925
 20
9.6074550754
 30
0.0
 10
9.570196192
 20
9.6073892264
 30
0.0
 10
9.5700988294
 20
9.6072658732
 30
0.0
 10
9.5699970184
 20
9.6070797551
 30
0.0
 10
9.5698927296
 20
9.6068294413
 30
0.0
 10
9.5697849009
 20
9.6065140815
 30
0.0
 10
9.569674298
 20
9.6061339626
 30
0.0
 10
9.5695131772
 20
9.6055009443
 30
0.0
 10
9.5693114713
 20
9.604550678
 30
0.0
 10
9.5690732038
 20
9.6032242379
 30
0.0
 10
9.5688284508
 20
9.6016574879
 30
0.0
 10
9.5686723751
 20
9.6005325174
 30
0.0
 10
9.5685928989
 20
9.5999313973
 30
0.0
  0
LINE
  5
4E2
100
AcDbEntity
  8
0
100
AcDbLine
 62
9
  6
CONTINUOUS
 10
9.5685928989
 20
9.5999313973
 11
9.5675635787
 21
9.5905145355
  0
SPLINE
  5
4E3
100
AcDbEntity
  8
0
100
AcDbSpline
 62
9
  6
CONTINUOUS
 70
0
 71
3
 72
20
 73
16
 74
0
 42
0.0000001
 43
0.0000001
 44
0.0000000001
 40
0.0
 40
0.0
 40
0.0
 40
0.0
 40
0.2190183361
 40
0.4163581821
 40
0.5884132968
 40
0.7323806875
 40
0.7932641925
 40
0.8464613342
 40
0.8917714834
 40
0.9290786075
 40
0.9583360119
 40
0.9795576447
 40
0.9872152644
 40
0.9929989723
 40
1.0
 40
1.0
 40
1.0
 40
1.0
 10
9.582298366
 20
9.594673328
 30
0.0
 10
9.582314843
 20
9.596441857
 30
0.0
 10
9.5823336637
 20
9.599804002
 30
0.0
 10
9.5823167748
 20
9.6045555854
 30
0.0
 10
9.5822533019
 20
9.608700678
 30
0.0
 10
9.5821586053
 20
9.6117430085
 30
0.0
 10
9.5820548115
 20
9.6138242657
 30
0.0
 10
9.5819708672
 20
9.6151086823
 30
0.0
 10
9.5818765123
 20
9.616201489
 30
0.0
 10
9.5817736195
 20
9.6170990434
 30
0.0
 10
9.5816604391
 20
9.6177996288
 30
0.0
 10
9.5815567959
 20
9.6182569757
 30
0.0
 10
9.5814568973
 20
9.6185219074
 30
0.0
 10
9.5813860252
 20
9.6186647121
 30
0.0
 10
9.5812927111
 20
9.6187503771
 30
0.0
 10
9.5812364
 20
9.6187453578
 30
0.0
  0
SPLINE
  5
4E4
100
AcDbEntity
  8
0
100
AcDbSpline
 62
9
  6
CONTINUOUS
 70
0
 71
3
 72
27
 73
23
 74
0
 42
0.0000001
 43
0.0000001
 44
0.0000000001
 40
0.0
 40
0.0
 40
0.0
 40
0.0
 40
0.1664556703
 40
0.3415104906
 40
0.5137971201
 40
0.5955370824
 40
0.6725612968
 40
0.7436580714
 40
0.8077233002
 40
0.8637213905
 40
0.9108302208
 40
0.9308115678
 40
0.9482970911
 40
0.963239779
 40
0.975603186
 40
0.9853619945
 40
0.9892648691
 40
0.9925229617
 40
0.9951540581
 40
0.9971994795
 40
0.998748342
 40
1.0
 40
1.0
 40
1.0
 40
1.0
 10
9.582298366
 20
8.7304120241
 30
0.0
 10
9.5823360299
 20
8.7348368595
 30
0.0
 10
9.5823331674
 20
8.7439158945
 30
0.0
 10
9.5821337228
 20
8.757573411
 30
0.0
 10
9.5818091096
 20
8.7689757877
 30
0.0
 10
9.5814567231
 20
8.777769343
 30
0.0
 10
9.5811598693
 20
8.7838727549
 30
0.0
 10
9.5808307839
 20
8.7895039247
 30
0.0
 10
9.5804757674
 20
8.7945733933
 30
0.0
 10
9.5800998764
 20
8.7990016741
 30
0.0
 10
9.5797604389
 20
8.8022565269
 30
0.0
 10
9.5794760967
 20
8.8044869123
 30
0.0
 10
9.5792734661
 20
8.8058654291
 30
0.0
 10
9.5790710038
 20
8.8070390221
 30
0.0
 10
9.5788696198
 20
8.8080037141
 30
0.0
 10
9.578693984
 20
8.8086735941
 30
0.0
 10
9.5785490574
 20
8.8090996355
 30
0.0
 10
9.5784494257
 20
8.8093403553
 30
0.0
 10
9.578350717
 20
8.8095273679
 30
0.0
 10
9.5782523363
 20
8.8096613246
 30
0.0
 10
9.5781515623
 20
8.8097455227
 30
0.0
 10
9.578074855
 20
8.8097629435
 30
0.0
 10
9.5780417116
 20
8.8097600023
 30
0.0
  0
LINE
  5
4E5
100
AcDbEntity
  8
0
100
AcDbLine
 62
7
  6
CONTINUOUS
 10
9.5484466241
 20
9.4890471104
 11
9.5486550307
 21
9.4901674926
  0
LINE
  5
4E6
100
AcDbEntity
  8
0
100
AcDbLine
 62
7
  6
CONTINUOUS
 10
9.5486550307
 20
9.4901674926
 11
9.5495888792
 21
9.5036756291
  0
SPLINE
  5
4E7
100
AcDbEntity
  8
0
100
AcDbSpline
 62
7
  6
CONTINUOUS
 70
0
 71
3
 72
16
 73
12
 74
0
 42
0.0000001
 43
0.0000001
 44
0.0000000001
 40
0.0
 40
0.0
 40
0.0
 40
0.0
 40
0.2033558192
 40
0.3887830303
 40
0.5536180429
 40
0.6955163941
 40
0.8126141726
 40
0.9031367423
 40
0.9658696859
 40
0.9865562246
 40
1.0
 40
1.0
 40
1.0
 40
1.0
 10
9.5519512158
 20
9.5526932568
 30
0.0
 10
9.5520044611
 20
9.5540606814
 30
0.0
 10
9.5521035281
 20
9.5566750816
 30
0.0
 10
9.5522352281
 20
9.5603982676
 30
0.0
 10
9.5523421713
 20
9.5637084953
 30
0.0
 10
9.5524226763
 20
9.5665594742
 30
0.0
 10
9.5524766611
 20
9.5689109737
 30
0.0
 10
9.5525020764
 20
9.5707300111
 30
0.0
 10
9.5525040151
 20
9.5719008384
 30
0.0
 10
9.5524853783
 20
9.5725522867
 30
0.0
 10
9.5524719142
 20
9.5727818278
 30
0.0
 10
9.552460905
 20
9.5728716238
 30
0.0
  0
LINE
  5
4E8
100
AcDbEntity
  8
0
100
AcDbLine
 62
7
  6
CONTINUOUS
 10
9.5665308022
 20
9.5519607692
 11
9.5668964779
 21
9.5631099266
  0
LINE
  5
4E9
100
AcDbEntity
  8
0
100
AcDbLine
 62
7
  6
CONTINUOUS
 10
9.5673168545
 20
9.5700903606
 11
9.5678256397
 21
9.5761709578
  0
LINE
  5
4EA
100
AcDbEntity
  8
0
100
AcDbLine
 62
7
  6
CONTINUOUS
 10
9.5678256397
 20
9.5761709578
 11
9.5683562727
 21
9.5805509696
  0
SPLINE
  5
4EB
100
AcDbEntity
  8
0
100
AcDbSpline
 62
7
  6
CONTINUOUS
 70
0
 71
3
 72
12
 73
8
 74
0
 42
0.0000001
 43
0.0000001
 44
0.0000000001
 40
0.0
 40
0.0
 40
0.0
 40
0.0
 40
0.4164903415
 40
0.7218738349
 40
0.913478142
 40
0.9677163739
 40
1.0
 40
1.0
 40
1.0
 40
1.0
 10
9.5683562727
 20
9.5805509696
 30
0.0
 10
9.5684069529
 20
9.580875273
 30
0.0
 10
9.5685020275
 20
9.5814371052
 30
0.0
 10
9.5686543592
 20
9.5821386772
 30
0.0
 10
9.5687840958
 20
9.582558704
 30
0.0
 10
9.5688884136
 20
9.5827494615
 30
0.0
 10
9.5689506307
 20
9.5827941464
 30
0.0
 10
9.568976073
 20
9.5827939593
 30
0.0
  0
SPLINE
  5
4EC
100
AcDbEntity
  8
0
100
AcDbSpline
 62
7
  6
CONTINUOUS
 70
0
 71
3
 72
29
 73
25
 74
0
 42
0.0000001
 43
0.0000001
 44
0.0000000001
 40
0.0
 40
0.0
 40
0.0
 40
0.0
 40
0.0052559153
 40
0.0070018905
 40
0.008188263
 40
0.0089013272
 40
0.0094922341
 40
0.0104552562
 40
0.0119522486
 40
0.0166787418
 40
0.0237772051
 40
0.0332663718
 40
0.0451507394
 40
0.0594301026
 40
0.0761022585
 40
0.1166047661
 40
0.1665229954
 40
0.2256424531
 40
0.2937450506
 40
0.3706118444
 40
0.4560231733
 40
0.5497152474
 40
0.7604958306
 40
1.0
 40
1.0
 40
1.0
 40
1.0
 10
9.5524602527
 20
9.5728600373
 30
0.0
 10
9.5524569841
 20
9.5728854393
 30
0.0
 10
9.5524522253
 20
9.5729191234
 30
0.0
 10
9.5524414879
 20
9.5729580399
 30
0.0
 10
9.5524349391
 20
9.5729739533
 30
0.0
 10
9.5524258813
 20
9.5729844984
 30
0.0
 10
9.5524137903
 20
9.5729804339
 30
0.0
 10
9.5524060627
 20
9.5729672723
 30
0.0
 10
9.5523916408
 20
9.572935559
 30
0.0
 10
9.5523754105
 20
9.5728721674
 30
0.0
 10
9.5523545054
 20
9.5727706564
 30
0.0
 10
9.5523322386
 20
9.5726335827
 30
0.0
 10
9.5523079837
 20
9.572461587
 30
0.0
 10
9.5522821381
 20
9.572254438
 30
0.0
 10
9.5522428837
 20
9.5719084737
 30
0.0
 10
9.5521909345
 20
9.5713891932
 30
0.0
 10
9.5521257496
 20
9.5706634213
 30
0.0
 10
9.5520547244
 20
9.5698031608
 30
0.0
 10
9.5519781328
 20
9.5688116141
 30
0.0
 10
9.5518962775
 20
9.5676919854
 30
0.0
 10
9.5518094408
 20
9.5664477018
 30
0.0
 10
9.5516823674
 20
9.5645521022
 30
0.0
 10
9.5515143472
 20
9.5619066991
 30
0.0
 10
9.5513826049
 20
9.5597164774
 30
0.0
 10
9.5513140448
 20
9.5585514214
 30
0.0
  0
LINE
  5
4ED
100
AcDbEntity
  8
0
100
AcDbLine
 62
7
  6
CONTINUOUS
 10
9.5513140448
 20
9.5585514214
 11
9.5512753289
 21
9.5578907565
  0
LINE
  5
4EE
100
AcDbEntity
  8
0
100
AcDbLine
 62
7
  6
CONTINUOUS
 10
9.5493947687
 20
9.5203440735
 11
9.5485757517
 21
9.4991262043
  0
LINE
  5
4EF
100
AcDbEntity
  8
0
100
AcDbLine
 62
7
  6
CONTINUOUS
 10
9.5485757517
 20
9.4991262043
 11
9.5484296114
 21
9.489127898
  0
LINE
  5
4F0
100
AcDbEntity
  8
0
100
AcDbLine
 62
9
  6
CONTINUOUS
 10
9.5649285976
 20
9.2470314526
 11
9.565210668
 21
9.2359408223
  0
SPLINE
  5
4F1
100
AcDbEntity
  8
0
100
AcDbSpline
 62
9
  6
CONTINUOUS
 70
0
 71
3
 72
30
 73
26
 74
0
 42
0.0000001
 43
0.0000001
 44
0.0000000001
 40
0.0
 40
0.0
 40
0.0
 40
0.0
 40
0.1129611765
 40
0.2137881258
 40
0.301778114
 40
0.3762459839
 40
0.436549899
 40
0.4821325496
 40
0.4992993242
 40
0.5127624505
 40
0.5227627207
 40
0.529893404
 40
0.5328456151
 40
0.5357644404
 40
0.5426645891
 40
0.5523054164
 40
0.5653096844
 40
0.5818966296
 40
0.6021423322
 40
0.6260674749
 40
0.6536668817
 40
0.7198010845
 40
0.8001425958
 40
0.8938480763
 40
1.0
 40
1.0
 40
1.0
 40
1.0
 10
9.565210668
 20
9.2359408223
 30
0.0
 10
9.5652540429
 20
9.2349491789
 30
0.0
 10
9.5653480802
 20
9.2330729026
 30
0.0
 10
9.5655232172
 20
9.2304268082
 30
0.0
 10
9.5657224256
 20
9.228121774
 30
0.0
 10
9.5659425283
 20
9.226176294
 30
0.0
 10
9.5661812058
 20
9.224609475
 30
0.0
 10
9.5664055859
 20
9.2235498417
 30
0.0
 10
9.5666059082
 20
9.22291038
 30
0.0
 10
9.5667456525
 20
9.2225805276
 30
0.0
 10
9.5668867469
 20
9.2223510304
 30
0.0
 10
9.5670248669
 20
9.2222298733
 30
0.0
 10
9.5671380693
 20
9.2222020439
 30
0.0
 10
9.5672518466
 20
9.2222162217
 30
0.0
 10
9.56739675
 20
9.2223210533
 30
0.0
 10
9.5675482325
 20
9.2225328504
 30
0.0
 10
9.5677029071
 20
9.2228422805
 30
0.0
 10
9.5678586195
 20
9.2232519133
 30
0.0
 10
9.5680162306
 20
9.223762296
 30
0.0
 10
9.568174674
 20
9.2243728646
 30
0.0
 10
9.568400312
 20
9.2253819665
 30
0.0
 10
9.5686731929
 20
9.2268875762
 30
0.0
 10
9.5689813956
 20
9.2289756257
 30
0.0
 10
9.5692836251
 20
9.2314193027
 30
0.0
 10
9.5694679943
 20
9.233165829
 30
0.0
 10
9.5695595704
 20
9.2340940813
 30
0.0
  0
SPLINE
  5
4F2
100
AcDbEntity
  8
0
100
AcDbSpline
 62
9
  6
CONTINUOUS
 70
0
 71
3
 72
9
 73
5
 74
0
 42
0.0000001
 43
0.0000001
 44
0.0000000001
 40
0.0
 40
0.0
 40
0.0
 40
0.0
 40
0.4566749655
 40
1.0
 40
1.0
 40
1.0
 40
1.0
 10
9.5695595704
 20
9.2340940813
 30
0.0
 10
9.5699169477
 20
9.2377165995
 30
0.0
 10
9.5705050233
 20
9.2456678814
 30
0.0
 10
9.5708774623
 20
9.2536306576
 30
0.0
 10
9.571033863
 20
9.2579586143
 30
0.0
  0
SPLINE
  5
4F3
100
AcDbEntity
  8
0
100
AcDbSpline
 62
9
  6
CONTINUOUS
 70
0
 71
3
 72
13
 73
9
 74
0
 42
0.0000001
 43
0.0000001
 44
0.0000000001
 40
0.0
 40
0.0
 40
0.0
 40
0.0
 40
0.1555514571
 40
0.2590617598
 40
0.3814325311
 40
0.5226150766
 40
0.6775676674
 40
1.0
 40
1.0
 40
1.0
 40
1.0
 10
9.5713964856
 20
9.2845228808
 30
0.0
 10
9.5715127
 20
9.2851634599
 30
0.0
 10
9.5721931832
 20
9.2861168016
 30
0.0
 10
9.5734455641
 20
9.2870932373
 30
0.0
 10
9.5748094804
 20
9.2878244445
 30
0.0
 10
9.5764597801
 20
9.2884205413
 30
0.0
 10
9.5789725206
 20
9.2890547984
 30
0.0
 10
9.5809656461
 20
9.2893086033
 30
0.0
 10
9.5823136714
 20
9.2893714336
 30
0.0
  0
LINE
  5
4F4
100
AcDbEntity
  8
0
100
AcDbLine
 62
9
  6
CONTINUOUS
 10
9.5713964783
 20
9.2845228791
 11
9.5711135183
 21
9.2955808566
  0
SPLINE
  5
4F5
100
AcDbEntity
  8
0
100
AcDbSpline
 62
9
  6
CONTINUOUS
 70
0
 71
3
 72
30
 73
26
 74
0
 42
0.0000001
 43
0.0000001
 44
0.0000000001
 40
0.0
 40
0.0
 40
0.0
 40
0.0
 40
0.1127673706
 40
0.2133883348
 40
0.301152514
 40
0.3753691106
 40
0.4354052616
 40
0.4807203287
 40
0.4977595855
 40
0.5110983217
 40
0.5209828945
 40
0.5280287542
 40
0.5309661311
 40
0.5338947094
 40
0.5408741548
 40
0.5506315979
 40
0.5637666262
 40
0.5804909435
 40
0.6008767112
 40
0.6249422772
 40
0.6526807756
 40
0.7190840482
 40
0.7996823609
 40
0.8936289429
 40
1.0
 40
1.0
 40
1.0
 40
1.0
 10
9.5711135183
 20
9.2955808566
 30
0.0
 10
9.5710699821
 20
9.2965722555
 30
0.0
 10
9.5709756051
 20
9.298447775
 30
0.0
 10
9.5707998574
 20
9.301092244
 30
0.0
 10
9.5706000372
 20
9.3033946277
 30
0.0
 10
9.5703793579
 20
9.305336365
 30
0.0
 10
9.5701401518
 20
9.3068984742
 30
0.0
 10
9.5699152796
 20
9.3079536983
 30
0.0
 10
9.5697145337
 20
9.3085892942
 30
0.0
 10
9.5695745221
 20
9.3089161025
 30
0.0
 10
9.5694331928
 20
9.3091426385
 30
0.0
 10
9.569294227
 20
9.3092607275
 30
0.0
 10
9.5691809022
 20
9.3092855298
 30
0.0
 10
9.5690667641
 20
9.3092682304
 30
0.0
 10
9.5689222688
 20
9.3091597662
 30
0.0
 10
9.568770597
 20
9.3089442234
 30
0.0
 10
9.5686157426
 20
9.3086305304
 30
0.0
 10
9.5684598203
 20
9.3082164648
 30
0.0
 10
9.5683020449
 20
9.3077014595
 30
0.0
 10
9.5681434569
 20
9.3070861551
 30
0.0
 10
9.5679177301
 20
9.3060705617
 30
0.0
 10
9.5676447091
 20
9.3045567392
 30
0.0
 10
9.5673363836
 20
9.3024587306
 30
0.0
 10
9.5670341391
 20
9.3000050295
 30
0.0
 10
9.5668497928
 20
9.2982518164
 30
0.0
 10
9.5667582553
 20
9.2973202362
 30
0.0
  0
LINE
  5
4F6
100
AcDbEntity
  8
0
100
AcDbLine
 62
9
  6
CONTINUOUS
 10
9.5667582553
 20
9.2973202362
 11
9.565913838
 21
9.28646666
  0
SPLINE
  5
4F7
100
AcDbEntity
  8
0
100
AcDbSpline
 62
9
  6
CONTINUOUS
 70
0
 71
3
 72
22
 73
18
 74
0
 42
0.0000001
 43
0.0000001
 44
0.0000000001
 40
0.0
 40
0.0
 40
0.0
 40
0.0
 40
0.2135293495
 40
0.4085058402
 40
0.5802427035
 40
0.7253846961
 40
0.7871374854
 40
0.8412625863
 40
0.8875563156
 40
0.9258466581
 40
0.9559908304
 40
0.9679852069
 40
0.9779391689
 40
0.9859075392
 40
0.9920039254
 40
0.9964880823
 40
1.0
 40
1.0
 40
1.0
 40
1.0
 10
9.5823134811
 20
9.289372372
 30
0.0
 10
9.5822939083
 20
9.2916380071
 30
0.0
 10
9.5822362723
 20
9.2959722858
 30
0.0
 10
9.582086644
 20
9.3021274768
 30
0.0
 10
9.5818788132
 20
9.307554883
 30
0.0
 10
9.5816524152
 20
9.3115664821
 30
0.0
 10
9.581438044
 20
9.3143279187
 30
0.0
 10
9.5812747402
 20
9.316041022
 30
0.0
 10
9.5811017309
 20
9.317502849
 30
0.0
 10
9.580920028
 20
9.3187067472
 30
0.0
 10
9.5807535737
 20
9.319544492
 30
0.0
 10
9.5806100872
 20
9.3200785574
 30
0.0
 10
9.5805092399
 20
9.32037976
 30
0.0
 10
9.5804072843
 20
9.3206140553
 30
0.0
 10
9.5803035084
 20
9.3207820194
 30
0.0
 10
9.5801952144
 20
9.3208897001
 30
0.0
 10
9.5801077522
 20
9.3209136976
 30
0.0
 10
9.5800706208
 20
9.3209105531
 30
0.0
  0
SPLINE
  5
4F8
100
AcDbEntity
  8
0
100
AcDbSpline
 62
7
  6
CONTINUOUS
 70
0
 71
3
 72
9
 73
5
 74
0
 42
0.0000001
 43
0.0000001
 44
0.0000000001
 40
0.0
 40
0.0
 40
0.0
 40
0.0
 40
0.5392864659
 40
1.0
 40
1.0
 40
1.0
 40
1.0
 10
9.5666052979
 20
9.2653781997
 30
0.0
 10
9.5666622864
 20
9.2678437111
 30
0.0
 10
9.566827834
 20
9.2724141595
 30
0.0
 10
9.5671233304
 20
9.2769790572
 30
0.0
 10
9.5673165553
 20
9.279077032
 30
0.0
  0
SPLINE
  5
4F9
100
AcDbEntity
  8
0
100
AcDbSpline
 62
7
  6
CONTINUOUS
 70
0
 71
3
 72
15
 73
11
 74
0
 42
0.0000001
 43
0.0000001
 44
0.0000000001
 40
0.0
 40
0.0
 40
0.0
 40
0.0
 40
0.4136911268
 40
0.5825599823
 40
0.7237457624
 40
0.8358613733
 40
0.9184493034
 40
0.9487424072
 40
0.9719323645
 40
1.0
 40
1.0
 40
1.0
 40
1.0
 10
9.5673165553
 20
9.279077032
 30
0.0
 10
9.56739458
 20
9.2799241995
 30
0.0
 10
9.5675177322
 20
9.2811161804
 30
0.0
 10
9.5677196181
 20
9.2825910293
 30
0.0
 10
9.5678617057
 20
9.2834474721
 30
0.0
 10
9.5680053642
 20
9.2841240653
 30
0.0
 10
9.5681293554
 20
9.2845689311
 30
0.0
 10
9.5682378756
 20
9.2848304168
 30
0.0
 10
9.5683150199
 20
9.2849726061
 30
0.0
 10
9.5684031034
 20
9.2850634161
 30
0.0
 10
9.5684608231
 20
9.2850630489
 30
0.0
  0
LINE
  5
4FA
100
AcDbEntity
  8
0
100
AcDbLine
 62
7
  6
CONTINUOUS
 10
9.5499760718
 20
9.4062816392
 11
9.5503147821
 21
9.4123597918
  0
LINE
  5
4FB
100
AcDbEntity
  8
0
100
AcDbLine
 62
7
  6
CONTINUOUS
 10
9.5503147821
 20
9.4123597918
 11
9.5506589433
 21
9.4167375738
  0
LINE
  5
4FC
100
AcDbEntity
  8
0
100
AcDbLine
 62
7
  6
CONTINUOUS
 10
9.5506589433
 20
9.4167375738
 11
9.5510481335
 21
9.41898213
  0
SPLINE
  5
4FD
100
AcDbEntity
  8
0
100
AcDbSpline
 62
9
  6
CONTINUOUS
 70
0
 71
3
 72
21
 73
17
 74
0
 42
0.0000001
 43
0.0000001
 44
0.0000000001
 40
0.0
 40
0.0
 40
0.0
 40
0.0
 40
0.2194430133
 40
0.4172476934
 40
0.5897642989
 40
0.7341469767
 40
0.7952106992
 40
0.8485623306
 40
0.8939901482
 40
0.931357133
 40
0.9605820394
 40
0.9816069452
 40
0.9890479865
 40
0.9944699487
 40
0.9979712242
 40
1.0
 40
1.0
 40
1.0
 40
1.0
 10
9.5634094329
 20
9.4299254948
 30
0.0
 10
9.5634250824
 20
9.4316417104
 30
0.0
 10
9.5634473241
 20
9.4349049885
 30
0.0
 10
9.5634529883
 20
9.4395176254
 30
0.0
 10
9.5634294753
 20
9.4435431446
 30
0.0
 10
9.5633842622
 20
9.4464989704
 30
0.0
 10
9.5633305699
 20
9.4485223646
 30
0.0
 10
9.5632857429
 20
9.4497717389
 30
0.0
 10
9.5632343403
 20
9.4508353367
 30
0.0
 10
9.5631767816
 20
9.4517096612
 30
0.0
 10
9.5631139127
 20
9.4523920531
 30
0.0
 10
9.5630529112
 20
9.4528395542
 30
0.0
 10
9.5629982747
 20
9.4530990227
 30
0.0
 10
9.5629585356
 20
9.4532212583
 30
0.0
 10
9.5629244368
 20
9.4532993192
 30
0.0
 10
9.5628833571
 20
9.4533279154
 30
0.0
 10
9.5628675571
 20
9.4533264559
 30
0.0
  0
LINE
  5
4FE
100
AcDbEntity
  8
0
100
AcDbLine
 62
7
  6
CONTINUOUS
 10
9.552470715
 20
9.4236026886
 11
9.5524987402
 21
9.4331461874
  0
SPLINE
  5
4FF
100
AcDbEntity
  8
0
100
AcDbSpline
 62
7
  6
CONTINUOUS
 70
0
 71
3
 72
32
 73
28
 74
0
 42
0.0000001
 43
0.0000001
 44
0.0000000001
 40
0.0
 40
0.0
 40
0.0
 40
0.0
 40
0.2215852004
 40
0.3116685439
 40
0.3872559118
 40
0.4478891404
 40
0.4725194336
 40
0.4933327537
 40
0.5103197257
 40
0.5234898444
 40
0.5329024091
 40
0.5362659261
 40
0.5388240576
 40
0.5407655332
 40
0.5424990911
 40
0.547232704
 40
0.555225559
 40
0.5669082337
 40
0.5823908354
 40
0.6017059355
 40
0.6248594067
 40
0.6518456265
 40
0.6826458201
 40
0.7172074251
 40
0.7973631029
 40
0.8918013877
 40
1.0
 40
1.0
 40
1.0
 40
1.0
 10
9.5524987402
 20
9.4331461874
 30
0.0
 10
9.5524878545
 20
9.4343407583
 30
0.0
 10
9.5524627314
 20
9.4360209818
 30
0.0
 10
9.5523946574
 20
9.4381077264
 30
0.0
 10
9.5523359088
 20
9.4393264207
 30
0.0
 10
9.5522750301
 20
9.4401916128
 30
0.0
 10
9.5522180949
 20
9.4407607159
 30
0.0
 10
9.5521759082
 20
9.4410946629
 30
0.0
 10
9.5521316614
 20
9.4413660337
 30
0.0
 10
9.552085246
 20
9.4415742509
 30
0.0
 10
9.5520425024
 20
9.4417081283
 30
0.0
 10
9.5520038432
 20
9.4417815846
 30
0.0
 10
9.5519774278
 20
9.4418150306
 30
0.0
 10
9.551947886
 20
9.4418339673
 30
0.0
 10
9.5518998406
 20
9.4418311397
 30
0.0
 10
9.5518451181
 20
9.4417655283
 30
0.0
 10
9.5517902778
 20
9.4416489606
 30
0.0
 10
9.5517299213
 20
9.4414674336
 30
0.0
 10
9.5516678714
 20
9.441225164
 30
0.0
 10
9.5516030544
 20
9.4409192399
 30
0.0
 10
9.551536339
 20
9.4405508244
 30
0.0
 10
9.5514677248
 20
9.4401198344
 30
0.0
 10
9.5513974626
 20
9.4396269377
 30
0.0
 10
9.5512966521
 20
9.4388489012
 30
0.0
 10
9.5511694276
 20
9.4377284301
 30
0.0
 10
9.5510182914
 20
9.436211306
 30
0.0
 10
9.5509213976
 20
9.4351231262
 30
0.0
 10
9.5508719149
 20
9.4345419034
 30
0.0
  0
LINE
  5
500
100
AcDbEntity
  8
0
100
AcDbLine
 62
7
  6
CONTINUOUS
 10
9.5508719149
 20
9.4345419034
 11
9.5502329264
 21
9.4255924382
  0
LINE
  5
501
100
AcDbEntity
  8
0
100
AcDbLine
 62
7
  6
CONTINUOUS
 10
9.5484404518
 20
9.3760377548
 11
9.5484129771
 21
9.3665031444
  0
SPLINE
  5
502
100
AcDbEntity
  8
0
100
AcDbSpline
 62
7
  6
CONTINUOUS
 70
0
 71
3
 72
32
 73
28
 74
0
 42
0.0000001
 43
0.0000001
 44
0.0000000001
 40
0.0
 40
0.0
 40
0.0
 40
0.0
 40
0.2206324882
 40
0.3852569452
 40
0.4453435625
 40
0.4696961285
 40
0.4902293993
 40
0.5069349607
 40
0.5198244466
 40
0.5289633628
 40
0.5321997459
 40
0.5346485866
 40
0.5365241378
 40
0.538270918
 40
0.5404122675
 40
0.543259031
 40
0.5515210756
 40
0.5634898912
 40
0.5792648956
 40
0.5988748795
 40
0.6223238241
 40
0.6496048914
 40
0.6806983199
 40
0.715550708
 40
0.796277884
 40
0.8912700082
 40
1.0
 40
1.0
 40
1.0
 40
1.0
 10
9.5484129771
 20
9.3665031444
 30
0.0
 10
9.5484239639
 20
9.3653106629
 30
0.0
 10
9.5484564679
 20
9.3632285473
 30
0.0
 10
9.548542719
 20
9.3608225156
 30
0.0
 10
9.5486378113
 20
9.3594794518
 30
0.0
 10
9.5486950426
 20
9.3589148988
 30
0.0
 10
9.5487373855
 20
9.3585846813
 30
0.0
 10
9.548781767
 20
9.3583172058
 30
0.0
 10
9.5488283235
 20
9.3581131332
 30
0.0
 10
9.5488711735
 20
9.3579826612
 30
0.0
 10
9.5489101219
 20
9.357912283
 30
0.0
 10
9.5489367395
 20
9.3578807923
 30
0.0
 10
9.5489670491
 20
9.3578645318
 30
0.0
 10
9.5489997168
 20
9.3578692541
 30
0.0
 10
9.5490292357
 20
9.3578920573
 30
0.0
 10
9.549073119
 20
9.3579490068
 30
0.0
 10
9.5491246558
 20
9.3580638959
 30
0.0
 10
9.5491847701
 20
9.3582488017
 30
0.0
 10
9.5492472863
 20
9.358497285
 30
0.0
 10
9.5493122601
 20
9.3588085714
 30
0.0
 10
9.5493792302
 20
9.3591828791
 30
0.0
 10
9.5494480554
 20
9.3596197677
 30
0.0
 10
9.5495185367
 20
9.3601187304
 30
0.0
 10
9.549619597
 20
9.3609050541
 30
0.0
 10
9.5497471538
 20
9.3620360998
 30
0.0
 10
9.5498986929
 20
9.363566107
 30
0.0
 10
9.5499958676
 20
9.3646629609
 30
0.0
 10
9.5500454823
 20
9.3652485551
 30
0.0
  0
LINE
  5
503
100
AcDbEntity
  8
0
100
AcDbLine
 62
7
  6
CONTINUOUS
 10
9.5500454823
 20
9.3652485551
 11
9.5513056593
 21
9.3857847982
  0
ENDSEC
  0
SECTION
  2
OBJECTS
  0
DICTIONARY
  5
C
100
AcDbDictionary
280
0
281
1
  3
ACAD_GROUP
350
D
  3
ACAD_MLINESTYLE
350
17
  3
ACAD_LAYOUT
350
1A
  3
ACAD_PLOTSETTINGS
350
19
  3
ACAD_PLOTSTYLENAME
350
E
  0
DICTIONARY
  5
D
102
{ACAD_REACTORS
330
C
102
}
100
AcDbDictionary
280
0
281
1
  0
ACDBDICTIONARYWDFLT
  5
E
102
{ACAD_REACTORS
330
C
102
}
100
AcDbDictionary
281
1
  3
Normal
350
F
100
AcDbDictionaryWithDefault
340
F
  0
DICTIONARY
  5
17
102
{ACAD_REACTORS
330
C
102
}
100
AcDbDictionary
280
0
281
1
  3
Standard
350
18
  0
DICTIONARY
  5
19
102
{ACAD_REACTORS
330
C
102
}
100
AcDbDictionary
281
1
  0
DICTIONARY
  5
1A
102
{ACAD_REACTORS
330
C
102
}
100
AcDbDictionary
281
1
  3
Model
350
504
  3
Layout1
350
505
  0
ACDBPLACEHOLDER
  5
F
102
{ACAD_REACTORS
330
E
102
}
  0
MLINESTYLE
  5
18
102
{ACAD_REACTORS
330
17
102
}
100
AcDbMlineStyle
  2
STANDARD
 70
0
  3

 62
256
 51
90.0
 52
90.0
 71
2
 49
0.5
 62
256
  6
BYLAYER
 49
-0.5
 62
256
  6
BYLAYER
  0
LAYOUT
  5
504
102
{ACAD_REACTORS
330
1A
102
}
100
AcDbPlotSettings
  1

  2
none_device
  4
ANSI_C_(22.00_x_17.00_Inches)
  6

 40
0.0
 41
0.0
 42
0.0
 43
0.0
 44
558.8
 45
431.8
 46
0.0
 47
0.0
 48
0.0
 49
0.0
140
0.0
141
0.0
142
1.0
143
1.0
 70
1024
 72
0
 73
0
 74
0
  7

 75
0
147
1.0
148
0.0
149
0.0
100
AcDbLayout
  1
Model
 70
0
 71
0
 10
0.0
 20
0.0
 11
22.0
 21
17.0
 12
0.0
 22
0.0
 32
0.0
 14
0.0
 24
0.0
 34
0.0
 15
0.0
 25
0.0
 35
0.0
146
0.0
 13
0.0
 23
0.0
 33
0.0
 16
1.0
 26
0.0
 36
0.0
 17
0.0
 27
1.0
 37
0.0
 76
0
330
202
345
0
346
0
  0
LAYOUT
  5
505
102
{ACAD_REACTORS
330
1A
102
}
100
AcDbPlotSettings
  1

  2
none_device
  4
ANSI_C_(22.00_x_17.00_Inches)
  6

 40
0.0
 41
0.0
 42
0.0
 43
0.0
 44
558.8
 45
431.8
 46
0.0
 47
0.0
 48
0.0
 49
0.0
140
0.0
141
0.0
142
1.0
143
1.0
 70
0
 72
0
 73
0
 74
0
  7

 75
0
147
1.0
148
0.0
149
0.0
100
AcDbLayout
  1
Layout1
 70
0
 71
1
 10
0.0
 20
0.0
 11
22.0
 21
17.0
 12
0.0
 22
0.0
 32
0.0
 14
0.0
 24
0.0
 34
0.0
 15
0.0
 25
0.0
 35
0.0
146
0.0
 13
0.0
 23
0.0
 33
0.0
 16
1.0
 26
0.0
 36
0.0
 17
0.0
 27
1.0
 37
0.0
 76
0
330
203
345
0
346
0
  0
ENDSEC
  0
EOF
