999
DXF file: E:\BT Custom\CADOUTPUT\_TOP.dxf
999
Pro/ENGINEER 2018400 by Parametric Technology Corporation
  0
SECTION
  2
HEADER
  9
$ACADVER
  1
AC1018
  9
$DWGCODEPAGE
  3
ANSI_1252
  9
$EXTMAX
 10
22.0
 20
17.0
 30
0.0
  9
$EXTMIN
 10
0.0
 20
0.0
 30
0.0
  9
$LIMMIN
 10
0.0
 20
0.0
  9
$LIMMAX
 10
22.0
 20
17.0
  9
$VIEWCTR
 10
11.0
 20
8.5
  9
$VIEWSIZE
 40
17.0
  9
$CLAYER
  8
0
  9
$LTSCALE
 40
1.21
  9
$CELTYPE
  6
BYLAYER
  9
$DIMSCALE
 40
1.0
  9
$DIMASZ
 40
0.1
  9
$DIMEXO
 40
0.0625
  9
$DIMDLI
 40
0.836
  9
$DIMEXE
 40
0.125
  9
$DIMCEN
 40
0.198
  9
$DIMLFAC
 40
1.0
  9
$DIMBLK
  1
_FILLED
  9
$DIMALT
 70
1
  9
$DIMALTD
 70
2
  9
$DIMALTTD
 70
2
  9
$DIMALTF
 40
25.4
  9
$DIMTXT
 40
0.08
  9
$DIMTOL
 70
1
  9
$DIMLIM
 70
0
  9
$DIMTFAC
 40
1.0
  9
$DIMTP
 40
0.001
  9
$DIMTM
 40
0.001
  9
$DIMGAP
 40
0.09
  9
$DIMDSEP
 70
46
  9
$AUNITS
 70
0
  9
$PDMODE
 70
3
  9
$PDSIZE
 40
0.06
  9
$HANDSEED
  5
4EA
  9
$TILEMODE
 70
1
  9
$MEASUREMENT
 70
0
  9
$INSUNITS
 70
1
  0
ENDSEC
  0
SECTION
  2
CLASSES
  0
CLASS
  1
ACDBDICTIONARYWDFLT
  2
AcDbDictionaryWithDefault
  3
AutoCAD 2000
 90
0
 91
1
280
0
281
0
  0
CLASS
  1
ACDBPLACEHOLDER
  2
AcDbPlaceHolder
  3
AutoCAD 2000
 90
0
 91
1
280
0
281
0
  0
CLASS
  1
LAYOUT
  2
AcDbLayout
  3
AutoCAD 2000
 90
0
 91
0
280
0
281
0
  0
ENDSEC
  0
SECTION
  2
TABLES
  0
TABLE
  2
VPORT
  5
8
100
AcDbSymbolTable
 70
2
  0
VPORT
  5
1F4
100
AcDbSymbolTableRecord
100
AcDbViewportTableRecord
  2
*ACTIVE
 70
0
 10
0.0
 20
0.0
 11
1.0
 21
1.0
 12
11.0
 22
8.5
 13
0.0
 23
0.0
 14
1.0
 24
1.0
 15
0.0
 25
0.0
 16
0.0
 26
0.0
 36
1.0
 17
0.0
 27
0.0
 37
0.0
 40
17.0
 41
1.2941176471
 42
50.0
 43
0.0
 44
0.0
 50
0.0
 51
0.0
 71
0
 72
100
 73
1
 74
1
 75
0
 76
0
 77
0
 78
0
  0
ENDTAB
  0
TABLE
  2
LTYPE
  5
5
100
AcDbSymbolTable
 70
6
  0
LTYPE
  5
14
100
AcDbSymbolTableRecord
100
AcDbLinetypeTableRecord
  2
BYBLOCK
 70
0
  3

 72
65
 73
0
 40
0.0
  0
LTYPE
  5
15
100
AcDbSymbolTableRecord
100
AcDbLinetypeTableRecord
  2
BYLAYER
 70
0
  3

 72
65
 73
0
 40
0.0
  0
LTYPE
  5
16
100
AcDbSymbolTableRecord
100
AcDbLinetypeTableRecord
  2
CONTINUOUS
 70
64
  3
Solid line
 72
65
 73
0
 40
0.0
  0
LTYPE
  5
1F5
100
AcDbSymbolTableRecord
100
AcDbLinetypeTableRecord
  2
CENTER
 70
64
  3
____ _ ____ _ ____ _ ____ _ ____ _ ____ _ ____
 72
65
 73
4
 40
0.6
 49
0.375
 74
0
 49
-0.075
 74
0
 49
0.075
 74
0
 49
-0.075
 74
0
  0
LTYPE
  5
1F6
100
AcDbSymbolTableRecord
100
AcDbLinetypeTableRecord
  2
HIDDEN
 70
64
  3
- - - - - - - - - - - - - - - - - - - -
 72
65
 73
2
 40
0.2
 49
0.1
 74
0
 49
-0.1
 74
0
  0
LTYPE
  5
1F7
100
AcDbSymbolTableRecord
100
AcDbLinetypeTableRecord
  2
PHANTOM
 70
64
  3
_____ _ _ _____ _ _ _____ _ _ _____
 72
65
 73
6
 40
0.8
 49
0.45
 74
0
 49
-0.05
 74
0
 49
0.1
 74
0
 49
-0.05
 74
0
 49
0.1
 74
0
 49
-0.05
 74
0
  0
LTYPE
  5
1F8
100
AcDbSymbolTableRecord
100
AcDbLinetypeTableRecord
  2
DOT
 70
64
  3
. . . . . . . . . . . . . . . . . . . .
 72
65
 73
2
 40
0.2
 49
0.1
 74
0
 49
-0.1
 74
0
  0
LTYPE
  5
1F9
100
AcDbSymbolTableRecord
100
AcDbLinetypeTableRecord
  2
DASHED
 70
64
  3
- - - - - - - - - - - - - - - - - - - -
 72
65
 73
2
 40
0.2
 49
0.1
 74
0
 49
-0.1
 74
0
  0
ENDTAB
  0
TABLE
  2
LAYER
  5
2
100
AcDbSymbolTable
 70
36
  0
LAYER
  5
10
100
AcDbSymbolTableRecord
100
AcDbLayerTableRecord
  2
0
 70
0
 62
7
  6
CONTINUOUS
370
-3
390
F
  0
LAYER
  5
1FA
100
AcDbSymbolTableRecord
100
AcDbLayerTableRecord
  2
DEFAULT_1
 70
0
 62
7
  6
CENTER
370
-3
390
F
  0
LAYER
  5
1FB
100
AcDbSymbolTableRecord
100
AcDbLayerTableRecord
  2
DEFAULT_2
 70
0
 62
8
  6
HIDDEN
370
-3
390
F
  0
LAYER
  5
1FC
100
AcDbSymbolTableRecord
100
AcDbLayerTableRecord
  2
DEFAULT_3
 70
0
 62
7
  6
PHANTOM
370
-3
390
F
  0
LAYER
  5
1FD
100
AcDbSymbolTableRecord
100
AcDbLayerTableRecord
  2
ALL_FEATURES
 70
0
 62
7
  6
CONTINUOUS
370
-3
390
F
  0
LAYER
  5
1FE
100
AcDbSymbolTableRecord
100
AcDbLayerTableRecord
  2
AXES_FEATURES
 70
0
 62
7
  6
CONTINUOUS
370
-3
390
F
  0
LAYER
  5
1FF
100
AcDbSymbolTableRecord
100
AcDbLayerTableRecord
  2
DIMENSIONS
 70
0
 62
7
  6
CONTINUOUS
370
-3
390
F
  0
ENDTAB
  0
TABLE
  2
STYLE
  5
3
100
AcDbSymbolTable
 70
1
  0
STYLE
  5
11
100
AcDbSymbolTableRecord
100
AcDbTextStyleTableRecord
  2
STANDARD
 70
0
 40
0.0
 41
0.8
 50
0.0
 71
0
 42
0.2
  3
txt
  4

  0
STYLE
  5
200
100
AcDbSymbolTableRecord
100
AcDbTextStyleTableRecord
  2
TEXTSTYLE_1
 70
0
 40
0.0
 41
0.8
 50
0.0
 71
0
 42
0.2
  3
gdt
  4

  0
ENDTAB
  0
TABLE
  2
VIEW
  5
6
100
AcDbSymbolTable
 70
0
  0
ENDTAB
  0
TABLE
  2
UCS
  5
7
100
AcDbSymbolTable
 70
0
  0
ENDTAB
  0
TABLE
  2
APPID
  5
9
100
AcDbSymbolTable
 70
1
  0
APPID
  5
201
100
AcDbSymbolTableRecord
100
AcDbRegAppTableRecord
  2
ACAD
 70
0
  0
ENDTAB
  0
TABLE
  2
BLOCK_RECORD
  5
1
100
AcDbSymbolTable
 70
0
  0
BLOCK_RECORD
  5
202
100
AcDbSymbolTableRecord
100
AcDbBlockTableRecord
  2
*Model_Space
  0
BLOCK_RECORD
  5
203
100
AcDbSymbolTableRecord
100
AcDbBlockTableRecord
  2
*Paper_Space
  0
BLOCK_RECORD
  5
204
100
AcDbSymbolTableRecord
100
AcDbBlockTableRecord
  2
_FILLED
  0
ENDTAB
  0
TABLE
  2
DIMSTYLE
  5
A
100
AcDbSymbolTable
 70
1
100
AcDbDimStyleTable
 71
0
  0
DIMSTYLE
105
205
100
AcDbSymbolTableRecord
100
AcDbDimStyleTableRecord
  2
STANDARD
 70
0
  3

  4

 40
1.0
 41
0.1
 42
0.0625
 43
0.38
 44
0.125
 45
0.0
 46
0.0
 47
0.001
 48
0.001
140
0.08
141
0.09
142
0.0
143
25.4
144
1.0
145
0.0
146
1.0
147
0.09
 71
1.0
 72
0.0
 73
1
 74
1
 75
0
 76
0
 77
0
 78
4
 79
1
170
1
171
2
172
0
173
0
174
0
175
0
176
0
177
0
178
0
270
2
179
3
271
3
272
3
273
2
274
2
275
0
280
0
281
0
282
0
283
1
284
4
285
0
286
0
287
3
288
0
340
11
278
46
341
204
342
204
343
204
344
204
  0
ENDTAB
  0
ENDSEC
  0
SECTION
  2
BLOCKS
  0
BLOCK
  5
20
100
AcDbEntity
  8
0
100
AcDbBlockBegin
  2
*Model_Space
 70
0
 10
0.0
 20
0.0
 30
0.0
  3
*Model_Space
  1

  0
ENDBLK
  5
21
100
AcDbEntity
  8
0
100
AcDbBlockEnd
  0
BLOCK
  5
1C
100
AcDbEntity
  8
0
100
AcDbBlockBegin
  2
*Paper_Space
 70
0
 10
0.0
 20
0.0
 30
0.0
  3
*Paper_Space
  1

  0
ENDBLK
  5
1D
100
AcDbEntity
  8
0
100
AcDbBlockEnd
  0
BLOCK
  5
206
100
AcDbEntity
  8
0
100
AcDbBlockBegin
  2
_FILLED
 70
64
 10
0.0
 20
0.0
  3
_FILLED
  1

  0
SOLID
  5
207
100
AcDbEntity
  8
0
  6
BYBLOCK
 62
0
100
AcDbTrace
 10
0.0
 20
0.0
 11
-1.0
 21
0.2
 12
-1.0
 22
-0.2
 13
-1.0
 23
-0.2
  0
ENDBLK
  5
208
100
AcDbEntity
  8
0
  6
BYBLOCK
 62
0
100
AcDbBlockEnd
  0
ENDSEC
  0
SECTION
  2
ENTITIES
  0
LWPOLYLINE
  5
209
100
AcDbEntity
  8
0
100
AcDbPolyline
 62
7
  6
CONTINUOUS
 90
8
 70
0
 10
10.2077704289
 20
6.1821931716
 10
10.2109192572
 20
6.1793456465
 10
10.2138597485
 20
6.1780001746
 10
10.215774226
 20
6.1775298625
 10
10.2174893166
 20
6.177246716
 10
10.2196021842
 20
6.1769664411
 10
10.2223199383
 20
6.1766532715
 10
10.2257088961
 20
6.1763002921
  0
LWPOLYLINE
  5
20A
100
AcDbEntity
  8
0
100
AcDbPolyline
 62
7
  6
CONTINUOUS
 90
9
 70
0
 10
11.8675541919
 20
6.1761798833
 10
11.8713626133
 20
6.1765656007
 10
11.8744075952
 20
6.1769057261
 10
11.8767563633
 20
6.1772058758
 10
11.87858579
 20
6.1774932486
 10
11.8804630731
 20
6.1779206647
 10
11.8833496065
 20
6.1791386704
 10
11.8865840832
 20
6.181856253
 10
11.8889040259
 20
6.1861977979
  0
LWPOLYLINE
  5
20B
100
AcDbEntity
  8
0
100
AcDbPolyline
 62
7
  6
CONTINUOUS
 90
3
 70
0
 10
10.2257088961
 20
6.1763002921
 10
10.229804315
 20
6.1759061015
 10
10.2346045749
 20
6.1754731585
  0
LWPOLYLINE
  5
20C
100
AcDbEntity
  8
0
100
AcDbPolyline
 62
7
  6
CONTINUOUS
 90
4
 70
0
 10
10.3911552682
 20
6.1759384074
 10
10.3951383796
 20
6.1753596219
 10
10.4003146309
 20
6.174753143
 10
10.406682641
 20
6.1741276643
  0
LWPOLYLINE
  5
20D
100
AcDbEntity
  8
0
100
AcDbPolyline
 62
7
  6
CONTINUOUS
 90
3
 70
0
 10
10.3815450532
 20
6.1795776225
 10
10.3852629336
 20
6.1773784821
 10
10.3854740486
 20
6.1773138207
  0
LINE
  5
20E
100
AcDbEntity
  8
0
100
AcDbLine
 62
7
  6
CONTINUOUS
 10
9.7973183383
 20
6.2687920507
 11
9.7973183383
 21
6.7027920507
  0
LWPOLYLINE
  5
20F
100
AcDbEntity
  8
0
100
AcDbPolyline
 62
7
  6
CONTINUOUS
 90
3
 70
0
 10
11.5017446595
 20
6.1748219823
 10
11.5051084899
 20
6.1754917342
 10
11.5081669834
 20
6.1764457113
  0
LINE
  5
210
100
AcDbEntity
  8
0
100
AcDbLine
 62
7
  6
CONTINUOUS
 10
11.4976015099
 20
6.1742215142
 11
11.5016850788
 21
6.1748120192
  0
LWPOLYLINE
  5
211
100
AcDbEntity
  8
0
100
AcDbPolyline
 62
7
  6
CONTINUOUS
 90
8
 70
0
 10
11.6844516877
 20
6.1738067187
 10
11.6909286753
 20
6.1743922252
 10
11.6963674362
 20
6.1749643539
 10
11.700752803
 20
6.1755125747
 10
11.7041886448
 20
6.1760444568
 10
11.7069562641
 20
6.1766187653
 10
11.7096597965
 20
6.1774949212
 10
11.7132521453
 20
6.1797157218
  0
LWPOLYLINE
  5
212
100
AcDbEntity
  8
0
100
AcDbPolyline
 62
7
  6
CONTINUOUS
 90
3
 70
0
 10
11.4857079854
 20
6.1730355078
 10
11.4921934464
 20
6.1736147689
 10
11.4975141085
 20
6.1742104139
  0
LWPOLYLINE
  5
213
100
AcDbEntity
  8
0
100
AcDbPolyline
 62
7
  6
CONTINUOUS
 90
3
 70
0
 10
11.8575765993
 20
6.1752758208
 10
11.8629541436
 20
6.1757485461
 10
11.8675541919
 20
6.1761798833
  0
LINE
  5
214
100
AcDbEntity
  8
0
100
AcDbLine
 62
7
  6
CONTINUOUS
 10
11.918807925
 20
6.1777546741
 11
11.8937749449
 21
6.1758086149
  0
LINE
  5
215
100
AcDbEntity
  8
0
100
AcDbLine
 62
9
  6
CONTINUOUS
 10
11.4395259058
 20
6.1712313402
 11
11.4391020473
 21
6.1712013743
  0
LWPOLYLINE
  5
216
100
AcDbEntity
  8
0
100
AcDbPolyline
 62
7
  6
CONTINUOUS
 90
3
 70
0
 10
11.6688339051
 20
6.1726694627
 10
11.677026093
 20
6.1732248587
 10
11.6844516877
 20
6.1738067187
  0
LWPOLYLINE
  5
217
100
AcDbEntity
  8
0
100
AcDbPolyline
 62
7
  6
CONTINUOUS
 90
9
 70
0
 10
11.2383062876
 20
6.1718929196
 10
11.2466274343
 20
6.172393527
 10
11.2534090016
 20
6.1729691392
 10
11.2586926033
 20
6.1735992052
 10
11.2627253933
 20
6.174305315
 10
11.2662381913
 20
6.1753203128
 10
11.2702226686
 20
6.1776077439
 10
11.2736533466
 20
6.1820592914
 10
11.2747174631
 20
6.1860897785
  0
LINE
  5
218
100
AcDbEntity
  8
0
100
AcDbLine
 62
7
  6
CONTINUOUS
 10
11.6601406345
 20
6.172166909
 11
11.6688339051
 21
6.1726694627
  0
LWPOLYLINE
  5
219
100
AcDbEntity
  8
0
100
AcDbPolyline
 62
7
  6
CONTINUOUS
 90
3
 70
0
 10
11.4695138176
 20
6.172003803
 10
11.4781041806
 20
6.1724904865
 10
11.4857079854
 20
6.1730355078
  0
LINE
  5
21A
100
AcDbEntity
  8
0
100
AcDbLine
 62
9
  6
CONTINUOUS
 10
11.795434909
 20
6.1712769784
 11
11.794898359
 21
6.1712500606
  0
LINE
  5
21B
100
AcDbEntity
  8
0
100
AcDbLine
 62
7
  6
CONTINUOUS
 10
11.6512420485
 20
6.1717428225
 11
11.6601406345
 21
6.172166909
  0
LWPOLYLINE
  5
21C
100
AcDbEntity
  8
0
100
AcDbPolyline
 62
7
  6
CONTINUOUS
 90
8
 70
0
 10
10.8992729954
 20
6.1714217754
 10
10.9067032056
 20
6.1717439846
 10
10.912608311
 20
6.1721775856
 10
10.9171700161
 20
6.1727250035
 10
10.9209098004
 20
6.1735103627
 10
10.9250529125
 20
6.1753276028
 10
10.9292742001
 20
6.1797683056
 10
10.9308065713
 20
6.1847166333
  0
LINE
  5
21D
100
AcDbEntity
  8
0
100
AcDbLine
 62
7
  6
CONTINUOUS
 10
11.4601508952
 20
6.1716041361
 11
11.4695138176
 21
6.172003803
  0
LINE
  5
21E
100
AcDbEntity
  8
0
100
AcDbLine
 62
7
  6
CONTINUOUS
 10
11.2286117483
 20
6.171504359
 11
11.2383062876
 21
6.1718929196
  0
LWPOLYLINE
  5
21F
100
AcDbEntity
  8
0
100
AcDbPolyline
 62
7
  6
CONTINUOUS
 90
5
 70
0
 10
11.7948907669
 20
6.1712498838
 10
11.8005739475
 20
6.1714451599
 10
11.8070745668
 20
6.1717571775
 10
11.8143499451
 20
6.1721642305
 10
11.8220380633
 20
6.1726388306
  0
LINE
  5
220
100
AcDbEntity
  8
0
100
AcDbLine
 62
9
  6
CONTINUOUS
 10
11.6267465331
 20
6.1712620611
 11
11.6259151022
 21
6.1712338253
  0
LINE
  5
221
100
AcDbEntity
  8
0
100
AcDbLine
 62
7
  6
CONTINUOUS
 10
11.4503535034
 20
6.1713253392
 11
11.4601508952
 21
6.1716041361
  0
LWPOLYLINE
  5
222
100
AcDbEntity
  8
0
100
AcDbPolyline
 62
7
  6
CONTINUOUS
 90
8
 70
0
 10
10.4687230967
 20
6.1712487397
 10
10.4714282617
 20
6.1713202281
 10
10.4741942619
 20
6.1714691015
 10
10.4764817346
 20
6.1717054926
 10
10.4790652216
 20
6.1722389489
 10
10.4829645234
 20
6.1740800322
 10
10.4867441394
 20
6.1783231561
 10
10.4881401118
 20
6.1829993145
  0
LINE
  5
223
100
AcDbEntity
  8
0
100
AcDbLine
 62
7
  6
CONTINUOUS
 10
11.2624952565
 20
6.1455357318
 11
11.344671077
 21
6.147436405
  0
LINE
  5
224
100
AcDbEntity
  8
0
100
AcDbLine
 62
7
  6
CONTINUOUS
 10
11.2179045166
 20
6.1712699055
 11
11.2286117483
 21
6.171504359
  0
LINE
  5
225
100
AcDbEntity
  8
0
100
AcDbLine
 62
7
  6
CONTINUOUS
 10
11.7943512865
 20
6.1712237448
 11
11.7949002686
 21
6.1712351492
  0
LINE
  5
226
100
AcDbEntity
  8
0
100
AcDbLine
 62
7
  6
CONTINUOUS
 10
10.8903796295
 20
6.1712369267
 11
10.8992729954
 21
6.1714217754
  0
LINE
  5
227
100
AcDbEntity
  8
0
100
AcDbLine
 62
7
  6
CONTINUOUS
 10
11.2624977519
 20
6.1455357802
 11
11.2835387245
 21
6.1459643709
  0
LINE
  5
228
100
AcDbEntity
  8
0
100
AcDbLine
 62
7
  6
CONTINUOUS
 10
11.2159420596
 20
6.1712475405
 11
11.2179045166
 21
6.1712699055
  0
LWPOLYLINE
  5
229
100
AcDbEntity
  8
0
100
AcDbPolyline
 62
7
  6
CONTINUOUS
 90
9
 70
0
 10
10.6555346627
 20
6.1712013634
 10
10.6630919792
 20
6.1712740019
 10
10.6691235628
 20
6.1714752205
 10
10.6737548632
 20
6.1717877793
 10
10.6772893967
 20
6.1722287229
 10
10.6805102968
 20
6.1730130133
 10
10.6844282192
 20
6.1750764583
 10
10.6880146182
 20
6.1794231046
 10
10.6892333046
 20
6.1837691911
  0
LINE
  5
22A
100
AcDbEntity
  8
0
100
AcDbLine
 62
7
  6
CONTINUOUS
 10
10.8802616716
 20
6.1712194355
 11
10.8903796295
 21
6.1712369267
  0
LWPOLYLINE
  5
22B
100
AcDbEntity
  8
0
100
AcDbPolyline
 62
7
  6
CONTINUOUS
 90
3
 70
0
 10
11.4391012219
 20
6.1712013636
 10
11.4405863122
 20
6.1712038103
 10
11.4503535034
 20
6.1713253392
  0
LINE
  5
22C
100
AcDbEntity
  8
0
100
AcDbLine
 62
7
  6
CONTINUOUS
 10
11.2043401886
 20
6.1712509211
 11
11.2159421057
 21
6.1712475513
  0
LWPOLYLINE
  5
22D
100
AcDbEntity
  8
0
100
AcDbPolyline
 62
7
  6
CONTINUOUS
 90
3
 70
0
 10
10.4597864718
 20
6.1712622921
 10
10.4677214497
 20
6.1712344282
 10
10.4687335727
 20
6.1712489391
  0
LINE
  5
22E
100
AcDbEntity
  8
0
100
AcDbLine
 62
7
  6
CONTINUOUS
 10
10.8786942354
 20
6.1712326231
 11
10.8802616716
 21
6.1712194355
  0
LINE
  5
22F
100
AcDbEntity
  8
0
100
AcDbLine
 62
7
  6
CONTINUOUS
 10
10.646176853
 20
6.1712886504
 11
10.6555344801
 21
6.1712013743
  0
LWPOLYLINE
  5
230
100
AcDbEntity
  8
0
100
AcDbPolyline
 62
7
  6
CONTINUOUS
 90
5
 70
0
 10
11.6259060982
 20
6.1712339712
 10
11.6268880365
 20
6.1712198352
 10
11.6341872359
 20
6.1712377349
 10
11.6424577107
 20
6.1714231916
 10
11.6512420485
 20
6.1717428225
  0
LINE
  5
231
100
AcDbEntity
  8
0
100
AcDbLine
 62
7
  6
CONTINUOUS
 10
10.8669936807
 20
6.1714602119
 11
10.8786942387
 21
6.171232634
  0
LWPOLYLINE
  5
232
100
AcDbEntity
  8
0
100
AcDbPolyline
 62
7
  6
CONTINUOUS
 90
10
 70
0
 10
10.2997375753
 20
6.1712351227
 10
10.300005444
 20
6.1712293076
 10
10.3019177007
 20
6.1712047833
 10
10.3034678942
 20
6.1712219223
 10
10.3049306326
 20
6.1713064719
 10
10.3070713567
 20
6.1716683532
 10
10.3102551071
 20
6.1729673621
 10
10.3134225139
 20
6.1756392621
 10
10.3156284031
 20
6.179603292
 10
10.3161859217
 20
6.1823161559
  0
LINE
  5
233
100
AcDbEntity
  8
0
100
AcDbLine
 62
7
  6
CONTINUOUS
 10
10.7499630889
 20
6.1474364723
 11
10.8321389216
 21
6.1455357803
  0
LINE
  5
234
100
AcDbEntity
  8
0
100
AcDbLine
 62
7
  6
CONTINUOUS
 10
10.6365705888
 20
6.1715327556
 11
10.646176853
 21
6.1712886504
  0
LINE
  5
235
100
AcDbEntity
  8
0
100
AcDbLine
 62
9
  6
CONTINUOUS
 10
10.467891095
 20
6.1712769784
 11
10.4687230935
 21
6.1712487521
  0
LINE
  5
236
100
AcDbEntity
  8
0
100
AcDbLine
 62
7
  6
CONTINUOUS
 10
10.8573178566
 20
6.171829819
 11
10.8669936807
 21
6.1714602119
  0
LWPOLYLINE
  5
237
100
AcDbEntity
  8
0
100
AcDbPolyline
 62
7
  6
CONTINUOUS
 90
3
 70
0
 10
10.4413069404
 20
6.1718487406
 10
10.4507929214
 20
6.17148119
 10
10.4597864718
 20
6.1712622921
  0
LINE
  5
238
100
AcDbEntity
  8
0
100
AcDbLine
 62
7
  6
CONTINUOUS
 10
10.62709549
 20
6.1719087515
 11
10.6365705888
 21
6.1715327556
  0
LINE
  5
239
100
AcDbEntity
  8
0
100
AcDbLine
 62
9
  6
CONTINUOUS
 10
10.2992004633
 20
6.1712620611
 11
10.2997320263
 21
6.1712352578
  0
LINE
  5
23A
100
AcDbEntity
  8
0
100
AcDbLine
 62
7
  6
CONTINUOUS
 10
10.4317986863
 20
6.1723285737
 11
10.4413069404
 21
6.1718487406
  0
LINE
  5
23B
100
AcDbEntity
  8
0
100
AcDbLine
 62
7
  6
CONTINUOUS
 10
10.6181646611
 20
6.1723883663
 11
10.62709549
 21
6.1719087515
  0
LWPOLYLINE
  5
23C
100
AcDbEntity
  8
0
100
AcDbPolyline
 62
7
  6
CONTINUOUS
 90
4
 70
0
 10
10.2820031328
 20
6.1720490219
 10
10.2888923736
 20
6.1716735205
 10
10.2949985268
 20
6.1713913049
 10
10.2997320263
 20
6.1712352578
  0
LINE
  5
23D
100
AcDbEntity
  8
0
100
AcDbLine
 62
7
  6
CONTINUOUS
 10
10.4226406214
 20
6.172888982
 11
10.4317986863
 21
6.1723285737
  0
LINE
  5
23E
100
AcDbEntity
  8
0
100
AcDbLine
 62
7
  6
CONTINUOUS
 10
10.6101251396
 20
6.1729413849
 11
10.6181646611
 21
6.1723883663
  0
LINE
  5
23F
100
AcDbEntity
  8
0
100
AcDbLine
 62
9
  6
CONTINUOUS
 10
10.6551107722
 20
6.1712313402
 11
10.6555344801
 21
6.1712013743
  0
LINE
  5
240
100
AcDbEntity
  8
0
100
AcDbLine
 62
7
  6
CONTINUOUS
 10
10.4141789217
 20
6.1734984114
 11
10.4226406214
 21
6.172888982
  0
LINE
  5
241
100
AcDbEntity
  8
0
100
AcDbLine
 62
7
  6
CONTINUOUS
 10
10.1758287516
 20
6.1777546741
 11
10.2008615591
 21
6.1758086281
  0
LINE
  5
242
100
AcDbEntity
  8
0
100
AcDbLine
 62
7
  6
CONTINUOUS
 10
10.406682641
 20
6.1741276643
 11
10.4141789217
 21
6.1734984114
  0
LINE
  5
243
100
AcDbEntity
  8
0
100
AcDbLine
 62
7
  6
CONTINUOUS
 10
10.2346045749
 20
6.1754731585
 11
10.246170881
 21
6.174514046
  0
LINE
  5
244
100
AcDbEntity
  8
0
100
AcDbLine
 62
7
  6
CONTINUOUS
 10
10.6032136034
 20
6.1735389316
 11
10.6101251396
 21
6.1729413849
  0
LINE
  5
245
100
AcDbEntity
  8
0
100
AcDbLine
 62
7
  6
CONTINUOUS
 10
10.0363183383
 20
6.2440971252
 11
9.7973183383
 21
6.2687920507
  0
LINE
  5
246
100
AcDbEntity
  8
0
100
AcDbLine
 62
7
  6
CONTINUOUS
 10
10.59753281
 20
6.1741590349
 11
10.6035847825
 21
6.1735031557
  0
LINE
  5
247
100
AcDbEntity
  8
0
100
AcDbLine
 62
9
  6
CONTINUOUS
 10
10.8786286581
 20
6.1712620611
 11
10.8786942369
 21
6.171232634
  0
LINE
  5
248
100
AcDbEntity
  8
0
100
AcDbLine
 62
7
  6
CONTINUOUS
 10
10.3782021902
 20
6.1840726275
 11
10.3815450532
 21
6.1795776225
  0
LINE
  5
249
100
AcDbEntity
  8
0
100
AcDbLine
 62
7
  6
CONTINUOUS
 10
9.8793183383
 20
8.5588975708
 11
9.8793183383
 21
8.6231279891
  0
LINE
  5
24A
100
AcDbEntity
  8
0
100
AcDbLine
 62
7
  6
CONTINUOUS
 10
12.0583183383
 20
6.2440971252
 11
10.0363183383
 21
6.2440971252
  0
LINE
  5
24B
100
AcDbEntity
  8
0
100
AcDbLine
 62
7
  6
CONTINUOUS
 10
9.7973183383
 20
6.2687920507
 11
12.2973183383
 21
6.2687920507
  0
LWPOLYLINE
  5
24C
100
AcDbEntity
  8
0
100
AcDbPolyline
 62
7
  6
CONTINUOUS
 90
6
 70
0
 10
10.5794622797
 20
6.1828917186
 10
10.5829776591
 20
6.1784585564
 10
10.5868789779
 20
6.1762865327
 10
10.5901012766
 20
6.1753585185
 10
10.593621694
 20
6.1747033358
 10
10.598046982
 20
6.1740961429
  0
LWPOLYLINE
  5
24D
100
AcDbEntity
  8
0
100
AcDbPolyline
 62
7
  6
CONTINUOUS
 90
4
 70
0
 10
11.7852651324
 20
6.1724991383
 10
11.7884029825
 20
6.1714852539
 10
11.7904815539
 20
6.1712499528
 10
11.7922356687
 20
6.1712051908
  0
LWPOLYLINE
  5
24E
100
AcDbEntity
  8
0
100
AcDbPolyline
 62
7
  6
CONTINUOUS
 90
3
 70
0
 10
10.2052952477
 20
6.1885132539
 10
10.2056273033
 20
6.1865707367
 10
10.2077704289
 20
6.1821931716
  0
LINE
  5
24F
100
AcDbEntity
  8
0
100
AcDbLine
 62
7
  6
CONTINUOUS
 10
10.1604619172
 20
6.23844149
 11
10.1648162016
 21
6.1886717915
  0
LINE
  5
250
100
AcDbEntity
  8
0
100
AcDbLine
 62
7
  6
CONTINUOUS
 10
10.205295145
 20
6.1885133885
 11
10.2008101247
 21
6.2397774047
  0
LWPOLYLINE
  5
251
100
AcDbEntity
  8
0
100
AcDbPolyline
 62
7
  6
CONTINUOUS
 90
6
 70
0
 10
10.3772504272
 20
6.1878444974
 10
10.3783312094
 20
6.1837963733
 10
10.3818889289
 20
6.1793110793
 10
10.385487617
 20
6.1773062619
 10
10.3881708981
 20
6.1765156939
 10
10.3911552682
 20
6.1759384074
  0
LINE
  5
252
100
AcDbEntity
  8
0
100
AcDbLine
 62
7
  6
CONTINUOUS
 10
10.3772519839
 20
6.1878293301
 11
10.3782021902
 21
6.1840726275
  0
LINE
  5
253
100
AcDbEntity
  8
0
100
AcDbLine
 62
7
  6
CONTINUOUS
 10
10.3772492636
 20
6.1878432874
 11
10.3726300151
 21
6.2406415398
  0
LINE
  5
254
100
AcDbEntity
  8
0
100
AcDbLine
 62
7
  6
CONTINUOUS
 10
12.297317648
 20
6.7027920507
 11
9.7973190286
 21
6.7027920507
  0
LINE
  5
255
100
AcDbEntity
  8
0
100
AcDbLine
 62
9
  6
CONTINUOUS
 10
12.2190633397
 20
6.7319068909
 11
9.8755733368
 21
6.7319068909
  0
LINE
  5
256
100
AcDbEntity
  8
0
100
AcDbLine
 62
7
  6
CONTINUOUS
 10
10.5783465836
 20
6.1870249648
 11
10.5794622797
 21
6.1828917186
  0
LWPOLYLINE
  5
257
100
AcDbEntity
  8
0
100
AcDbPolyline
 62
7
  6
CONTINUOUS
 90
7
 70
0
 10
10.5783466724
 20
6.1870250388
 10
10.5792948862
 20
6.1832637329
 10
10.5825680251
 20
6.1787991852
 10
10.5863779562
 20
6.1764830729
 10
10.5895434184
 20
6.1754880756
 10
10.5930429228
 20
6.1747968597
 10
10.59753281
 20
6.1741590349
  0
LINE
  5
258
100
AcDbEntity
  8
0
100
AcDbLine
 62
7
  6
CONTINUOUS
 10
10.4679861037
 20
6.1697344624
 11
10.4678602885
 21
6.1711725367
  0
LINE
  5
259
100
AcDbEntity
  8
0
100
AcDbLine
 62
7
  6
CONTINUOUS
 10
11.7818536956
 20
6.1749345024
 11
11.7852651324
 21
6.1724991383
  0
LINE
  5
25A
100
AcDbEntity
  8
0
100
AcDbLine
 62
7
  6
CONTINUOUS
 10
10.5783460589
 20
6.1870260079
 11
10.5736638937
 21
6.2405434008
  0
LINE
  5
25B
100
AcDbEntity
  8
0
100
AcDbLine
 62
7
  6
CONTINUOUS
 10
10.6172499968
 20
6.1691543004
 11
10.6169598017
 21
6.1724712456
  0
LINE
  5
25C
100
AcDbEntity
  8
0
100
AcDbLine
 62
7
  6
CONTINUOUS
 10
10.5163183383
 20
8.1191279891
 11
10.5163183383
 21
8.1864984044
  0
LINE
  5
25D
100
AcDbEntity
  8
0
100
AcDbLine
 62
7
  6
CONTINUOUS
 10
10.5573183383
 20
7.6628578994
 11
10.5573183383
 21
8.1191279891
  0
LINE
  5
25E
100
AcDbEntity
  8
0
100
AcDbLine
 62
7
  6
CONTINUOUS
 10
10.3161860173
 20
6.1823159618
 11
10.3204657997
 21
6.2312340978
  0
LWPOLYLINE
  5
25F
100
AcDbEntity
  8
0
100
AcDbPolyline
 62
7
  6
CONTINUOUS
 90
9
 70
0
 10
10.8199201874
 20
6.1860746868
 10
10.8211392083
 20
6.1817180918
 10
10.8247871821
 20
6.177297006
 10
10.8288341487
 20
6.1751446115
 10
10.8323990981
 20
6.1741874431
 10
10.8365856421
 20
6.1734947896
 10
10.8420403331
 20
6.1728743373
 10
10.8489444837
 20
6.172312821
 10
10.8573178566
 20
6.171829819
  0
LINE
  5
260
100
AcDbEntity
  8
0
100
AcDbLine
 62
7
  6
CONTINUOUS
 10
10.7383320189
 20
6.1583863915
 11
10.7340635455
 21
6.2071752654
  0
LINE
  5
261
100
AcDbEntity
  8
0
100
AcDbLine
 62
7
  6
CONTINUOUS
 10
10.5973183383
 20
7.4287920507
 11
10.5973183383
 21
7.3037920507
  0
LINE
  5
262
100
AcDbEntity
  8
0
100
AcDbLine
 62
7
  6
CONTINUOUS
 10
10.4881413952
 20
6.1830004556
 11
10.4926000771
 21
6.2339634228
  0
LINE
  5
263
100
AcDbEntity
  8
0
100
AcDbLine
 62
7
  6
CONTINUOUS
 10
10.8199196545
 20
6.1860733795
 11
10.8152205496
 21
6.2397843938
  0
LINE
  5
264
100
AcDbEntity
  8
0
100
AcDbLine
 62
7
  6
CONTINUOUS
 10
10.8441570041
 20
6.1683007169
 11
10.8437691656
 21
6.1727337309
  0
LINE
  5
265
100
AcDbEntity
  8
0
100
AcDbLine
 62
7
  6
CONTINUOUS
 10
10.5757846262
 20
6.1657491689
 11
10.5779960837
 21
6.191026243
  0
LINE
  5
266
100
AcDbEntity
  8
0
100
AcDbLine
 62
7
  6
CONTINUOUS
 10
10.6892338625
 20
6.183768267
 11
10.6938076576
 21
6.236046984
  0
LWPOLYLINE
  5
267
100
AcDbEntity
  8
0
100
AcDbPolyline
 62
7
  6
CONTINUOUS
 90
9
 70
0
 10
11.1638286441
 20
6.184731568
 10
11.1652497025
 20
6.1799854048
 10
11.1690686122
 20
6.1756883061
 10
11.1731397034
 20
6.1737021109
 10
11.1767342656
 20
6.1728592788
 10
11.181109469
 20
6.1722824325
 10
11.187076927
 20
6.1718095057
 10
11.1948761933
 20
6.1714523857
 10
11.2043401886
 20
6.1712509211
  0
LINE
  5
268
100
AcDbEntity
  8
0
100
AcDbLine
 62
7
  6
CONTINUOUS
 10
10.8898183383
 20
7.4936008616
 11
10.8898183383
 21
7.4287920507
  0
LINE
  5
269
100
AcDbEntity
  8
0
100
AcDbLine
 62
7
  6
CONTINUOUS
 10
10.7250460496
 20
6.1663011006
 11
10.7294474772
 21
6.2166096486
  0
LINE
  5
26A
100
AcDbEntity
  8
0
100
AcDbLine
 62
7
  6
CONTINUOUS
 10
10.5973300192
 20
7.3037920507
 11
11.4973066573
 21
7.3037920507
  0
LINE
  5
26B
100
AcDbEntity
  8
0
100
AcDbLine
 62
7
  6
CONTINUOUS
 10
11.1223152271
 20
6.156960212
 11
11.117975037
 21
6.2065688119
  0
LINE
  5
26C
100
AcDbEntity
  8
0
100
AcDbLine
 62
7
  6
CONTINUOUS
 10
11.1426832277
 20
6.1671582542
 11
11.1381817842
 21
6.2186099889
  0
LINE
  5
26D
100
AcDbEntity
  8
0
100
AcDbLine
 62
7
  6
CONTINUOUS
 10
11.1638278869
 20
6.1847332332
 11
11.1591753753
 21
6.2379116839
  0
LINE
  5
26E
100
AcDbEntity
  8
0
100
AcDbLine
 62
7
  6
CONTINUOUS
 10
10.8443274422
 20
6.1564877209
 11
10.8450889866
 21
6.1651922131
  0
LINE
  5
26F
100
AcDbEntity
  8
0
100
AcDbLine
 62
7
  6
CONTINUOUS
 10
10.9308072263
 20
6.184718246
 11
10.9354617385
 21
6.2379195642
  0
LINE
  5
270
100
AcDbEntity
  8
0
100
AcDbLine
 62
7
  6
CONTINUOUS
 10
11.4973066573
 20
7.4287920507
 11
10.5973300192
 21
7.4287920507
  0
LINE
  5
271
100
AcDbEntity
  8
0
100
AcDbLine
 62
7
  6
CONTINUOUS
 10
11.2048183383
 20
7.4936008616
 11
10.8898183383
 21
7.4936008616
  0
LINE
  5
272
100
AcDbEntity
  8
0
100
AcDbLine
 62
7
  6
CONTINUOUS
 10
10.7023183383
 20
7.5791279891
 11
10.5573183383
 21
7.6628437781
  0
LINE
  5
273
100
AcDbEntity
  8
0
100
AcDbLine
 62
7
  6
CONTINUOUS
 10
11.7792428028
 20
6.1789543586
 11
11.7818536956
 21
6.1749345024
  0
LWPOLYLINE
  5
274
100
AcDbEntity
  8
0
100
AcDbPolyline
 62
7
  6
CONTINUOUS
 90
10
 70
0
 10
11.4054032722
 20
6.1837692634
 10
11.4065520383
 20
6.1795668991
 10
11.4100172189
 20
6.1752256488
 10
11.4138534238
 20
6.1731086202
 10
11.4169064423
 20
6.1723067248
 10
11.4200232471
 20
6.1718720808
 10
11.4238933449
 20
6.1715631043
 10
11.4287405095
 20
6.1713470014
 10
11.4345855078
 20
6.1712258679
 10
11.4391020473
 20
6.1712013743
  0
LINE
  5
275
100
AcDbEntity
  8
0
100
AcDbLine
 62
7
  6
CONTINUOUS
 10
11.2503092344
 20
6.1564877209
 11
11.2495616896
 21
6.1650321972
  0
LINE
  5
276
100
AcDbEntity
  8
0
100
AcDbLine
 62
7
  6
CONTINUOUS
 10
10.9519542781
 20
6.1671686438
 11
10.9564551992
 21
6.2186144069
  0
LINE
  5
277
100
AcDbEntity
  8
0
100
AcDbLine
 62
7
  6
CONTINUOUS
 10
10.9723216612
 20
6.1569602049
 11
10.9766622209
 21
6.2065730298
  0
LINE
  5
278
100
AcDbEntity
  8
0
100
AcDbLine
 62
7
  6
CONTINUOUS
 10
11.3923183383
 20
7.5791279891
 11
11.5373183383
 21
7.6628437781
  0
LINE
  5
279
100
AcDbEntity
  8
0
100
AcDbLine
 62
7
  6
CONTINUOUS
 10
10.7023189901
 20
7.5791279891
 11
11.3923176865
 21
7.5791279891
  0
LINE
  5
27A
100
AcDbEntity
  8
0
100
AcDbLine
 62
7
  6
CONTINUOUS
 10
11.3695896763
 20
6.1663115124
 11
11.3651893415
 21
6.2166075689
  0
LINE
  5
27B
100
AcDbEntity
  8
0
100
AcDbLine
 62
7
  6
CONTINUOUS
 10
11.4054028132
 20
6.1837682763
 11
11.4008295487
 21
6.2360409291
  0
LINE
  5
27C
100
AcDbEntity
  8
0
100
AcDbLine
 62
7
  6
CONTINUOUS
 10
11.2048183383
 20
7.4936008616
 11
11.2048183383
 21
7.4287920507
  0
LINE
  5
27D
100
AcDbEntity
  8
0
100
AcDbLine
 62
7
  6
CONTINUOUS
 10
10.5573183383
 20
7.6865151392
 11
11.5373183383
 21
7.6865151392
  0
LWPOLYLINE
  5
27E
100
AcDbEntity
  8
0
100
AcDbPolyline
 62
7
  6
CONTINUOUS
 90
8
 70
0
 10
11.6064978502
 20
6.1829844621
 10
11.6080203329
 20
6.1780785947
 10
11.6118719109
 20
6.1739292315
 10
11.6157548134
 20
6.1721726172
 10
11.6183367388
 20
6.1716659786
 10
11.6206838863
 20
6.1714367249
 10
11.6235581595
 20
6.1712928652
 10
11.6259151022
 20
6.1712338253
  0
LINE
  5
27F
100
AcDbEntity
  8
0
100
AcDbLine
 62
7
  6
CONTINUOUS
 10
11.5188529176
 20
6.1657388003
 11
11.516640573
 21
6.191026015
  0
LINE
  5
280
100
AcDbEntity
  8
0
100
AcDbLine
 62
7
  6
CONTINUOUS
 10
11.2504786817
 20
6.1682903026
 11
11.2508691662
 21
6.1727535607
  0
LINE
  5
281
100
AcDbEntity
  8
0
100
AcDbLine
 62
7
  6
CONTINUOUS
 10
11.2747180839
 20
6.1860883973
 11
11.2794164519
 21
6.2397909895
  0
LINE
  5
282
100
AcDbEntity
  8
0
100
AcDbLine
 62
7
  6
CONTINUOUS
 10
11.6064964618
 20
6.1829855222
 11
11.6020359157
 21
6.2339697976
  0
LINE
  5
283
100
AcDbEntity
  8
0
100
AcDbLine
 62
7
  6
CONTINUOUS
 10
11.4973183383
 20
7.4287920507
 11
11.4973183383
 21
7.3037920507
  0
LINE
  5
284
100
AcDbEntity
  8
0
100
AcDbLine
 62
7
  6
CONTINUOUS
 10
11.5373183383
 20
8.1191279891
 11
11.5373183383
 21
7.6628578994
  0
LINE
  5
285
100
AcDbEntity
  8
0
100
AcDbLine
 62
7
  6
CONTINUOUS
 10
11.3563046577
 20
6.1583863915
 11
11.3605731313
 21
6.2071752689
  0
LWPOLYLINE
  5
286
100
AcDbEntity
  8
0
100
AcDbPolyline
 62
7
  6
CONTINUOUS
 90
8
 70
0
 10
11.7784492786
 20
6.1823310485
 10
11.7793006463
 20
6.1788216569
 10
11.7820060801
 20
6.1747955757
 10
11.7854824392
 20
6.1724120525
 10
11.7886077455
 20
6.1714637463
 10
11.7906444333
 20
6.1712565609
 10
11.7924466548
 20
6.1712194774
 10
11.794898359
 20
6.1712500606
  0
LINE
  5
287
100
AcDbEntity
  8
0
100
AcDbLine
 62
7
  6
CONTINUOUS
 10
11.7784507561
 20
6.1823161414
 11
11.7792428028
 21
6.1789543586
  0
LINE
  5
288
100
AcDbEntity
  8
0
100
AcDbLine
 62
7
  6
CONTINUOUS
 10
11.7784492277
 20
6.1823308828
 11
11.7741705067
 21
6.2312368878
  0
LINE
  5
289
100
AcDbEntity
  8
0
100
AcDbLine
 62
7
  6
CONTINUOUS
 10
11.5783183383
 20
8.1191279891
 11
11.5783183383
 21
8.1864984044
  0
LINE
  5
28A
100
AcDbEntity
  8
0
100
AcDbLine
 62
7
  6
CONTINUOUS
 10
11.4773875538
 20
6.1691647465
 11
11.477676398
 21
6.1724662506
  0
LINE
  5
28B
100
AcDbEntity
  8
0
100
AcDbLine
 62
7
  6
CONTINUOUS
 10
11.5162906191
 20
6.1870260235
 11
11.5209731999
 21
6.2405481671
  0
LINE
  5
28C
100
AcDbEntity
  8
0
100
AcDbLine
 62
7
  6
CONTINUOUS
 10
11.6033183383
 20
8.1864984044
 11
11.6062176687
 21
8.1869279351
  0
LINE
  5
28D
100
AcDbEntity
  8
0
100
AcDbLine
 62
7
  6
CONTINUOUS
 10
10.5163183383
 20
8.1191279891
 11
10.5573183383
 21
8.1191279891
  0
LINE
  5
28E
100
AcDbEntity
  8
0
100
AcDbLine
 62
7
  6
CONTINUOUS
 10
11.5373183383
 20
8.1191279891
 11
11.5783183383
 21
8.1191279891
  0
LINE
  5
28F
100
AcDbEntity
  8
0
100
AcDbLine
 62
7
  6
CONTINUOUS
 10
10.4913183383
 20
8.1864984044
 11
10.4884190079
 21
8.1869279351
  0
LINE
  5
290
100
AcDbEntity
  8
0
100
AcDbLine
 62
7
  6
CONTINUOUS
 10
11.6266496207
 20
6.1697240342
 11
11.6267751275
 21
6.1711585829
  0
LINE
  5
291
100
AcDbEntity
  8
0
100
AcDbLine
 62
7
  6
CONTINUOUS
 10
11.5153376306
 20
6.1832538916
 11
11.5162901049
 21
6.1870251024
  0
LINE
  5
292
100
AcDbEntity
  8
0
100
AcDbLine
 62
7
  6
CONTINUOUS
 10
10.4913183383
 20
8.1864984044
 11
11.6033183383
 21
8.1864984044
  0
LINE
  5
293
100
AcDbEntity
  8
0
100
AcDbLine
 62
9
  6
CONTINUOUS
 10
11.6062176687
 20
8.1869279351
 11
10.4884190079
 21
8.1869279351
  0
LINE
  5
294
100
AcDbEntity
  8
0
100
AcDbLine
 62
7
  6
CONTINUOUS
 10
11.7173859638
 20
6.1878281646
 11
11.7220076731
 21
6.2406545437
  0
LINE
  5
295
100
AcDbEntity
  8
0
100
AcDbLine
 62
7
  6
CONTINUOUS
 10
10.0479103265
 20
8.3491279891
 11
12.0467263501
 21
8.3491279891
  0
LINE
  5
296
100
AcDbEntity
  8
0
100
AcDbLine
 62
9
  6
CONTINUOUS
 10
10.0279921301
 20
8.3673209326
 11
12.0666445465
 21
8.3673209326
  0
LINE
  5
297
100
AcDbEntity
  8
0
100
AcDbLine
 62
7
  6
CONTINUOUS
 10
11.8893427286
 20
6.1885285111
 11
11.8938269937
 21
6.2397838958
  0
LINE
  5
298
100
AcDbEntity
  8
0
100
AcDbLine
 62
7
  6
CONTINUOUS
 10
11.9341747584
 20
6.2384414781
 11
11.929820475
 21
6.1886717915
  0
LINE
  5
299
100
AcDbEntity
  8
0
100
AcDbLine
 62
7
  6
CONTINUOUS
 10
11.8889040259
 20
6.1861977979
 11
11.8893426728
 21
6.1885283767
  0
LINE
  5
29A
100
AcDbEntity
  8
0
100
AcDbLine
 62
9
  6
CONTINUOUS
 10
9.8927868075
 20
8.5399941556
 11
12.2018498691
 21
8.5399941556
  0
LINE
  5
29B
100
AcDbEntity
  8
0
100
AcDbLine
 62
9
  6
CONTINUOUS
 10
9.8793183383
 20
8.5588975708
 11
12.2153183383
 21
8.5588975708
  0
LINE
  5
29C
100
AcDbEntity
  8
0
100
AcDbLine
 62
7
  6
CONTINUOUS
 10
12.2153183383
 20
8.6231279891
 11
9.8793183383
 21
8.6231279891
  0
LINE
  5
29D
100
AcDbEntity
  8
0
100
AcDbLine
 62
7
  6
CONTINUOUS
 10
12.2153183383
 20
8.5588975708
 11
12.2153183383
 21
8.6231279891
  0
LINE
  5
29E
100
AcDbEntity
  8
0
100
AcDbLine
 62
7
  6
CONTINUOUS
 10
12.2973183383
 20
6.2687920507
 11
12.2973183383
 21
6.7027920507
  0
LINE
  5
29F
100
AcDbEntity
  8
0
100
AcDbLine
 62
9
  6
CONTINUOUS
 10
11.2160076657
 20
6.1712769784
 11
11.2159421057
 21
6.1712475513
  0
LWPOLYLINE
  5
2A0
100
AcDbEntity
  8
0
100
AcDbPolyline
 62
7
  6
CONTINUOUS
 90
3
 70
0
 10
11.7132521453
 20
6.1797157218
 10
11.7165496425
 20
6.1843482181
 10
11.7173846989
 20
6.1878294028
  0
LWPOLYLINE
  5
2A1
100
AcDbEntity
  8
0
100
AcDbPolyline
 62
7
  6
CONTINUOUS
 90
3
 70
0
 10
11.5081717149
 20
6.176447599
 10
11.5119883768
 20
6.1787301256
 10
11.515340261
 20
6.1832601802
  0
LINE
  5
2A2
100
AcDbEntity
  8
0
100
AcDbLine
 62
7
  6
CONTINUOUS
 10
12.3953183383
 20
8.8191279891
 11
9.6993183383
 21
8.8191279891
  0
ARC
  5
2A3
100
AcDbEntity
  8
0
100
AcDbCircle
 62
7
  6
CONTINUOUS
 10
10.1712457563
 20
-1.1326139958
 40
7.3582314619
100
AcDbArc
 50
87.2673076083
 51
87.5092075532
  0
ARC
  5
2A4
100
AcDbEntity
  8
0
100
AcDbCircle
 62
7
  6
CONTINUOUS
 10
10.2206382588
 20
-0.1437365132
 40
6.3681241184
100
AcDbArc
 50
86.7973861249
 51
87.2870136436
  0
ARC
  5
2A5
100
AcDbEntity
  8
0
100
AcDbCircle
 62
9
  6
CONTINUOUS
 10
10.1238664894
 20
4.2674526788
 40
1.9128922739
100
AcDbArc
 50
85.7545047566
 51
86.1626491218
  0
ARC
  5
2A6
100
AcDbEntity
  8
0
100
AcDbCircle
 62
9
  6
CONTINUOUS
 10
10.1466372765
 20
4.6098964558
 40
1.5696923303
100
AcDbArc
 50
86.1554185613
 51
86.4761728969
  0
ARC
  5
2A7
100
AcDbEntity
  8
0
100
AcDbCircle
 62
7
  6
CONTINUOUS
 10
9.7069483005
 20
7.7175871622
 40
1.0
100
AcDbArc
 50
279.7078853868
 51
335.5565381955
  0
ARC
  5
2A8
100
AcDbEntity
  8
0
100
AcDbCircle
 62
7
  6
CONTINUOUS
 10
10.2038919228
 20
5.3735132003
 40
0.8033144179
100
AcDbArc
 50
85.8819853341
 51
86.4132078177
  0
ARC
  5
2A9
100
AcDbEntity
  8
0
100
AcDbCircle
 62
7
  6
CONTINUOUS
 10
10.3180978079
 20
6.974762402
 40
0.802910421
100
AcDbArc
 50
265.8822919119
 51
266.4138134165
  0
ARC
  5
2AA
100
AcDbEntity
  8
0
100
AcDbCircle
 62
7
  6
CONTINUOUS
 10
9.8823183383
 20
6.6924796801
 40
0.04
100
AcDbArc
 50
99.7078853868
 51
165.0598886377
  0
ARC
  5
2AB
100
AcDbEntity
  8
0
100
AcDbCircle
 62
7
  6
CONTINUOUS
 10
10.3538852511
 20
2.6344142556
 40
3.526863064
100
AcDbArc
 50
87.1894852924
 51
87.4026303515
  0
ARC
  5
2AC
100
AcDbEntity
  8
0
100
AcDbCircle
 62
7
  6
CONTINUOUS
 10
10.3753815932
 20
3.110068066
 40
3.0507237645
100
AcDbArc
 50
87.4011089682
 51
87.6337181242
  0
ARC
  5
2AD
100
AcDbEntity
  8
0
100
AcDbCircle
 62
9
  6
CONTINUOUS
 10
10.6209142618
 20
4.2755013927
 40
1.8943732881
100
AcDbArc
 50
88.5241172661
 51
89.0258421422
  0
ARC
  5
2AE
100
AcDbEntity
  8
0
100
AcDbCircle
 62
7
  6
CONTINUOUS
 10
10.4477998627
 20
4.5942688549
 40
1.564431619
100
AcDbArc
 50
87.2579498643
 51
87.5305218798
  0
ARC
  5
2AF
100
AcDbEntity
  8
0
100
AcDbCircle
 62
9
  6
CONTINUOUS
 10
10.6295337688
 20
4.7793500411
 40
1.3904509203
100
AcDbArc
 50
89.0279893013
 51
89.6384971359
  0
ARC
  5
2B0
100
AcDbEntity
  8
0
100
AcDbCircle
 62
7
  6
CONTINUOUS
 10
10.6315659224
 20
5.0091162344
 40
1.1498232332
100
AcDbArc
 50
88.0884224432
 51
88.7352620285
  0
ARC
  5
2B1
100
AcDbEntity
  8
0
100
AcDbCircle
 62
7
  6
CONTINUOUS
 10
10.6320224149
 20
5.0163192763
 40
1.1426089929
100
AcDbArc
 50
87.4475411533
 51
88.0992519749
  0
ARC
  5
2B2
100
AcDbEntity
  8
0
100
AcDbCircle
 62
9
  6
CONTINUOUS
 10
10.3834263261
 20
5.3073630175
 40
0.8706868767
100
AcDbArc
 50
85.9938495096
 51
86.8831866273
  0
ARC
  5
2B3
100
AcDbEntity
  8
0
100
AcDbCircle
 62
7
  6
CONTINUOUS
 10
10.6383463035
 20
5.3149047614
 40
0.8439595452
100
AcDbArc
 50
88.7372545674
 51
89.5334393312
  0
ARC
  5
2B4
100
AcDbEntity
  8
0
100
AcDbCircle
 62
9
  6
CONTINUOUS
 10
10.3880211162
 20
5.3973736654
 40
0.7805596092
100
AcDbArc
 50
86.8607214694
 51
87.838988566
  0
ARC
  5
2B5
100
AcDbEntity
  8
0
100
AcDbCircle
 62
9
  6
CONTINUOUS
 10
10.6080947064
 20
5.4996950994
 40
0.6780902334
100
AcDbArc
 50
87.4836312328
 51
88.6272591827
  0
ARC
  5
2B6
100
AcDbEntity
  8
0
100
AcDbCircle
 62
9
  6
CONTINUOUS
 10
10.6107638461
 20
5.6243537819
 40
0.5534034759
100
AcDbArc
 50
88.5943335841
 51
89.6518696392
  0
ARC
  5
2B7
100
AcDbEntity
  8
0
100
AcDbCircle
 62
7
  6
CONTINUOUS
 10
10.6525961311
 20
5.6076800593
 40
0.5500233751
100
AcDbArc
 50
87.8102013132
 51
88.5486248391
  0
ARC
  5
2B8
100
AcDbEntity
  8
0
100
AcDbCircle
 62
9
  6
CONTINUOUS
 10
10.6115455669
 20
5.7391411998
 40
0.4386134352
100
AcDbArc
 50
89.6628764506
 51
89.9963062789
  0
ARC
  5
2B9
100
AcDbEntity
  8
0
100
AcDbCircle
 62
7
  6
CONTINUOUS
 10
10.4113986431
 20
5.7885166019
 40
0.3874205419
100
AcDbArc
 50
86.4730303701
 51
87.5215036708
  0
ARC
  5
2BA
100
AcDbEntity
  8
0
100
AcDbCircle
 62
7
  6
CONTINUOUS
 10
10.6226695037
 20
5.8745219601
 40
0.3012999727
100
AcDbArc
 50
87.2086852053
 51
88.5097543137
  0
ARC
  5
2BB
100
AcDbEntity
  8
0
100
AcDbCircle
 62
7
  6
CONTINUOUS
 10
10.6247513529
 20
5.9160299355
 40
0.2597398691
100
AcDbArc
 50
85.8039159865
 51
87.2214812676
  0
ARC
  5
2BC
100
AcDbEntity
  8
0
100
AcDbCircle
 62
7
  6
CONTINUOUS
 10
10.6239493101
 20
5.9333033193
 40
0.2425053399
100
AcDbArc
 50
88.4508439047
 51
89.9667820646
  0
ARC
  5
2BD
100
AcDbEntity
  8
0
100
AcDbCircle
 62
7
  6
CONTINUOUS
 10
10.6191118575
 20
8.0442290187
 40
1.8904146058
100
AcDbArc
 50
267.6355421089
 51
267.9503681569
  0
ARC
  5
2BE
100
AcDbEntity
  8
0
100
AcDbCircle
 62
7
  6
CONTINUOUS
 10
10.582664183
 20
7.0353273317
 40
0.8808549009
100
AcDbArc
 50
267.9725351036
 51
268.32551434
  0
ARC
  5
2BF
100
AcDbEntity
  8
0
100
AcDbCircle
 62
9
  6
CONTINUOUS
 10
10.4805975586
 20
7.0414298953
 40
0.8704562059
100
AcDbArc
 50
265.9935657613
 51
266.8820967037
  0
ARC
  5
2C0
100
AcDbEntity
  8
0
100
AcDbCircle
 62
9
  6
CONTINUOUS
 10
10.4760507211
 20
6.9522954037
 40
0.7812064125
100
AcDbArc
 50
266.859507777
 51
267.8390539984
  0
ARC
  5
2C1
100
AcDbEntity
  8
0
100
AcDbCircle
 62
9
  6
CONTINUOUS
 10
10.6585789364
 20
6.8493540961
 40
0.6781531632
100
AcDbArc
 50
267.4842038855
 51
268.6279444499
  0
ARC
  5
2C2
100
AcDbEntity
  8
0
100
AcDbCircle
 62
9
  6
CONTINUOUS
 10
10.4664569446
 20
6.8405626138
 40
0.6690918222
100
AcDbArc
 50
264.9428629745
 51
265.9997108968
  0
ARC
  5
2C3
100
AcDbEntity
  8
0
100
AcDbCircle
 62
9
  6
CONTINUOUS
 10
10.6548116625
 20
6.7666928288
 40
0.5954062198
100
AcDbArc
 50
266.2360582994
 51
267.4972181475
  0
ARC
  5
2C4
100
AcDbEntity
  8
0
100
AcDbCircle
 62
9
  6
CONTINUOUS
 10
10.6554170375
 20
6.692779524
 40
0.5215481043
100
AcDbArc
 50
268.5633349503
 51
269.9662227632
  0
ARC
  5
2C5
100
AcDbEntity
  8
0
100
AcDbCircle
 62
7
  6
CONTINUOUS
 10
10.5688084076
 20
6.5693003363
 40
0.4146220957
100
AcDbArc
 50
268.3575772762
 51
268.6761884118
  0
ARC
  5
2C6
100
AcDbEntity
  8
0
100
AcDbCircle
 62
7
  6
CONTINUOUS
 10
10.4544122278
 20
6.5601981814
 40
0.387426805
100
AcDbArc
 50
266.4735771673
 51
267.5220775934
  0
ARC
  5
2C7
100
AcDbEntity
  8
0
100
AcDbCircle
 62
7
  6
CONTINUOUS
 10
10.6439154696
 20
6.4154256292
 40
0.2425622844
100
AcDbArc
 50
268.451357336
 51
269.9668065852
  0
ARC
  5
2C8
100
AcDbEntity
  8
0
100
AcDbCircle
 62
7
  6
CONTINUOUS
 10
10.5632060763
 20
6.1694045531
 40
0.0146931912
100
AcDbArc
 50
279.6886283407
 51
283.5513339143
  0
ARC
  5
2C9
100
AcDbEntity
  8
0
100
AcDbCircle
 62
7
  6
CONTINUOUS
 10
10.4806081467
 20
6.1724401738
 40
0.0137969733
100
AcDbArc
 50
249.167827842
 51
251.4116396544
  0
ARC
  5
2CA
100
AcDbEntity
  8
0
100
AcDbCircle
 62
7
  6
CONTINUOUS
 10
10.4800314992
 20
6.1707982325
 40
0.0120787603
100
AcDbArc
 50
185.0450300696
 51
205.086936042
  0
ARC
  5
2CB
100
AcDbEntity
  8
0
100
AcDbCircle
 62
7
  6
CONTINUOUS
 10
10.4799922908
 20
6.170783665
 40
0.012036242
100
AcDbArc
 50
223.1815075978
 51
236.9760070222
  0
ARC
  5
2CC
100
AcDbEntity
  8
0
100
AcDbCircle
 62
7
  6
CONTINUOUS
 10
10.5638579513
 20
6.1666402828
 40
0.0118570677
100
AcDbArc
 50
289.7504850008
 51
333.596195011
  0
ARC
  5
2CD
100
AcDbEntity
  8
0
100
AcDbCircle
 62
9
  6
CONTINUOUS
 10
10.8958280238
 20
4.1283678836
 40
2.0190763555
100
AcDbArc
 50
89.2095104882
 51
89.5753439965
  0
ARC
  5
2CE
100
AcDbEntity
  8
0
100
AcDbCircle
 62
9
  6
CONTINUOUS
 10
10.8979621094
 20
4.444394675
 40
1.7030424399
100
AcDbArc
 50
89.5683384739
 51
89.8950261911
  0
ARC
  5
2CF
100
AcDbEntity
  8
0
100
AcDbCircle
 62
9
  6
CONTINUOUS
 10
10.8834712126
 20
4.801079965
 40
1.3687173012
100
AcDbArc
 50
89.5649299167
 51
90.2515058437
  0
ARC
  5
2D0
100
AcDbEntity
  8
0
100
AcDbCircle
 62
7
  6
CONTINUOUS
 10
10.9081079941
 20
5.1719629097
 40
0.974914875
100
AcDbArc
 50
89.1375527374
 51
89.5393553101
  0
ARC
  5
2D1
100
AcDbEntity
  8
0
100
AcDbCircle
 62
9
  6
CONTINUOUS
 10
10.8816970146
 20
5.2167435804
 40
0.9530499038
100
AcDbArc
 50
90.2545365486
 51
91.1194872461
  0
ARC
  5
2D2
100
AcDbEntity
  8
0
100
AcDbCircle
 62
9
  6
CONTINUOUS
 10
10.8978078279
 20
5.2561173942
 40
0.8913194673
100
AcDbArc
 50
89.9464607289
 51
90.5951021912
  0
ARC
  5
2D3
100
AcDbEntity
  8
0
100
AcDbCircle
 62
7
  6
CONTINUOUS
 10
10.8860232677
 20
5.2817727132
 40
0.8770886358
100
AcDbArc
 50
88.5801989334
 51
89.4373227015
  0
ARC
  5
2D4
100
AcDbEntity
  8
0
100
AcDbCircle
 62
7
  6
CONTINUOUS
 10
10.8864195086
 20
5.3278066251
 40
0.8310530923
100
AcDbArc
 50
89.4334789597
 51
90.3152616696
  0
ARC
  5
2D5
100
AcDbEntity
  8
0
100
AcDbCircle
 62
7
  6
CONTINUOUS
 10
10.9093816015
 20
5.361759516
 40
0.7851142038
100
AcDbArc
 50
89.5209402961
 51
89.9896827895
  0
ARC
  5
2D6
100
AcDbEntity
  8
0
100
AcDbCircle
 62
9
  6
CONTINUOUS
 10
10.8660057234
 20
5.5969027662
 40
0.5808556877
100
AcDbArc
 50
88.086493502
 51
89.4284472263
  0
ARC
  5
2D7
100
AcDbEntity
  8
0
100
AcDbCircle
 62
9
  6
CONTINUOUS
 10
10.8663601827
 20
5.6471239418
 40
0.5306335054
100
AcDbArc
 50
89.412626413
 51
90.8577036793
  0
ARC
  5
2D8
100
AcDbEntity
  8
0
100
AcDbCircle
 62
7
  6
CONTINUOUS
 10
10.8925256198
 20
5.7453524439
 40
0.4123147425
100
AcDbArc
 50
88.3788969143
 51
89.4391755714
  0
ARC
  5
2D9
100
AcDbEntity
  8
0
100
AcDbCircle
 62
7
  6
CONTINUOUS
 10
10.9090358509
 20
5.7401401819
 40
0.4067338157
100
AcDbArc
 50
89.9313795758
 51
90.6690935156
  0
ARC
  5
2DA
100
AcDbEntity
  8
0
100
AcDbCircle
 62
7
  6
CONTINUOUS
 10
10.8926118212
 20
5.7541297868
 40
0.4035369763
100
AcDbArc
 50
89.4392158868
 51
89.7199112407
  0
ARC
  5
2DB
100
AcDbEntity
  8
0
100
AcDbCircle
 62
7
  6
CONTINUOUS
 10
10.8927008939
 20
5.8102010445
 40
0.3474660024
100
AcDbArc
 50
89.6894005205
 51
90.5810580863
  0
ARC
  5
2DC
100
AcDbEntity
  8
0
100
AcDbCircle
 62
7
  6
CONTINUOUS
 10
10.8712896132
 20
5.9117951645
 40
0.2640167356
100
AcDbArc
 50
87.7040775741
 51
89.4380574415
  0
ARC
  5
2DD
100
AcDbEntity
  8
0
100
AcDbCircle
 62
7
  6
CONTINUOUS
 10
10.8713343542
 20
5.9164615187
 40
0.259350167
100
AcDbArc
 50
89.4378305821
 51
89.9069559825
  0
ARC
  5
2DE
100
AcDbEntity
  8
0
100
AcDbCircle
 62
9
  6
CONTINUOUS
 10
10.9279132211
 20
7.4007859057
 40
1.2551162117
100
AcDbArc
 50
268.3438016595
 51
268.8311033441
  0
ARC
  5
2DF
100
AcDbEntity
  8
0
100
AcDbCircle
 62
7
  6
CONTINUOUS
 10
10.9399367285
 20
7.3303545974
 40
1.1848207077
100
AcDbArc
 50
269.9955736151
 51
270.2610605975
  0
ARC
  5
2E0
100
AcDbEntity
  8
0
100
AcDbCircle
 62
7
  6
CONTINUOUS
 10
10.7087625133
 20
7.2828978042
 40
1.1282299977
100
AcDbArc
 50
267.4063000304
 51
267.9659642138
  0
ARC
  5
2E1
100
AcDbEntity
  8
0
100
AcDbCircle
 62
7
  6
CONTINUOUS
 10
10.7053522966
 20
7.1110276009
 40
0.9563269278
100
AcDbArc
 50
268.7613942588
 51
268.9781517661
  0
ARC
  5
2E2
100
AcDbEntity
  8
0
100
AcDbCircle
 62
7
  6
CONTINUOUS
 10
10.7049560966
 20
7.0952175498
 40
0.9405186645
100
AcDbArc
 50
268.5592297459
 51
269.3620440117
  0
ARC
  5
2E3
100
AcDbEntity
  8
0
100
AcDbCircle
 62
7
  6
CONTINUOUS
 10
10.9101337002
 20
7.0611335652
 40
0.9063995876
100
AcDbArc
 50
269.0144590818
 51
269.1383827227
  0
ARC
  5
2E4
100
AcDbEntity
  8
0
100
AcDbCircle
 62
7
  6
CONTINUOUS
 10
10.9101265193
 20
7.060403006
 40
0.905669003
100
AcDbArc
 50
269.1381419606
 51
269.3366245706
  0
ARC
  5
2E5
100
AcDbEntity
  8
0
100
AcDbCircle
 62
7
  6
CONTINUOUS
 10
10.69740932
 20
7.0379283427
 40
0.8829977642
100
AcDbArc
 50
266.8337906315
 51
267.4229063783
  0
ARC
  5
2E6
100
AcDbEntity
  8
0
100
AcDbCircle
 62
7
  6
CONTINUOUS
 10
10.909609197
 20
7.0324772066
 40
0.8777384473
100
AcDbArc
 50
268.7039467496
 51
269.0165175002
  0
ARC
  5
2E7
100
AcDbEntity
  8
0
100
AcDbCircle
 62
7
  6
CONTINUOUS
 10
10.9097191104
 20
7.0319055501
 40
0.8771578189
100
AcDbArc
 50
268.5844646713
 51
269.4449986029
  0
ARC
  5
2E8
100
AcDbEntity
  8
0
100
AcDbCircle
 62
7
  6
CONTINUOUS
 10
10.909667107
 20
7.0166903301
 40
0.8619544629
100
AcDbArc
 50
269.4414436977
 51
270.0866587757
  0
ARC
  5
2E9
100
AcDbEntity
  8
0
100
AcDbCircle
 62
7
  6
CONTINUOUS
 10
10.9094042971
 20
6.9852126118
 40
0.8304640891
100
AcDbArc
 50
269.4355196205
 51
270.3182561145
  0
ARC
  5
2EA
100
AcDbEntity
  8
0
100
AcDbCircle
 62
7
  6
CONTINUOUS
 10
10.9293492304
 20
6.9312276508
 40
0.7852633026
100
AcDbArc
 50
269.5210429635
 51
269.9896964515
  0
ARC
  5
2EB
100
AcDbEntity
  8
0
100
AcDbCircle
 62
7
  6
CONTINUOUS
 10
10.7022893029
 20
6.9356665493
 40
0.7809391426
100
AcDbArc
 50
268.9733957251
 51
269.5245064871
  0
ARC
  5
2EC
100
AcDbEntity
  8
0
100
AcDbCircle
 62
7
  6
CONTINUOUS
 10
10.9067213656
 20
6.9156846063
 40
0.7609104473
100
AcDbArc
 50
267.9865394913
 51
268.72242685
  0
ARC
  5
2ED
100
AcDbEntity
  8
0
100
AcDbCircle
 62
7
  6
CONTINUOUS
 10
10.9098299998
 20
6.8613430078
 40
0.7066070756
100
AcDbArc
 50
270.0925023966
 51
270.7505392961
  0
ARC
  5
2EE
100
AcDbEntity
  8
0
100
AcDbCircle
 62
9
  6
CONTINUOUS
 10
10.884352186
 20
6.7526387637
 40
0.5814047084
100
AcDbArc
 50
268.0931960452
 51
269.4359350491
  0
ARC
  5
2EF
100
AcDbEntity
  8
0
100
AcDbCircle
 62
7
  6
CONTINUOUS
 10
10.6899483677
 20
6.7057394777
 40
0.5500554688
100
AcDbArc
 50
267.8104977404
 51
268.5488708027
  0
ARC
  5
2F0
100
AcDbEntity
  8
0
100
AcDbCircle
 62
7
  6
CONTINUOUS
 10
10.7000296302
 20
6.687828153
 40
0.5330905668
100
AcDbArc
 50
269.5463058835
 51
270.0406614212
  0
ARC
  5
2F1
100
AcDbEntity
  8
0
100
AcDbCircle
 62
7
  6
CONTINUOUS
 10
10.9036845459
 20
6.5681120853
 40
0.4123710845
100
AcDbArc
 50
268.3791475309
 51
269.4392749386
  0
ARC
  5
2F2
100
AcDbEntity
  8
0
100
AcDbCircle
 62
7
  6
CONTINUOUS
 10
10.9296953698
 20
6.5527447818
 40
0.4067807141
100
AcDbArc
 50
269.93135531
 51
270.6689841949
  0
ARC
  5
2F3
100
AcDbEntity
  8
0
100
AcDbCircle
 62
7
  6
CONTINUOUS
 10
10.9036035931
 20
6.5599938584
 40
0.4042524542
100
AcDbArc
 50
269.4394876968
 51
269.674413334
  0
ARC
  5
2F4
100
AcDbEntity
  8
0
100
AcDbCircle
 62
7
  6
CONTINUOUS
 10
10.8795557727
 20
6.4369429614
 40
0.2640764755
100
AcDbArc
 50
267.7046773624
 51
269.4382134998
  0
ARC
  5
2F5
100
AcDbEntity
  8
0
100
AcDbCircle
 62
7
  6
CONTINUOUS
 10
10.8795153725
 20
6.4329228471
 40
0.2600561583
100
AcDbArc
 50
269.4384297542
 51
269.8268094003
  0
ARC
  5
2F6
100
AcDbEntity
  8
0
100
AcDbCircle
 62
7
  6
CONTINUOUS
 10
10.8573535558
 20
6.1716296965
 40
0.0147009149
100
AcDbArc
 50
250.0096993238
 51
252.7416628002
  0
ARC
  5
2F7
100
AcDbEntity
  8
0
100
AcDbCircle
 62
7
  6
CONTINUOUS
 10
10.8569960895
 20
6.1703161479
 40
0.0133516842
100
AcDbArc
 50
231.7793626
 51
242.5792625407
  0
ARC
  5
2F8
100
AcDbEntity
  8
0
100
AcDbCircle
 62
7
  6
CONTINUOUS
 10
10.8566487428
 20
6.169666753
 40
0.0126152926
100
AcDbArc
 50
242.6213277457
 51
249.9701605996
  0
ARC
  5
2F9
100
AcDbEntity
  8
0
100
AcDbCircle
 62
7
  6
CONTINUOUS
 10
10.8563508831
 20
6.1695280374
 40
0.0123352611
100
AcDbArc
 50
227.2853024524
 51
231.7437470816
  0
ARC
  5
2FA
100
AcDbEntity
  8
0
100
AcDbCircle
 62
7
  6
CONTINUOUS
 10
10.8783254593
 20
6.1589581418
 40
0.0120412449
100
AcDbArc
 50
195.1037626809
 51
207.6170579932
  0
ARC
  5
2FB
100
AcDbEntity
  8
0
100
AcDbCircle
 62
7
  6
CONTINUOUS
 10
10.8323719173
 20
6.1575338113
 40
0.011999864
100
AcDbArc
 50
268.899324011
 51
354.9994407482
  0
ARC
  5
2FC
100
AcDbEntity
  8
0
100
AcDbCircle
 62
7
  6
CONTINUOUS
 10
10.7502875694
 20
6.1594323742
 40
0.0119998621
100
AcDbArc
 50
185.0000367469
 51
268.450666091
  0
ARC
  5
2FD
100
AcDbEntity
  8
0
100
AcDbCircle
 62
7
  6
CONTINUOUS
 10
10.856137712
 20
6.1692629809
 40
0.0119959316
100
AcDbArc
 50
201.0765491579
 51
227.1746117928
  0
ARC
  5
2FE
100
AcDbEntity
  8
0
100
AcDbCircle
 62
7
  6
CONTINUOUS
 10
11.0473182759
 20
17.2261141045
 40
11.0826774786
100
AcDbArc
 50
265.8237863039
 51
265.941288887
  0
ARC
  5
2FF
100
AcDbEntity
  8
0
100
AcDbCircle
 62
7
  6
CONTINUOUS
 10
11.0472839004
 20
17.1978726486
 40
11.0003358494
100
AcDbArc
 50
275.2734638771
 51
276.5249593016
  0
ARC
  5
300
100
AcDbEntity
  8
0
100
AcDbCircle
 62
7
  6
CONTINUOUS
 10
10.6272860705
 20
8.4923007023
 40
2.3383807092
100
AcDbArc
 50
266.8307937428
 51
266.9843436542
  0
ARC
  5
301
100
AcDbEntity
  8
0
100
AcDbCircle
 62
7
  6
CONTINUOUS
 10
9.8268183467
 20
8.3490696622
 40
0.202
100
AcDbArc
 50
5.183905102
 51
70.9388835051
  0
ARC
  5
302
100
AcDbEntity
  8
0
100
AcDbCircle
 62
7
  6
CONTINUOUS
 10
9.895317247
 20
8.8184739256
 40
0.196
100
AcDbArc
 50
179.8088002778
 51
265.3179032286
  0
ARC
  5
303
100
AcDbEntity
  8
0
100
AcDbCircle
 62
7
  6
CONTINUOUS
 10
9.8993183383
 20
8.5588975708
 40
0.02
100
AcDbArc
 50
180.0
 51
250.9388835048
  0
ARC
  5
304
100
AcDbEntity
  8
0
100
AcDbCircle
 62
7
  6
CONTINUOUS
 10
10.0479103265
 20
8.3691279891
 40
0.02
100
AcDbArc
 50
185.1839051019
 51
270.0
  0
ARC
  5
305
100
AcDbEntity
  8
0
100
AcDbCircle
 62
9
  6
CONTINUOUS
 10
11.198991458
 20
4.1111515956
 40
2.0362935256
100
AcDbArc
 50
90.4262010415
 51
90.7889394009
  0
ARC
  5
306
100
AcDbEntity
  8
0
100
AcDbCircle
 62
9
  6
CONTINUOUS
 10
11.1968902266
 20
4.4016236458
 40
1.7458137979
100
AcDbArc
 50
90.1094814608
 51
90.3850789561
  0
ARC
  5
307
100
AcDbEntity
  8
0
100
AcDbCircle
 62
9
  6
CONTINUOUS
 10
11.2111359645
 20
4.8305946955
 40
1.3391923945
100
AcDbArc
 50
89.7914667177
 51
90.4434066379
  0
ARC
  5
308
100
AcDbEntity
  8
0
100
AcDbCircle
 62
9
  6
CONTINUOUS
 10
11.1962443798
 20
5.1324329992
 40
1.0150035035
100
AcDbArc
 50
89.4444095756
 51
90.0140230864
  0
ARC
  5
309
100
AcDbEntity
  8
0
100
AcDbCircle
 62
7
  6
CONTINUOUS
 10
11.1863546883
 20
5.1865224837
 40
0.9603543389
100
AcDbArc
 50
90.5079189256
 51
90.9651914615
  0
ARC
  5
30A
100
AcDbEntity
  8
0
100
AcDbCircle
 62
7
  6
CONTINUOUS
 10
11.2087993361
 20
5.2712573041
 40
0.8875949404
100
AcDbArc
 50
90.5680226414
 51
91.4149313846
  0
ARC
  5
30B
100
AcDbEntity
  8
0
100
AcDbCircle
 62
9
  6
CONTINUOUS
 10
11.2139994172
 20
5.3048833834
 40
0.8648957184
100
AcDbArc
 50
88.8368144592
 51
89.7898314912
  0
ARC
  5
30C
100
AcDbEntity
  8
0
100
AcDbCircle
 62
7
  6
CONTINUOUS
 10
11.1855640235
 20
5.2884322515
 40
0.8584415737
100
AcDbArc
 50
90.0300625495
 51
90.5154456395
  0
ARC
  5
30D
100
AcDbEntity
  8
0
100
AcDbCircle
 62
7
  6
CONTINUOUS
 10
11.2081137172
 20
5.356344302
 40
0.8025060216
100
AcDbArc
 50
89.6616041379
 51
90.579229396
  0
ARC
  5
30E
100
AcDbEntity
  8
0
100
AcDbCircle
 62
9
  6
CONTINUOUS
 10
11.2286343532
 20
5.5968464887
 40
0.5809271229
100
AcDbArc
 50
90.5718313298
 51
91.9255106233
  0
ARC
  5
30F
100
AcDbEntity
  8
0
100
AcDbCircle
 62
9
  6
CONTINUOUS
 10
11.2282475631
 20
5.6330121791
 40
0.544759363
100
AcDbArc
 50
89.1729369119
 51
90.5691159463
  0
ARC
  5
310
100
AcDbEntity
  8
0
100
AcDbCircle
 62
7
  6
CONTINUOUS
 10
11.2021388519
 20
5.7430724733
 40
0.4145844897
100
AcDbArc
 50
90.5616123894
 51
90.9978183785
  0
ARC
  5
311
100
AcDbEntity
  8
0
100
AcDbCircle
 62
7
  6
CONTINUOUS
 10
11.2021172663
 20
5.7433673845
 40
0.4142892477
100
AcDbArc
 50
90.995543819
 51
91.2260655328
  0
ARC
  5
312
100
AcDbEntity
  8
0
100
AcDbCircle
 62
7
  6
CONTINUOUS
 10
11.201873632
 20
5.7743858491
 40
0.3832700208
100
AcDbArc
 50
89.5144721502
 51
90.5678493703
  0
ARC
  5
313
100
AcDbEntity
  8
0
100
AcDbCircle
 62
7
  6
CONTINUOUS
 10
11.2233762779
 20
5.9094154925
 40
0.2664115929
100
AcDbArc
 50
90.5632113422
 51
91.2498664805
  0
ARC
  5
314
100
AcDbEntity
  8
0
100
AcDbCircle
 62
7
  6
CONTINUOUS
 10
11.2233289281
 20
5.910694313
 40
0.2651320445
100
AcDbArc
 50
91.2456645324
 51
91.6353709129
  0
ARC
  5
315
100
AcDbEntity
  8
0
100
AcDbCircle
 62
7
  6
CONTINUOUS
 10
11.2232194975
 20
5.9295767849
 40
0.2462497369
100
AcDbArc
 50
88.9335969608
 51
90.5728457314
  0
ARC
  5
316
100
AcDbEntity
  8
0
100
AcDbCircle
 62
7
  6
CONTINUOUS
 10
11.1640098128
 20
7.1212687079
 40
0.9753084505
100
AcDbArc
 50
270.4606902585
 51
270.8623291246
  0
ARC
  5
317
100
AcDbEntity
  8
0
100
AcDbCircle
 62
7
  6
CONTINUOUS
 10
11.1846188873
 20
7.0532212538
 40
0.8984969035
100
AcDbArc
 50
270.5582660892
 51
271.2205552656
  0
ARC
  5
318
100
AcDbEntity
  8
0
100
AcDbCircle
 62
7
  6
CONTINUOUS
 10
11.18473416
 20
7.0423885582
 40
0.8876525631
100
AcDbArc
 50
270.5602714131
 51
271.4064091112
  0
ARC
  5
319
100
AcDbEntity
  8
0
100
AcDbCircle
 62
7
  6
CONTINUOUS
 10
11.1650598566
 20
6.9844883233
 40
0.8385240459
100
AcDbArc
 50
270.0251981514
 51
270.4640909755
  0
ARC
  5
31A
100
AcDbEntity
  8
0
100
AcDbCircle
 62
7
  6
CONTINUOUS
 10
11.1850997875
 20
6.9867802466
 40
0.8320548687
100
AcDbArc
 50
269.8180806981
 51
270.5696598095
  0
ARC
  5
31B
100
AcDbEntity
  8
0
100
AcDbCircle
 62
7
  6
CONTINUOUS
 10
11.1863872056
 20
6.9712589098
 40
0.8165154894
100
AcDbArc
 50
271.2190094488
 51
271.8464916485
  0
ARC
  5
31C
100
AcDbEntity
  8
0
100
AcDbCircle
 62
7
  6
CONTINUOUS
 10
11.1853270487
 20
6.9568404957
 40
0.8021032991
100
AcDbArc
 50
269.6635112899
 51
270.5776057194
  0
ARC
  5
31D
100
AcDbEntity
  8
0
100
AcDbCircle
 62
9
  6
CONTINUOUS
 10
11.210278903
 20
6.7528054882
 40
0.5815565703
100
AcDbArc
 50
270.5644321478
 51
271.9185325192
  0
ARC
  5
31E
100
AcDbEntity
  8
0
100
AcDbCircle
 62
7
  6
CONTINUOUS
 10
11.1909238856
 20
6.5703854457
 40
0.4146549971
100
AcDbArc
 50
270.5615220773
 51
270.9976532523
  0
ARC
  5
31F
100
AcDbEntity
  8
0
100
AcDbCircle
 62
7
  6
CONTINUOUS
 10
11.191189147
 20
6.5390631832
 40
0.3833316414
100
AcDbArc
 50
269.5145472497
 51
270.5677574925
  0
ARC
  5
320
100
AcDbEntity
  8
0
100
AcDbCircle
 62
7
  6
CONTINUOUS
 10
11.0473183383
 20
7.7937920507
 40
0.339
100
AcDbArc
 50
297.6844523281
 51
320.7113682116
  0
ARC
  5
321
100
AcDbEntity
  8
0
100
AcDbCircle
 62
7
  6
CONTINUOUS
 10
11.0473183383
 20
7.7937920507
 40
0.339
100
AcDbArc
 50
219.2886317884
 51
242.3155476719
  0
ARC
  5
322
100
AcDbEntity
  8
0
100
AcDbCircle
 62
7
  6
CONTINUOUS
 10
11.215051244
 20
6.4393605524
 40
0.2664792292
100
AcDbArc
 50
270.5630612975
 51
271.2495382243
  0
ARC
  5
323
100
AcDbEntity
  8
0
100
AcDbCircle
 62
7
  6
CONTINUOUS
 10
11.2152079855
 20
6.4191968233
 40
0.2463149369
100
AcDbArc
 50
268.9339183276
 51
270.5726954627
  0
ARC
  5
324
100
AcDbEntity
  8
0
100
AcDbCircle
 62
7
  6
CONTINUOUS
 10
11.3443491042
 20
6.1594323795
 40
0.0119998634
100
AcDbArc
 50
271.5493445659
 51
354.9999392186
  0
ARC
  5
325
100
AcDbEntity
  8
0
100
AcDbCircle
 62
7
  6
CONTINUOUS
 10
11.2622647564
 20
6.1575338053
 40
0.0119998626
100
AcDbArc
 50
185.0005320613
 51
271.1006879239
  0
ARC
  5
326
100
AcDbEntity
  8
0
100
AcDbCircle
 62
9
  6
CONTINUOUS
 10
11.4733301961
 20
4.2957633982
 40
1.8741185533
100
AcDbArc
 50
91.0425260151
 51
91.4798856701
  0
ARC
  5
327
100
AcDbEntity
  8
0
100
AcDbCircle
 62
7
  6
CONTINUOUS
 10
11.6491482448
 20
4.5434787508
 40
1.6152637876
100
AcDbArc
 50
92.4742794656
 51
92.7384305683
  0
ARC
  5
328
100
AcDbEntity
  8
0
100
AcDbCircle
 62
9
  6
CONTINUOUS
 10
11.4640919238
 20
4.8563658995
 40
1.313441118
100
AcDbArc
 50
90.3386165994
 51
91.0845408807
  0
ARC
  5
329
100
AcDbEntity
  8
0
100
AcDbCircle
 62
7
  6
CONTINUOUS
 10
11.4636855435
 20
4.9885945931
 40
1.1703643883
100
AcDbArc
 50
91.892224356
 51
92.5282349894
  0
ARC
  5
32A
100
AcDbEntity
  8
0
100
AcDbCircle
 62
7
  6
CONTINUOUS
 10
11.4620950972
 20
5.0444324143
 40
1.1145045283
100
AcDbArc
 50
91.2444522389
 51
91.9052905329
  0
ARC
  5
32B
100
AcDbEntity
  8
0
100
AcDbCircle
 62
7
  6
CONTINUOUS
 10
11.6235295655
 20
5.0494535687
 40
1.1086437003
100
AcDbArc
 50
92.6652631716
 51
93.3655857481
  0
ARC
  5
32C
100
AcDbEntity
  8
0
100
AcDbCircle
 62
9
  6
CONTINUOUS
 10
11.7103335969
 20
5.3214200824
 40
0.8565878624
100
AcDbArc
 50
93.1251993444
 51
94.0275500028
  0
ARC
  5
32D
100
AcDbEntity
  8
0
100
AcDbCircle
 62
9
  6
CONTINUOUS
 10
11.7076028716
 20
5.3755548094
 40
0.802384803
100
AcDbArc
 50
92.117631922
 51
93.1412410055
  0
ARC
  5
32E
100
AcDbEntity
  8
0
100
AcDbCircle
 62
7
  6
CONTINUOUS
 10
11.4551558494
 20
5.3907957937
 40
0.7680723594
100
AcDbArc
 50
90.4238831289
 51
91.2880717756
  0
ARC
  5
32F
100
AcDbEntity
  8
0
100
AcDbCircle
 62
9
  6
CONTINUOUS
 10
11.7029339344
 20
5.493871526
 40
0.6839764285
100
AcDbArc
 50
91.7910429781
 51
92.0930207116
  0
ARC
  5
330
100
AcDbEntity
  8
0
100
AcDbCircle
 62
9
  6
CONTINUOUS
 10
11.4866126615
 20
5.4975782041
 40
0.6802081595
100
AcDbArc
 50
91.3551867083
 51
92.5345759659
  0
ARC
  5
331
100
AcDbEntity
  8
0
100
AcDbCircle
 62
9
  6
CONTINUOUS
 10
11.4838650365
 20
5.6185163809
 40
0.5592388393
100
AcDbArc
 50
90.0821808513
 51
91.3668011421
  0
ARC
  5
332
100
AcDbEntity
  8
0
100
AcDbCircle
 62
7
  6
CONTINUOUS
 10
11.4422369316
 20
5.6014969172
 40
0.5562198781
100
AcDbArc
 50
91.4558998632
 51
92.1863986097
  0
ARC
  5
333
100
AcDbEntity
  8
0
100
AcDbCircle
 62
7
  6
CONTINUOUS
 10
11.4387340981
 20
5.6869694556
 40
0.4706759893
100
AcDbArc
 50
92.15724951
 51
92.9838676265
  0
ARC
  5
334
100
AcDbEntity
  8
0
100
AcDbCircle
 62
7
  6
CONTINUOUS
 10
11.6834780285
 20
5.7839288286
 40
0.391999403
100
AcDbArc
 50
92.4860134421
 51
93.5235041318
  0
ARC
  5
335
100
AcDbEntity
  8
0
100
AcDbCircle
 62
7
  6
CONTINUOUS
 10
11.6795800111
 20
5.8433468852
 40
0.3324541876
100
AcDbArc
 50
93.4823257331
 51
94.6545842584
  0
ARC
  5
336
100
AcDbEntity
  8
0
100
AcDbCircle
 62
7
  6
CONTINUOUS
 10
11.4719806627
 20
5.8741566418
 40
0.3016655161
100
AcDbArc
 50
91.4906231428
 51
92.7910021672
  0
ARC
  5
337
100
AcDbEntity
  8
0
100
AcDbCircle
 62
9
  6
CONTINUOUS
 10
11.4644737778
 20
5.903564893
 40
0.26621363
100
AcDbArc
 50
88.62413812
 51
89.2561342582
  0
ARC
  5
338
100
AcDbEntity
  8
0
100
AcDbCircle
 62
7
  6
CONTINUOUS
 10
11.4689080724
 20
5.9320650453
 40
0.2436763178
100
AcDbArc
 50
92.7324036684
 51
94.2448332134
  0
ARC
  5
339
100
AcDbEntity
  8
0
100
AcDbCircle
 62
7
  6
CONTINUOUS
 10
11.4851527483
 20
7.7937938961
 40
1.6398058795
100
AcDbArc
 50
272.0169626957
 51
272.3765599501
  0
ARC
  5
33A
100
AcDbEntity
  8
0
100
AcDbCircle
 62
7
  6
CONTINUOUS
 10
11.3923757133
 20
7.1320196542
 40
0.9772017279
100
AcDbArc
 50
272.3295662476
 51
273.2456921703
  0
ARC
  5
33B
100
AcDbEntity
  8
0
100
AcDbCircle
 62
7
  6
CONTINUOUS
 10
11.3955707281
 20
7.0650839221
 40
0.9101837353
100
AcDbArc
 50
272.5162598934
 51
273.2829079313
  0
ARC
  5
33C
100
AcDbEntity
  8
0
100
AcDbCircle
 62
9
  6
CONTINUOUS
 10
11.6149344937
 20
7.0270424331
 40
0.8560562415
100
AcDbArc
 50
273.1260688846
 51
274.0280659663
  0
ARC
  5
33D
100
AcDbEntity
  8
0
100
AcDbCircle
 62
7
  6
CONTINUOUS
 10
11.3917004451
 20
6.9751157058
 40
0.8203915807
100
AcDbArc
 50
270.5289011744
 51
271.3384764752
  0
ARC
  5
33E
100
AcDbEntity
  8
0
100
AcDbCircle
 62
9
  6
CONTINUOUS
 10
11.6173412377
 20
6.9791003697
 40
0.8080542981
100
AcDbArc
 50
272.1957235993
 51
273.1410490319
  0
ARC
  5
33F
100
AcDbEntity
  8
0
100
AcDbCircle
 62
9
  6
CONTINUOUS
 10
11.4359802607
 20
6.8516123366
 40
0.6804125966
100
AcDbArc
 50
271.3839953695
 51
272.5342258162
  0
ARC
  5
340
100
AcDbEntity
  8
0
100
AcDbCircle
 62
9
  6
CONTINUOUS
 10
11.6330888907
 20
6.7786575597
 40
0.6070100411
100
AcDbArc
 50
273.9656054189
 51
275.1285315176
  0
ARC
  5
341
100
AcDbEntity
  8
0
100
AcDbCircle
 62
9
  6
CONTINUOUS
 10
11.4413432948
 20
6.7390845463
 40
0.5677578557
100
AcDbArc
 50
272.4956515519
 51
273.8166208125
  0
ARC
  5
342
100
AcDbEntity
  8
0
100
AcDbCircle
 62
7
  6
CONTINUOUS
 10
11.4044920814
 20
6.7119288186
 40
0.5562374235
100
AcDbArc
 50
271.4556704994
 51
272.1861537802
  0
ARC
  5
343
100
AcDbEntity
  8
0
100
AcDbCircle
 62
7
  6
CONTINUOUS
 10
11.4079970834
 20
6.6263900568
 40
0.4706272779
100
AcDbArc
 50
272.1570009039
 51
272.9836948582
  0
ARC
  5
344
100
AcDbEntity
  8
0
100
AcDbCircle
 62
7
  6
CONTINUOUS
 10
11.6399849293
 20
6.5647405131
 40
0.391990251
100
AcDbArc
 50
272.4854841815
 51
273.5229841548
  0
ARC
  5
345
100
AcDbEntity
  8
0
100
AcDbCircle
 62
7
  6
CONTINUOUS
 10
11.6438863708
 20
6.5052592593
 40
0.3323817497
100
AcDbArc
 50
273.4817839244
 51
274.654273978
  0
ARC
  5
346
100
AcDbEntity
  8
0
100
AcDbCircle
 62
7
  6
CONTINUOUS
 10
11.4494285222
 20
6.4745563578
 40
0.3017065069
100
AcDbArc
 50
271.490274658
 51
272.7905063863
  0
ARC
  5
347
100
AcDbEntity
  8
0
100
AcDbCircle
 62
7
  6
CONTINUOUS
 10
11.3832369288
 20
6.1731472508
 40
0.0181217007
100
AcDbArc
 50
256.614508942
 51
261.8365810627
  0
ARC
  5
348
100
AcDbEntity
  8
0
100
AcDbCircle
 62
7
  6
CONTINUOUS
 10
11.4651850085
 20
6.1702690896
 40
0.0122446321
100
AcDbArc
 50
332.764749642
 51
354.8242727591
  0
ARC
  5
349
100
AcDbEntity
  8
0
100
AcDbCircle
 62
7
  6
CONTINUOUS
 10
11.61453762
 20
6.1708103523
 40
0.0121467353
100
AcDbArc
 50
348.5312806117
 51
354.876512875
  0
ARC
  5
34A
100
AcDbEntity
  8
0
100
AcDbCircle
 62
7
  6
CONTINUOUS
 10
11.3815758178
 20
6.1673009075
 40
0.0120032136
100
AcDbArc
 50
201.1592562076
 51
218.1177368453
  0
ARC
  5
34B
100
AcDbEntity
  8
0
100
AcDbCircle
 62
7
  6
CONTINUOUS
 10
11.3813496027
 20
6.1671039185
 40
0.011703653
100
AcDbArc
 50
218.0426296539
 51
234.5905634216
  0
ARC
  5
34C
100
AcDbEntity
  8
0
100
AcDbCircle
 62
7
  6
CONTINUOUS
 10
11.9122050568
 20
-0.887293956
 40
7.1126571484
100
AcDbArc
 50
92.48667032
 51
92.7369054315
  0
ARC
  5
34D
100
AcDbEntity
  8
0
100
AcDbCircle
 62
7
  6
CONTINUOUS
 10
11.8732475295
 20
-0.1289642415
 40
6.3533328624
100
AcDbArc
 50
92.7125294915
 51
93.2031774711
  0
ARC
  5
34E
100
AcDbEntity
  8
0
100
AcDbCircle
 62
7
  6
CONTINUOUS
 10
11.7407441507
 20
2.6346115644
 40
3.5266552848
100
AcDbArc
 50
92.5973484777
 51
92.8104780711
  0
ARC
  5
34F
100
AcDbEntity
  8
0
100
AcDbCircle
 62
7
  6
CONTINUOUS
 10
11.7187590781
 20
3.1232883573
 40
3.0374842385
100
AcDbArc
 50
92.4204587947
 51
92.6007958859
  0
ARC
  5
350
100
AcDbEntity
  8
0
100
AcDbCircle
 62
9
  6
CONTINUOUS
 10
11.9709778509
 20
4.2645344382
 40
1.9158329041
100
AcDbArc
 50
93.8451284366
 51
94.2521831882
  0
ARC
  5
351
100
AcDbEntity
  8
0
100
AcDbCircle
 62
9
  6
CONTINUOUS
 10
11.9479909352
 20
4.6083579756
 40
1.5712418346
100
AcDbArc
 50
93.3822577826
 51
93.849561238
  0
ARC
  5
352
100
AcDbEntity
  8
0
100
AcDbCircle
 62
7
  6
CONTINUOUS
 10
12.3876883761
 20
7.7175871622
 40
1.0
100
AcDbArc
 50
204.4434618045
 51
260.2921146132
  0
ARC
  5
353
100
AcDbEntity
  8
0
100
AcDbCircle
 62
7
  6
CONTINUOUS
 10
11.8925427811
 20
5.346842549
 40
0.8300603092
100
AcDbArc
 50
93.5974389135
 51
94.112245788
  0
ARC
  5
354
100
AcDbEntity
  8
0
100
AcDbCircle
 62
7
  6
CONTINUOUS
 10
11.7747453561
 20
7.0013935571
 40
0.8295866428
100
AcDbArc
 50
273.5968471655
 51
274.1119394738
  0
ARC
  5
355
100
AcDbEntity
  8
0
100
AcDbCircle
 62
7
  6
CONTINUOUS
 10
12.2123183383
 20
6.6924796801
 40
0.04
100
AcDbArc
 50
14.9401113623
 51
80.2921146133
  0
ARC
  5
356
100
AcDbEntity
  8
0
100
AcDbCircle
 62
7
  6
CONTINUOUS
 10
11.0473184007
 20
17.2261141045
 40
11.0826774786
100
AcDbArc
 50
274.058711113
 51
274.1762128019
  0
ARC
  5
357
100
AcDbEntity
  8
0
100
AcDbCircle
 62
7
  6
CONTINUOUS
 10
11.0473183383
 20
17.2261227613
 40
11.0236220488
100
AcDbArc
 50
274.7733466938
 51
274.9789174869
  0
ARC
  5
358
100
AcDbEntity
  8
0
100
AcDbCircle
 62
7
  6
CONTINUOUS
 10
11.0473183383
 20
17.2261227613
 40
11.0236220488
100
AcDbArc
 50
273.5010606063
 51
273.782734791
  0
ARC
  5
359
100
AcDbEntity
  8
0
100
AcDbCircle
 62
7
  6
CONTINUOUS
 10
11.0473183383
 20
17.2261227613
 40
11.0236220488
100
AcDbArc
 50
266.2172645561
 51
266.4989387335
  0
ARC
  5
35A
100
AcDbEntity
  8
0
100
AcDbCircle
 62
7
  6
CONTINUOUS
 10
11.0473183383
 20
17.2261227613
 40
11.0236220488
100
AcDbArc
 50
269.6310227806
 51
270.3689783223
  0
ARC
  5
35B
100
AcDbEntity
  8
0
100
AcDbCircle
 62
7
  6
CONTINUOUS
 10
11.0473183383
 20
17.2261227613
 40
11.0236220488
100
AcDbArc
 50
265.0210825158
 51
265.2266524065
  0
ARC
  5
35C
100
AcDbEntity
  8
0
100
AcDbCircle
 62
7
  6
CONTINUOUS
 10
11.4779030847
 20
8.2994415477
 40
2.1452434543
100
AcDbArc
 50
273.0930295876
 51
273.2300435535
  0
ARC
  5
35D
100
AcDbEntity
  8
0
100
AcDbCircle
 62
7
  6
CONTINUOUS
 10
11.481676098
 20
8.2259552243
 40
2.0716601118
100
AcDbArc
 50
273.0447893426
 51
273.3295119508
  0
ARC
  5
35E
100
AcDbEntity
  8
0
100
AcDbCircle
 62
7
  6
CONTINUOUS
 10
11.0473183383
 20
10.0318121728
 40
1.9276841837
100
AcDbArc
 50
286.8539471079
 51
299.2020651673
  0
ARC
  5
35F
100
AcDbEntity
  8
0
100
AcDbCircle
 62
7
  6
CONTINUOUS
 10
11.0473183383
 20
10.0318121728
 40
1.9276841837
100
AcDbArc
 50
240.7979348327
 51
253.1460528921
  0
ARC
  5
360
100
AcDbEntity
  8
0
100
AcDbCircle
 62
7
  6
CONTINUOUS
 10
12.2678183299
 20
8.3490696622
 40
0.202
100
AcDbArc
 50
109.0611164949
 51
174.816094898
  0
ARC
  5
361
100
AcDbEntity
  8
0
100
AcDbCircle
 62
7
  6
CONTINUOUS
 10
12.1993194296
 20
8.8184739256
 40
0.196
100
AcDbArc
 50
274.6820967714
 51
0.1911997222
  0
ARC
  5
362
100
AcDbEntity
  8
0
100
AcDbCircle
 62
7
  6
CONTINUOUS
 10
12.1953183383
 20
8.5588975708
 40
0.02
100
AcDbArc
 50
289.0611164953
 51
360.0
  0
ARC
  5
363
100
AcDbEntity
  8
0
100
AcDbCircle
 62
7
  6
CONTINUOUS
 10
12.0467263501
 20
8.3691279891
 40
0.02
100
AcDbArc
 50
270.0
 51
354.8160948981
  0
SPLINE
  5
364
100
AcDbEntity
  8
0
100
AcDbSpline
 62
7
  6
CONTINUOUS
 70
0
 71
3
 72
17
 73
13
 74
0
 42
0.0000001
 43
0.0000001
 44
0.0000000001
 40
0.0
 40
0.0
 40
0.0
 40
0.0
 40
0.007251758
 40
0.0213071782
 40
0.0433223427
 40
0.0734978289
 40
0.1582825919
 40
0.2742745736
 40
0.4192155286
 40
0.5906652804
 40
0.7854248238
 40
1.0
 40
1.0
 40
1.0
 40
1.0
 10
10.8784205581
 20
6.156969402
 30
0.0
 10
10.8784208091
 20
6.1569955747
 30
0.0
 10
10.8784892
 20
6.1570557985
 30
0.0
 10
10.8786315264
 20
6.1571035227
 30
0.0
 10
10.878866584
 20
6.1571635466
 30
0.0
 10
10.8793527476
 20
6.1572445287
 30
0.0
 10
10.8801831411
 20
6.1573348675
 30
0.0
 10
10.8814271244
 20
6.1574254982
 30
0.0
 10
10.8829860382
 20
6.1575049741
 30
0.0
 10
10.8848297562
 20
6.157570166
 30
0.0
 10
10.8869254625
 20
6.1576199514
 30
0.0
 10
10.8884027433
 20
6.1576411224
 30
0.0
 10
10.8891771706
 20
6.1576491791
 30
0.0
  0
SPLINE
  5
365
100
AcDbEntity
  8
0
100
AcDbSpline
 62
7
  6
CONTINUOUS
 70
0
 71
3
 72
22
 73
18
 74
0
 42
0.0000001
 43
0.0000001
 44
0.0000000001
 40
0.0
 40
0.0
 40
0.0
 40
0.0
 40
0.1486417868
 40
0.2799288299
 40
0.3915302779
 40
0.4832174442
 40
0.523023317
 40
0.5609594617
 40
0.6037733084
 40
0.6302039172
 40
0.6612218581
 40
0.6975696552
 40
0.7379007895
 40
0.7802149911
 40
0.8234877869
 40
0.9113932405
 40
1.0
 40
1.0
 40
1.0
 40
1.0
 10
10.919085851
 20
6.1547965561
 30
0.0
 10
10.9210101637
 20
6.1548225689
 30
0.0
 10
10.924633905
 20
6.1548889209
 30
0.0
 10
10.9297009684
 20
6.1550439516
 30
0.0
 10
10.9340279671
 20
6.1552500246
 30
0.0
 10
10.9371681768
 20
6.1554749447
 30
0.0
 10
10.9393488769
 20
6.1557146946
 30
0.0
 10
10.9408946152
 20
6.1559354473
 30
0.0
 10
10.9422532573
 20
6.1562253273
 30
0.0
 10
10.9435020643
 20
6.1565831693
 30
0.0
 10
10.9446357661
 20
6.1570243799
 30
0.0
 10
10.9458789305
 20
6.1576611143
 30
0.0
 10
10.9471728442
 20
6.1585035811
 30
0.0
 10
10.9484172186
 20
6.1595653292
 30
0.0
 10
10.9499068957
 20
6.1612550638
 30
0.0
 10
10.9513237168
 20
6.1637676356
 30
0.0
 10
10.9518537195
 20
6.1660274801
 30
0.0
 10
10.9519546734
 20
6.1671702351
 30
0.0
  0
SPLINE
  5
366
100
AcDbEntity
  8
0
100
AcDbSpline
 62
7
  6
CONTINUOUS
 70
0
 71
3
 72
20
 73
16
 74
0
 42
0.0000001
 43
0.0000001
 44
0.0000000001
 40
0.0
 40
0.0
 40
0.0
 40
0.0
 40
0.0871806683
 40
0.1308124407
 40
0.1741712644
 40
0.2565313024
 40
0.3270089258
 40
0.3775846826
 40
0.4159821931
 40
0.4540366177
 40
0.4951114639
 40
0.5915161459
 40
0.7090308383
 40
0.8462480385
 40
1.0
 40
1.0
 40
1.0
 40
1.0
 10
10.8441564456
 20
6.1683010968
 30
0.0
 10
10.8442625237
 20
6.1670898487
 30
0.0
 10
10.8446985989
 20
6.1652806332
 30
0.0
 10
10.8457968926
 20
6.1631054176
 30
0.0
 10
10.8471736726
 20
6.1611782619
 30
0.0
 10
10.8492097667
 20
6.1592868531
 30
0.0
 10
10.8517584972
 20
6.1579917073
 30
0.0
 10
10.8538754475
 20
6.1572877125
 30
0.0
 10
10.8556215834
 20
6.1569743288
 30
0.0
 10
10.8572399947
 20
6.1567167862
 30
0.0
 10
10.8596703143
 20
6.1564169327
 30
0.0
 10
10.8632136558
 20
6.156106785
 30
0.0
 10
10.8680997201
 20
6.1557744464
 30
0.0
 10
10.8737894459
 20
6.1554821032
 30
0.0
 10
10.8778443225
 20
6.1553196018
 30
0.0
 10
10.8799873228
 20
6.1552439448
 30
0.0
  0
LINE
  5
367
100
AcDbEntity
  8
0
100
AcDbLine
 62
7
  6
CONTINUOUS
 10
10.8996408405
 20
6.1547947057
 11
10.9012633395
 21
6.1547773956
  0
LINE
  5
368
100
AcDbEntity
  8
0
100
AcDbLine
 62
7
  6
CONTINUOUS
 10
10.8996804568
 20
6.1466463565
 11
10.9042861681
 21
6.1468462642
  0
SPLINE
  5
369
100
AcDbEntity
  8
0
100
AcDbSpline
 62
7
  6
CONTINUOUS
 70
0
 71
3
 72
17
 73
13
 74
0
 42
0.0000001
 43
0.0000001
 44
0.0000000001
 40
0.0
 40
0.0
 40
0.0
 40
0.0
 40
0.1917258856
 40
0.2870855513
 40
0.3826548847
 40
0.4784402949
 40
0.5685580508
 40
0.644957988
 40
0.7052243743
 40
0.7828300587
 40
0.8451318797
 40
1.0
 40
1.0
 40
1.0
 40
1.0
 10
10.8667108568
 20
6.1557981857
 30
0.0
 10
10.8670373956
 20
6.1546078761
 30
0.0
 10
10.8677990691
 20
6.1528828659
 30
0.0
 10
10.8692910743
 20
6.1509136484
 30
0.0
 10
10.8706326111
 20
6.1496324848
 30
0.0
 10
10.8721363699
 20
6.1486098334
 30
0.0
 10
10.8736437332
 20
6.1478398934
 30
0.0
 10
10.8750212105
 20
6.1473424528
 30
0.0
 10
10.8763691794
 20
6.147040546
 30
0.0
 10
10.8776458777
 20
6.1468567872
 30
0.0
 10
10.8795369894
 20
6.1466955471
 30
0.0
 10
10.8809326049
 20
6.1466099496
 30
0.0
 10
10.881928284
 20
6.1465585446
 30
0.0
  0
LINE
  5
36A
100
AcDbEntity
  8
0
100
AcDbLine
 62
7
  6
CONTINUOUS
 10
10.881928284
 20
6.1465585446
 11
10.8939062966
 21
6.1461263473
  0
SPLINE
  5
36B
100
AcDbEntity
  8
0
100
AcDbSpline
 62
7
  6
CONTINUOUS
 70
0
 71
3
 72
21
 73
17
 74
0
 42
0.0000001
 43
0.0000001
 44
0.0000000001
 40
0.0
 40
0.0
 40
0.0
 40
0.0
 40
0.1381248897
 40
0.2560493083
 40
0.3521170996
 40
0.4269656628
 40
0.458830231
 40
0.4916414898
 40
0.5429080947
 40
0.580214075
 40
0.624013806
 40
0.6700398488
 40
0.7166500674
 40
0.8104834046
 40
0.9052132292
 40
1.0
 40
1.0
 40
1.0
 40
1.0
 10
10.9453351878
 20
6.1455461884
 30
0.0
 10
10.9468468584
 20
6.1455533843
 30
0.0
 10
10.949649093
 20
6.1455732332
 30
0.0
 10
10.953502497
 20
6.1456247824
 30
0.0
 10
10.9566628604
 20
6.1456973177
 30
0.0
 10
10.9588808605
 20
6.1457795863
 30
0.0
 10
10.9604048678
 20
6.1458785811
 30
0.0
 10
10.9616679123
 20
6.1460008424
 30
0.0
 10
10.962981116
 20
6.1462262404
 30
0.0
 10
10.9643677384
 20
6.1466539441
 30
0.0
 10
10.9656551387
 20
6.1471884765
 30
0.0
 10
10.9669582955
 20
6.1479267059
 30
0.0
 10
10.9685911825
 20
6.1491581284
 30
0.0
 10
10.9703414301
 20
6.1510878546
 30
0.0
 10
10.9717714536
 20
6.1538762764
 30
0.0
 10
10.9722295247
 20
6.1559270754
 30
0.0
 10
10.9723203958
 20
6.1569604677
 30
0.0
  0
LINE
  5
36C
100
AcDbEntity
  8
0
100
AcDbLine
 62
7
  6
CONTINUOUS
 10
11.1555875133
 20
6.1461916865
 11
11.1582234606
 21
6.1464190258
  0
LINE
  5
36D
100
AcDbEntity
  8
0
100
AcDbLine
 62
7
  6
CONTINUOUS
 10
11.1582234606
 20
6.1464190258
 11
11.1701775462
 21
6.1467405611
  0
SPLINE
  5
36E
100
AcDbEntity
  8
0
100
AcDbSpline
 62
7
  6
CONTINUOUS
 70
0
 71
3
 72
25
 73
21
 74
0
 42
0.0000001
 43
0.0000001
 44
0.0000000001
 40
0.0
 40
0.0
 40
0.0
 40
0.0
 40
0.0920284249
 40
0.1836548923
 40
0.2293568956
 40
0.2754196366
 40
0.3203793186
 40
0.3616235611
 40
0.396910799
 40
0.4243826549
 40
0.4436987946
 40
0.458770573
 40
0.4735764755
 40
0.4892398756
 40
0.523509594
 40
0.5628217727
 40
0.6082448479
 40
0.7172447632
 40
0.8488912771
 40
1.0
 40
1.0
 40
1.0
 40
1.0
 10
11.1223165255
 20
6.1569604811
 30
0.0
 10
11.1224197801
 20
6.1557895271
 30
0.0
 10
11.1229862781
 20
6.1534740656
 30
0.0
 10
11.1244662237
 20
6.1508965632
 30
0.0
 10
11.1260672129
 20
6.1491745047
 30
0.0
 10
11.1274461669
 20
6.1480924307
 30
0.0
 10
11.1289038834
 20
6.1472300038
 30
0.0
 10
11.130333163
 20
6.1466131723
 30
0.0
 10
11.1316152704
 20
6.1462537435
 30
0.0
 10
11.1326460847
 20
6.1460601303
 30
0.0
 10
11.133428649
 20
6.1459480512
 30
0.0
 10
11.1340550844
 20
6.1458967063
 30
0.0
 10
11.1346353137
 20
6.1458557633
 30
0.0
 10
11.1354604584
 20
6.1458011878
 30
0.0
 10
11.1365991889
 20
6.145746645
 30
0.0
 10
11.138118508
 20
6.1456980459
 30
0.0
 10
11.1405923395
 20
6.1456350545
 30
0.0
 10
11.1442460322
 20
6.1455800391
 30
0.0
 10
11.1492498668
 20
6.1455413175
 30
0.0
 10
11.1528615709
 20
6.1455338757
 30
0.0
 10
11.1547917132
 20
6.145533915
 30
0.0
  0
LINE
  5
36F
100
AcDbEntity
  8
0
100
AcDbLine
 62
7
  6
CONTINUOUS
 10
11.1977094862
 20
6.1460488506
 11
11.2125875688
 21
6.1465522906
  0
SPLINE
  5
370
100
AcDbEntity
  8
0
100
AcDbSpline
 62
7
  6
CONTINUOUS
 70
0
 71
3
 72
15
 73
11
 74
0
 42
0.0000001
 43
0.0000001
 44
0.0000000001
 40
0.0
 40
0.0
 40
0.0
 40
0.0
 40
0.2090269988
 40
0.3803436581
 40
0.4639953844
 40
0.5813010325
 40
0.6656157544
 40
0.7663088724
 40
0.8800379617
 40
1.0
 40
1.0
 40
1.0
 40
1.0
 10
11.2125875688
 20
6.1465522906
 30
0.0
 10
11.2133356827
 20
6.1465907725
 30
0.0
 10
11.2146967769
 20
6.1466657202
 30
0.0
 10
11.2163544092
 20
6.1467999718
 30
0.0
 10
11.2176807524
 20
6.14694697
 30
0.0
 10
11.2186877335
 20
6.1471307794
 30
0.0
 10
11.2197382967
 20
6.1473986098
 30
0.0
 10
11.2207505273
 20
6.1477523298
 30
0.0
 10
11.2218419343
 20
6.1482508716
 30
0.0
 10
11.2225694283
 20
6.1486694078
 30
0.0
 10
11.2229292697
 20
6.1489046553
 30
0.0
  0
SPLINE
  5
371
100
AcDbEntity
  8
0
100
AcDbSpline
 62
7
  6
CONTINUOUS
 70
0
 71
3
 72
10
 73
6
 74
0
 42
0.0000001
 43
0.0000001
 44
0.0000000001
 40
0.0
 40
0.0
 40
0.0
 40
0.0
 40
0.4959454437
 40
0.7474093227
 40
1.0
 40
1.0
 40
1.0
 40
1.0
 10
11.2229292697
 20
6.1489046553
 30
0.0
 10
11.2241316672
 20
6.1496907268
 30
0.0
 10
11.2257391982
 20
6.1512322143
 30
0.0
 10
11.2272318684
 20
6.1537263212
 30
0.0
 10
11.2277426043
 20
6.1551053827
 30
0.0
 10
11.2279340474
 20
6.1558115422
 30
0.0
  0
LINE
  5
372
100
AcDbEntity
  8
0
100
AcDbLine
 62
7
  6
CONTINUOUS
 10
11.5528917259
 20
6.1557596377
 11
11.5584446658
 21
6.1561851577
  0
LINE
  5
373
100
AcDbEntity
  8
0
100
AcDbLine
 62
7
  6
CONTINUOUS
 10
11.5794158497
 20
6.1572366311
 11
11.5903438933
 21
6.1576370472
  0
LINE
  5
374
100
AcDbEntity
  8
0
100
AcDbLine
 62
7
  6
CONTINUOUS
 10
10.2010979248
 20
6.2353842572
 11
10.1750088385
 21
6.2373469469
  0
LINE
  5
375
100
AcDbEntity
  8
0
100
AcDbLine
 62
7
  6
CONTINUOUS
 10
10.1750088385
 20
6.2373469469
 11
10.1299954174
 21
6.2407341978
  0
LINE
  5
376
100
AcDbEntity
  8
0
100
AcDbLine
 62
7
  6
CONTINUOUS
 10
11.9646410867
 20
6.2407341839
 11
11.9195953193
 21
6.2373444767
  0
LINE
  5
377
100
AcDbEntity
  8
0
100
AcDbLine
 62
7
  6
CONTINUOUS
 10
11.9195953193
 20
6.2373444767
 11
11.8935370753
 21
6.2353841122
  0
LINE
  5
378
100
AcDbEntity
  8
0
100
AcDbLine
 62
7
  6
CONTINUOUS
 10
11.3661522023
 20
6.2073048284
 11
11.3487908456
 21
6.2069016561
  0
LINE
  5
379
100
AcDbEntity
  8
0
100
AcDbLine
 62
7
  6
CONTINUOUS
 10
11.3487908456
 20
6.2069016561
 11
11.3269439949
 21
6.2063943043
  0
LINE
  5
37A
100
AcDbEntity
  8
0
100
AcDbLine
 62
7
  6
CONTINUOUS
 10
11.3269439949
 20
6.2063943043
 11
11.3032237638
 21
6.2058434529
  0
LINE
  5
37B
100
AcDbEntity
  8
0
100
AcDbLine
 62
7
  6
CONTINUOUS
 10
11.3032237638
 20
6.2058434425
 11
11.2762886374
 21
6.2052180051
  0
LINE
  5
37C
100
AcDbEntity
  8
0
100
AcDbLine
 62
7
  6
CONTINUOUS
 10
10.818353191
 20
6.2052178869
 11
10.7914127402
 21
6.2058434569
  0
LINE
  5
37D
100
AcDbEntity
  8
0
100
AcDbLine
 62
7
  6
CONTINUOUS
 10
10.7914127402
 20
6.205843447
 11
10.7668257233
 21
6.2064144147
  0
LINE
  5
37E
100
AcDbEntity
  8
0
100
AcDbLine
 62
7
  6
CONTINUOUS
 10
10.7668257233
 20
6.2064144147
 11
10.7446881664
 21
6.206928528
  0
LINE
  5
37F
100
AcDbEntity
  8
0
100
AcDbLine
 62
7
  6
CONTINUOUS
 10
10.7446881664
 20
6.206928528
 11
10.7283914582
 21
6.2073069901
  0
SPLINE
  5
380
100
AcDbEntity
  8
0
100
AcDbSpline
 62
7
  6
CONTINUOUS
 70
0
 71
3
 72
27
 73
23
 74
0
 42
0.0000001
 43
0.0000001
 44
0.0000000001
 40
0.0
 40
0.0
 40
0.0
 40
0.0
 40
0.1947972826
 40
0.3823661907
 40
0.4710184849
 40
0.5551392464
 40
0.6339318892
 40
0.7066453409
 40
0.7725381842
 40
0.8309735901
 40
0.8814086817
 40
0.9233272437
 40
0.9409729065
 40
0.9563571166
 40
0.9694415028
 40
0.9801895285
 40
0.9885810845
 40
0.9946188268
 40
0.9967631096
 40
0.9983370148
 40
0.9993733193
 40
1.0
 40
1.0
 40
1.0
 40
1.0
 10
10.2610116835
 20
6.2360261711
 30
0.0
 10
10.2551343613
 20
6.2364466749
 30
0.0
 10
10.2435959455
 20
6.2372462607
 30
0.0
 10
10.2293779353
 20
6.2381657859
 30
0.0
 10
10.2184980691
 20
6.2388255779
 30
0.0
 10
10.2109011956
 20
6.239264164
 30
0.0
 10
10.2037843425
 20
6.2396517161
 30
0.0
 10
10.1972167482
 20
6.239984751
 30
0.0
 10
10.1912628426
 20
6.240259885
 30
0.0
 10
10.1859808208
 20
6.2404746205
 30
0.0
 10
10.1814221789
 20
6.2406272829
 30
0.0
 10
10.1780956872
 20
6.240706227
 30
0.0
 10
10.1758287378
 20
6.2407332089
 30
0.0
 10
10.1744338137
 20
6.2407360973
 30
0.0
 10
10.1732476104
 20
6.2407230487
 30
0.0
 10
10.1722731729
 20
6.2406943917
 30
0.0
 10
10.1715128337
 20
6.2406505441
 30
0.0
 10
10.1710136481
 20
6.2405986473
 30
0.0
 10
10.1707232529
 20
6.2405451655
 30
0.0
 10
10.1705848512
 20
6.2405040677
 30
0.0
 10
10.1704951392
 20
6.2404654308
 30
0.0
 10
10.17046089
 20
6.2404197436
 30
0.0
 10
10.1704607816
 20
6.2404007877
 30
0.0
  0
SPLINE
  5
381
100
AcDbEntity
  8
0
100
AcDbSpline
 62
7
  6
CONTINUOUS
 70
0
 71
3
 72
26
 73
22
 74
0
 42
0.0000001
 43
0.0000001
 44
0.0000000001
 40
0.0
 40
0.0
 40
0.0
 40
0.0
 40
0.1943889551
 40
0.3815258245
 40
0.5538474404
 40
0.6324210807
 40
0.7049258356
 40
0.7706253603
 40
0.8288952293
 40
0.8792068674
 40
0.9210569915
 40
0.9386961584
 40
0.9541021573
 40
0.9672472087
 40
0.9781096556
 40
0.9866839588
 40
0.993015831
 40
0.9953837385
 40
0.9972672433
 40
0.9987500461
 40
1.0
 40
1.0
 40
1.0
 40
1.0
 10
10.4329071759
 20
6.2384793956
 30
0.0
 10
10.4270270559
 20
6.2388082023
 30
0.0
 10
10.4154829671
 20
6.23939761
 30
0.0
 10
10.3987171302
 20
6.2400847643
 30
0.0
 10
10.3854517259
 20
6.2404786289
 30
0.0
 10
10.3756554928
 20
6.2406633832
 30
0.0
 10
10.3690881676
 20
6.2407337354
 30
0.0
 10
10.3631355822
 20
6.240739433
 30
0.0
 10
10.3578556224
 20
6.2406808423
 30
0.0
 10
10.3532995012
 20
6.2405595266
 30
0.0
 10
10.3499762292
 20
6.2404007113
 30
0.0
 10
10.3477131492
 20
6.2402344292
 30
0.0
 10
10.3463198312
 20
6.2401023612
 30
0.0
 10
10.345134569
 20
6.2399563453
 30
0.0
 10
10.3441597364
 20
6.2397975786
 30
0.0
 10
10.3433979208
 20
6.239626142
 30
0.0
 10
10.3428980649
 20
6.2394636478
 30
0.0
 10
10.3426117999
 20
6.239317348
 30
0.0
 10
10.3424706039
 20
6.2392144968
 30
0.0
 10
10.3423796142
 20
6.239105071
 30
0.0
 10
10.3423568209
 20
6.2390217058
 30
0.0
 10
10.342356726
 20
6.2389838367
 30
0.0
  0
SPLINE
  5
382
100
AcDbEntity
  8
0
100
AcDbSpline
 62
7
  6
CONTINUOUS
 70
0
 71
3
 72
22
 73
18
 74
0
 42
0.0000001
 43
0.0000001
 44
0.0000000001
 40
0.0
 40
0.0
 40
0.0
 40
0.0
 40
0.1940495277
 40
0.3807985817
 40
0.5527606598
 40
0.7035135703
 40
0.8272435206
 40
0.8774974551
 40
0.9193634764
 40
0.9370525359
 40
0.9525333422
 40
0.9657783302
 40
0.9767781777
 40
0.9855605971
 40
0.9891427163
 40
0.9922060826
 40
1.0
 40
1.0
 40
1.0
 40
1.0
 10
10.6339324253
 20
6.2398215604
 30
0.0
 10
10.6280459543
 20
6.2400430529
 30
0.0
 10
10.6164915699
 20
6.2404045611
 30
0.0
 10
10.5997141034
 20
6.240710911
 30
0.0
 10
10.5842479641
 20
6.2407670047
 30
0.0
 10
10.5706963025
 20
6.2405725608
 30
0.0
 10
10.5608435858
 20
6.2401974976
 30
0.0
 10
10.5543063407
 20
6.2397453321
 30
0.0
 10
10.5509876516
 20
6.2394240725
 30
0.0
 10
10.5487286307
 20
6.2391307078
 30
0.0
 10
10.5473365348
 20
6.2389112376
 30
0.0
 10
10.546152665
 20
6.238681172
 30
0.0
 10
10.5451781949
 20
6.2384397894
 30
0.0
 10
10.5445044321
 20
6.2382213072
 30
0.0
 10
10.5440717522
 20
6.2380314535
 30
0.0
 10
10.5436965365
 20
6.2378310973
 30
0.0
 10
10.543381245
 20
6.2375636154
 30
0.0
 10
10.5433812442
 20
6.2373270205
 30
0.0
  0
SPLINE
  5
383
100
AcDbEntity
  8
0
100
AcDbSpline
 62
7
  6
CONTINUOUS
 70
0
 71
3
 72
24
 73
20
 74
0
 42
0.0000001
 43
0.0000001
 44
0.0000000001
 40
0.0
 40
0.0
 40
0.0
 40
0.0
 40
0.0034163308
 40
0.0056280809
 40
0.0082891318
 40
0.0151175163
 40
0.0240924732
 40
0.035279207
 40
0.0487007608
 40
0.0643451969
 40
0.0821821002
 40
0.1242864032
 40
0.1746912397
 40
0.2329347009
 40
0.2984718692
 40
0.4489589343
 40
0.6204335128
 40
0.8065808575
 40
1.0
 40
1.0
 40
1.0
 40
1.0
 10
10.7244836064
 20
6.2305167006
 30
0.0
 10
10.7244836066
 20
6.2306209089
 30
0.0
 10
10.7244057948
 20
6.2307902332
 30
0.0
 10
10.7242314065
 20
6.2309719721
 30
0.0
 10
10.7239480318
 20
6.2311918231
 30
0.0
 10
10.7234487252
 20
6.2314577504
 30
0.0
 10
10.7226843444
 20
6.2317651415
 30
0.0
 10
10.7217084487
 20
6.2320789157
 30
0.0
 10
10.7205226549
 20
6.2323984699
 30
0.0
 10
10.7191289167
 20
6.2327225125
 30
0.0
 10
10.7168700612
 20
6.2331853188
 30
0.0
 10
10.7135520696
 20
6.2337555861
 30
0.0
 10
10.7090006155
 20
6.2344131777
 30
0.0
 10
10.7037277552
 20
6.2350688554
 30
0.0
 10
10.6954105875
 20
6.2359735578
 30
0.0
 10
10.68363663
 20
6.237026011
 30
0.0
 10
10.6681769113
 20
6.2381344662
 30
0.0
 10
10.6513952117
 20
6.2390909503
 30
0.0
 10
10.6398281173
 20
6.2395998108
 30
0.0
 10
10.6339324253
 20
6.2398216503
 30
0.0
  0
SPLINE
  5
384
100
AcDbEntity
  8
0
100
AcDbSpline
 62
7
  6
CONTINUOUS
 70
0
 71
3
 72
24
 73
20
 74
0
 42
0.0000001
 43
0.0000001
 44
0.0000000001
 40
0.0
 40
0.0
 40
0.0
 40
0.0
 40
0.1936119093
 40
0.3799297584
 40
0.5514853117
 40
0.7019087003
 40
0.7673515301
 40
0.8254588027
 40
0.8756979116
 40
0.9176145938
 40
0.9353579088
 40
0.9509155381
 40
0.964263871
 40
0.975399314
 40
0.9843582501
 40
0.9912301908
 40
0.9939498999
 40
0.9962558458
 40
1.0
 40
1.0
 40
1.0
 40
1.0
 10
10.8754227596
 20
6.2405852616
 30
0.0
 10
10.8695303336
 20
6.240677463
 30
0.0
 10
10.8579660077
 20
6.2407757537
 30
0.0
 10
10.8411795725
 20
6.2406713338
 30
0.0
 10
10.8257113941
 20
6.2403176181
 30
0.0
 10
10.8139285647
 20
6.2398126144
 30
0.0
 10
10.8056065246
 20
6.2392732515
 30
0.0
 10
10.8003342548
 20
6.2388385172
 30
0.0
 10
10.7957852679
 20
6.2383599177
 30
0.0
 10
10.7924697993
 20
6.2379082959
 30
0.0
 10
10.7902138294
 20
6.2375166221
 30
0.0
 10
10.7888225244
 20
6.2372315438
 30
0.0
 10
10.7876388949
 20
6.236939499
 30
0.0
 10
10.7866645842
 20
6.2366415328
 30
0.0
 10
10.7859009892
 20
6.2363384918
 30
0.0
 10
10.7854025981
 20
6.2360660404
 30
0.0
 10
10.7851214054
 20
6.2358351618
 30
0.0
 10
10.7849444827
 20
6.2356354719
 30
0.0
 10
10.7848715785
 20
6.2354514288
 30
0.0
 10
10.7848715785
 20
6.2353374645
 30
0.0
  0
SPLINE
  5
385
100
AcDbEntity
  8
0
100
AcDbSpline
 62
7
  6
CONTINUOUS
 70
0
 71
3
 72
23
 73
19
 74
0
 42
0.0000001
 43
0.0000001
 44
0.0000000001
 40
0.0
 40
0.0
 40
0.0
 40
0.0
 40
0.0086310058
 40
0.0118633224
 40
0.0155996417
 40
0.024652326
 40
0.0358798515
 40
0.0493163552
 40
0.0649584565
 40
0.0827805421
 40
0.124829751
 40
0.1751614461
 40
0.2333272218
 40
0.2987877287
 40
0.4491467385
 40
0.6205345571
 40
0.8066211302
 40
1.0
 40
1.0
 40
1.0
 40
1.0
 10
10.9659739407
 20
6.2325055037
 30
0.0
 10
10.9659739412
 20
6.2327687095
 30
0.0
 10
10.9656713955
 20
6.2330836945
 30
0.0
 10
10.9652836982
 20
6.2333406328
 30
0.0
 10
10.9648531287
 20
6.2335787221
 30
0.0
 10
10.96417935
 20
6.2338651296
 30
0.0
 10
10.9632040456
 20
6.2341945039
 30
0.0
 10
10.9620194596
 20
6.2345233982
 30
0.0
 10
10.9606271535
 20
6.2348520981
 30
0.0
 10
10.9583709163
 20
6.2353140482
 30
0.0
 10
10.9550554133
 20
6.2358691701
 30
0.0
 10
10.9505061982
 20
6.2364899063
 30
0.0
 10
10.945234868
 20
6.2370892046
 30
0.0
 10
10.9369175798
 20
6.2378883633
 30
0.0
 10
10.9251405602
 20
6.2387616174
 30
0.0
 10
10.9096759475
 20
6.2395993162
 30
0.0
 10
10.8928886009
 20
6.2402292386
 30
0.0
 10
10.8813191995
 20
6.2404929974
 30
0.0
 10
10.8754227596
 20
6.2405852616
 30
0.0
  0
SPLINE
  5
386
100
AcDbEntity
  8
0
100
AcDbSpline
 62
7
  6
CONTINUOUS
 70
0
 71
3
 72
23
 73
19
 74
0
 42
0.0000001
 43
0.0000001
 44
0.0000000001
 40
0.0
 40
0.0
 40
0.0
 40
0.0
 40
0.1933926172
 40
0.3795072211
 40
0.5509032006
 40
0.7012597409
 40
0.7667178303
 40
0.8248755021
 40
0.8752024244
 40
0.9172425671
 40
0.9350592755
 40
0.9506970945
 40
0.9641314257
 40
0.9753564864
 40
0.984405935
 40
0.9881406256
 40
0.991371457
 40
1.0
 40
1.0
 40
1.0
 40
1.0
 10
11.2192137444
 20
6.2405852589
 30
0.0
 10
11.2133168767
 20
6.2404929881
 30
0.0
 10
11.2017461859
 20
6.2402291306
 30
0.0
 10
11.1849572939
 20
6.2395991365
 30
0.0
 10
11.169491631
 20
6.2387613641
 30
0.0
 10
11.1577145059
 20
6.2378879643
 30
0.0
 10
11.1493975979
 20
6.2370888532
 30
0.0
 10
11.1441267413
 20
6.2364894492
 30
0.0
 10
11.1395781882
 20
6.2358687619
 30
0.0
 10
11.1362632764
 20
6.2353136227
 30
0.0
 10
11.1340076164
 20
6.2348516818
 30
0.0
 10
11.1326156747
 20
6.2345230046
 30
0.0
 10
11.1314313391
 20
6.2341942194
 30
0.0
 10
11.1304562556
 20
6.2338649392
 30
0.0
 10
11.1297826916
 20
6.2335785808
 30
0.0
 10
11.1293523295
 20
6.2333405257
 30
0.0
 10
11.1289648024
 20
6.2330835998
 30
0.0
 10
11.1286625631
 20
6.2327686045
 30
0.0
 10
11.1286625633
 20
6.2325054734
 30
0.0
  0
SPLINE
  5
387
100
AcDbEntity
  8
0
100
AcDbSpline
 62
7
  6
CONTINUOUS
 70
0
 71
3
 72
24
 73
20
 74
0
 42
0.0000001
 43
0.0000001
 44
0.0000000001
 40
0.0
 40
0.0
 40
0.0
 40
0.0
 40
0.0037444468
 40
0.0060509969
 40
0.0087715956
 40
0.0156458827
 40
0.0246073669
 40
0.0357449197
 40
0.049095289
 40
0.0646567897
 40
0.0824048894
 40
0.1243293662
 40
0.1745718252
 40
0.2326849119
 40
0.2981287538
 40
0.4485515263
 40
0.6200984159
 40
0.8063964218
 40
1.0
 40
1.0
 40
1.0
 40
1.0
 10
11.3097649255
 20
6.2353374648
 30
0.0
 10
11.3097649255
 20
6.2354514379
 30
0.0
 10
11.3096919524
 20
6.2356354986
 30
0.0
 10
11.3095149381
 20
6.2358351744
 30
0.0
 10
11.3092336003
 20
6.2360660608
 30
0.0
 10
11.3087350178
 20
6.2363385202
 30
0.0
 10
11.3079712082
 20
6.2366415927
 30
0.0
 10
11.3069967061
 20
6.2369396213
 30
0.0
 10
11.3058128481
 20
6.2372317549
 30
0.0
 10
11.304421217
 20
6.2375168579
 30
0.0
 10
11.3021647456
 20
6.2379085517
 30
0.0
 10
11.2988487933
 20
6.2383601796
 30
0.0
 10
11.2942992961
 20
6.23883881
 30
0.0
 10
11.2890267121
 20
6.2392734218
 30
0.0
 10
11.2807044939
 20
6.2398127835
 30
0.0
 10
11.2689219272
 20
6.2403177
 30
0.0
 10
11.2534546556
 20
6.2406714035
 30
0.0
 10
11.2366693624
 20
6.2407757899
 30
0.0
 10
11.2251059094
 20
6.2406774561
 30
0.0
 10
11.2192137444
 20
6.2405852589
 30
0.0
  0
SPLINE
  5
388
100
AcDbEntity
  8
0
100
AcDbSpline
 62
7
  6
CONTINUOUS
 70
0
 71
3
 72
22
 73
18
 74
0
 42
0.0000001
 43
0.0000001
 44
0.0000000001
 40
0.0
 40
0.0
 40
0.0
 40
0.0
 40
0.0077959576
 40
0.0108605324
 40
0.0144439633
 40
0.0232289466
 40
0.0342306799
 40
0.047477203
 40
0.0629611868
 40
0.0806542298
 40
0.1225264647
 40
0.1727821125
 40
0.2965149892
 40
0.4472632925
 40
0.6192153388
 40
0.8059528235
 40
1.0
 40
1.0
 40
1.0
 40
1.0
 10
11.5512552599
 20
6.2373269782
 30
0.0
 10
11.5512552592
 20
6.2375636348
 30
0.0
 10
11.5509397172
 20
6.2378310908
 30
0.0
 10
11.5505643713
 20
6.2380314559
 30
0.0
 10
11.5501315263
 20
6.2382213288
 30
0.0
 10
11.5494575957
 20
6.2384398423
 30
0.0
 10
11.5484829532
 20
6.2386812849
 30
0.0
 10
11.5472988934
 20
6.2389114176
 30
0.0
 10
11.5459065299
 20
6.2391308814
 30
0.0
 10
11.5436470979
 20
6.2394242138
 30
0.0
 10
11.540328044
 20
6.2397454179
 30
0.0
 10
11.5337904746
 20
6.2401975679
 30
0.0
 10
11.5239377647
 20
6.2405725818
 30
0.0
 10
11.5103864723
 20
6.2407670093
 30
0.0
 10
11.4949211437
 20
6.2407109402
 30
0.0
 10
11.4781444211
 20
6.2404045567
 30
0.0
 10
11.4665904726
 20
6.2400429971
 30
0.0
 10
11.4607040788
 20
6.2398215076
 30
0.0
  0
SPLINE
  5
389
100
AcDbEntity
  8
0
100
AcDbSpline
 62
7
  6
CONTINUOUS
 70
0
 71
3
 72
24
 73
20
 74
0
 42
0.0000001
 43
0.0000001
 44
0.0000000001
 40
0.0
 40
0.0
 40
0.0
 40
0.0
 40
0.1934277597
 40
0.3795971011
 40
0.5510814218
 40
0.7015689725
 40
0.7671053364
 40
0.8253425918
 40
0.8757438539
 40
0.9178399244
 40
0.9356717058
 40
0.9513120499
 40
0.9647317006
 40
0.9759163837
 40
0.984888244
 40
0.9917134891
 40
0.9943732803
 40
0.9965841387
 40
1.0
 40
1.0
 40
1.0
 40
1.0
 10
11.4607040788
 20
6.2398217178
 30
0.0
 10
11.4548081127
 20
6.239599868
 30
0.0
 10
11.4432400671
 20
6.2390908677
 30
0.0
 10
11.426457111
 20
6.2381342463
 30
0.0
 10
11.4109963788
 20
6.2370257536
 30
0.0
 10
11.3992221229
 20
6.2359731608
 30
0.0
 10
11.3909051374
 20
6.2350684695
 30
0.0
 10
11.3856326042
 20
6.2344126953
 30
0.0
 10
11.3810816886
 20
6.2337551592
 30
0.0
 10
11.3777642115
 20
6.2331849043
 30
0.0
 10
11.3755058899
 20
6.2327221207
 30
0.0
 10
11.3741124922
 20
6.2323981008
 30
0.0
 10
11.3729269284
 20
6.2320786311
 30
0.0
 10
11.3719512319
 20
6.2317649289
 30
0.0
 10
11.3711871076
 20
6.2314575709
 30
0.0
 10
11.370688048
 20
6.2311916528
 30
0.0
 10
11.3704048709
 20
6.2309718122
 30
0.0
 10
11.3702306055
 20
6.2307900555
 30
0.0
 10
11.3701528976
 20
6.2306207534
 30
0.0
 10
11.3701528977
 20
6.2305165591
 30
0.0
  0
SPLINE
  5
38A
100
AcDbEntity
  8
0
100
AcDbSpline
 62
7
  6
CONTINUOUS
 70
0
 71
3
 72
25
 73
21
 74
0
 42
0.0000001
 43
0.0000001
 44
0.0000000001
 40
0.0
 40
0.0
 40
0.0
 40
0.0
 40
0.1937432326
 40
0.3802365413
 40
0.5520599282
 40
0.6304724162
 40
0.7028812176
 40
0.768563998
 40
0.8269224321
 40
0.8774059127
 40
0.9195291199
 40
0.9373459737
 40
0.9529466064
 40
0.9662950228
 40
0.9773678636
 40
0.9861717767
 40
0.9927434841
 40
0.9952263174
 40
0.997212795
 40
1.0
 40
1.0
 40
1.0
 40
1.0
 10
11.6617293282
 20
6.2384795451
 30
0.0
 10
11.6558377739
 20
6.238150099
 30
0.0
 10
11.644278183
 20
6.2374472946
 30
0.0
 10
11.6275061206
 20
6.236258607
 30
0.0
 10
11.6142491
 20
6.2351694827
 30
0.0
 10
11.6044645415
 20
6.2342599566
 30
0.0
 10
11.597903917
 20
6.2335967263
 30
0.0
 10
11.5919570434
 20
6.2329374764
 30
0.0
 10
11.5866810968
 20
6.2322894146
 30
0.0
 10
11.5821264288
 20
6.231659168
 30
0.0
 10
11.578804845
 20
6.2311293233
 30
0.0
 10
11.576542407
 20
6.2307107714
 30
0.0
 10
11.575147307
 20
6.2304230245
 30
0.0
 10
11.5739604619
 20
6.2301444131
 30
0.0
 10
11.5729842721
 20
6.2298764238
 30
0.0
 10
11.5722204504
 20
6.2296188676
 30
0.0
 10
11.5717206014
 20
6.2294015751
 30
0.0
 10
11.5714336576
 20
6.2292221797
 30
0.0
 10
11.5712650014
 20
6.2290836474
 30
0.0
 10
11.5711781594
 20
6.2289458938
 30
0.0
 10
11.5711781454
 20
6.228861005
 30
0.0
  0
SPLINE
  5
38B
100
AcDbEntity
  8
0
100
AcDbSpline
 62
7
  6
CONTINUOUS
 70
0
 71
3
 72
27
 73
23
 74
0
 42
0.0000001
 43
0.0000001
 44
0.0000000001
 40
0.0
 40
0.0
 40
0.0
 40
0.0
 40
0.194368803
 40
0.3814809679
 40
0.4699417934
 40
0.5539098447
 40
0.6326007951
 40
0.7052553125
 40
0.7711384338
 40
0.829639428
 40
0.8801893554
 40
0.9023177896
 40
0.9222832975
 40
0.9400412076
 40
0.9555472494
 40
0.9687578684
 40
0.9796383877
 40
0.9881760241
 40
0.9943677838
 40
0.998234143
 40
0.9993375994
 40
1.0
 40
1.0
 40
1.0
 40
1.0
 10
11.8336248206
 20
6.2360261588
 30
0.0
 10
11.8277414625
 20
6.2356052232
 30
0.0
 10
11.8161962305
 20
6.2347532402
 30
0.0
 10
11.8019787734
 20
6.2336382347
 30
0.0
 10
11.7911048692
 20
6.2327417581
 30
0.0
 10
11.7835118761
 20
6.2320936894
 30
0.0
 10
11.7763988079
 20
6.2314634208
 30
0.0
 10
11.7698346141
 20
6.2308572008
 30
0.0
 10
11.7638830256
 20
6.230280723
 30
0.0
 10
11.7586019956
 20
6.2297398985
 30
0.0
 10
11.7546447752
 20
6.2293065415
 30
0.0
 10
11.7518525095
 20
6.22897888
 30
0.0
 10
11.7500499056
 20
6.2287562566
 30
0.0
 10
11.7484482571
 20
6.2285462725
 30
0.0
 10
11.7470517183
 20
6.2283495494
 30
0.0
 10
11.7458639191
 20
6.2281667128
 30
0.0
 10
11.7448883858
 20
6.2279985033
 30
0.0
 10
11.7441254213
 20
6.2278456666
 30
0.0
 10
11.7435791632
 20
6.2277104499
 30
0.0
 10
11.7432545562
 20
6.2276002887
 30
0.0
 10
11.7431081988
 20
6.2275148509
 30
0.0
 10
11.7430736678
 20
6.2274659851
 30
0.0
 10
11.7430736452
 20
6.2274458836
 30
0.0
  0
SPLINE
  5
38C
100
AcDbEntity
  8
0
100
AcDbSpline
 62
7
  6
CONTINUOUS
 70
0
 71
3
 72
25
 73
21
 74
0
 42
0.0000001
 43
0.0000001
 44
0.0000000001
 40
0.0
 40
0.0
 40
0.0
 40
0.0
 40
0.2056914115
 40
0.397154074
 40
0.4859339498
 40
0.5692649899
 40
0.6465461877
 40
0.7172268542
 40
0.7808491578
 40
0.8369665905
 40
0.8851765622
 40
0.9251860861
 40
0.9567271594
 40
0.9692502676
 40
0.9795944523
 40
0.9877643989
 40
0.9937836896
 40
0.9960107564
 40
0.9977455429
 40
1.0
 40
1.0
 40
1.0
 40
1.0
 10
11.4022743286
 20
6.2185668208
 30
0.0
 10
11.3974903211
 20
6.2183633095
 30
0.0
 10
11.3882544184
 20
6.2179420228
 30
0.0
 10
11.3769576905
 20
6.217349111
 30
0.0
 10
11.3685085512
 20
6.2168523216
 30
0.0
 10
11.3627145195
 20
6.2164848078
 30
0.0
 10
11.357342853
 20
6.2161155003
 30
0.0
 10
11.3524311163
 20
6.2157468755
 30
0.0
 10
11.3480132696
 20
6.2153819702
 30
0.0
 10
11.3441199372
 20
6.2150235037
 30
0.0
 10
11.340777933
 20
6.2146743679
 30
0.0
 10
11.3380103471
 20
6.2143372664
 30
0.0
 10
11.336073455
 20
6.2140530714
 30
0.0
 10
11.3348274274
 20
6.2138248682
 30
0.0
 10
11.3341210515
 20
6.2136724431
 30
0.0
 10
11.3335688565
 20
6.2135246706
 30
0.0
 10
11.3332076001
 20
6.2133998118
 30
0.0
 10
11.3329983838
 20
6.2132942391
 30
0.0
 10
11.3328802902
 20
6.2132163633
 30
0.0
 10
11.3328124487
 20
6.2131329696
 30
0.0
 10
11.3328124486
 20
6.2130804876
 30
0.0
  0
SPLINE
  5
38D
100
AcDbEntity
  8
0
100
AcDbSpline
 62
7
  6
CONTINUOUS
 70
0
 71
3
 72
22
 73
18
 74
0
 42
0.0000001
 43
0.0000001
 44
0.0000000001
 40
0.0
 40
0.0
 40
0.0
 40
0.0
 40
0.2120692905
 40
0.4059077215
 40
0.5774773193
 40
0.7231533829
 40
0.7853437483
 40
0.8399743754
 40
0.8868029244
 40
0.9256188712
 40
0.9419620891
 40
0.9562357459
 40
0.968438541
 40
0.9785814735
 40
0.9866914978
 40
0.9928324716
 40
1.0
 40
1.0
 40
1.0
 40
1.0
 10
11.1604561511
 20
6.2196099045
 30
0.0
 10
11.1565767982
 20
6.2194776444
 30
0.0
 10
11.1491525226
 20
6.2191956572
 30
0.0
 10
11.1385942985
 20
6.2186960281
 30
0.0
 10
11.1292555693
 20
6.2181474392
 30
0.0
 10
11.1223288578
 20
6.2176374712
 30
0.0
 10
11.1175438366
 20
6.2172027639
 30
0.0
 10
11.1145647617
 20
6.2168895831
 30
0.0
 10
11.1120165471
 20
6.2165738847
 30
0.0
 10
11.1101700403
 20
6.2162976767
 30
0.0
 10
11.1089193849
 20
6.2160707549
 30
0.0
 10
11.1081522197
 20
6.2159110898
 30
0.0
 10
11.1075002343
 20
6.2157515927
 30
0.0
 10
11.106967157
 20
6.2155953951
 30
0.0
 10
11.1065430393
 20
6.215435741
 30
0.0
 10
11.1062064033
 20
6.2152699832
 30
0.0
 10
11.1059802063
 20
6.2150770491
 30
0.0
 10
11.1059802064
 20
6.2149458583
 30
0.0
  0
SPLINE
  5
38E
100
AcDbEntity
  8
0
100
AcDbSpline
 62
7
  6
CONTINUOUS
 70
0
 71
3
 72
25
 73
21
 74
0
 42
0.0000001
 43
0.0000001
 44
0.0000000001
 40
0.0
 40
0.0
 40
0.0
 40
0.0
 40
0.0022546993
 40
0.0039900887
 40
0.0062180118
 40
0.0122395321
 40
0.0204120188
 40
0.0307586313
 40
0.0432836454
 40
0.0748304927
 40
0.114849806
 40
0.1630673406
 40
0.219189558
 40
0.2828197405
 40
0.3535050529
 40
0.4307852456
 40
0.5141177802
 40
0.6028980801
 40
0.7943476389
 40
1.0
 40
1.0
 40
1.0
 40
1.0
 10
10.7618240554
 20
6.2130804922
 30
0.0
 10
10.7618240553
 20
6.2131329896
 30
0.0
 10
10.7617561443
 20
6.2132163963
 30
0.0
 10
10.7616379832
 20
6.2132942762
 30
0.0
 10
10.7614286296
 20
6.2133998702
 30
0.0
 10
10.7610671726
 20
6.2135247559
 30
0.0
 10
10.7605147043
 20
6.2136725683
 30
0.0
 10
10.7598080378
 20
6.2138250358
 30
0.0
 10
10.7585615475
 20
6.2140533196
 30
0.0
 10
10.7566238899
 20
6.214337596
 30
0.0
 10
10.7538552482
 20
6.2146747452
 30
0.0
 10
10.7505121082
 20
6.215023947
 30
0.0
 10
10.7466175828
 20
6.2153824785
 30
0.0
 10
10.7421985112
 20
6.2157474072
 30
0.0
 10
10.7372855955
 20
6.2161160726
 30
0.0
 10
10.7319128158
 20
6.2164854442
 30
0.0
 10
10.7261176879
 20
6.2168529703
 30
0.0
 10
10.717667242
 20
6.2173497613
 30
0.0
 10
10.7063696217
 20
6.2179425942
 30
0.0
 10
10.6971332248
 20
6.2183639001
 30
0.0
 10
10.692349243
 20
6.2185674541
 30
0.0
  0
SPLINE
  5
38F
100
AcDbEntity
  8
0
100
AcDbSpline
 62
7
  6
CONTINUOUS
 70
0
 71
3
 72
24
 73
20
 74
0
 42
0.0000001
 43
0.0000001
 44
0.0000000001
 40
0.0
 40
0.0
 40
0.0
 40
0.0
 40
0.2133003987
 40
0.4081691707
 40
0.4974166378
 40
0.5805400852
 40
0.6571160807
 40
0.7267688641
 40
0.7891237901
 40
0.8438362396
 40
0.8906537729
 40
0.9293432533
 40
0.9596791573
 40
0.9716668073
 40
0.9815246525
 40
0.9892501018
 40
0.9948492344
 40
0.9983579472
 40
1.0
 40
1.0
 40
1.0
 40
1.0
 10
11.138870516
 20
6.2070882623
 30
0.0
 10
11.1350137196
 20
6.207009437
 30
0.0
 10
11.1276336406
 20
6.2068463823
 30
0.0
 10
11.1186407323
 20
6.2066119984
 30
0.0
 10
11.1120020396
 20
6.2064139053
 30
0.0
 10
11.1075021562
 20
6.2062668198
 30
0.0
 10
11.1033569251
 20
6.2061176731
 30
0.0
 10
11.0995876128
 20
6.2059673586
 30
0.0
 10
11.0962140602
 20
6.2058167469
 30
0.0
 10
11.0932539546
 20
6.2056666215
 30
0.0
 10
11.0907223
 20
6.2055180876
 30
0.0
 10
11.0886324421
 20
6.2053722285
 30
0.0
 10
11.0871722316
 20
6.2052461807
 30
0.0
 10
11.0862346019
 20
6.2051435116
 30
0.0
 10
11.0857032716
 20
6.2050729614
 30
0.0
 10
11.0852921465
 20
6.2050072314
 30
0.0
 10
11.084988243
 20
6.2049371275
 30
0.0
 10
11.0848149558
 20
6.2048855907
 30
0.0
 10
11.0847198268
 20
6.2048218346
 30
0.0
 10
11.0847198268
 20
6.2047921376
 30
0.0
  0
SPLINE
  5
390
100
AcDbEntity
  8
0
100
AcDbSpline
 62
7
  6
CONTINUOUS
 70
0
 71
3
 72
24
 73
20
 74
0
 42
0.0000001
 43
0.0000001
 44
0.0000000001
 40
0.0
 40
0.0
 40
0.0
 40
0.0
 40
0.0016420635
 40
0.0051531432
 40
0.0107558114
 40
0.0184850453
 40
0.0283460774
 40
0.0403354936
 40
0.0706697656
 40
0.1093693635
 40
0.1562026454
 40
0.2109214481
 40
0.2732735515
 40
0.3429393601
 40
0.419524584
 40
0.5026306997
 40
0.5918525267
 40
0.7867076897
 40
1.0
 40
1.0
 40
1.0
 40
1.0
 10
11.0099166772
 20
6.2047921944
 30
0.0
 10
11.0099166771
 20
6.2048219281
 30
0.0
 10
11.00982127
 20
6.204885692
 30
0.0
 10
11.0096477108
 20
6.2049372468
 30
0.0
 10
11.0093432084
 20
6.2050073871
 30
0.0
 10
11.0089313943
 20
6.2050731604
 30
0.0
 10
11.0083992412
 20
6.2051437612
 30
0.0
 10
11.0074603957
 20
6.2052465071
 30
0.0
 10
11.0059982037
 20
6.2053727232
 30
0.0
 10
11.0039053319
 20
6.2055186896
 30
0.0
 10
11.0013699769
 20
6.2056673389
 30
0.0
 10
10.9984058799
 20
6.2058175869
 30
0.0
 10
10.9950278778
 20
6.2059683338
 30
0.0
 10
10.9912535748
 20
6.2061187116
 30
0.0
 10
10.9871031547
 20
6.206267926
 30
0.0
 10
10.9825983488
 20
6.2064151238
 30
0.0
 10
10.9759525165
 20
6.2066133422
 30
0.0
 10
10.9669494036
 20
6.2068477415
 30
0.0
 10
10.9595606426
 20
6.2070108742
 30
0.0
 10
10.9556992494
 20
6.2070896948
 30
0.0
  0
SPLINE
  5
391
100
AcDbEntity
  8
0
100
AcDbSpline
 62
7
  6
CONTINUOUS
 70
0
 71
3
 72
22
 73
18
 74
0
 42
0.0000001
 43
0.0000001
 44
0.0000000001
 40
0.0
 40
0.0
 40
0.0
 40
0.0
 40
0.0071699417
 40
0.0133150125
 40
0.021429849
 40
0.0315774142
 40
0.04378381
 40
0.0580592107
 40
0.0744043559
 40
0.1132310921
 40
0.1600725641
 40
0.2147094711
 40
0.276902387
 40
0.4225895749
 40
0.594144958
 40
0.7879694132
 40
1.0
 40
1.0
 40
1.0
 40
1.0
 10
10.9886562976
 20
6.2149459074
 30
0.0
 10
10.9886562978
 20
6.2150771828
 30
0.0
 10
10.9884297001
 20
6.2152701212
 30
0.0
 10
10.9880927788
 20
6.2154359098
 30
0.0
 10
10.987668249
 20
6.2155956201
 30
0.0
 10
10.9871347704
 20
6.2157518811
 30
0.0
 10
10.9864823977
 20
6.2159114434
 30
0.0
 10
10.9857148681
 20
6.216071193
 30
0.0
 10
10.9844635635
 20
6.2162982215
 30
0.0
 10
10.9826160029
 20
6.2165744586
 30
0.0
 10
10.9800664388
 20
6.2168901701
 30
0.0
 10
10.9770860379
 20
6.2172033875
 30
0.0
 10
10.9722991657
 20
6.2176381472
 30
0.0
 10
10.9653703123
 20
6.2181480745
 30
0.0
 10
10.9560290111
 20
6.2186967769
 30
0.0
 10
10.9454687415
 20
6.2191962862
 30
0.0
 10
10.9380431373
 20
6.2194782843
 30
0.0
 10
10.934163294
 20
6.2196105179
 30
0.0
  0
SPLINE
  5
392
100
AcDbEntity
  8
0
100
AcDbSpline
 62
7
  6
CONTINUOUS
 70
0
 71
3
 72
17
 73
13
 74
0
 42
0.0000001
 43
0.0000001
 44
0.0000000001
 40
0.0
 40
0.0
 40
0.0
 40
0.0
 40
0.2243348301
 40
0.4206137638
 40
0.5883652017
 40
0.6614116758
 40
0.7271768743
 40
0.8367986163
 40
0.9174068995
 40
0.9471213852
 40
0.9701705238
 40
1.0
 40
1.0
 40
1.0
 40
1.0
 10
10.8166372721
 20
6.2191453775
 30
0.0
 10
10.815937156
 20
6.2190865669
 30
0.0
 10
10.8146251563
 20
6.2189678408
 30
0.0
 10
10.8127930644
 20
6.2187697393
 30
0.0
 10
10.811435665
 20
6.2185915307
 30
0.0
 10
10.8104871535
 20
6.2184422596
 30
0.0
 10
10.8097211626
 20
6.2183058881
 30
0.0
 10
10.8089366941
 20
6.2181367596
 30
0.0
 10
10.808275245
 20
6.2179438756
 30
0.0
 10
10.8078909434
 20
6.2177709654
 30
0.0
 10
10.8076740573
 20
6.2176414239
 30
0.0
 10
10.8075487768
 20
6.2174936975
 30
0.0
 10
10.8075488364
 20
6.2174002762
 30
0.0
  0
LINE
  5
393
100
AcDbEntity
  8
0
100
AcDbLine
 62
7
  6
CONTINUOUS
 10
11.5351549774
 20
6.1547694943
 11
11.5547208673
 21
6.1554628488
  0
SPLINE
  5
394
100
AcDbEntity
  8
0
100
AcDbSpline
 62
7
  6
CONTINUOUS
 70
0
 71
3
 72
21
 73
17
 74
0
 42
0.0000001
 43
0.0000001
 44
0.0000000001
 40
0.0
 40
0.0
 40
0.0
 40
0.0
 40
0.2743333425
 40
0.3779466953
 40
0.4573912377
 40
0.4886695696
 40
0.5165705767
 40
0.547838523
 40
0.573848123
 40
0.6112929964
 40
0.6575508151
 40
0.7057270746
 40
0.8030716239
 40
0.8521001672
 40
0.9012833022
 40
1.0
 40
1.0
 40
1.0
 40
1.0
 10
11.59877691
 20
6.1576061206
 30
0.0
 10
11.6017341609
 20
6.1577732768
 30
0.0
 10
11.6058079467
 20
6.1580115866
 30
0.0
 10
11.6107355499
 20
6.1583387152
 30
0.0
 10
11.6130434657
 20
6.1585098875
 30
0.0
 10
11.6145345545
 20
6.1586398171
 30
0.0
 10
11.6155061512
 20
6.158738852
 30
0.0
 10
11.6164177338
 20
6.1588625814
 30
0.0
 10
11.6174232419
 20
6.1590538071
 30
0.0
 10
11.6185621515
 20
6.1593863972
 30
0.0
 10
11.6198880896
 20
6.1599147078
 30
0.0
 10
11.6216977721
 20
6.160931288
 30
0.0
 10
11.6233145337
 20
6.1623164113
 30
0.0
 10
11.6246216451
 20
6.163981089
 30
0.0
 10
11.6257050764
 20
6.1658162744
 30
0.0
 10
11.6262300693
 20
6.1673505867
 30
0.0
 10
11.6264418264
 20
6.1683951816
 30
0.0
  0
SPLINE
  5
395
100
AcDbEntity
  8
0
100
AcDbSpline
 62
7
  6
CONTINUOUS
 70
0
 71
3
 72
22
 73
18
 74
0
 42
0.0000001
 43
0.0000001
 44
0.0000000001
 40
0.0
 40
0.0
 40
0.0
 40
0.0
 40
0.1876087721
 40
0.3745511323
 40
0.5606231283
 40
0.6065640305
 40
0.6515021962
 40
0.6939093815
 40
0.7304977555
 40
0.758408824
 40
0.7790591327
 40
0.7954080546
 40
0.8097117538
 40
0.835849652
 40
0.8627003586
 40
0.9243339071
 40
1.0
 40
1.0
 40
1.0
 40
1.0
 10
11.5188653099
 20
6.1657395276
 30
0.0
 10
11.5189856909
 20
6.1643645367
 30
0.0
 10
11.5197123807
 20
6.1616382614
 30
0.0
 10
11.5221071313
 20
6.1581859389
 30
0.0
 10
11.5246735249
 20
6.1563571667
 30
0.0
 10
11.5265450673
 20
6.1555486694
 30
0.0
 10
11.527477617
 20
6.1552407694
 30
0.0
 10
11.5283645603
 20
6.1550263041
 30
0.0
 10
11.5291386608
 20
6.1548853926
 30
0.0
 10
11.5297598508
 20
6.1548021582
 30
0.0
 10
11.5302362051
 20
6.1547653528
 30
0.0
 10
11.5306134529
 20
6.1547524901
 30
0.0
 10
11.5310309979
 20
6.1547378154
 30
0.0
 10
11.5315259593
 20
6.1547255291
 30
0.0
 10
11.5323692781
 20
6.1547237142
 30
0.0
 10
11.5335769006
 20
6.154736329
 30
0.0
 10
11.5345868358
 20
6.1547563889
 30
0.0
 10
11.5351433745
 20
6.1547689619
 30
0.0
  0
LINE
  5
396
100
AcDbEntity
  8
0
100
AcDbLine
 62
7
  6
CONTINUOUS
 10
10.5023746994
 20
6.1576381546
 11
10.5042926108
 21
6.1576474312
  0
SPLINE
  5
397
100
AcDbEntity
  8
0
100
AcDbSpline
 62
7
  6
CONTINUOUS
 70
0
 71
3
 72
15
 73
11
 74
0
 42
0.0000001
 43
0.0000001
 44
0.0000000001
 40
0.0
 40
0.0
 40
0.0
 40
0.0
 40
0.1372415056
 40
0.2704070047
 40
0.3476525551
 40
0.4391546552
 40
0.6248859467
 40
0.718635476
 40
0.8124859699
 40
1.0
 40
1.0
 40
1.0
 40
1.0
 10
10.5594941486
 20
6.1547793206
 30
0.0
 10
10.5605040547
 20
6.1547565059
 30
0.0
 10
10.562490991
 20
6.1547171453
 30
0.0
 10
10.565062403
 20
6.1547612185
 30
0.0
 10
10.5672403298
 20
6.1552446478
 30
0.0
 10
10.5696920911
 20
6.1561623909
 30
0.0
 10
10.5719607431
 20
6.1577966576
 30
0.0
 10
10.573725944
 20
6.1599167019
 30
0.0
 10
10.5751028862
 20
6.1623221135
 30
0.0
 10
10.5756519047
 20
6.1643749537
 30
0.0
 10
10.5757722789
 20
6.1657498882
 30
0.0
  0
SPLINE
  5
398
100
AcDbEntity
  8
0
100
AcDbSpline
 62
7
  6
CONTINUOUS
 70
0
 71
3
 72
18
 73
14
 74
0
 42
0.0000001
 43
0.0000001
 44
0.0000000001
 40
0.0
 40
0.0
 40
0.0
 40
0.0
 40
0.2076608266
 40
0.3108541602
 40
0.4150174486
 40
0.5167959513
 40
0.6062992517
 40
0.6756840728
 40
0.7201457461
 40
0.7775526459
 40
0.8402162129
 40
0.9130978596
 40
1.0
 40
1.0
 40
1.0
 40
1.0
 10
10.4690921828
 20
6.1656769235
 30
0.0
 10
10.4695906146
 20
6.1646152238
 30
0.0
 10
10.4705843298
 20
6.1631286616
 30
0.0
 10
10.4722728844
 20
6.1614940545
 30
0.0
 10
10.4737094075
 20
6.1604888155
 30
0.0
 10
10.4751974259
 20
6.1597239878
 30
0.0
 10
10.4765862987
 20
6.1592217856
 30
0.0
 10
10.4777076022
 20
6.1589668147
 30
0.0
 10
10.4786607144
 20
6.1587997392
 30
0.0
 10
10.4795856863
 20
6.1587054659
 30
0.0
 10
10.4806698711
 20
6.1585960981
 30
0.0
 10
10.4819225502
 20
6.1584980636
 30
0.0
 10
10.4828224231
 20
6.1584300627
 30
0.0
 10
10.4833119789
 20
6.1583947613
 30
0.0
  0
LINE
  5
399
100
AcDbEntity
  8
0
100
AcDbLine
 62
7
  6
CONTINUOUS
 10
10.4833119789
 20
6.1583947613
 11
10.4980089671
 21
6.1574962626
  0
LINE
  5
39A
100
AcDbEntity
  8
0
100
AcDbLine
 62
7
  6
CONTINUOUS
 10
10.5418010272
 20
6.1553954566
 11
10.55948243
 21
6.1547799128
  0
SPLINE
  5
39B
100
AcDbEntity
  8
0
100
AcDbSpline
 62
7
  6
CONTINUOUS
 70
0
 71
3
 72
14
 73
10
 74
0
 42
0.0000001
 43
0.0000001
 44
0.0000000001
 40
0.0
 40
0.0
 40
0.0
 40
0.0
 40
0.02146596
 40
0.0709874578
 40
0.1511188904
 40
0.2619697303
 40
0.4030985814
 40
0.5739112151
 40
1.0
 40
1.0
 40
1.0
 40
1.0
 10
10.6515878349
 20
6.1573623745
 30
0.0
 10
10.651587835
 20
6.1573873776
 30
0.0
 10
10.6516835313
 20
6.1574336432
 30
0.0
 10
10.6518387229
 20
6.1574658626
 30
0.0
 10
10.6521253359
 20
6.1575084675
 30
0.0
 10
10.6525067446
 20
6.1575419341
 30
0.0
 10
10.6529997415
 20
6.1575738274
 30
0.0
 10
10.6538578479
 20
6.15761185
 30
0.0
 10
10.6545533008
 20
6.1576285067
 30
0.0
 10
10.6550495247
 20
6.1576370523
 30
0.0
  0
SPLINE
  5
39C
100
AcDbEntity
  8
0
100
AcDbSpline
 62
7
  6
CONTINUOUS
 70
0
 71
3
 72
13
 73
9
 74
0
 42
0.0000001
 43
0.0000001
 44
0.0000000001
 40
0.0
 40
0.0
 40
0.0
 40
0.0
 40
0.1163714521
 40
0.2391597577
 40
0.4929692647
 40
0.7508905641
 40
0.8780282432
 40
1.0
 40
1.0
 40
1.0
 40
1.0
 10
10.1758269131
 20
6.1777548264
 30
0.0
 10
10.1751779976
 20
6.177806113
 30
0.0
 10
10.1738517255
 20
6.1780360587
 30
0.0
 10
10.1712390756
 20
6.1789393369
 30
0.0
 10
10.1681912561
 20
6.1809229585
 30
0.0
 10
10.1661261952
 20
6.1839473329
 30
0.0
 10
10.1651373415
 20
6.1866133401
 30
0.0
 10
10.1648778155
 20
6.1879923107
 30
0.0
 10
10.1648183759
 20
6.1886719817
 30
0.0
  0
SPLINE
  5
39D
100
AcDbEntity
  8
0
100
AcDbSpline
 62
7
  6
CONTINUOUS
 70
0
 71
3
 72
9
 73
5
 74
0
 42
0.0000001
 43
0.0000001
 44
0.0000000001
 40
0.0
 40
0.0
 40
0.0
 40
0.0
 40
0.483843807
 40
1.0
 40
1.0
 40
1.0
 40
1.0
 10
10.2629032047
 20
6.1712313402
 30
0.0
 10
10.2639916734
 20
6.1711542708
 30
0.0
 10
10.2662708875
 20
6.1713557614
 30
0.0
 10
10.2684214948
 20
6.1721266386
 30
0.0
 10
10.2694518673
 20
6.1726682874
 30
0.0
  0
SPLINE
  5
39E
100
AcDbEntity
  8
0
100
AcDbSpline
 62
7
  6
CONTINUOUS
 70
0
 71
3
 72
17
 73
13
 74
0
 42
0.0000001
 43
0.0000001
 44
0.0000000001
 40
0.0
 40
0.0
 40
0.0
 40
0.0
 40
0.1024197589
 40
0.1903146862
 40
0.2668717602
 40
0.3424122424
 40
0.4584351056
 40
0.5397505674
 40
0.6296202517
 40
0.721373474
 40
0.8141077213
 40
1.0
 40
1.0
 40
1.0
 40
1.0
 10
10.7058967188
 20
6.1547682071
 30
0.0
 10
10.7067506976
 20
6.1547828681
 30
0.0
 10
10.7083374184
 20
6.1548193345
 30
0.0
 10
10.710561418
 20
6.154904163
 30
0.0
 10
10.712558873
 20
6.155037845
 30
0.0
 10
10.7147812791
 20
6.1552868345
 30
0.0
 10
10.7170072621
 20
6.1558479418
 30
0.0
 10
10.7191638784
 20
6.1569122259
 30
0.0
 10
10.7209700704
 20
6.158175024
 30
0.0
 10
10.7225604058
 20
6.1598430606
 30
0.0
 10
10.7242331698
 20
6.1624543598
 30
0.0
 10
10.7249038024
 20
6.1647583844
 30
0.0
 10
10.7250396918
 20
6.1663026203
 30
0.0
  0
LINE
  5
39F
100
AcDbEntity
  8
0
100
AcDbLine
 62
7
  6
CONTINUOUS
 10
10.2008615591
 20
6.1758086281
 11
10.2026870909
 21
6.1756720839
  0
LINE
  5
3A0
100
AcDbEntity
  8
0
100
AcDbLine
 62
7
  6
CONTINUOUS
 10
10.2026870909
 20
6.1756720839
 11
10.2384063225
 21
6.1729998892
  0
LINE
  5
3A1
100
AcDbEntity
  8
0
100
AcDbLine
 62
7
  6
CONTINUOUS
 10
10.2384063225
 20
6.1729998892
 11
10.2402316379
 21
6.1728633947
  0
SPLINE
  5
3A2
100
AcDbEntity
  8
0
100
AcDbSpline
 62
7
  6
CONTINUOUS
 70
0
 71
3
 72
9
 73
5
 74
0
 42
0.0000001
 43
0.0000001
 44
0.0000000001
 40
0.0
 40
0.0
 40
0.0
 40
0.0
 40
0.2511904887
 40
1.0
 40
1.0
 40
1.0
 40
1.0
 10
10.6172579519
 20
6.1691543948
 30
0.0
 10
10.6172992895
 20
6.1686967234
 30
0.0
 10
10.6175685223
 20
6.1668857284
 30
0.0
 10
10.6182444219
 20
6.1651348721
 30
0.0
 10
10.6189495634
 20
6.1639604026
 30
0.0
  0
SPLINE
  5
3A3
100
AcDbEntity
  8
0
100
AcDbSpline
 62
7
  6
CONTINUOUS
 70
0
 71
3
 72
11
 73
7
 74
0
 42
0.0000001
 43
0.0000001
 44
0.0000000001
 40
0.0
 40
0.0
 40
0.0
 40
0.0
 40
0.2595145213
 40
0.5171827365
 40
0.769262849
 40
1.0
 40
1.0
 40
1.0
 40
1.0
 10
10.6189495634
 20
6.1639604026
 30
0.0
 10
10.6192593465
 20
6.1634444342
 30
0.0
 10
10.6199553973
 20
6.1624608477
 30
0.0
 10
10.6212061524
 20
6.1611786972
 30
0.0
 10
10.6225797006
 20
6.1601398339
 30
0.0
 10
10.6235463533
 20
6.1595695339
 30
0.0
 10
10.6240230532
 20
6.1593264824
 30
0.0
  0
LINE
  5
3A4
100
AcDbEntity
  8
0
100
AcDbLine
 62
7
  6
CONTINUOUS
 10
10.6944841714
 20
6.1547571853
 11
10.7059061721
 21
6.1547676757
  0
LINE
  5
3A5
100
AcDbEntity
  8
0
100
AcDbLine
 62
7
  6
CONTINUOUS
 10
11.1768463482
 20
6.1564283253
 11
11.1784967719
 21
6.1568215211
  0
LINE
  5
3A6
100
AcDbEntity
  8
0
100
AcDbLine
 62
7
  6
CONTINUOUS
 10
11.1784967719
 20
6.1568215211
 11
11.1831719377
 21
6.1571932276
  0
LINE
  5
3A7
100
AcDbEntity
  8
0
100
AcDbLine
 62
7
  6
CONTINUOUS
 10
11.1831719377
 20
6.1571932276
 11
11.1932526168
 21
6.1575617818
  0
SPLINE
  5
3A8
100
AcDbEntity
  8
0
100
AcDbSpline
 62
7
  6
CONTINUOUS
 70
0
 71
3
 72
21
 73
17
 74
0
 42
0.0000001
 43
0.0000001
 44
0.0000000001
 40
0.0
 40
0.0
 40
0.0
 40
0.0
 40
0.1559947784
 40
0.2960177527
 40
0.4164032618
 40
0.5151952316
 40
0.5951099915
 40
0.6327380489
 40
0.6543387342
 40
0.6800752105
 40
0.7107455331
 40
0.7468618019
 40
0.7868323419
 40
0.8284851293
 40
0.9136841205
 40
1.0
 40
1.0
 40
1.0
 40
1.0
 10
11.2126967885
 20
6.1551674012
 30
0.0
 10
11.2149727882
 20
6.1552413832
 30
0.0
 10
11.2192911473
 20
6.1554018705
 30
0.0
 10
11.2253627562
 20
6.1556971643
 30
0.0
 10
11.2305960127
 20
6.1560305845
 30
0.0
 10
11.2349469372
 20
6.1563994072
 30
0.0
 10
11.238082817
 20
6.1567856337
 30
0.0
 10
11.2400811987
 20
6.1571588339
 30
0.0
 10
11.2412815362
 20
6.1574730482
 30
0.0
 10
11.2423685354
 20
6.1578153479
 30
0.0
 10
11.243614704
 20
6.1583436037
 30
0.0
 10
11.2449713567
 20
6.1591175542
 30
0.0
 10
11.246358051
 20
6.1601420803
 30
0.0
 10
11.2480868037
 20
6.1618692228
 30
0.0
 10
11.2497520688
 20
6.1645592714
 30
0.0
 10
11.2503671481
 20
6.1670347265
 30
0.0
 10
11.2504787131
 20
6.1682898114
 30
0.0
  0
LINE
  5
3A9
100
AcDbEntity
  8
0
100
AcDbLine
 62
7
  6
CONTINUOUS
 10
10.7717277009
 20
6.1468737109
 11
10.8110977796
 21
6.1459643624
  0
SPLINE
  5
3AA
100
AcDbEntity
  8
0
100
AcDbSpline
 62
7
  6
CONTINUOUS
 70
0
 71
3
 72
23
 73
19
 74
0
 42
0.0000001
 43
0.0000001
 44
0.0000000001
 40
0.0
 40
0.0
 40
0.0
 40
0.0
 40
0.0853646053
 40
0.1281318455
 40
0.1707539771
 40
0.2121979206
 40
0.2509733277
 40
0.285848349
 40
0.3164232704
 40
0.3420136887
 40
0.3629986384
 40
0.3993334092
 40
0.4374203747
 40
0.4796194901
 40
0.5795814659
 40
0.7015649569
 40
0.8430287902
 40
1.0
 40
1.0
 40
1.0
 40
1.0
 10
11.1426824398
 20
6.1671603369
 30
0.0
 10
11.1427952745
 20
6.1658634949
 30
0.0
 10
11.1432805827
 20
6.1639240208
 30
0.0
 10
11.1445237206
 20
6.1616253076
 30
0.0
 10
11.1457235785
 20
6.1600971306
 30
0.0
 10
11.1470827114
 20
6.1588001303
 30
0.0
 10
11.1485107779
 20
6.1577690143
 30
0.0
 10
11.1499270122
 20
6.157036437
 30
0.0
 10
11.1512294409
 20
6.1565494078
 30
0.0
 10
11.1523608908
 20
6.1562246766
 30
0.0
 10
11.1535939493
 20
6.1559415456
 30
0.0
 10
11.1550364547
 20
6.1557413758
 30
0.0
 10
11.1568027334
 20
6.1555362453
 30
0.0
 10
11.1595419735
 20
6.1553029009
 30
0.0
 10
11.1635648201
 20
6.155088716
 30
0.0
 10
11.1691033544
 20
6.1548967648
 30
0.0
 10
11.1755134474
 20
6.1547742219
 30
0.0
 10
11.1800642708
 20
6.1547374744
 30
0.0
 10
11.1824579422
 20
6.1547295719
 30
0.0
  0
SPLINE
  5
3AB
100
AcDbEntity
  8
0
100
AcDbSpline
 62
7
  6
CONTINUOUS
 70
0
 71
3
 72
17
 73
13
 74
0
 42
0.0000001
 43
0.0000001
 44
0.0000000001
 40
0.0
 40
0.0
 40
0.0
 40
0.0
 40
0.029463397
 40
0.0521996354
 40
0.081613221
 40
0.1181205844
 40
0.1619246197
 40
0.2715922434
 40
0.4106105215
 40
0.5786517908
 40
0.7752799185
 40
1.0
 40
1.0
 40
1.0
 40
1.0
 10
11.2870775782
 20
6.217400069
 30
0.0
 10
11.2870791743
 20
6.2174930007
 30
0.0
 10
11.2869573811
 20
6.2176425032
 30
0.0
 10
11.2867419661
 20
6.2177725327
 30
0.0
 10
11.2864850664
 20
6.2178896609
 30
0.0
 10
11.2861583886
 20
6.2180027343
 30
0.0
 10
11.2855811453
 20
6.2181659435
 30
0.0
 10
11.2846778357
 20
6.2183569864
 30
0.0
 10
11.2833801857
 20
6.2185690881
 30
0.0
 10
11.2818044024
 20
6.2187747218
 30
0.0
 10
11.2799556378
 20
6.2189732949
 30
0.0
 10
11.2786317234
 20
6.2190922707
 30
0.0
 10
11.2779252747
 20
6.2191512116
 30
0.0
  0
SPLINE
  5
3AC
100
AcDbEntity
  8
0
100
AcDbSpline
 62
7
  6
CONTINUOUS
 70
0
 71
3
 72
18
 73
14
 74
0
 42
0.0000001
 43
0.0000001
 44
0.0000000001
 40
0.0
 40
0.0
 40
0.0
 40
0.0
 40
0.0062802366
 40
0.0200439898
 40
0.0419860177
 40
0.0721517584
 40
0.110486708
 40
0.1568977017
 40
0.273001898
 40
0.4181724638
 40
0.5899413109
 40
0.7851073822
 40
1.0
 40
1.0
 40
1.0
 40
1.0
 10
11.4036785904
 20
6.1560353717
 30
0.0
 10
11.4036785904
 20
6.156057621
 30
0.0
 10
11.403753848
 20
6.156103665
 30
0.0
 10
11.4038846096
 20
6.1561437486
 30
0.0
 10
11.4041181766
 20
6.1561984851
 30
0.0
 10
11.4044314446
 20
6.1562519571
 30
0.0
 10
11.4048354332
 20
6.1563101316
 30
0.0
 10
11.4055413525
 20
6.1563960256
 30
0.0
 10
11.4066264841
 20
6.1565036893
 30
0.0
 10
11.4081553183
 20
6.1566302927
 30
0.0
 10
11.4099650924
 20
6.1567589192
 30
0.0
 10
11.4120223661
 20
6.1568872195
 30
0.0
 10
11.4134728975
 20
6.1569674783
 30
0.0
 10
11.4142331645
 20
6.157007317
 30
0.0
  0
LINE
  5
3AD
100
AcDbEntity
  8
0
100
AcDbLine
 62
7
  6
CONTINUOUS
 10
11.4281047685
 20
6.1575372347
 11
11.4395869794
 21
6.1576474217
  0
LINE
  5
3AE
100
AcDbEntity
  8
0
100
AcDbLine
 62
7
  6
CONTINUOUS
 10
11.388729635
 20
6.1547780025
 11
11.3992734271
 21
6.1547590787
  0
SPLINE
  5
3AF
100
AcDbEntity
  8
0
100
AcDbSpline
 62
7
  6
CONTINUOUS
 70
0
 71
3
 72
21
 73
17
 74
0
 42
0.0000001
 43
0.0000001
 44
0.0000000001
 40
0.0
 40
0.0
 40
0.0
 40
0.0
 40
0.1548731426
 40
0.2925516798
 40
0.4111971601
 40
0.5102207931
 40
0.5923547459
 40
0.630417731
 40
0.6507346514
 40
0.673188504
 40
0.6993712566
 40
0.7312025121
 40
0.7694851705
 40
0.8123169958
 40
0.9044880433
 40
1.0
 40
1.0
 40
1.0
 40
1.0
 10
11.4477026496
 20
6.156385426
 30
0.0
 10
11.4492604749
 20
6.1564755599
 30
0.0
 10
11.4522026308
 20
6.1566555691
 30
0.0
 10
11.4563356104
 20
6.1569445649
 30
0.0
 10
11.4599043957
 20
6.1572338477
 30
0.0
 10
11.4629106424
 20
6.1575290538
 30
0.0
 10
11.4651036803
 20
6.1577982475
 30
0.0
 10
11.4664996446
 20
6.1580364684
 30
0.0
 10
11.4672976273
 20
6.1581995083
 30
0.0
 10
11.4679758449
 20
6.1583507999
 30
0.0
 10
11.4687563552
 20
6.158572541
 30
0.0
 10
11.4696686043
 20
6.1589054107
 30
0.0
 10
11.4707081604
 20
6.1593711197
 30
0.0
 10
11.4722368266
 20
6.1602200273
 30
0.0
 10
11.4740592516
 20
6.1616948164
 30
0.0
 10
11.475229086
 20
6.1632066596
 30
0.0
 10
11.4757221318
 20
6.164033094
 30
0.0
  0
SPLINE
  5
3B0
100
AcDbEntity
  8
0
100
AcDbSpline
 62
7
  6
CONTINUOUS
 70
0
 71
3
 72
9
 73
5
 74
0
 42
0.0000001
 43
0.0000001
 44
0.0000000001
 40
0.0
 40
0.0
 40
0.0
 40
0.0
 40
0.2489510823
 40
1.0
 40
1.0
 40
1.0
 40
1.0
 10
11.4757221318
 20
6.164033094
 30
0.0
 10
11.4758631586
 20
6.1642694805
 30
0.0
 10
11.4763964013
 20
6.1652385526
 30
0.0
 10
11.476792473
 20
6.1662822986
 30
0.0
 10
11.4770081862
 20
6.1670842058
 30
0.0
  0
SPLINE
  5
3B1
100
AcDbEntity
  8
0
100
AcDbSpline
 62
7
  6
CONTINUOUS
 70
0
 71
3
 72
21
 73
17
 74
0
 42
0.0000001
 43
0.0000001
 44
0.0000000001
 40
0.0
 40
0.0
 40
0.0
 40
0.0
 40
0.1858836867
 40
0.2789946184
 40
0.3708377229
 40
0.4158747732
 40
0.4599925109
 40
0.5422079372
 40
0.6085523394
 40
0.6573516281
 40
0.6970977211
 40
0.7338177743
 40
0.7706196673
 40
0.8097824661
 40
0.8977890298
 40
1.0
 40
1.0
 40
1.0
 40
1.0
 10
11.3695961097
 20
6.1663130503
 30
0.0
 10
11.3697319576
 20
6.164768497
 30
0.0
 10
11.370403774
 20
6.1624605638
 30
0.0
 10
11.3720830391
 20
6.1598476985
 30
0.0
 10
11.3734171873
 20
6.1584502759
 30
0.0
 10
11.3746059107
 20
6.1575163633
 30
0.0
 10
11.3758150398
 20
6.1567496232
 30
0.0
 10
11.3772759927
 20
6.1560659446
 30
0.0
 10
11.3788399287
 20
6.1555402874
 30
0.0
 10
11.380108532
 20
6.1552820775
 30
0.0
 10
11.3811466723
 20
6.1551611937
 30
0.0
 10
11.382085988
 20
6.1550595527
 30
0.0
 10
11.3830229689
 20
6.154983455
 30
0.0
 10
11.3843883299
 20
6.1549018639
 30
0.0
 10
11.386300505
 20
6.1548304494
 30
0.0
 10
11.3878867595
 20
6.1547932499
 30
0.0
 10
11.3887392086
 20
6.1547786143
 30
0.0
  0
LINE
  5
3B2
100
AcDbEntity
  8
0
100
AcDbLine
 62
7
  6
CONTINUOUS
 10
11.2835387245
 20
6.1459643606
 11
11.3229088032
 21
6.1468737047
  0
LINE
  5
3B3
100
AcDbEntity
  8
0
100
AcDbLine
 62
7
  6
CONTINUOUS
 10
11.8139397812
 20
6.1729536716
 11
11.8194882451
 21
6.173664929
  0
LINE
  5
3B4
100
AcDbEntity
  8
0
100
AcDbLine
 62
7
  6
CONTINUOUS
 10
11.8194882451
 20
6.173664929
 11
11.8330186376
 21
6.1747658505
  0
LINE
  5
3B5
100
AcDbEntity
  8
0
100
AcDbLine
 62
7
  6
CONTINUOUS
 10
11.8404598931
 20
6.1752672527
 11
11.8513919486
 21
6.1758142142
  0
SPLINE
  5
3B6
100
AcDbEntity
  8
0
100
AcDbSpline
 62
7
  6
CONTINUOUS
 70
0
 71
3
 72
13
 73
9
 74
0
 42
0.0000001
 43
0.0000001
 44
0.0000000001
 40
0.0
 40
0.0
 40
0.0
 40
0.0
 40
0.1163714521
 40
0.2391597577
 40
0.4929692647
 40
0.7508905641
 40
0.8780282432
 40
1.0
 40
1.0
 40
1.0
 40
1.0
 10
11.9188097635
 20
6.1777548264
 30
0.0
 10
11.919458679
 20
6.177806113
 30
0.0
 10
11.9207849511
 20
6.1780360587
 30
0.0
 10
11.9233976009
 20
6.1789393369
 30
0.0
 10
11.9264454205
 20
6.1809229585
 30
0.0
 10
11.9285104813
 20
6.1839473329
 30
0.0
 10
11.9294993351
 20
6.1866133401
 30
0.0
 10
11.929758861
 20
6.1879923107
 30
0.0
 10
11.9298183006
 20
6.1886719817
 30
0.0
  0
SPLINE
  5
3B7
100
AcDbEntity
  8
0
100
AcDbSpline
 62
7
  6
CONTINUOUS
 70
0
 71
3
 72
9
 73
5
 74
0
 42
0.0000001
 43
0.0000001
 44
0.0000000001
 40
0.0
 40
0.0
 40
0.0
 40
0.0
 40
0.4838436649
 40
1.0
 40
1.0
 40
1.0
 40
1.0
 10
11.8317334719
 20
6.1712313402
 30
0.0
 10
11.8306402523
 20
6.1711539345
 30
0.0
 10
11.8283509765
 20
6.1713577921
 30
0.0
 10
11.826191975
 20
6.1721356569
 30
0.0
 10
11.8251584347
 20
6.1726821931
 30
0.0
  0
LINE
  5
3B8
100
AcDbEntity
  8
0
100
AcDbLine
 62
7
  6
CONTINUOUS
 10
11.8544048662
 20
6.1728633821
 11
11.8558970591
 21
6.172974963
  0
LINE
  5
3B9
100
AcDbEntity
  8
0
100
AcDbLine
 62
7
  6
CONTINUOUS
 10
11.8558970591
 20
6.172974963
 11
11.8563056431
 21
6.1730055188
  0
LINE
  5
3BA
100
AcDbEntity
  8
0
100
AcDbLine
 62
7
  6
CONTINUOUS
 10
11.8563056431
 20
6.1730055188
 11
11.8601918682
 21
6.1732961851
  0
LINE
  5
3BB
100
AcDbEntity
  8
0
100
AcDbLine
 62
7
  6
CONTINUOUS
 10
11.8601918682
 20
6.1732961851
 11
11.8918794733
 21
6.1756668378
  0
LINE
  5
3BC
100
AcDbEntity
  8
0
100
AcDbLine
 62
7
  6
CONTINUOUS
 10
11.8918794733
 20
6.1756668378
 11
11.8937749449
 21
6.1758086149
  0
SPLINE
  5
3BD
100
AcDbEntity
  8
0
100
AcDbSpline
 62
7
  6
CONTINUOUS
 70
0
 71
3
 72
27
 73
23
 74
0
 42
0.0000001
 43
0.0000001
 44
0.0000000001
 40
0.0
 40
0.0
 40
0.0
 40
0.0
 40
0.0006264365
 40
0.0016635305
 40
0.0032394908
 40
0.0053866938
 40
0.0114310385
 40
0.0198271201
 40
0.0305747401
 40
0.043662837
 40
0.0590572902
 40
0.0767154246
 40
0.118648455
 40
0.1690942783
 40
0.2275481202
 40
0.2934388542
 40
0.3661518103
 40
0.4449457109
 40
0.5290548637
 40
0.6176872736
 40
0.8052048626
 40
1.0
 40
1.0
 40
1.0
 40
1.0
 10
11.9241759752
 20
6.2404005648
 30
0.0
 10
11.9241759313
 20
6.2404195137
 30
0.0
 10
11.9241416843
 20
6.2404652865
 30
0.0
 10
11.9240518666
 20
6.2405038675
 30
0.0
 10
11.9239132878
 20
6.2405449805
 30
0.0
 10
11.9236225287
 20
6.2405984311
 30
0.0
 10
11.9231229172
 20
6.2406503202
 30
0.0
 10
11.92236225
 20
6.240694169
 30
0.0
 10
11.9213875755
 20
6.2407229028
 30
0.0
 10
11.9202009578
 20
6.2407359477
 30
0.0
 10
11.9188052302
 20
6.2407330158
 30
0.0
 10
11.9165371498
 20
6.2407059593
 30
0.0
 10
11.9132095082
 20
6.2406270238
 30
0.0
 10
11.9086495318
 20
6.2404743362
 30
0.0
 10
11.9033666786
 20
6.2402594958
 30
0.0
 10
11.8974122729
 20
6.2399844109
 30
0.0
 10
11.8908447003
 20
6.2396513437
 30
0.0
 10
11.8837281555
 20
6.2392637559
 30
0.0
 10
11.8761321704
 20
6.2388252382
 30
0.0
 10
11.865254773
 20
6.2381655543
 30
0.0
 10
11.8510389327
 20
6.2372461681
 30
0.0
 10
11.8395020964
 20
6.2364466592
 30
0.0
 10
11.8336248206
 20
6.2360261588
 30
0.0
  0
SPLINE
  5
3BE
100
AcDbEntity
  8
0
100
AcDbSpline
 62
7
  6
CONTINUOUS
 70
0
 71
3
 72
17
 73
13
 74
0
 42
0.0000001
 43
0.0000001
 44
0.0000000001
 40
0.0
 40
0.0
 40
0.0
 40
0.0
 40
0.0077680111
 40
0.0223281864
 40
0.0447717965
 40
0.0752654905
 40
0.1602926522
 40
0.2762979642
 40
0.4210444224
 40
0.5920962016
 40
0.7862899224
 40
1.0
 40
1.0
 40
1.0
 40
1.0
 10
11.6420442888
 20
6.1732448516
 30
0.0
 10
11.6420442889
 20
6.173272584
 30
0.0
 10
11.6421094287
 20
6.1733384428
 30
0.0
 10
11.6422507482
 20
6.173400692
 30
0.0
 10
11.642481749
 20
6.1734794597
 30
0.0
 10
11.6429582862
 20
6.1735988819
 30
0.0
 10
11.643772287
 20
6.1737513805
 30
0.0
 10
11.6449929114
 20
6.173932749
 30
0.0
 10
11.6465228901
 20
6.1741240282
 30
0.0
 10
11.6483329868
 20
6.174320213
 30
0.0
 10
11.650390516
 20
6.1745176933
 30
0.0
 10
11.6518414317
 20
6.1746424387
 30
0.0
 10
11.6526018544
 20
6.1747046464
 30
0.0
  0
LINE
  5
3BF
100
AcDbEntity
  8
0
100
AcDbLine
 62
7
  6
CONTINUOUS
 10
11.6664748557
 20
6.1755592973
 11
11.6779526779
 21
6.1757991981
  0
SPLINE
  5
3C0
100
AcDbEntity
  8
0
100
AcDbSpline
 62
7
  6
CONTINUOUS
 70
0
 71
3
 72
26
 73
22
 74
0
 42
0.0000001
 43
0.0000001
 44
0.0000000001
 40
0.0
 40
0.0
 40
0.0
 40
0.0
 40
0.0012503651
 40
0.0027350557
 40
0.0046220762
 40
0.0069943371
 40
0.0133335347
 40
0.0219067388
 40
0.0327599361
 40
0.0459037034
 40
0.0613157605
 40
0.0789625273
 40
0.1208097029
 40
0.171112982
 40
0.2293857257
 40
0.2950742516
 40
0.367574942
 40
0.4461529592
 40
0.6184728485
 40
0.8055918681
 40
1.0
 40
1.0
 40
1.0
 40
1.0
 10
11.75228043
 20
6.2389837861
 30
0.0
 10
11.7522803643
 20
6.2390216679
 30
0.0
 10
11.7522574826
 20
6.2391051155
 30
0.0
 10
11.7521661728
 20
6.2392145112
 30
0.0
 10
11.7520245974
 20
6.2393173337
 30
0.0
 10
11.7517377837
 20
6.2394635675
 30
0.0
 10
11.7512375905
 20
6.2396260043
 30
0.0
 10
11.7504758908
 20
6.2397975487
 30
0.0
 10
11.7495014475
 20
6.2399565435
 30
0.0
 10
11.748316305
 20
6.2401024982
 30
0.0
 10
11.746922598
 20
6.2402344912
 30
0.0
 10
11.7446591717
 20
6.2404006192
 30
0.0
 10
11.741336007
 20
6.2405595621
 30
0.0
 10
11.7367801203
 20
6.2406809327
 30
0.0
 10
11.7315006361
 20
6.2407393873
 30
0.0
 10
11.7255483942
 20
6.2407338518
 30
0.0
 10
11.7189813637
 20
6.2406634704
 30
0.0
 10
11.7091851325
 20
6.2404786369
 30
0.0
 10
11.6959201298
 20
6.240084827
 30
0.0
 10
11.67915423
 20
6.2393976988
 30
0.0
 10
11.6676100539
 20
6.2388082234
 30
0.0
 10
11.6617293282
 20
6.2384793829
 30
0.0
  0
SPLINE
  5
3C1
100
AcDbEntity
  8
0
100
AcDbSpline
 62
7
  6
CONTINUOUS
 70
0
 71
3
 72
14
 73
10
 74
0
 42
0.0000001
 43
0.0000001
 44
0.0000000001
 40
0.0
 40
0.0
 40
0.0
 40
0.0
 40
0.0285865658
 40
0.0517918602
 40
0.0819540507
 40
0.1639701357
 40
0.2753101766
 40
0.58413377
 40
1.0
 40
1.0
 40
1.0
 40
1.0
 10
11.4410190394
 20
6.1735996517
 30
0.0
 10
11.4410190395
 20
6.1736451319
 30
0.0
 10
11.4410871579
 20
6.1737151562
 30
0.0
 10
11.4411962128
 20
6.1737787336
 30
0.0
 10
11.4413949375
 20
6.1738676726
 30
0.0
 10
11.4417344148
 20
6.1739719012
 30
0.0
 10
11.4425128224
 20
6.1741559423
 30
0.0
 10
11.4438260806
 20
6.1743712545
 30
0.0
 10
11.4449699581
 20
6.1745165472
 30
0.0
 10
11.4456272877
 20
6.1745918484
 30
0.0
  0
LINE
  5
3C2
100
AcDbEntity
  8
0
100
AcDbLine
 62
7
  6
CONTINUOUS
 10
11.4456272877
 20
6.1745918484
 11
11.4508715021
 21
6.1750729258
  0
LINE
  5
3C3
100
AcDbEntity
  8
0
100
AcDbLine
 62
7
  6
CONTINUOUS
 10
11.464133333
 20
6.175720073
 11
11.4705465985
 21
6.1758086119
  0
SPLINE
  5
3C4
100
AcDbEntity
  8
0
100
AcDbSpline
 62
7
  6
CONTINUOUS
 70
0
 71
3
 72
12
 73
8
 74
0
 42
0.0000001
 43
0.0000001
 44
0.0000000001
 40
0.0
 40
0.0
 40
0.0
 40
0.0
 40
0.1014227596
 40
0.1853320738
 40
0.2949616477
 40
0.5939306854
 40
1.0
 40
1.0
 40
1.0
 40
1.0
 10
11.1995287051
 20
6.1740479437
 30
0.0
 10
11.1995287052
 20
6.1741088596
 30
0.0
 10
11.1996256059
 20
6.17420098
 30
0.0
 10
11.1997762421
 20
6.1742814858
 30
0.0
 10
11.2000534724
 20
6.1743943439
 30
0.0
 10
11.2005247338
 20
6.1745221921
 30
0.0
 10
11.200940305
 20
6.1746073154
 30
0.0
 10
11.2011802104
 20
6.1746512263
 30
0.0
  0
LINE
  5
3C5
100
AcDbEntity
  8
0
100
AcDbLine
 62
7
  6
CONTINUOUS
 10
11.2011802104
 20
6.1746512263
 11
11.2058590289
 21
6.1752046481
  0
LINE
  5
3C6
100
AcDbEntity
  8
0
100
AcDbLine
 62
7
  6
CONTINUOUS
 10
11.2058590289
 20
6.1752046481
 11
11.2157623958
 21
6.1757183659
  0
SPLINE
  5
3C7
100
AcDbEntity
  8
0
100
AcDbSpline
 62
7
  6
CONTINUOUS
 70
0
 71
3
 72
15
 73
11
 74
0
 42
0.0000001
 43
0.0000001
 44
0.0000000001
 40
0.0
 40
0.0
 40
0.0
 40
0.0
 40
0.029280222
 40
0.0525117992
 40
0.0826389105
 40
0.1645664928
 40
0.2759133769
 40
0.4164419279
 40
0.5849610251
 40
1.0
 40
1.0
 40
1.0
 40
1.0
 10
10.8557377203
 20
6.174645265
 30
0.0
 10
10.8557377203
 20
6.1746978841
 30
0.0
 10
10.8558137569
 20
6.1747797472
 30
0.0
 10
10.8559398922
 20
6.1748499332
 30
0.0
 10
10.8561663781
 20
6.174944799
 30
0.0
 10
10.856553949
 20
6.1750488069
 30
0.0
 10
10.8571433794
 20
6.1751636353
 30
0.0
 10
10.8578912597
 20
6.1752711558
 30
0.0
 10
10.8591845972
 20
6.1754160091
 30
0.0
 10
10.8602306634
 20
6.1754948835
 30
0.0
 10
10.8609750229
 20
6.1755421794
 30
0.0
  0
LINE
  5
3C8
100
AcDbEntity
  8
0
100
AcDbLine
 62
7
  6
CONTINUOUS
 10
10.8609750229
 20
6.1755421794
 11
10.8717555191
 21
6.1758113438
  0
SPLINE
  5
3C9
100
AcDbEntity
  8
0
100
AcDbSpline
 62
7
  6
CONTINUOUS
 70
0
 71
3
 72
14
 73
10
 74
0
 42
0.0000001
 43
0.0000001
 44
0.0000000001
 40
0.0
 40
0.0
 40
0.0
 40
0.0
 40
0.027908206
 40
0.0506106636
 40
0.0802950021
 40
0.1615366522
 40
0.2724124081
 40
0.5814978502
 40
1.0
 40
1.0
 40
1.0
 40
1.0
 10
10.6142473859
 20
6.1750722021
 30
0.0
 10
10.614247386
 20
6.1751160791
 30
0.0
 10
10.6143155158
 20
6.175183141
 30
0.0
 10
10.6144247054
 20
6.1752378586
 30
0.0
 10
10.6146236325
 20
6.175312358
 30
0.0
 10
10.6149629805
 20
6.1753909
 30
0.0
 10
10.6157416817
 20
6.1755171095
 30
0.0
 10
10.6170554959
 20
6.1756341424
 30
0.0
 10
10.6181979338
 20
6.1756937828
 30
0.0
 10
10.6188553818
 20
6.1757198748
 30
0.0
  0
LINE
  5
3CA
100
AcDbEntity
  8
0
100
AcDbLine
 62
7
  6
CONTINUOUS
 10
10.6188553818
 20
6.1757198748
 11
10.6240899056
 21
6.1758086185
  0
SPLINE
  5
3CB
100
AcDbEntity
  8
0
100
AcDbSpline
 62
7
  6
CONTINUOUS
 70
0
 71
3
 72
14
 73
10
 74
0
 42
0.0000001
 43
0.0000001
 44
0.0000000001
 40
0.0
 40
0.0
 40
0.0
 40
0.0
 40
0.0256201746
 40
0.047486327
 40
0.0764837582
 40
0.1567639561
 40
0.2671632889
 40
0.5770282227
 40
1.0
 40
1.0
 40
1.0
 40
1.0
 10
10.4132221365
 20
6.1754484627
 30
0.0
 10
10.4132221366
 20
6.1754785334
 30
0.0
 10
10.4132747499
 20
6.1755226363
 30
0.0
 10
10.41335386
 20
6.1755563749
 30
0.0
 10
10.4135026355
 20
6.1756032894
 30
0.0
 10
10.4137555165
 20
6.1756500024
 30
0.0
 10
10.4143393344
 20
6.1757224742
 30
0.0
 10
10.4153275313
 20
6.1757815938
 30
0.0
 10
10.4161874526
 20
6.1758056617
 30
0.0
 10
10.4166838262
 20
6.1758142228
 30
0.0
  0
SPLINE
  5
3CC
100
AcDbEntity
  8
0
100
AcDbSpline
 62
7
  6
CONTINUOUS
 70
0
 71
3
 72
25
 73
21
 74
0
 42
0.0000001
 43
0.0000001
 44
0.0000000001
 40
0.0
 40
0.0
 40
0.0
 40
0.0
 40
0.0027877294
 40
0.0047734699
 40
0.0072549695
 40
0.0138233945
 40
0.0226254586
 40
0.0337004735
 40
0.0470502208
 40
0.0626482306
 40
0.0804608273
 40
0.1225800899
 40
0.1730643853
 40
0.2314184017
 40
0.2971044613
 40
0.3695155979
 40
0.4479273396
 40
0.6197574386
 40
0.8062638757
 40
1.0
 40
1.0
 40
1.0
 40
1.0
 10
10.5234582212
 20
6.228861053
 30
0.0
 10
10.5234580509
 20
6.2289459573
 30
0.0
 10
10.5233712378
 20
6.2290836154
 30
0.0
 10
10.5232026434
 20
6.2292221829
 30
0.0
 10
10.5229158825
 20
6.2294015452
 30
0.0
 10
10.5224162379
 20
6.2296188307
 30
0.0
 10
10.5216525043
 20
6.2298763596
 30
0.0
 10
10.5206762382
 20
6.2301442568
 30
0.0
 10
10.5194893658
 20
6.2304228485
 30
0.0
 10
10.5180944464
 20
6.2307106167
 30
0.0
 10
10.5158323563
 20
6.2311292068
 30
0.0
 10
10.5125110071
 20
6.2316590499
 30
0.0
 10
10.5079565745
 20
6.2322892361
 30
0.0
 10
10.5026806614
 20
6.2329373837
 30
0.0
 10
10.4967337588
 20
6.2335965747
 30
0.0
 10
10.4901730056
 20
6.2342598437
 30
0.0
 10
10.4803882248
 20
6.2351694535
 30
0.0
 10
10.4671306544
 20
6.2362585993
 30
0.0
 10
10.4503582449
 20
6.2374472952
 30
0.0
 10
10.4387984997
 20
6.2381501215
 30
0.0
 10
10.4329071759
 20
6.2384795547
 30
0.0
  0
LINE
  5
3CD
100
AcDbEntity
  8
0
100
AcDbLine
 62
7
  6
CONTINUOUS
 10
10.2413266441
 20
6.1757397152
 11
10.2432445555
 21
6.1757992119
  0
SPLINE
  5
3CE
100
AcDbEntity
  8
0
100
AcDbSpline
 62
7
  6
CONTINUOUS
 70
0
 71
3
 72
27
 73
23
 74
0
 42
0.0000001
 43
0.0000001
 44
0.0000000001
 40
0.0
 40
0.0
 40
0.0
 40
0.0
 40
0.0006635654
 40
0.0017672998
 40
0.0056312477
 40
0.0118199232
 40
0.0203580419
 40
0.0312463572
 40
0.0444645725
 40
0.0599735547
 40
0.0777319935
 40
0.0976978868
 40
0.1198288345
 40
0.1703833451
 40
0.2288808789
 40
0.2947659324
 40
0.3674209755
 40
0.4461078501
 40
0.5300728709
 40
0.6185316605
 40
0.8056469403
 40
1.0
 40
1.0
 40
1.0
 40
1.0
 10
10.3515625008
 20
6.2274458535
 30
0.0
 10
10.3515623743
 20
6.2274659898
 30
0.0
 10
10.3515277806
 20
6.2275147868
 30
0.0
 10
10.3513814972
 20
6.2276003356
 30
0.0
 10
10.3510570645
 20
6.2277104903
 30
0.0
 10
10.3505109793
 20
6.2278457777
 30
0.0
 10
10.3497478629
 20
6.2279986483
 30
0.0
 10
10.3487718466
 20
6.2281668655
 30
0.0
 10
10.3475834959
 20
6.2283497415
 30
0.0
 10
10.3461866293
 20
6.2285465015
 30
0.0
 10
10.3445848706
 20
6.2287564926
 30
0.0
 10
10.3427821697
 20
6.2289791159
 30
0.0
 10
10.3399896849
 20
6.2293067566
 30
0.0
 10
10.3360323663
 20
6.2297400749
 30
0.0
 10
10.3307512677
 20
6.2302809177
 30
0.0
 10
10.3247997309
 20
6.2308573518
 30
0.0
 10
10.3182356151
 20
6.2314635771
 30
0.0
 10
10.3111227792
 20
6.2320938624
 30
0.0
 10
10.3035300948
 20
6.2327419054
 30
0.0
 10
10.2926562957
 20
6.2336383728
 30
0.0
 10
10.2784393398
 20
6.2347533045
 30
0.0
 10
10.26689454
 20
6.2356052713
 30
0.0
 10
10.2610116835
 20
6.2360261711
 30
0.0
  0
SPLINE
  5
3CF
100
AcDbEntity
  8
0
100
AcDbSpline
 62
7
  6
CONTINUOUS
 70
0
 71
3
 72
9
 73
5
 74
0
 42
0.0000001
 43
0.0000001
 44
0.0000000001
 40
0.0
 40
0.0
 40
0.0
 40
0.0
 40
0.2506180471
 40
1.0
 40
1.0
 40
1.0
 40
1.0
 10
11.1239485885
 20
6.1518822288
 30
0.0
 10
11.1237208181
 20
6.15226762
 30
0.0
 10
11.1229005453
 20
6.1538560052
 30
0.0
 10
11.1224335321
 20
6.1556270212
 30
0.0
 10
11.1223162766
 20
6.1569604607
 30
0.0
  0
SPLINE
  5
3D0
100
AcDbEntity
  8
0
100
AcDbSpline
 62
7
  6
CONTINUOUS
 70
0
 71
3
 72
9
 73
5
 74
0
 42
0.0000001
 43
0.0000001
 44
0.0000000001
 40
0.0
 40
0.0
 40
0.0
 40
0.0
 40
0.4975221751
 40
1.0
 40
1.0
 40
1.0
 40
1.0
 10
10.8717023477
 20
6.1489079378
 30
0.0
 10
10.870859156
 20
6.1494598073
 30
0.0
 10
10.86930388
 20
6.1507954633
 30
0.0
 10
10.8681288407
 20
6.1524749691
 30
0.0
 10
10.8676561263
 20
6.1533763041
 30
0.0
  0
LINE
  5
3D1
100
AcDbEntity
  8
0
100
AcDbLine
 62
7
  6
CONTINUOUS
 10
11.3790417268
 20
6.1555178346
 11
11.378146512
 21
6.1557649901
  0
LINE
  5
3D2
100
AcDbEntity
  8
0
100
AcDbLine
 62
7
  6
CONTINUOUS
 10
11.378146512
 20
6.1557649901
 11
11.3758934301
 21
6.1567348964
  0
LINE
  5
3D3
100
AcDbEntity
  8
0
100
AcDbLine
 62
7
  6
CONTINUOUS
 10
11.3758934301
 20
6.1567348964
 11
11.3745683257
 21
6.1575650624
  0
SPLINE
  5
3D4
100
AcDbEntity
  8
0
100
AcDbSpline
 62
7
  6
CONTINUOUS
 70
0
 71
3
 72
9
 73
5
 74
0
 42
0.0000001
 43
0.0000001
 44
0.0000000001
 40
0.0
 40
0.0
 40
0.0
 40
0.0
 40
0.2506633435
 40
1.0
 40
1.0
 40
1.0
 40
1.0
 10
11.3703738173
 20
6.1629863278
 30
0.0
 10
11.370270807
 20
6.1632521835
 30
0.0
 10
11.3698966856
 20
6.1643266251
 30
0.0
 10
11.3696716934
 20
6.1654535644
 30
0.0
 10
11.3695969793
 20
6.1663026095
 30
0.0
  0
SPLINE
  5
3D5
100
AcDbEntity
  8
0
100
AcDbSpline
 62
7
  6
CONTINUOUS
 70
0
 71
3
 72
24
 73
20
 74
0
 42
0.0000001
 43
0.0000001
 44
0.0000000001
 40
0.0
 40
0.0
 40
0.0
 40
0.0
 40
0.0442309884
 40
0.088093145
 40
0.1314805715
 40
0.1723283865
 40
0.2075705194
 40
0.2367385431
 40
0.2609371439
 40
0.2811106706
 40
0.2987772689
 40
0.3156355955
 40
0.3521057794
 40
0.3936581132
 40
0.4404505472
 40
0.5510321257
 40
0.683491174
 40
0.8345340736
 40
1.0
 40
1.0
 40
1.0
 40
1.0
 10
11.476063186
 20
6.1646354388
 30
0.0
 10
11.4757812828
 20
6.1640887048
 30
0.0
 10
11.4751347301
 20
6.1630413996
 30
0.0
 10
11.4739393751
 20
6.1616474177
 30
0.0
 10
11.4725712492
 20
6.1604960402
 30
0.0
 10
11.4711718135
 20
6.1595934661
 30
0.0
 10
11.4698562826
 20
6.1589436942
 30
0.0
 10
11.4686927014
 20
6.1585302659
 30
0.0
 10
11.4677006896
 20
6.1582789594
 30
0.0
 10
11.4668578896
 20
6.1580940669
 30
0.0
 10
11.4661099136
 20
6.1579546447
 30
0.0
 10
11.4651340943
 20
6.1578036932
 30
0.0
 10
11.4638257156
 20
6.1576315089
 30
0.0
 10
11.4621006251
 20
6.1574379609
 30
0.0
 10
11.4593466429
 20
6.1571739509
 30
0.0
 10
11.4553281753
 20
6.1568563028
 30
0.0
 10
11.4498594869
 20
6.1564935595
 30
0.0
 10
11.4436253905
 20
6.1561420082
 30
0.0
 10
11.4392287866
 20
6.1559279391
 30
0.0
 10
11.4369299741
 20
6.1558236183
 30
0.0
  0
LINE
  5
3D6
100
AcDbEntity
  8
0
100
AcDbLine
 62
7
  6
CONTINUOUS
 10
10.4757015039
 20
6.159545162
 11
10.473432657
 21
6.1606919691
  0
SPLINE
  5
3D7
100
AcDbEntity
  8
0
100
AcDbSpline
 62
7
  6
CONTINUOUS
 70
0
 71
3
 72
9
 73
5
 74
0
 42
0.0000001
 43
0.0000001
 44
0.0000000001
 40
0.0
 40
0.0
 40
0.0
 40
0.0
 40
0.4982461554
 40
1.0
 40
1.0
 40
1.0
 40
1.0
 10
10.4712015
 20
6.1625593519
 30
0.0
 10
10.47029701
 20
6.1635232207
 30
0.0
 10
10.4687931783
 20
6.1657765838
 30
0.0
 10
10.4681193981
 20
6.1683998039
 30
0.0
 10
10.4680008523
 20
6.1697256164
 30
0.0
  0
SPLINE
  5
3D8
100
AcDbEntity
  8
0
100
AcDbSpline
 62
7
  6
CONTINUOUS
 70
0
 71
3
 72
9
 73
5
 74
0
 42
0.0000001
 43
0.0000001
 44
0.0000000001
 40
0.0
 40
0.0
 40
0.0
 40
0.0
 40
0.7492272388
 40
1.0
 40
1.0
 40
1.0
 40
1.0
 10
10.5757713664
 20
6.1657395577
 30
0.0
 10
10.5756736405
 20
6.164623332
 30
0.0
 10
10.5753266184
 20
6.1631411405
 30
0.0
 10
10.574725227
 20
6.1617709944
 30
0.0
 10
10.5745584829
 20
6.1614350615
 30
0.0
  0
LINE
  5
3D9
100
AcDbEntity
  8
0
100
AcDbLine
 62
7
  6
CONTINUOUS
 10
10.5678647472
 20
6.155480729
 11
10.5666489329
 21
6.1551204149
  0
LINE
  5
3DA
100
AcDbEntity
  8
0
100
AcDbLine
 62
7
  6
CONTINUOUS
 10
10.5656788484
 20
6.1549209326
 11
10.5644853596
 21
6.1547734265
  0
LINE
  5
3DB
100
AcDbEntity
  8
0
100
AcDbLine
 62
7
  6
CONTINUOUS
 10
10.2432445555
 20
6.1757992119
 11
10.2541476366
 21
6.175254067
  0
LINE
  5
3DC
100
AcDbEntity
  8
0
100
AcDbLine
 62
7
  6
CONTINUOUS
 10
10.2615787757
 20
6.1747536642
 11
10.2792518363
 21
6.1732124789
  0
LINE
  5
3DD
100
AcDbEntity
  8
0
100
AcDbLine
 62
7
  6
CONTINUOUS
 10
10.2792518363
 20
6.1732124789
 11
10.2806967228
 21
6.1729386702
  0
LINE
  5
3DE
100
AcDbEntity
  8
0
100
AcDbLine
 62
7
  6
CONTINUOUS
 10
10.4166838262
 20
6.1758142228
 11
10.4281524243
 21
6.1755747204
  0
SPLINE
  5
3DF
100
AcDbEntity
  8
0
100
AcDbSpline
 62
7
  6
CONTINUOUS
 70
0
 71
3
 72
12
 73
8
 74
0
 42
0.0000001
 43
0.0000001
 44
0.0000000001
 40
0.0
 40
0.0
 40
0.0
 40
0.0
 40
0.3209594497
 40
0.6078311083
 40
0.839782743
 40
0.9296867825
 40
1.0
 40
1.0
 40
1.0
 40
1.0
 10
10.4352321209
 20
6.1752033506
 30
0.0
 10
10.4369569212
 20
6.1750971866
 30
0.0
 10
10.4402221229
 20
6.174874882
 30
0.0
 10
10.4447279369
 20
6.1744982262
 30
0.0
 10
10.4479886526
 20
6.1741622134
 30
0.0
 10
10.4500821098
 20
6.1738864745
 30
0.0
 10
10.4509343243
 20
6.1737511983
 30
0.0
 10
10.4513064204
 20
6.173681484
 30
0.0
  0
LINE
  5
3E0
100
AcDbEntity
  8
0
100
AcDbLine
 62
7
  6
CONTINUOUS
 10
10.4513064204
 20
6.173681484
 11
10.4525922152
 21
6.1732598745
  0
SPLINE
  5
3E1
100
AcDbEntity
  8
0
100
AcDbSpline
 62
7
  6
CONTINUOUS
 70
0
 71
3
 72
11
 73
7
 74
0
 42
0.0000001
 43
0.0000001
 44
0.0000000001
 40
0.0
 40
0.0
 40
0.0
 40
0.0
 40
0.3235145763
 40
0.6033286027
 40
0.8309276293
 40
1.0
 40
1.0
 40
1.0
 40
1.0
 10
10.6437565278
 20
6.1750735668
 30
0.0
 10
10.6446953475
 20
6.1750034102
 30
0.0
 10
10.6464452595
 20
6.1748602129
 30
0.0
 10
10.648851562
 20
6.1746194816
 30
0.0
 10
10.6508046308
 20
6.1743726226
 30
0.0
 10
10.6519445197
 20
6.1741846642
 30
0.0
 10
10.6524255125
 20
6.1740811479
 30
0.0
  0
SPLINE
  5
3E2
100
AcDbEntity
  8
0
100
AcDbSpline
 62
7
  6
CONTINUOUS
 70
0
 71
3
 72
12
 73
8
 74
0
 42
0.0000001
 43
0.0000001
 44
0.0000000001
 40
0.0
 40
0.0
 40
0.0
 40
0.0
 40
0.4044720468
 40
0.7024094233
 40
0.8119692622
 40
0.8962463535
 40
1.0
 40
1.0
 40
1.0
 40
1.0
 10
10.6524255125
 20
6.1740811479
 30
0.0
 10
10.6525992011
 20
6.1740437677
 30
0.0
 10
10.652899873
 20
6.1739724196
 30
0.0
 10
10.6532403745
 20
6.1738681253
 30
0.0
 10
10.6534397296
 20
6.1737790277
 30
0.0
 10
10.653549089
 20
6.1737153686
 30
0.0
 10
10.6536174646
 20
6.173645232
 30
0.0
 10
10.6536174646
 20
6.1735996579
 30
0.0
  0
LINE
  5
3E3
100
AcDbEntity
  8
0
100
AcDbLine
 62
7
  6
CONTINUOUS
 10
10.8818663039
 20
6.1755999603
 11
10.8887745841
 21
6.1751898773
  0
LINE
  5
3E4
100
AcDbEntity
  8
0
100
AcDbLine
 62
7
  6
CONTINUOUS
 10
10.8887745841
 20
6.1751898773
 11
10.8934526907
 21
6.1746368735
  0
SPLINE
  5
3E5
100
AcDbEntity
  8
0
100
AcDbSpline
 62
7
  6
CONTINUOUS
 70
0
 71
3
 72
12
 73
8
 74
0
 42
0.0000001
 43
0.0000001
 44
0.0000000001
 40
0.0
 40
0.0
 40
0.0
 40
0.0
 40
0.406101749
 40
0.7050942543
 40
0.814727353
 40
0.8986311551
 40
1.0
 40
1.0
 40
1.0
 40
1.0
 10
10.8934526907
 20
6.1746368735
 30
0.0
 10
10.893693109
 20
6.1745929182
 30
0.0
 10
10.8941095738
 20
6.1745077052
 30
0.0
 10
10.8945818502
 20
6.1743797224
 30
0.0
 10
10.8948597033
 20
6.1742667358
 30
0.0
 10
10.895010637
 20
6.1741861593
 30
0.0
 10
10.895107799
 20
6.1740939392
 30
0.0
 10
10.895107799
 20
6.1740329326
 30
0.0
  0
LINE
  5
3E6
100
AcDbEntity
  8
0
100
AcDbLine
 62
7
  6
CONTINUOUS
 10
11.2278024931
 20
6.1757838706
 11
11.2336631193
 21
6.1755570878
  0
LINE
  5
3E7
100
AcDbEntity
  8
0
100
AcDbLine
 62
7
  6
CONTINUOUS
 10
11.2336631193
 20
6.1755570878
 11
11.2375412507
 21
6.1751647375
  0
SPLINE
  5
3E8
100
AcDbEntity
  8
0
100
AcDbSpline
 62
7
  6
CONTINUOUS
 70
0
 71
3
 72
12
 73
8
 74
0
 42
0.0000001
 43
0.0000001
 44
0.0000000001
 40
0.0
 40
0.0
 40
0.0
 40
0.0
 40
0.403596257
 40
0.700552121
 40
0.8097446471
 40
0.8939358892
 40
1.0
 40
1.0
 40
1.0
 40
1.0
 10
11.2375412507
 20
6.1751647375
 30
0.0
 10
11.2377388626
 20
6.1751308709
 30
0.0
 10
11.2380808969
 20
6.1750641678
 30
0.0
 10
11.2384692287
 20
6.174960116
 30
0.0
 10
11.2386961885
 20
6.1748651519
 30
0.0
 10
11.2388225557
 20
6.1747949153
 30
0.0
 10
11.2388987838
 20
6.1747129662
 30
0.0
 10
11.2388987838
 20
6.1746602771
 30
0.0
  0
SPLINE
  5
3E9
100
AcDbEntity
  8
0
100
AcDbSpline
 62
7
  6
CONTINUOUS
 70
0
 71
3
 72
18
 73
14
 74
0
 42
0.0000001
 43
0.0000001
 44
0.0000000001
 40
0.0
 40
0.0
 40
0.0
 40
0.0
 40
0.2146934005
 40
0.4096037319
 40
0.5806583542
 40
0.7245919596
 40
0.8393923958
 40
0.8853059743
 40
0.9233453054
 40
0.9534941904
 40
0.9758409966
 40
0.990777773
 40
1.0
 40
1.0
 40
1.0
 40
1.0
 10
11.4705465985
 20
6.1758086119
 30
0.0
 10
11.4712589783
 20
6.1758086119
 30
0.0
 10
11.4726181156
 20
6.1758011809
 30
0.0
 10
11.4745445373
 20
6.1757653697
 30
0.0
 10
11.4762355346
 20
6.1757063326
 30
0.0
 10
11.4776593982
 20
6.1756248112
 30
0.0
 10
11.4786666835
 20
6.1755356929
 30
0.0
 10
11.4793206377
 20
6.175449493
 30
0.0
 10
11.4796938106
 20
6.1753848124
 30
0.0
 10
11.4799868827
 20
6.175318005
 30
0.0
 10
11.4801993148
 20
6.1752449382
 30
0.0
 10
11.4803374311
 20
6.1751767184
 30
0.0
 10
11.4803891182
 20
6.1751027932
 30
0.0
 10
11.4803891182
 20
6.1750721926
 30
0.0
  0
SPLINE
  5
3EA
100
AcDbEntity
  8
0
100
AcDbSpline
 62
7
  6
CONTINUOUS
 70
0
 71
3
 72
14
 73
10
 74
0
 42
0.0000001
 43
0.0000001
 44
0.0000000001
 40
0.0
 40
0.0
 40
0.0
 40
0.0
 40
0.4229718917
 40
0.7328368618
 40
0.8432361824
 40
0.9235163467
 40
0.952513754
 40
0.9743798787
 40
1.0
 40
1.0
 40
1.0
 40
1.0
 10
11.6779526779
 20
6.1757991981
 30
0.0
 10
11.6784490516
 20
6.175790637
 30
0.0
 10
11.6793089731
 20
6.1757665691
 30
0.0
 10
11.6802971702
 20
6.1757074496
 30
0.0
 10
11.6808809881
 20
6.1756349779
 30
0.0
 10
11.681133869
 20
6.1755882651
 30
0.0
 10
11.6812826444
 20
6.1755413505
 30
0.0
 10
11.6813617544
 20
6.1755076121
 30
0.0
 10
11.6814143676
 20
6.1754635091
 30
0.0
 10
11.6814143676
 20
6.1754334384
 30
0.0
  0
LINE
  5
3EB
100
AcDbEntity
  8
0
100
AcDbLine
 62
7
  6
CONTINUOUS
 10
10.9041899262
 20
6.1575021628
 11
10.9109370382
 21
6.1572329086
  0
SPLINE
  5
3EC
100
AcDbEntity
  8
0
100
AcDbSpline
 62
7
  6
CONTINUOUS
 70
0
 71
3
 72
15
 73
11
 74
0
 42
0.0000001
 43
0.0000001
 44
0.0000000001
 40
0.0
 40
0.0
 40
0.0
 40
0.0
 40
0.389755138
 40
0.55314434
 40
0.6932914995
 40
0.8086941873
 40
0.898548644
 40
0.9623256981
 40
0.984380335
 40
1.0
 40
1.0
 40
1.0
 40
1.0
 10
10.9109370382
 20
6.1572329086
 30
0.0
 10
10.9118259528
 20
6.1571849828
 30
0.0
 10
10.9130871196
 20
6.1571083816
 30
0.0
 10
10.9146657571
 20
6.156983747
 30
0.0
 10
10.9156183722
 20
6.1568936702
 30
0.0
 10
10.9164022403
 20
6.1568027129
 30
0.0
 10
10.9170097347
 20
6.1567114296
 30
0.0
 10
10.9174039921
 20
6.1566319413
 30
0.0
 10
10.9176251526
 20
6.1565629696
 30
0.0
 10
10.9177045721
 20
6.1565281129
 30
0.0
 10
10.9177346498
 20
6.1565089276
 30
0.0
  0
LINE
  5
3ED
100
AcDbEntity
  8
0
100
AcDbLine
 62
7
  6
CONTINUOUS
 10
11.8513919486
 20
6.1758142142
 11
11.85330986
 21
6.1757547181
  0
LINE
  5
3EE
100
AcDbEntity
  8
0
100
AcDbLine
 62
7
  6
CONTINUOUS
 10
10.9227823894
 20
6.1467673391
 11
10.9378631033
 21
6.1463400606
  0
LINE
  5
3EF
100
AcDbEntity
  8
0
100
AcDbLine
 62
7
  6
CONTINUOUS
 10
10.9378631033
 20
6.1463400606
 11
10.9390505355
 21
6.1461916943
  0
SPLINE
  5
3F0
100
AcDbEntity
  8
0
100
AcDbSpline
 62
7
  6
CONTINUOUS
 70
0
 71
3
 72
14
 73
10
 74
0
 42
0.0000001
 43
0.0000001
 44
0.0000000001
 40
0.0
 40
0.0
 40
0.0
 40
0.0
 40
0.4260889422
 40
0.5969016504
 40
0.7380305326
 40
0.848881363
 40
0.9290127484
 40
0.9785341454
 40
1.0
 40
1.0
 40
1.0
 40
1.0
 10
11.4395869794
 20
6.1576474217
 30
0.0
 10
11.4400832034
 20
6.1576388761
 30
0.0
 10
11.4407786564
 20
6.1576222188
 30
0.0
 10
11.4416367629
 20
6.1575841958
 30
0.0
 10
11.4421297598
 20
6.1575523025
 30
0.0
 10
11.4425111685
 20
6.1575188364
 30
0.0
 10
11.4427977813
 20
6.1574762322
 30
0.0
 10
11.4429529727
 20
6.157444014
 30
0.0
 10
11.4430486691
 20
6.1573977488
 30
0.0
 10
11.4430486691
 20
6.1573727459
 30
0.0
  0
LINE
  5
3F1
100
AcDbEntity
  8
0
100
AcDbLine
 62
7
  6
CONTINUOUS
 10
11.2051214461
 20
6.1576421088
 11
11.2109845108
 21
6.1575167366
  0
LINE
  5
3F2
100
AcDbEntity
  8
0
100
AcDbLine
 62
7
  6
CONTINUOUS
 10
11.2109845108
 20
6.1575167366
 11
11.2148609452
 21
6.1572781369
  0
LINE
  5
3F3
100
AcDbEntity
  8
0
100
AcDbLine
 62
7
  6
CONTINUOUS
 10
11.2148609452
 20
6.1572781369
 11
11.2162164269
 21
6.1569590095
  0
SPLINE
  5
3F4
100
AcDbEntity
  8
0
100
AcDbSpline
 62
7
  6
CONTINUOUS
 70
0
 71
3
 72
20
 73
16
 74
0
 42
0.0000001
 43
0.0000001
 44
0.0000000001
 40
0.0
 40
0.0
 40
0.0
 40
0.0
 40
0.2166614687
 40
0.4133576067
 40
0.5859562355
 40
0.7311022227
 40
0.7927017872
 40
0.8466451398
 40
0.8926791417
 40
0.9306090584
 40
0.9603313886
 40
0.9817607585
 40
0.9948502669
 40
0.9983188233
 40
1.0
 40
1.0
 40
1.0
 40
1.0
 10
11.1851135244
 20
6.1468737051
 30
0.0
 10
11.1858253999
 20
6.1468737051
 30
0.0
 10
11.1871835535
 20
6.1468714083
 30
0.0
 10
11.1891087792
 20
6.1468603759
 30
0.0
 10
11.1907989682
 20
6.1468421222
 30
0.0
 10
11.1920451796
 20
6.146820237
 30
0.0
 10
11.1929014554
 20
6.1467983933
 30
0.0
 10
11.1934320381
 20
6.1467813895
 30
0.0
 10
11.1938848914
 20
6.1467628761
 30
0.0
 10
11.1942576182
 20
6.146743222
 30
0.0
 10
11.1945503601
 20
6.1467220661
 30
0.0
 10
11.1947586479
 20
6.1467015205
 30
0.0
 10
11.1948850618
 20
6.1466802716
 30
0.0
 10
11.1949395725
 20
6.1466641309
 30
0.0
 10
11.1949560473
 20
6.1466518788
 30
0.0
 10
11.1949560473
 20
6.146646355
 30
0.0
  0
LINE
  5
3F5
100
AcDbEntity
  8
0
100
AcDbLine
 62
7
  6
CONTINUOUS
 10
10.6550495247
 20
6.1576370523
 11
10.6665274346
 21
6.1575269762
  0
SPLINE
  5
3F6
100
AcDbEntity
  8
0
100
AcDbSpline
 62
7
  6
CONTINUOUS
 70
0
 71
3
 72
11
 73
7
 74
0
 42
0.0000001
 43
0.0000001
 44
0.0000000001
 40
0.0
 40
0.0
 40
0.0
 40
0.0
 40
0.3214252647
 40
0.6085378826
 40
0.8403771404
 40
1.0
 40
1.0
 40
1.0
 40
1.0
 10
10.6736124655
 20
6.1573017718
 30
0.0
 10
10.6753356963
 20
6.1572359731
 30
0.0
 10
10.6785975998
 20
6.1570960828
 30
0.0
 10
10.6831001875
 20
6.1568559023
 30
0.0
 10
10.6867321305
 20
6.1566074111
 30
0.0
 10
10.6888250645
 20
6.1564220572
 30
0.0
 10
10.6896746716
 20
6.1563144333
 30
0.0
  0
LINE
  5
3F7
100
AcDbEntity
  8
0
100
AcDbLine
 62
7
  6
CONTINUOUS
 10
10.6896746716
 20
6.1563144333
 11
10.6909579137
 21
6.1560250049
  0
LINE
  5
3F8
100
AcDbEntity
  8
0
100
AcDbLine
 62
7
  6
CONTINUOUS
 10
10.5042926108
 20
6.1576474312
 11
10.5152068109
 21
6.1572476115
  0
LINE
  5
3F9
100
AcDbEntity
  8
0
100
AcDbLine
 62
7
  6
CONTINUOUS
 10
10.5226415463
 20
6.1569092527
 11
10.5403014496
 21
6.1559259762
  0
LINE
  5
3FA
100
AcDbEntity
  8
0
100
AcDbLine
 62
7
  6
CONTINUOUS
 10
10.5403014496
 20
6.1559259762
 11
10.5417447782
 21
6.1557700201
  0
LINE
  5
3FB
100
AcDbEntity
  8
0
100
AcDbLine
 62
7
  6
CONTINUOUS
 10
11.5903438933
 20
6.1576370472
 11
11.5922618046
 21
6.1576277702
  0
SPLINE
  5
3FC
100
AcDbEntity
  8
0
100
AcDbSpline
 62
9
  6
CONTINUOUS
 70
0
 71
3
 72
26
 73
22
 74
0
 42
0.0000001
 43
0.0000001
 44
0.0000000001
 40
0.0
 40
0.0
 40
0.0
 40
0.0
 40
0.0025667843
 40
0.004607999
 40
0.0072711991
 40
0.0145747065
 40
0.024589305
 40
0.0373077631
 40
0.0526825143
 40
0.070656775
 40
0.0911695424
 40
0.1394939646
 40
0.196808443
 40
0.2621722957
 40
0.3344792903
 40
0.4124882375
 40
0.4948942096
 40
0.5802527352
 40
0.6671004836
 40
0.8394668797
 40
1.0
 40
1.0
 40
1.0
 40
1.0
 10
10.6892329723
 20
6.1837682839
 30
0.0
 10
10.6892387641
 20
6.1838395363
 30
0.0
 10
10.6891432999
 20
6.1839589059
 30
0.0
 10
10.6889761737
 20
6.1840629998
 30
0.0
 10
10.6886715146
 20
6.1842088359
 30
0.0
 10
10.6881414344
 20
6.1843776919
 30
0.0
 10
10.6873280786
 20
6.1845767619
 30
0.0
 10
10.6862861762
 20
6.1847795183
 30
0.0
 10
10.6850198928
 20
6.1849871585
 30
0.0
 10
10.6835344953
 20
6.1851972367
 30
0.0
 10
10.6811351486
 20
6.1854959531
 30
0.0
 10
10.6776402079
 20
6.1858591156
 30
0.0
 10
10.6728953376
 20
6.1862711082
 30
0.0
 10
10.6674793611
 20
6.1866701751
 30
0.0
 10
10.6614843785
 20
6.1870495064
 30
0.0
 10
10.6550123794
 20
6.1874021774
 30
0.0
 10
10.6481747395
 20
6.1877213467
 30
0.0
 10
10.6410890537
 20
6.1880022148
 30
0.0
 10
10.6314974949
 20
6.1883174697
 30
0.0
 10
10.6198098922
 20
6.1885864985
 30
0.0
 10
10.6105382698
 20
6.1886715246
 30
0.0
 10
10.6060672699
 20
6.1886717915
 30
0.0
  0
SPLINE
  5
3FD
100
AcDbEntity
  8
0
100
AcDbSpline
 62
7
  6
CONTINUOUS
 70
0
 71
3
 72
14
 73
10
 74
0
 42
0.0000001
 43
0.0000001
 44
0.0000000001
 40
0.0
 40
0.0
 40
0.0
 40
0.0
 40
0.0214646602
 40
0.0709858515
 40
0.1511172465
 40
0.2619681966
 40
0.4030972897
 40
0.5739102808
 40
1.0
 40
1.0
 40
1.0
 40
1.0
 10
10.6909579137
 20
6.1560250048
 30
0.0
 10
10.6909579136
 20
6.1560000034
 30
0.0
 10
10.6908622127
 20
6.1559537466
 30
0.0
 10
10.6907070269
 20
6.1559215296
 30
0.0
 10
10.6904204117
 20
6.1558789312
 30
0.0
 10
10.6900390041
 20
6.1558454697
 30
0.0
 10
10.6895460069
 20
6.1558135816
 30
0.0
 10
10.6886879007
 20
6.1557755632
 30
0.0
 10
10.6879924479
 20
6.1557589087
 30
0.0
 10
10.687496224
 20
6.1557503669
 30
0.0
  0
SPLINE
  5
3FE
100
AcDbEntity
  8
0
100
AcDbSpline
 62
7
  6
CONTINUOUS
 70
0
 71
3
 72
14
 73
10
 74
0
 42
0.0000001
 43
0.0000001
 44
0.0000000001
 40
0.0
 40
0.0
 40
0.0
 40
0.0
 40
0.0256171038
 40
0.0474825387
 40
0.0764795607
 40
0.156759535
 40
0.267159156
 40
0.5770256865
 40
1.0
 40
1.0
 40
1.0
 40
1.0
 10
10.4525922152
 20
6.1732598743
 30
0.0
 10
10.4525922151
 20
6.1732298074
 30
0.0
 10
10.4525395977
 20
6.1731857141
 30
0.0
 10
10.4524604914
 20
6.1731519845
 30
0.0
 10
10.4523117147
 20
6.17310508
 30
0.0
 10
10.4520588345
 20
6.1730583783
 30
0.0
 10
10.4514750159
 20
6.1729859235
 30
0.0
 10
10.4504868199
 20
6.1729268193
 30
0.0
 10
10.4496268989
 20
6.1729027577
 30
0.0
 10
10.4491305255
 20
6.1728941989
 30
0.0
  0
SPLINE
  5
3FF
100
AcDbEntity
  8
0
100
AcDbSpline
 62
9
  6
CONTINUOUS
 70
0
 71
3
 72
24
 73
20
 74
0
 42
0.0000001
 43
0.0000001
 44
0.0000000001
 40
0.0
 40
0.0
 40
0.0
 40
0.0
 40
0.002076731
 40
0.0037895962
 40
0.0060511539
 40
0.0123018154
 40
0.0208986826
 40
0.0451179064
 40
0.0785784177
 40
0.1210143178
 40
0.171955459
 40
0.230888877
 40
0.2972565623
 40
0.3703307019
 40
0.4493401779
 40
0.5334995334
 40
0.6219529594
 40
0.8081985443
 40
1.0
 40
1.0
 40
1.0
 40
1.0
 10
10.9519535616
 20
6.1671703824
 30
0.0
 10
10.9519567283
 20
6.1672097739
 30
0.0
 10
10.9518981172
 20
6.167274717
 30
0.0
 10
10.9518007681
 20
6.1673285256
 30
0.0
 10
10.9516196225
 20
6.1674054684
 30
0.0
 10
10.9513062915
 20
6.1674922767
 30
0.0
 10
10.9505780305
 20
6.1676455493
 30
0.0
 10
10.9493285517
 20
6.1678214432
 30
0.0
 10
10.9474340762
 20
6.1680236913
 30
0.0
 10
10.9450285641
 20
6.1682236554
 30
0.0
 10
10.9421369051
 20
6.1684212877
 30
0.0
 10
10.9387885551
 20
6.1686127122
 30
0.0
 10
10.9350180281
 20
6.1687957015
 30
0.0
 10
10.9308646266
 20
6.1689684228
 30
0.0
 10
10.9263719471
 20
6.1691289617
 30
0.0
 10
10.9215859852
 20
6.1692753499
 30
0.0
 10
10.9147594727
 20
6.1694529674
 30
0.0
 10
10.9058839369
 20
6.1696273636
 30
0.0
 10
10.8986904531
 20
6.169715367
 30
0.0
 10
10.8950407496
 20
6.1697465245
 30
0.0
  0
LINE
  5
400
100
AcDbEntity
  8
0
100
AcDbLine
 62
9
  6
CONTINUOUS
 10
10.8950407496
 20
6.1697465245
 11
10.8938643499
 21
6.16975609
  0
SPLINE
  5
401
100
AcDbEntity
  8
0
100
AcDbSpline
 62
9
  6
CONTINUOUS
 70
0
 71
3
 72
23
 73
19
 74
0
 42
0.0000001
 43
0.0000001
 44
0.0000000001
 40
0.0
 40
0.0
 40
0.0
 40
0.0
 40
0.0014348385
 40
0.0047342405
 40
0.0100966323
 40
0.0175542878
 40
0.0271156986
 40
0.0387826425
 40
0.0684163238
 40
0.1063229548
 40
0.1523094462
 40
0.2061795876
 40
0.267735934
 40
0.336761481
 40
0.4129388297
 40
0.5853462896
 40
0.7821290806
 40
1.0
 40
1.0
 40
1.0
 40
1.0
 10
10.9723208208
 20
6.1569607406
 30
0.0
 10
10.9723216768
 20
6.1569731678
 30
0.0
 10
10.972275979
 20
6.1569996524
 30
0.0
 10
10.9721992181
 20
6.157019162
 30
0.0
 10
10.972057503
 20
6.1570479075
 30
0.0
 10
10.9718668938
 20
6.1570740355
 30
0.0
 10
10.971618712
 20
6.1571024679
 30
0.0
 10
10.9711794107
 20
6.1571436737
 30
0.0
 10
10.970493349
 20
6.1571942899
 30
0.0
 10
10.9695095867
 20
6.1572528871
 30
0.0
 10
10.9683150274
 20
6.1573126704
 30
0.0
 10
10.966915022
 20
6.1573732471
 30
0.0
 10
10.9653148386
 20
6.157434251
 30
0.0
 10
10.9635208779
 20
6.1574953457
 30
0.0
 10
10.9607648162
 20
6.1575801407
 30
0.0
 10
10.9568996685
 20
6.157682882
 30
0.0
 10
10.9518043397
 20
6.1577980799
 30
0.0
 10
10.9482051602
 20
6.1578679622
 30
0.0
 10
10.9463140063
 20
6.1579022677
 30
0.0
  0
LINE
  5
402
100
AcDbEntity
  8
0
100
AcDbLine
 62
9
  6
CONTINUOUS
 10
10.2056861977
 20
6.1862651952
 11
10.203122137
 21
6.1864160146
  0
LINE
  5
403
100
AcDbEntity
  8
0
100
AcDbLine
 62
9
  6
CONTINUOUS
 10
10.203122137
 20
6.1864160146
 11
10.1648162007
 21
6.1886717919
  0
SPLINE
  5
404
100
AcDbEntity
  8
0
100
AcDbSpline
 62
7
  6
CONTINUOUS
 70
0
 71
3
 72
22
 73
18
 74
0
 42
0.0000001
 43
0.0000001
 44
0.0000000001
 40
0.0
 40
0.0
 40
0.0
 40
0.0
 40
0.222732156
 40
0.4213074392
 40
0.5933236733
 40
0.6687477435
 40
0.7368427801
 40
0.7974063246
 40
0.8502371796
 40
0.8951636015
 40
0.9320994847
 40
0.9609821782
 40
0.98177032
 40
0.9891364632
 40
0.9945129287
 40
0.9979940998
 40
1.0
 40
1.0
 40
1.0
 40
1.0
 10
10.320298343
 20
6.2280910834
 30
0.0
 10
10.3226221507
 20
6.2279717351
 30
0.0
 10
10.3270182045
 20
6.2277549549
 30
0.0
 10
10.3332106388
 20
6.2274819708
 30
0.0
 10
10.3378669438
 20
6.227307877
 30
0.0
 10
10.3411618442
 20
6.2272086625
 30
0.0
 10
10.3432932645
 20
6.2271566371
 30
0.0
 10
10.3451890055
 20
6.2271237189
 30
0.0
 10
10.3468429551
 20
6.2271099658
 30
0.0
 10
10.348250098
 20
6.2271153669
 30
0.0
 10
10.3494069416
 20
6.2271394576
 30
0.0
 10
10.3503107126
 20
6.2271814223
 30
0.0
 10
10.3509048842
 20
6.227234408
 30
0.0
 10
10.3512507114
 20
6.2272901068
 30
0.0
 10
10.3514153083
 20
6.2273343056
 30
0.0
 10
10.3515204536
 20
6.2273740614
 30
0.0
 10
10.3515626324
 20
6.2274248984
 30
0.0
 10
10.3515625008
 20
6.2274458535
 30
0.0
  0
SPLINE
  5
405
100
AcDbEntity
  8
0
100
AcDbSpline
 62
9
  6
CONTINUOUS
 70
0
 71
3
 72
30
 73
26
 74
0
 42
0.0000001
 43
0.0000001
 44
0.0000000001
 40
0.0
 40
0.0
 40
0.0
 40
0.0
 40
0.0009387442
 40
0.0024616771
 40
0.0047494006
 40
0.0078464626
 40
0.0117658854
 40
0.0165106061
 40
0.0284686192
 40
0.0436889358
 40
0.0620789082
 40
0.0835116396
 40
0.1078576297
 40
0.134982103
 40
0.1647099127
 40
0.2311842505
 40
0.3056511912
 40
0.3862246744
 40
0.4709031488
 40
0.5575554974
 40
0.6440056694
 40
0.7280699886
 40
0.880661365
 40
0.945379181
 40
1.0
 40
1.0
 40
1.0
 40
1.0
 10
10.4881415524
 20
6.1830004471
 30
0.0
 10
10.4881442947
 20
6.1830320906
 30
0.0
 10
10.4880974949
 20
6.1831133408
 30
0.0
 10
10.487959658
 20
6.1831956979
 30
0.0
 10
10.4877447868
 20
6.1832897916
 30
0.0
 10
10.4874444306
 20
6.1833847909
 30
0.0
 10
10.4870592917
 20
6.1834853615
 30
0.0
 10
10.4863777161
 20
6.1836352796
 30
0.0
 10
10.4853138659
 20
6.183823965
 30
0.0
 10
10.4837884338
 20
6.1840485826
 30
0.0
 10
10.481940784
 20
6.1842830458
 30
0.0
 10
10.4797832162
 20
6.1845257499
 30
0.0
 10
10.477329117
 20
6.1847747382
 30
0.0
 10
10.4745934856
 20
6.185028185
 30
0.0
 10
10.47043588
 20
6.1853833341
 30
0.0
 10
10.4646778855
 20
6.1858217244
 30
0.0
 10
10.4571996647
 20
6.1863223723
 30
0.0
 10
10.4491030259
 20
6.1868029071
 30
0.0
 10
10.4405916124
 20
6.1872503302
 30
0.0
 10
10.4318789496
 20
6.1876536565
 30
0.0
 10
10.4231846937
 20
6.1880020691
 30
0.0
 10
10.4122586812
 20
6.1883697776
 30
0.0
 10
10.4020641868
 20
6.1886157455
 30
0.0
 10
10.3928637783
 20
6.1887002663
 30
0.0
 10
10.3888258078
 20
6.1886869513
 30
0.0
 10
10.3869778995
 20
6.1886618548
 30
0.0
  0
SPLINE
  5
406
100
AcDbEntity
  8
0
100
AcDbSpline
 62
7
  6
CONTINUOUS
 70
0
 71
3
 72
22
 73
18
 74
0
 42
0.0000001
 43
0.0000001
 44
0.0000000001
 40
0.0
 40
0.0
 40
0.0
 40
0.0
 40
0.2212356698
 40
0.4183531243
 40
0.5891471184
 40
0.7316325887
 40
0.7918107696
 40
0.8443979652
 40
0.8892463264
 40
0.9262723286
 40
0.9554870979
 40
0.9671959745
 40
0.9770079409
 40
0.9849834099
 40
0.9912442843
 40
0.996055414
 40
1.0
 40
1.0
 40
1.0
 40
1.0
 10
10.4922874611
 20
6.227163771
 30
0.0
 10
10.4946076381
 20
6.2271355025
 30
0.0
 10
10.4989953352
 20
6.2271015707
 30
0.0
 10
10.5051745262
 20
6.2271240678
 30
0.0
 10
10.5105269465
 20
6.2272216085
 30
0.0
 10
10.5144414726
 20
6.2273702275
 30
0.0
 10
10.5171136432
 20
6.2275349121
 30
0.0
 10
10.5187613901
 20
6.2276689698
 30
0.0
 10
10.5201638271
 20
6.2278197314
 30
0.0
 10
10.5213171286
 20
6.227986809
 30
0.0
 10
10.522119711
 20
6.2281470823
 30
0.0
 10
10.5226326015
 20
6.228289913
 30
0.0
 10
10.5229247007
 20
6.2283926562
 30
0.0
 10
10.5231541623
 20
6.228498882
 30
0.0
 10
10.5233217217
 20
6.2286093559
 30
0.0
 10
10.5234305527
 20
6.228727205
 30
0.0
 10
10.5234583041
 20
6.2288196817
 30
0.0
 10
10.5234582212
 20
6.228861053
 30
0.0
  0
SPLINE
  5
407
100
AcDbEntity
  8
0
100
AcDbSpline
 62
7
  6
CONTINUOUS
 70
0
 71
3
 72
20
 73
16
 74
0
 42
0.0000001
 43
0.0000001
 44
0.0000000001
 40
0.0
 40
0.0
 40
0.0
 40
0.0
 40
0.0089244058
 40
0.0154788543
 40
0.0237666517
 40
0.0458924041
 40
0.075660205
 40
0.1131363988
 40
0.1583056584
 40
0.2111061273
 40
0.2713961944
 40
0.4137559287
 40
0.5839404177
 40
0.7800727233
 40
1.0
 40
1.0
 40
1.0
 40
1.0
 10
10.342356726
 20
6.2389838367
 30
0.0
 10
10.3423564926
 20
6.2388907224
 30
0.0
 10
10.3424601191
 20
6.2387399738
 30
0.0
 10
10.3426541154
 20
6.2385918509
 30
0.0
 10
10.3429896628
 20
6.2383961881
 30
0.0
 10
10.343572393
 20
6.2381600019
 30
0.0
 10
10.3444621595
 20
6.2378788379
 30
0.0
 10
10.345598228
 20
6.2375859051
 30
0.0
 10
10.3469782869
 20
6.2372807326
 30
0.0
 10
10.3485992988
 20
6.2369655423
 30
0.0
 10
10.3512249958
 20
6.2365071364
 30
0.0
 10
10.3550720263
 20
6.2359271645
 30
0.0
 10
10.3603347047
 20
6.23523831
 30
0.0
 10
10.3664107144
 20
6.234532468
 30
0.0
 10
10.3707282183
 20
6.2340802317
 30
0.0
 10
10.3730114262
 20
6.2338513093
 30
0.0
  0
SPLINE
  5
408
100
AcDbEntity
  8
0
100
AcDbSpline
 62
9
  6
CONTINUOUS
 70
0
 71
3
 72
25
 73
21
 74
0
 42
0.0000001
 43
0.0000001
 44
0.0000000001
 40
0.0
 40
0.0
 40
0.0
 40
0.0
 40
0.0017635812
 40
0.0033975268
 40
0.0055984407
 40
0.0117459358
 40
0.0202423946
 40
0.0310842864
 40
0.0442583726
 40
0.0775230907
 40
0.1197192115
 40
0.1703910823
 40
0.2290721338
 40
0.2951903362
 40
0.3680493966
 40
0.4469445442
 40
0.5311116399
 40
0.6196830151
 40
0.8065038619
 40
1.0
 40
1.0
 40
1.0
 40
1.0
 10
10.7250462958
 20
6.1663021726
 30
0.0
 10
10.7250486446
 20
6.1663347059
 30
0.0
 10
10.7249834047
 20
6.1663822041
 30
0.0
 10
10.7248944752
 20
6.1664212076
 30
0.0
 10
10.7247162423
 20
6.1664813122
 30
0.0
 10
10.7244143052
 20
6.1665501667
 30
0.0
 10
10.7239492564
 20
6.1666334798
 30
0.0
 10
10.7233543714
 20
6.1667192342
 30
0.0
 10
10.7223026411
 20
6.166848523
 30
0.0
 10
10.7206711654
 20
6.1670095833
 30
0.0
 10
10.7183460519
 20
6.1672006573
 30
0.0
 10
10.7155500235
 20
6.1673980816
 30
0.0
 10
10.7123108591
 20
6.1675996209
 30
0.0
 10
10.7086607373
 20
6.1678028971
 30
0.0
 10
10.7046362178
 20
6.1680059714
 30
0.0
 10
10.7002773733
 20
6.168206554
 30
0.0
 10
10.6956274418
 20
6.1684025354
 30
0.0
 10
10.6889822409
 20
6.1686599003
 30
0.0
 10
10.6803149331
 20
6.1689542184
 30
0.0
 10
10.6732836449
 20
6.1691541817
 30
0.0
 10
10.6697060519
 20
6.1692462318
 30
0.0
  0
LINE
  5
409
100
AcDbEntity
  8
0
100
AcDbLine
 62
9
  6
CONTINUOUS
 10
10.6383066428
 20
6.1697732855
 11
10.6267073851
 21
6.1697469901
  0
LINE
  5
40A
100
AcDbEntity
  8
0
100
AcDbLine
 62
7
  6
CONTINUOUS
 10
10.2806967228
 20
6.1729386702
 11
10.2787788114
 21
6.1728791891
  0
SPLINE
  5
40B
100
AcDbEntity
  8
0
100
AcDbSpline
 62
7
  6
CONTINUOUS
 70
0
 71
3
 72
20
 73
16
 74
0
 42
0.0000001
 43
0.0000001
 44
0.0000000001
 40
0.0
 40
0.0
 40
0.0
 40
0.0
 40
0.0108476592
 40
0.0180598126
 40
0.0268406466
 40
0.0496030347
 40
0.0797135751
 40
0.1173556499
 40
0.1625661552
 40
0.2152649613
 40
0.2753342295
 40
0.4170396756
 40
0.586351427
 40
0.7813564297
 40
1.0
 40
1.0
 40
1.0
 40
1.0
 10
10.5433812442
 20
6.2373270205
 30
0.0
 10
10.5433812438
 20
6.2372131003
 30
0.0
 10
10.543474973
 20
6.237027671
 30
0.0
 10
10.5436767814
 20
6.2368332333
 30
0.0
 10
10.5440086839
 20
6.2365940312
 30
0.0
 10
10.5445913148
 20
6.2363059656
 30
0.0
 10
10.5454820737
 20
6.2359722735
 30
0.0
 10
10.5466192023
 20
6.2356316796
 30
0.0
 10
10.5480000746
 20
6.2352846612
 30
0.0
 10
10.5496216441
 20
6.234932822
 30
0.0
 10
10.5522467051
 20
6.2344308141
 30
0.0
 10
10.5560954208
 20
6.2338138029
 30
0.0
 10
10.5613623968
 20
6.233104865
 30
0.0
 10
10.5674443179
 20
6.2324016446
 30
0.0
 10
10.5717666345
 20
6.2319661069
 30
0.0
 10
10.5740525013
 20
6.2317489716
 30
0.0
  0
SPLINE
  5
40C
100
AcDbEntity
  8
0
100
AcDbSpline
 62
7
  6
CONTINUOUS
 70
0
 71
3
 72
19
 73
15
 74
0
 42
0.0000001
 43
0.0000001
 44
0.0000000001
 40
0.0
 40
0.0
 40
0.0
 40
0.0
 40
0.2199291128
 40
0.4159241368
 40
0.5858541105
 40
0.7278021387
 40
0.7878582518
 40
0.8404398716
 40
0.8854196474
 40
0.9227321338
 40
0.9524374932
 40
0.9644980288
 40
0.9747559783
 40
1.0
 40
1.0
 40
1.0
 40
1.0
 10
10.6933504391
 20
6.2272379824
 30
0.0
 10
10.6956690131
 20
6.2272820426
 30
0.0
 10
10.7000534275
 20
6.2273906413
 30
0.0
 10
10.706226317
 20
6.2276346192
 30
0.0
 10
10.7115726763
 20
6.2279467969
 30
0.0
 10
10.7154815333
 20
6.2282748358
 30
0.0
 10
10.7181486638
 20
6.2285804305
 30
0.0
 10
10.7197948664
 20
6.2288113158
 30
0.0
 10
10.7211959032
 20
6.2290552239
 30
0.0
 10
10.722350137
 20
6.2293129762
 30
0.0
 10
10.723148427
 20
6.2295473546
 30
0.0
 10
10.7236632517
 20
6.2297524421
 30
0.0
 10
10.7240982198
 20
6.2299646468
 30
0.0
 10
10.7244836057
 20
6.2302505205
 30
0.0
 10
10.7244836064
 20
6.2305167003
 30
0.0
  0
SPLINE
  5
40D
100
AcDbEntity
  8
0
100
AcDbSpline
 62
9
  6
CONTINUOUS
 70
0
 71
3
 72
30
 73
26
 74
0
 42
0.0000001
 43
0.0000001
 44
0.0000000001
 40
0.0
 40
0.0
 40
0.0
 40
0.0
 40
0.000553481
 40
0.0018107971
 40
0.0038445327
 40
0.0066666484
 40
0.0102802223
 40
0.0146841778
 40
0.0258308251
 40
0.0400327503
 40
0.0572118879
 40
0.0772888293
 40
0.1001597392
 40
0.1256811962
 40
0.1537059706
 40
0.1840867322
 40
0.2166652688
 40
0.2876448403
 40
0.365068276
 40
0.44724145
 40
0.532338181
 40
0.6184963879
 40
0.7038094436
 40
0.8644160452
 40
1.0
 40
1.0
 40
1.0
 40
1.0
 10
10.3161861655
 20
6.1823159527
 30
0.0
 10
10.3161875297
 20
6.182333589
 30
0.0
 10
10.31612525
 20
6.1823727473
 30
0.0
 10
10.3160187546
 20
6.182405929
 30
0.0
 10
10.3158231916
 20
6.1824549042
 30
0.0
 10
10.3155595974
 20
6.1825039825
 30
0.0
 10
10.3152166335
 20
6.1825596536
 30
0.0
 10
10.314610631
 20
6.1826453799
 30
0.0
 10
10.3136662862
 20
6.182759835
 30
0.0
 10
10.3123149087
 20
6.182904088
 30
0.0
 10
10.3106779391
 20
6.1830627919
 30
0.0
 10
10.308764031
 20
6.1832348623
 30
0.0
 10
10.3065835457
 20
6.1834192065
 30
0.0
 10
10.3041491279
 20
6.1836148112
 30
0.0
 10
10.3014747508
 20
6.1838205122
 30
0.0
 10
10.2985748672
 20
6.1840351503
 30
0.0
 10
10.2943051322
 20
6.1843404148
 30
0.0
 10
10.288534409
 20
6.1847337227
 30
0.0
 10
10.2811806216
 20
6.1852089963
 30
0.0
 10
10.2733750893
 20
6.1856894893
 30
0.0
 10
10.265289576
 20
6.186164692
 30
0.0
 10
10.2571026314
 20
6.1866239318
 30
0.0
 10
10.2465046599
 20
6.187190066
 30
0.0
 10
10.2343267302
 20
6.1877909249
 30
0.0
 10
10.2248691465
 20
6.1881964581
 30
0.0
 10
10.2205388797
 20
6.1883560371
 30
0.0
  0
LINE
  5
40E
100
AcDbEntity
  8
0
100
AcDbLine
 62
9
  6
CONTINUOUS
 10
10.2205388797
 20
6.1883560371
 11
10.2107130715
 21
6.1886467397
  0
SPLINE
  5
40F
100
AcDbEntity
  8
0
100
AcDbSpline
 62
7
  6
CONTINUOUS
 70
0
 71
3
 72
21
 73
17
 74
0
 42
0.0000001
 43
0.0000001
 44
0.0000000001
 40
0.0
 40
0.0
 40
0.0
 40
0.0
 40
0.0021471548
 40
0.0058451621
 40
0.0189943899
 40
0.0401406705
 40
0.0693171556
 40
0.106485652
 40
0.1515833253
 40
0.2044843897
 40
0.2650206152
 40
0.3330208896
 40
0.4083126726
 40
0.5799205549
 40
0.7778663138
 40
1.0
 40
1.0
 40
1.0
 40
1.0
 10
10.1704607816
 20
6.2404007877
 30
0.0
 10
10.1704606564
 20
6.2403788969
 30
0.0
 10
10.1705013369
 20
6.240325414
 30
0.0
 10
10.1706691595
 20
6.2402339016
 30
0.0
 10
10.1710426098
 20
6.2401134031
 30
0.0
 10
10.1716705078
 20
6.239965738
 30
0.0
 10
10.1725477072
 20
6.2397974951
 30
0.0
 10
10.1736683381
 20
6.2396119765
 30
0.0
 10
10.1750316999
 20
6.2394097827
 30
0.0
 10
10.1766332656
 20
6.2391919564
 30
0.0
 10
10.1784684334
 20
6.2389592146
 30
0.0
 10
10.1805318437
 20
6.2387123581
 30
0.0
 10
10.1837218129
 20
6.2383493823
 30
0.0
 10
10.1882318151
 20
6.2378696765
 30
0.0
 10
10.1942346194
 20
6.237271547
 30
0.0
 10
10.1984985833
 20
6.2368691774
 30
0.0
 10
10.2007537418
 20
6.2366610016
 30
0.0
  0
SPLINE
  5
410
100
AcDbEntity
  8
0
100
AcDbSpline
 62
7
  6
CONTINUOUS
 70
0
 71
3
 72
18
 73
14
 74
0
 42
0.0000001
 43
0.0000001
 44
0.0000000001
 40
0.0
 40
0.0
 40
0.0
 40
0.0
 40
0.0277303549
 40
0.0384307253
 40
0.0508709426
 40
0.0811719018
 40
0.1188937446
 40
0.1641098586
 40
0.2167626237
 40
0.2767454575
 40
0.4181824616
 40
0.5871452156
 40
1.0
 40
1.0
 40
1.0
 40
1.0
 10
10.7848715785
 20
6.2353374645
 30
0.0
 10
10.7848715785
 20
6.23504452
 30
0.0
 10
10.7852367234
 20
6.2347046579
 30
0.0
 10
10.78568277
 20
6.2344310381
 30
0.0
 10
10.7861895825
 20
6.234172208
 30
0.0
 10
10.7869800083
 20
6.2338619339
 30
0.0
 10
10.7881234758
 20
6.2335053902
 30
0.0
 10
10.7895112217
 20
6.2331499383
 30
0.0
 10
10.7911409486
 20
6.2327950817
 30
0.0
 10
10.793778698
 20
6.2322975738
 30
0.0
 10
10.7976469404
 20
6.2317024794
 30
0.0
 10
10.80522922
 20
6.2307569273
 30
0.0
 10
10.8113517911
 20
6.2301970103
 30
0.0
 10
10.8156992655
 20
6.2298485997
 30
0.0
  0
SPLINE
  5
411
100
AcDbEntity
  8
0
100
AcDbSpline
 62
7
  6
CONTINUOUS
 70
0
 71
3
 72
18
 73
14
 74
0
 42
0.0000001
 43
0.0000001
 44
0.0000000001
 40
0.0
 40
0.0
 40
0.0
 40
0.0
 40
0.4137307371
 40
0.5829161569
 40
0.724411538
 40
0.7843675475
 40
0.8369476519
 40
0.8820396554
 40
0.9195954026
 40
0.9497004609
 40
0.9620341745
 40
0.9726250647
 40
1.0
 40
1.0
 40
1.0
 40
1.0
 10
10.9349249858
 20
6.227970765
 30
0.0
 10
10.9393011468
 20
6.228182767
 30
0.0
 10
10.9454648802
 20
6.2285508723
 30
0.0
 10
10.9531038466
 20
6.229260375
 30
0.0
 10
10.9570009488
 20
6.2297355919
 30
0.0
 10
10.9596589129
 20
6.2301517871
 30
0.0
 10
10.9613004755
 20
6.2304565088
 30
0.0
 10
10.9626980516
 20
6.2307694974
 30
0.0
 10
10.9638494591
 20
6.2310913707
 30
0.0
 10
10.9646457951
 20
6.2313777128
 30
0.0
 10
10.965156651
 20
6.2316218678
 30
0.0
 10
10.965605353
 20
6.231881152
 30
0.0
 10
10.9659739402
 20
6.2322156107
 30
0.0
 10
10.9659739407
 20
6.2325055037
 30
0.0
  0
LINE
  5
412
100
AcDbEntity
  8
0
100
AcDbLine
 62
7
  6
CONTINUOUS
 10
11.2162164269
 20
6.1569590095
 11
11.2145659912
 21
6.1565658073
  0
LINE
  5
413
100
AcDbEntity
  8
0
100
AcDbLine
 62
7
  6
CONTINUOUS
 10
11.2145659912
 20
6.1565658073
 11
11.2098909089
 21
6.1561941273
  0
LINE
  5
414
100
AcDbEntity
  8
0
100
AcDbLine
 62
7
  6
CONTINUOUS
 10
11.2098909089
 20
6.1561941273
 11
11.1981436321
 21
6.1557933065
  0
SPLINE
  5
415
100
AcDbEntity
  8
0
100
AcDbSpline
 62
7
  6
CONTINUOUS
 70
0
 71
3
 72
18
 73
14
 74
0
 42
0.0000001
 43
0.0000001
 44
0.0000000001
 40
0.0
 40
0.0
 40
0.0
 40
0.0
 40
0.0273829914
 40
0.0379729926
 40
0.050305253
 40
0.0804068812
 40
0.1179602979
 40
0.163049591
 40
0.2156230781
 40
0.2755710704
 40
0.417056823
 40
0.5862346749
 40
1.0
 40
1.0
 40
1.0
 40
1.0
 10
11.1286625633
 20
6.232505473
 30
0.0
 10
11.1286625639
 20
6.2322159106
 30
0.0
 10
11.1290303164
 20
6.231881644
 30
0.0
 10
11.1294783472
 20
6.2316224993
 30
0.0
 10
11.1299883159
 20
6.2313785333
 30
0.0
 10
11.1307833695
 20
6.2310924087
 30
0.0
 10
11.1319329783
 20
6.2307708083
 30
0.0
 10
11.1333283813
 20
6.2304580749
 30
0.0
 10
11.1349673567
 20
6.2301535427
 30
0.0
 10
11.1376211913
 20
6.2297375698
 30
0.0
 10
11.1415123825
 20
6.2292625849
 30
0.0
 10
11.149140496
 20
6.228553206
 30
0.0
 10
11.1552956477
 20
6.22818511
 30
0.0
 10
11.1596658794
 20
6.227973008
 30
0.0
  0
SPLINE
  5
416
100
AcDbEntity
  8
0
100
AcDbSpline
 62
9
  6
CONTINUOUS
 70
0
 71
3
 72
19
 73
15
 74
0
 42
0.0000001
 43
0.0000001
 44
0.0000000001
 40
0.0
 40
0.0
 40
0.0
 40
0.0
 40
0.0066898854
 40
0.0123562959
 40
0.0198845775
 40
0.0293543345
 40
0.0408023716
 40
0.0696956943
 40
0.1515233514
 40
0.264650839
 40
0.4078112983
 40
0.5795586435
 40
0.777749474
 40
1.0
 40
1.0
 40
1.0
 40
1.0
 10
11.2504780263
 20
6.1682914111
 30
0.0
 10
11.2504814361
 20
6.1683337638
 30
0.0
 10
11.2504129613
 20
6.1684022396
 30
0.0
 10
11.2503043679
 20
6.1684560792
 30
0.0
 10
11.2501680004
 20
6.1685082487
 30
0.0
 10
11.2499948647
 20
6.1685579321
 30
0.0
 10
11.2496865496
 20
6.1686305784
 30
0.0
 10
11.2489219995
 20
6.1687642219
 30
0.0
 10
11.2475081467
 20
6.168922765
 30
0.0
 10
11.2453673522
 20
6.1690916786
 30
0.0
 10
11.242652946
 20
6.1692468586
 30
0.0
 10
11.239397025
 20
6.1693862119
 30
0.0
 10
11.2356377226
 20
6.1695073924
 30
0.0
 10
11.2329681033
 20
6.1695715352
 30
0.0
 10
11.2315568202
 20
6.1696008756
 30
0.0
  0
LINE
  5
417
100
AcDbEntity
  8
0
100
AcDbLine
 62
9
  6
CONTINUOUS
 10
11.2171719622
 20
6.1697732831
 11
11.2160100681
 21
6.1697782201
  0
SPLINE
  5
418
100
AcDbEntity
  8
0
100
AcDbSpline
 62
7
  6
CONTINUOUS
 70
0
 71
3
 72
18
 73
14
 74
0
 42
0.0000001
 43
0.0000001
 44
0.0000000001
 40
0.0
 40
0.0
 40
0.0
 40
0.0
 40
0.4128222209
 40
0.5817970676
 40
0.7232446865
 40
0.7832349716
 40
0.8358943891
 40
0.8811146666
 40
0.9188381321
 40
0.9491393094
 40
0.9615790567
 40
0.9722785262
 40
1.0
 40
1.0
 40
1.0
 40
1.0
 10
11.278902408
 20
6.229845731
 30
0.0
 10
11.2832543483
 20
6.2301942127
 30
0.0
 10
11.2893834717
 20
6.2307544067
 30
0.0
 10
11.296974073
 20
6.2317003604
 30
0.0
 10
11.3008469423
 20
6.2322958053
 30
0.0
 10
11.3034879142
 20
6.2327935802
 30
0.0
 10
11.3051196744
 20
6.2331486368
 30
0.0
 10
11.3065091299
 20
6.2335042981
 30
0.0
 10
11.3076539769
 20
6.2338610639
 30
0.0
 10
11.3084453452
 20
6.2341715226
 30
0.0
 10
11.3089527716
 20
6.2344305111
 30
0.0
 10
11.3093992751
 20
6.2347042532
 30
0.0
 10
11.3097649255
 20
6.2350442917
 30
0.0
 10
11.3097649255
 20
6.2353374647
 30
0.0
  0
LINE
  5
419
100
AcDbEntity
  8
0
100
AcDbLine
 62
9
  6
CONTINUOUS
 10
10.844327446
 20
6.1564877639
 11
10.7383320187
 21
6.1583863916
  0
SPLINE
  5
41A
100
AcDbEntity
  8
0
100
AcDbSpline
 62
7
  6
CONTINUOUS
 70
0
 71
3
 72
20
 73
16
 74
0
 42
0.0000001
 43
0.0000001
 44
0.0000000001
 40
0.0
 40
0.0
 40
0.0
 40
0.0
 40
0.2186329764
 40
0.4136362755
 40
0.582949189
 40
0.7246567243
 40
0.7847287973
 40
0.8374303336
 40
0.8826425281
 40
0.920285468
 40
0.9503972087
 40
0.9731605614
 40
0.9819415814
 40
0.9891536156
 40
1.0
 40
1.0
 40
1.0
 40
1.0
 10
11.5205739338
 20
6.2317480214
 30
0.0
 10
11.5228604229
 20
6.2319651838
 30
0.0
 10
11.5271839969
 20
6.2324007918
 30
0.0
 10
11.5332677592
 20
6.2331040908
 30
0.0
 10
11.5385364518
 20
6.233813123
 30
0.0
 10
11.5423864727
 20
6.2344302573
 30
0.0
 10
11.5450124663
 20
6.2349323591
 30
0.0
 10
11.5466346404
 20
6.2352842682
 30
0.0
 10
11.5480160212
 20
6.2356313568
 30
0.0
 10
11.549153565
 20
6.2359720216
 30
0.0
 10
11.5500446618
 20
6.2363057675
 30
0.0
 10
11.5506275298
 20
6.2365938731
 30
0.0
 10
11.5509595808
 20
6.2368331122
 30
0.0
 10
11.5511614742
 20
6.2370275687
 30
0.0
 10
11.5512552602
 20
6.237213035
 30
0.0
 10
11.5512552599
 20
6.2373269782
 30
0.0
  0
SPLINE
  5
41B
100
AcDbEntity
  8
0
100
AcDbSpline
 62
7
  6
CONTINUOUS
 70
0
 71
3
 72
19
 73
15
 74
0
 42
0.0000001
 43
0.0000001
 44
0.0000000001
 40
0.0
 40
0.0
 40
0.0
 40
0.0
 40
0.0252499132
 40
0.0355049313
 40
0.0475618764
 40
0.0772600852
 40
0.1145685387
 40
0.159544575
 40
0.2121161587
 40
0.2721601482
 40
0.4140956479
 40
0.5840216517
 40
0.7800217529
 40
1.0
 40
1.0
 40
1.0
 40
1.0
 10
11.3701528977
 20
6.2305165591
 30
0.0
 10
11.3701528979
 20
6.230250851
 30
0.0
 10
11.3705370215
 20
6.2299651479
 30
0.0
 10
11.3709710528
 20
6.2297531284
 30
0.0
 10
11.3714846005
 20
6.22954827
 30
0.0
 10
11.3722810827
 20
6.2293141546
 30
0.0
 10
11.3734327926
 20
6.2290567201
 30
0.0
 10
11.3748307915
 20
6.2288130745
 30
0.0
 10
11.3764733708
 20
6.2285823239
 30
0.0
 10
11.3791347278
 20
6.2282768313
 30
0.0
 10
11.383035394
 20
6.2279488297
 30
0.0
 10
11.3883708704
 20
6.2276365572
 30
0.0
 10
11.3945318806
 20
6.2273922851
 30
0.0
 10
11.3989080634
 20
6.2272834833
 30
0.0
 10
11.4012225003
 20
6.2272392494
 30
0.0
  0
SPLINE
  5
41C
100
AcDbEntity
  8
0
100
AcDbSpline
 62
7
  6
CONTINUOUS
 70
0
 71
3
 72
20
 73
16
 74
0
 42
0.0000001
 43
0.0000001
 44
0.0000000001
 40
0.0
 40
0.0
 40
0.0
 40
0.0
 40
0.2199136214
 40
0.4160270617
 40
0.5862202398
 40
0.7285738658
 40
0.7888632813
 40
0.8416777522
 40
0.8868665951
 40
0.9243346218
 40
0.9540826029
 40
0.9761982507
 40
0.984490701
 40
0.9910575249
 40
1.0
 40
1.0
 40
1.0
 40
1.0
 10
11.7217010968
 20
6.2338589535
 30
0.0
 10
11.7239785819
 20
6.2340875294
 30
0.0
 10
11.7282851963
 20
6.2345390259
 30
0.0
 10
11.7343460807
 20
6.235243858
 30
0.0
 10
11.7395957082
 20
6.23593155
 30
0.0
 10
11.7434333084
 20
6.2365106798
 30
0.0
 10
11.7460526062
 20
6.2369684481
 30
0.0
 10
11.7476699554
 20
6.2372831977
 30
0.0
 10
11.749046888
 20
6.2375878074
 30
0.0
 10
11.7501800194
 20
6.2378803389
 30
0.0
 10
11.7510671188
 20
6.238161133
 30
0.0
 10
11.7516480029
 20
6.2383970499
 30
0.0
 10
11.7519827297
 20
6.2385924175
 30
0.0
 10
11.7521765392
 20
6.2387402909
 30
0.0
 10
11.7522805913
 20
6.2388907103
 30
0.0
 10
11.75228043
 20
6.2389837861
 30
0.0
  0
SPLINE
  5
41D
100
AcDbEntity
  8
0
100
AcDbSpline
 62
7
  6
CONTINUOUS
 70
0
 71
3
 72
21
 73
17
 74
0
 42
0.0000001
 43
0.0000001
 44
0.0000000001
 40
0.0
 40
0.0
 40
0.0
 40
0.0
 40
0.2222107936
 40
0.4201887022
 40
0.5917960196
 40
0.6670703805
 40
0.7350596887
 40
0.7955893669
 40
0.8484860385
 40
0.8935785157
 40
0.9307290565
 40
0.9598798506
 40
0.9810042263
 40
0.9941465796
 40
0.9978492663
 40
1.0
 40
1.0
 40
1.0
 40
1.0
 10
11.8938787544
 20
6.2366607469
 30
0.0
 10
11.8961350036
 20
6.2368689315
 30
0.0
 10
11.9004006562
 20
6.2372713195
 30
0.0
 10
11.9064053508
 20
6.2378697386
 30
0.0
 10
11.9109160774
 20
6.2383496923
 30
0.0
 10
11.9141061683
 20
6.2387127567
 30
0.0
 10
11.9161695017
 20
6.2389595781
 30
0.0
 10
11.9180047003
 20
6.239192254
 30
0.0
 10
11.9196063267
 20
6.2394099986
 30
0.0
 10
11.9209696084
 20
6.2396120802
 30
0.0
 10
11.9220898976
 20
6.2397975042
 30
0.0
 10
11.9229665675
 20
6.2399656668
 30
0.0
 10
11.9235939635
 20
6.2401132753
 30
0.0
 10
11.9239672745
 20
6.2402337654
 30
0.0
 10
11.9241350741
 20
6.240325243
 30
0.0
 10
11.9241760261
 20
6.2403786344
 30
0.0
 10
11.9241759752
 20
6.2404005648
 30
0.0
  0
SPLINE
  5
41E
100
AcDbEntity
  8
0
100
AcDbSpline
 62
7
  6
CONTINUOUS
 70
0
 71
3
 72
20
 73
16
 74
0
 42
0.0000001
 43
0.0000001
 44
0.0000000001
 40
0.0
 40
0.0
 40
0.0
 40
0.0
 40
0.0066660294
 40
0.012418661
 40
0.0200554354
 40
0.0296421505
 40
0.0412075892
 40
0.0703162067
 40
0.1074147431
 40
0.1524527897
 40
0.2657630321
 40
0.4089718417
 40
0.5805049778
 40
0.778262327
 40
1.0
 40
1.0
 40
1.0
 40
1.0
 10
11.3328124486
 20
6.2130804875
 30
0.0
 10
11.3328124487
 20
6.2130082394
 30
0.0
 10
11.3329411934
 20
6.2129032793
 30
0.0
 10
11.3331314885
 20
6.2128201838
 30
0.0
 10
11.3333717582
 20
6.2127413104
 30
0.0
 10
11.3336737856
 20
6.2126675678
 30
0.0
 10
11.3342089993
 20
6.2125623134
 30
0.0
 10
11.3350437076
 20
6.212444293
 30
0.0
 10
11.3362431975
 20
6.2123194867
 30
0.0
 10
11.3383552119
 20
6.2121548297
 30
0.0
 10
11.3416199783
 20
6.2119911738
 30
0.0
 10
11.3462572881
 20
6.2118502036
 30
0.0
 10
11.3518112836
 20
6.2117583083
 30
0.0
 10
11.3582169301
 20
6.2117163811
 30
0.0
 10
11.3627635689
 20
6.2117227411
 30
0.0
 10
11.3651667951
 20
6.211733469
 30
0.0
  0
SPLINE
  5
41F
100
AcDbEntity
  8
0
100
AcDbSpline
 62
7
  6
CONTINUOUS
 70
0
 71
3
 72
18
 73
14
 74
0
 42
0.0000001
 43
0.0000001
 44
0.0000000001
 40
0.0
 40
0.0
 40
0.0
 40
0.0
 40
0.0062807009
 40
0.0200446465
 40
0.0419867801
 40
0.0721525822
 40
0.1104875624
 40
0.156898566
 40
0.2730027568
 40
0.4181732413
 40
0.5899418948
 40
0.7851077041
 40
1.0
 40
1.0
 40
1.0
 40
1.0
 10
11.4430486691
 20
6.1573727459
 30
0.0
 10
11.4430486691
 20
6.1573504949
 30
0.0
 10
11.4429734152
 20
6.1573044432
 30
0.0
 10
11.4428426484
 20
6.1572643555
 30
0.0
 10
11.4426090821
 20
6.1572096135
 30
0.0
 10
11.4422958121
 20
6.1571561375
 30
0.0
 10
11.4418918223
 20
6.1570979591
 30
0.0
 10
11.4411859006
 20
6.1570120599
 30
0.0
 10
11.4401007656
 20
6.1569043907
 30
0.0
 10
11.4385719267
 20
6.1567777835
 30
0.0
 10
11.4367621475
 20
6.1566491564
 30
0.0
 10
11.4347048683
 20
6.1565208587
 30
0.0
 10
11.4332543332
 20
6.1564406034
 30
0.0
 10
11.4324940642
 20
6.1564007669
 30
0.0
  0
LINE
  5
420
100
AcDbEntity
  8
0
100
AcDbLine
 62
7
  6
CONTINUOUS
 10
11.4186224644
 20
6.1558709047
 11
11.4071402801
 21
6.155760736
  0
SPLINE
  5
421
100
AcDbEntity
  8
0
100
AcDbSpline
 62
9
  6
CONTINUOUS
 70
0
 71
3
 72
14
 73
10
 74
0
 42
0.0000001
 43
0.0000001
 44
0.0000000001
 40
0.0
 40
0.0
 40
0.0
 40
0.0
 40
0.0266519754
 40
0.0482046969
 40
0.076601212
 40
0.1551670906
 40
0.2636214496
 40
0.571226334
 40
1.0
 40
1.0
 40
1.0
 40
1.0
 10
11.4773877627
 20
6.1691656822
 30
0.0
 10
11.4773895965
 20
6.1691861516
 30
0.0
 10
11.4773603779
 20
6.1692204608
 30
0.0
 10
11.4773099631
 20
6.1692476596
 30
0.0
 10
11.4772173019
 20
6.1692856485
 30
0.0
 10
11.4770563729
 20
6.169326485
 30
0.0
 10
11.4766809309
 20
6.1693956255
 30
0.0
 10
11.4760330372
 20
6.1694675911
 30
0.0
 10
11.4754668621
 20
6.169510845
 30
0.0
 10
11.4751369392
 20
6.1695324171
 30
0.0
  0
LINE
  5
422
100
AcDbEntity
  8
0
100
AcDbLine
 62
9
  6
CONTINUOUS
 10
11.4751369392
 20
6.1695324171
 11
11.4708658365
 21
6.1697017721
  0
SPLINE
  5
423
100
AcDbEntity
  8
0
100
AcDbSpline
 62
7
  6
CONTINUOUS
 70
0
 71
3
 72
21
 73
17
 74
0
 42
0.0000001
 43
0.0000001
 44
0.0000000001
 40
0.0
 40
0.0
 40
0.0
 40
0.0
 40
0.0081885445
 40
0.0144181396
 40
0.0224144773
 40
0.0322791897
 40
0.0440614886
 40
0.0734622793
 40
0.1107045846
 40
0.1557767706
 40
0.208564015
 40
0.2689129715
 40
0.4116424185
 40
0.5824589714
 40
0.7793140591
 40
1.0
 40
1.0
 40
1.0
 40
1.0
 10
11.1059802064
 20
6.2149458582
 30
0.0
 10
11.1059802066
 20
6.2148566659
 30
0.0
 10
11.1060947051
 20
6.2147146533
 30
0.0
 10
11.1062976221
 20
6.2145883786
 30
0.0
 10
11.1065372359
 20
6.214475712
 30
0.0
 10
11.1068406921
 20
6.2143664889
 30
0.0
 10
11.1073744744
 20
6.2142089571
 30
0.0
 10
11.1082090363
 20
6.2140238314
 30
0.0
 10
11.1094086349
 20
6.2138181581
 30
0.0
 10
11.1108668513
 20
6.2136187646
 30
0.0
 10
11.1125793906
 20
6.2134258672
 30
0.0
 10
11.1153541496
 20
6.2131639714
 30
0.0
 10
11.1194164914
 20
6.2128694195
 30
0.0
 10
11.1249679427
 20
6.2125679174
 30
0.0
 10
11.131371358
 20
6.2123065479
 30
0.0
 10
11.1359173571
 20
6.2121692209
 30
0.0
 10
11.1383203248
 20
6.2121065349
 30
0.0
  0
SPLINE
  5
424
100
AcDbEntity
  8
0
100
AcDbSpline
 62
7
  6
CONTINUOUS
 70
0
 71
3
 72
15
 73
11
 74
0
 42
0.0000001
 43
0.0000001
 44
0.0000000001
 40
0.0
 40
0.0
 40
0.0
 40
0.0
 40
0.4202432252
 40
0.7265648964
 40
0.836340755
 40
0.8803587605
 40
0.9171940495
 40
0.9470153857
 40
0.9701712879
 40
1.0
 40
1.0
 40
1.0
 40
1.0
 10
11.2776182732
 20
6.2153666123
 30
0.0
 10
11.278984871
 20
6.2155151594
 30
0.0
 10
11.2813444431
 20
6.2157997758
 30
0.0
 10
11.2840476384
 20
6.2162352089
 30
0.0
 10
11.2855136889
 20
6.2165794419
 30
0.0
 10
11.2861107556
 20
6.2167613444
 30
0.0
 10
11.2864501986
 20
6.2168856045
 30
0.0
 10
11.2867187071
 20
6.2170116859
 30
0.0
 10
11.286943839
 20
6.2171502713
 30
0.0
 10
11.2870759026
 20
6.2173025114
 30
0.0
 10
11.2870775782
 20
6.217400069
 30
0.0
  0
SPLINE
  5
425
100
AcDbEntity
  8
0
100
AcDbSpline
 62
7
  6
CONTINUOUS
 70
0
 71
3
 72
20
 73
16
 74
0
 42
0.0000001
 43
0.0000001
 44
0.0000000001
 40
0.0
 40
0.0
 40
0.0
 40
0.0
 40
0.2217152355
 40
0.4194718994
 40
0.5910137075
 40
0.7342253948
 40
0.8475463792
 40
0.8925869764
 40
0.9296853362
 40
0.9587942056
 40
0.9703598246
 40
0.9799466716
 40
0.9875834482
 40
0.993335841
 40
1.0
 40
1.0
 40
1.0
 40
1.0
 10
10.7294403314
 20
6.2117335624
 30
0.0
 10
10.7318454835
 20
6.2117227626
 30
0.0
 10
10.7363959763
 20
6.2117163055
 30
0.0
 10
10.7428072501
 20
6.211758098
 30
0.0
 10
10.7483663811
 20
6.211849885
 30
0.0
 10
10.7530081233
 20
6.2119908536
 30
0.0
 10
10.75627602
 20
6.2121545045
 30
0.0
 10
10.7583900922
 20
6.2123192026
 30
0.0
 10
10.7595907002
 20
6.2124440607
 30
0.0
 10
10.7604261731
 20
6.2125621221
 30
0.0
 10
10.7609618881
 20
6.2126674147
 30
0.0
 10
10.7612641995
 20
6.2127411836
 30
0.0
 10
10.7615047028
 20
6.2128200869
 30
0.0
 10
10.7616951556
 20
6.2129032038
 30
0.0
 10
10.7618240555
 20
6.2130081991
 30
0.0
 10
10.7618240554
 20
6.2130804921
 30
0.0
  0
LINE
  5
426
100
AcDbEntity
  8
0
100
AcDbLine
 62
9
  6
CONTINUOUS
 10
11.3563046615
 20
6.1583864353
 11
11.2503092342
 21
6.156487721
  0
SPLINE
  5
427
100
AcDbEntity
  8
0
100
AcDbSpline
 62
7
  6
CONTINUOUS
 70
0
 71
3
 72
22
 73
18
 74
0
 42
0.0000001
 43
0.0000001
 44
0.0000000001
 40
0.0
 40
0.0
 40
0.0
 40
0.0
 40
0.0018288035
 40
0.0052892203
 40
0.0106943467
 40
0.0181088316
 40
0.0390242405
 40
0.0680660217
 40
0.1052016986
 40
0.1503460319
 40
0.2033381432
 40
0.2640068129
 40
0.3321793281
 40
0.4076791046
 40
0.5796976042
 40
0.7779072041
 40
1.0
 40
1.0
 40
1.0
 40
1.0
 10
11.0847198268
 20
6.2047921376
 30
0.0
 10
11.0847198268
 20
6.2047719584
 30
0.0
 10
11.0847691974
 20
6.2047243757
 30
0.0
 10
11.0848765278
 20
6.2046856315
 30
0.0
 10
11.0850518588
 20
6.2046373015
 30
0.0
 10
11.0854171046
 20
6.2045703058
 30
0.0
 10
11.0860464576
 20
6.2044922294
 30
0.0
 10
11.0870034672
 20
6.2044084749
 30
0.0
 10
11.0882293631
 20
6.204327612
 30
0.0
 10
11.0897199629
 20
6.2042507853
 30
0.0
 10
11.091470774
 20
6.2041783082
 30
0.0
 10
11.0934760028
 20
6.2041106026
 30
0.0
 10
11.0957298593
 20
6.2040479349
 30
0.0
 10
11.0992123099
 20
6.2039680116
 30
0.0
 10
11.1041298573
 20
6.2038853729
 30
0.0
 10
11.1106651895
 20
6.2038124454
 30
0.0
 10
11.1153027531
 20
6.2037815654
 30
0.0
 10
11.1177533133
 20
6.2037694961
 30
0.0
  0
SPLINE
  5
428
100
AcDbEntity
  8
0
100
AcDbSpline
 62
7
  6
CONTINUOUS
 70
0
 71
3
 72
22
 73
18
 74
0
 42
0.0000001
 43
0.0000001
 44
0.0000000001
 40
0.0
 40
0.0
 40
0.0
 40
0.0
 40
0.2220819233
 40
0.4202882752
 40
0.592309706
 40
0.6678086808
 40
0.7359824383
 40
0.7966539589
 40
0.8496490348
 40
0.8947949557
 40
0.9319306951
 40
0.9609732979
 40
0.9818899175
 40
0.989304988
 40
0.9947105902
 40
0.9981712799
 40
1.0
 40
1.0
 40
1.0
 40
1.0
 10
10.9768741167
 20
6.2037695129
 30
0.0
 10
10.9793252292
 20
6.2037815668
 30
0.0
 10
10.9839639092
 20
6.2038124255
 30
0.0
 10
10.9905009108
 20
6.2038853267
 30
0.0
 10
10.9954197955
 20
6.2039679361
 30
0.0
 10
10.9989032393
 20
6.2040478493
 30
0.0
 10
11.001157751
 20
6.2041105081
 30
0.0
 10
11.0031636086
 20
6.2041782082
 30
0.0
 10
11.0049149824
 20
6.2042506866
 30
0.0
 10
11.0064060426
 20
6.2043275246
 30
0.0
 10
11.0076323017
 20
6.204408417
 30
0.0
 10
11.0085895959
 20
6.204492203
 30
0.0
 10
11.0092191506
 20
6.2045703086
 30
0.0
 10
11.0095845201
 20
6.2046373253
 30
0.0
 10
11.0097599167
 20
6.204685669
 30
0.0
 10
11.0098672809
 20
6.2047244199
 30
0.0
 10
11.0099166772
 20
6.2047720104
 30
0.0
 10
11.0099166772
 20
6.2047921942
 30
0.0
  0
LINE
  5
429
100
AcDbEntity
  8
0
100
AcDbLine
 62
7
  6
CONTINUOUS
 10
11.85330986
 20
6.1757547181
 11
11.8477614192
 21
6.1750433281
  0
LINE
  5
42A
100
AcDbEntity
  8
0
100
AcDbLine
 62
7
  6
CONTINUOUS
 10
11.8477614192
 20
6.1750433281
 11
11.834231109
 21
6.1739423845
  0
SPLINE
  5
42B
100
AcDbEntity
  8
0
100
AcDbSpline
 62
7
  6
CONTINUOUS
 70
0
 71
3
 72
21
 73
17
 74
0
 42
0.0000001
 43
0.0000001
 44
0.0000000001
 40
0.0
 40
0.0
 40
0.0
 40
0.0
 40
0.220673717
 40
0.4175344033
 40
0.5883619538
 40
0.7310935157
 40
0.7914417219
 40
0.8442274607
 40
0.8892977178
 40
0.9265388731
 40
0.9559395744
 40
0.9677220271
 40
0.9775869107
 40
0.9855833363
 40
0.9918128151
 40
1.0
 40
1.0
 40
1.0
 40
1.0
 10
10.9562995562
 20
6.212106095
 30
0.0
 10
10.9587036144
 20
6.2121687624
 30
0.0
 10
10.9632518563
 20
6.2123060868
 30
0.0
 10
10.9696585827
 20
6.2125674467
 30
0.0
 10
10.9752130709
 20
6.2128689492
 30
0.0
 10
10.979277622
 20
6.2131635496
 30
0.0
 10
10.9820537983
 20
6.2134255015
 30
0.0
 10
10.983767169
 20
6.2136184443
 30
0.0
 10
10.9852260828
 20
6.2138178953
 30
0.0
 10
10.9864262639
 20
6.2140236309
 30
0.0
 10
10.9872612468
 20
6.2142088092
 30
0.0
 10
10.9877953141
 20
6.2143663852
 30
0.0
 10
10.9880989378
 20
6.2144756382
 30
0.0
 10
10.9883386893
 20
6.2145883359
 30
0.0
 10
10.9885417107
 20
6.2147146334
 30
0.0
 10
10.9886562975
 20
6.2148566844
 30
0.0
 10
10.9886562976
 20
6.2149459074
 30
0.0
  0
SPLINE
  5
42C
100
AcDbEntity
  8
0
100
AcDbSpline
 62
7
  6
CONTINUOUS
 70
0
 71
3
 72
23
 73
19
 74
0
 42
0.0000001
 43
0.0000001
 44
0.0000000001
 40
0.0
 40
0.0
 40
0.0
 40
0.0
 40
0.0015730612
 40
0.0052061854
 40
0.0110678734
 40
0.019174206
 40
0.0295192496
 40
0.0420907958
 40
0.0738532234
 40
0.1142900728
 40
0.1630469169
 40
0.2197226954
 40
0.2839150934
 40
0.3551859998
 40
0.4329560883
 40
0.6055341325
 40
0.7965267395
 40
1.0
 40
1.0
 40
1.0
 40
1.0
 10
11.1949560473
 20
6.146646355
 30
0.0
 10
11.1949560473
 20
6.1466378128
 30
0.0
 10
11.1949236208
 20
6.1466218271
 30
0.0
 10
11.1948712575
 20
6.1466082984
 30
0.0
 10
11.1947740767
 20
6.1465899965
 30
0.0
 10
11.1946445848
 20
6.1465726332
 30
0.0
 10
11.1944766049
 20
6.1465540167
 30
0.0
 10
11.1941811656
 20
6.1465268776
 30
0.0
 10
11.1937218486
 20
6.1464935342
 30
0.0
 10
11.1930662103
 20
6.1464550773
 30
0.0
 10
11.1922750229
 20
6.1464160811
 30
0.0
 10
11.1913547467
 20
6.1463769192
 30
0.0
 10
11.1903120968
 20
6.1463379636
 30
0.0
 10
11.1891548129
 20
6.1462995646
 30
0.0
 10
11.1874090974
 20
6.1462476471
 30
0.0
 10
11.1850132416
 20
6.1461871332
 30
0.0
 10
11.1819346805
 20
6.1461234322
 30
0.0
 10
11.1797929144
 20
6.1460873742
 30
0.0
 10
11.1786881214
 20
6.1460707174
 30
0.0
  0
LINE
  5
42D
100
AcDbEntity
  8
0
100
AcDbLine
 62
9
  6
CONTINUOUS
 10
11.929820475
 20
6.1886717915
 11
11.8895520173
 21
6.1863005857
  0
SPLINE
  5
42E
100
AcDbEntity
  8
0
100
AcDbSpline
 62
9
  6
CONTINUOUS
 70
0
 71
3
 72
16
 73
12
 74
0
 42
0.0000001
 43
0.0000001
 44
0.0000000001
 40
0.0
 40
0.0
 40
0.0
 40
0.0
 40
0.0060968266
 40
0.0184233993
 40
0.0659037635
 40
0.1449272161
 40
0.2554118517
 40
0.3967917851
 40
0.5684449293
 40
0.7697306977
 40
1.0
 40
1.0
 40
1.0
 40
1.0
 10
11.8893428371
 20
6.1885284473
 30
0.0
 10
11.889343853
 20
6.1885394608
 30
0.0
 10
11.8893137358
 20
6.1885671091
 30
0.0
 10
11.8892024653
 20
6.1885964962
 30
0.0
 10
11.888948142
 20
6.1886337142
 30
0.0
 10
11.8885215091
 20
6.1886591795
 30
0.0
 10
11.8879204031
 20
6.1886799336
 30
0.0
 10
11.8871525625
 20
6.1886897872
 30
0.0
 10
11.8862193609
 20
6.1886905534
 30
0.0
 10
11.8851251562
 20
6.1886812647
 30
0.0
 10
11.8843423399
 20
6.1886693036
 30
0.0
 10
11.8839246724
 20
6.1886618548
 30
0.0
  0
SPLINE
  5
42F
100
AcDbEntity
  8
0
100
AcDbSpline
 62
7
  6
CONTINUOUS
 70
0
 71
3
 72
15
 73
11
 74
0
 42
0.0000001
 43
0.0000001
 44
0.0000000001
 40
0.0
 40
0.0
 40
0.0
 40
0.0
 40
0.0299566211
 40
0.0532056174
 40
0.0831392171
 40
0.1641495076
 40
0.2740291471
 40
0.4128815123
 40
0.5804816739
 40
1.0
 40
1.0
 40
1.0
 40
1.0
 10
10.8075488364
 20
6.2174002762
 30
0.0
 10
10.8075488973
 20
6.2173048286
 30
0.0
 10
10.8076769396
 20
6.2171541662
 30
0.0
 10
10.8078966074
 20
6.2170178547
 30
0.0
 10
10.8082866941
 20
6.2168336277
 30
0.0
 10
10.8089574783
 20
6.2166213182
 30
0.0
 10
10.8099798926
 20
6.2163753056
 30
0.0
 10
10.8112833889
 20
6.2161282387
 30
0.0
 10
10.8135686207
 20
6.2157684574
 30
0.0
 10
10.8154262577
 20
6.2155433384
 30
0.0
 10
10.8167548453
 20
6.2153965894
 30
0.0
  0
SPLINE
  5
430
100
AcDbEntity
  8
0
100
AcDbSpline
 62
7
  6
CONTINUOUS
 70
0
 71
3
 72
21
 73
17
 74
0
 42
0.0000001
 43
0.0000001
 44
0.0000000001
 40
0.0
 40
0.0
 40
0.0
 40
0.0
 40
0.0020178325
 40
0.0055111226
 40
0.0182345084
 40
0.0389916423
 40
0.0678403798
 40
0.1047618172
 40
0.1496963146
 40
0.202499575
 40
0.2630044112
 40
0.331041507
 40
0.4064402778
 40
0.57847589
 40
0.7770603477
 40
1.0
 40
1.0
 40
1.0
 40
1.0
 10
11.7430736452
 20
6.2274458836
 30
0.0
 10
11.7430736216
 20
6.2274249956
 30
0.0
 10
11.7431157238
 20
6.2273746109
 30
0.0
 10
11.7432906608
 20
6.2273080005
 30
0.0
 10
11.7436715372
 20
6.2272395127
 30
0.0
 10
11.7443126866
 20
6.2271826422
 30
0.0
 10
11.7452083293
 20
6.2271400132
 30
0.0
 10
11.7463538333
 20
6.2271158346
 30
0.0
 10
11.7477479318
 20
6.2271099842
 30
0.0
 10
11.7493859572
 20
6.2271230333
 30
0.0
 10
11.7512629543
 20
6.2271549751
 30
0.0
 10
11.7533734915
 20
6.2272058533
 30
0.0
 10
11.7566377287
 20
6.2273033416
 30
0.0
 10
11.7612516644
 20
6.2274749378
 30
0.0
 10
11.767390163
 20
6.2277442116
 30
0.0
 10
11.771748425
 20
6.2279584799
 30
0.0
 10
11.7740532175
 20
6.228076498
 30
0.0
  0
SPLINE
  5
431
100
AcDbEntity
  8
0
100
AcDbSpline
 62
7
  6
CONTINUOUS
 70
0
 71
3
 72
17
 73
13
 74
0
 42
0.0000001
 43
0.0000001
 44
0.0000000001
 40
0.0
 40
0.0
 40
0.0
 40
0.0
 40
0.0077690255
 40
0.0223297265
 40
0.0447736322
 40
0.0752674896
 40
0.1602947279
 40
0.2762998721
 40
0.4210459814
 40
0.5920972851
 40
0.786290469
 40
1.0
 40
1.0
 40
1.0
 40
1.0
 10
11.6814143676
 20
6.1754334384
 30
0.0
 10
11.6814143676
 20
6.1754057024
 30
0.0
 10
11.6813492342
 20
6.1753398328
 30
0.0
 10
11.6812079104
 20
6.1752775696
 30
0.0
 10
11.6809769121
 20
6.1751987899
 30
0.0
 10
11.6805003773
 20
6.1750793497
 30
0.0
 10
11.6796863816
 20
6.1749268332
 30
0.0
 10
11.6784657633
 20
6.1747454485
 30
0.0
 10
11.6769357924
 20
6.1745541589
 30
0.0
 10
11.6751257044
 20
6.1743579705
 30
0.0
 10
11.6730681844
 20
6.1741604936
 30
0.0
 10
11.6716172748
 20
6.1740357545
 30
0.0
 10
11.6708568552
 20
6.1739735511
 30
0.0
  0
LINE
  5
432
100
AcDbEntity
  8
0
100
AcDbLine
 62
7
  6
CONTINUOUS
 10
11.6569840876
 20
6.1731190307
 11
11.6455059786
 21
6.1728791759
  0
SPLINE
  5
433
100
AcDbEntity
  8
0
100
AcDbSpline
 62
9
  6
CONTINUOUS
 70
0
 71
3
 72
18
 73
14
 74
0
 42
0.0000001
 43
0.0000001
 44
0.0000000001
 40
0.0
 40
0.0
 40
0.0
 40
0.0
 40
0.0218276322
 40
0.0426132294
 40
0.0708833337
 40
0.1068224353
 40
0.1505022924
 40
0.2019490174
 40
0.2611663294
 40
0.4026035253
 40
0.5737271586
 40
0.7732845139
 40
1.0
 40
1.0
 40
1.0
 40
1.0
 10
11.7173861606
 20
6.1878288211
 30
0.0
 10
11.7173919244
 20
6.1879002146
 30
0.0
 10
11.7172364212
 20
6.1880002027
 30
0.0
 10
11.7170320374
 20
6.1880699737
 30
0.0
 10
11.7167555199
 20
6.1881408896
 30
0.0
 10
11.716409428
 20
6.1882040548
 30
0.0
 10
11.71598284
 20
6.1882655356
 30
0.0
 10
11.7154798322
 20
6.1883226571
 30
0.0
 10
11.7146558765
 20
6.1883982793
 30
0.0
 10
11.7134384186
 20
6.1884780221
 30
0.0
 10
11.7117595297
 20
6.1885531666
 30
0.0
 10
11.7098000229
 20
6.188611154
 30
0.0
 10
11.7084014407
 20
6.1886364966
 30
0.0
 10
11.7076575609
 20
6.1886467397
 30
0.0
  0
SPLINE
  5
434
100
AcDbEntity
  8
0
100
AcDbSpline
 62
7
  6
CONTINUOUS
 70
0
 71
3
 72
22
 73
18
 74
0
 42
0.0000001
 43
0.0000001
 44
0.0000000001
 40
0.0
 40
0.0
 40
0.0
 40
0.0
 40
0.0039535993
 40
0.0087731691
 40
0.0150374375
 40
0.0230115079
 40
0.03281861
 40
0.0445206832
 40
0.0737221397
 40
0.1107453161
 40
0.1555944409
 40
0.2081649355
 40
0.2683196773
 40
0.4107860991
 40
0.5815729585
 40
0.7786892333
 40
1.0
 40
1.0
 40
1.0
 40
1.0
 10
11.5711781454
 20
6.228861005
 30
0.0
 10
11.5711781386
 20
6.2288197105
 30
0.0
 10
11.571206009
 20
6.2287275113
 30
0.0
 10
11.5713144272
 20
6.2286099413
 30
0.0
 10
11.5714812574
 20
6.2284996523
 30
0.0
 10
11.571709616
 20
6.2283936101
 30
0.0
 10
11.572000276
 20
6.2282910366
 30
0.0
 10
11.5725106737
 20
6.2281484286
 30
0.0
 10
11.5733096109
 20
6.2279883692
 30
0.0
 10
11.5744579234
 20
6.227821562
 30
0.0
 10
11.5758543205
 20
6.2276710023
 30
0.0
 10
11.5774947981
 20
6.2275369465
 30
0.0
 10
11.5801552548
 20
6.2273721437
 30
0.0
 10
11.5840530507
 20
6.22722329
 30
0.0
 10
11.5893830385
 20
6.2271250532
 30
0.0
 10
11.5955373802
 20
6.227101413
 30
0.0
 10
11.5999077167
 20
6.2271345818
 30
0.0
 10
11.6022190915
 20
6.2271623638
 30
0.0
  0
LINE
  5
435
100
AcDbEntity
  8
0
100
AcDbLine
 62
7
  6
CONTINUOUS
 10
11.5922618046
 20
6.1576277702
 11
11.5867086816
 21
6.1572021839
  0
SPLINE
  5
436
100
AcDbEntity
  8
0
100
AcDbSpline
 62
7
  6
CONTINUOUS
 70
0
 71
3
 72
18
 73
14
 74
0
 42
0.0000001
 43
0.0000001
 44
0.0000000001
 40
0.0
 40
0.0
 40
0.0
 40
0.0
 40
0.0082798516
 40
0.0149996005
 40
0.023733446
 40
0.0474814299
 40
0.0797197192
 40
0.1691393945
 40
0.2895555082
 40
0.4376344865
 40
0.6088755921
 40
0.7982739248
 40
1.0
 40
1.0
 40
1.0
 40
1.0
 10
11.4803891182
 20
6.1750721926
 30
0.0
 10
11.4803891182
 20
6.1750267329
 30
0.0
 10
11.4803210688
 20
6.1749567296
 30
0.0
 10
11.4802120895
 20
6.1748931656
 30
0.0
 10
11.4800135283
 20
6.1748042576
 30
0.0
 10
11.47967432
 20
6.174700064
 30
0.0
 10
11.4788965278
 20
6.1745160953
 30
0.0
 10
11.4775842826
 20
6.1743008093
 30
0.0
 10
11.4756346414
 20
6.1740534405
 30
0.0
 10
11.4732320698
 20
6.1738130496
 30
0.0
 10
11.4704482327
 20
6.1735849375
 30
0.0
 10
11.4673674253
 20
6.1733785583
 30
0.0
 10
11.4652231239
 20
6.1732616159
 30
0.0
 10
11.4641168838
 20
6.1732076091
 30
0.0
  0
LINE
  5
437
100
AcDbEntity
  8
0
100
AcDbLine
 62
7
  6
CONTINUOUS
 10
11.4572750838
 20
6.172951902
 11
11.4508615591
 21
6.1728633792
  0
SPLINE
  5
438
100
AcDbEntity
  8
0
100
AcDbSpline
 62
9
  6
CONTINUOUS
 70
0
 71
3
 72
13
 73
9
 74
0
 42
0.0000001
 43
0.0000001
 44
0.0000000001
 40
0.0
 40
0.0
 40
0.0
 40
0.0
 40
0.1107541453
 40
0.228579956
 40
0.4773754254
 40
0.6079735693
 40
0.7408270873
 40
1.0
 40
1.0
 40
1.0
 40
1.0
 10
10.2206075608
 20
6.1777297441
 30
0.0
 10
10.2200208289
 20
6.1777807338
 30
0.0
 10
10.2188182712
 20
6.1780119247
 30
0.0
 10
10.2164411062
 20
6.1789247027
 30
0.0
 10
10.2142480858
 20
6.1805317833
 30
0.0
 10
10.2126096687
 20
6.1827259022
 30
0.0
 10
10.2113412875
 20
6.1852068541
 30
0.0
 10
10.2108176394
 20
6.1872725834
 30
0.0
 10
10.2107150299
 20
6.1886469296
 30
0.0
  0
SPLINE
  5
439
100
AcDbEntity
  8
0
100
AcDbSpline
 62
9
  6
CONTINUOUS
 70
0
 71
3
 72
16
 73
12
 74
0
 42
0.0000001
 43
0.0000001
 44
0.0000000001
 40
0.0
 40
0.0
 40
0.0
 40
0.0
 40
0.2302618337
 40
0.4315449105
 40
0.603198744
 40
0.7445813531
 40
0.85506926
 40
0.9340952168
 40
0.9815766745
 40
0.9939033356
 40
1.0
 40
1.0
 40
1.0
 40
1.0
 10
10.2107130715
 20
6.1886467397
 30
0.0
 10
10.2102954265
 20
6.1886541831
 30
0.0
 10
10.2095126455
 20
6.1886661364
 30
0.0
 10
10.2084184816
 20
6.1886754217
 30
0.0
 10
10.207485299
 20
6.1886746587
 30
0.0
 10
10.2067174629
 20
6.1886648125
 30
0.0
 10
10.2061163542
 20
6.1886440673
 30
0.0
 10
10.2056897179
 20
6.1886186106
 30
0.0
 10
10.2054353921
 20
6.1885813968
 30
0.0
 10
10.205324122
 20
6.1885520138
 30
0.0
 10
10.2052940044
 20
6.1885243666
 30
0.0
 10
10.2052950205
 20
6.1885133536
 30
0.0
  0
LINE
  5
43A
100
AcDbEntity
  8
0
100
AcDbLine
 62
9
  6
CONTINUOUS
 10
10.2991982949
 20
6.17126223
 11
10.2917271793
 21
6.1715417427
  0
LINE
  5
43B
100
AcDbEntity
  8
0
100
AcDbLine
 62
9
  6
CONTINUOUS
 10
10.2917271793
 20
6.1715417427
 11
10.2679099805
 21
6.1729341388
  0
SPLINE
  5
43C
100
AcDbEntity
  8
0
100
AcDbSpline
 62
9
  6
CONTINUOUS
 70
0
 71
3
 72
38
 73
34
 74
0
 42
0.0000001
 43
0.0000001
 44
0.0000000001
 40
0.0
 40
0.0
 40
0.0
 40
0.0
 40
0.1288633101
 40
0.2503015461
 40
0.3633360319
 40
0.4669883274
 40
0.5602804209
 40
0.6422350824
 40
0.6786559636
 40
0.711876811
 40
0.7417761873
 40
0.7682331095
 40
0.7911482119
 40
0.8105098717
 40
0.8263309795
 40
0.8386288395
 40
0.8434652489
 40
0.8474338629
 40
0.8505450228
 40
0.8528196638
 40
0.8543125836
 40
0.855228368
 40
0.8562275906
 40
0.8578716924
 40
0.8603104316
 40
0.8635855655
 40
0.8726982631
 40
0.8852623362
 40
0.9012892254
 40
0.9207801428
 40
0.9437322515
 40
0.9701407968
 40
1.0
 40
1.0
 40
1.0
 40
1.0
 10
10.2412276217
 20
6.174914736
 30
0.0
 10
10.2399756717
 20
6.1750176919
 30
0.0
 10
10.2375441902
 20
6.1752211154
 30
0.0
 10
10.2340156087
 20
6.1755274379
 30
0.0
 10
10.2307328746
 20
6.1758239029
 30
0.0
 10
10.2277245063
 20
6.1761076927
 30
0.0
 10
10.2250190226
 20
6.1763759963
 30
0.0
 10
10.2229669684
 20
6.1765919253
 30
0.0
 10
10.221498312
 20
6.1767559367
 30
0.0
 10
10.2205345113
 20
6.176868439
 30
0.0
 10
10.219667819
 20
6.1769749787
 30
0.0
 10
10.2189015861
 20
6.1770751921
 30
0.0
 10
10.2182381303
 20
6.1771688835
 30
0.0
 10
10.2176784514
 20
6.1772557033
 30
0.0
 10
10.2172224964
 20
6.1773354579
 30
0.0
 10
10.2169076637
 20
6.1773997923
 30
0.0
 10
10.2167078869
 20
6.1774490924
 30
0.0
 10
10.2165963029
 20
6.1774813553
 30
0.0
 10
10.2165098975
 20
6.1775109988
 30
0.0
 10
10.2164493532
 20
6.1775399805
 30
0.0
 10
10.2164102838
 20
6.1775641053
 30
0.0
 10
10.2163947857
 20
6.1775990403
 30
0.0
 10
10.2164223895
 20
6.1776276702
 30
0.0
 10
10.2164672612
 20
6.1776460797
 30
0.0
 10
10.2165369681
 20
6.1776656783
 30
0.0
 10
10.216679053
 20
6.1776911564
 30
0.0
 10
10.2169214469
 20
6.1777160297
 30
0.0
 10
10.2172883069
 20
6.1777371322
 30
0.0
 10
10.2177569012
 20
6.1777510601
 30
0.0
 10
10.2183268389
 20
6.1777575196
 30
0.0
 10
10.218998033
 20
6.1777562343
 30
0.0
 10
10.2197702309
 20
6.1777470379
 30
0.0
 10
10.2203186348
 20
6.1777361936
 30
0.0
 10
10.2206096307
 20
6.1777295639
 30
0.0
  0
LINE
  5
43D
100
AcDbEntity
  8
0
100
AcDbLine
 62
9
  6
CONTINUOUS
 10
10.2206097542
 20
6.1777295537
 11
10.2412595582
 21
6.1767340112
  0
LINE
  5
43E
100
AcDbEntity
  8
0
100
AcDbLine
 62
9
  6
CONTINUOUS
 10
10.2412595582
 20
6.1767340112
 11
10.2431162494
 21
6.176621007
  0
SPLINE
  5
43F
100
AcDbEntity
  8
0
100
AcDbSpline
 62
9
  6
CONTINUOUS
 70
0
 71
3
 72
36
 73
32
 74
0
 42
0.0000001
 43
0.0000001
 44
0.0000000001
 40
0.0
 40
0.0
 40
0.0
 40
0.0
 40
0.2353202046
 40
0.4497478524
 40
0.5455838801
 40
0.6322788063
 40
0.7086740307
 40
0.7736120918
 40
0.8014237458
 40
0.8259384445
 40
0.8470137326
 40
0.8645632068
 40
0.8785925316
 40
0.8842929013
 40
0.8891210761
 40
0.8930816909
 40
0.8961822842
 40
0.8984376735
 40
0.8998866973
 40
0.9006905927
 40
0.9015393731
 40
0.9030612584
 40
0.9053909153
 40
0.9085607533
 40
0.9125821715
 40
0.9174599844
 40
0.9231963259
 40
0.9372469982
 40
0.954734614
 40
0.9756544885
 40
1.0
 40
1.0
 40
1.0
 40
1.0
 10
10.2654780638
 20
6.1750959929
 30
0.0
 10
10.2687887543
 20
6.1748503234
 30
0.0
 10
10.2751150219
 20
6.1743647132
 30
0.0
 10
10.2827855943
 20
6.1737283103
 30
0.0
 10
10.2883636108
 20
6.1732311186
 30
0.0
 10
10.2920004854
 20
6.1728900482
 30
0.0
 10
10.2952016052
 20
6.172571418
 30
0.0
 10
10.2975743096
 20
6.1723174108
 30
0.0
 10
10.2992176288
 20
6.172126897
 30
0.0
 10
10.3002453706
 20
6.1720001479
 30
0.0
 10
10.3011283491
 20
6.1718826203
 30
0.0
 10
10.3018632934
 20
6.171774587
 30
0.0
 10
10.3023821363
 20
6.1716882053
 30
0.0
 10
10.3027223398
 20
6.1716225741
 30
0.0
 10
10.3029221874
 20
6.1715796049
 30
0.0
 10
10.3030849785
 20
6.1715388381
 30
0.0
 10
10.3032111087
 20
6.1715022323
 30
0.0
 10
10.3033006341
 20
6.1714655365
 30
0.0
 10
10.3033568345
 20
6.1714384622
 30
0.0
 10
10.3033851078
 20
6.1713945349
 30
0.0
 10
10.3033457975
 20
6.1713581392
 30
0.0
 10
10.3032849315
 20
6.1713387656
 30
0.0
 10
10.3031872133
 20
6.171315668
 30
0.0
 10
10.3030545555
 20
6.1712972692
 30
0.0
 10
10.3028849508
 20
6.1712801893
 30
0.0
 10
10.3026789972
 20
6.1712660492
 30
0.0
 10
10.3023313923
 20
6.1712494168
 30
0.0
 10
10.3018056249
 20
6.1712373563
 30
0.0
 10
10.301065549
 20
6.1712342311
 30
0.0
 10
10.300180275
 20
6.1712423507
 30
0.0
 10
10.2995417975
 20
6.171254474
 30
0.0
 10
10.2991984292
 20
6.1712622189
 30
0.0
  0
LINE
  5
440
100
AcDbEntity
  8
0
100
AcDbLine
 62
7
  6
CONTINUOUS
 10
10.2604442516
 20
6.1739245835
 11
10.2427715186
 21
6.1754658458
  0
LINE
  5
441
100
AcDbEntity
  8
0
100
AcDbLine
 62
7
  6
CONTINUOUS
 10
10.2427715186
 20
6.1754658458
 11
10.2413266441
 21
6.1757397152
  0
LINE
  5
442
100
AcDbEntity
  8
0
100
AcDbLine
 62
9
  6
CONTINUOUS
 10
11.8317358718
 20
6.1712315104
 11
11.8339237458
 21
6.1713953682
  0
LINE
  5
443
100
AcDbEntity
  8
0
100
AcDbLine
 62
9
  6
CONTINUOUS
 10
11.8339237458
 20
6.1713953682
 11
11.851479104
 21
6.1727102758
  0
LINE
  5
444
100
AcDbEntity
  8
0
100
AcDbLine
 62
9
  6
CONTINUOUS
 10
11.851479104
 20
6.1727102758
 11
11.8533112477
 21
6.1728475135
  0
LINE
  5
445
100
AcDbEntity
  8
0
100
AcDbLine
 62
9
  6
CONTINUOUS
 10
11.8533112477
 20
6.1728475135
 11
11.8617349564
 21
6.1734785148
  0
LINE
  5
446
100
AcDbEntity
  8
0
100
AcDbLine
 62
9
  6
CONTINUOUS
 10
11.8617349564
 20
6.1734785148
 11
11.8886006223
 21
6.1754912058
  0
LINE
  5
447
100
AcDbEntity
  8
0
100
AcDbLine
 62
9
  6
CONTINUOUS
 10
11.8886006223
 20
6.1754912058
 11
11.9103508425
 21
6.1771209274
  0
LINE
  5
448
100
AcDbEntity
  8
0
100
AcDbLine
 62
9
  6
CONTINUOUS
 10
11.9103508425
 20
6.1771209274
 11
11.9188074746
 21
6.1777546452
  0
LINE
  5
449
100
AcDbEntity
  8
0
100
AcDbLine
 62
7
  6
CONTINUOUS
 10
10.5417447782
 20
6.1557700201
 11
10.5398268668
 21
6.1557607449
  0
SPLINE
  5
44A
100
AcDbEntity
  8
0
100
AcDbSpline
 62
9
  6
CONTINUOUS
 70
0
 71
3
 72
13
 73
9
 74
0
 42
0.0000001
 43
0.0000001
 44
0.0000000001
 40
0.0
 40
0.0
 40
0.0
 40
0.0
 40
0.2180753431
 40
0.4632381226
 40
0.5951915009
 40
0.7311226581
 40
0.8674391494
 40
1.0
 40
1.0
 40
1.0
 40
1.0
 10
10.3961249261
 20
6.1777448593
 30
0.0
 10
10.3950122303
 20
6.1778505588
 30
0.0
 10
10.3926919639
 20
6.1786153646
 30
0.0
 10
10.3902622107
 20
6.1805774778
 30
0.0
 10
10.3887610437
 20
6.1827522878
 30
0.0
 10
10.3878674657
 20
6.1846300593
 30
0.0
 10
10.3872510749
 20
6.1866178251
 30
0.0
 10
10.3870323221
 20
6.1879846703
 30
0.0
 10
10.3869796935
 20
6.1886620451
 30
0.0
  0
SPLINE
  5
44B
100
AcDbEntity
  8
0
100
AcDbSpline
 62
9
  6
CONTINUOUS
 70
0
 71
3
 72
18
 73
14
 74
0
 42
0.0000001
 43
0.0000001
 44
0.0000000001
 40
0.0
 40
0.0
 40
0.0
 40
0.0
 40
0.2267152023
 40
0.4262748974
 40
0.5974013229
 40
0.7388396276
 40
0.7980564579
 40
0.8495025684
 40
0.8931816936
 40
0.9291199272
 40
0.9573890277
 40
0.9781735379
 40
1.0
 40
1.0
 40
1.0
 40
1.0
 10
10.3869778995
 20
6.1886618548
 30
0.0
 10
10.3862340009
 20
6.1886516048
 30
0.0
 10
10.384835375
 20
6.1886262543
 30
0.0
 10
10.3828758003
 20
6.188568268
 30
0.0
 10
10.3811968459
 20
6.1884931298
 30
0.0
 10
10.379979344
 20
6.1884133908
 30
0.0
 10
10.3791553666
 20
6.1883377639
 30
0.0
 10
10.3786523518
 20
6.1882806373
 30
0.0
 10
10.3782257608
 20
6.1882191487
 30
0.0
 10
10.3778796692
 20
6.1881559759
 30
0.0
 10
10.3776031577
 20
6.1880850459
 30
0.0
 10
10.3773987795
 20
6.1880152719
 30
0.0
 10
10.3772432972
 20
6.1879152459
 30
0.0
 10
10.3772490807
 20
6.1878438559
 30
0.0
  0
SPLINE
  5
44C
100
AcDbEntity
  8
0
100
AcDbSpline
 62
9
  6
CONTINUOUS
 70
0
 71
3
 72
10
 73
6
 74
0
 42
0.0000001
 43
0.0000001
 44
0.0000000001
 40
0.0
 40
0.0
 40
0.0
 40
0.0
 40
0.2019722075
 40
0.4404114979
 40
1.0
 40
1.0
 40
1.0
 40
1.0
 10
10.4678891204
 20
6.1712771467
 30
0.0
 10
10.4664553106
 20
6.1712526625
 30
0.0
 10
10.4633281105
 20
6.1712410805
 30
0.0
 10
10.4562284069
 20
6.1713254331
 30
0.0
 10
10.4505643359
 20
6.1714952349
 30
0.0
 10
10.4465940195
 20
6.171644546
 30
0.0
  0
SPLINE
  5
44D
100
AcDbEntity
  8
0
100
AcDbSpline
 62
9
  6
CONTINUOUS
 70
0
 71
3
 72
34
 73
30
 74
0
 42
0.0000001
 43
0.0000001
 44
0.0000000001
 40
0.0
 40
0.0
 40
0.0
 40
0.0
 40
0.1260945657
 40
0.2421680225
 40
0.3473685963
 40
0.4408472391
 40
0.521759972
 40
0.5572435181
 40
0.5892743938
 40
0.61775207
 40
0.6425793706
 40
0.6636650717
 40
0.6809295685
 40
0.6943404575
 40
0.7040207142
 40
0.7075620556
 40
0.7103447895
 40
0.7125536128
 40
0.7145333331
 40
0.7194280012
 40
0.7272157934
 40
0.7384344751
 40
0.7532238812
 40
0.7716196243
 40
0.7936207364
 40
0.819210421
 40
0.8483639842
 40
0.9172424527
 40
1.0
 40
1.0
 40
1.0
 40
1.0
 10
10.4074770801
 20
6.1740753731
 30
0.0
 10
10.4063451618
 20
6.1741771199
 30
0.0
 10
10.4041719752
 20
6.1743803814
 30
0.0
 10
10.4010572987
 20
6.1746982079
 30
0.0
 10
10.3982380101
 20
6.1750138546
 30
0.0
 10
10.3957371791
 20
6.1753241453
 30
0.0
 10
10.3938636106
 20
6.1755855097
 30
0.0
 10
10.3925418932
 20
6.1757922809
 30
0.0
 10
10.391688917
 20
6.1759372219
 30
0.0
 10
10.3909328327
 20
6.1760784611
 30
0.0
 10
10.3902764221
 20
6.1762154996
 30
0.0
 10
10.3897225518
 20
6.1763478621
 30
0.0
 10
10.3892732592
 20
6.1764746872
 30
0.0
 10
10.3889303594
 20
6.1765961087
 30
0.0
 10
10.3887122416
 20
6.1766995485
 30
0.0
 10
10.3885950661
 20
6.1767846024
 30
0.0
 10
10.3885419298
 20
6.1768410015
 30
0.0
 10
10.3885138072
 20
6.1768992163
 30
0.0
 10
10.3885187753
 20
6.1769848598
 30
0.0
 10
10.3886233411
 20
6.1770837629
 30
0.0
 10
10.3888179371
 20
6.1771707249
 30
0.0
 10
10.3891117824
 20
6.1772582065
 30
0.0
 10
10.3895035679
 20
6.177338478
 30
0.0
 10
10.3899955383
 20
6.1774139476
 30
0.0
 10
10.3905862922
 20
6.1774828299
 30
0.0
 10
10.3912752475
 20
6.1775451819
 30
0.0
 10
10.3923867471
 20
6.1776233176
 30
0.0
 10
10.3940147098
 20
6.1776977568
 30
0.0
 10
10.3953810407
 20
6.1777316493
 30
0.0
 10
10.3961268152
 20
6.1777446797
 30
0.0
  0
SPLINE
  5
44E
100
AcDbEntity
  8
0
100
AcDbSpline
 62
9
  6
CONTINUOUS
 70
0
 71
3
 72
10
 73
6
 74
0
 42
0.0000001
 43
0.0000001
 44
0.0000000001
 40
0.0
 40
0.0
 40
0.0
 40
0.0
 40
0.2017743761
 40
0.4401789168
 40
1.0
 40
1.0
 40
1.0
 40
1.0
 10
10.3961269391
 20
6.1777446684
 30
0.0
 10
10.3975615084
 20
6.1777695635
 30
0.0
 10
10.4006917958
 20
6.1777816685
 30
0.0
 10
10.4078022665
 20
6.1776977802
 30
0.0
 10
10.4134763339
 20
6.1775277525
 30
0.0
 10
10.4174543198
 20
6.1773781462
 30
0.0
  0
SPLINE
  5
44F
100
AcDbEntity
  8
0
100
AcDbSpline
 62
9
  6
CONTINUOUS
 70
0
 71
3
 72
36
 73
32
 74
0
 42
0.0000001
 43
0.0000001
 44
0.0000000001
 40
0.0
 40
0.0
 40
0.0
 40
0.0
 40
0.1231041759
 40
0.2401460426
 40
0.3493125063
 40
0.4490765404
 40
0.5383885968
 40
0.6162475778
 40
0.6505714001
 40
0.6816600038
 40
0.7093915341
 40
0.7336463788
 40
0.7543089143
 40
0.7712713136
 40
0.7844439858
 40
0.7896071898
 40
0.7938482358
 40
0.7972072963
 40
0.799759857
 40
0.8016703418
 40
0.8032992369
 40
0.8051681052
 40
0.8076450648
 40
0.8149673982
 40
0.8257581221
 40
0.8401038818
 40
0.8580117635
 40
0.8794621614
 40
0.9044241672
 40
0.9328613063
 40
1.0
 40
1.0
 40
1.0
 40
1.0
 10
10.4442556094
 20
6.1759224199
 30
0.0
 10
10.4458703291
 20
6.1758089802
 30
0.0
 10
10.4490195907
 20
6.1755781326
 30
0.0
 10
10.4535980735
 20
6.1752112744
 30
0.0
 10
10.457867818
 20
6.1748352481
 30
0.0
 10
10.4617709551
 20
6.1744544547
 30
0.0
 10
10.4652604174
 20
6.1740752199
 30
0.0
 10
10.4678903719
 20
6.1737532361
 30
0.0
 10
10.4697568301
 20
6.1734973972
 30
0.0
 10
10.4709683107
 20
6.17331738
 30
0.0
 10
10.4720465133
 20
6.1731418139
 30
0.0
 10
10.4729865127
 20
6.1729714357
 30
0.0
 10
10.4737835737
 20
6.1728072335
 30
0.0
 10
10.4744328294
 20
6.1726499556
 30
0.0
 10
10.4748782028
 20
6.1725175062
 30
0.0
 10
10.4751555121
 20
6.1724110184
 30
0.0
 10
10.4753076859
 20
6.172339899
 30
0.0
 10
10.4754224407
 20
6.1722707248
 30
0.0
 10
10.4755006773
 20
6.1722032872
 30
0.0
 10
10.4755447617
 20
6.1721329526
 30
0.0
 10
10.4755426189
 20
6.1720574005
 30
0.0
 10
10.4754944579
 20
6.1719914636
 30
0.0
 10
10.4753691163
 20
6.1719016325
 30
0.0
 10
10.475111892
 20
6.1718070057
 30
0.0
 10
10.474697337
 20
6.1717080985
 30
0.0
 10
10.4741378917
 20
6.1716173002
 30
0.0
 10
10.4734366252
 20
6.1715347089
 30
0.0
 10
10.4725938767
 20
6.1714616406
 30
0.0
 10
10.4716116649
 20
6.1713985248
 30
0.0
 10
10.4700283845
 20
6.1713242885
 30
0.0
 10
10.468771909
 20
6.1712923138
 30
0.0
 10
10.4678892313
 20
6.1712771366
 30
0.0
  0
SPLINE
  5
450
100
AcDbEntity
  8
0
100
AcDbSpline
 62
9
  6
CONTINUOUS
 70
0
 71
3
 72
22
 73
18
 74
0
 42
0.0000001
 43
0.0000001
 44
0.0000000001
 40
0.0
 40
0.0
 40
0.0
 40
0.0
 40
0.00338526
 40
0.0077293394
 40
0.0136833394
 40
0.0215087336
 40
0.0313081743
 40
0.0431194465
 40
0.0728121897
 40
0.110578149
 40
0.1563279615
 40
0.2099411229
 40
0.2712169775
 40
0.4156814932
 40
0.5875162294
 40
0.7836724871
 40
1.0
 40
1.0
 40
1.0
 40
1.0
 10
11.5162896582
 20
6.1870261176
 30
0.0
 10
11.5162925147
 20
6.1870575267
 30
0.0
 10
11.5162719156
 20
6.1871319659
 30
0.0
 10
11.5161783528
 20
6.1872227355
 30
0.0
 10
11.516032651
 20
6.1873089971
 30
0.0
 10
11.5158290578
 20
6.1873930432
 30
0.0
 10
11.5155673732
 20
6.1874755748
 30
0.0
 10
11.5151036271
 20
6.1875922114
 30
0.0
 10
11.5143766754
 20
6.1877256631
 30
0.0
 10
11.5133315813
 20
6.1878688182
 30
0.0
 10
11.5120608534
 20
6.1880024725
 30
0.0
 10
11.5105692739
 20
6.1881258191
 30
0.0
 10
11.508158103
 20
6.1882840483
 30
0.0
 10
11.5046436911
 20
6.1884428412
 30
0.0
 10
11.4998710984
 20
6.1885754322
 30
0.0
 10
11.4944277521
 20
6.1886550355
 30
0.0
 10
11.4905848211
 20
6.1886716712
 30
0.0
 10
11.4885694066
 20
6.1886717915
 30
0.0
  0
LINE
  5
451
100
AcDbEntity
  8
0
100
AcDbLine
 62
7
  6
CONTINUOUS
 10
10.4491305255
 20
6.1728941989
 11
10.437662053
 21
6.1731336379
  0
SPLINE
  5
452
100
AcDbEntity
  8
0
100
AcDbSpline
 62
7
  6
CONTINUOUS
 70
0
 71
3
 72
12
 73
8
 74
0
 42
0.0000001
 43
0.0000001
 44
0.0000000001
 40
0.0
 40
0.0
 40
0.0
 40
0.0
 40
0.3209601476
 40
0.6078317743
 40
0.8397830218
 40
0.929686887
 40
1.0
 40
1.0
 40
1.0
 40
1.0
 10
10.4305820551
 20
6.1735049541
 30
0.0
 10
10.4288572663
 20
6.1736111018
 30
0.0
 10
10.4255920896
 20
6.1738333775
 30
0.0
 10
10.4210863145
 20
6.1742100094
 30
0.0
 10
10.4178256326
 20
6.1745460232
 30
0.0
 10
10.4157322012
 20
6.1748217792
 30
0.0
 10
10.4148799983
 20
6.1749570681
 30
0.0
 10
10.4145079078
 20
6.1750267902
 30
0.0
  0
LINE
  5
453
100
AcDbEntity
  8
0
100
AcDbLine
 62
7
  6
CONTINUOUS
 10
10.4145079078
 20
6.1750267902
 11
10.4132221365
 21
6.1754484625
  0
SPLINE
  5
454
100
AcDbEntity
  8
0
100
AcDbSpline
 62
9
  6
CONTINUOUS
 70
0
 71
3
 72
14
 73
10
 74
0
 42
0.0000001
 43
0.0000001
 44
0.0000000001
 40
0.0
 40
0.0
 40
0.0
 40
0.0
 40
0.1680152386
 40
0.2742548406
 40
0.3967765901
 40
0.5358084586
 40
0.6870210528
 40
0.8440292732
 40
1.0
 40
1.0
 40
1.0
 40
1.0
 10
10.6115726251
 20
6.1777548264
 30
0.0
 10
10.6108555327
 20
6.1778681762
 30
0.0
 10
10.6097694502
 20
6.1785182471
 30
0.0
 10
10.6086261585
 20
6.1797917435
 30
0.0
 10
10.6077896241
 20
6.1811566475
 30
0.0
 10
10.6071124226
 20
6.1828115843
 30
0.0
 10
10.606585217
 20
6.1846744317
 30
0.0
 10
10.6062232287
 20
6.1866498337
 30
0.0
 10
10.6060977986
 20
6.1879986738
 30
0.0
 10
10.6060683571
 20
6.1886719817
 30
0.0
  0
SPLINE
  5
455
100
AcDbEntity
  8
0
100
AcDbSpline
 62
9
  6
CONTINUOUS
 70
0
 71
3
 72
22
 73
18
 74
0
 42
0.0000001
 43
0.0000001
 44
0.0000000001
 40
0.0
 40
0.0
 40
0.0
 40
0.0
 40
0.2163268011
 40
0.4124837492
 40
0.5843187562
 40
0.7287830719
 40
0.7900587468
 40
0.8436717462
 40
0.889421601
 40
0.927187727
 40
0.9568806303
 40
0.96869194
 40
0.9784913693
 40
0.9863166985
 40
0.9922706616
 40
0.9966147389
 40
1.0
 40
1.0
 40
1.0
 40
1.0
 10
10.6060672699
 20
6.1886717915
 30
0.0
 10
10.6040518622
 20
6.1886716591
 30
0.0
 10
10.6002089316
 20
6.1886550169
 30
0.0
 10
10.5947655828
 20
6.1885754342
 30
0.0
 10
10.5899929826
 20
6.1884428586
 30
0.0
 10
10.5864785717
 20
6.1882840673
 30
0.0
 10
10.584067406
 20
6.1881258363
 30
0.0
 10
10.5825758295
 20
6.1880024874
 30
0.0
 10
10.5813051014
 20
6.1878688314
 30
0.0
 10
10.5802600041
 20
6.1877256748
 30
0.0
 10
10.5795330491
 20
6.1875922221
 30
0.0
 10
10.5790693014
 20
6.1874755848
 30
0.0
 10
10.5788076173
 20
6.187393053
 30
0.0
 10
10.5786040255
 20
6.1873090061
 30
0.0
 10
10.5784583251
 20
6.1872227441
 30
0.0
 10
10.5783647628
 20
6.1871319747
 30
0.0
 10
10.5783441631
 20
6.1870575358
 30
0.0
 10
10.5783470192
 20
6.1870261267
 30
0.0
  0
LINE
  5
456
100
AcDbEntity
  8
0
100
AcDbLine
 62
9
  6
CONTINUOUS
 10
10.6157256646
 20
6.1725709125
 11
10.6043171354
 21
6.1734785148
  0
SPLINE
  5
457
100
AcDbEntity
  8
0
100
AcDbSpline
 62
9
  6
CONTINUOUS
 70
0
 71
3
 72
31
 73
27
 74
0
 42
0.0000001
 43
0.0000001
 44
0.0000000001
 40
0.0
 40
0.0
 40
0.0
 40
0.0
 40
0.1167576861
 40
0.221903174
 40
0.3141872974
 40
0.3924569535
 40
0.4562328755
 40
0.4826476982
 40
0.5054028894
 40
0.5245060639
 40
0.5399904028
 40
0.5519456949
 40
0.5606093831
 40
0.5666754581
 40
0.5693175931
 40
0.5721279018
 40
0.579317265
 40
0.5896201283
 40
0.603506763
 40
0.6211823087
 40
0.6427558537
 40
0.6682250108
 40
0.7304817432
 40
0.8071330301
 40
0.8972808192
 40
1.0
 40
1.0
 40
1.0
 40
1.0
 10
10.6043171354
 20
6.1734785148
 30
0.0
 10
10.6033020158
 20
6.1735752947
 30
0.0
 10
10.6013736613
 20
6.1737692515
 30
0.0
 10
10.5986472256
 20
6.1740800567
 30
0.0
 10
10.596259608
 20
6.1743930236
 30
0.0
 10
10.5942370038
 20
6.1747064534
 30
0.0
 10
10.5927906105
 20
6.1749786268
 30
0.0
 10
10.5918291432
 20
6.1751997666
 30
0.0
 10
10.5912527292
 20
6.1753529327
 30
0.0
 10
10.5907748763
 20
6.1755036947
 30
0.0
 10
10.5903955622
 20
6.175650733
 30
0.0
 10
10.5901141734
 20
6.175795577
 30
0.0
 10
10.5899262422
 20
6.1759347541
 30
0.0
 10
10.5898409635
 20
6.1760714295
 30
0.0
 10
10.5898436988
 20
6.1761747876
 30
0.0
 10
10.5898886928
 20
6.1762779405
 30
0.0
 10
10.5900272362
 20
6.1763978956
 30
0.0
 10
10.5902720986
 20
6.1765209139
 30
0.0
 10
10.5906186078
 20
6.1766411165
 30
0.0
 10
10.5910682287
 20
6.1767565483
 30
0.0
 10
10.5916228019
 20
6.1768671122
 30
0.0
 10
10.5925656222
 20
6.1770173734
 30
0.0
 10
10.5939923738
 20
6.1771816685
 30
0.0
 10
10.5959862506
 20
6.1773461406
 30
0.0
 10
10.5983361873
 20
6.1774854155
 30
0.0
 10
10.6000192078
 20
6.1775560822
 30
0.0
 10
10.6009157596
 20
6.177587867
 30
0.0
  0
LINE
  5
458
100
AcDbEntity
  8
0
100
AcDbLine
 62
9
  6
CONTINUOUS
 10
10.6009157596
 20
6.177587867
 11
10.6115737726
 21
6.177754645
  0
SPLINE
  5
459
100
AcDbEntity
  8
0
100
AcDbSpline
 62
9
  6
CONTINUOUS
 70
0
 71
3
 72
12
 73
8
 74
0
 42
0.0000001
 43
0.0000001
 44
0.0000000001
 40
0.0
 40
0.0
 40
0.0
 40
0.0
 40
0.2998330467
 40
0.5756679166
 40
0.8136084156
 40
0.9140969973
 40
1.0
 40
1.0
 40
1.0
 40
1.0
 10
10.6378661242
 20
6.1771314635
 30
0.0
 10
10.6411842784
 20
6.1769856149
 30
0.0
 10
10.6475530918
 20
6.1766577956
 30
0.0
 10
10.6565447818
 20
6.1760383092
 30
0.0
 10
10.6633234217
 20
6.1754370073
 30
0.0
 10
10.6679948034
 20
6.1749132617
 30
0.0
 10
10.6700419121
 20
6.174642067
 30
0.0
 10
10.6709830939
 20
6.1745017879
 30
0.0
  0
SPLINE
  5
45A
100
AcDbEntity
  8
0
100
AcDbSpline
 62
9
  6
CONTINUOUS
 70
0
 71
3
 72
29
 73
25
 74
0
 42
0.0000001
 43
0.0000001
 44
0.0000000001
 40
0.0
 40
0.0
 40
0.0
 40
0.0
 40
0.0919343706
 40
0.169967118
 40
0.2340075591
 40
0.2607711172
 40
0.2840361681
 40
0.3038257708
 40
0.3201912782
 40
0.3332417378
 40
0.3432183604
 40
0.3506976027
 40
0.3570213291
 40
0.3642424275
 40
0.3738791447
 40
0.3866314694
 40
0.402814172
 40
0.4460442166
 40
0.5041781345
 40
0.576868191
 40
0.6634836446
 40
0.763346332
 40
0.8757558325
 40
1.0
 40
1.0
 40
1.0
 40
1.0
 10
10.6709830939
 20
6.1745017879
 30
0.0
 10
10.6715141939
 20
6.1744226298
 30
0.0
 10
10.6724947818
 20
6.1742670492
 30
0.0
 10
10.6738386388
 20
6.1740169102
 30
0.0
 10
10.6748013544
 20
6.173801349
 30
0.0
 10
10.6754444872
 20
6.1736269166
 30
0.0
 10
10.6758339257
 20
6.1735055816
 30
0.0
 10
10.6761599803
 20
6.1733860406
 30
0.0
 10
10.6764225609
 20
6.1732686346
 30
0.0
 10
10.6766225459
 20
6.1731531859
 30
0.0
 10
10.6767606112
 20
6.1730394789
 30
0.0
 10
10.6768408617
 20
6.1729202921
 30
0.0
 10
10.6768422847
 20
6.1727896397
 30
0.0
 10
10.6767616032
 20
6.1726738951
 30
0.0
 10
10.676621767
 20
6.1725706401
 30
0.0
 10
10.6764190159
 20
6.1724703877
 30
0.0
 10
10.6760222553
 20
6.1723268309
 30
0.0
 10
10.6753527443
 20
6.17216748
 30
0.0
 10
10.674349768
 20
6.1720008936
 30
0.0
 10
10.6730886215
 20
6.1718477971
 30
0.0
 10
10.67158115
 20
6.1717090997
 30
0.0
 10
10.6698396271
 20
6.1715862857
 30
0.0
 10
10.6678769175
 20
6.171480215
 30
0.0
 10
10.6664957856
 20
6.1714239342
 30
0.0
 10
10.6657705604
 20
6.171398233
 30
0.0
  0
LINE
  5
45B
100
AcDbEntity
  8
0
100
AcDbLine
 62
9
  6
CONTINUOUS
 10
10.6657705604
 20
6.171398233
 11
10.6551096425
 21
6.1712314997
  0
SPLINE
  5
45C
100
AcDbEntity
  8
0
100
AcDbSpline
 62
7
  6
CONTINUOUS
 70
0
 71
3
 72
12
 73
8
 74
0
 42
0.0000001
 43
0.0000001
 44
0.0000000001
 40
0.0
 40
0.0
 40
0.0
 40
0.0
 40
0.1014250263
 40
0.1853344932
 40
0.2949638902
 40
0.5939320039
 40
1.0
 40
1.0
 40
1.0
 40
1.0
 10
11.2388987838
 20
6.1746602771
 30
0.0
 10
11.2388987838
 20
6.1745993593
 30
0.0
 10
11.2388018844
 20
6.1745072343
 30
0.0
 10
11.2386512454
 20
6.1744267263
 30
0.0
 10
11.2383740136
 20
6.1743138669
 30
0.0
 10
11.2379027481
 20
6.1741860205
 30
0.0
 10
11.2374871736
 20
6.1741009003
 30
0.0
 10
11.2372472663
 20
6.1740569916
 30
0.0
  0
LINE
  5
45D
100
AcDbEntity
  8
0
100
AcDbLine
 62
7
  6
CONTINUOUS
 10
11.2372472663
 20
6.1740569916
 11
11.2325683979
 21
6.1735036243
  0
LINE
  5
45E
100
AcDbEntity
  8
0
100
AcDbLine
 62
7
  6
CONTINUOUS
 10
11.2325683979
 20
6.1735036243
 11
11.2208623105
 21
6.1729446912
  0
SPLINE
  5
45F
100
AcDbEntity
  8
0
100
AcDbSpline
 62
9
  6
CONTINUOUS
 70
0
 71
3
 72
33
 73
29
 74
0
 42
0.0000001
 43
0.0000001
 44
0.0000000001
 40
0.0
 40
0.0
 40
0.0
 40
0.0
 40
0.0001381658
 40
0.0004516145
 40
0.0009594599
 40
0.0016650186
 40
0.0036725502
 40
0.0064766928
 40
0.0100770336
 40
0.0144707869
 40
0.0196494566
 40
0.0256033331
 40
0.039797551
 40
0.0569748932
 40
0.0770561095
 40
0.0999368271
 40
0.1254735118
 40
0.1535191868
 40
0.1839268369
 40
0.2165375829
 40
0.2875933725
 40
0.3651036323
 40
0.4473643184
 40
0.5325361583
 40
0.6187464556
 40
0.7040809498
 40
0.8646219229
 40
1.0
 40
1.0
 40
1.0
 40
1.0
 10
10.5757850427
 20
6.1657490327
 30
0.0
 10
10.575785371
 20
6.1657533107
 30
0.0
 10
10.5757702526
 20
6.1657627987
 30
0.0
 10
10.5757442561
 20
6.1657703866
 30
0.0
 10
10.5756966644
 20
6.165781612
 30
0.0
 10
10.5755988672
 20
6.165798184
 30
0.0
 10
10.5754282977
 20
6.165820354
 30
0.0
 10
10.5751687822
 20
6.1658474782
 30
0.0
 10
10.5748346859
 20
6.1658776199
 30
0.0
 10
10.5744269802
 20
6.1659104433
 30
0.0
 10
10.5739461202
 20
6.1659459272
 30
0.0
 10
10.573161484
 20
6.1659998616
 30
0.0
 10
10.5720046499
 20
6.1660724323
 30
0.0
 10
10.5704095134
 20
6.1661647265
 30
0.0
 10
10.5685447032
 20
6.1662659426
 30
0.0
 10
10.5664203844
 20
6.1663754973
 30
0.0
 10
10.5640488135
 20
6.1664927602
 30
0.0
 10
10.5614435687
 20
6.1666170367
 30
0.0
 10
10.5586187019
 20
6.1667476224
 30
0.0
 10
10.5544593908
 20
6.1669345533
 30
0.0
 10
10.5488384165
 20
6.1671776
 30
0.0
 10
10.5416765188
 20
6.16747435
 30
0.0
 10
10.5340761543
 20
6.1677772851
 30
0.0
 10
10.526205394
 20
6.1680797004
 30
0.0
 10
10.5182388361
 20
6.168374788
 30
0.0
 10
10.5079328726
 20
6.1687423936
 30
0.0
 10
10.4961001725
 20
6.1691398145
 30
0.0
 10
10.486914941
 20
6.16941783
 30
0.0
 10
10.4827125035
 20
6.169532419
 30
0.0
  0
LINE
  5
460
100
AcDbEntity
  8
0
100
AcDbLine
 62
9
  6
CONTINUOUS
 10
10.4827125035
 20
6.169532419
 11
10.4732527807
 21
6.1697560894
  0
SPLINE
  5
461
100
AcDbEntity
  8
0
100
AcDbSpline
 62
7
  6
CONTINUOUS
 70
0
 71
3
 72
13
 73
9
 74
0
 42
0.0000001
 43
0.0000001
 44
0.0000000001
 40
0.0
 40
0.0
 40
0.0
 40
0.0
 40
0.3113107324
 40
0.6039197216
 40
0.7320487514
 40
0.8428684977
 40
0.9330163494
 40
1.0
 40
1.0
 40
1.0
 40
1.0
 10
10.6373600729
 20
6.1729519428
 30
0.0
 10
10.6350780406
 20
6.1730110831
 30
0.0
 10
10.6306523195
 20
6.1731770899
 30
0.0
 10
10.6252930571
 20
6.1734948217
 30
0.0
 10
10.621408084
 20
6.1738126282
 30
0.0
 10
10.6190065838
 20
6.1740531179
 30
0.0
 10
10.6170572457
 20
6.1742996344
 30
0.0
 10
10.6159194474
 20
6.1744873306
 30
0.0
 10
10.6154392619
 20
6.1745906815
 30
0.0
  0
SPLINE
  5
462
100
AcDbEntity
  8
0
100
AcDbSpline
 62
7
  6
CONTINUOUS
 70
0
 71
3
 72
12
 73
8
 74
0
 42
0.0000001
 43
0.0000001
 44
0.0000000001
 40
0.0
 40
0.0
 40
0.0
 40
0.0
 40
0.4044655294
 40
0.7023994782
 40
0.8119592073
 40
0.8962376289
 40
1.0
 40
1.0
 40
1.0
 40
1.0
 10
10.6154392619
 20
6.1745906815
 30
0.0
 10
10.6152655837
 20
6.1746280624
 30
0.0
 10
10.6149649301
 20
6.1746994127
 30
0.0
 10
10.6146244495
 20
6.174803713
 30
0.0
 10
10.6144251086
 20
6.1748928166
 30
0.0
 10
10.6143157525
 20
6.1749564829
 30
0.0
 10
10.614247386
 20
6.1750266258
 30
0.0
 10
10.6142473859
 20
6.1750722018
 30
0.0
  0
LINE
  5
463
100
AcDbEntity
  8
0
100
AcDbLine
 62
9
  6
CONTINUOUS
 10
10.1758293497
 20
6.1777546341
 11
10.2058191671
 21
6.1755074564
  0
LINE
  5
464
100
AcDbEntity
  8
0
100
AcDbLine
 62
9
  6
CONTINUOUS
 10
10.2058191671
 20
6.1755074564
 11
10.2326822929
 21
6.1734949526
  0
LINE
  5
465
100
AcDbEntity
  8
0
100
AcDbLine
 62
9
  6
CONTINUOUS
 10
10.2326822929
 20
6.1734949526
 11
10.2448185219
 21
6.1725858633
  0
LINE
  5
466
100
AcDbEntity
  8
0
100
AcDbLine
 62
9
  6
CONTINUOUS
 10
10.2448185219
 20
6.1725858633
 11
10.2544400361
 21
6.1718651923
  0
LINE
  5
467
100
AcDbEntity
  8
0
100
AcDbLine
 62
9
  6
CONTINUOUS
 10
10.2544400361
 20
6.1718651923
 11
10.2606746822
 21
6.171398233
  0
LINE
  5
468
100
AcDbEntity
  8
0
100
AcDbLine
 62
9
  6
CONTINUOUS
 10
10.2606746822
 20
6.171398233
 11
10.2629009514
 21
6.1712314994
  0
SPLINE
  5
469
100
AcDbEntity
  8
0
100
AcDbSpline
 62
9
  6
CONTINUOUS
 70
0
 71
3
 72
17
 73
13
 74
0
 42
0.0000001
 43
0.0000001
 44
0.0000000001
 40
0.0
 40
0.0
 40
0.0
 40
0.0
 40
0.0126106726
 40
0.0324811042
 40
0.0599260797
 40
0.0950101832
 40
0.188027106
 40
0.3112321724
 40
0.4626760915
 40
0.6343369374
 40
0.816641758
 40
1.0
 40
1.0
 40
1.0
 40
1.0
 10
10.871799755
 20
6.1777297441
 30
0.0
 10
10.8717674396
 20
6.1777627246
 30
0.0
 10
10.8717117639
 20
6.1778712715
 30
0.0
 10
10.871642115
 20
6.1780783091
 30
0.0
 10
10.8715716093
 20
6.1783725176
 30
0.0
 10
10.8714684387
 20
6.1789324655
 30
0.0
 10
10.8713543388
 20
6.1798463435
 30
0.0
 10
10.8712421464
 20
6.1811879169
 30
0.0
 10
10.8711556083
 20
6.1828200133
 30
0.0
 10
10.8710929061
 20
6.1846695422
 30
0.0
 10
10.8710565284
 20
6.1866366726
 30
0.0
 10
10.8710504256
 20
6.1879755731
 30
0.0
 10
10.8710524628
 20
6.1886469296
 30
0.0
  0
SPLINE
  5
46A
100
AcDbEntity
  8
0
100
AcDbSpline
 62
9
  6
CONTINUOUS
 70
0
 71
3
 72
21
 73
17
 74
0
 42
0.0000001
 43
0.0000001
 44
0.0000000001
 40
0.0
 40
0.0
 40
0.0
 40
0.0
 40
0.1984975147
 40
0.3875345101
 40
0.5598340826
 40
0.7096217673
 40
0.8318578586
 40
0.8812432161
 40
0.9222679671
 40
0.9395543772
 40
0.9546451813
 40
0.9675125139
 40
0.9781456526
 40
0.9865724216
 40
0.9928659372
 40
1.0
 40
1.0
 40
1.0
 40
1.0
 10
10.8710522942
 20
6.1886467397
 30
0.0
 10
10.8676488896
 20
6.1886729606
 30
0.0
 10
10.8610039515
 20
6.1886889521
 30
0.0
 10
10.8514050208
 20
6.1886036278
 30
0.0
 10
10.8426428703
 20
6.1884109722
 30
0.0
 10
10.8350296595
 20
6.1881193508
 30
0.0
 10
10.8295275528
 20
6.1877903012
 30
0.0
 10
10.8258955363
 20
6.1874671843
 30
0.0
 10
10.8240606631
 20
6.1872566807
 30
0.0
 10
10.8228150661
 20
6.1870748693
 30
0.0
 10
10.8220506738
 20
6.1869434991
 30
0.0
 10
10.8214018345
 20
6.1868084675
 30
0.0
 10
10.8208735157
 20
6.1866737987
 30
0.0
 10
10.8204552568
 20
6.1865303901
 30
0.0
 10
10.8201300952
 20
6.1863855301
 30
0.0
 10
10.8199106457
 20
6.1861955963
 30
0.0
 10
10.8199203753
 20
6.1860736608
 30
0.0
  0
SPLINE
  5
46B
100
AcDbEntity
  8
0
100
AcDbSpline
 62
9
  6
CONTINUOUS
 70
0
 71
3
 72
21
 73
17
 74
0
 42
0.0000001
 43
0.0000001
 44
0.0000000001
 40
0.0
 40
0.0
 40
0.0
 40
0.0
 40
0.0071355534
 40
0.0134301377
 40
0.0218579627
 40
0.0324921014
 40
0.0453603509
 40
0.0604519666
 40
0.0777390849
 40
0.1187649616
 40
0.1681510963
 40
0.2903876235
 40
0.4401744107
 40
0.6124719404
 40
0.8015059049
 40
1.0
 40
1.0
 40
1.0
 40
1.0
 10
11.2747173736
 20
6.1860887876
 30
0.0
 10
11.2747270447
 20
6.1862107561
 30
0.0
 10
11.274507505
 20
6.1864006359
 30
0.0
 10
11.2741822757
 20
6.186545515
 30
0.0
 10
11.2737639473
 20
6.186688916
 30
0.0
 10
11.2732355643
 20
6.1868235873
 30
0.0
 10
11.272586662
 20
6.1869586177
 30
0.0
 10
11.27182221
 20
6.1870899886
 30
0.0
 10
11.2705765389
 20
6.1872717993
 30
0.0
 10
11.2687415796
 20
6.1874823035
 30
0.0
 10
11.2651094415
 20
6.1878054183
 30
0.0
 10
11.2596072068
 20
6.1881344625
 30
0.0
 10
11.2519938695
 20
6.1884260749
 30
0.0
 10
11.2432316273
 20
6.1886187264
 30
0.0
 10
11.2336326298
 20
6.1887040824
 30
0.0
 10
11.2269876548
 20
6.1886880948
 30
0.0
 10
11.2235842336
 20
6.1886618548
 30
0.0
  0
SPLINE
  5
46C
100
AcDbEntity
  8
0
100
AcDbSpline
 62
9
  6
CONTINUOUS
 70
0
 71
3
 72
9
 73
5
 74
0
 42
0.0000001
 43
0.0000001
 44
0.0000000001
 40
0.0
 40
0.0
 40
0.0
 40
0.0
 40
0.5487539297
 40
1.0
 40
1.0
 40
1.0
 40
1.0
 10
10.8650066047
 20
6.1715559956
 30
0.0
 10
10.8608193401
 20
6.1716956615
 30
0.0
 10
10.8531915881
 20
6.1720326914
 30
0.0
 10
10.8455742595
 20
6.1725853482
 30
0.0
 10
10.8421468148
 20
6.1729341382
 30
0.0
  0
SPLINE
  5
46D
100
AcDbEntity
  8
0
100
AcDbSpline
 62
9
  6
CONTINUOUS
 70
0
 71
3
 72
29
 73
25
 74
0
 42
0.0000001
 43
0.0000001
 44
0.0000000001
 40
0.0
 40
0.0
 40
0.0
 40
0.0
 40
0.1204028052
 40
0.228880098
 40
0.3249046338
 40
0.4079643619
 40
0.4775758945
 40
0.5333161666
 40
0.5558956735
 40
0.574932577
 40
0.5904721262
 40
0.6026648787
 40
0.6119275949
 40
0.6193057366
 40
0.6266486073
 40
0.6357675984
 40
0.6476453513
 40
0.6626997742
 40
0.6811056513
 40
0.7029339123
 40
0.7569115006
 40
0.8245786207
 40
0.9057055542
 40
1.0
 40
1.0
 40
1.0
 40
1.0
 10
10.8421468148
 20
6.1729341382
 30
0.0
 10
10.8414439717
 20
6.1730056623
 30
0.0
 10
10.8401087457
 20
6.1731502003
 30
0.0
 10
10.8382168438
 20
6.1733857131
 30
0.0
 10
10.836546809
 20
6.1736272602
 30
0.0
 10
10.8351081217
 20
6.1738728234
 30
0.0
 10
10.8339104081
 20
6.1741206735
 30
0.0
 10
10.8330694863
 20
6.1743390198
 30
0.0
 10
10.8325274961
 20
6.1745203158
 30
0.0
 10
10.8322163386
 20
6.1746461161
 30
0.0
 10
10.831971387
 20
6.1747711198
 30
0.0
 10
10.8317927342
 20
6.1748959629
 30
0.0
 10
10.8316775104
 20
6.1750235226
 30
0.0
 10
10.8316339403
 20
6.1751647204
 30
0.0
 10
10.8316788736
 20
6.17530453
 30
0.0
 10
10.8317933214
 20
6.1754287737
 30
0.0
 10
10.8319686453
 20
6.175548711
 30
0.0
 10
10.8322077394
 20
6.1756667044
 30
0.0
 10
10.8325106988
 20
6.1757834632
 30
0.0
 10
10.8330384229
 20
6.1759489713
 30
0.0
 10
10.8338585596
 20
6.1761426713
 30
0.0
 10
10.8350295057
 20
6.1763548733
 30
0.0
 10
10.8364416949
 20
6.1765572092
 30
0.0
 10
10.8374642464
 20
6.1766757164
 30
0.0
 10
10.8380144462
 20
6.1767340179
 30
0.0
  0
SPLINE
  5
46E
100
AcDbEntity
  8
0
100
AcDbSpline
 62
9
  6
CONTINUOUS
 70
0
 71
3
 72
10
 73
6
 74
0
 42
0.0000001
 43
0.0000001
 44
0.0000000001
 40
0.0
 40
0.0
 40
0.0
 40
0.0
 40
0.1951557374
 40
0.4313502557
 40
1.0
 40
1.0
 40
1.0
 40
1.0
 10
10.8380144462
 20
6.1767340179
 30
0.0
 10
10.8393360894
 20
6.1768740648
 30
0.0
 10
10.8422642948
 20
6.1771173359
 30
0.0
 10
10.8490643141
 20
6.1774956931
 30
0.0
 10
10.854544877
 20
6.1776390829
 30
0.0
 10
10.8584170267
 20
6.1776979925
 30
0.0
  0
SPLINE
  5
46F
100
AcDbEntity
  8
0
100
AcDbSpline
 62
9
  6
CONTINUOUS
 70
0
 71
3
 72
9
 73
5
 74
0
 42
0.0000001
 43
0.0000001
 44
0.0000000001
 40
0.0
 40
0.0
 40
0.0
 40
0.0
 40
0.5488515772
 40
1.0
 40
1.0
 40
1.0
 40
1.0
 10
10.8854009483
 20
6.1774345528
 30
0.0
 10
10.8895816162
 20
6.1772946086
 30
0.0
 10
10.8971959858
 20
6.1769572684
 30
0.0
 10
10.904799935
 20
6.1764048168
 30
0.0
 10
10.9082206076
 20
6.1760563496
 30
0.0
  0
SPLINE
  5
470
100
AcDbEntity
  8
0
100
AcDbSpline
 62
9
  6
CONTINUOUS
 70
0
 71
3
 72
29
 73
25
 74
0
 42
0.0000001
 43
0.0000001
 44
0.0000000001
 40
0.0
 40
0.0
 40
0.0
 40
0.0
 40
0.1205061233
 40
0.2290584362
 40
0.3251354787
 40
0.4082309878
 40
0.4778673617
 40
0.5336272937
 40
0.5562164505
 40
0.5752637581
 40
0.5908149808
 40
0.6030207995
 40
0.6122957831
 40
0.619681432
 40
0.6270241569
 40
0.6361364668
 40
0.6480033421
 40
0.6630437606
 40
0.6814327613
 40
0.7032411718
 40
0.757169002
 40
0.8247705356
 40
0.90581278
 40
1.0
 40
1.0
 40
1.0
 40
1.0
 10
10.9082206076
 20
6.1760563496
 30
0.0
 10
10.9089227608
 20
6.1759848205
 30
0.0
 10
10.910256569
 20
6.1758402829
 30
0.0
 10
10.9121463245
 20
6.1756047828
 30
0.0
 10
10.9138142173
 20
6.1753632833
 30
0.0
 10
10.9152508855
 20
6.1751178021
 30
0.0
 10
10.9164468216
 20
6.1748700691
 30
0.0
 10
10.9172864657
 20
6.1746518554
 30
0.0
 10
10.9178276473
 20
6.1744707019
 30
0.0
 10
10.9181383862
 20
6.174345006
 30
0.0
 10
10.9183830596
 20
6.1742201142
 30
0.0
 10
10.9185615805
 20
6.1740954004
 30
0.0
 10
10.9186767976
 20
6.1739680193
 30
0.0
 10
10.9187205626
 20
6.1738270578
 30
0.0
 10
10.9186760118
 20
6.1736874005
 30
0.0
 10
10.9185620019
 20
6.1735632923
 30
0.0
 10
10.9183872558
 20
6.1734435249
 30
0.0
 10
10.9181488887
 20
6.1733257066
 30
0.0
 10
10.9178468135
 20
6.1732091286
 30
0.0
 10
10.9173205968
 20
6.1730438822
 30
0.0
 10
10.9165027804
 20
6.1728504968
 30
0.0
 10
10.9153351735
 20
6.1726386348
 30
0.0
 10
10.9139270968
 20
6.17243661
 30
0.0
 10
10.912907552
 20
6.1723182633
 30
0.0
 10
10.9123589925
 20
6.1722600362
 30
0.0
  0
SPLINE
  5
471
100
AcDbEntity
  8
0
100
AcDbSpline
 62
9
  6
CONTINUOUS
 70
0
 71
3
 72
11
 73
7
 74
0
 42
0.0000001
 43
0.0000001
 44
0.0000000001
 40
0.0
 40
0.0
 40
0.0
 40
0.0
 40
0.1871168503
 40
0.4260238537
 40
0.7020687082
 40
1.0
 40
1.0
 40
1.0
 40
1.0
 10
10.9123589925
 20
6.1722600362
 30
0.0
 10
10.9102651598
 20
6.1720377852
 30
0.0
 10
10.9054811438
 20
6.1716960791
 30
0.0
 10
10.8975866948
 20
6.1713838861
 30
0.0
 10
10.8884401221
 20
6.1712240576
 30
0.0
 10
10.8819808945
 20
6.1712296448
 30
0.0
 10
10.8786284809
 20
6.1712622189
 30
0.0
  0
LINE
  5
472
100
AcDbEntity
  8
0
100
AcDbLine
 62
7
  6
CONTINUOUS
 10
10.9390505355
 20
6.1461916943
 11
10.9344448241
 21
6.1459917953
  0
LINE
  5
473
100
AcDbEntity
  8
0
100
AcDbLine
 62
9
  6
CONTINUOUS
 10
11.6266500694
 20
6.1697244719
 11
11.6260566679
 21
6.1697769699
  0
LINE
  5
474
100
AcDbEntity
  8
0
100
AcDbLine
 62
9
  6
CONTINUOUS
 10
11.6260566679
 20
6.1697769699
 11
11.6213831372
 21
6.1697469881
  0
LINE
  5
475
100
AcDbEntity
  8
0
100
AcDbLine
 62
7
  6
CONTINUOUS
 10
10.868979451
 20
6.1730783629
 11
10.8620710853
 21
6.1734883645
  0
LINE
  5
476
100
AcDbEntity
  8
0
100
AcDbLine
 62
7
  6
CONTINUOUS
 10
10.8620710853
 20
6.1734883645
 11
10.8573928934
 21
6.1740413116
  0
SPLINE
  5
477
100
AcDbEntity
  8
0
100
AcDbSpline
 62
7
  6
CONTINUOUS
 70
0
 71
3
 72
12
 73
8
 74
0
 42
0.0000001
 43
0.0000001
 44
0.0000000001
 40
0.0
 40
0.0
 40
0.0
 40
0.0
 40
0.4061006995
 40
0.7050925866
 40
0.8147255978
 40
0.8986295397
 40
1.0
 40
1.0
 40
1.0
 40
1.0
 10
10.8573928934
 20
6.1740413116
 30
0.0
 10
10.8571524658
 20
6.1740852654
 30
0.0
 10
10.856735985
 20
6.1741704764
 30
0.0
 10
10.8562636899
 20
6.1742984594
 30
0.0
 10
10.8559858261
 20
6.174411449
 30
0.0
 10
10.8558348851
 20
6.1744920289
 30
0.0
 10
10.8557377204
 20
6.1745842547
 30
0.0
 10
10.8557377203
 20
6.1746452647
 30
0.0
  0
SPLINE
  5
478
100
AcDbEntity
  8
0
100
AcDbSpline
 62
9
  6
CONTINUOUS
 70
0
 71
3
 72
17
 73
13
 74
0
 42
0.0000001
 43
0.0000001
 44
0.0000000001
 40
0.0
 40
0.0
 40
0.0
 40
0.0
 40
0.012613029
 40
0.0324876778
 40
0.0599382575
 40
0.0950287946
 40
0.1880587747
 40
0.3112732891
 40
0.4627191878
 40
0.6343738126
 40
0.8166642556
 40
1.0
 40
1.0
 40
1.0
 40
1.0
 10
11.2228367722
 20
6.1777448593
 30
0.0
 10
11.2228690935
 20
6.177777846
 30
0.0
 10
11.2229247755
 20
6.1778864183
 30
0.0
 10
11.2229944313
 20
6.1780934997
 30
0.0
 10
11.2230649425
 20
6.1783877684
 30
0.0
 10
11.223168118
 20
6.1789478086
 30
0.0
 10
11.2232822197
 20
6.1798617932
 30
0.0
 10
11.22339441
 20
6.1812034565
 30
0.0
 10
11.2234809407
 20
6.1828355722
 30
0.0
 10
11.2235436325
 20
6.1846850331
 30
0.0
 10
11.2235800012
 20
6.1866520057
 30
0.0
 10
11.2235861019
 20
6.187990771
 30
0.0
 10
11.223584065
 20
6.1886620451
 30
0.0
  0
SPLINE
  5
479
100
AcDbEntity
  8
0
100
AcDbSpline
 62
9
  6
CONTINUOUS
 70
0
 71
3
 72
22
 73
18
 74
0
 42
0.0000001
 43
0.0000001
 44
0.0000000001
 40
0.0
 40
0.0
 40
0.0
 40
0.0
 40
0.1902486479
 40
0.3757619694
 40
0.5481215396
 40
0.7002488323
 40
0.7667157878
 40
0.8257779741
 40
0.8768606069
 40
0.9194618219
 40
0.9374316382
 40
0.9531243891
 40
0.9665216141
 40
0.9776124221
 40
0.9864010133
 40
0.9929284006
 40
1.0
 40
1.0
 40
1.0
 40
1.0
 10
11.2235842336
 20
6.1886618548
 30
0.0
 10
11.2197708812
 20
6.1886320437
 30
0.0
 10
11.2122393697
 20
6.1885286789
 30
0.0
 10
11.2012557639
 20
6.1882480872
 30
0.0
 10
11.1910403376
 20
6.1878526387
 30
0.0
 10
11.1832148037
 20
6.1874280089
 30
0.0
 10
11.177663089
 20
6.1870343508
 30
0.0
 10
11.1741353937
 20
6.1867363609
 30
0.0
 10
11.1710892299
 20
6.1864259779
 30
0.0
 10
11.1688682376
 20
6.1861479189
 30
0.0
 10
11.167357069
 20
6.1859152749
 30
0.0
 10
11.1664286543
 20
6.185750277
 30
0.0
 10
11.1656390575
 20
6.185583991
 30
0.0
 10
11.1649957836
 20
6.1854215298
 30
0.0
 10
11.1644828876
 20
6.1852519555
 30
0.0
 10
11.1640955907
 20
6.185086869
 30
0.0
 10
11.1638157441
 20
6.1848744492
 30
0.0
 10
11.1638287003
 20
6.1847332947
 30
0.0
  0
SPLINE
  5
47A
100
AcDbEntity
  8
0
100
AcDbSpline
 62
9
  6
CONTINUOUS
 70
0
 71
3
 72
11
 73
7
 74
0
 42
0.0000001
 43
0.0000001
 44
0.0000000001
 40
0.0
 40
0.0
 40
0.0
 40
0.0
 40
0.2973839821
 40
0.5731065642
 40
0.812139265
 40
1.0
 40
1.0
 40
1.0
 40
1.0
 10
11.2160078525
 20
6.1712771467
 30
0.0
 10
11.2126735905
 20
6.1712447393
 30
0.0
 10
11.2062472665
 20
6.1712388515
 30
0.0
 10
11.1971418059
 20
6.1713965414
 30
0.0
 10
11.1892694087
 20
6.171705234
 30
0.0
 10
11.1844926396
 20
6.1720429122
 30
0.0
 10
11.1823976964
 20
6.1722622053
 30
0.0
  0
SPLINE
  5
47B
100
AcDbEntity
  8
0
100
AcDbSpline
 62
9
  6
CONTINUOUS
 70
0
 71
3
 72
28
 73
24
 74
0
 42
0.0000001
 43
0.0000001
 44
0.0000000001
 40
0.0
 40
0.0
 40
0.0
 40
0.0
 40
0.0953035474
 40
0.1774586737
 40
0.2461660915
 40
0.3011859222
 40
0.3235301399
 40
0.3424428535
 40
0.3579857786
 40
0.3703138523
 40
0.3869900661
 40
0.3942597612
 40
0.4032025165
 40
0.4149808543
 40
0.4300744442
 40
0.4486581066
 40
0.4707881215
 40
0.525660829
 40
0.5944652189
 40
0.676790189
 40
0.7721605427
 40
0.8800709045
 40
1.0
 40
1.0
 40
1.0
 40
1.0
 10
11.1823976964
 20
6.1722622053
 30
0.0
 10
11.1818440432
 20
6.1723201602
 30
0.0
 10
11.1808141122
 20
6.1724380473
 30
0.0
 10
11.1793901381
 20
6.1726392563
 30
0.0
 10
11.1782059571
 20
6.1728505257
 30
0.0
 10
11.1773740907
 20
6.1730431479
 30
0.0
 10
11.1768359007
 20
6.1732080355
 30
0.0
 10
11.1765253515
 20
6.1733237608
 30
0.0
 10
11.176276878
 20
6.173443094
 30
0.0
 10
11.1760617379
 20
6.1735799598
 30
0.0
 10
11.1759043661
 20
6.1737651254
 30
0.0
 10
11.1759469641
 20
6.1739641607
 30
0.0
 10
11.1760534121
 20
6.17409248
 30
0.0
 10
11.1762223931
 20
6.1742173093
 30
0.0
 10
11.176457549
 20
6.174342044
 30
0.0
 10
11.1767586519
 20
6.1744676146
 30
0.0
 10
11.1772870253
 20
6.1746489285
 30
0.0
 10
11.1781111493
 20
6.1748671453
 30
0.0
 10
11.1792888824
 20
6.1751148668
 30
0.0
 10
11.1807078743
 20
6.1753604873
 30
0.0
 10
11.1823586385
 20
6.1756022803
 30
0.0
 10
11.1842318462
 20
6.1758382077
 30
0.0
 10
11.1855548338
 20
6.1759830233
 30
0.0
 10
11.1862516734
 20
6.1760547235
 30
0.0
  0
SPLINE
  5
47C
100
AcDbEntity
  8
0
100
AcDbSpline
 62
9
  6
CONTINUOUS
 70
0
 71
3
 72
9
 73
5
 74
0
 42
0.0000001
 43
0.0000001
 44
0.0000000001
 40
0.0
 40
0.0
 40
0.0
 40
0.0
 40
0.4504245429
 40
1.0
 40
1.0
 40
1.0
 40
1.0
 10
11.1862516734
 20
6.1760547235
 30
0.0
 10
11.1896731533
 20
6.1764067714
 30
0.0
 10
11.197291693
 20
6.176964309
 30
0.0
 10
11.2049207973
 20
6.177304283
 30
0.0
 10
11.2091151004
 20
6.1774455939
 30
0.0
  0
SPLINE
  5
47D
100
AcDbEntity
  8
0
100
AcDbSpline
 62
9
  6
CONTINUOUS
 70
0
 71
3
 72
10
 73
6
 74
0
 42
0.0000001
 43
0.0000001
 44
0.0000000001
 40
0.0
 40
0.0
 40
0.0
 40
0.0
 40
0.567773724
 40
0.8041711359
 40
1.0
 40
1.0
 40
1.0
 40
1.0
 10
11.2361108773
 20
6.1777147877
 30
0.0
 10
11.2399745917
 20
6.1776568956
 30
0.0
 10
11.2454470638
 20
6.1775151188
 30
0.0
 10
11.2522429336
 20
6.1771411035
 30
0.0
 10
11.2551754196
 20
6.1769004471
 30
0.0
 10
11.2565009726
 20
6.1767619376
 30
0.0
  0
SPLINE
  5
47E
100
AcDbEntity
  8
0
100
AcDbSpline
 62
9
  6
CONTINUOUS
 70
0
 71
3
 72
28
 73
24
 74
0
 42
0.0000001
 43
0.0000001
 44
0.0000000001
 40
0.0
 40
0.0
 40
0.0
 40
0.0
 40
0.0954059504
 40
0.1776408755
 40
0.2464089112
 40
0.3014734588
 40
0.3238349972
 40
0.3427620786
 40
0.3583165772
 40
0.3706533152
 40
0.3873348096
 40
0.3945978605
 40
0.4035299461
 40
0.4152968049
 40
0.4303804662
 40
0.4489555791
 40
0.4710778628
 40
0.525934826
 40
0.5947182627
 40
0.6770112122
 40
0.7723326172
 40
0.8801712517
 40
1.0
 40
1.0
 40
1.0
 40
1.0
 10
11.2565009726
 20
6.1767619376
 30
0.0
 10
11.257056343
 20
6.1767039059
 30
0.0
 10
11.2580894212
 20
6.1765858527
 30
0.0
 10
11.2595176977
 20
6.1763843204
 30
0.0
 10
11.2607053672
 20
6.1761726964
 30
0.0
 10
11.2615396499
 20
6.1759797446
 30
0.0
 10
11.2620794046
 20
6.1758145807
 30
0.0
 10
11.2623908588
 20
6.1756986645
 30
0.0
 10
11.2626400875
 20
6.175579146
 30
0.0
 10
11.2628558574
 20
6.1754420758
 30
0.0
 10
11.2630138826
 20
6.1752567766
 30
0.0
 10
11.2629715152
 20
6.1750573372
 30
0.0
 10
11.2628650102
 20
6.1749288256
 30
0.0
 10
11.2626958466
 20
6.174803853
 30
0.0
 10
11.2624603472
 20
6.1746789951
 30
0.0
 10
11.2621587508
 20
6.1745533082
 30
0.0
 10
11.2616294451
 20
6.1743718358
 30
0.0
 10
11.2608038625
 20
6.1741534675
 30
0.0
 10
11.2596241034
 20
6.1739056078
 30
0.0
 10
11.2582028037
 20
6.1736598859
 30
0.0
 10
11.2565495708
 20
6.173418028
 30
0.0
 10
11.2546738541
 20
6.1731820732
 30
0.0
 10
11.2533491956
 20
6.1730372492
 30
0.0
 10
11.2526515338
 20
6.1729655505
 30
0.0
  0
SPLINE
  5
47F
100
AcDbEntity
  8
0
100
AcDbSpline
 62
9
  6
CONTINUOUS
 70
0
 71
3
 72
9
 73
5
 74
0
 42
0.0000001
 43
0.0000001
 44
0.0000000001
 40
0.0
 40
0.0
 40
0.0
 40
0.0
 40
0.4505340339
 40
1.0
 40
1.0
 40
1.0
 40
1.0
 10
11.2526515338
 20
6.1729655505
 30
0.0
 10
11.2492232769
 20
6.1726132283
 30
0.0
 10
11.2415915382
 20
6.1720555552
 30
0.0
 10
11.2339492338
 20
6.171715928
 30
0.0
 10
11.2297485169
 20
6.1715749156
 30
0.0
  0
SPLINE
  5
480
100
AcDbEntity
  8
0
100
AcDbSpline
 62
7
  6
CONTINUOUS
 70
0
 71
3
 72
15
 73
11
 74
0
 42
0.0000001
 43
0.0000001
 44
0.0000000001
 40
0.0
 40
0.0
 40
0.0
 40
0.0
 40
0.0292789029
 40
0.0525100415
 40
0.0826368396
 40
0.1645641002
 40
0.2759109996
 40
0.4164398528
 40
0.5849594785
 40
1.0
 40
1.0
 40
1.0
 40
1.0
 10
10.895107799
 20
6.1740329325
 30
0.0
 10
10.895107799
 20
6.1739803157
 30
0.0
 10
10.89503176
 20
6.1738984574
 30
0.0
 10
10.8949056252
 20
6.1738282785
 30
0.0
 10
10.8946791369
 20
6.1737334213
 30
0.0
 10
10.8942915633
 20
6.1736294258
 30
0.0
 10
10.8937021284
 20
6.1735146127
 30
0.0
 10
10.8929542426
 20
6.1734071092
 30
0.0
 10
10.891660895
 20
6.1732622813
 30
0.0
 10
10.8906148216
 20
6.1731834234
 30
0.0
 10
10.889870457
 20
6.1731361379
 30
0.0
  0
LINE
  5
481
100
AcDbEntity
  8
0
100
AcDbLine
 62
7
  6
CONTINUOUS
 10
10.889870457
 20
6.1731361379
 11
10.87872929
 21
6.1728678768
  0
LINE
  5
482
100
AcDbEntity
  8
0
100
AcDbLine
 62
7
  6
CONTINUOUS
 10
11.2106251577
 20
6.1729245231
 11
11.2047644589
 21
6.1731512496
  0
LINE
  5
483
100
AcDbEntity
  8
0
100
AcDbLine
 62
7
  6
CONTINUOUS
 10
11.2047644589
 20
6.1731512496
 11
11.200886269
 21
6.1735435287
  0
SPLINE
  5
484
100
AcDbEntity
  8
0
100
AcDbSpline
 62
7
  6
CONTINUOUS
 70
0
 71
3
 72
12
 73
8
 74
0
 42
0.0000001
 43
0.0000001
 44
0.0000000001
 40
0.0
 40
0.0
 40
0.0
 40
0.0
 40
0.4036001093
 40
0.7005575682
 40
0.8097499153
 40
0.8939402239
 40
1.0
 40
1.0
 40
1.0
 40
1.0
 10
11.200886269
 20
6.1735435287
 30
0.0
 10
11.2006886527
 20
6.1735773907
 30
0.0
 10
11.2003466113
 20
6.1736440852
 30
0.0
 10
11.1999582708
 20
6.1737481254
 30
0.0
 10
11.1997313051
 20
6.1738430816
 30
0.0
 10
11.1996049369
 20
6.1739133114
 30
0.0
 10
11.1995287049
 20
6.1739952564
 30
0.0
 10
11.1995287051
 20
6.1740479437
 30
0.0
  0
SPLINE
  5
485
100
AcDbEntity
  8
0
100
AcDbSpline
 62
9
  6
CONTINUOUS
 70
0
 71
3
 72
14
 73
10
 74
0
 42
0.0000001
 43
0.0000001
 44
0.0000000001
 40
0.0
 40
0.0
 40
0.0
 40
0.0
 40
0.1680152561
 40
0.2742548622
 40
0.3967766123
 40
0.5358084778
 40
0.6870210669
 40
0.8440292806
 40
1.0
 40
1.0
 40
1.0
 40
1.0
 10
11.4830640503
 20
6.1777548264
 30
0.0
 10
11.4837811429
 20
6.1778681762
 30
0.0
 10
11.4848672256
 20
6.1785182471
 30
0.0
 10
11.4860105175
 20
6.1797917434
 30
0.0
 10
11.4868470521
 20
6.1811566475
 30
0.0
 10
11.4875242537
 20
6.1828115843
 30
0.0
 10
11.4880514594
 20
6.1846744317
 30
0.0
 10
11.4884134478
 20
6.1866498337
 30
0.0
 10
11.4885388779
 20
6.1879986738
 30
0.0
 10
11.4885683194
 20
6.1886719817
 30
0.0
  0
SPLINE
  5
486
100
AcDbEntity
  8
0
100
AcDbSpline
 62
9
  6
CONTINUOUS
 70
0
 71
3
 72
26
 73
22
 74
0
 42
0.0000001
 43
0.0000001
 44
0.0000000001
 40
0.0
 40
0.0
 40
0.0
 40
0.0
 40
0.1605316741
 40
0.332895923
 40
0.4197428855
 40
0.5051007571
 40
0.5875062137
 40
0.6655148956
 40
0.7378219656
 40
0.8031861007
 40
0.8605011604
 40
0.9088263336
 40
0.9293395008
 40
0.9473141927
 40
0.962689416
 40
0.9754083956
 40
0.9854235727
 40
0.9927277394
 40
0.995391283
 40
0.997432826
 40
1.0
 40
1.0
 40
1.0
 40
1.0
 10
11.4885694066
 20
6.1886717915
 30
0.0
 10
11.4840984494
 20
6.1886714979
 30
0.0
 10
11.4748269323
 20
6.1885865109
 30
0.0
 10
11.4631394571
 20
6.1883174971
 30
0.0
 10
11.4535480034
 20
6.1880022428
 30
0.0
 10
11.4464623759
 20
6.1877213766
 30
0.0
 10
11.4396247795
 20
6.1874022101
 30
0.0
 10
11.4331528033
 20
6.1870495444
 30
0.0
 10
11.4271578209
 20
6.1866702209
 30
0.0
 10
11.4217418209
 20
6.1862711565
 30
0.0
 10
11.4169969081
 20
6.1858591629
 30
0.0
 10
11.413501921
 20
6.1854959992
 30
0.0
 10
11.4111025312
 20
6.1851972826
 30
0.0
 10
11.409617098
 20
6.1849872044
 30
0.0
 10
11.4083507748
 20
6.184779565
 30
0.0
 10
11.4073088286
 20
6.1845768091
 30
0.0
 10
11.4064954219
 20
6.1843777407
 30
0.0
 10
11.4059652974
 20
6.1842088846
 30
0.0
 10
11.4056605939
 20
6.1840630545
 30
0.0
 10
11.4054934364
 20
6.1839589583
 30
0.0
 10
11.4053979247
 20
6.1838396081
 30
0.0
 10
11.4054036896
 20
6.1837683427
 30
0.0
  0
LINE
  5
487
100
AcDbEntity
  8
0
100
AcDbLine
 62
9
  6
CONTINUOUS
 10
11.4830628319
 20
6.1777546341
 11
11.4936411503
 21
6.1775907213
  0
SPLINE
  5
488
100
AcDbEntity
  8
0
100
AcDbSpline
 62
9
  6
CONTINUOUS
 70
0
 71
3
 72
30
 73
26
 74
0
 42
0.0000001
 43
0.0000001
 44
0.0000000001
 40
0.0
 40
0.0
 40
0.0
 40
0.0
 40
0.1032800708
 40
0.194007361
 40
0.271258983
 40
0.334138347
 40
0.3599269772
 40
0.3818237564
 40
0.3998168187
 40
0.4140093721
 40
0.4245958145
 40
0.4320130131
 40
0.437452897
 40
0.4433815053
 40
0.4518095375
 40
0.4634969929
 40
0.4787023516
 40
0.4975229821
 40
0.5199953483
 40
0.5461287152
 40
0.6093491079
 40
0.6870772848
 40
0.7788700482
 40
0.8835932551
 40
1.0
 40
1.0
 40
1.0
 40
1.0
 10
11.4936411503
 20
6.1775907213
 30
0.0
 10
11.4945393208
 20
6.1775592361
 30
0.0
 10
11.4962261448
 20
6.1774891525
 30
0.0
 10
11.4985827081
 20
6.177350885
 30
0.0
 10
11.5005850754
 20
6.177187421
 30
0.0
 10
11.5020201665
 20
6.1770240979
 30
0.0
 10
11.5029707272
 20
6.176874702
 30
0.0
 10
11.5035318608
 20
6.1767648058
 30
0.0
 10
11.5039882312
 20
6.1766495936
 30
0.0
 10
11.5043421197
 20
6.1765306518
 30
0.0
 10
11.5045931966
 20
6.1764062818
 30
0.0
 10
11.5047574897
 20
6.1762770279
 30
0.0
 10
11.5048132357
 20
6.1761076067
 30
0.0
 10
11.50472148
 20
6.1759462909
 30
0.0
 10
11.5045417511
 20
6.1758077171
 30
0.0
 10
11.5042688367
 20
6.1756631805
 30
0.0
 10
11.5038987025
 20
6.1755167573
 30
0.0
 10
11.5034302872
 20
6.1753664529
 30
0.0
 10
11.5028636365
 20
6.1752137467
 30
0.0
 10
11.501915759
 20
6.174993028
 30
0.0
 10
11.5004869184
 20
6.1747214273
 30
0.0
 10
11.4984857733
 20
6.1744085339
 30
0.0
 10
11.4961197261
 20
6.1740960153
 30
0.0
 10
11.4934144109
 20
6.1737854955
 30
0.0
 10
11.4914999102
 20
6.1735916953
 30
0.0
 10
11.4904915927
 20
6.1734949526
 30
0.0
  0
LINE
  5
489
100
AcDbEntity
  8
0
100
AcDbLine
 62
9
  6
CONTINUOUS
 10
11.4904915927
 20
6.1734949526
 11
11.4791351584
 21
6.1725858633
  0
LINE
  5
48A
100
AcDbEntity
  8
0
100
AcDbLine
 62
9
  6
CONTINUOUS
 10
11.4524142165
 20
6.171398233
 11
11.4395270327
 21
6.1712314997
  0
LINE
  5
48B
100
AcDbEntity
  8
0
100
AcDbLine
 62
9
  6
CONTINUOUS
 10
11.4395271058
 20
6.1712315104
 11
11.428946239
 21
6.1713953682
  0
SPLINE
  5
48C
100
AcDbEntity
  8
0
100
AcDbSpline
 62
9
  6
CONTINUOUS
 70
0
 71
3
 72
28
 73
24
 74
0
 42
0.0000001
 43
0.0000001
 44
0.0000000001
 40
0.0
 40
0.0
 40
0.0
 40
0.0
 40
0.124683308
 40
0.2375773267
 40
0.3379736666
 40
0.4251753209
 40
0.4985067759
 40
0.5573379495
 40
0.6012935051
 40
0.6308832054
 40
0.6408250336
 40
0.6482511023
 40
0.6545721014
 40
0.6618388564
 40
0.671495038
 40
0.6841761141
 40
0.7001466694
 40
0.7195255529
 40
0.7423687717
 40
0.7687018644
 40
0.8318606057
 40
0.9089891056
 40
1.0
 40
1.0
 40
1.0
 40
1.0
 10
11.428946239
 20
6.1713953682
 30
0.0
 10
11.4282200713
 20
6.171420813
 30
0.0
 10
11.4268366375
 20
6.1714765861
 30
0.0
 10
11.4248697684
 20
6.171581768
 30
0.0
 10
11.4231227953
 20
6.1717037173
 30
0.0
 10
11.4216081563
 20
6.1718413641
 30
0.0
 10
11.4203390111
 20
6.1719939074
 30
0.0
 10
11.4193245886
 20
6.1721586411
 30
0.0
 10
11.4185750712
 20
6.1723367157
 30
0.0
 10
11.4181124541
 20
6.1725050576
 30
0.0
 10
11.4178872897
 20
6.1726627022
 30
0.0
 10
11.4177999032
 20
6.1727760638
 30
0.0
 10
11.417791461
 20
6.172906064
 30
0.0
 10
11.4178642708
 20
6.1730266275
 30
0.0
 10
11.4179953918
 20
6.1731399855
 30
0.0
 10
11.4181877095
 20
6.1732550473
 30
0.0
 10
11.4184423323
 20
6.1733719356
 30
0.0
 10
11.4187601076
 20
6.1734910114
 30
0.0
 10
11.4191410224
 20
6.1736118928
 30
0.0
 10
11.4197722597
 20
6.1737858705
 30
0.0
 10
11.4207196259
 20
6.1740008074
 30
0.0
 10
11.4220444401
 20
6.174250224
 30
0.0
 10
11.4230120703
 20
6.1744053125
 30
0.0
 10
11.4235365437
 20
6.1744842573
 30
0.0
  0
SPLINE
  5
48D
100
AcDbEntity
  8
0
100
AcDbSpline
 62
9
  6
CONTINUOUS
 70
0
 71
3
 72
12
 73
8
 74
0
 42
0.0000001
 43
0.0000001
 44
0.0000000001
 40
0.0
 40
0.0
 40
0.0
 40
0.0
 40
0.0854890532
 40
0.1856909051
 40
0.4234214945
 40
0.6994982042
 40
1.0
 40
1.0
 40
1.0
 40
1.0
 10
11.4235365437
 20
6.1744842573
 30
0.0
 10
11.4244696023
 20
6.1746247032
 30
0.0
 10
11.4265013573
 20
6.1748961257
 30
0.0
 10
11.4311454523
 20
6.1754205454
 30
0.0
 10
11.4378964882
 20
6.176022958
 30
0.0
 10
11.4468631275
 20
6.176644509
 30
0.0
 10
11.4532188324
 20
6.176974091
 30
0.0
 10
11.456532313
 20
6.1771209274
 30
0.0
  0
SPLINE
  5
48E
100
AcDbEntity
  8
0
100
AcDbSpline
 62
9
  6
CONTINUOUS
 70
0
 71
3
 72
22
 73
18
 74
0
 42
0.0000001
 43
0.0000001
 44
0.0000000001
 40
0.0
 40
0.0
 40
0.0
 40
0.0
 40
0.0070710545
 40
0.0135985321
 40
0.0223880711
 40
0.033480256
 40
0.0468788165
 40
0.0625723804
 40
0.0805421641
 40
0.1231453695
 40
0.1742310938
 40
0.2332936695
 40
0.2997606571
 40
0.4518858495
 40
0.6242344243
 40
0.809745872
 40
1.0
 40
1.0
 40
1.0
 40
1.0
 10
10.9308063511
 20
6.1847183196
 30
0.0
 10
10.9308193039
 20
6.1848594599
 30
0.0
 10
10.9305395444
 20
6.1850719189
 30
0.0
 10
10.9301522227
 20
6.1852369883
 30
0.0
 10
10.9296392939
 20
6.1854065598
 30
0.0
 10
10.9289959574
 20
6.1855690143
 30
0.0
 10
10.9282063085
 20
6.1857352967
 30
0.0
 10
10.9272778731
 20
6.1859002909
 30
0.0
 10
10.9257666877
 20
6.1861329463
 30
0.0
 10
10.9235456458
 20
6.1864109896
 30
0.0
 10
10.9204994448
 20
6.1867213522
 30
0.0
 10
10.9169717654
 20
6.1870193451
 30
0.0
 10
10.9114202173
 20
6.187412968
 30
0.0
 10
10.9035951332
 20
6.1878375383
 30
0.0
 10
10.8933802553
 20
6.1882329712
 30
0.0
 10
10.8823970647
 20
6.188513564
 30
0.0
 10
10.8748656639
 20
6.1886169469
 30
0.0
 10
10.8710522942
 20
6.1886467397
 30
0.0
  0
SPLINE
  5
48F
100
AcDbEntity
  8
0
100
AcDbSpline
 62
7
  6
CONTINUOUS
 70
0
 71
3
 72
18
 73
14
 74
0
 42
0.0000001
 43
0.0000001
 44
0.0000000001
 40
0.0
 40
0.0
 40
0.0
 40
0.0
 40
0.2146940406
 40
0.4096049548
 40
0.5806600713
 40
0.724594022
 40
0.8393946102
 40
0.8853081724
 40
0.9233474088
 40
0.9534960966
 40
0.9758425584
 40
0.9907787491
 40
1.0
 40
1.0
 40
1.0
 40
1.0
 10
11.4508615591
 20
6.1728633792
 30
0.0
 10
11.4501491795
 20
6.1728633793
 30
0.0
 10
11.4487900425
 20
6.1728708083
 30
0.0
 10
11.446863621
 20
6.17290661
 30
0.0
 10
11.4451726238
 20
6.172965632
 30
0.0
 10
11.4437487604
 20
6.1730471335
 30
0.0
 10
11.442741475
 20
6.1731362317
 30
0.0
 10
11.4420875205
 20
6.1732224137
 30
0.0
 10
11.4417143476
 20
6.1732870819
 30
0.0
 10
11.441421276
 20
6.1733538763
 30
0.0
 10
11.4412088443
 20
6.1734269315
 30
0.0
 10
11.4410707302
 20
6.1734951371
 30
0.0
 10
11.4410190394
 20
6.1735690545
 30
0.0
 10
11.4410190394
 20
6.1735996517
 30
0.0
  0
SPLINE
  5
490
100
AcDbEntity
  8
0
100
AcDbSpline
 62
9
  6
CONTINUOUS
 70
0
 71
3
 72
13
 73
9
 74
0
 42
0.0000001
 43
0.0000001
 44
0.0000000001
 40
0.0
 40
0.0
 40
0.0
 40
0.0
 40
0.2180507225
 40
0.4632005954
 40
0.59515587
 40
0.7310943467
 40
0.8674227437
 40
1.0
 40
1.0
 40
1.0
 40
1.0
 10
11.6985105324
 20
6.1777297441
 30
0.0
 10
11.6996231037
 20
6.1778354311
 30
0.0
 10
11.7019431994
 20
6.1786000791
 30
0.0
 10
11.7043728942
 20
6.1805619812
 30
0.0
 10
11.7058741346
 20
6.1827367198
 30
0.0
 10
11.7067678343
 20
6.1846145563
 30
0.0
 10
11.7073843419
 20
6.1866024809
 30
0.0
 10
11.7076031359
 20
6.1879694704
 30
0.0
 10
11.7076557711
 20
6.1886469296
 30
0.0
  0
SPLINE
  5
491
100
AcDbEntity
  8
0
100
AcDbSpline
 62
9
  6
CONTINUOUS
 70
0
 71
3
 72
30
 73
26
 74
0
 42
0.0000001
 43
0.0000001
 44
0.0000000001
 40
0.0
 40
0.0
 40
0.0
 40
0.0
 40
0.0546213501
 40
0.1193388542
 40
0.271930506
 40
0.3559949844
 40
0.4424452586
 40
0.5290977486
 40
0.6137764021
 40
0.694350067
 40
0.7688170645
 40
0.8352912028
 40
0.8650188265
 40
0.8921430754
 40
0.9164888647
 40
0.9379214121
 40
0.9563111825
 40
0.9715312688
 40
0.9834892743
 40
0.9882340562
 40
0.9921535497
 40
0.9952506666
 40
0.9975384055
 40
0.9990612979
 40
1.0
 40
1.0
 40
1.0
 40
1.0
 10
11.7076575609
 20
6.1886467397
 30
0.0
 10
11.7058096781
 20
6.188671817
 30
0.0
 10
11.7017717962
 20
6.1886851355
 30
0.0
 10
11.6925715884
 20
6.1886006568
 30
0.0
 10
11.6823773313
 20
6.1883546854
 30
0.0
 10
11.6714515597
 20
6.1879869816
 30
0.0
 10
11.6627574961
 20
6.1876385757
 30
0.0
 10
11.6540450252
 20
6.1872352632
 30
0.0
 10
11.6455337961
 20
6.1867878536
 30
0.0
 10
11.6374373352
 20
6.1863073266
 30
0.0
 10
11.6299592904
 20
6.185806687
 30
0.0
 10
11.6242014434
 20
6.1853683073
 30
0.0
 10
11.6200439567
 20
6.1850131695
 30
0.0
 10
11.6173084107
 20
6.1847597323
 30
0.0
 10
11.6148543897
 20
6.1845107551
 30
0.0
 10
11.6126968924
 20
6.1842680622
 30
0.0
 10
11.6108493067
 20
6.1840336105
 30
0.0
 10
11.6093239254
 20
6.1838090002
 30
0.0
 10
11.6082601062
 20
6.1836203214
 30
0.0
 10
11.607578542
 20
6.1834704086
 30
0.0
 10
11.6071934059
 20
6.1833698406
 30
0.0
 10
11.606893051
 20
6.1832748442
 30
0.0
 10
11.606678185
 20
6.1831807529
 30
0.0
 10
11.6065403502
 20
6.1830983993
 30
0.0
 10
11.6064935623
 20
6.1830171472
 30
0.0
 10
11.6064963081
 20
6.1829855061
 30
0.0
  0
SPLINE
  5
492
100
AcDbEntity
  8
0
100
AcDbSpline
 62
9
  6
CONTINUOUS
 70
0
 71
3
 72
36
 73
32
 74
0
 42
0.0000001
 43
0.0000001
 44
0.0000000001
 40
0.0
 40
0.0
 40
0.0
 40
0.0
 40
0.0673499348
 40
0.0958903993
 40
0.1209545702
 40
0.1425062159
 40
0.1605146036
 40
0.1749601263
 40
0.1858493193
 40
0.1932659955
 40
0.1957841902
 40
0.1976822799
 40
0.1993150876
 40
0.2012028799
 40
0.2037185407
 40
0.2070341618
 40
0.2112283554
 40
0.2163426122
 40
0.2294145901
 40
0.2462784259
 40
0.2668461223
 40
0.2910106243
 40
0.3186568835
 40
0.3496657747
 40
0.3839158843
 40
0.4616470848
 40
0.5508601974
 40
0.6505571935
 40
0.7596982622
 40
0.8767813827
 40
1.0
 40
1.0
 40
1.0
 40
1.0
 10
11.6267485143
 20
6.17126223
 30
0.0
 10
11.625867818
 20
6.1712773677
 30
0.0
 10
11.6246139821
 20
6.171309245
 30
0.0
 10
11.6230337595
 20
6.1713831715
 30
0.0
 10
11.622052811
 20
6.1714460262
 30
0.0
 10
11.6212106128
 20
6.171518788
 30
0.0
 10
11.6205091509
 20
6.1716010363
 30
0.0
 10
11.6199487948
 20
6.1716914651
 30
0.0
 10
11.6195325449
 20
6.1717900109
 30
0.0
 10
11.6192735727
 20
6.171884212
 30
0.0
 10
11.6191462965
 20
6.171973519
 30
0.0
 10
11.6190964466
 20
6.1720386446
 30
0.0
 10
11.6190915592
 20
6.1721137872
 30
0.0
 10
11.6191333379
 20
6.1721843398
 30
0.0
 10
11.619209324
 20
6.1722515316
 30
0.0
 10
11.61932147
 20
6.172320423
 30
0.0
 10
11.6194708011
 20
6.1723912108
 30
0.0
 10
11.6197438047
 20
6.1724972923
 30
0.0
 10
11.6201833704
 20
6.172629178
 30
0.0
 10
11.6208251446
 20
6.1727857493
 30
0.0
 10
11.6216140995
 20
6.1729492476
 30
0.0
 10
11.6225454132
 20
6.1731189265
 30
0.0
 10
11.6236143976
 20
6.1732938001
 30
0.0
 10
11.624816169
 20
6.1734731358
 30
0.0
 10
11.6266688166
 20
6.1737280936
 30
0.0
 10
11.6292805964
 20
6.1740490243
 30
0.0
 10
11.6327473435
 20
6.1744271168
 30
0.0
 10
11.6366268837
 20
6.1748069441
 30
0.0
 10
11.6408728958
 20
6.1751822404
 30
0.0
 10
11.6454283682
 20
6.1755485487
 30
0.0
 10
11.6485626738
 20
6.1757791457
 30
0.0
 10
11.6501701782
 20
6.1758925097
 30
0.0
  0
LINE
  5
493
100
AcDbEntity
  8
0
100
AcDbLine
 62
9
  6
CONTINUOUS
 10
11.6815565888
 20
6.1775138037
 11
11.698508639
 21
6.1777295639
  0
SPLINE
  5
494
100
AcDbEntity
  8
0
100
AcDbSpline
 62
9
  6
CONTINUOUS
 70
0
 71
3
 72
33
 73
29
 74
0
 42
0.0000001
 43
0.0000001
 44
0.0000000001
 40
0.0
 40
0.0
 40
0.0
 40
0.0
 40
0.0831027005
 40
0.1523163927
 40
0.2073839959
 40
0.2295461181
 40
0.2481011724
 40
0.2630477832
 40
0.2744200099
 40
0.2823517536
 40
0.2873526171
 40
0.2893408073
 40
0.2915221858
 40
0.294254903
 40
0.2977346118
 40
0.3072751475
 40
0.3205365801
 40
0.3376503072
 40
0.3585899443
 40
0.38327714
 40
0.4116214867
 40
0.4435264287
 40
0.4788919583
 40
0.5595942294
 40
0.6528993286
 40
0.7579664463
 40
0.8739495945
 40
1.0
 40
1.0
 40
1.0
 40
1.0
 10
11.6985085244
 20
6.1777295537
 30
0.0
 10
11.6992521003
 20
6.1777165665
 30
0.0
 10
11.7006148811
 20
6.1776829342
 30
0.0
 10
11.7024689122
 20
6.1775978926
 30
0.0
 10
11.7037761874
 20
6.1774991127
 30
0.0
 10
11.7046277186
 20
6.1774005153
 30
0.0
 10
11.7051205078
 20
6.1773254591
 30
0.0
 10
11.7055137439
 20
6.1772455085
 30
0.0
 10
11.7058097503
 20
6.1771586753
 30
0.0
 10
11.7060066321
 20
6.177071697
 30
0.0
 10
11.706113925
 20
6.1769747104
 30
0.0
 10
11.7061227618
 20
6.1768892623
 30
0.0
 10
11.7060971203
 20
6.1768309555
 30
0.0
 10
11.7060463444
 20
6.1767747439
 30
0.0
 10
11.7059329582
 20
6.1766900312
 30
0.0
 10
11.7057198568
 20
6.1765871554
 30
0.0
 10
11.7053836373
 20
6.176466443
 30
0.0
 10
11.7049417098
 20
6.1763403488
 30
0.0
 10
11.7043958364
 20
6.1762087271
 30
0.0
 10
11.7037479605
 20
6.1760724271
 30
0.0
 10
11.7030009216
 20
6.1759319246
 30
0.0
 10
11.7021574669
 20
6.1757877158
 30
0.0
 10
11.7008493151
 20
6.1755819024
 30
0.0
 10
11.698993657
 20
6.1753217187
 30
0.0
 10
11.6965153274
 20
6.1750127716
 30
0.0
 10
11.6937197147
 20
6.1746983651
 30
0.0
 10
11.6906296462
 20
6.1743816447
 30
0.0
 10
11.6884731488
 20
6.1741790305
 30
0.0
 10
11.6873496903
 20
6.1740775768
 30
0.0
  0
SPLINE
  5
495
100
AcDbEntity
  8
0
100
AcDbSpline
 62
9
  6
CONTINUOUS
 70
0
 71
3
 72
10
 73
6
 74
0
 42
0.0000001
 43
0.0000001
 44
0.0000000001
 40
0.0
 40
0.0
 40
0.0
 40
0.0
 40
0.5598086805
 40
0.7982552944
 40
1.0
 40
1.0
 40
1.0
 40
1.0
 10
11.6483004052
 20
6.1716393622
 30
0.0
 10
11.6442806405
 20
6.1714867673
 30
0.0
 10
11.6385466166
 20
6.1713131428
 30
0.0
 10
11.6313612397
 20
6.1712261969
 30
0.0
 10
11.6281978712
 20
6.171237476
 30
0.0
 10
11.62674839
 20
6.1712622189
 30
0.0
  0
SPLINE
  5
496
100
AcDbEntity
  8
0
100
AcDbSpline
 62
7
  6
CONTINUOUS
 70
0
 71
3
 72
14
 73
10
 74
0
 42
0.0000001
 43
0.0000001
 44
0.0000000001
 40
0.0
 40
0.0
 40
0.0
 40
0.0
 40
0.4229744048
 40
0.7328409519
 40
0.843240556
 40
0.9235205031
 40
0.9525175095
 40
0.9743829278
 40
1.0
 40
1.0
 40
1.0
 40
1.0
 10
11.6455059786
 20
6.1728791759
 30
0.0
 10
11.645009605
 20
6.1728877347
 30
0.0
 10
11.6441496838
 20
6.1729117961
 30
0.0
 10
11.6431614876
 20
6.1729709
 30
0.0
 10
11.642577669
 20
6.1730433549
 30
0.0
 10
11.6423247889
 20
6.1730900568
 30
0.0
 10
11.6421760123
 20
6.1731369615
 30
0.0
 10
11.6420969061
 20
6.1731706912
 30
0.0
 10
11.6420442888
 20
6.1732147847
 30
0.0
 10
11.6420442888
 20
6.1732448516
 30
0.0
  0
LINE
  5
497
100
AcDbEntity
  8
0
100
AcDbLine
 62
7
  6
CONTINUOUS
 10
10.8920204486
 20
6.1559059958
 11
10.8852733757
 21
6.1561752143
  0
SPLINE
  5
498
100
AcDbEntity
  8
0
100
AcDbSpline
 62
7
  6
CONTINUOUS
 70
0
 71
3
 72
16
 73
12
 74
0
 42
0.0000001
 43
0.0000001
 44
0.0000000001
 40
0.0
 40
0.0
 40
0.0
 40
0.0
 40
0.2204755258
 40
0.4172229112
 40
0.5880449123
 40
0.7307692895
 40
0.843741965
 40
0.9261206751
 40
0.9774143501
 40
0.9917228892
 40
1.0
 40
1.0
 40
1.0
 40
1.0
 10
10.8852733757
 20
6.1561752143
 30
0.0
 10
10.88476388
 20
6.1562026809
 30
0.0
 10
10.8837999205
 20
6.1562586749
 30
0.0
 10
10.8824422388
 20
6.1563518746
 30
0.0
 10
10.8812651016
 20
6.1564485554
 30
0.0
 10
10.8802831993
 20
6.1565471623
 30
0.0
 10
10.879506221
 20
6.1566468706
 30
0.0
 10
10.8789452813
 20
6.1567432729
 30
0.0
 10
10.8786099038
 20
6.1568310398
 30
0.0
 10
10.8784571119
 20
6.1569034606
 30
0.0
 10
10.8784203743
 20
6.1569502476
 30
0.0
 10
10.8784205581
 20
6.156969402
 30
0.0
  0
SPLINE
  5
499
100
AcDbEntity
  8
0
100
AcDbSpline
 62
9
  6
CONTINUOUS
 70
0
 71
3
 72
13
 73
9
 74
0
 42
0.0000001
 43
0.0000001
 44
0.0000000001
 40
0.0
 40
0.0
 40
0.0
 40
0.0
 40
0.1107682261
 40
0.2286054781
 40
0.4774129265
 40
0.6080086517
 40
0.7408545691
 40
1.0
 40
1.0
 40
1.0
 40
1.0
 10
11.8740301844
 20
6.1777448593
 30
0.0
 10
11.8746169908
 20
6.1777958558
 30
0.0
 10
11.875819681
 20
6.1780270963
 30
0.0
 10
11.8781969955
 20
6.178940044
 30
0.0
 10
11.8803900446
 20
6.1805472786
 30
0.0
 10
11.8820283803
 20
6.1827414708
 30
0.0
 10
11.8832965661
 20
6.1852222986
 30
0.0
 10
11.8838201113
 20
6.1872878449
 30
0.0
 10
11.8839227098
 20
6.1886620451
 30
0.0
  0
LINE
  5
49A
100
AcDbEntity
  8
0
100
AcDbLine
 62
9
  6
CONTINUOUS
 10
11.8839246724
 20
6.1886618548
 11
11.8741086334
 21
6.1883715204
  0
SPLINE
  5
49B
100
AcDbEntity
  8
0
100
AcDbSpline
 62
9
  6
CONTINUOUS
 70
0
 71
3
 72
30
 73
26
 74
0
 42
0.0000001
 43
0.0000001
 44
0.0000000001
 40
0.0
 40
0.0
 40
0.0
 40
0.0
 40
0.1355705011
 40
0.296174758
 40
0.3814878581
 40
0.4676471981
 40
0.5527460159
 40
0.6349214943
 40
0.7123476241
 40
0.7833281846
 40
0.8159074873
 40
0.8462892211
 40
0.8743146241
 40
0.8998366062
 40
0.9227081855
 40
0.9427860943
 40
0.9599662693
 40
0.9741691358
 40
0.9853164752
 40
0.9897206356
 40
0.9933342791
 40
0.9961563135
 40
0.9981898349
 40
0.9994468298
 40
1.0
 40
1.0
 40
1.0
 40
1.0
 10
11.8741086334
 20
6.1883715204
 30
0.0
 10
11.869778239
 20
6.1882119888
 30
0.0
 10
11.860319944
 20
6.187806476
 30
0.0
 10
11.8481409547
 20
6.187205574
 30
0.0
 10
11.8375416595
 20
6.1866393973
 30
0.0
 10
11.82935356
 20
6.1861801021
 30
0.0
 10
11.8212668323
 20
6.185704842
 30
0.0
 10
11.8134600726
 20
6.1852242752
 30
0.0
 10
11.8061051498
 20
6.1847489447
 30
0.0
 10
11.8003335439
 20
6.1843555845
 30
0.0
 10
11.7960631735
 20
6.1840502851
 30
0.0
 10
11.7931628417
 20
6.1838356239
 30
0.0
 10
11.7904880532
 20
6.1836298994
 30
0.0
 10
11.7880532644
 20
6.1834342719
 30
0.0
 10
11.7858724302
 20
6.1832499039
 30
0.0
 10
11.7839581909
 20
6.1830778087
 30
0.0
 10
11.7823209172
 20
6.1829190788
 30
0.0
 10
11.7809692812
 20
6.1827748012
 30
0.0
 10
11.7800247566
 20
6.1826603254
 30
0.0
 10
11.779418646
 20
6.1825745857
 30
0.0
 10
11.7790756314
 20
6.1825189037
 30
0.0
 10
11.7788120121
 20
6.1824698255
 30
0.0
 10
11.7786164416
 20
6.1824208301
 30
0.0
 10
11.7785099626
 20
6.1823876729
 30
0.0
 10
11.7784476974
 20
6.1823484795
 30
0.0
 10
11.7784490832
 20
6.1823308526
 30
0.0
  0
SPLINE
  5
49C
100
AcDbEntity
  8
0
100
AcDbSpline
 62
9
  6
CONTINUOUS
 70
0
 71
3
 72
37
 73
33
 74
0
 42
0.0000001
 43
0.0000001
 44
0.0000000001
 40
0.0
 40
0.0
 40
0.0
 40
0.0
 40
0.0300246009
 40
0.0565953743
 40
0.0797066812
 40
0.0993538917
 40
0.1155342596
 40
0.1282489903
 40
0.1375091827
 40
0.1433592395
 40
0.1450678507
 40
0.1461104537
 40
0.1470055267
 40
0.1484431467
 40
0.1506542122
 40
0.1536992642
 40
0.1576008487
 40
0.1623699045
 40
0.1745329791
 40
0.190219831
 40
0.209447975
 40
0.2322303163
 40
0.2585597511
 40
0.2883422866
 40
0.3214574992
 40
0.3577844925
 40
0.4395887404
 40
0.5327837403
 40
0.6363964296
 40
0.749452945
 40
0.8709789838
 40
1.0
 40
1.0
 40
1.0
 40
1.0
 10
11.8740279853
 20
6.1777446684
 30
0.0
 10
11.8743178203
 20
6.1777512731
 30
0.0
 10
11.8748641872
 20
6.177762087
 30
0.0
 10
11.8756337797
 20
6.1777713001
 30
0.0
 10
11.8763031899
 20
6.1777726668
 30
0.0
 10
11.8768723618
 20
6.1777663584
 30
0.0
 10
11.8773406707
 20
6.1777526225
 30
0.0
 10
11.8777091901
 20
6.1777318035
 30
0.0
 10
11.8779751839
 20
6.1777047001
 30
0.0
 10
11.8781377371
 20
6.1776744838
 30
0.0
 10
11.8782130288
 20
6.1776441273
 30
0.0
 10
11.8782427109
 20
6.1776171754
 30
0.0
 10
11.8782308219
 20
6.1775816902
 30
0.0
 10
11.8781931122
 20
6.1775575099
 30
0.0
 10
11.8781354091
 20
6.1775289291
 30
0.0
 10
11.8780516709
 20
6.1774995799
 30
0.0
 10
11.877943205
 20
6.1774676647
 30
0.0
 10
11.8777479759
 20
6.1774188062
 30
0.0
 10
11.8774394525
 20
6.177355099
 30
0.0
 10
11.8769917515
 20
6.177276128
 30
0.0
 10
11.8764412895
 20
6.1771901461
 30
0.0
 10
11.8757879607
 20
6.1770973323
 30
0.0
 10
11.8750326647
 20
6.176998039
 30
0.0
 10
11.8741775959
 20
6.1768924566
 30
0.0
 10
11.8732260136
 20
6.1767809351
 30
0.0
 10
11.871774697
 20
6.176618271
 30
0.0
 10
11.8697454366
 20
6.1764040613
 30
0.0
 10
11.8670684228
 20
6.1761378237
 30
0.0
 10
11.8640897334
 20
6.1758560888
 30
0.0
 10
11.8608374978
 20
6.1755616304
 30
0.0
 10
11.8573398449
 20
6.1752572296
 30
0.0
 10
11.8549290843
 20
6.1750550259
 30
0.0
 10
11.8536875016
 20
6.1749526575
 30
0.0
  0
LINE
  5
49D
100
AcDbEntity
  8
0
100
AcDbLine
 62
9
  6
CONTINUOUS
 10
11.8269715169
 20
6.1729655504
 11
11.8036911797
 21
6.1715935479
  0
LINE
  5
49E
100
AcDbEntity
  8
0
100
AcDbLine
 62
9
  6
CONTINUOUS
 10
11.8036911797
 20
6.1715935479
 11
11.8030024363
 21
6.1715610596
  0
LINE
  5
49F
100
AcDbEntity
  8
0
100
AcDbLine
 62
9
  6
CONTINUOUS
 10
11.8030024363
 20
6.1715610596
 11
11.795436947
 21
6.1712771366
  0
SPLINE
  5
4A0
100
AcDbEntity
  8
0
100
AcDbSpline
 62
9
  6
CONTINUOUS
 70
0
 71
3
 72
35
 73
31
 74
0
 42
0.0000001
 43
0.0000001
 44
0.0000000001
 40
0.0
 40
0.0
 40
0.0
 40
0.0
 40
0.0244205454
 40
0.0454148043
 40
0.0629763116
 40
0.0771005189
 40
0.0828735188
 40
0.0877879137
 40
0.0918458008
 40
0.0950518821
 40
0.0974171991
 40
0.098972733
 40
0.0998443882
 40
0.1006324045
 40
0.1020498704
 40
0.104270338
 40
0.1073347715
 40
0.1112585495
 40
0.1160494076
 40
0.1217120598
 40
0.1356648456
 40
0.1741324687
 40
0.2263158678
 40
0.2572174942
 40
0.2911340353
 40
0.367435554
 40
0.4540669562
 40
0.5498734377
 40
0.7643639435
 40
1.0
 40
1.0
 40
1.0
 40
1.0
 10
11.7954370704
 20
6.1712771467
 30
0.0
 10
11.7950945245
 20
6.1712694187
 30
0.0
 10
11.7944574371
 20
6.1712573122
 30
0.0
 10
11.793573865
 20
6.1712491645
 30
0.0
 10
11.792834716
 20
6.1712522004
 30
0.0
 10
11.7923092392
 20
6.1712641414
 30
0.0
 10
11.791961462
 20
6.171280622
 30
0.0
 10
11.7917551023
 20
6.1712946667
 30
0.0
 10
11.7915848407
 20
6.1713115897
 30
0.0
 10
11.7914514765
 20
6.1713299617
 30
0.0
 10
11.7913525216
 20
6.1713527172
 30
0.0
 10
11.791291165
 20
6.1713723799
 30
0.0
 10
11.7912501017
 20
6.1714072895
 30
0.0
 10
11.7912755952
 20
6.1714519401
 30
0.0
 10
11.7913309476
 20
6.1714787901
 30
0.0
 10
11.7914180844
 20
6.1715152781
 30
0.0
 10
11.7915421296
 20
6.1715516059
 30
0.0
 10
11.7917023836
 20
6.1715921207
 30
0.0
 10
11.791899566
 20
6.1716348124
 30
0.0
 10
11.7922357382
 20
6.1717000784
 30
0.0
 10
11.7930396456
 20
6.1718343757
 30
0.0
 10
11.7944940858
 20
6.1720323443
 30
0.0
 10
11.7961876911
 20
6.1722331205
 30
0.0
 10
11.797819369
 20
6.1724133618
 30
0.0
 10
11.7997883868
 20
6.1726215053
 30
0.0
 10
11.8025366924
 20
6.1728954562
 30
0.0
 10
11.8061510409
 20
6.1732350138
 30
0.0
 10
11.8116981116
 20
6.1737302172
 30
0.0
 10
11.8193315981
 20
6.174364573
 30
0.0
 10
11.8256285643
 20
6.1748486831
 30
0.0
 10
11.8289255672
 20
6.1750937451
 30
0.0
  0
LINE
  5
4A1
100
AcDbEntity
  8
0
100
AcDbLine
 62
9
  6
CONTINUOUS
 10
11.8552919789
 20
6.1768629346
 11
11.8740281226
 21
6.1777446797
  0
SPLINE
  5
4A2
100
AcDbEntity
  8
0
100
AcDbSpline
 62
7
  6
CONTINUOUS
 70
0
 71
3
 72
10
 73
6
 74
0
 42
0.0000001
 43
0.0000001
 44
0.0000000001
 40
0.0
 40
0.0
 40
0.0
 40
0.0
 40
0.5676177234
 40
0.8036175959
 40
1.0
 40
1.0
 40
1.0
 40
1.0
 10
10.9140171834
 20
6.1547613341
 30
0.0
 10
10.9177474569
 20
6.1547839483
 30
0.0
 10
10.9230288585
 20
6.1548544482
 30
0.0
 10
10.9295974307
 20
6.1550685409
 30
0.0
 10
10.9324358623
 20
6.1552079951
 30
0.0
 10
10.9337238804
 20
6.1552897608
 30
0.0
  0
SPLINE
  5
4A3
100
AcDbEntity
  8
0
100
AcDbSpline
 62
7
  6
CONTINUOUS
 70
0
 71
3
 72
31
 73
27
 74
0
 42
0.0000001
 43
0.0000001
 44
0.0000000001
 40
0.0
 40
0.0
 40
0.0
 40
0.0
 40
0.0973398256
 40
0.1808497347
 40
0.2501012316
 40
0.2792550422
 40
0.3046995133
 40
0.326404903
 40
0.3443843704
 40
0.3586844881
 40
0.3694128894
 40
0.37685308
 40
0.3819075404
 40
0.3870020342
 40
0.3945424843
 40
0.405423105
 40
0.4199061322
 40
0.4380729693
 40
0.459944947
 40
0.4855180252
 40
0.5147757546
 40
0.5842464038
 40
0.6680770896
 40
0.7657244084
 40
0.8765729986
 40
1.0
 40
1.0
 40
1.0
 40
1.0
 10
10.9337238804
 20
6.1552897608
 30
0.0
 10
10.9342590358
 20
6.1553237334
 30
0.0
 10
10.9352529517
 20
6.155393016
 30
0.0
 10
10.9366255828
 20
6.1555127543
 30
0.0
 10
10.9376217826
 20
6.1556234036
 30
0.0
 10
10.9382974809
 20
6.1557182663
 30
0.0
 10
10.9387122541
 20
6.155786776
 30
0.0
 10
10.9390643042
 20
6.1558565076
 30
0.0
 10
10.9393531849
 20
6.1559275701
 30
0.0
 10
10.939579555
 20
6.1559985977
 30
0.0
 10
10.9397432654
 20
6.1560719415
 30
0.0
 10
10.9398508472
 20
6.1561427145
 30
0.0
 10
10.9399005991
 20
6.1562375537
 30
0.0
 10
10.9398510455
 20
6.1563331053
 30
0.0
 10
10.939743649
 20
6.1564066398
 30
0.0
 10
10.939579205
 20
6.1564843352
 30
0.0
 10
10.9393518495
 20
6.1565614464
 30
0.0
 10
10.9390619181
 20
6.1566402994
 30
0.0
 10
10.9387091718
 20
6.1567195453
 30
0.0
 10
10.9382941748
 20
6.1567993056
 30
0.0
 10
10.9376187743
 20
6.1569124471
 30
0.0
 10
10.9366223603
 20
6.1570500712
 30
0.0
 10
10.9352487446
 20
6.1572066848
 30
0.0
 10
10.9336457525
 20
6.157361548
 30
0.0
 10
10.9318235249
 20
6.1575135748
 30
0.0
 10
10.9305363223
 20
6.1576073983
 30
0.0
 10
10.9298579789
 20
6.15765402
 30
0.0
  0
SPLINE
  5
4A4
100
AcDbEntity
  8
0
100
AcDbSpline
 62
7
  6
CONTINUOUS
 70
0
 71
3
 72
9
 73
5
 74
0
 42
0.0000001
 43
0.0000001
 44
0.0000000001
 40
0.0
 40
0.0
 40
0.0
 40
0.0
 40
0.4515338926
 40
1.0
 40
1.0
 40
1.0
 40
1.0
 10
10.9298579789
 20
6.15765402
 30
0.0
 10
10.9265359687
 20
6.1578823377
 30
0.0
 10
10.9191698239
 20
6.1582542554
 30
0.0
 10
10.9117989022
 20
6.158491451
 30
0.0
 10
10.9077554782
 20
6.1585920709
 30
0.0
  0
SPLINE
  5
4A5
100
AcDbEntity
  8
0
100
AcDbSpline
 62
7
  6
CONTINUOUS
 70
0
 71
3
 72
10
 73
6
 74
0
 42
0.0000001
 43
0.0000001
 44
0.0000000001
 40
0.0
 40
0.0
 40
0.0
 40
0.0
 40
0.5672444307
 40
0.8033308456
 40
1.0
 40
1.0
 40
1.0
 40
1.0
 10
10.8818467833
 20
6.158847137
 30
0.0
 10
10.8781155377
 20
6.1588247245
 30
0.0
 10
10.872831172
 20
6.1587544915
 30
0.0
 10
10.8662565343
 20
6.1585412208
 30
0.0
 10
10.8634130117
 20
6.15840224
 30
0.0
 10
10.8621218962
 20
6.1583207855
 30
0.0
  0
SPLINE
  5
4A6
100
AcDbEntity
  8
0
100
AcDbSpline
 62
7
  6
CONTINUOUS
 70
0
 71
3
 72
31
 73
27
 74
0
 42
0.0000001
 43
0.0000001
 44
0.0000000001
 40
0.0
 40
0.0
 40
0.0
 40
0.0
 40
0.0980824908
 40
0.1823426465
 40
0.2523473357
 40
0.2818771217
 40
0.307696015
 40
0.3297730529
 40
0.3481194913
 40
0.3627782842
 40
0.373848523
 40
0.3815875376
 40
0.3868027619
 40
0.3917789023
 40
0.3990505572
 40
0.4096188027
 40
0.4237767942
 40
0.4416162687
 40
0.4631630867
 40
0.4884157151
 40
0.517359371
 40
0.586225796
 40
0.6694898594
 40
0.7666141395
 40
0.8769897326
 40
1.0
 40
1.0
 40
1.0
 40
1.0
 10
10.8621218962
 20
6.1583207855
 30
0.0
 10
10.8615851356
 20
6.158286922
 30
0.0
 10
10.8605876146
 20
6.1582178386
 30
0.0
 10
10.8592089773
 20
6.1580984972
 30
0.0
 10
10.858207028
 20
6.1579882303
 30
0.0
 10
10.8575261418
 20
6.1578937335
 30
0.0
 10
10.8571070615
 20
6.1578254303
 30
0.0
 10
10.8567504713
 20
6.1577558884
 30
0.0
 10
10.856456705
 20
6.157685016
 30
0.0
 10
10.8562255079
 20
6.1576141092
 30
0.0
 10
10.856056245
 20
6.1575409778
 30
0.0
 10
10.8559449446
 20
6.1574705662
 30
0.0
 10
10.8558875425
 20
6.1573787872
 30
0.0
 10
10.8559285042
 20
6.1572810087
 30
0.0
 10
10.8560315034
 20
6.1572071293
 30
0.0
 10
10.8561892057
 20
6.1571297429
 30
0.0
 10
10.8564100963
 20
6.1570528648
 30
0.0
 10
10.856693025
 20
6.1569742492
 30
0.0
 10
10.8570386664
 20
6.1568952089
 30
0.0
 10
10.8574463445
 20
6.1568156388
 30
0.0
 10
10.8581116813
 20
6.1567026593
 30
0.0
 10
10.85909522
 20
6.1565652719
 30
0.0
 10
10.8604530915
 20
6.1564089314
 30
0.0
 10
10.8620400214
 20
6.1562542783
 30
0.0
 10
10.8638460105
 20
6.1561023967
 30
0.0
 10
10.86512235
 20
6.1560086647
 30
0.0
 10
10.8657952563
 20
6.1559620739
 30
0.0
  0
SPLINE
  5
4A7
100
AcDbEntity
  8
0
100
AcDbSpline
 62
7
  6
CONTINUOUS
 70
0
 71
3
 72
9
 73
5
 74
0
 42
0.0000001
 43
0.0000001
 44
0.0000000001
 40
0.0
 40
0.0
 40
0.0
 40
0.0
 40
0.450844717
 40
1.0
 40
1.0
 40
1.0
 40
1.0
 10
10.8657952563
 20
6.1559620739
 30
0.0
 10
10.869135015
 20
6.1557308352
 30
0.0
 10
10.8765520737
 20
6.155355281
 30
0.0
 10
10.8839739647
 20
6.1551165562
 30
0.0
 10
10.8880504712
 20
6.1550154148
 30
0.0
  0
SPLINE
  5
4A8
100
AcDbEntity
  8
0
100
AcDbSpline
 62
9
  6
CONTINUOUS
 70
0
 71
3
 72
19
 73
15
 74
0
 42
0.0000001
 43
0.0000001
 44
0.0000000001
 40
0.0
 40
0.0
 40
0.0
 40
0.0
 40
0.2221879506
 40
0.4203311776
 40
0.5920486161
 40
0.7351987628
 40
0.8483366991
 40
0.9301967707
 40
0.9591143488
 40
0.9705763539
 40
0.9800611726
 40
0.9876053502
 40
0.9932878205
 40
1.0
 40
1.0
 40
1.0
 40
1.0
 10
10.8630768067
 20
6.1696115707
 30
0.0
 10
10.861666107
 20
6.1695822294
 30
0.0
 10
10.8589975395
 20
6.1695180878
 30
0.0
 10
10.8552396225
 20
6.1693969224
 30
0.0
 10
10.8519846884
 20
6.1692575946
 30
0.0
 10
10.8492708286
 20
6.1691024467
 30
0.0
 10
10.847130108
 20
6.1689335679
 30
0.0
 10
10.8457160115
 20
6.16877506
 30
0.0
 10
10.8449511044
 20
6.1686414655
 30
0.0
 10
10.8446424763
 20
6.1685688517
 30
0.0
 10
10.8444690718
 20
6.1685191656
 30
0.0
 10
10.844332388
 20
6.1684670375
 30
0.0
 10
10.8442234741
 20
6.1684131192
 30
0.0
 10
10.8441545252
 20
6.1683449201
 30
0.0
 10
10.8441576156
 20
6.1683024066
 30
0.0
  0
LINE
  5
4A9
100
AcDbEntity
  8
0
100
AcDbLine
 62
7
  6
CONTINUOUS
 10
11.8158576926
 20
6.1728941908
 11
11.8139397812
 21
6.1729536716
  0
LINE
  5
4AA
100
AcDbEntity
  8
0
100
AcDbLine
 62
7
  6
CONTINUOUS
 10
10.900867889
 20
6.1464979881
 11
10.8996804568
 21
6.1466463565
  0
LINE
  5
4AB
100
AcDbEntity
  8
0
100
AcDbLine
 62
9
  6
CONTINUOUS
 10
11.4679300313
 20
6.1697578066
 11
11.4563295654
 21
6.1697840798
  0
SPLINE
  5
4AC
100
AcDbEntity
  8
0
100
AcDbSpline
 62
9
  6
CONTINUOUS
 70
0
 71
3
 72
25
 73
21
 74
0
 42
0.0000001
 43
0.0000001
 44
0.0000000001
 40
0.0
 40
0.0
 40
0.0
 40
0.0
 40
0.1934935851
 40
0.3803116851
 40
0.4688818858
 40
0.5530479685
 40
0.6319422752
 40
0.7048007145
 40
0.7709185839
 40
0.8295996451
 40
0.880271877
 40
0.9224687892
 40
0.9557348228
 40
0.9689097942
 40
0.9797527139
 40
0.9882503308
 40
0.9943990985
 40
0.9966006816
 40
0.9982353032
 40
1.0
 40
1.0
 40
1.0
 40
1.0
 10
11.4249291996
 20
6.1692568451
 30
0.0
 10
11.4213516864
 20
6.1691647734
 30
0.0
 10
11.4143205601
 20
6.1689647659
 30
0.0
 10
11.4056534515
 20
6.1686703876
 30
0.0
 10
11.3990084032
 20
6.1684129731
 30
0.0
 10
11.3943585707
 20
6.1682169549
 30
0.0
 10
11.3899998127
 20
6.1680163354
 30
0.0
 10
11.3859753642
 20
6.1678132245
 30
0.0
 10
11.3823252945
 20
6.1676099126
 30
0.0
 10
11.3790861605
 20
6.1674083387
 30
0.0
 10
11.376290138
 20
6.1672108808
 30
0.0
 10
11.3739650022
 20
6.1670197747
 30
0.0
 10
11.3723334881
 20
6.166858687
 30
0.0
 10
11.3712817098
 20
6.166729378
 30
0.0
 10
11.3706867749
 20
6.1666436076
 30
0.0
 10
11.3702216683
 20
6.1665602824
 30
0.0
 10
11.3699196777
 20
6.1664914101
 30
0.0
 10
11.369741399
 20
6.1664313036
 30
0.0
 10
11.3696524255
 20
6.1663922774
 30
0.0
 10
11.3695871475
 20
6.1663448028
 30
0.0
 10
11.3695894605
 20
6.1663122465
 30
0.0
  0
LINE
  5
4AD
100
AcDbEntity
  8
0
100
AcDbLine
 62
7
  6
CONTINUOUS
 10
11.4585230194
 20
6.1588190886
 11
11.4494735819
 21
6.1588471339
  0
SPLINE
  5
4AE
100
AcDbEntity
  8
0
100
AcDbSpline
 62
7
  6
CONTINUOUS
 70
0
 71
3
 72
37
 73
33
 74
0
 42
0.0000001
 43
0.0000001
 44
0.0000000001
 40
0.0
 40
0.0
 40
0.0
 40
0.0
 40
0.123409487
 40
0.2407828377
 40
0.3504682946
 40
0.4509376601
 40
0.540846906
 40
0.6188943002
 40
0.6531365177
 40
0.6840443893
 40
0.7115093159
 40
0.7354239089
 40
0.7556975799
 40
0.7722890673
 40
0.7791963051
 40
0.7851752786
 40
0.7902265726
 40
0.7943547687
 40
0.7975730489
 40
0.7999164679
 40
0.8014898216
 40
0.8026470126
 40
0.8040902871
 40
0.8062561781
 40
0.813201546
 40
0.8238329425
 40
0.838201542
 40
0.8563118105
 40
0.8781160385
 40
0.9035047706
 40
0.9323610047
 40
1.0
 40
1.0
 40
1.0
 40
1.0
 10
11.412058773
 20
6.1578197544
 30
0.0
 10
11.4105053143
 20
6.1577508403
 30
0.0
 10
11.407474671
 20
6.1576096755
 30
0.0
 10
11.4030645027
 20
6.1573828876
 30
0.0
 10
11.3989442138
 20
6.1571485055
 30
0.0
 10
11.3951708557
 20
6.1569097407
 30
0.0
 10
11.3917970749
 20
6.1566703734
 30
0.0
 10
11.3892575272
 20
6.1564652658
 30
0.0
 10
11.3874606819
 20
6.1563010288
 30
0.0
 10
11.3862994581
 20
6.1561852009
 30
0.0
 10
11.385268825
 20
6.1560717351
 30
0.0
 10
11.3843727401
 20
6.1559611378
 30
0.0
 10
11.3836144254
 20
6.1558537461
 30
0.0
 10
11.3830703071
 20
6.1557629182
 30
0.0
 10
11.3827059829
 20
6.1556904182
 30
0.0
 10
11.382485539
 20
6.1556405044
 30
0.0
 10
11.3823007234
 20
6.1555917868
 30
0.0
 10
11.3821519931
 20
6.1555443764
 30
0.0
 10
11.3820381071
 20
6.1554984733
 30
0.0
 10
11.3819608105
 20
6.1554539645
 30
0.0
 10
11.3819110077
 20
6.155408827
 30
0.0
 10
11.3819067933
 20
6.1553505143
 30
0.0
 10
11.3819531909
 20
6.1553054913
 30
0.0
 10
11.3820698878
 20
6.1552442418
 30
0.0
 10
11.3823138105
 20
6.1551800429
 30
0.0
 10
11.3827090945
 20
6.1551112834
 30
0.0
 10
11.3832493594
 20
6.1550474784
 30
0.0
 10
11.3839306001
 20
6.1549884827
 30
0.0
 10
11.3847518614
 20
6.1549354351
 30
0.0
 10
11.3857089404
 20
6.1548884113
 30
0.0
 10
11.3872436782
 20
6.1548312277
 30
0.0
 10
11.3884592878
 20
6.1548035417
 30
0.0
 10
11.3893114282
 20
6.1547889058
 30
0.0
  0
LINE
  5
4AF
100
AcDbEntity
  8
0
100
AcDbLine
 62
7
  6
CONTINUOUS
 10
11.3893103774
 20
6.1547888255
 11
11.4099505773
 21
6.1549343393
  0
SPLINE
  5
4B0
100
AcDbEntity
  8
0
100
AcDbSpline
 62
7
  6
CONTINUOUS
 70
0
 71
3
 72
35
 73
31
 74
0
 42
0.0000001
 43
0.0000001
 44
0.0000000001
 40
0.0
 40
0.0
 40
0.0
 40
0.0
 40
0.1271550633
 40
0.2442610693
 40
0.3502031565
 40
0.4439009269
 40
0.5245151993
 40
0.5596884257
 40
0.5913185816
 40
0.6193168127
 40
0.6436130713
 40
0.6641767005
 40
0.6809873602
 40
0.6940369544
 40
0.6991580798
 40
0.7033544889
 40
0.7066487444
 40
0.7090936799
 40
0.7108292761
 40
0.7122362894
 40
0.7139323012
 40
0.7163173451
 40
0.7236559923
 40
0.7346839285
 40
0.7494825105
 40
0.7680715993
 40
0.7904500248
 40
0.8463476404
 40
0.9164630019
 40
1.0
 40
1.0
 40
1.0
 40
1.0
 10
11.4476934976
 20
6.156393849
 30
0.0
 10
11.4487846113
 20
6.1564573876
 30
0.0
 10
11.4508803154
 20
6.156584572
 30
0.0
 10
11.4538838683
 20
6.1567843856
 30
0.0
 10
11.4565991699
 20
6.1569838762
 30
0.0
 10
11.4590000263
 20
6.1571812861
 30
0.0
 10
11.4607929066
 20
6.1573488653
 30
0.0
 10
11.4620530107
 20
6.1574822626
 30
0.0
 10
11.4628624908
 20
6.1575759456
 30
0.0
 10
11.4635780438
 20
6.157667601
 30
0.0
 10
11.464197908
 20
6.1577570255
 30
0.0
 10
11.464720919
 20
6.1578437763
 30
0.0
 10
11.4651462069
 20
6.157927633
 30
0.0
 10
11.4654385476
 20
6.1579989264
 30
0.0
 10
11.4656220279
 20
6.1580567314
 30
0.0
 10
11.4657232691
 20
6.1580955398
 30
0.0
 10
11.4658002072
 20
6.158133471
 30
0.0
 10
11.4658527317
 20
6.158170356
 30
0.0
 10
11.4658843673
 20
6.1582093855
 30
0.0
 10
11.4658841035
 20
6.1582544903
 30
0.0
 10
11.4658515977
 20
6.1582919221
 30
0.0
 10
11.4657682068
 20
6.1583436799
 30
0.0
 10
11.4655963062
 20
6.1583987372
 30
0.0
 10
11.4653181027
 20
6.1584581789
 30
0.0
 10
11.4649399763
 20
6.158514359
 30
0.0
 10
11.4644636635
 20
6.1585674911
 30
0.0
 10
11.4636339503
 20
6.1586383584
 30
0.0
 10
11.4623603572
 20
6.1587108981
 30
0.0
 10
11.4605603162
 20
6.1587770094
 30
0.0
 10
11.4592398838
 20
6.1588065198
 30
0.0
 10
11.4585219503
 20
6.1588190536
 30
0.0
  0
SPLINE
  5
4B1
100
AcDbEntity
  8
0
100
AcDbSpline
 62
7
  6
CONTINUOUS
 70
0
 71
3
 72
14
 73
10
 74
0
 42
0.0000001
 43
0.0000001
 44
0.0000000001
 40
0.0
 40
0.0
 40
0.0
 40
0.0
 40
0.4260898828
 40
0.5969029504
 40
0.7380320776
 40
0.8488830207
 40
0.929014368
 40
0.9785354546
 40
1.0
 40
1.0
 40
1.0
 40
1.0
 10
11.4071402801
 20
6.155760736
 30
0.0
 10
11.4066440561
 20
6.1557692778
 30
0.0
 10
11.4059486031
 20
6.1557859329
 30
0.0
 10
11.4050904969
 20
6.1558239519
 30
0.0
 10
11.4045974996
 20
6.1558558399
 30
0.0
 10
11.4042160921
 20
6.1558893009
 30
0.0
 10
11.4039294769
 20
6.1559318984
 30
0.0
 10
11.4037742914
 20
6.1559641141
 30
0.0
 10
11.4036785904
 20
6.1560103705
 30
0.0
 10
11.4036785904
 20
6.1560353717
 30
0.0
  0
SPLINE
  5
4B2
100
AcDbEntity
  8
0
100
AcDbSpline
 62
7
  6
CONTINUOUS
 70
0
 71
3
 72
19
 73
15
 74
0
 42
0.0000001
 43
0.0000001
 44
0.0000000001
 40
0.0
 40
0.0
 40
0.0
 40
0.0
 40
0.0066990412
 40
0.0212018321
 40
0.0443729751
 40
0.0763019911
 40
0.1168277705
 40
0.1655867329
 40
0.2221900572
 40
0.2862423533
 40
0.4348540091
 40
0.6069319188
 40
0.7975080894
 40
1.0
 40
1.0
 40
1.0
 40
1.0
 10
10.9177897678
 20
6.1564387067
 30
0.0
 10
10.9177894133
 20
6.1564017456
 30
0.0
 10
10.917665792
 20
6.1563255938
 30
0.0
 10
10.917446617
 20
6.1562687973
 30
0.0
 10
10.9170598399
 20
6.1561931749
 30
0.0
 10
10.91654017
 20
6.1561284565
 30
0.0
 10
10.9158729119
 20
6.1560634234
 30
0.0
 10
10.9150706484
 20
6.1560039864
 30
0.0
 10
10.9141372948
 20
6.1559490022
 30
0.0
 10
10.9126532323
 20
6.155879885
 30
0.0
 10
10.9105312738
 20
6.1558130126
 30
0.0
 10
10.907710735
 20
6.1557614289
 30
0.0
 10
10.9045925013
 20
6.1557381863
 30
0.0
 10
10.9024236731
 20
6.1557415847
 30
0.0
 10
10.9013064169
 20
6.1557479312
 30
0.0
  0
LINE
  5
4B3
100
AcDbEntity
  8
0
100
AcDbLine
 62
9
  6
CONTINUOUS
 10
10.8916377409
 20
6.1461940221
 11
10.883602242
 21
6.1464860697
  0
SPLINE
  5
4B4
100
AcDbEntity
  8
0
100
AcDbSpline
 62
9
  6
CONTINUOUS
 70
0
 71
3
 72
36
 73
32
 74
0
 42
0.0000001
 43
0.0000001
 44
0.0000000001
 40
0.0
 40
0.0
 40
0.0
 40
0.0
 40
0.0935397737
 40
0.1729293789
 40
0.2071817432
 40
0.2377337125
 40
0.2645320311
 40
0.2875245569
 40
0.3066697875
 40
0.3219608202
 40
0.3334067957
 40
0.3376984902
 40
0.3410491392
 40
0.3434853539
 40
0.3450823036
 40
0.3461210065
 40
0.3473570696
 40
0.3493328849
 40
0.3521988312
 40
0.3560019915
 40
0.3607624272
 40
0.3731825388
 40
0.3894647541
 40
0.4095834616
 40
0.4335055641
 40
0.4926121217
 40
0.5664781773
 40
0.6547339882
 40
0.7568141794
 40
0.8721071169
 40
1.0
 40
1.0
 40
1.0
 40
1.0
 10
10.883602242
 20
6.1464860697
 30
0.0
 10
10.8831031129
 20
6.1465091594
 30
0.0
 10
10.8821804797
 20
6.1465545014
 30
0.0
 10
10.8810755626
 20
6.1466177647
 30
0.0
 10
10.8803070109
 20
6.146668868
 30
0.0
 10
10.879819023
 20
6.1467049471
 30
0.0
 10
10.8793913266
 20
6.1467405967
 30
0.0
 10
10.879024768
 20
6.1467757518
 30
0.0
 10
10.8787198982
 20
6.146810236
 30
0.0
 10
10.878477179
 20
6.1468440633
 30
0.0
 10
10.8783138125
 20
6.1468731924
 30
0.0
 10
10.8782148862
 20
6.1468976506
 30
0.0
 10
10.878163228
 20
6.1469136169
 30
0.0
 10
10.8781275269
 20
6.1469298401
 30
0.0
 10
10.8781038831
 20
6.1469446884
 30
0.0
 10
10.8780968078
 20
6.1469671071
 30
0.0
 10
10.8781145979
 20
6.1469853149
 30
0.0
 10
10.8781429985
 20
6.1469995587
 30
0.0
 10
10.8781870689
 20
6.1470148286
 30
0.0
 10
10.878246185
 20
6.1470296526
 30
0.0
 10
10.8783562239
 20
6.14705152
 30
0.0
 10
10.8785332354
 20
6.1470767365
 30
0.0
 10
10.8787925466
 20
6.1471047536
 30
0.0
 10
10.8791136392
 20
6.1471320063
 30
0.0
 10
10.879663325
 20
6.1471700276
 30
0.0
 10
10.8805003669
 20
6.1472129337
 30
0.0
 10
10.8816812658
 20
6.1472578884
 30
0.0
 10
10.8830919942
 20
6.1472983872
 30
0.0
 10
10.8847241914
 20
6.1473342488
 30
0.0
 10
10.8865682527
 20
6.1473651169
 30
0.0
 10
10.8878671839
 20
6.1473813817
 30
0.0
 10
10.8885503112
 20
6.1473887845
 30
0.0
  0
LINE
  5
4B5
100
AcDbEntity
  8
0
100
AcDbLine
 62
9
  6
CONTINUOUS
 10
10.8986407092
 20
6.1474364723
 11
10.9010823175
 21
6.1474342566
  0
SPLINE
  5
4B6
100
AcDbEntity
  8
0
100
AcDbSpline
 62
9
  6
CONTINUOUS
 70
0
 71
3
 72
10
 73
6
 74
0
 42
0.0000001
 43
0.0000001
 44
0.0000000001
 40
0.0
 40
0.0
 40
0.0
 40
0.0
 40
0.5778734274
 40
0.8151450189
 40
1.0
 40
1.0
 40
1.0
 40
1.0
 10
10.9236836191
 20
6.1472520792
 30
0.0
 10
10.9296726773
 20
6.1471695734
 30
0.0
 10
10.9381205353
 20
6.1470197139
 30
0.0
 10
10.948481568
 20
6.1467339473
 30
0.0
 10
10.9528541472
 20
6.1465745984
 30
0.0
 10
10.9547681122
 20
6.1464860615
 30
0.0
  0
SPLINE
  5
4B7
100
AcDbEntity
  8
0
100
AcDbSpline
 62
9
  6
CONTINUOUS
 70
0
 71
3
 72
30
 73
26
 74
0
 42
0.0000001
 43
0.0000001
 44
0.0000000001
 40
0.0
 40
0.0
 40
0.0
 40
0.0
 40
0.1263846389
 40
0.2388366797
 40
0.3370315013
 40
0.4206469581
 40
0.4893656681
 40
0.5428950576
 40
0.563923645
 40
0.5811322617
 40
0.5945360516
 40
0.6041763224
 40
0.6076227083
 40
0.6102016238
 40
0.6120197513
 40
0.6133787548
 40
0.616960436
 40
0.6237927751
 40
0.6343320481
 40
0.6486887253
 40
0.6889068931
 40
0.7443572905
 40
0.814839931
 40
0.9001315955
 40
1.0
 40
1.0
 40
1.0
 40
1.0
 10
10.9547681122
 20
6.1464860615
 30
0.0
 10
10.9551486446
 20
6.1464684587
 30
0.0
 10
10.955867688
 20
6.1464336054
 30
0.0
 10
10.9568820614
 20
6.1463786122
 30
0.0
 10
10.9577673388
 20
6.1463241312
 30
0.0
 10
10.9585205777
 20
6.1462704785
 30
0.0
 10
10.9591388555
 20
6.14621787
 30
0.0
 10
10.9595684017
 20
6.1461725525
 30
0.0
 10
10.9598425018
 20
6.1461353362
 30
0.0
 10
10.9599961502
 20
6.1461102246
 30
0.0
 10
10.9601149948
 20
6.1460856279
 30
0.0
 10
10.9601920589
 20
6.1460642657
 30
0.0
 10
10.9602358563
 20
6.1460461564
 30
0.0
 10
10.9602561674
 20
6.1460341551
 30
0.0
 10
10.9602694109
 20
6.1460221029
 30
0.0
 10
10.9602737538
 20
6.1460002599
 30
0.0
 10
10.9602392904
 20
6.1459758633
 30
0.0
 10
10.9601826561
 20
6.1459566796
 30
0.0
 10
10.9600879026
 20
6.1459338844
 30
0.0
 10
10.9598951962
 20
6.1459018033
 30
0.0
 10
10.9595647528
 20
6.1458648979
 30
0.0
 10
10.9590658474
 20
6.1458252302
 30
0.0
 10
10.9584301601
 20
6.1457871812
 30
0.0
 10
10.9576604997
 20
6.1457511632
 30
0.0
 10
10.9571027723
 20
6.1457303183
 30
0.0
 10
10.9568019307
 20
6.1457200739
 30
0.0
  0
LINE
  5
4B8
100
AcDbEntity
  8
0
100
AcDbLine
 62
9
  6
CONTINUOUS
 10
10.9568019307
 20
6.1457200739
 11
10.9397300998
 21
6.1455357317
  0
LINE
  5
4B9
100
AcDbEntity
  8
0
100
AcDbLine
 62
9
  6
CONTINUOUS
 10
11.2007721778
 20
6.1697460593
 11
11.1995963588
 21
6.169736499
  0
SPLINE
  5
4BA
100
AcDbEntity
  8
0
100
AcDbSpline
 62
9
  6
CONTINUOUS
 70
0
 71
3
 72
24
 73
20
 74
0
 42
0.0000001
 43
0.0000001
 44
0.0000000001
 40
0.0
 40
0.0
 40
0.0
 40
0.0
 40
0.1917717913
 40
0.3780032742
 40
0.4664504452
 40
0.5506042595
 40
0.6296071512
 40
0.7026752601
 40
0.7690423742
 40
0.8279768662
 40
0.878917493
 40
0.9213591704
 40
0.9548315815
 40
0.9790631007
 40
0.9876681606
 40
0.9939292744
 40
0.9961969434
 40
0.9979158071
 40
1.0
 40
1.0
 40
1.0
 40
1.0
 10
11.1995963588
 20
6.169736499
 30
0.0
 10
11.1959472718
 20
6.1697053482
 30
0.0
 10
11.1887547236
 20
6.1696173539
 30
0.0
 10
11.1798802661
 20
6.1694429864
 30
0.0
 10
11.1730543441
 20
6.1692653713
 30
0.0
 10
11.1682688002
 20
6.169118997
 30
0.0
 10
11.1637765304
 20
6.1689584662
 30
0.0
 10
11.1596234399
 20
6.1687857368
 30
0.0
 10
11.1558530716
 20
6.1686027603
 30
0.0
 10
11.1525047686
 20
6.1684113605
 30
0.0
 10
11.1496130296
 20
6.1682137249
 30
0.0
 10
11.1472072273
 20
6.1680137598
 30
0.0
 10
11.1453121946
 20
6.1678115668
 30
0.0
 10
11.1440621264
 20
6.1676356439
 30
0.0
 10
11.1433332568
 20
6.1674824152
 30
0.0
 10
11.1430194676
 20
6.1673955702
 30
0.0
 10
11.1428378268
 20
6.1673186931
 30
0.0
 10
11.1427401038
 20
6.1672648253
 30
0.0
 10
11.1426809583
 20
6.1672001177
 30
0.0
 10
11.1426838105
 20
6.1671605603
 30
0.0
  0
SPLINE
  5
4BB
100
AcDbEntity
  8
0
100
AcDbSpline
 62
7
  6
CONTINUOUS
 70
0
 71
3
 72
9
 73
5
 74
0
 42
0.0000001
 43
0.0000001
 44
0.0000000001
 40
0.0
 40
0.0
 40
0.0
 40
0.0
 40
0.5484548823
 40
1.0
 40
1.0
 40
1.0
 40
1.0
 10
11.1868822194
 20
6.1585816069
 30
0.0
 10
11.1828392435
 20
6.1584809954
 30
0.0
 10
11.1754689869
 20
6.1582438501
 30
0.0
 10
11.1681035063
 20
6.1578720023
 30
0.0
 10
11.1647817112
 20
6.1576437356
 30
0.0
  0
SPLINE
  5
4BC
100
AcDbEntity
  8
0
100
AcDbSpline
 62
7
  6
CONTINUOUS
 70
0
 71
3
 72
31
 73
27
 74
0
 42
0.0000001
 43
0.0000001
 44
0.0000000001
 40
0.0
 40
0.0
 40
0.0
 40
0.0
 40
0.1234423657
 40
0.2343078369
 40
0.3319734654
 40
0.4158237946
 40
0.4853153433
 40
0.5145839588
 40
0.5401681804
 40
0.5620515191
 40
0.5802298685
 40
0.5947244285
 40
0.6056162851
 40
0.6131666902
 40
0.618266257
 40
0.6233157678
 40
0.6307456122
 40
0.6414619496
 40
0.6557493517
 40
0.6737158228
 40
0.6954081102
 40
0.7208394531
 40
0.7499801035
 40
0.8192050805
 40
0.9026879806
 40
1.0
 40
1.0
 40
1.0
 40
1.0
 10
11.1647817112
 20
6.1576437356
 30
0.0
 10
11.1641033452
 20
6.1575971198
 30
0.0
 10
11.1628160825
 20
6.1575033075
 30
0.0
 10
11.1609937425
 20
6.1573513001
 30
0.0
 10
11.1593905938
 20
6.1571964553
 30
0.0
 10
11.1580167777
 20
6.1570398589
 30
0.0
 10
11.157020169
 20
6.1569022503
 30
0.0
 10
11.1563445904
 20
6.1567891227
 30
0.0
 10
11.155929444
 20
6.1567093697
 30
0.0
 10
11.1555765393
 20
6.15663013
 30
0.0
 10
11.1552864363
 20
6.1565512826
 30
0.0
 10
11.1550589109
 20
6.1564741747
 30
0.0
 10
11.1548942693
 20
6.1563964838
 30
0.0
 10
11.1547867422
 20
6.1563229644
 30
0.0
 10
11.1547369057
 20
6.1562275171
 30
0.0
 10
11.1547863552
 20
6.1561325897
 30
0.0
 10
11.1548937781
 20
6.156061806
 30
0.0
 10
11.1550572458
 20
6.1559884683
 30
0.0
 10
11.1552833842
 20
6.1559174458
 30
0.0
 10
11.1555720152
 20
6.1558463874
 30
0.0
 10
11.1559238132
 20
6.1557766591
 30
0.0
 10
11.1563383275
 20
6.1557081518
 30
0.0
 10
11.1570136689
 20
6.1556132892
 30
0.0
 10
11.1580094067
 20
6.1555026401
 30
0.0
 10
11.1593814608
 20
6.1553828991
 30
0.0
 10
11.1603749819
 20
6.1553136123
 30
0.0
 10
11.1609099343
 20
6.1552796364
 30
0.0
  0
SPLINE
  5
4BD
100
AcDbEntity
  8
0
100
AcDbSpline
 62
7
  6
CONTINUOUS
 70
0
 71
3
 72
10
 73
6
 74
0
 42
0.0000001
 43
0.0000001
 44
0.0000000001
 40
0.0
 40
0.0
 40
0.0
 40
0.0
 40
0.1963584352
 40
0.4323566672
 40
1.0
 40
1.0
 40
1.0
 40
1.0
 10
11.1609099343
 20
6.1552796364
 30
0.0
 10
11.1621977816
 20
6.1551978425
 30
0.0
 10
11.1650360178
 20
6.1550583326
 30
0.0
 10
11.1716045323
 20
6.1548441913
 30
0.0
 10
11.1768860456
 20
6.1547737328
 30
0.0
 10
11.1806164548
 20
6.1547510289
 30
0.0
  0
SPLINE
  5
4BE
100
AcDbEntity
  8
0
100
AcDbSpline
 62
7
  6
CONTINUOUS
 70
0
 71
3
 72
9
 73
5
 74
0
 42
0.0000001
 43
0.0000001
 44
0.0000000001
 40
0.0
 40
0.0
 40
0.0
 40
0.0
 40
0.5481668831
 40
1.0
 40
1.0
 40
1.0
 40
1.0
 10
11.2065207086
 20
6.1550033999
 30
0.0
 10
11.2105633782
 20
6.1551033882
 30
0.0
 10
11.2179369602
 20
6.1553394377
 30
0.0
 10
11.2253057928
 20
6.155709872
 30
0.0
 10
11.2286312658
 20
6.1559372571
 30
0.0
  0
SPLINE
  5
4BF
100
AcDbEntity
  8
0
100
AcDbSpline
 62
7
  6
CONTINUOUS
 70
0
 71
3
 72
31
 73
27
 74
0
 42
0.0000001
 43
0.0000001
 44
0.0000000001
 40
0.0
 40
0.0
 40
0.0
 40
0.0
 40
0.1238921627
 40
0.2352547391
 40
0.3334626003
 40
0.4178979157
 40
0.4880143299
 40
0.5435233355
 40
0.5657475885
 40
0.5842717898
 40
0.5991133877
 40
0.6103444641
 40
0.6181984836
 40
0.6234649395
 40
0.6258228104
 40
0.6284693665
 40
0.6355941679
 40
0.6459484851
 40
0.6598505573
 40
0.6774195233
 40
0.6987069473
 40
0.723728486
 40
0.7524560409
 40
0.8208505956
 40
0.9035053978
 40
1.0
 40
1.0
 40
1.0
 40
1.0
 10
11.2286312658
 20
6.1559372571
 30
0.0
 10
11.2293107441
 20
6.1559837176
 30
0.0
 10
11.2306006311
 20
6.1560772449
 30
0.0
 10
11.2324275241
 20
6.1562287612
 30
0.0
 10
11.2340363968
 20
6.1563832171
 30
0.0
 10
11.2354171909
 20
6.1565393169
 30
0.0
 10
11.2365613243
 20
6.1566962597
 30
0.0
 10
11.2373626755
 20
6.1568341036
 30
0.0
 10
11.2378794737
 20
6.1569482784
 30
0.0
 10
11.2381748795
 20
6.1570270257
 30
0.0
 10
11.2384077709
 20
6.1571042242
 30
0.0
 10
11.2385782004
 20
6.1571816158
 30
0.0
 10
11.2386903527
 20
6.1572554161
 30
0.0
 10
11.2387390366
 20
6.1573337645
 30
0.0
 10
11.2387313191
 20
6.1573917447
 30
0.0
 10
11.238696946
 20
6.1574502101
 30
0.0
 10
11.238605375
 20
6.1575173859
 30
0.0
 10
11.2384487079
 20
6.1575890927
 30
0.0
 10
11.2382295906
 20
6.1576607202
 30
0.0
 10
11.2379483198
 20
6.1577315305
 30
0.0
 10
11.2376040509
 20
6.157801379
 30
0.0
 10
11.237197251
 20
6.1578699219
 30
0.0
 10
11.2365325067
 20
6.1579650055
 30
0.0
 10
11.2355502868
 20
6.1580758955
 30
0.0
 10
11.2341947166
 20
6.158195973
 30
0.0
 10
11.2332122942
 20
6.1582654746
 30
0.0
 10
11.232682938
 20
6.1582995841
 30
0.0
  0
SPLINE
  5
4C0
100
AcDbEntity
  8
0
100
AcDbSpline
 62
7
  6
CONTINUOUS
 70
0
 71
3
 72
10
 73
6
 74
0
 42
0.0000001
 43
0.0000001
 44
0.0000000001
 40
0.0
 40
0.0
 40
0.0
 40
0.0
 40
0.195626339
 40
0.431443877
 40
1.0
 40
1.0
 40
1.0
 40
1.0
 10
11.232682938
 20
6.1582995841
 30
0.0
 10
11.2313919461
 20
6.1583827701
 30
0.0
 10
11.2285420612
 20
6.1585244593
 30
0.0
 10
11.2219325417
 20
6.158741965
 30
0.0
 10
11.2166131568
 20
6.1588133142
 30
0.0
 10
11.2128533881
 20
6.158836327
 30
0.0
  0
LINE
  5
4C1
100
AcDbEntity
  8
0
100
AcDbLine
 62
7
  6
CONTINUOUS
 10
11.1879413132
 20
6.1557453009
 11
11.1820782818
 21
6.1558706522
  0
LINE
  5
4C2
100
AcDbEntity
  8
0
100
AcDbLine
 62
7
  6
CONTINUOUS
 10
11.1820782818
 20
6.1558706522
 11
11.1782018324
 21
6.156109222
  0
LINE
  5
4C3
100
AcDbEntity
  8
0
100
AcDbLine
 62
7
  6
CONTINUOUS
 10
11.1782018324
 20
6.156109222
 11
11.1768463482
 21
6.1564283253
  0
LINE
  5
4C4
100
AcDbEntity
  8
0
100
AcDbLine
 62
9
  6
CONTINUOUS
 10
10.626707452
 20
6.1697460617
 11
10.6194639739
 21
6.1695199724
  0
SPLINE
  5
4C5
100
AcDbEntity
  8
0
100
AcDbSpline
 62
9
  6
CONTINUOUS
 70
0
 71
3
 72
12
 73
8
 74
0
 42
0.0000001
 43
0.0000001
 44
0.0000000001
 40
0.0
 40
0.0
 40
0.0
 40
0.0
 40
0.4288028905
 40
0.7364086708
 40
0.9232983021
 40
0.9731832966
 40
1.0
 40
1.0
 40
1.0
 40
1.0
 10
10.6194639739
 20
6.1695199724
 30
0.0
 10
10.6191393688
 20
6.1694984855
 30
0.0
 10
10.6185813855
 20
6.1694551035
 30
0.0
 10
10.6178877489
 20
6.1693779002
 30
0.0
 10
10.6174771832
 20
6.1692950651
 30
0.0
 10
10.6172929643
 20
6.1692280019
 30
0.0
 10
10.6172479482
 20
6.1691758672
 30
0.0
 10
10.6172497442
 20
6.1691556019
 30
0.0
  0
SPLINE
  5
4C6
100
AcDbEntity
  8
0
100
AcDbSpline
 62
7
  6
CONTINUOUS
 70
0
 71
3
 72
20
 73
16
 74
0
 42
0.0000001
 43
0.0000001
 44
0.0000000001
 40
0.0
 40
0.0
 40
0.0
 40
0.0
 40
0.2164611454
 40
0.4131457489
 40
0.5859722804
 40
0.7312421439
 40
0.7928401038
 40
0.8467815991
 40
0.8928440673
 40
0.930806998
 40
0.9604848874
 40
0.9818249007
 40
0.9948434717
 40
0.998303583
 40
1.0
 40
1.0
 40
1.0
 40
1.0
 10
11.1654287006
 20
6.145964363
 30
0.0
 10
11.1647175781
 20
6.1459643629
 30
0.0
 10
11.1633603014
 20
6.1459666613
 30
0.0
 10
11.1614352795
 20
6.1459777092
 30
0.0
 10
11.1597441976
 20
6.1459959193
 30
0.0
 10
11.1584970013
 20
6.1460178123
 30
0.0
 10
11.157640445
 20
6.1460396762
 30
0.0
 10
11.1571098494
 20
6.1460566787
 30
0.0
 10
11.1566568633
 20
6.1460751493
 30
0.0
 10
11.1562841138
 20
6.1460947238
 30
0.0
 10
11.1559917706
 20
6.1461157838
 30
0.0
 10
11.1557841073
 20
6.1461364363
 30
0.0
 10
11.1556584173
 20
6.1461575405
 30
0.0
 10
11.1556040154
 20
6.1461739598
 30
0.0
 10
11.1555876553
 20
6.1461861152
 30
0.0
 10
11.1555875133
 20
6.1461916865
 30
0.0
  0
SPLINE
  5
4C7
100
AcDbEntity
  8
0
100
AcDbSpline
 62
7
  6
CONTINUOUS
 70
0
 71
3
 72
37
 73
33
 74
0
 42
0.0000001
 43
0.0000001
 44
0.0000000001
 40
0.0
 40
0.0
 40
0.0
 40
0.0
 40
0.0675902629
 40
0.09642228
 40
0.1217881949
 40
0.1435719937
 40
0.1616653084
 40
0.176021096
 40
0.1866435878
 40
0.1935840134
 40
0.1957493497
 40
0.1971941108
 40
0.1983551441
 40
0.1999321306
 40
0.2022775058
 40
0.2054961981
 40
0.2096235534
 40
0.2146730011
 40
0.2206493386
 40
0.2275533476
 40
0.2441373301
 40
0.2644032772
 40
0.2883091334
 40
0.3157631234
 40
0.3466593302
 40
0.3808906284
 40
0.4589236893
 40
0.5488291312
 40
0.6493119318
 40
0.7590365788
 40
0.876480606
 40
1.0
 40
1.0
 40
1.0
 40
1.0
 10
10.6361143701
 20
6.1588086456
 30
0.0
 10
10.6352668979
 20
6.1587938363
 30
0.0
 10
10.6340579927
 20
6.1587659172
 30
0.0
 10
10.6325317755
 20
6.1587084773
 30
0.0
 10
10.6315801128
 20
6.1586613176
 30
0.0
 10
10.6307635365
 20
6.1586081772
 30
0.0
 10
10.6300861941
 20
6.1585491349
 30
0.0
 10
10.6295490269
 20
6.158485323
 30
0.0
 10
10.6291560008
 20
6.1584166043
 30
0.0
 10
10.628913507
 20
6.1583524464
 30
0.0
 10
10.6287975016
 20
6.1582912725
 30
0.0
 10
10.6287514533
 20
6.1582462604
 30
0.0
 10
10.6287557529
 20
6.1581881375
 30
0.0
 10
10.62880531
 20
6.15814307
 30
0.0
 10
10.6288822606
 20
6.1580986245
 30
0.0
 10
10.6289955629
 20
6.1580528022
 30
0.0
 10
10.6291435165
 20
6.1580054822
 30
0.0
 10
10.6293273483
 20
6.1579568639
 30
0.0
 10
10.6295466154
 20
6.1579070563
 30
0.0
 10
10.629908999
 20
6.1578347158
 30
0.0
 10
10.6304502582
 20
6.1577440949
 30
0.0
 10
10.6312046277
 20
6.1576369647
 30
0.0
 10
10.632096074
 20
6.157526644
 30
0.0
 10
10.6331213821
 20
6.1574134634
 30
0.0
 10
10.6342766355
 20
6.1572979332
 30
0.0
 10
10.6360644369
 20
6.1571341134
 30
0.0
 10
10.6385915053
 20
6.1569295351
 30
0.0
 10
10.6419491427
 20
6.1566907616
 30
0.0
 10
10.6457051317
 20
6.1564525559
 30
0.0
 10
10.6498073384
 20
6.156218676
 30
0.0
 10
10.6541992574
 20
6.1559923018
 30
0.0
 10
10.6572177332
 20
6.1558513618
 30
0.0
 10
10.6587651729
 20
6.1557825408
 30
0.0
  0
LINE
  5
4C8
100
AcDbEntity
  8
0
100
AcDbLine
 62
7
  6
CONTINUOUS
 10
10.6835674146
 20
6.1549487826
 11
10.684680272
 21
6.1549241231
  0
LINE
  5
4C9
100
AcDbEntity
  8
0
100
AcDbLine
 62
7
  6
CONTINUOUS
 10
10.7004079516
 20
6.1547377205
 11
10.7053356383
 21
6.1547779502
  0
SPLINE
  5
4CA
100
AcDbEntity
  8
0
100
AcDbSpline
 62
7
  6
CONTINUOUS
 70
0
 71
3
 72
36
 73
32
 74
0
 42
0.0000001
 43
0.0000001
 44
0.0000000001
 40
0.0
 40
0.0
 40
0.0
 40
0.0
 40
0.0679572691
 40
0.1225238616
 40
0.1444923379
 40
0.1627694469
 40
0.1773071908
 40
0.1881084679
 40
0.1952205132
 40
0.1974628821
 40
0.1989638327
 40
0.2001218833
 40
0.2016416081
 40
0.2039126059
 40
0.2070520299
 40
0.2110987625
 40
0.2160675438
 40
0.2219637747
 40
0.2287885663
 40
0.245217532
 40
0.2653338735
 40
0.2890966119
 40
0.316415147
 40
0.3471843789
 40
0.3812979688
 40
0.4591265748
 40
0.548874813
 40
0.6492530795
 40
0.7589310864
 40
0.8763927558
 40
1.0
 40
1.0
 40
1.0
 40
1.0
 10
10.7053255109
 20
6.1547784446
 30
0.0
 10
10.7061741419
 20
6.1547930323
 30
0.0
 10
10.7077040699
 20
6.1548282005
 30
0.0
 10
10.70950737
 20
6.1549010605
 30
0.0
 10
10.7106892799
 20
6.1549768832
 30
0.0
 10
10.7113708056
 20
6.1550355504
 30
0.0
 10
10.7119126396
 20
6.1550988982
 30
0.0
 10
10.7123108617
 20
6.1551674386
 30
0.0
 10
10.7125578404
 20
6.1552309556
 30
0.0
 10
10.7126776199
 20
6.1552920551
 30
0.0
 10
10.7127263794
 20
6.1553353647
 30
0.0
 10
10.712727554
 20
6.1553933414
 30
0.0
 10
10.7126807998
 20
6.1554394648
 30
0.0
 10
10.7126071586
 20
6.1554833577
 30
0.0
 10
10.7124974178
 20
6.1555290556
 30
0.0
 10
10.7123531987
 20
6.1555760606
 30
0.0
 10
10.7121732117
 20
6.1556244512
 30
0.0
 10
10.7119578972
 20
6.1556740122
 30
0.0
 10
10.7116009857
 20
6.1557460805
 30
0.0
 10
10.7110667733
 20
6.1558363288
 30
0.0
 10
10.7103211023
 20
6.1559430178
 30
0.0
 10
10.7094386537
 20
6.1560529199
 30
0.0
 10
10.7084225965
 20
6.1561657076
 30
0.0
 10
10.7072767981
 20
6.1562808707
 30
0.0
 10
10.705501884
 20
6.1564442645
 30
0.0
 10
10.7029910738
 20
6.156648371
 30
0.0
 10
10.6996528929
 20
6.1568866826
 30
0.0
 10
10.6959159993
 20
6.1571245751
 30
0.0
 10
10.6918321044
 20
6.1573583074
 30
0.0
 10
10.6874572657
 20
6.1575847078
 30
0.0
 10
10.6844497135
 20
6.1577257448
 30
0.0
 10
10.6829074519
 20
6.1577946478
 30
0.0
  0
LINE
  5
4CB
100
AcDbEntity
  8
0
100
AcDbLine
 62
7
  6
CONTINUOUS
 10
10.6452186069
 20
6.1588363257
 11
10.6361042082
 21
6.1588093132
  0
LINE
  5
4CC
100
AcDbEntity
  8
0
100
AcDbLine
 62
7
  6
CONTINUOUS
 10
10.687496224
 20
6.1557503669
 11
10.6760186119
 21
6.1558604177
  0
SPLINE
  5
4CD
100
AcDbEntity
  8
0
100
AcDbSpline
 62
7
  6
CONTINUOUS
 70
0
 71
3
 72
11
 73
7
 74
0
 42
0.0000001
 43
0.0000001
 44
0.0000000001
 40
0.0
 40
0.0
 40
0.0
 40
0.0
 40
0.3214247216
 40
0.6085376136
 40
0.840377241
 40
1.0
 40
1.0
 40
1.0
 40
1.0
 10
10.6689336507
 20
6.1560855863
 30
0.0
 10
10.6672103832
 20
6.156151378
 30
0.0
 10
10.6639484064
 20
6.1562912564
 30
0.0
 10
10.659445715
 20
6.1565314271
 30
0.0
 10
10.6558136862
 20
6.156779921
 30
0.0
 10
10.6537207036
 20
6.1569652857
 30
0.0
 10
10.6528710785
 20
6.1570729183
 30
0.0
  0
LINE
  5
4CE
100
AcDbEntity
  8
0
100
AcDbLine
 62
7
  6
CONTINUOUS
 10
10.6528710785
 20
6.1570729183
 11
10.6515878349
 21
6.1573623745
  0
SPLINE
  5
4CF
100
AcDbEntity
  8
0
100
AcDbSpline
 62
9
  6
CONTINUOUS
 70
0
 71
3
 72
36
 73
32
 74
0
 42
0.0000001
 43
0.0000001
 44
0.0000000001
 40
0.0
 40
0.0
 40
0.0
 40
0.0
 40
0.1278922463
 40
0.2431845713
 40
0.3452641371
 40
0.4335192729
 40
0.5073845741
 40
0.5664903014
 40
0.5904119643
 40
0.610530218
 40
0.6268119676
 40
0.6392316043
 40
0.6439918009
 40
0.6477947226
 40
0.6506604346
 40
0.652636032
 40
0.6538719453
 40
0.6549107102
 40
0.6565078591
 40
0.65894431
 40
0.6622952086
 40
0.6665871595
 40
0.6780336599
 40
0.6933252281
 40
0.7124710019
 40
0.7354640775
 40
0.7622629508
 40
0.7928154779
 40
0.8270684015
 40
0.9064591232
 40
1.0
 40
1.0
 40
1.0
 40
1.0
 10
11.2060865949
 20
6.147388783
 30
0.0
 10
11.2067697237
 20
6.1473813801
 30
0.0
 10
11.2080686577
 20
6.1473651151
 30
0.0
 10
11.2099127224
 20
6.1473342468
 30
0.0
 10
11.2115449211
 20
6.1472983849
 30
0.0
 10
11.2129556487
 20
6.1472578857
 30
0.0
 10
11.2141365441
 20
6.1472129307
 30
0.0
 10
11.2149735812
 20
6.1471700242
 30
0.0
 10
11.2155232618
 20
6.1471320026
 30
0.0
 10
11.2158443495
 20
6.1471047497
 30
0.0
 10
11.216103655
 20
6.1470767324
 30
0.0
 10
11.2162806615
 20
6.1470515157
 30
0.0
 10
11.2163906959
 20
6.147029648
 30
0.0
 10
11.2164498086
 20
6.1470148241
 30
0.0
 10
11.2164938752
 20
6.1469995538
 30
0.0
 10
11.2165222731
 20
6.1469853106
 30
0.0
 10
11.216540059
 20
6.1469671
 30
0.0
 10
11.2165329768
 20
6.1469446826
 30
0.0
 10
11.2165093305
 20
6.1469298351
 30
0.0
 10
11.2164736247
 20
6.1469136115
 30
0.0
 10
11.2164219622
 20
6.1468976451
 30
0.0
 10
11.2163230294
 20
6.1468731868
 30
0.0
 10
11.2161596547
 20
6.1468440574
 30
0.0
 10
11.2159169251
 20
6.1468102298
 30
0.0
 10
11.2156120443
 20
6.1467757454
 30
0.0
 10
11.2152454742
 20
6.14674059
 30
0.0
 10
11.2148177658
 20
6.1467049402
 30
0.0
 10
11.2143297654
 20
6.1466688609
 30
0.0
 10
11.2135611962
 20
6.1466177573
 30
0.0
 10
11.2124562563
 20
6.1465544936
 30
0.0
 10
11.2115336045
 20
6.1465091514
 30
0.0
 10
11.2110344659
 20
6.1464860615
 30
0.0
  0
LINE
  5
4D0
100
AcDbEntity
  8
0
100
AcDbLine
 62
9
  6
CONTINUOUS
 10
11.2110344659
 20
6.1464860615
 11
11.1923273161
 21
6.1459308707
  0
LINE
  5
4D1
100
AcDbEntity
  8
0
100
AcDbLine
 62
9
  6
CONTINUOUS
 10
11.1549070162
 20
6.1455357317
 11
11.1378348672
 21
6.1457200784
  0
SPLINE
  5
4D2
100
AcDbEntity
  8
0
100
AcDbSpline
 62
9
  6
CONTINUOUS
 70
0
 71
3
 72
30
 73
26
 74
0
 42
0.0000001
 43
0.0000001
 44
0.0000000001
 40
0.0
 40
0.0
 40
0.0
 40
0.0
 40
0.0998663937
 40
0.1851560324
 40
0.2556366469
 40
0.311085034
 40
0.3513012255
 40
0.3656569369
 40
0.3761952684
 40
0.3830267202
 40
0.386607761
 40
0.3879668505
 40
0.3897852907
 40
0.3923645993
 40
0.3958114063
 40
0.4054525461
 40
0.4188572085
 40
0.43606669
 40
0.4570961301
 40
0.5106271798
 40
0.5793474837
 40
0.6629644602
 40
0.7611607196
 40
0.8736141089
 40
1.0
 40
1.0
 40
1.0
 40
1.0
 10
11.1378348672
 20
6.1457200784
 30
0.0
 10
11.13753403
 20
6.1457303229
 30
0.0
 10
11.1369763118
 20
6.1457511679
 30
0.0
 10
11.1362066657
 20
6.1457871862
 30
0.0
 10
11.1355709933
 20
6.1458252356
 30
0.0
 10
11.1350721035
 20
6.1458649032
 30
0.0
 10
11.1347416735
 20
6.1459018094
 30
0.0
 10
11.1345489777
 20
6.1459338899
 30
0.0
 10
11.1344542327
 20
6.1459566867
 30
0.0
 10
11.1343976048
 20
6.1459758672
 30
0.0
 10
11.1343631486
 20
6.1460002696
 30
0.0
 10
11.1343675003
 20
6.1460221103
 30
0.0
 10
11.1343807471
 20
6.1460341616
 30
0.0
 10
11.1344010623
 20
6.1460461632
 30
0.0
 10
11.1344448655
 20
6.1460642722
 30
0.0
 10
11.1345219367
 20
6.1460856347
 30
0.0
 10
11.1346407899
 20
6.1461102316
 30
0.0
 10
11.1347944471
 20
6.1461353433
 30
0.0
 10
11.1350685589
 20
6.1461725597
 30
0.0
 10
11.1354981198
 20
6.1462178774
 30
0.0
 10
11.1361164152
 20
6.146270486
 30
0.0
 10
11.1368696719
 20
6.146324139
 30
0.0
 10
11.1377549669
 20
6.1463786201
 30
0.0
 10
11.1387693579
 20
6.1464336135
 30
0.0
 10
11.1394884129
 20
6.1464684668
 30
0.0
 10
11.1398689511
 20
6.1464860697
 30
0.0
  0
SPLINE
  5
4D3
100
AcDbEntity
  8
0
100
AcDbSpline
 62
9
  6
CONTINUOUS
 70
0
 71
3
 72
10
 73
6
 74
0
 42
0.0000001
 43
0.0000001
 44
0.0000000001
 40
0.0
 40
0.0
 40
0.0
 40
0.0
 40
0.1848560217
 40
0.4221278797
 40
1.0
 40
1.0
 40
1.0
 40
1.0
 10
11.1398689511
 20
6.1464860697
 30
0.0
 10
11.1417829253
 20
6.1465746058
 30
0.0
 10
11.1461555141
 20
6.1467339537
 30
0.0
 10
11.1565165377
 20
6.1470197183
 30
0.0
 10
11.1649643774
 20
6.1471695768
 30
0.0
 10
11.1709534168
 20
6.1472520821
 30
0.0
  0
LINE
  5
4D4
100
AcDbEntity
  8
0
100
AcDbLine
 62
9
  6
CONTINUOUS
 10
11.1838444013
 20
6.1473887845
 11
11.1851568825
 21
6.1473980142
  0
LINE
  5
4D5
100
AcDbEntity
  8
0
100
AcDbLine
 62
9
  6
CONTINUOUS
 10
11.1935543067
 20
6.1474342565
 11
11.1959959586
 21
6.1474364723
  0
SPLINE
  5
4D6
100
AcDbEntity
  8
0
100
AcDbSpline
 62
7
  6
CONTINUOUS
 70
0
 71
3
 72
14
 73
10
 74
0
 42
0.0000001
 43
0.0000001
 44
0.0000000001
 40
0.0
 40
0.0
 40
0.0
 40
0.0
 40
0.0279058013
 40
0.0506075911
 40
0.080291487
 40
0.161532744
 40
0.2724086453
 40
0.5814955242
 40
1.0
 40
1.0
 40
1.0
 40
1.0
 10
10.6536174646
 20
6.1735996577
 30
0.0
 10
10.6536174645
 20
6.1735557846
 30
0.0
 10
10.6535493312
 20
6.1734887315
 30
0.0
 10
10.6534401447
 20
6.1734340234
 30
0.0
 10
10.6532412162
 20
6.1733595344
 30
0.0
 10
10.6529018679
 20
6.1732810056
 30
0.0
 10
10.652123163
 20
6.1731548193
 30
0.0
 10
10.6508093442
 20
6.1730378156
 30
0.0
 10
10.6496669028
 20
6.1729781914
 30
0.0
 10
10.6490094526
 20
6.1729521063
 30
0.0
  0
LINE
  5
4D7
100
AcDbEntity
  8
0
100
AcDbLine
 62
7
  6
CONTINUOUS
 10
10.6490094526
 20
6.1729521063
 11
10.6437749449
 21
6.1728633855
  0
SPLINE
  5
4D8
100
AcDbEntity
  8
0
100
AcDbSpline
 62
9
  6
CONTINUOUS
 70
0
 71
3
 72
23
 73
19
 74
0
 42
0.0000001
 43
0.0000001
 44
0.0000000001
 40
0.0
 40
0.0
 40
0.0
 40
0.0
 40
0.2180369423
 40
0.4148800051
 40
0.5872831381
 40
0.6634407063
 40
0.7324374877
 40
0.7939615722
 40
0.8477996297
 40
0.8937554034
 40
0.9316338825
 40
0.9612432879
 40
0.9729004807
 40
0.9824540622
 40
0.9899058833
 40
0.9952645666
 40
0.9985627096
 40
1.0
 40
1.0
 40
1.0
 40
1.0
 10
11.1480897727
 20
6.15789805
 30
0.0
 10
11.1462141225
 20
6.1578638231
 30
0.0
 10
11.142645221
 20
6.1577941411
 30
0.0
 10
11.1375936059
 20
6.1576793391
 30
0.0
 10
11.1337627579
 20
6.157577023
 30
0.0
 10
11.131031833
 20
6.157492613
 30
0.0
 10
11.1292546348
 20
6.1574318112
 30
0.0
 10
11.127669586
 20
6.1573711101
 30
0.0
 10
11.126282941
 20
6.1573108427
 30
0.0
 10
11.1250998696
 20
6.1572513696
 30
0.0
 10
11.1241256416
 20
6.1571930795
 30
0.0
 10
11.1234462736
 20
6.1571427269
 30
0.0
 10
11.1230112767
 20
6.1571017351
 30
0.0
 10
11.1227655396
 20
6.15707345
 30
0.0
 10
11.12257678
 20
6.1570474552
 30
0.0
 10
11.1224364966
 20
6.1570188554
 30
0.0
 10
11.1223603853
 20
6.1569994358
 30
0.0
 10
11.1223152237
 20
6.1569730641
 30
0.0
 10
11.1223160682
 20
6.1569607267
 30
0.0
  0
LINE
  5
4D9
100
AcDbEntity
  8
0
100
AcDbLine
 62
9
  6
CONTINUOUS
 10
10.4732526449
 20
6.1697578087
 11
10.4684518763
 21
6.1697840817
  0
LINE
  5
4DA
100
AcDbEntity
  8
0
100
AcDbLine
 62
9
  6
CONTINUOUS
 10
10.4684518763
 20
6.1697840817
 11
10.4679856233
 21
6.1697352691
  0
SPLINE
  5
4DB
100
AcDbEntity
  8
0
100
AcDbSpline
 62
7
  6
CONTINUOUS
 70
0
 71
3
 72
37
 73
33
 74
0
 42
0.0000001
 43
0.0000001
 44
0.0000000001
 40
0.0
 40
0.0
 40
0.0
 40
0.0
 40
0.0300179955
 40
0.0567520341
 40
0.0801371861
 40
0.100108783
 40
0.1166026507
 40
0.1295556733
 40
0.1389100332
 40
0.1422329646
 40
0.1446598936
 40
0.1462048759
 40
0.1469294026
 40
0.1474734728
 40
0.148774367
 40
0.1509437048
 40
0.1539980912
 40
0.1579419787
 40
0.1627765554
 40
0.1751168205
 40
0.1910017152
 40
0.2103809723
 40
0.2331985236
 40
0.259397743
 40
0.2889217142
 40
0.3217133552
 40
0.3577114892
 40
0.4389405745
 40
0.531759715
 40
0.6353033907
 40
0.7486221018
 40
1.0
 40
1.0
 40
1.0
 40
1.0
 10
10.4834318619
 20
6.1588190896
 30
0.0
 10
10.4831523535
 20
6.1588254265
 30
0.0
 10
10.482623894
 20
6.1588366237
 30
0.0
 10
10.4818776356
 20
6.1588495661
 30
0.0
 10
10.4812248459
 20
6.1588576909
 30
0.0
 10
10.4806675012
 20
6.1588610381
 30
0.0
 10
10.4802069865
 20
6.1588595949
 30
0.0
 10
10.4798462491
 20
6.1588536708
 30
0.0
 10
10.4796063951
 20
6.1588440864
 30
0.0
 10
10.4794678405
 20
6.1588335623
 30
0.0
 10
10.4793974545
 20
6.158824243
 30
0.0
 10
10.4793602227
 20
6.1588173023
 30
0.0
 10
10.4793267799
 20
6.1588038117
 30
0.0
 10
10.4793471997
 20
6.1587805075
 30
0.0
 10
10.4793824082
 20
6.1587737712
 30
0.0
 10
10.4794416424
 20
6.1587564191
 30
0.0
 10
10.4795255453
 20
6.1587421226
 30
0.0
 10
10.4796344576
 20
6.1587245451
 30
0.0
 10
10.4798293482
 20
6.1586982295
 30
0.0
 10
10.4801352807
 20
6.1586629333
 30
0.0
 10
10.480576446
 20
6.1586187637
 30
0.0
 10
10.4811152125
 20
6.1585699931
 30
0.0
 10
10.481750022
 20
6.1585169035
 30
0.0
 10
10.4824792894
 20
6.1584596423
 30
0.0
 10
10.4833014165
 20
6.1583983744
 30
0.0
 10
10.4842147685
 20
6.158333243
 30
0.0
 10
10.4856087289
 20
6.1582375672
 30
0.0
 10
10.4875609079
 20
6.1581102622
 30
0.0
 10
10.490141379
 20
6.1579502821
 30
0.0
 10
10.4930206
 20
6.1577791853
 30
0.0
 10
10.4973745368
 20
6.1575297359
 30
0.0
 10
10.5007661969
 20
6.1573447283
 30
0.0
 10
10.5031041592
 20
6.1572202876
 30
0.0
  0
SPLINE
  5
4DC
100
AcDbEntity
  8
0
100
AcDbSpline
 62
7
  6
CONTINUOUS
 70
0
 71
3
 72
36
 73
32
 74
0
 42
0.0000001
 43
0.0000001
 44
0.0000000001
 40
0.0
 40
0.0
 40
0.0
 40
0.0
 40
0.0244293765
 40
0.0455843964
 40
0.0633882418
 40
0.0710096202
 40
0.0777646617
 40
0.0836440186
 40
0.0886385287
 40
0.0927394396
 40
0.0959428017
 40
0.098253202
 40
0.0996823007
 40
0.1002865821
 40
0.1008315343
 40
0.1021836874
 40
0.1044084919
 40
0.107515237
 40
0.1115058825
 40
0.1163803602
 40
0.1221375299
 40
0.1287720717
 40
0.1362757856
 40
0.1538571382
 40
0.1748139695
 40
0.2265808453
 40
0.2909494137
 40
0.3669675524
 40
0.5496707813
 40
0.7646193336
 40
1.0
 40
1.0
 40
1.0
 40
1.0
 10
10.559230624
 20
6.1547888291
 30
0.0
 10
10.5595614399
 20
6.154781331
 30
0.0
 10
10.5601787562
 20
6.1547684192
 30
0.0
 10
10.5610372581
 20
6.1547546195
 30
0.0
 10
10.5616681682
 20
6.154748541
 30
0.0
 10
10.5621040699
 20
6.1547476373
 30
0.0
 10
10.5623784082
 20
6.1547487295
 30
0.0
 10
10.5626172735
 20
6.154751631
 30
0.0
 10
10.5628197947
 20
6.1547560411
 30
0.0
 10
10.562987023
 20
6.1547627305
 30
0.0
 10
10.563115106
 20
6.1547694545
 30
0.0
 10
10.5632131617
 20
6.1547812964
 30
0.0
 10
10.5632630059
 20
6.1547865747
 30
0.0
 10
10.5633084986
 20
6.1548062065
 30
0.0
 10
10.5632702559
 20
6.1548330629
 30
0.0
 10
10.5632215878
 20
6.1548411511
 30
0.0
 10
10.563129963
 20
6.1548629888
 30
0.0
 10
10.563006502
 20
6.1548811646
 30
0.0
 10
10.5628453162
 20
6.1549036329
 30
0.0
 10
10.5626488279
 20
6.1549269252
 30
0.0
 10
10.5624162548
 20
6.1549522372
 30
0.0
 10
10.5621481284
 20
6.154979086
 30
0.0
 10
10.5617203489
 20
6.1550192394
 30
0.0
 10
10.5610989946
 20
6.1550726962
 30
0.0
 10
10.5598796234
 20
6.1551695042
 30
0.0
 10
10.5580274254
 20
6.155302447
 30
0.0
 10
10.5554303273
 20
6.1554741161
 30
0.0
 10
10.5510624021
 20
6.1557451728
 30
0.0
 10
10.544656958
 20
6.1561127729
 30
0.0
 10
10.5360946677
 20
6.1565713892
 30
0.0
 10
10.5300026043
 20
6.1568787221
 30
0.0
 10
10.526818161
 20
6.1570350528
 30
0.0
  0
LINE
  5
4DD
100
AcDbEntity
  8
0
100
AcDbLine
 62
7
  6
CONTINUOUS
 10
10.5013388705
 20
6.1581904802
 11
10.4834330221
 21
6.1588190299
  0
LINE
  5
4DE
100
AcDbEntity
  8
0
100
AcDbLine
 62
7
  6
CONTINUOUS
 10
10.5038180169
 20
6.1574821751
 11
10.5023746994
 21
6.1576381546
  0
LINE
  5
4DF
100
AcDbEntity
  8
0
100
AcDbLine
 62
9
  6
CONTINUOUS
 10
11.6213830639
 20
6.1697460596
 11
11.6118352049
 21
6.1695199705
  0
SPLINE
  5
4E0
100
AcDbEntity
  8
0
100
AcDbSpline
 62
9
  6
CONTINUOUS
 70
0
 71
3
 72
33
 73
29
 74
0
 42
0.0000001
 43
0.0000001
 44
0.0000000001
 40
0.0
 40
0.0
 40
0.0
 40
0.0
 40
0.1356233677
 40
0.2962894052
 40
0.3816425989
 40
0.4678466555
 40
0.5529910208
 40
0.6352078917
 40
0.7126656624
 40
0.7836641304
 40
0.8162465432
 40
0.8466271598
 40
0.8746473327
 40
0.9001602387
 40
0.923019094
 40
0.943080729
 40
0.9602413977
 40
0.9744218647
 40
0.9803699532
 40
0.9855435551
 40
0.9899329576
 40
0.993529693
 40
0.9963310203
 40
0.9983365347
 40
0.9990413876
 40
0.9995487324
 40
0.9998618915
 40
1.0
 40
1.0
 40
1.0
 40
1.0
 10
11.6118352049
 20
6.1695199705
 30
0.0
 10
11.607629219
 20
6.1694050804
 30
0.0
 10
11.5984413705
 20
6.1691266871
 30
0.0
 10
11.5866080294
 20
6.1687289351
 30
0.0
 10
11.5763077497
 20
6.1683612985
 30
0.0
 10
11.568349347
 20
6.1680663365
 30
0.0
 10
11.5604885869
 20
6.1677641488
 30
0.0
 10
11.5528993956
 20
6.1674615039
 30
0.0
 10
11.5457491727
 20
6.1671650973
 30
0.0
 10
11.5401379062
 20
6.1669223529
 30
0.0
 10
11.5359861031
 20
6.1667356667
 30
0.0
 10
11.5331664699
 20
6.1666052569
 30
0.0
 10
11.5305661056
 20
6.1664811485
 30
0.0
 10
11.5281990294
 20
6.1663640445
 30
0.0
 10
11.5260787833
 20
6.1662546375
 30
0.0
 10
11.5242175754
 20
6.1661535553
 30
0.0
 10
11.5226255293
 20
6.166061381
 30
0.0
 10
11.5214709352
 20
6.1659889015
 30
0.0
 10
11.5206878201
 20
6.1659350323
 30
0.0
 10
11.5202078964
 20
6.1658995903
 30
0.0
 10
11.5198009886
 20
6.1658668045
 30
0.0
 10
11.5194675501
 20
6.1658366958
 30
0.0
 10
11.5192085467
 20
6.1658096002
 30
0.0
 10
11.5190383172
 20
6.1657874516
 30
0.0
 10
11.5189407127
 20
6.1657708947
 30
0.0
 10
11.51889322
 20
6.1657596783
 30
0.0
 10
11.5188672672
 20
6.1657520966
 30
0.0
 10
11.5188521879
 20
6.1657426129
 30
0.0
 10
11.5188525163
 20
6.1657383408
 30
0.0
  0
LINE
  5
4E1
100
AcDbEntity
  8
0
100
AcDbLine
 62
7
  6
CONTINUOUS
 10
11.6112039476
 20
6.1588087205
 11
11.5923122962
 21
6.1581393971
  0
LINE
  5
4E2
100
AcDbEntity
  8
0
100
AcDbLine
 62
7
  6
CONTINUOUS
 10
11.5923122962
 20
6.1581393971
 11
11.5904787948
 21
6.158062594
  0
SPLINE
  5
4E3
100
AcDbEntity
  8
0
100
AcDbSpline
 62
7
  6
CONTINUOUS
 70
0
 71
3
 72
36
 73
32
 74
0
 42
0.0000001
 43
0.0000001
 44
0.0000000001
 40
0.0
 40
0.0
 40
0.0
 40
0.0
 40
0.2354525746
 40
0.4504716313
 40
0.6332357309
 40
0.709279515
 40
0.7736720896
 40
0.8254613173
 40
0.846426819
 40
0.8640138072
 40
0.8715188816
 40
0.8781536426
 40
0.8839097701
 40
0.8887820702
 40
0.8927698292
 40
0.8958734262
 40
0.8980952739
 40
0.8994451394
 40
0.8999891518
 40
0.9005933882
 40
0.9020205047
 40
0.9043265203
 40
0.9075226634
 40
0.9116131103
 40
0.9165938605
 40
0.9224563658
 40
0.9291916735
 40
0.9367906449
 40
0.9545424924
 40
0.9756373273
 40
1.0
 40
1.0
 40
1.0
 40
1.0
 10
11.5678236812
 20
6.1570249429
 30
0.0
 10
11.5646389387
 20
6.1568685996
 30
0.0
 10
11.5585462376
 20
6.1565612376
 30
0.0
 10
11.5499830092
 20
6.1561025747
 30
0.0
 10
11.543576797
 20
6.1557349321
 30
0.0
 10
11.5392083018
 20
6.1554638404
 30
0.0
 10
11.53661078
 20
6.1552921444
 30
0.0
 10
11.5347582301
 20
6.155159182
 30
0.0
 10
11.5335386216
 20
6.1550623593
 30
0.0
 10
11.5329171871
 20
6.1550088963
 30
0.0
 10
11.5324894012
 20
6.1549687395
 30
0.0
 10
11.5322213245
 20
6.1549418917
 30
0.0
 10
11.5319888422
 20
6.1549165823
 30
0.0
 10
11.5317924774
 20
6.1548932945
 30
0.0
 10
11.531631442
 20
6.15487083
 30
0.0
 10
11.5315081192
 20
6.1548526618
 30
0.0
 10
11.5314166555
 20
6.1548308248
 30
0.0
 10
11.5313680353
 20
6.1548227432
 30
0.0
 10
11.5313299273
 20
6.1547958696
 30
0.0
 10
11.5313753493
 20
6.1547762706
 30
0.0
 10
11.5314251105
 20
6.1547709568
 30
0.0
 10
11.5315229469
 20
6.1547591204
 30
0.0
 10
11.5316507086
 20
6.1547523722
 30
0.0
 10
11.5318174718
 20
6.1547456633
 30
0.0
 10
11.5320193942
 20
6.1547412231
 30
0.0
 10
11.5322575263
 20
6.1547382873
 30
0.0
 10
11.5325310076
 20
6.1547371545
 30
0.0
 10
11.5329655423
 20
6.1547379934
 30
0.0
 10
11.5335944972
 20
6.154743978
 30
0.0
 10
11.5344503966
 20
6.154757651
 30
0.0
 10
11.5350658655
 20
6.1547704722
 30
0.0
 10
11.5353957089
 20
6.1547779221
 30
0.0
  0
LINE
  5
4E4
100
AcDbEntity
  8
0
100
AcDbLine
 62
7
  6
CONTINUOUS
 10
11.5354068317
 20
6.1547784334
 11
11.5419353739
 21
6.1549717744
  0
LINE
  5
4E5
100
AcDbEntity
  8
0
100
AcDbLine
 62
7
  6
CONTINUOUS
 10
11.5419353739
 20
6.1549717744
 11
11.5428663225
 21
6.1550039566
  0
SPLINE
  5
4E6
100
AcDbEntity
  8
0
100
AcDbSpline
 62
7
  6
CONTINUOUS
 70
0
 71
3
 72
34
 73
30
 74
0
 42
0.0000001
 43
0.0000001
 44
0.0000000001
 40
0.0
 40
0.0
 40
0.0
 40
0.0
 40
0.2564140151
 40
0.4656011466
 40
0.5507103377
 40
0.6221533893
 40
0.6526260584
 40
0.6795335472
 40
0.7028267646
 40
0.7224571484
 40
0.7383853618
 40
0.7506023803
 40
0.7553199754
 40
0.7591121984
 40
0.7619835179
 40
0.7639460746
 40
0.7650450659
 40
0.765609254
 40
0.7666994774
 40
0.7686549833
 40
0.7753181086
 40
0.7857157056
 40
0.7998637726
 40
0.817725863
 40
0.8392515861
 40
0.8643890692
 40
0.8930857295
 40
0.9252886019
 40
1.0
 40
1.0
 40
1.0
 40
1.0
 10
11.6019944834
 20
6.1577920042
 30
0.0
 10
11.6034833617
 20
6.1578792802
 30
0.0
 10
11.6061866415
 20
6.1580420789
 30
0.0
 10
11.6093831736
 20
6.1582492038
 30
0.0
 10
11.6115051746
 20
6.1583997139
 30
0.0
 10
11.6125898655
 20
6.1584824324
 30
0.0
 10
11.6133366354
 20
6.1585440135
 30
0.0
 10
11.6138040846
 20
6.1585849375
 30
0.0
 10
11.614208482
 20
6.1586230031
 30
0.0
 10
11.614548972
 20
6.1586581043
 30
0.0
 10
11.6148250821
 20
6.1586901438
 30
0.0
 10
11.615014356
 20
6.1587159146
 30
0.0
 10
11.6151335514
 20
6.1587355358
 30
0.0
 10
11.615198033
 20
6.1587483844
 30
0.0
 10
11.6152481114
 20
6.1587596012
 30
0.0
 10
11.6152782893
 20
6.158771338
 30
0.0
 10
11.6153018576
 20
6.1587792986
 30
0.0
 10
11.6153011761
 20
6.158798457
 30
0.0
 10
11.6152769874
 20
6.1588042935
 30
0.0
 10
11.6152256487
 20
6.1588183587
 30
0.0
 10
11.6151118678
 20
6.158827365
 30
0.0
 10
11.6149325855
 20
6.1588385323
 30
0.0
 10
11.6146851591
 20
6.1588451323
 30
0.0
 10
11.6143741099
 20
6.1588495064
 30
0.0
 10
11.6139986806
 20
6.1588505336
 30
0.0
 10
11.6135603896
 20
6.158848547
 30
0.0
 10
11.6130599664
 20
6.158843401
 30
0.0
 10
11.6122712735
 20
6.1588317731
 30
0.0
 10
11.6116495269
 20
6.1588191207
 30
0.0
 10
11.6112150781
 20
6.158809315
 30
0.0
  0
LINE
  5
4E7
100
AcDbEntity
  8
0
100
AcDbLine
 62
7
  6
CONTINUOUS
 10
11.5548096373
 20
6.1557503623
 11
11.5528917259
 21
6.1557596377
  0
ENDSEC
  0
SECTION
  2
OBJECTS
  0
DICTIONARY
  5
C
100
AcDbDictionary
280
0
281
1
  3
ACAD_GROUP
350
D
  3
ACAD_MLINESTYLE
350
17
  3
ACAD_LAYOUT
350
1A
  3
ACAD_PLOTSETTINGS
350
19
  3
ACAD_PLOTSTYLENAME
350
E
  0
DICTIONARY
  5
D
102
{ACAD_REACTORS
330
C
102
}
100
AcDbDictionary
280
0
281
1
  0
ACDBDICTIONARYWDFLT
  5
E
102
{ACAD_REACTORS
330
C
102
}
100
AcDbDictionary
281
1
  3
Normal
350
F
100
AcDbDictionaryWithDefault
340
F
  0
DICTIONARY
  5
17
102
{ACAD_REACTORS
330
C
102
}
100
AcDbDictionary
280
0
281
1
  3
Standard
350
18
  0
DICTIONARY
  5
19
102
{ACAD_REACTORS
330
C
102
}
100
AcDbDictionary
281
1
  0
DICTIONARY
  5
1A
102
{ACAD_REACTORS
330
C
102
}
100
AcDbDictionary
281
1
  3
Model
350
4E8
  3
Layout1
350
4E9
  0
ACDBPLACEHOLDER
  5
F
102
{ACAD_REACTORS
330
E
102
}
  0
MLINESTYLE
  5
18
102
{ACAD_REACTORS
330
17
102
}
100
AcDbMlineStyle
  2
STANDARD
 70
0
  3

 62
256
 51
90.0
 52
90.0
 71
2
 49
0.5
 62
256
  6
BYLAYER
 49
-0.5
 62
256
  6
BYLAYER
  0
LAYOUT
  5
4E8
102
{ACAD_REACTORS
330
1A
102
}
100
AcDbPlotSettings
  1

  2
none_device
  4
ANSI_C_(22.00_x_17.00_Inches)
  6

 40
0.0
 41
0.0
 42
0.0
 43
0.0
 44
558.8
 45
431.8
 46
0.0
 47
0.0
 48
0.0
 49
0.0
140
0.0
141
0.0
142
1.0
143
1.0
 70
1024
 72
0
 73
0
 74
0
  7

 75
0
147
1.0
148
0.0
149
0.0
100
AcDbLayout
  1
Model
 70
0
 71
0
 10
0.0
 20
0.0
 11
22.0
 21
17.0
 12
0.0
 22
0.0
 32
0.0
 14
0.0
 24
0.0
 34
0.0
 15
0.0
 25
0.0
 35
0.0
146
0.0
 13
0.0
 23
0.0
 33
0.0
 16
1.0
 26
0.0
 36
0.0
 17
0.0
 27
1.0
 37
0.0
 76
0
330
202
345
0
346
0
  0
LAYOUT
  5
4E9
102
{ACAD_REACTORS
330
1A
102
}
100
AcDbPlotSettings
  1

  2
none_device
  4
ANSI_C_(22.00_x_17.00_Inches)
  6

 40
0.0
 41
0.0
 42
0.0
 43
0.0
 44
558.8
 45
431.8
 46
0.0
 47
0.0
 48
0.0
 49
0.0
140
0.0
141
0.0
142
1.0
143
1.0
 70
0
 72
0
 73
0
 74
0
  7

 75
0
147
1.0
148
0.0
149
0.0
100
AcDbLayout
  1
Layout1
 70
0
 71
1
 10
0.0
 20
0.0
 11
22.0
 21
17.0
 12
0.0
 22
0.0
 32
0.0
 14
0.0
 24
0.0
 34
0.0
 15
0.0
 25
0.0
 35
0.0
146
0.0
 13
0.0
 23
0.0
 33
0.0
 16
1.0
 26
0.0
 36
0.0
 17
0.0
 27
1.0
 37
0.0
 76
0
330
203
345
0
346
0
  0
ENDSEC
  0
EOF
