  0
SECTION
  2
HEADER
  9
$ACADVER
  1
AC1015
  9
$DWGCODEPAGE
  3
ANSI_1252
  9
$EXTMAX
 10
23.3858267717
 20
16.5354330709
 30
0.0
  9
$EXTMIN
 10
0.0
 20
0.0
 30
0.0
  9
$LIMMIN
 10
0.0
 20
0.0
  9
$LIMMAX
 10
23.3858267717
 20
16.5354330709
  9
$VIEWCTR
 10
11.6929133858
 20
8.2677165354
  9
$VIEWSIZE
 40
16.5354330709
  9
$CLAYER
  8
0
  9
$LTSCALE
 40
1.2862204724
  9
$CELTYPE
  6
BYLAYER
  9
$DIMSCALE
 40
1.0
  9
$DIMASZ
 40
0.1
  9
$DIMEXO
 40
0.1461614173
  9
$DIMDLI
 40
0.8886614173
  9
$DIMEXE
 40
0.4209448819
  9
$DIMCEN
 40
0.2104724409
  9
$DIMLFAC
 40
1.0
  9
$DIMBLK
  1
_FILLED
  9
$DIMTXT
 40
0.08
  9
$DIMTOL
 70
1
  9
$DIMLIM
 70
0
  9
$DIMTFAC
 40
1.0
  9
$DIMTP
 40
0.01
  9
$DIMTM
 40
0.01
  9
$PDMODE
 70
3
  9
$PDSIZE
 40
0.06
  9
$HANDSEED
  5
378
  9
$TILEMODE
 70
1
  9
$MEASUREMENT
 70
0
  9
$INSUNITS
 70
1
  0
ENDSEC
  0
SECTION
  2
CLASSES
  0
CLASS
  1
ACDBDICTIONARYWDFLT
  2
AcDbDictionaryWithDefault
  3
AutoCAD 2000
 90
0
280
0
281
0
  0
CLASS
  1
ACDBPLACEHOLDER
  2
AcDbPlaceHolder
  3
AutoCAD 2000
 90
0
280
0
281
0
  0
CLASS
  1
LAYOUT
  2
AcDbLayout
  3
AutoCAD 2000
 90
0
280
0
281
0
  0
ENDSEC
  0
SECTION
  2
TABLES
  0
TABLE
  2
VPORT
  5
8
100
AcDbSymbolTable
 70
2
  0
VPORT
  5
1F4
100
AcDbSymbolTableRecord
100
AcDbViewportTableRecord
  2
*ACTIVE
 70
0
 10
0.0
 20
0.0
 11
1.0
 21
1.0
 12
11.6929133858
 22
8.2677165354
 13
0.0
 23
0.0
 14
1.0
 24
1.0
 15
0.0
 25
0.0
 16
0.0
 26
0.0
 36
1.0
 17
0.0
 27
0.0
 37
0.0
 40
16.5354330709
 41
1.4142857143
 42
50.0
 43
0.0
 44
0.0
 50
0.0
 51
0.0
 71
0
 72
100
 73
1
 74
1
 75
0
 76
0
 77
0
 78
0
  0
ENDTAB
  0
TABLE
  2
LTYPE
  5
5
100
AcDbSymbolTable
 70
6
  0
LTYPE
  5
14
100
AcDbSymbolTableRecord
100
AcDbLinetypeTableRecord
  2
BYBLOCK
 70
0
  3

 72
65
 73
0
 40
0.0
  0
LTYPE
  5
15
100
AcDbSymbolTableRecord
100
AcDbLinetypeTableRecord
  2
BYLAYER
 70
0
  3

 72
65
 73
0
 40
0.0
  0
LTYPE
  5
16
100
AcDbSymbolTableRecord
100
AcDbLinetypeTableRecord
  2
CONTINUOUS
 70
64
  3
Solid line
 72
65
 73
0
 40
0.0
  0
LTYPE
  5
1F5
100
AcDbSymbolTableRecord
100
AcDbLinetypeTableRecord
  2
CENTER
 70
64
  3
____ _ ____ _ ____ _ ____ _ ____ _ ____ _ ____
 72
65
 73
4
 40
0.6
 49
0.375
 74
0
 49
-0.075
 74
0
 49
0.075
 74
0
 49
-0.075
 74
0
  0
LTYPE
  5
1F6
100
AcDbSymbolTableRecord
100
AcDbLinetypeTableRecord
  2
HIDDEN
 70
64
  3
- - - - - - - - - - - - - - - - - - - -
 72
65
 73
2
 40
0.2
 49
0.1
 74
0
 49
-0.1
 74
0
  0
LTYPE
  5
1F7
100
AcDbSymbolTableRecord
100
AcDbLinetypeTableRecord
  2
PHANTOM
 70
64
  3
_____ _ _ _____ _ _ _____ _ _ _____
 72
65
 73
6
 40
0.8
 49
0.45
 74
0
 49
-0.05
 74
0
 49
0.1
 74
0
 49
-0.05
 74
0
 49
0.1
 74
0
 49
-0.05
 74
0
  0
LTYPE
  5
1F8
100
AcDbSymbolTableRecord
100
AcDbLinetypeTableRecord
  2
DOT
 70
64
  3
. . . . . . . . . . . . . . . . . . . .
 72
65
 73
2
 40
0.2
 49
0.1
 74
0
 49
-0.1
 74
0
  0
LTYPE
  5
1F9
100
AcDbSymbolTableRecord
100
AcDbLinetypeTableRecord
  2
DASHED
 70
64
  3
- - - - - - - - - - - - - - - - - - - -
 72
65
 73
2
 40
0.2
 49
0.1
 74
0
 49
-0.1
 74
0
  0
ENDTAB
  0
TABLE
  2
LAYER
  5
2
100
AcDbSymbolTable
 70
36
  0
LAYER
  5
10
100
AcDbSymbolTableRecord
100
AcDbLayerTableRecord
  2
0
 70
0
 62
7
  6
CONTINUOUS
370
-3
390
F
  0
LAYER
  5
1FA
100
AcDbSymbolTableRecord
100
AcDbLayerTableRecord
  2
DEFAULT_1
 70
0
 62
7
  6
CENTER
370
-3
390
F
  0
LAYER
  5
1FB
100
AcDbSymbolTableRecord
100
AcDbLayerTableRecord
  2
DEFAULT_2
 70
0
 62
8
  6
HIDDEN
370
-3
390
F
  0
LAYER
  5
1FC
100
AcDbSymbolTableRecord
100
AcDbLayerTableRecord
  2
DEFAULT_3
 70
0
 62
7
  6
PHANTOM
370
-3
390
F
  0
LAYER
  5
1FD
100
AcDbSymbolTableRecord
100
AcDbLayerTableRecord
  2
3_ALL_SYMBOLS
 70
0
 62
7
  6
CONTINUOUS
370
-3
390
F
  0
LAYER
  5
1FE
100
AcDbSymbolTableRecord
100
AcDbLayerTableRecord
  2
DEFAULT_COORDINATE_SYSTEM
 70
0
 62
7
  6
CONTINUOUS
370
-3
390
F
  0
LAYER
  5
1FF
100
AcDbSymbolTableRecord
100
AcDbLayerTableRecord
  2
DEFAULT_DATUM_AXES
 70
0
 62
7
  6
CONTINUOUS
370
-3
390
F
  0
LAYER
  5
200
100
AcDbSymbolTableRecord
100
AcDbLayerTableRecord
  2
DEFAULT_DATUM_CURVES
 70
0
 62
7
  6
CONTINUOUS
370
-3
390
F
  0
LAYER
  5
201
100
AcDbSymbolTableRecord
100
AcDbLayerTableRecord
  2
DEFAULT_DATUM_PLANES
 70
0
 62
7
  6
CONTINUOUS
370
-3
390
F
  0
ENDTAB
  0
TABLE
  2
STYLE
  5
3
100
AcDbSymbolTable
 70
1
  0
STYLE
  5
11
100
AcDbSymbolTableRecord
100
AcDbTextStyleTableRecord
  2
STANDARD
 70
0
 40
0.0
 41
0.8
 50
0.0
 71
0
 42
0.2
  3
txt
  4

  0
STYLE
  5
202
100
AcDbSymbolTableRecord
100
AcDbTextStyleTableRecord
  2
TEXTSTYLE_1
 70
0
 40
0.0
 41
0.8
 50
0.0
 71
0
 42
0.2
  3
gdt
  4

  0
ENDTAB
  0
TABLE
  2
VIEW
  5
6
100
AcDbSymbolTable
 70
0
  0
ENDTAB
  0
TABLE
  2
UCS
  5
7
100
AcDbSymbolTable
 70
0
  0
ENDTAB
  0
TABLE
  2
APPID
  5
9
100
AcDbSymbolTable
 70
1
  0
APPID
  5
203
100
AcDbSymbolTableRecord
100
AcDbRegAppTableRecord
  2
ACAD
 70
0
  0
ENDTAB
  0
TABLE
  2
BLOCK_RECORD
  5
1
100
AcDbSymbolTable
 70
0
  0
BLOCK_RECORD
  5
204
100
AcDbSymbolTableRecord
100
AcDbBlockTableRecord
  2
*Model_Space
  0
BLOCK_RECORD
  5
205
100
AcDbSymbolTableRecord
100
AcDbBlockTableRecord
  2
*Paper_Space
  0
ENDTAB
  0
TABLE
  2
DIMSTYLE
  5
A
100
AcDbSymbolTable
 70
1
100
AcDbDimStyleTable
 71
0
  0
DIMSTYLE
105
206
100
AcDbSymbolTableRecord
100
AcDbDimStyleTableRecord
  2
STANDARD
 70
0
  3

  4

 40
1.0
 41
0.1
 42
0.0625
 43
0.38
 44
0.18
 45
0.0
 46
0.0
 47
0.01
 48
0.01
140
0.08
141
0.09
142
0.0
143
25.4
144
1.0
145
0.0
146
1.0
147
0.09
 71
1.0
 72
0.0
 73
1
 74
1
 75
0
 76
0
 77
0
 78
4
170
0
171
2
172
0
173
0
174
0
175
0
176
0
177
0
178
0
270
2
271
2
272
2
273
2
274
2
275
0
280
0
281
0
282
0
283
1
284
4
285
0
286
0
287
3
288
0
340
11
  0
ENDTAB
  0
ENDSEC
  0
SECTION
  2
BLOCKS
  0
BLOCK
  5
20
100
AcDbEntity
  8
0
100
AcDbBlockBegin
  2
*Model_Space
 70
0
 10
0.0
 20
0.0
 30
0.0
  3
*Model_Space
  1

  0
ENDBLK
  5
21
100
AcDbEntity
  8
0
100
AcDbBlockEnd
  0
BLOCK
  5
1C
100
AcDbEntity
  8
0
100
AcDbBlockBegin
  2
*Paper_Space
 70
0
 10
0.0
 20
0.0
 30
0.0
  3
*Paper_Space
  1

  0
ENDBLK
  5
1D
100
AcDbEntity
  8
0
100
AcDbBlockEnd
  0
ENDSEC
  0
SECTION
  2
ENTITIES
  0
LWPOLYLINE
  5
207
100
AcDbEntity
  8
0
100
AcDbPolyline
 62
6
  6
CONTINUOUS
 90
33
 70
0
 10
1.8059652226
 20
9.1922467914
 10
1.8091601318
 20
9.150215927
 10
1.8133153118
 20
9.1053083257
 10
1.8181945354
 20
9.06090408
 10
1.8237919325
 20
9.0169831674
 10
1.8301023139
 20
8.973526874
 10
1.8371214932
 20
8.9305157134
 10
1.8448465067
 20
8.8879290028
 10
1.8532759534
 20
8.8457440639
 10
1.8624099242
 20
8.8039376146
 10
1.8722492078
 20
8.7624894593
 10
1.8827944229
 20
8.7213848512
 10
1.8940470117
 20
8.6806093177
 10
1.906012427
 20
8.6401382423
 10
1.9187018318
 20
8.5999348848
 10
1.9321279217
 20
8.5599666516
 10
1.9463030573
 20
8.5202091846
 10
1.9612401905
 20
8.4806416026
 10
1.9769519182
 20
8.4412480046
 10
1.9934509292
 20
8.4020152207
 10
2.0107459822
 20
8.3629409517
 10
2.0288417166
 20
8.3240314286
 10
2.0477480757
 20
8.2852802238
 10
2.0674949592
 20
8.2466424627
 10
2.0880965161
 20
8.2081077252
 10
2.1092029701
 20
8.1703022729
 10
2.1301108323
 20
8.134344112
 10
2.1502012506
 20
8.1010460754
 10
2.1694301945
 20
8.0702120744
 10
2.1879146805
 20
8.0414323645
 10
2.2057887017
 20
8.0143219347
 10
2.2231993322
 20
7.9885137964
 10
2.2393232802
 20
7.9650633869
  0
LWPOLYLINE
  5
208
100
AcDbEntity
  8
0
100
AcDbPolyline
 62
6
  6
CONTINUOUS
 90
42
 70
0
 10
1.6932525335
 20
9.2190385844
 10
1.6948407621
 20
9.1948706078
 10
1.69856593
 20
9.1488547064
 10
1.7031610502
 20
9.1034371083
 10
1.7086143091
 20
9.0585838479
 10
1.7149162127
 20
9.0142607564
 10
1.722059411
 20
8.9704350581
 10
1.7300390435
 20
8.9270732565
 10
1.738852174
 20
8.884144474
 10
1.7484966674
 20
8.8416243327
 10
1.7589721015
 20
8.7994890075
 10
1.7702807271
 20
8.7577118297
 10
1.7824281727
 20
8.7162622412
 10
1.795422135
 20
8.6751113931
 10
1.8092621435
 20
8.6342610586
 10
1.8239382888
 20
8.5937376283
 10
1.839486009
 20
8.5534468678
 10
1.8560131505
 20
8.5131443757
 10
1.8735109625
 20
8.4729009971
 10
1.8917007592
 20
8.4333450469
 10
1.9102249994
 20
8.3951359076
 10
1.9286873907
 20
8.3588810377
 10
1.9468880855
 20
8.3247220772
 10
1.9648495926
 20
8.2923903698
 10
1.9826245065
 20
8.2616116234
 10
2.0002795335
 20
8.2321304289
 10
2.0178294221
 20
8.2038097725
 10
2.0352508023
 20
8.1765896679
 10
2.0525236814
 20
8.1504131158
 10
2.0696318236
 20
8.1252248792
 10
2.0865549131
 20
8.1009820732
 10
2.103257941
 20
8.0776669824
 10
2.1197048853
 20
8.0552654559
 10
2.135860668
 20
8.033763849
 10
2.1516906156
 20
8.0131496102
 10
2.1671600534
 20
7.9934115885
 10
2.1822352739
 20
7.9745385578
 10
2.1968818449
 20
7.9565210845
 10
2.2110603969
 20
7.9393561481
 10
2.2247328898
 20
7.9230388586
 10
2.2378661154
 20
7.9075579277
 10
2.2501229065
 20
7.8932539332
  0
LWPOLYLINE
  5
209
100
AcDbEntity
  8
0
100
AcDbPolyline
 62
6
  6
CONTINUOUS
 90
34
 70
0
 10
1.6346937251
 20
9.238214349
 10
1.6374140312
 20
9.1948875323
 10
1.6412576417
 20
9.1488937198
 10
1.6460358391
 20
9.1035044585
 10
1.6517347171
 20
9.0586849361
 10
1.6583430493
 20
9.0144001755
 10
1.6658520865
 20
8.9706165943
 10
1.6742559009
 20
8.9272998984
 10
1.6835509948
 20
8.8844174601
 10
1.6937355029
 20
8.8419410425
 10
1.7048098346
 20
8.7998428836
 10
1.7167761203
 20
8.7580976165
 10
1.7296376916
 20
8.7166832329
 10
1.7433997792
 20
8.6755781173
 10
1.7580711204
 20
8.6347567902
 10
1.7736644118
 20
8.5941901798
 10
1.7901938594
 20
8.5538526934
 10
1.8076743625
 20
8.5137233239
 10
1.8261237418
 20
8.4737799562
 10
1.8455642386
 20
8.433996892
 10
1.866018453
 20
8.3943536754
 10
1.8875025743
 20
8.3548461745
 10
1.9100341233
 20
8.315469613
 10
1.9336584805
 20
8.2761757168
 10
1.958438734
 20
8.236898592
 10
1.9844431146
 20
8.1975778071
 10
2.0117291559
 20
8.1581802665
 10
2.0402464467
 20
8.1188261412
 10
2.0698850612
 20
8.0796936955
 10
2.1005188374
 20
8.0409522772
 10
2.1320045491
 20
8.0027633918
 10
2.1641862774
 20
7.9652754326
 10
2.1969000242
 20
7.9286185109
 10
2.2296424386
 20
7.8932539332
  0
LINE
  5
20A
100
AcDbEntity
  8
0
100
AcDbLine
 62
6
  6
CONTINUOUS
 10
1.3545480496
 20
9.6232539332
 11
1.3545480496
 21
9.4732539332
  0
LWPOLYLINE
  5
20B
100
AcDbEntity
  8
0
100
AcDbPolyline
 62
6
  6
CONTINUOUS
 90
22
 70
0
 10
1.9672358491
 20
9.1308611497
 10
1.9697682675
 20
9.100978074
 10
1.974043138
 20
9.0564141489
 10
1.9788910789
 20
9.0121775075
 10
1.9843132619
 20
8.9682776668
 10
1.990309967
 20
8.9247223187
 10
1.9968816324
 20
8.8815120361
 10
2.0040286766
 20
8.8386446168
 10
2.0117515563
 20
8.7961161574
 10
2.0200526273
 20
8.7539127902
 10
2.0289358133
 20
8.7120158541
 10
2.0384055975
 20
8.6704079785
 10
2.0484639036
 20
8.629085286
 10
2.059110532
 20
8.588051929
 10
2.0703497724
 20
8.5472949135
 10
2.0821909765
 20
8.5067864272
 10
2.0946419181
 20
8.4665083808
 10
2.1077073926
 20
8.4264540028
 10
2.1213915459
 20
8.3866181483
 10
2.1356978487
 20
8.3469964688
 10
2.1506289132
 20
8.3075849523
 10
2.1623377421
 20
8.277913644
  0
LINE
  5
20C
100
AcDbEntity
  8
0
100
AcDbLine
 62
6
  6
CONTINUOUS
 10
1.9645406249
 20
9.1668230517
 11
1.9672358491
 21
9.1308611497
  0
LINE
  5
20D
100
AcDbEntity
  8
0
100
AcDbLine
 62
6
  6
CONTINUOUS
 10
2.2520480496
 20
7.8632539332
 11
2.2520480496
 21
7.874177037
  0
LINE
  5
20E
100
AcDbEntity
  8
0
100
AcDbLine
 62
6
  6
CONTINUOUS
 10
2.2870480496
 20
7.8132539332
 11
2.2870480496
 21
7.7692539332
  0
LINE
  5
20F
100
AcDbEntity
  8
0
100
AcDbLine
 62
6
  6
CONTINUOUS
 10
2.3090514845
 20
6.6962539332
 11
2.3090514845
 21
6.6132539332
  0
LINE
  5
210
100
AcDbEntity
  8
0
100
AcDbLine
 62
6
  6
CONTINUOUS
 10
2.6395480496
 20
9.1668230517
 11
2.6395480496
 21
7.9428396028
  0
LINE
  5
211
100
AcDbEntity
  8
0
100
AcDbLine
 62
6
  6
CONTINUOUS
 10
1.6051941927
 20
9.2982636683
 11
1.6225401408
 21
9.2524392941
  0
LINE
  5
212
100
AcDbEntity
  8
0
100
AcDbLine
 62
6
  6
CONTINUOUS
 10
2.9445480496
 20
7.5322539332
 11
2.9445480496
 21
7.6562539332
  0
LINE
  5
213
100
AcDbEntity
  8
0
100
AcDbLine
 62
6
  6
CONTINUOUS
 10
2.9700446147
 20
6.6962539332
 11
2.9700446147
 21
6.6132539332
  0
LINE
  5
214
100
AcDbEntity
  8
0
100
AcDbLine
 62
6
  6
CONTINUOUS
 10
2.9920480496
 20
7.8132539332
 11
2.9920480496
 21
7.7692539332
  0
LINE
  5
215
100
AcDbEntity
  8
0
100
AcDbLine
 62
6
  6
CONTINUOUS
 10
3.0115480496
 20
6.7382010698
 11
3.0115480496
 21
7.3917055908
  0
LINE
  5
216
100
AcDbEntity
  8
0
100
AcDbLine
 62
6
  6
CONTINUOUS
 10
3.0270480496
 20
7.874177037
 11
3.0270480496
 21
7.8632539332
  0
LINE
  5
217
100
AcDbEntity
  8
0
100
AcDbLine
 62
6
  6
CONTINUOUS
 10
3.3145554742
 20
9.1668230517
 11
3.3118601612
 21
9.1308600447
  0
LINE
  5
218
100
AcDbEntity
  8
0
100
AcDbLine
 62
6
  6
CONTINUOUS
 10
3.9245480496
 20
9.6232539332
 11
3.9245480496
 21
9.4732539332
  0
LINE
  5
219
100
AcDbEntity
  8
0
100
AcDbLine
 62
6
  6
CONTINUOUS
 10
3.6416820679
 20
9.1948875323
 11
3.644402374
 21
9.238214349
  0
LINE
  5
21A
100
AcDbEntity
  8
0
100
AcDbLine
 62
6
  6
CONTINUOUS
 10
3.6748433413
 20
9.3007507428
 11
3.6565559583
 21
9.2524392941
  0
LWPOLYLINE
  5
21B
100
AcDbEntity
  8
0
100
AcDbPolyline
 62
6
  6
CONTINUOUS
 90
22
 70
0
 10
3.1167600412
 20
8.2779178391
 10
3.1281806489
 20
8.3068464192
 10
3.143158942
 20
8.3463498302
 10
3.1575093938
 20
8.3860643239
 10
3.1712345964
 20
8.4259938627
 10
3.1843380191
 20
8.4661427493
 10
3.1968238203
 20
8.5065160866
 10
3.2086968168
 20
8.5471206067
 10
3.2199648446
 20
8.5879744893
 10
3.2306373758
 20
8.6291058917
 10
3.2407187788
 20
8.6705280781
 10
3.2502088835
 20
8.712237016
 10
3.2591096409
 20
8.7542367207
 10
3.2674255369
 20
8.7965446124
 10
3.2751604912
 20
8.8391793793
 10
3.282316854
 20
8.8821549019
 10
3.2888950647
 20
8.9254749885
 10
3.294895531
 20
8.9691417137
 10
3.300318694
 20
9.0131543836
 10
3.3051648378
 20
9.0575050375
 10
3.3094351556
 20
9.1021838131
 10
3.3118601612
 20
9.1308600447
  0
LINE
  5
21C
100
AcDbEntity
  8
0
100
AcDbLine
 62
6
  6
CONTINUOUS
 10
2.4724770563
 20
6.495325001
 11
2.4795481242
 21
6.4882539332
  0
LINE
  5
21D
100
AcDbEntity
  8
0
100
AcDbLine
 62
6
  6
CONTINUOUS
 10
2.2393232802
 20
7.9650633869
 11
2.2549047891
 21
7.9428396028
  0
LINE
  5
21E
100
AcDbEntity
  8
0
100
AcDbLine
 62
6
  6
CONTINUOUS
 10
3.3520354829
 20
9.4210187016
 11
3.351482245
 21
9.4232539332
  0
LWPOLYLINE
  5
21F
100
AcDbEntity
  8
0
100
AcDbPolyline
 62
6
  6
CONTINUOUS
 90
33
 70
0
 10
3.0397741965
 20
7.9650653744
 10
3.0557946605
 20
7.9883640193
 10
3.0731912842
 20
8.0141479501
 10
3.0910522084
 20
8.0412339482
 10
3.109522478
 20
8.0699856342
 10
3.1287342105
 20
8.1007844407
 10
3.1488027809
 20
8.134036329
 10
3.1696869336
 20
8.1699406751
 10
3.1907784906
 20
8.2077032666
 10
3.2113823459
 20
8.2462240589
 10
3.2311447447
 20
8.2848732999
 10
3.2500702972
 20
8.3236451346
 10
3.2681820262
 20
8.3625706253
 10
3.2854901435
 20
8.4016560528
 10
3.3020014679
 20
8.4408996958
 10
3.3177255953
 20
8.4803059266
 10
3.3326747294
 20
8.5198868593
 10
3.3468610583
 20
8.559657293
 10
3.3602975773
 20
8.5996381127
 10
3.3729968057
 20
8.6398540619
 10
3.3849714718
 20
8.6803377834
 10
3.3962327401
 20
8.7211259705
 10
3.4067860979
 20
8.7622433263
 10
3.4166330041
 20
8.8037043681
 10
3.4257740865
 20
8.8455238689
 10
3.4342101359
 20
8.8877220225
 10
3.4419412487
 20
8.9303221293
 10
3.4489660284
 20
8.9733468922
 10
3.4552815146
 20
9.0168170259
 10
3.4608835216
 20
9.0607520485
 10
3.4657668581
 20
9.1051707029
 10
3.46992565
 20
9.1500930405
 10
3.4731308763
 20
9.1922467889
  0
LINE
  5
220
100
AcDbEntity
  8
0
100
AcDbLine
 62
6
  6
CONTINUOUS
 10
3.0397741965
 20
7.9650653744
 11
3.02419131
 21
7.9428396028
  0
LWPOLYLINE
  5
221
100
AcDbEntity
  8
0
100
AcDbPolyline
 62
6
  6
CONTINUOUS
 90
42
 70
0
 10
3.0289731926
 20
7.8932539332
 10
3.0412299837
 20
7.9075579277
 10
3.0543632094
 20
7.9230388586
 10
3.0680357022
 20
7.9393561481
 10
3.0822142542
 20
7.9565210845
 10
3.0968608252
 20
7.9745385578
 10
3.1119360458
 20
7.9934115885
 10
3.1274054835
 20
8.0131496102
 10
3.1432354311
 20
8.033763849
 10
3.1593912139
 20
8.0552654559
 10
3.1758381581
 20
8.0776669824
 10
3.192541186
 20
8.1009820732
 10
3.2094642756
 20
8.1252248792
 10
3.2265724178
 20
8.1504131158
 10
3.2438452968
 20
8.1765896679
 10
3.2612666771
 20
8.2038097725
 10
3.2788165656
 20
8.2321304289
 10
3.2964715926
 20
8.2616116234
 10
3.3142465066
 20
8.2923903698
 10
3.3322080136
 20
8.3247220772
 10
3.3504087085
 20
8.3588810377
 10
3.3688710998
 20
8.3951359076
 10
3.3873953399
 20
8.4333450469
 10
3.4055851366
 20
8.4729009971
 10
3.4230829486
 20
8.5131443757
 10
3.4396100902
 20
8.5534468678
 10
3.4551578103
 20
8.5937376283
 10
3.4698339556
 20
8.6342610586
 10
3.4836739641
 20
8.6751113931
 10
3.4966679264
 20
8.7162622412
 10
3.508815372
 20
8.7577118297
 10
3.5201239976
 20
8.7994890075
 10
3.5305994317
 20
8.8416243327
 10
3.5402439252
 20
8.884144474
 10
3.5490570556
 20
8.9270732565
 10
3.5570366882
 20
8.9704350581
 10
3.5641798864
 20
9.0142607564
 10
3.57048179
 20
9.0585838479
 10
3.575935049
 20
9.1034371083
 10
3.5805301692
 20
9.1488547064
 10
3.5842553371
 20
9.1948706078
 10
3.5858435656
 20
9.2190385844
  0
LWPOLYLINE
  5
222
100
AcDbEntity
  8
0
100
AcDbPolyline
 62
6
  6
CONTINUOUS
 90
32
 70
0
 10
3.082196075
 20
7.9286185109
 10
3.1149098218
 20
7.9652754326
 10
3.14709155
 20
8.0027633918
 10
3.1785772618
 20
8.0409522772
 10
3.209211038
 20
8.0796936955
 10
3.2388496525
 20
8.1188261412
 10
3.2673669433
 20
8.1581802665
 10
3.2946529845
 20
8.1975778071
 10
3.3206573652
 20
8.236898592
 10
3.3454376186
 20
8.2761757168
 10
3.3690619758
 20
8.315469613
 10
3.3915935248
 20
8.3548461745
 10
3.4130776461
 20
8.3943536754
 10
3.4335318605
 20
8.433996892
 10
3.4529723573
 20
8.4737799562
 10
3.4714217367
 20
8.5137233239
 10
3.4889022397
 20
8.5538526934
 10
3.5054316873
 20
8.5941901798
 10
3.5210249787
 20
8.6347567902
 10
3.5356963199
 20
8.6755781173
 10
3.5494584076
 20
8.7166832329
 10
3.5623199788
 20
8.7580976165
 10
3.5742862645
 20
8.7998428836
 10
3.5853605963
 20
8.8419410425
 10
3.5955451043
 20
8.8844174601
 10
3.6048401982
 20
8.9272998984
 10
3.6132440126
 20
8.9706165943
 10
3.6207530499
 20
9.0144001755
 10
3.627361382
 20
9.0586849361
 10
3.63306026
 20
9.1035044585
 10
3.6378384575
 20
9.1488937198
 10
3.6416820679
 20
9.1948875323
  0
LINE
  5
223
100
AcDbEntity
  8
0
100
AcDbLine
 62
6
  6
CONTINUOUS
 10
3.0494536605
 20
7.8932539332
 11
3.0821960324
 21
7.928618464
  0
LINE
  5
224
100
AcDbEntity
  8
0
100
AcDbLine
 62
6
  6
CONTINUOUS
 10
2.9445480496
 20
7.6562539332
 11
2.9423853879
 21
7.6584165949
  0
LINE
  5
225
100
AcDbEntity
  8
0
100
AcDbLine
 62
6
  6
CONTINUOUS
 10
2.9445480496
 20
7.5322539332
 11
2.9436641111
 21
7.5313699946
  0
LINE
  5
226
100
AcDbEntity
  8
0
100
AcDbLine
 62
6
  6
CONTINUOUS
 10
2.8066190428
 20
6.495325001
 11
2.799547975
 21
6.4882539332
  0
LINE
  5
227
100
AcDbEntity
  8
0
100
AcDbLine
 62
6
  6
CONTINUOUS
 10
3.9245480496
 20
9.4732539332
 11
3.8395480496
 21
9.4232539332
  0
LINE
  5
228
100
AcDbEntity
  8
0
100
AcDbLine
 62
6
  6
CONTINUOUS
 10
1.3545480496
 20
9.4732539332
 11
1.4395480496
 21
9.4232539332
  0
LINE
  5
229
100
AcDbEntity
  8
0
100
AcDbLine
 62
6
  6
CONTINUOUS
 10
20.925547975
 20
6.4882539332
 11
20.6055481242
 21
6.4882539332
  0
LINE
  5
22A
100
AcDbEntity
  8
0
100
AcDbLine
 62
6
  6
CONTINUOUS
 10
2.4795481242
 20
6.4882539332
 11
2.799547975
 21
6.4882539332
  0
LINE
  5
22B
100
AcDbEntity
  8
0
100
AcDbLine
 62
6
  6
CONTINUOUS
 10
20.9326190428
 20
6.495325001
 11
20.5984770563
 21
6.495325001
  0
LINE
  5
22C
100
AcDbEntity
  8
0
100
AcDbLine
 62
6
  6
CONTINUOUS
 10
2.4724770563
 20
6.495325001
 11
2.8066190428
 21
6.495325001
  0
LINE
  5
22D
100
AcDbEntity
  8
0
100
AcDbLine
 62
7
  6
CONTINUOUS
 10
21.0375480496
 20
6.5542539332
 11
20.4935480496
 21
6.5542539332
  0
LINE
  5
22E
100
AcDbEntity
  8
0
100
AcDbLine
 62
7
  6
CONTINUOUS
 10
2.3675480496
 20
6.5542539332
 11
2.9115480496
 21
6.5542539332
  0
LINE
  5
22F
100
AcDbEntity
  8
0
100
AcDbLine
 62
9
  6
CONTINUOUS
 10
21.0610446147
 20
6.5782539332
 11
20.4700514845
 21
6.5782539332
  0
LINE
  5
230
100
AcDbEntity
  8
0
100
AcDbLine
 62
6
  6
CONTINUOUS
 10
2.9350446147
 20
6.5782539332
 11
2.3440514845
 21
6.5782539332
  0
LINE
  5
231
100
AcDbEntity
  8
0
100
AcDbLine
 62
9
  6
CONTINUOUS
 10
21.0960446147
 20
6.6132539332
 11
20.4350514845
 21
6.6132539332
  0
LINE
  5
232
100
AcDbEntity
  8
0
100
AcDbLine
 62
9
  6
CONTINUOUS
 10
2.9700446147
 20
6.6132539332
 11
2.3090514845
 21
6.6132539332
  0
LINE
  5
233
100
AcDbEntity
  8
0
100
AcDbLine
 62
6
  6
CONTINUOUS
 10
21.0960446147
 20
6.6962539332
 11
20.4350514845
 21
6.6962539332
  0
LINE
  5
234
100
AcDbEntity
  8
0
100
AcDbLine
 62
6
  6
CONTINUOUS
 10
2.3090514845
 20
6.6962539332
 11
2.9700446147
 21
6.6962539332
  0
LINE
  5
235
100
AcDbEntity
  8
0
100
AcDbLine
 62
6
  6
CONTINUOUS
 10
20.3935480496
 20
6.7527539332
 11
3.0115480496
 21
6.7527539332
  0
LINE
  5
236
100
AcDbEntity
  8
0
100
AcDbLine
 62
6
  6
CONTINUOUS
 10
20.3935480496
 20
7.3777539332
 11
3.0115480496
 21
7.3777539332
  0
LINE
  5
237
100
AcDbEntity
  8
0
100
AcDbLine
 62
9
  6
CONTINUOUS
 10
21.1438823979
 20
7.3839595927
 11
20.3935480496
 21
7.3839595927
  0
LINE
  5
238
100
AcDbEntity
  8
0
100
AcDbLine
 62
9
  6
CONTINUOUS
 10
2.2612137012
 20
7.3839595927
 11
3.0115480496
 21
7.3839595927
  0
LINE
  5
239
100
AcDbEntity
  8
0
100
AcDbLine
 62
6
  6
CONTINUOUS
 10
21.1180480496
 20
7.7692539332
 11
20.4130480496
 21
7.7692539332
  0
LINE
  5
23A
100
AcDbEntity
  8
0
100
AcDbLine
 62
6
  6
CONTINUOUS
 10
2.2870480496
 20
7.7692539332
 11
2.9920480496
 21
7.7692539332
  0
LINE
  5
23B
100
AcDbEntity
  8
0
100
AcDbLine
 62
7
  6
CONTINUOUS
 10
21.1180480496
 20
7.8132539332
 11
20.4130480496
 21
7.8132539332
  0
LINE
  5
23C
100
AcDbEntity
  8
0
100
AcDbLine
 62
7
  6
CONTINUOUS
 10
2.2870480496
 20
7.8132539332
 11
2.9920480496
 21
7.8132539332
  0
LINE
  5
23D
100
AcDbEntity
  8
0
100
AcDbLine
 62
9
  6
CONTINUOUS
 10
21.1530480496
 20
7.8632539332
 11
20.3780480496
 21
7.8632539332
  0
LINE
  5
23E
100
AcDbEntity
  8
0
100
AcDbLine
 62
9
  6
CONTINUOUS
 10
3.0270480496
 20
7.8632539332
 11
2.2520480496
 21
7.8632539332
  0
LINE
  5
23F
100
AcDbEntity
  8
0
100
AcDbLine
 62
6
  6
CONTINUOUS
 10
2.2520480496
 20
7.874177037
 11
3.0270480496
 21
7.874177037
  0
LINE
  5
240
100
AcDbEntity
  8
0
100
AcDbLine
 62
6
  6
CONTINUOUS
 10
20.3780480496
 20
7.874177037
 11
21.1530480496
 21
7.874177037
  0
LINE
  5
241
100
AcDbEntity
  8
0
100
AcDbLine
 62
6
  6
CONTINUOUS
 10
21.1754492193
 20
7.8932539332
 11
21.1562602859
 21
7.8932539332
  0
LINE
  5
242
100
AcDbEntity
  8
0
100
AcDbLine
 62
6
  6
CONTINUOUS
 10
21.1549496194
 20
7.8932539332
 11
21.1166883541
 21
7.8932539332
  0
LINE
  5
243
100
AcDbEntity
  8
0
100
AcDbLine
 62
6
  6
CONTINUOUS
 10
21.1135635202
 20
7.8932539332
 11
21.0531867908
 21
7.8932539332
  0
LINE
  5
244
100
AcDbEntity
  8
0
100
AcDbLine
 62
6
  6
CONTINUOUS
 10
21.0487676083
 20
7.8932539332
 11
20.9700831226
 21
7.8932539332
  0
LINE
  5
245
100
AcDbEntity
  8
0
100
AcDbLine
 62
6
  6
CONTINUOUS
 10
20.9646707515
 20
7.8932539332
 11
20.8730407272
 21
7.8932539332
  0
LINE
  5
246
100
AcDbEntity
  8
0
100
AcDbLine
 62
6
  6
CONTINUOUS
 10
20.8670040117
 20
7.8932539332
 11
20.7686728835
 21
7.8932539332
  0
LINE
  5
247
100
AcDbEntity
  8
0
100
AcDbLine
 62
6
  6
CONTINUOUS
 10
20.7624232157
 20
7.8932539332
 11
20.6640920875
 21
7.8932539332
  0
LINE
  5
248
100
AcDbEntity
  8
0
100
AcDbLine
 62
6
  6
CONTINUOUS
 10
20.6580553719
 20
7.8932539332
 11
20.5664253476
 21
7.8932539332
  0
LINE
  5
249
100
AcDbEntity
  8
0
100
AcDbLine
 62
6
  6
CONTINUOUS
 10
20.5610129765
 20
7.8932539332
 11
20.4823284909
 21
7.8932539332
  0
LINE
  5
24A
100
AcDbEntity
  8
0
100
AcDbLine
 62
6
  6
CONTINUOUS
 10
20.4779093084
 20
7.8932539332
 11
20.417532579
 21
7.8932539332
  0
LINE
  5
24B
100
AcDbEntity
  8
0
100
AcDbLine
 62
6
  6
CONTINUOUS
 10
20.4144077451
 20
7.8932539332
 11
20.3761464798
 21
7.8932539332
  0
LINE
  5
24C
100
AcDbEntity
  8
0
100
AcDbLine
 62
6
  6
CONTINUOUS
 10
20.3748358132
 20
7.8932539332
 11
20.3556468799
 21
7.8932539332
  0
LINE
  5
24D
100
AcDbEntity
  8
0
100
AcDbLine
 62
6
  6
CONTINUOUS
 10
3.0494492193
 20
7.8932539332
 11
3.0302602859
 21
7.8932539332
  0
LINE
  5
24E
100
AcDbEntity
  8
0
100
AcDbLine
 62
6
  6
CONTINUOUS
 10
3.0289496194
 20
7.8932539332
 11
2.9906883541
 21
7.8932539332
  0
LINE
  5
24F
100
AcDbEntity
  8
0
100
AcDbLine
 62
6
  6
CONTINUOUS
 10
2.9875635202
 20
7.8932539332
 11
2.9271867908
 21
7.8932539332
  0
LINE
  5
250
100
AcDbEntity
  8
0
100
AcDbLine
 62
6
  6
CONTINUOUS
 10
2.9227676083
 20
7.8932539332
 11
2.8440831226
 21
7.8932539332
  0
LINE
  5
251
100
AcDbEntity
  8
0
100
AcDbLine
 62
6
  6
CONTINUOUS
 10
2.8386707515
 20
7.8932539332
 11
2.7470407272
 21
7.8932539332
  0
LINE
  5
252
100
AcDbEntity
  8
0
100
AcDbLine
 62
6
  6
CONTINUOUS
 10
2.7410040117
 20
7.8932539332
 11
2.6426728835
 21
7.8932539332
  0
LINE
  5
253
100
AcDbEntity
  8
0
100
AcDbLine
 62
6
  6
CONTINUOUS
 10
2.6364232157
 20
7.8932539332
 11
2.5380920875
 21
7.8932539332
  0
LINE
  5
254
100
AcDbEntity
  8
0
100
AcDbLine
 62
6
  6
CONTINUOUS
 10
2.5320553719
 20
7.8932539332
 11
2.4404253476
 21
7.8932539332
  0
LINE
  5
255
100
AcDbEntity
  8
0
100
AcDbLine
 62
6
  6
CONTINUOUS
 10
2.4350129765
 20
7.8932539332
 11
2.3563284909
 21
7.8932539332
  0
LINE
  5
256
100
AcDbEntity
  8
0
100
AcDbLine
 62
6
  6
CONTINUOUS
 10
2.3519093084
 20
7.8932539332
 11
2.291532579
 21
7.8932539332
  0
LINE
  5
257
100
AcDbEntity
  8
0
100
AcDbLine
 62
6
  6
CONTINUOUS
 10
2.2884077451
 20
7.8932539332
 11
2.2501464798
 21
7.8932539332
  0
LINE
  5
258
100
AcDbEntity
  8
0
100
AcDbLine
 62
6
  6
CONTINUOUS
 10
2.2488358132
 20
7.8932539332
 11
2.2296468799
 21
7.8932539332
  0
LINE
  5
259
100
AcDbEntity
  8
0
100
AcDbLine
 62
7
  6
CONTINUOUS
 10
19.9914899321
 20
9.4232310134
 11
19.9917836044
 21
9.4232539332
  0
LINE
  5
25A
100
AcDbEntity
  8
0
100
AcDbLine
 62
7
  6
CONTINUOUS
 10
3.6690718408
 20
9.4232539332
 11
3.6692285752
 21
9.4232421711
  0
LINE
  5
25B
100
AcDbEntity
  8
0
100
AcDbLine
 62
7
  6
CONTINUOUS
 10
19.992033603
 20
9.4232539332
 11
19.9914899321
 21
9.4232310134
  0
LINE
  5
25C
100
AcDbEntity
  8
0
100
AcDbLine
 62
9
  6
CONTINUOUS
 10
21.7825559583
 20
9.2524392941
 11
19.7485401408
 21
9.2524392941
  0
LINE
  5
25D
100
AcDbEntity
  8
0
100
AcDbLine
 62
9
  6
CONTINUOUS
 10
3.6565559583
 20
9.2524392941
 11
1.6225401408
 21
9.2524392941
  0
LINE
  5
25E
100
AcDbEntity
  8
0
100
AcDbLine
 62
6
  6
CONTINUOUS
 10
21.9655480496
 20
9.4232539332
 11
21.4774859293
 21
9.4232496634
  0
LINE
  5
25F
100
AcDbEntity
  8
0
100
AcDbLine
 62
7
  6
CONTINUOUS
 10
19.6982473655
 20
9.4232539332
 11
19.6974821453
 21
9.4232539332
  0
LINE
  5
260
100
AcDbEntity
  8
0
100
AcDbLine
 62
6
  6
CONTINUOUS
 10
21.4759963014
 20
9.4232539332
 11
19.6982473655
 21
9.4232539332
  0
LINE
  5
261
100
AcDbEntity
  8
0
100
AcDbLine
 62
6
  6
CONTINUOUS
 10
19.6974821453
 20
9.4232539332
 11
19.5655480496
 21
9.4232539332
  0
LINE
  5
262
100
AcDbEntity
  8
0
100
AcDbLine
 62
6
  6
CONTINUOUS
 10
3.8395480496
 20
9.4232539332
 11
3.3514859092
 21
9.4232497412
  0
LINE
  5
263
100
AcDbEntity
  8
0
100
AcDbLine
 62
7
  6
CONTINUOUS
 10
1.5722473655
 20
9.4232539332
 11
1.5714821453
 21
9.4232539332
  0
LINE
  5
264
100
AcDbEntity
  8
0
100
AcDbLine
 62
6
  6
CONTINUOUS
 10
3.3499963014
 20
9.4232539332
 11
1.5722473655
 21
9.4232539332
  0
LINE
  5
265
100
AcDbEntity
  8
0
100
AcDbLine
 62
6
  6
CONTINUOUS
 10
1.5714821453
 20
9.4232539332
 11
1.4395480496
 21
9.4232539332
  0
LINE
  5
266
100
AcDbEntity
  8
0
100
AcDbLine
 62
6
  6
CONTINUOUS
 10
22.0505480496
 20
9.4732539332
 11
19.4805480496
 21
9.4732539332
  0
LINE
  5
267
100
AcDbEntity
  8
0
100
AcDbLine
 62
6
  6
CONTINUOUS
 10
3.9245480496
 20
9.4732539332
 11
1.3545480496
 21
9.4732539332
  0
LINE
  5
268
100
AcDbEntity
  8
0
100
AcDbLine
 62
7
  6
CONTINUOUS
 10
3.3500383762
 20
9.4232539332
 11
3.3514859092
 21
9.4232497412
  0
LINE
  5
269
100
AcDbEntity
  8
0
100
AcDbLine
 62
7
  6
CONTINUOUS
 10
3.3499963014
 20
9.4232539332
 11
3.3514859293
 21
9.4232496634
  0
LINE
  5
26A
100
AcDbEntity
  8
0
100
AcDbLine
 62
7
  6
CONTINUOUS
 10
21.4759963014
 20
9.4232539332
 11
21.4774859293
 21
9.4232496634
  0
LINE
  5
26B
100
AcDbEntity
  8
0
100
AcDbLine
 62
7
  6
CONTINUOUS
 10
21.4760383762
 20
9.4232539332
 11
21.4774859092
 21
9.4232497412
  0
LINE
  5
26C
100
AcDbEntity
  8
0
100
AcDbLine
 62
7
  6
CONTINUOUS
 10
1.8654899321
 20
9.4232310134
 11
1.8657836044
 21
9.4232539332
  0
LINE
  5
26D
100
AcDbEntity
  8
0
100
AcDbLine
 62
7
  6
CONTINUOUS
 10
1.866033603
 20
9.4232539332
 11
1.8654899321
 21
9.4232310134
  0
LINE
  5
26E
100
AcDbEntity
  8
0
100
AcDbLine
 62
6
  6
CONTINUOUS
 10
22.0505480496
 20
9.6232539332
 11
19.4805480496
 21
9.6232539332
  0
LINE
  5
26F
100
AcDbEntity
  8
0
100
AcDbLine
 62
6
  6
CONTINUOUS
 10
3.9245480496
 20
9.6232539332
 11
1.3545480496
 21
9.6232539332
  0
LINE
  5
270
100
AcDbEntity
  8
0
100
AcDbLine
 62
7
  6
CONTINUOUS
 10
21.7950718408
 20
9.4232539332
 11
21.7952285752
 21
9.4232421711
  0
LINE
  5
271
100
AcDbEntity
  8
0
100
AcDbLine
 62
6
  6
CONTINUOUS
 10
20.7655480496
 20
6.5605925671
 11
20.7361546004
 21
6.5782539332
  0
LINE
  5
272
100
AcDbEntity
  8
0
100
AcDbLine
 62
6
  6
CONTINUOUS
 10
22.0505480496
 20
9.4732539332
 11
21.9655480496
 21
9.4232539332
  0
LINE
  5
273
100
AcDbEntity
  8
0
100
AcDbLine
 62
6
  6
CONTINUOUS
 10
19.5655480496
 20
9.4232539332
 11
19.4805480496
 21
9.4732539332
  0
LINE
  5
274
100
AcDbEntity
  8
0
100
AcDbLine
 62
6
  6
CONTINUOUS
 10
20.6055481242
 20
6.4882539332
 11
20.5984770563
 21
6.495325001
  0
LINE
  5
275
100
AcDbEntity
  8
0
100
AcDbLine
 62
6
  6
CONTINUOUS
 10
20.7655480496
 20
6.5605925671
 11
20.7949414987
 21
6.5782539332
  0
LINE
  5
276
100
AcDbEntity
  8
0
100
AcDbLine
 62
6
  6
CONTINUOUS
 10
20.3229000242
 20
7.9286185109
 11
20.3556424386
 21
7.8932539332
  0
LINE
  5
277
100
AcDbEntity
  8
0
100
AcDbLine
 62
6
  6
CONTINUOUS
 10
20.2901863603
 20
7.9652753379
 11
20.3229000462
 21
7.9286184871
  0
LINE
  5
278
100
AcDbEntity
  8
0
100
AcDbLine
 62
6
  6
CONTINUOUS
 10
21.1754536605
 20
7.8932539332
 11
21.2081960324
 21
7.928618464
  0
LINE
  5
279
100
AcDbEntity
  8
0
100
AcDbLine
 62
6
  6
CONTINUOUS
 10
20.2580045491
 20
8.0027633918
 11
20.2901862774
 21
7.9652754326
  0
LINE
  5
27A
100
AcDbEntity
  8
0
100
AcDbLine
 62
6
  6
CONTINUOUS
 10
20.3653232802
 20
7.9650633869
 11
20.3809047891
 21
7.9428396028
  0
LWPOLYLINE
  5
27B
100
AcDbEntity
  8
0
100
AcDbPolyline
 62
6
  6
CONTINUOUS
 90
31
 70
0
 10
21.2730914294
 20
8.0027632484
 10
21.304577106
 20
8.0409520844
 10
21.33521085
 20
8.0796934526
 10
21.3648494351
 20
8.1188258478
 10
21.3933666996
 20
8.1581799225
 10
21.4206527174
 20
8.1975774125
 10
21.4466570776
 20
8.2368981468
 10
21.4714373133
 20
8.2761752212
 10
21.4950616554
 20
8.3154690669
 10
21.5175931919
 20
8.3548455778
 10
21.5390773029
 20
8.3943530275
 10
21.559531509
 20
8.4339961921
 10
21.5789719997
 20
8.4737792036
 10
21.597421375
 20
8.5137225178
 10
21.614901876
 20
8.5538518329
 10
21.6314313237
 20
8.5941892639
 10
21.6470246171
 20
8.6347558179
 10
21.6616959624
 20
8.6755770872
 10
21.6754580562
 20
8.7166821438
 10
21.6883196355
 20
8.7580964668
 10
21.7002859314
 20
8.7998416718
 10
21.7113602756
 20
8.8419397669
 10
21.7215447982
 20
8.884416119
 10
21.730839909
 20
8.9272984899
 10
21.7392437425
 20
8.9706151163
 10
21.7467528014
 20
9.0143986258
 10
21.7533611577
 20
9.0586833125
 10
21.7590600625
 20
9.1035027586
 10
21.7638382895
 20
9.148891941
 10
21.7676819325
 20
9.1948856719
 10
21.770402374
 20
9.238214349
  0
LWPOLYLINE
  5
27C
100
AcDbEntity
  8
0
100
AcDbPolyline
 62
6
  6
CONTINUOUS
 90
42
 70
0
 10
21.1549731926
 20
7.8932539332
 10
21.1672299837
 20
7.9075579277
 10
21.1803632094
 20
7.9230388586
 10
21.1940357022
 20
7.9393561481
 10
21.2082142542
 20
7.9565210845
 10
21.2228608252
 20
7.9745385578
 10
21.2379360458
 20
7.9934115885
 10
21.2534054835
 20
8.0131496102
 10
21.2692354311
 20
8.033763849
 10
21.2853912139
 20
8.0552654559
 10
21.3018381581
 20
8.0776669824
 10
21.318541186
 20
8.1009820732
 10
21.3354642756
 20
8.1252248792
 10
21.3525724178
 20
8.1504131157
 10
21.3698452968
 20
8.1765896679
 10
21.3872666771
 20
8.2038097725
 10
21.4048165656
 20
8.2321304289
 10
21.4224715926
 20
8.2616116234
 10
21.4402465066
 20
8.2923903698
 10
21.4582080136
 20
8.3247220772
 10
21.4764087085
 20
8.3588810377
 10
21.4948710998
 20
8.3951359076
 10
21.5133953399
 20
8.4333450468
 10
21.5315851366
 20
8.4729009971
 10
21.5490829486
 20
8.5131443757
 10
21.5656100902
 20
8.5534468678
 10
21.5811578103
 20
8.5937376283
 10
21.5958339556
 20
8.6342610585
 10
21.6096739641
 20
8.6751113931
 10
21.6226679264
 20
8.7162622412
 10
21.634815372
 20
8.7577118297
 10
21.6461239976
 20
8.7994890075
 10
21.6565994317
 20
8.8416243327
 10
21.6662439252
 20
8.884144474
 10
21.6750570556
 20
8.9270732565
 10
21.6830366882
 20
8.9704350581
 10
21.6901798864
 20
9.0142607564
 10
21.69648179
 20
9.0585838479
 10
21.701935049
 20
9.1034371083
 10
21.7065301692
 20
9.1488547064
 10
21.7102553371
 20
9.1948706078
 10
21.7118435656
 20
9.2190385844
  0
LWPOLYLINE
  5
27D
100
AcDbEntity
  8
0
100
AcDbPolyline
 62
6
  6
CONTINUOUS
 90
3
 70
0
 10
21.208196075
 20
7.9286185109
 10
21.2409098218
 20
7.9652754326
 10
21.27309155
 20
8.0027633918
  0
LINE
  5
27E
100
AcDbEntity
  8
0
100
AcDbLine
 62
6
  6
CONTINUOUS
 10
20.9326190428
 20
6.495325001
 11
20.925547975
 21
6.4882539332
  0
LWPOLYLINE
  5
27F
100
AcDbEntity
  8
0
100
AcDbPolyline
 62
6
  6
CONTINUOUS
 90
22
 70
0
 10
20.0932358491
 20
9.1308611497
 10
20.0957682675
 20
9.100978074
 10
20.100043138
 20
9.0564141489
 10
20.1048910789
 20
9.0121775075
 10
20.1103132619
 20
8.9682776668
 10
20.116309967
 20
8.9247223187
 10
20.1228816324
 20
8.8815120361
 10
20.1300286766
 20
8.8386446168
 10
20.1377515563
 20
8.7961161574
 10
20.1460526273
 20
8.7539127902
 10
20.1549358133
 20
8.7120158541
 10
20.1644055975
 20
8.6704079785
 10
20.1744639036
 20
8.629085286
 10
20.185110532
 20
8.588051929
 10
20.1963497724
 20
8.5472949135
 10
20.2081909765
 20
8.5067864272
 10
20.2206419181
 20
8.4665083808
 10
20.2337073926
 20
8.4264540028
 10
20.2473915459
 20
8.3866181483
 10
20.2616978487
 20
8.3469964688
 10
20.2766289132
 20
8.3075849523
 10
20.2883377421
 20
8.277913644
  0
LWPOLYLINE
  5
280
100
AcDbEntity
  8
0
100
AcDbPolyline
 62
6
  6
CONTINUOUS
 90
33
 70
0
 10
19.9319652226
 20
9.1922467914
 10
19.9351601318
 20
9.150215927
 10
19.9393153118
 20
9.1053083257
 10
19.9441945354
 20
9.06090408
 10
19.9497919325
 20
9.0169831674
 10
19.9561023139
 20
8.973526874
 10
19.9631214932
 20
8.9305157134
 10
19.9708465067
 20
8.8879290028
 10
19.9792759534
 20
8.8457440639
 10
19.9884099242
 20
8.8039376146
 10
19.9982492078
 20
8.7624894593
 10
20.0087944229
 20
8.7213848512
 10
20.0200470117
 20
8.6806093177
 10
20.032012427
 20
8.6401382423
 10
20.0447018318
 20
8.5999348848
 10
20.0581279217
 20
8.5599666516
 10
20.0723030573
 20
8.5202091846
 10
20.0872401905
 20
8.4806416026
 10
20.1029519182
 20
8.4412480046
 10
20.1194509292
 20
8.4020152207
 10
20.1367459822
 20
8.3629409517
 10
20.1548417166
 20
8.3240314286
 10
20.1737480757
 20
8.2852802238
 10
20.1934949592
 20
8.2466424627
 10
20.2140965161
 20
8.2081077252
 10
20.2352029701
 20
8.1703022729
 10
20.2561108323
 20
8.134344112
 10
20.2762012506
 20
8.1010460754
 10
20.2954301945
 20
8.0702120744
 10
20.3139146805
 20
8.0414323645
 10
20.3317887017
 20
8.0143219347
 10
20.3491993322
 20
7.9885137964
 10
20.3653232802
 20
7.9650633869
  0
LINE
  5
281
100
AcDbEntity
  8
0
100
AcDbLine
 62
6
  6
CONTINUOUS
 10
20.0905406249
 20
9.1668230517
 11
20.0932358491
 21
9.1308611497
  0
LWPOLYLINE
  5
282
100
AcDbEntity
  8
0
100
AcDbPolyline
 62
6
  6
CONTINUOUS
 90
42
 70
0
 10
19.8192525335
 20
9.2190385844
 10
19.8208407621
 20
9.1948706078
 10
19.82456593
 20
9.1488547064
 10
19.8291610502
 20
9.1034371083
 10
19.8346143091
 20
9.0585838479
 10
19.8409162127
 20
9.0142607564
 10
19.848059411
 20
8.9704350581
 10
19.8560390435
 20
8.9270732565
 10
19.864852174
 20
8.884144474
 10
19.8744966674
 20
8.8416243327
 10
19.8849721015
 20
8.7994890075
 10
19.8962807271
 20
8.7577118297
 10
19.9084281727
 20
8.7162622412
 10
19.921422135
 20
8.6751113931
 10
19.9352621435
 20
8.6342610586
 10
19.9499382888
 20
8.5937376283
 10
19.965486009
 20
8.5534468678
 10
19.9820131505
 20
8.5131443757
 10
19.9995109625
 20
8.4729009971
 10
20.0177007592
 20
8.4333450469
 10
20.0362249994
 20
8.3951359076
 10
20.0546873907
 20
8.3588810377
 10
20.0728880855
 20
8.3247220772
 10
20.0908495926
 20
8.2923903698
 10
20.1086245065
 20
8.2616116234
 10
20.1262795335
 20
8.2321304289
 10
20.1438294221
 20
8.2038097725
 10
20.1612508023
 20
8.1765896679
 10
20.1785236814
 20
8.1504131158
 10
20.1956318236
 20
8.1252248792
 10
20.2125549131
 20
8.1009820732
 10
20.229257941
 20
8.0776669824
 10
20.2457048853
 20
8.0552654559
 10
20.261860668
 20
8.033763849
 10
20.2776906156
 20
8.0131496102
 10
20.2931600534
 20
7.9934115885
 10
20.3082352739
 20
7.9745385578
 10
20.3228818449
 20
7.9565210845
 10
20.3370603969
 20
7.9393561481
 10
20.3507328898
 20
7.9230388586
 10
20.3638661154
 20
7.9075579277
 10
20.3761229065
 20
7.8932539332
  0
LWPOLYLINE
  5
283
100
AcDbEntity
  8
0
100
AcDbPolyline
 62
6
  6
CONTINUOUS
 90
7
 70
0
 10
19.7606937251
 20
9.238214349
 10
19.7634140312
 20
9.1948875323
 10
19.7672576417
 20
9.1488937198
 10
19.7720358391
 20
9.1035044585
 10
19.7777347171
 20
9.0586849361
 10
19.7843430493
 20
9.0144001755
 10
19.7918520865
 20
8.9706165943
  0
LINE
  5
284
100
AcDbEntity
  8
0
100
AcDbLine
 62
6
  6
CONTINUOUS
 10
19.4805480496
 20
9.6232539332
 11
19.4805480496
 21
9.4732539332
  0
LWPOLYLINE
  5
285
100
AcDbEntity
  8
0
100
AcDbPolyline
 62
6
  6
CONTINUOUS
 90
33
 70
0
 10
21.1657741965
 20
7.9650653744
 10
21.1817946605
 20
7.9883640193
 10
21.1991912842
 20
8.0141479501
 10
21.2170522084
 20
8.0412339482
 10
21.235522478
 20
8.0699856342
 10
21.2547342105
 20
8.1007844407
 10
21.2748027809
 20
8.134036329
 10
21.2956869336
 20
8.1699406751
 10
21.3167784906
 20
8.2077032666
 10
21.3373823459
 20
8.2462240589
 10
21.3571447447
 20
8.2848732999
 10
21.3760702972
 20
8.3236451346
 10
21.3941820262
 20
8.3625706253
 10
21.4114901435
 20
8.4016560529
 10
21.4280014679
 20
8.4408996958
 10
21.4437255953
 20
8.4803059266
 10
21.4586747294
 20
8.5198868593
 10
21.4728610583
 20
8.559657293
 10
21.4862975773
 20
8.5996381127
 10
21.4989968057
 20
8.6398540619
 10
21.5109714718
 20
8.6803377834
 10
21.5222327401
 20
8.7211259705
 10
21.5327860979
 20
8.7622433263
 10
21.5426330041
 20
8.8037043681
 10
21.5517740865
 20
8.8455238689
 10
21.5602101359
 20
8.8877220225
 10
21.5679412487
 20
8.9303221293
 10
21.5749660284
 20
8.9733468922
 10
21.5812815146
 20
9.0168170259
 10
21.5868835216
 20
9.0607520485
 10
21.5917668581
 20
9.1051707029
 10
21.59592565
 20
9.1500930405
 10
21.5991308763
 20
9.1922467889
  0
LINE
  5
286
100
AcDbEntity
  8
0
100
AcDbLine
 62
6
  6
CONTINUOUS
 10
21.1657741965
 20
7.9650653744
 11
21.15019131
 21
7.9428396028
  0
LINE
  5
287
100
AcDbEntity
  8
0
100
AcDbLine
 62
6
  6
CONTINUOUS
 10
19.7311941927
 20
9.2982636683
 11
19.7485401408
 21
9.2524392941
  0
LWPOLYLINE
  5
288
100
AcDbEntity
  8
0
100
AcDbPolyline
 62
6
  6
CONTINUOUS
 90
25
 70
0
 10
19.7918523566
 20
8.9706151163
 10
19.8002561901
 20
8.9272984899
 10
19.8095513009
 20
8.884416119
 10
19.8197358235
 20
8.8419397669
 10
19.8308101677
 20
8.7998416718
 10
19.8427764636
 20
8.7580964668
 10
19.855638043
 20
8.7166821438
 10
19.8694001367
 20
8.6755770872
 10
19.884071482
 20
8.6347558179
 10
19.8996647754
 20
8.5941892639
 10
19.9161942231
 20
8.5538518329
 10
19.9336747241
 20
8.5137225178
 10
19.9521240995
 20
8.4737792036
 10
19.9715645901
 20
8.4339961921
 10
19.9920187963
 20
8.3943530275
 10
20.0135029073
 20
8.3548455778
 10
20.0360344437
 20
8.3154690669
 10
20.0596587858
 20
8.2761752212
 10
20.0844390215
 20
8.2368981468
 10
20.1104433817
 20
8.1975774125
 10
20.1377293996
 20
8.1581799225
 10
20.166246664
 20
8.1188258478
 10
20.1958852492
 20
8.0796934526
 10
20.2265189931
 20
8.0409520844
 10
20.2580046697
 20
8.0027632484
  0
LINE
  5
289
100
AcDbEntity
  8
0
100
AcDbLine
 62
6
  6
CONTINUOUS
 10
20.3780480496
 20
7.8632539332
 11
20.3780480496
 21
7.874177037
  0
LINE
  5
28A
100
AcDbEntity
  8
0
100
AcDbLine
 62
6
  6
CONTINUOUS
 10
20.3935480496
 20
7.3917055908
 11
20.3935480496
 21
6.7382010698
  0
LINE
  5
28B
100
AcDbEntity
  8
0
100
AcDbLine
 62
6
  6
CONTINUOUS
 10
20.4130480496
 20
7.8132539332
 11
20.4130480496
 21
7.7692539332
  0
LINE
  5
28C
100
AcDbEntity
  8
0
100
AcDbLine
 62
6
  6
CONTINUOUS
 10
20.4350514845
 20
6.6962539332
 11
20.4350514845
 21
6.6132539332
  0
LINE
  5
28D
100
AcDbEntity
  8
0
100
AcDbLine
 62
6
  6
CONTINUOUS
 10
20.7655480496
 20
9.1668230517
 11
20.7655480496
 21
7.9428396028
  0
LINE
  5
28E
100
AcDbEntity
  8
0
100
AcDbLine
 62
6
  6
CONTINUOUS
 10
21.8008433413
 20
9.3007507428
 11
21.7825559583
 21
9.2524392941
  0
LWPOLYLINE
  5
28F
100
AcDbEntity
  8
0
100
AcDbPolyline
 62
6
  6
CONTINUOUS
 90
22
 70
0
 10
21.2427600412
 20
8.2779178391
 10
21.2541806489
 20
8.3068464192
 10
21.269158942
 20
8.3463498302
 10
21.2835093938
 20
8.3860643239
 10
21.2972345964
 20
8.4259938627
 10
21.3103380191
 20
8.4661427493
 10
21.3228238203
 20
8.5065160866
 10
21.3346968168
 20
8.5471206067
 10
21.3459648446
 20
8.5879744893
 10
21.3566373758
 20
8.6291058917
 10
21.3667187788
 20
8.6705280781
 10
21.3762088835
 20
8.712237016
 10
21.3851096409
 20
8.7542367207
 10
21.3934255369
 20
8.7965446124
 10
21.4011604912
 20
8.8391793793
 10
21.408316854
 20
8.8821549019
 10
21.4148950647
 20
8.9254749885
 10
21.420895531
 20
8.9691417137
 10
21.426318694
 20
9.0131543836
 10
21.4311648378
 20
9.0575050375
 10
21.4354351556
 20
9.1021838131
 10
21.4378601612
 20
9.1308600447
  0
LINE
  5
290
100
AcDbEntity
  8
0
100
AcDbLine
 62
6
  6
CONTINUOUS
 10
21.0705480496
 20
7.5322539332
 11
21.0705480496
 21
7.6562539332
  0
LINE
  5
291
100
AcDbEntity
  8
0
100
AcDbLine
 62
6
  6
CONTINUOUS
 10
21.0960446147
 20
6.6962539332
 11
21.0960446147
 21
6.6132539332
  0
LINE
  5
292
100
AcDbEntity
  8
0
100
AcDbLine
 62
6
  6
CONTINUOUS
 10
21.1180480496
 20
7.8132539332
 11
21.1180480496
 21
7.7692539332
  0
LINE
  5
293
100
AcDbEntity
  8
0
100
AcDbLine
 62
6
  6
CONTINUOUS
 10
21.1530480496
 20
7.874177037
 11
21.1530480496
 21
7.8632539332
  0
LINE
  5
294
100
AcDbEntity
  8
0
100
AcDbLine
 62
6
  6
CONTINUOUS
 10
22.0505480496
 20
9.6232539332
 11
22.0505480496
 21
9.4732539332
  0
LINE
  5
295
100
AcDbEntity
  8
0
100
AcDbLine
 62
6
  6
CONTINUOUS
 10
21.4405554742
 20
9.1668230517
 11
21.4378601612
 21
9.1308600447
  0
LINE
  5
296
100
AcDbEntity
  8
0
100
AcDbLine
 62
6
  6
CONTINUOUS
 10
21.4780354829
 20
9.4210187016
 11
21.477482245
 21
9.4232539332
  0
ARC
  5
297
100
AcDbEntity
  8
0
100
AcDbCircle
 62
6
  6
CONTINUOUS
 10
2.4155097041
 20
6.4972539332
 40
0.057
100
AcDbArc
 50
358.0606880897
 51
90.0
  0
ARC
  5
298
100
AcDbEntity
  8
0
100
AcDbCircle
 62
6
  6
CONTINUOUS
 10
2.3440514845
 20
6.6132539332
 40
0.035
100
AcDbArc
 50
180.0
 51
270.0
  0
ARC
  5
299
100
AcDbEntity
  8
0
100
AcDbCircle
 62
6
  6
CONTINUOUS
 10
2.863586395
 20
6.4972539332
 40
0.057
100
AcDbArc
 50
90.0
 51
181.9393119103
  0
ARC
  5
29A
100
AcDbEntity
  8
0
100
AcDbCircle
 62
6
  6
CONTINUOUS
 10
2.9350446147
 20
6.6132539332
 40
0.035
100
AcDbArc
 50
270.0
 51
360.0
  0
ARC
  5
29B
100
AcDbEntity
  8
0
100
AcDbCircle
 62
6
  6
CONTINUOUS
 10
2.6395480496
 20
7.0647604059
 40
0.495
100
AcDbArc
 50
139.8458068178
 51
228.1125252055
  0
ARC
  5
29C
100
AcDbEntity
  8
0
100
AcDbCircle
 62
6
  6
CONTINUOUS
 10
2.6395480496
 20
7.0647604059
 40
0.495
100
AcDbArc
 50
311.8874747945
 51
318.7217959866
  0
ARC
  5
29D
100
AcDbEntity
  8
0
100
AcDbCircle
 62
6
  6
CONTINUOUS
 10
2.0120480496
 20
7.5941796632
 40
0.326
100
AcDbArc
 50
319.8458068178
 51
32.4822048034
  0
ARC
  5
29E
100
AcDbEntity
  8
0
100
AcDbCircle
 62
6
  6
CONTINUOUS
 10
3.2670480496
 20
7.5941796632
 40
0.326
100
AcDbArc
 50
147.5177951966
 51
166.9626799915
  0
ARC
  5
29F
100
AcDbEntity
  8
0
100
AcDbCircle
 62
6
  6
CONTINUOUS
 10
3.2670480496
 20
7.5941796632
 40
0.326
100
AcDbArc
 50
195.0838464242
 51
218.3954915547
  0
ARC
  5
2A0
100
AcDbEntity
  8
0
100
AcDbCircle
 62
6
  6
CONTINUOUS
 10
3.2201495773
 20
7.6046638152
 40
0.2844571777
100
AcDbArc
 50
194.3162699187
 51
194.7419999851
  0
ARC
  5
2A1
100
AcDbEntity
  8
0
100
AcDbCircle
 62
7
  6
CONTINUOUS
 10
3.1620762842
 20
7.6229431118
 40
0.238577468
100
AcDbArc
 50
206.5298238908
 51
208.1371732689
  0
ARC
  5
2A2
100
AcDbEntity
  8
0
100
AcDbCircle
 62
6
  6
CONTINUOUS
 10
3.1516785275
 20
7.5991457407
 40
0.2185214151
100
AcDbArc
 50
186.4652274412
 51
186.8300927609
  0
ARC
  5
2A3
100
AcDbEntity
  8
0
100
AcDbCircle
 62
6
  6
CONTINUOUS
 10
3.1469584939
 20
7.5986534503
 40
0.2137799618
100
AcDbArc
 50
178.8857945483
 51
181.1826192582
  0
ARC
  5
2A4
100
AcDbEntity
  8
0
100
AcDbCircle
 62
6
  6
CONTINUOUS
 10
3.1436799905
 20
7.5985890985
 40
0.2105008285
100
AcDbArc
 50
181.1835249076
 51
182.0224397585
  0
ARC
  5
2A5
100
AcDbEntity
  8
0
100
AcDbCircle
 62
7
  6
CONTINUOUS
 10
3.1302822579
 20
7.5803020843
 40
0.2034985432
100
AcDbArc
 50
155.1255464492
 51
159.8403283776
  0
ARC
  5
2A6
100
AcDbEntity
  8
0
100
AcDbCircle
 62
7
  6
CONTINUOUS
 10
3.087688237
 20
7.5942931942
 40
0.1544098591
100
AcDbArc
 50
181.1625690326
 51
187.349739323
  0
ARC
  5
2A7
100
AcDbEntity
  8
0
100
AcDbCircle
 62
6
  6
CONTINUOUS
 10
2.9770480496
 20
7.8632539332
 40
0.05
100
AcDbArc
 50
270.0
 51
360.0
  0
ARC
  5
2A8
100
AcDbEntity
  8
0
100
AcDbCircle
 62
6
  6
CONTINUOUS
 10
2.3020480496
 20
7.8632539332
 40
0.05
100
AcDbArc
 50
180.0
 51
270.0
  0
ARC
  5
2A9
100
AcDbEntity
  8
0
100
AcDbCircle
 62
7
  6
CONTINUOUS
 10
9.9308531056
 20
7.8953685625
 40
7.0035217092
100
AcDbArc
 50
182.4641770139
 51
182.6256298775
  0
ARC
  5
2AA
100
AcDbEntity
  8
0
100
AcDbCircle
 62
6
  6
CONTINUOUS
 10
1.1991487056
 20
9.4399239332
 40
2.4068193439
100
AcDbArc
 50
319.4172131634
 51
320.0123584086
  0
ARC
  5
2AB
100
AcDbEntity
  8
0
100
AcDbCircle
 62
6
  6
CONTINUOUS
 10
2.1890832017
 20
9.3986655747
 40
0.5718684907
100
AcDbArc
 50
359.9587574915
 51
2.4642831191
  0
ARC
  5
2AC
100
AcDbEntity
  8
0
100
AcDbCircle
 62
6
  6
CONTINUOUS
 10
1.8096440534
 20
9.3232639332
 40
0.20006
100
AcDbArc
 50
200.73321
 51
209.511857047
  0
ARC
  5
2AD
100
AcDbEntity
  8
0
100
AcDbCircle
 62
6
  6
CONTINUOUS
 10
1.5422275952
 20
9.3982539331
 40
0.1000000009
100
AcDbArc
 50
165.5224879163
 51
276.1414975719
  0
ARC
  5
2AE
100
AcDbEntity
  8
0
100
AcDbCircle
 62
6
  6
CONTINUOUS
 10
1.7496293567
 20
9.3982539349
 40
0.1000000009
100
AcDbArc
 50
165.522490511
 51
299.5663433861
  0
ARC
  5
2AF
100
AcDbEntity
  8
0
100
AcDbCircle
 62
6
  6
CONTINUOUS
 10
1.962320427
 20
9.3982539347
 40
0.1000000003
100
AcDbArc
 50
165.522492248
 51
309.518665956
  0
ARC
  5
2B0
100
AcDbEntity
  8
0
100
AcDbCircle
 62
6
  6
CONTINUOUS
 10
1.6683056976
 20
9.3982539334
 40
0.1000000002
100
AcDbArc
 50
165.5224883104
 51
294.0126577432
  0
ARC
  5
2B1
100
AcDbEntity
  8
0
100
AcDbCircle
 62
6
  6
CONTINUOUS
 10
1.8482742692
 20
9.3982539344
 40
0.1
100
AcDbArc
 50
165.5224877511
 51
304.7610816467
  0
ARC
  5
2B2
100
AcDbEntity
  8
0
100
AcDbCircle
 62
6
  6
CONTINUOUS
 10
2.0895480493
 20
9.398253934
 40
0.0999999995
100
AcDbArc
 50
202.2474998775
 51
313.6103670382
  0
ARC
  5
2B3
100
AcDbEntity
  8
0
100
AcDbCircle
 62
6
  6
CONTINUOUS
 10
2.5245667406
 20
9.3982539334
 40
0.0999999994
100
AcDbArc
 50
218.8164174286
 51
320.0867779485
  0
ARC
  5
2B4
100
AcDbEntity
  8
0
100
AcDbCircle
 62
6
  6
CONTINUOUS
 10
2.3734339648
 20
9.3982539338
 40
0.0999999994
100
AcDbArc
 50
216.214651352
 51
319.0960201603
  0
ARC
  5
2B5
100
AcDbEntity
  8
0
100
AcDbCircle
 62
6
  6
CONTINUOUS
 10
2.2274807973
 20
9.3982539315
 40
0.0999999982
100
AcDbArc
 50
211.3810999289
 51
316.8679822055
  0
ARC
  5
2B6
100
AcDbEntity
  8
0
100
AcDbCircle
 62
6
  6
CONTINUOUS
 10
1.5635856863
 20
9.3982539332
 40
0.0999999975
100
AcDbArc
 50
165.5224874992
 51
282.2211959353
  0
ARC
  5
2B7
100
AcDbEntity
  8
0
100
AcDbCircle
 62
6
  6
CONTINUOUS
 10
1.6058861627
 20
9.3982539334
 40
0.099999996
100
AcDbArc
 50
165.5224873424
 51
288.1963660976
  0
ARC
  5
2B8
100
AcDbEntity
  8
0
100
AcDbCircle
 62
6
  6
CONTINUOUS
 10
0.4035972614
 20
9.9642390448
 40
3.3448973044
100
AcDbArc
 50
321.7460861861
 51
322.1215248396
  0
ARC
  5
2B9
100
AcDbEntity
  8
0
100
AcDbCircle
 62
6
  6
CONTINUOUS
 10
4.0799473935
 20
9.4399239332
 40
2.4068193439
100
AcDbArc
 50
219.9876415914
 51
220.5827868366
  0
ARC
  5
2BA
100
AcDbEntity
  8
0
100
AcDbCircle
 62
6
  6
CONTINUOUS
 10
4.3106105021
 20
9.3986311428
 40
1.7115964011
100
AcDbArc
 50
179.1757223651
 51
180.0126271123
  0
ARC
  5
2BB
100
AcDbEntity
  8
0
100
AcDbCircle
 62
6
  6
CONTINUOUS
 10
3.4694520458
 20
9.3232639332
 40
0.20006
100
AcDbArc
 50
330.4881393003
 51
339.26679
  0
ARC
  5
2BC
100
AcDbEntity
  8
0
100
AcDbCircle
 62
6
  6
CONTINUOUS
 10
2.6779374956
 20
9.3982539348
 40
0.1000000004
100
AcDbArc
 50
219.8442511707
 51
320.4930859735
  0
ARC
  5
2BD
100
AcDbEntity
  8
0
100
AcDbCircle
 62
6
  6
CONTINUOUS
 10
2.830561045
 20
9.3982539333
 40
0.1
100
AcDbArc
 50
220.2598291403
 51
322.261433339
  0
ARC
  5
2BE
100
AcDbEntity
  8
0
100
AcDbCircle
 62
6
  6
CONTINUOUS
 10
3.7395480496
 20
9.3982539332
 40
0.1
100
AcDbArc
 50
266.9264769418
 51
14.4777178347
  0
ARC
  5
2BF
100
AcDbEntity
  8
0
100
AcDbCircle
 62
6
  6
CONTINUOUS
 10
3.2546602436
 20
9.3982539344
 40
0.1
100
AcDbArc
 50
228.3472330455
 51
346.8416583596
  0
ARC
  5
2C0
100
AcDbEntity
  8
0
100
AcDbCircle
 62
6
  6
CONTINUOUS
 10
3.3755917169
 20
9.3982539341
 40
0.0999999996
100
AcDbArc
 50
232.799730009
 51
14.4775117891
  0
ARC
  5
2C1
100
AcDbEntity
  8
0
100
AcDbCircle
 62
6
  6
CONTINUOUS
 10
3.6969359159
 20
9.3982539332
 40
0.0999999992
100
AcDbArc
 50
254.7836101428
 51
14.4775122869
  0
ARC
  5
2C2
100
AcDbEntity
  8
0
100
AcDbCircle
 62
6
  6
CONTINUOUS
 10
3.1217563112
 20
9.3982539331
 40
0.0999999989
100
AcDbArc
 50
224.6334585315
 51
332.3781526563
  0
ARC
  5
2C3
100
AcDbEntity
  8
0
100
AcDbCircle
 62
6
  6
CONTINUOUS
 10
2.9794667439
 20
9.3982539319
 40
0.0999999982
100
AcDbArc
 50
221.864469867
 51
325.8511843883
  0
ARC
  5
2C4
100
AcDbEntity
  8
0
100
AcDbCircle
 62
6
  6
CONTINUOUS
 10
3.7288429271
 20
9.3982539333
 40
0.0999999981
100
AcDbArc
 50
260.8354879689
 51
14.4775124023
  0
ARC
  5
2C5
100
AcDbEntity
  8
0
100
AcDbCircle
 62
6
  6
CONTINUOUS
 10
3.5724009615
 20
9.3982539325
 40
0.0999999938
100
AcDbArc
 50
243.1763533077
 51
14.4775134244
  0
ARC
  5
2C6
100
AcDbEntity
  8
0
100
AcDbCircle
 62
6
  6
CONTINUOUS
 10
3.64444806
 20
9.3982539336
 40
0.099999993
100
AcDbArc
 50
248.8910248505
 51
14.4775129632
  0
ARC
  5
2C7
100
AcDbEntity
  8
0
100
AcDbCircle
 62
6
  6
CONTINUOUS
 10
3.4821969489
 20
9.3982539333
 40
0.0999999881
100
AcDbArc
 50
237.780190938
 51
14.4775138284
  0
ARC
  5
2C8
100
AcDbEntity
  8
0
100
AcDbCircle
 62
6
  6
CONTINUOUS
 10
4.9482184175
 20
10.0211890429
 40
3.4372626137
100
AcDbArc
 50
217.883588662
 51
218.2488670458
  0
ARC
  5
2C9
100
AcDbEntity
  8
0
100
AcDbCircle
 62
6
  6
CONTINUOUS
 10
20.5415097041
 20
6.4972539332
 40
0.057
100
AcDbArc
 50
358.0606880897
 51
90.0
  0
ARC
  5
2CA
100
AcDbEntity
  8
0
100
AcDbCircle
 62
6
  6
CONTINUOUS
 10
20.4700514845
 20
6.6132539332
 40
0.035
100
AcDbArc
 50
180.0
 51
270.0
  0
ARC
  5
2CB
100
AcDbEntity
  8
0
100
AcDbCircle
 62
6
  6
CONTINUOUS
 10
20.1380480496
 20
7.5941796632
 40
0.326
100
AcDbArc
 50
321.6045084453
 51
344.9161535758
  0
ARC
  5
2CC
100
AcDbEntity
  8
0
100
AcDbCircle
 62
6
  6
CONTINUOUS
 10
20.1380480496
 20
7.5941796632
 40
0.326
100
AcDbArc
 50
13.0373200085
 51
32.4822048034
  0
ARC
  5
2CD
100
AcDbEntity
  8
0
100
AcDbCircle
 62
6
  6
CONTINUOUS
 10
20.2065185754
 20
7.5911751256
 40
0.2660113986
100
AcDbArc
 50
12.3782244133
 51
12.5972646071
  0
ARC
  5
2CE
100
AcDbEntity
  8
0
100
AcDbCircle
 62
6
  6
CONTINUOUS
 10
20.2404130004
 20
7.6009096435
 40
0.2316431977
100
AcDbArc
 50
346.9868168511
 51
353.4634458824
  0
ARC
  5
2CF
100
AcDbEntity
  8
0
100
AcDbCircle
 62
6
  6
CONTINUOUS
 10
20.2848768802
 20
7.6018988502
 40
0.1878850354
100
AcDbArc
 50
339.9014502431
 51
342.6694286082
  0
ARC
  5
2D0
100
AcDbEntity
  8
0
100
AcDbCircle
 62
6
  6
CONTINUOUS
 10
20.3174078623
 20
7.5942931942
 40
0.1544098591
100
AcDbArc
 50
352.6502606745
 51
358.8374309694
  0
ARC
  5
2D1
100
AcDbEntity
  8
0
100
AcDbCircle
 62
6
  6
CONTINUOUS
 10
20.4280480496
 20
7.8632539332
 40
0.05
100
AcDbArc
 50
180.0
 51
270.0
  0
ARC
  5
2D2
100
AcDbEntity
  8
0
100
AcDbCircle
 62
6
  6
CONTINUOUS
 10
20.7655480496
 20
7.0647604059
 40
0.495
100
AcDbArc
 50
221.2782040134
 51
228.1125252055
  0
ARC
  5
2D3
100
AcDbEntity
  8
0
100
AcDbCircle
 62
6
  6
CONTINUOUS
 10
20.7655480496
 20
7.0647604059
 40
0.495
100
AcDbArc
 50
311.8874747945
 51
40.1541931822
  0
ARC
  5
2D4
100
AcDbEntity
  8
0
100
AcDbCircle
 62
6
  6
CONTINUOUS
 10
20.989586395
 20
6.4972539332
 40
0.057
100
AcDbArc
 50
90.0
 51
181.9393119103
  0
ARC
  5
2D5
100
AcDbEntity
  8
0
100
AcDbCircle
 62
6
  6
CONTINUOUS
 10
21.0610446147
 20
6.6132539332
 40
0.035
100
AcDbArc
 50
270.0
 51
360.0
  0
ARC
  5
2D6
100
AcDbEntity
  8
0
100
AcDbCircle
 62
6
  6
CONTINUOUS
 10
21.3930480496
 20
7.5941796632
 40
0.326
100
AcDbArc
 50
147.5177951966
 51
172.5450804489
  0
ARC
  5
2D7
100
AcDbEntity
  8
0
100
AcDbCircle
 62
6
  6
CONTINUOUS
 10
21.3930480496
 20
7.5941796632
 40
0.326
100
AcDbArc
 50
187.1812472903
 51
220.1541931822
  0
ARC
  5
2D8
100
AcDbEntity
  8
0
100
AcDbCircle
 62
6
  6
CONTINUOUS
 10
21.1030480496
 20
7.8632539332
 40
0.05
100
AcDbArc
 50
270.0
 51
360.0
  0
ARC
  5
2D9
100
AcDbEntity
  8
0
100
AcDbCircle
 62
6
  6
CONTINUOUS
 10
19.3251487056
 20
9.4399239332
 40
2.4068193439
100
AcDbArc
 50
319.4172131634
 51
320.0123584086
  0
ARC
  5
2DA
100
AcDbEntity
  8
0
100
AcDbCircle
 62
6
  6
CONTINUOUS
 10
20.3150832017
 20
9.3986655747
 40
0.5718684907
100
AcDbArc
 50
359.9587574915
 51
2.4642831191
  0
ARC
  5
2DB
100
AcDbEntity
  8
0
100
AcDbCircle
 62
6
  6
CONTINUOUS
 10
19.9356440534
 20
9.3232639332
 40
0.20006
100
AcDbArc
 50
200.73321
 51
209.511857047
  0
ARC
  5
2DC
100
AcDbEntity
  8
0
100
AcDbCircle
 62
6
  6
CONTINUOUS
 10
19.6682275952
 20
9.3982539331
 40
0.1000000009
100
AcDbArc
 50
165.5224879163
 51
276.1414975719
  0
ARC
  5
2DD
100
AcDbEntity
  8
0
100
AcDbCircle
 62
6
  6
CONTINUOUS
 10
19.8756293567
 20
9.3982539349
 40
0.1000000009
100
AcDbArc
 50
165.522490511
 51
299.5663433861
  0
ARC
  5
2DE
100
AcDbEntity
  8
0
100
AcDbCircle
 62
6
  6
CONTINUOUS
 10
20.088320427
 20
9.3982539347
 40
0.1000000003
100
AcDbArc
 50
165.522492248
 51
309.518665956
  0
ARC
  5
2DF
100
AcDbEntity
  8
0
100
AcDbCircle
 62
6
  6
CONTINUOUS
 10
19.7943056976
 20
9.3982539334
 40
0.1000000002
100
AcDbArc
 50
165.5224883104
 51
294.0126577432
  0
ARC
  5
2E0
100
AcDbEntity
  8
0
100
AcDbCircle
 62
6
  6
CONTINUOUS
 10
19.9742742692
 20
9.3982539344
 40
0.1
100
AcDbArc
 50
165.5224877511
 51
304.7610816467
  0
ARC
  5
2E1
100
AcDbEntity
  8
0
100
AcDbCircle
 62
6
  6
CONTINUOUS
 10
20.2155480493
 20
9.398253934
 40
0.0999999995
100
AcDbArc
 50
202.2474998775
 51
313.6103670382
  0
ARC
  5
2E2
100
AcDbEntity
  8
0
100
AcDbCircle
 62
6
  6
CONTINUOUS
 10
20.6505667406
 20
9.3982539334
 40
0.0999999994
100
AcDbArc
 50
218.8164174286
 51
320.0867779485
  0
ARC
  5
2E3
100
AcDbEntity
  8
0
100
AcDbCircle
 62
6
  6
CONTINUOUS
 10
20.4994339648
 20
9.3982539338
 40
0.0999999994
100
AcDbArc
 50
216.214651352
 51
319.0960201603
  0
ARC
  5
2E4
100
AcDbEntity
  8
0
100
AcDbCircle
 62
6
  6
CONTINUOUS
 10
20.3534807973
 20
9.3982539315
 40
0.0999999982
100
AcDbArc
 50
211.3810999289
 51
316.8679822055
  0
ARC
  5
2E5
100
AcDbEntity
  8
0
100
AcDbCircle
 62
6
  6
CONTINUOUS
 10
19.6895856863
 20
9.3982539332
 40
0.0999999975
100
AcDbArc
 50
165.5224874992
 51
282.2211959353
  0
ARC
  5
2E6
100
AcDbEntity
  8
0
100
AcDbCircle
 62
6
  6
CONTINUOUS
 10
19.7318861627
 20
9.3982539334
 40
0.099999996
100
AcDbArc
 50
165.5224873424
 51
288.1963660976
  0
ARC
  5
2E7
100
AcDbEntity
  8
0
100
AcDbCircle
 62
6
  6
CONTINUOUS
 10
18.5295972612
 20
9.9642390449
 40
3.3448973046
100
AcDbArc
 50
321.7460861861
 51
322.1215248396
  0
ARC
  5
2E8
100
AcDbEntity
  8
0
100
AcDbCircle
 62
6
  6
CONTINUOUS
 10
22.2059473935
 20
9.4399239332
 40
2.4068193439
100
AcDbArc
 50
219.9876415914
 51
220.5827868366
  0
ARC
  5
2E9
100
AcDbEntity
  8
0
100
AcDbCircle
 62
6
  6
CONTINUOUS
 10
22.436610502
 20
9.3986311428
 40
1.711596401
100
AcDbArc
 50
179.1757223651
 51
180.0126271124
  0
ARC
  5
2EA
100
AcDbEntity
  8
0
100
AcDbCircle
 62
6
  6
CONTINUOUS
 10
21.5954520458
 20
9.3232639332
 40
0.20006
100
AcDbArc
 50
330.4881393003
 51
339.26679
  0
ARC
  5
2EB
100
AcDbEntity
  8
0
100
AcDbCircle
 62
6
  6
CONTINUOUS
 10
20.8039374956
 20
9.3982539348
 40
0.1000000004
100
AcDbArc
 50
219.8442511707
 51
320.4930859735
  0
ARC
  5
2EC
100
AcDbEntity
  8
0
100
AcDbCircle
 62
6
  6
CONTINUOUS
 10
20.956561045
 20
9.3982539333
 40
0.1
100
AcDbArc
 50
220.2598291403
 51
322.261433339
  0
ARC
  5
2ED
100
AcDbEntity
  8
0
100
AcDbCircle
 62
6
  6
CONTINUOUS
 10
21.8655480496
 20
9.3982539332
 40
0.1
100
AcDbArc
 50
266.9264769418
 51
14.4777178347
  0
ARC
  5
2EE
100
AcDbEntity
  8
0
100
AcDbCircle
 62
6
  6
CONTINUOUS
 10
21.3806602436
 20
9.3982539344
 40
0.1
100
AcDbArc
 50
228.3472330455
 51
346.8416583596
  0
ARC
  5
2EF
100
AcDbEntity
  8
0
100
AcDbCircle
 62
6
  6
CONTINUOUS
 10
21.5015917169
 20
9.3982539341
 40
0.0999999996
100
AcDbArc
 50
232.799730009
 51
14.4775117891
  0
ARC
  5
2F0
100
AcDbEntity
  8
0
100
AcDbCircle
 62
6
  6
CONTINUOUS
 10
21.2477563112
 20
9.3982539331
 40
0.0999999989
100
AcDbArc
 50
224.6334585315
 51
332.3781526563
  0
ARC
  5
2F1
100
AcDbEntity
  8
0
100
AcDbCircle
 62
6
  6
CONTINUOUS
 10
21.1054667439
 20
9.3982539319
 40
0.0999999982
100
AcDbArc
 50
221.864469867
 51
325.8511843883
  0
ARC
  5
2F2
100
AcDbEntity
  8
0
100
AcDbCircle
 62
6
  6
CONTINUOUS
 10
21.8548429271
 20
9.3982539333
 40
0.0999999981
100
AcDbArc
 50
260.8354879689
 51
14.4775124023
  0
ARC
  5
2F3
100
AcDbEntity
  8
0
100
AcDbCircle
 62
6
  6
CONTINUOUS
 10
21.6984009615
 20
9.3982539325
 40
0.0999999938
100
AcDbArc
 50
243.1763533077
 51
14.4775134244
  0
ARC
  5
2F4
100
AcDbEntity
  8
0
100
AcDbCircle
 62
6
  6
CONTINUOUS
 10
21.77044806
 20
9.3982539336
 40
0.099999993
100
AcDbArc
 50
248.8910248505
 51
14.4775129632
  0
ARC
  5
2F5
100
AcDbEntity
  8
0
100
AcDbCircle
 62
6
  6
CONTINUOUS
 10
21.8229359159
 20
9.3982539332
 40
0.0999999992
100
AcDbArc
 50
254.7836101428
 51
14.4775122869
  0
ARC
  5
2F6
100
AcDbEntity
  8
0
100
AcDbCircle
 62
6
  6
CONTINUOUS
 10
21.6081969489
 20
9.3982539333
 40
0.0999999881
100
AcDbArc
 50
237.780190938
 51
14.4775138284
  0
ARC
  5
2F7
100
AcDbEntity
  8
0
100
AcDbCircle
 62
6
  6
CONTINUOUS
 10
23.0742184179
 20
10.0211890432
 40
3.4372626142
100
AcDbArc
 50
217.883588662
 51
218.2488670458
  0
SPLINE
  5
2F8
100
AcDbEntity
  8
0
100
AcDbSpline
 62
6
  6
CONTINUOUS
 70
0
 71
3
 72
14
 73
10
 74
8
 42
0.0000001
 43
0.0000001
 44
0.0000000001
 12
0.0009310887
 22
0.0480792832
 32
0.0
 13
0.0107108127
 23
0.0468803039
 33
0.0
 40
0.0
 40
0.0
 40
0.0
 40
0.0
 40
0.1261028995
 40
0.2521440648
 40
0.3779596393
 40
0.5034401348
 40
0.6284686473
 40
0.7529488037
 40
1.0
 40
1.0
 40
1.0
 40
1.0
 10
2.9332189533
 20
7.6028104718
 30
0.0
 10
2.933258091
 20
7.6048314508
 30
0.0
 10
2.9333930374
 20
7.6088715566
 30
0.0
 10
2.9337657558
 20
7.6149193114
 30
0.0
 10
2.9343040746
 20
7.6209445662
 30
0.0
 10
2.9350006843
 20
7.6269371603
 30
0.0
 10
2.9358492359
 20
7.632888533
 30
0.0
 10
2.9371701477
 20
7.6407383269
 30
0.0
 10
2.9383688438
 20
7.6465747105
 30
0.0
 10
2.9392508835
 20
7.6504353223
 30
0.0
 11
2.9332189533
 21
7.6028104718
 31
0.0
 11
2.9334215096
 21
7.6088711617
 31
0.0
 11
2.9337937632
 21
7.6149208247
 31
0.0
 11
2.9343312902
 21
7.6209471563
 31
0.0
 11
2.9350274029
 21
7.6269410127
 31
0.0
 11
2.9358753655
 21
7.6328933243
 31
0.0
 11
2.9368677092
 21
7.6387965366
 31
0.0
 11
2.9392508835
 21
7.6504353223
 31
0.0
  0
SPLINE
  5
2F9
100
AcDbEntity
  8
0
100
AcDbSpline
 62
6
  6
CONTINUOUS
 70
0
 71
3
 72
13
 73
9
 74
7
 42
0.0000001
 43
0.0000001
 44
0.0000000001
 12
-0.0200509166
 22
0.0550422067
 32
0.0
 13
-0.0069666003
 23
0.0581648541
 33
0.0
 40
0.0
 40
0.0
 40
0.0
 40
0.0
 40
0.1058680762
 40
0.2198697775
 40
0.3399973131
 40
0.465028951
 40
0.7266389107
 40
1.0
 40
1.0
 40
1.0
 40
1.0
 10
2.9486205505
 20
7.5163792438
 30
0.0
 10
2.9479129665
 20
7.518321648
 30
0.0
 10
2.9464872719
 20
7.5223717968
 30
0.0
 10
2.9444218494
 20
7.5286820122
 30
0.0
 10
2.9424021463
 20
7.5353990209
 30
0.0
 10
2.9398036528
 20
7.5449484091
 30
0.0
 10
2.9369632943
 20
7.5575277457
 30
0.0
 10
2.9353427179
 20
7.567857975
 30
0.0
 10
2.9347079188
 20
7.5731579776
 30
0.0
 11
2.9486205505
 21
7.5163792438
 31
0.0
 11
2.9465608845
 21
7.5222290522
 31
0.0
 11
2.9444841212
 21
7.5285762207
 31
0.0
 11
2.9424589094
 21
7.5353156464
 31
0.0
 11
2.9405372845
 21
7.5423835005
 31
0.0
 11
2.9371768865
 21
7.5573358039
 31
0.0
 11
2.9347079188
 21
7.5731579776
 31
0.0
  0
LINE
  5
2FA
100
AcDbEntity
  8
0
100
AcDbLine
 62
7
  6
CONTINUOUS
 10
2.9522800414
 20
7.5093439335
 11
2.9516936414
 21
7.5104337707
  0
SPLINE
  5
2FB
100
AcDbEntity
  8
0
100
AcDbSpline
 62
7
  6
CONTINUOUS
 70
0
 71
3
 72
30
 73
26
 74
24
 42
0.0000001
 43
0.0000001
 44
0.0000000001
 12
0.0039574906
 22
0.0032325741
 32
0.0
 13
-0.0011527244
 23
-0.0049782019
 33
0.0
 40
0.0
 40
0.0
 40
0.0
 40
0.0
 40
0.124850866
 40
0.2409690846
 40
0.3480646896
 40
0.4458561333
 40
0.5340750104
 40
0.6124805535
 40
0.6809131963
 40
0.7392917289
 40
0.7876439853
 40
0.8081362923
 40
0.8262531366
 40
0.8421140144
 40
0.8559174585
 40
0.8679893439
 40
0.8788272691
 40
0.8891208073
 40
0.8996778925
 40
0.9112615089
 40
0.9244666959
 40
0.9397074176
 40
0.9572609559
 40
0.9773148436
 40
1.0
 40
1.0
 40
1.0
 40
1.0
 10
2.9456619386
 20
7.6658999509
 30
0.0
 10
2.9458266373
 20
7.6660344808
 30
0.0
 10
2.9461452188
 20
7.6662932723
 30
0.0
 10
2.946608277
 20
7.6666635019
 30
0.0
 10
2.947038898
 20
7.6670004558
 30
0.0
 10
2.9474363861
 20
7.6673025714
 30
0.0
 10
2.9478000519
 20
7.6675683228
 30
0.0
 10
2.9481292957
 20
7.6677962268
 30
0.0
 10
2.948423562
 20
7.6679850871
 30
0.0
 10
2.9486823755
 20
7.6681337665
 30
0.0
 10
2.9488777872
 20
7.6682282772
 30
0.0
 10
2.9490164649
 20
7.6682806161
 30
0.0
 10
2.9491055834
 20
7.6683068154
 30
0.0
 10
2.9491856986
 20
7.6683220738
 30
0.0
 10
2.9492569365
 20
7.6683261683
 30
0.0
 10
2.9493194521
 20
7.6683187811
 30
0.0
 10
2.9493732116
 20
7.6682993117
 30
0.0
 10
2.9494175432
 20
7.6682672108
 30
0.0
 10
2.9494515772
 20
7.6682228099
 30
0.0
 10
2.9494752891
 20
7.6681669248
 30
0.0
 10
2.9494891975
 20
7.6680998445
 30
0.0
 10
2.9494936578
 20
7.6680214117
 30
0.0
 10
2.9494888047
 20
7.667931389
 30
0.0
 10
2.9494746643
 20
7.6678295799
 30
0.0
 10
2.949459959
 20
7.6677582352
 30
0.0
 10
2.9494512425
 20
7.6677205914
 30
0.0
 11
2.9456619386
 21
7.6658999509
 31
0.0
 11
2.9461573007
 21
7.6663019857
 31
0.0
 11
2.9466209508
 21
7.6666722536
 31
0.0
 11
2.9470521993
 21
7.6670091617
 31
0.0
 11
2.9474503564
 21
7.6673111175
 31
0.0
 11
2.9478147323
 21
7.6675765284
 31
0.0
 11
2.948144656
 21
7.6678038334
 31
0.0
 11
2.9484395899
 21
7.6679916997
 31
0.0
 11
2.9486990553
 21
7.6681388944
 31
0.0
 11
2.9489225738
 21
7.668244185
 31
0.0
 11
2.9490207033
 21
7.6682807311
 31
0.0
 11
2.9491096667
 21
7.668306339
 31
0.0
 11
2.949189404
 21
7.6683208547
 31
0.0
 11
2.9492598622
 21
7.6683241341
 31
0.0
 11
2.9493210208
 21
7.6683160828
 31
0.0
 11
2.9493728695
 21
7.668296621
 31
0.0
 11
2.9494153977
 21
7.668265669
 31
0.0
 11
2.9494485949
 21
7.6682231473
 31
0.0
 11
2.9494724508
 21
7.6681689761
 31
0.0
 11
2.9494869547
 21
7.6681030759
 31
0.0
 11
2.9494920963
 21
7.668025367
 31
0.0
 11
2.9494878651
 21
7.6679357697
 31
0.0
 11
2.9494742507
 21
7.6678342044
 31
0.0
 11
2.9494512425
 21
7.6677205914
 31
0.0
  0
SPLINE
  5
2FC
100
AcDbEntity
  8
0
100
AcDbSpline
 62
6
  6
CONTINUOUS
 70
0
 71
3
 72
12
 73
8
 74
6
 42
0.0000001
 43
0.0000001
 44
0.0000000001
 12
0.0057341965
 22
-0.0217944089
 32
0.0
 13
0.0071213584
 23
-0.0213813826
 33
0.0
 40
0.0
 40
0.0
 40
0.0
 40
0.0
 40
0.2781133086
 40
0.540970757
 40
0.6653396411
 40
0.7841333317
 40
1.0
 40
1.0
 40
1.0
 40
1.0
 10
2.9450563093
 20
7.5322788732
 30
0.0
 10
2.9455878947
 20
7.5302584348
 30
0.0
 10
2.9466645895
 20
7.5263394978
 30
0.0
 10
2.948083343
 20
7.5215467471
 30
0.0
 10
2.9492082778
 20
7.5179157369
 30
0.0
 10
2.9502536294
 20
7.5146297303
 30
0.0
 10
2.9510379631
 20
7.5122411693
 30
0.0
 10
2.9515503844
 20
7.51070266
 30
0.0
 11
2.9450563093
 21
7.5322788732
 31
0.0
 11
2.9467152667
 21
7.5262348142
 31
0.0
 11
2.9483948415
 21
7.5205541171
 31
0.0
 11
2.9492241201
 21
7.5178768145
 31
0.0
 11
2.9500353625
 21
7.5153255364
 31
0.0
 11
2.9515503844
 21
7.51070266
 31
0.0
  0
LINE
  5
2FD
100
AcDbEntity
  8
0
100
AcDbLine
 62
7
  6
CONTINUOUS
 10
2.9346838489
 20
7.5745382917
 11
2.9347001372
 21
7.5741861169
  0
SPLINE
  5
2FE
100
AcDbEntity
  8
0
100
AcDbSpline
 62
6
  6
CONTINUOUS
 70
0
 71
3
 72
15
 73
11
 74
9
 42
0.0000001
 43
0.0000001
 44
0.0000000001
 12
0.0020277411
 22
0.0574107057
 32
0.0
 13
-0.0123144094
 23
0.0561111057
 33
0.0
 40
0.0
 40
0.0
 40
0.0
 40
0.0
 40
0.1253089902
 40
0.2510887425
 40
0.3140383771
 40
0.3769635767
 40
0.5026223937
 40
0.6279031586
 40
0.752641919
 40
1.0
 40
1.0
 40
1.0
 40
1.0
 10
20.4717858125
 20
7.5911603341
 30
0.0
 10
20.4718705105
 20
7.59355836
 30
0.0
 10
20.4719577629
 20
7.5983666931
 30
0.0
 10
20.4718645187
 20
7.6043806009
 30
0.0
 10
20.4716690577
 20
7.6091957279
 30
0.0
 10
20.4713929568
 20
7.6140045838
 30
0.0
 10
20.4708990998
 20
7.61999555
 30
0.0
 10
20.4700796305
 20
7.6271437589
 30
0.0
 10
20.4687032101
 20
7.6365690766
 30
0.0
 10
20.4673615811
 20
7.6435719136
 30
0.0
 10
20.4663462249
 20
7.6481984254
 30
0.0
 11
20.4717858125
 21
7.5911603341
 31
0.0
 11
20.4719172995
 21
7.5983576966
 31
0.0
 11
20.4718056445
 21
7.605582441
 31
0.0
 11
20.4716589344
 21
7.6091957002
 31
0.0
 11
20.4714518275
 21
7.6128045951
 31
0.0
 11
20.4708602575
 21
7.6199989744
 31
0.0
 11
20.4700416582
 21
7.6271492101
 31
0.0
 11
20.4690074892
 21
7.6342399975
 31
0.0
 11
20.4663462249
 21
7.6481984254
 31
0.0
  0
SPLINE
  5
2FF
100
AcDbEntity
  8
0
100
AcDbSpline
 62
7
  6
CONTINUOUS
 70
0
 71
3
 72
25
 73
21
 74
19
 42
0.0000001
 43
0.0000001
 44
0.0000000001
 12
0.0300960768
 22
-0.085328938
 32
0.0
 13
-0.0203877054
 23
-0.0881540865
 33
0.0
 40
0.0
 40
0.0
 40
0.0
 40
0.0
 40
0.1094481148
 40
0.1675241409
 40
0.2275133242
 40
0.2891906843
 40
0.3205978029
 40
0.3523457414
 40
0.4167143071
 40
0.4820083833
 40
0.5479367245
 40
0.6141675892
 40
0.6472920465
 40
0.6803661491
 40
0.7462098552
 40
0.8114008007
 40
0.8436566436
 40
0.8756343783
 40
0.9386033243
 40
1.0
 40
1.0
 40
1.0
 40
1.0
 10
20.4666377684
 20
7.6482315645
 30
0.0
 10
20.4677357547
 20
7.6451185341
 30
0.0
 10
20.469292006
 20
7.6403081751
 30
0.0
 10
20.4711226752
 20
7.63369419
 30
0.0
 10
20.472404651
 20
7.6284258607
 30
0.0
 10
20.4733474899
 20
7.6239054236
 30
0.0
 10
20.4740193125
 20
7.6202006803
 30
0.0
 10
20.4746370821
 20
7.6164042828
 30
0.0
 10
20.4752866711
 20
7.6115784056
 30
0.0
 10
20.4758518807
 20
7.6057049832
 30
0.0
 10
20.4761875967
 20
7.5997576725
 30
0.0
 10
20.4762729756
 20
7.5947719922
 30
0.0
 10
20.4762221212
 20
7.5907779687
 30
0.0
 10
20.4760909156
 20
7.5867974551
 30
0.0
 10
20.4757806608
 20
7.5818562689
 30
0.0
 10
20.4752827634
 20
7.576955328
 30
0.0
 10
20.4747769948
 20
7.5730845423
 30
0.0
 10
20.4742084927
 20
7.5692902286
 30
0.0
 10
20.473383341
 20
7.5646465715
 30
0.0
 10
20.4725997253
 20
7.5609775956
 30
0.0
 10
20.4721824795
 20
7.559173473
 30
0.0
 11
20.4666377684
 21
7.6482315645
 31
0.0
 11
20.4696803362
 21
7.6388075752
 31
0.0
 11
20.4710811665
 21
7.6337429606
 31
0.0
 11
20.4723638334
 21
7.6284688137
 31
0.0
 11
20.4735021582
 21
7.6230055178
 31
0.0
 11
20.4740090841
 21
7.6202093516
 31
0.0
 11
20.4744704583
 21
7.6173740616
 31
0.0
 11
20.4752466877
 21
7.6116018919
 31
0.0
 11
20.4758114012
 21
7.6057210736
 31
0.0
 11
20.476148153
 21
7.5997653277
 31
0.0
 11
20.4762503169
 21
7.5937735674
 31
0.0
 11
20.476211997
 21
7.5907766801
 31
0.0
 11
20.4761135593
 21
7.5877857235
 31
0.0
 11
20.4757410932
 21
7.5818397773
 31
0.0
 11
20.4751448906
 21
7.5759714473
 31
0.0
 11
20.4747668139
 21
7.5730775003
 31
0.0
 11
20.4743382926
 21
7.5702160335
 31
0.0
 11
20.4733424243
 21
7.5646062531
 31
0.0
 11
20.4721824795
 21
7.559173473
 31
0.0
  0
LINE
  5
300
100
AcDbEntity
  8
0
100
AcDbLine
 62
7
  6
CONTINUOUS
 10
20.4535457147
 20
7.51070266
 11
20.4528160577
 21
7.5093439335
  0
SPLINE
  5
301
100
AcDbEntity
  8
0
100
AcDbSpline
 62
6
  6
CONTINUOUS
 70
0
 71
3
 72
13
 73
9
 74
7
 42
0.0000001
 43
0.0000001
 44
0.0000000001
 12
-0.0065595374
 22
-0.0269652798
 32
0.0
 13
-0.0087694469
 23
-0.0263296534
 33
0.0
 40
0.0
 40
0.0
 40
0.0
 40
0.0
 40
0.2795329286
 40
0.4137432052
 40
0.5435272397
 40
0.6681208335
 40
0.7867004342
 40
1.0
 40
1.0
 40
1.0
 40
1.0
 10
20.4613202712
 20
7.5373348024
 30
0.0
 10
20.460709069
 20
7.5348222412
 30
0.0
 10
20.4597511969
 20
7.5311160395
 30
0.0
 10
20.4583993111
 20
7.5262731947
 30
0.0
 10
20.4573918649
 20
7.522822515
 30
0.0
 10
20.4563897298
 20
7.5195211471
 30
0.0
 10
20.4551243456
 20
7.515492525
 30
0.0
 10
20.4541692211
 20
7.5125746946
 30
0.0
 10
20.4535457147
 20
7.51070266
 30
0.0
 11
20.4613202712
 21
7.5373348024
 31
0.0
 11
20.4593822509
 21
7.5298232868
 31
0.0
 11
20.4583811148
 21
7.5262358024
 31
0.0
 11
20.4573721564
 21
7.5227782897
 31
0.0
 11
20.456368138
 21
7.5194695922
 31
0.0
 11
20.4553824339
 21
7.5163299084
 31
0.0
 11
20.4535457147
 21
7.51070266
 31
0.0
  0
SPLINE
  5
302
100
AcDbEntity
  8
0
100
AcDbSpline
 62
6
  6
CONTINUOUS
 70
0
 71
3
 72
12
 73
8
 74
6
 42
0.0000001
 43
0.0000001
 44
0.0000000001
 12
-0.0075341279
 22
-0.0134865002
 32
0.0
 13
-0.008416689
 23
-0.0129540773
 33
0.0
 40
0.0
 40
0.0
 40
0.0
 40
0.0
 40
0.2899898163
 40
0.4256265969
 40
0.554743
 40
0.7922865389
 40
1.0
 40
1.0
 40
1.0
 40
1.0
 10
20.4721824795
 20
7.559173473
 30
0.0
 10
20.4714542061
 20
7.5578698237
 30
0.0
 10
20.4703675385
 20
7.5559662685
 30
0.0
 10
20.4689196879
 20
7.5535037446
 30
0.0
 10
20.4675915223
 20
7.5512842231
 30
0.0
 10
20.4660445321
 20
7.5487632321
 30
0.0
 10
20.4648150626
 20
7.5468277667
 30
0.0
 10
20.4642323094
 20
7.5459308546
 30
0.0
 11
20.4721824795
 21
7.559173473
 31
0.0
 11
20.4699622279
 21
7.5552825303
 31
0.0
 11
20.468900291
 21
7.5534762104
 31
0.0
 11
20.4678759882
 21
7.5517646823
 31
0.0
 11
20.4659555836
 21
7.5486376607
 31
0.0
 11
20.4642323094
 21
7.5459308546
 31
0.0
  0
SPLINE
  5
303
100
AcDbEntity
  8
0
100
AcDbSpline
 62
6
  6
CONTINUOUS
 70
0
 71
3
 72
23
 73
19
 74
17
 42
0.0000001
 43
0.0000001
 44
0.0000000001
 12
0.0050526616
 22
-0.0218206272
 32
0.0
 13
0.0112802875
 23
-0.0193500459
 33
0.0
 40
0.0
 40
0.0
 40
0.0
 40
0.0
 40
0.0090734351
 40
0.0196371384
 40
0.031710321
 40
0.0453026719
 40
0.0604181719
 40
0.0770571976
 40
0.1148953377
 40
0.1587855426
 40
0.2086661301
 40
0.2643934951
 40
0.3257958502
 40
0.3926985178
 40
0.464925085
 40
0.6246367785
 40
0.8034816217
 40
1.0
 40
1.0
 40
1.0
 40
1.0
 10
20.4556448567
 20
7.6677205914
 30
0.0
 10
20.4556601383
 20
7.6676545954
 30
0.0
 10
20.4556992469
 20
7.6675131573
 30
0.0
 10
20.4557748864
 20
7.6672887414
 30
0.0
 10
20.4558718069
 20
7.6670361475
 30
0.0
 10
20.4559898332
 20
7.666755443
 30
0.0
 10
20.4561287818
 20
7.6664466797
 30
0.0
 10
20.4563514414
 20
7.6659771991
 30
0.0
 10
20.4566826317
 20
7.665321591
 30
0.0
 10
20.4571445148
 20
7.6644542762
 30
0.0
 10
20.457684374
 20
7.6634773305
 30
0.0
 10
20.4582993346
 20
7.6623926111
 30
0.0
 10
20.4589862123
 20
7.6612026286
 30
0.0
 10
20.4597416783
 20
7.6599100366
 30
0.0
 10
20.4608745455
 20
7.6579878949
 30
0.0
 10
20.4624409131
 20
7.6553511533
 30
0.0
 10
20.4644791777
 20
7.6519153974
 30
0.0
 10
20.4658988404
 20
7.6494991111
 30
0.0
 10
20.4666377684
 20
7.6482315645
 30
0.0
 11
20.4556448567
 21
7.6677205914
 31
0.0
 11
20.4556979298
 21
7.6675244173
 31
0.0
 11
20.4557727148
 21
7.6672999415
 31
0.0
 11
20.4558689863
 21
7.6670472441
 31
0.0
 11
20.4559865189
 21
7.6667664053
 31
0.0
 11
20.4561250873
 21
7.6664575051
 31
0.0
 11
20.4562844662
 21
7.6661206237
 31
0.0
 11
20.4566647539
 21
7.6653632378
 31
0.0
 11
20.4571255793
 21
7.6644948885
 31
0.0
 11
20.4576649338
 21
7.6635164785
 31
0.0
 11
20.4582797694
 21
7.6624302324
 31
0.0
 11
20.4589667099
 21
7.6612387919
 31
0.0
 11
20.4597223792
 21
7.6599447987
 31
0.0
 11
20.4605434012
 21
7.6585508946
 31
0.0
 11
20.4623676682
 21
7.6554737954
 31
0.0
 11
20.4644095357
 21
7.6520275068
 31
0.0
 11
20.4666377684
 21
7.6482315645
 31
0.0
  0
SPLINE
  5
304
100
AcDbEntity
  8
0
100
AcDbSpline
 62
6
  6
CONTINUOUS
 70
0
 71
3
 72
21
 73
17
 74
15
 42
0.0000001
 43
0.0000001
 44
0.0000000001
 12
-0.0703231794
 22
-0.8754773324
 32
0.0
 13
-0.3272051757
 23
-0.8150721945
 33
0.0
 40
0.0
 40
0.0
 40
0.0
 40
0.0
 40
0.130043565
 40
0.2583020309
 40
0.3218154563
 40
0.3849446258
 40
0.4477110187
 40
0.510136489
 40
0.5722432505
 40
0.6340538608
 40
0.695591203
 40
0.7568784662
 40
0.8179391247
 40
0.8787969147
 40
0.9394758108
 40
1.0
 40
1.0
 40
1.0
 40
1.0
 10
3.3118601612
 20
9.1308600447
 30
0.0
 10
3.3088118023
 20
9.0929099802
 30
0.0
 10
3.3014738409
 20
9.0176273322
 30
0.0
 10
3.2890287943
 20
8.9242150603
 30
0.0
 10
3.2771607376
 20
8.8505349003
 30
0.0
 10
3.2673394504
 20
8.7959557958
 30
0.0
 10
3.2565693523
 20
8.7418807896
 30
0.0
 10
3.2448504139
 20
8.6883097216
 30
0.0
 10
3.2321826262
 20
8.6352426584
 30
0.0
 10
3.2185659757
 20
8.5826796077
 30
0.0
 10
3.2040004528
 20
8.5306205959
 30
0.0
 10
3.1884860464
 20
8.4790656401
 30
0.0
 10
3.1720227567
 20
8.4280147836
 30
0.0
 10
3.1546105499
 20
8.3774679803
 30
0.0
 10
3.1362495281
 20
8.3274255193
 30
0.0
 10
3.1233613172
 20
8.2943617004
 30
0.0
 10
3.1167600412
 20
8.2779178391
 30
0.0
 11
3.3118601612
 21
9.1308600447
 31
0.0
 11
3.3007512037
 21
9.0171846734
 31
0.0
 11
3.2858483727
 21
8.905525758
 31
0.0
 11
3.2769742545
 21
8.8504524712
 31
0.0
 11
3.267151668
 21
8.7958832985
 31
0.0
 11
3.2563806131
 21
8.7418182397
 31
0.0
 11
3.2446610898
 21
8.6882572948
 31
0.0
 11
3.2319930981
 21
8.635200464
 31
0.0
 11
3.218376638
 21
8.5826477471
 31
0.0
 11
3.2038117095
 21
8.5305991442
 31
0.0
 11
3.1882983126
 21
8.4790546552
 31
0.0
 11
3.1718364474
 21
8.4280142802
 31
0.0
 11
3.1544261137
 21
8.3774780192
 31
0.0
 11
3.1360673116
 21
8.3274458722
 31
0.0
 11
3.1167600412
 21
8.2779178391
 31
0.0
  0
SPLINE
  5
305
100
AcDbEntity
  8
0
100
AcDbSpline
 62
7
  6
CONTINUOUS
 70
0
 71
3
 72
19
 73
15
 74
13
 42
0.0000001
 43
0.0000001
 44
0.0000000001
 12
-0.0027000237
 22
-0.0116604309
 32
0.0
 13
-0.0061046778
 23
-0.0102950806
 33
0.0
 40
0.0
 40
0.0
 40
0.0
 40
0.0
 40
0.0238188507
 40
0.0528429649
 40
0.0871374918
 40
0.1267240376
 40
0.1716012644
 40
0.2217547161
 40
0.2771619462
 40
0.3377935877
 40
0.4744308721
 40
0.6308971151
 40
0.8063658604
 40
1.0
 40
1.0
 40
1.0
 40
1.0
 10
2.9494512425
 20
7.6677205914
 30
0.0
 10
2.9494298053
 20
7.6676280121
 30
0.0
 10
2.9493703589
 20
7.667425406
 30
0.0
 10
2.9492507186
 20
7.6670988705
 30
0.0
 10
2.9490920039
 20
7.6667201081
 30
0.0
 10
2.9488946501
 20
7.6662893015
 30
0.0
 10
2.9486590827
 20
7.6658065974
 30
0.0
 10
2.9483858035
 20
7.6652721975
 30
0.0
 10
2.9480753466
 20
7.6646863003
 30
0.0
 10
2.9475930455
 20
7.6638010519
 30
0.0
 10
2.9469005801
 20
7.6625712687
 30
0.0
 10
2.9459655109
 20
7.6609524696
 30
0.0
 10
2.9449043429
 20
7.6591439638
 30
0.0
 10
2.9441542048
 20
7.6578767535
 30
0.0
 10
2.9437601802
 20
7.6572122605
 30
0.0
 11
2.9494512425
 21
7.6677205914
 31
0.0
 11
2.9493735515
 21
7.667446295
 31
0.0
 11
2.9492557021
 21
7.6671195076
 31
0.0
 11
2.9490982641
 21
7.6667404317
 31
0.0
 11
2.9489018077
 21
7.6663092702
 31
0.0
 11
2.948666903
 21
7.6658262257
 31
0.0
 11
2.9483941201
 21
7.665291501
 31
0.0
 11
2.948084029
 21
7.6647052986
 31
0.0
 11
2.9477372133
 21
7.6640678387
 31
0.0
 11
2.9469369771
 21
7.662641595
 31
0.0
 11
2.9460016975
 21
7.6610191293
 31
0.0
 11
2.9449399156
 21
7.6592071245
 31
0.0
 11
2.9437601802
 21
7.6572122605
 31
0.0
  0
SPLINE
  5
306
100
AcDbEntity
  8
0
100
AcDbSpline
 62
6
  6
CONTINUOUS
 70
0
 71
3
 72
21
 73
17
 74
15
 42
0.0000001
 43
0.0000001
 44
0.0000000001
 12
-0.0703231794
 22
-0.8754773324
 32
0.0
 13
-0.3272051757
 23
-0.8150721945
 33
0.0
 40
0.0
 40
0.0
 40
0.0
 40
0.0
 40
0.130043565
 40
0.2583020309
 40
0.3218154563
 40
0.3849446258
 40
0.4477110187
 40
0.510136489
 40
0.5722432505
 40
0.6340538608
 40
0.695591203
 40
0.7568784662
 40
0.8179391247
 40
0.8787969147
 40
0.9394758108
 40
1.0
 40
1.0
 40
1.0
 40
1.0
 10
21.4378601612
 20
9.1308600447
 30
0.0
 10
21.4348118023
 20
9.0929099802
 30
0.0
 10
21.4274738409
 20
9.0176273322
 30
0.0
 10
21.4150287943
 20
8.9242150603
 30
0.0
 10
21.4031607376
 20
8.8505349003
 30
0.0
 10
21.3933394504
 20
8.7959557958
 30
0.0
 10
21.3825693523
 20
8.7418807896
 30
0.0
 10
21.3708504139
 20
8.6883097216
 30
0.0
 10
21.3581826262
 20
8.6352426584
 30
0.0
 10
21.3445659757
 20
8.5826796077
 30
0.0
 10
21.3300004528
 20
8.5306205959
 30
0.0
 10
21.3144860464
 20
8.4790656401
 30
0.0
 10
21.2980227567
 20
8.4280147836
 30
0.0
 10
21.2806105499
 20
8.3774679803
 30
0.0
 10
21.2622495281
 20
8.3274255193
 30
0.0
 10
21.2493613172
 20
8.2943617004
 30
0.0
 10
21.2427600412
 20
8.2779178391
 30
0.0
 11
21.4378601612
 21
9.1308600447
 31
0.0
 11
21.4267512037
 21
9.0171846734
 31
0.0
 11
21.4118483727
 21
8.905525758
 31
0.0
 11
21.4029742545
 21
8.8504524712
 31
0.0
 11
21.393151668
 21
8.7958832985
 31
0.0
 11
21.3823806131
 21
8.7418182397
 31
0.0
 11
21.3706610898
 21
8.6882572948
 31
0.0
 11
21.3579930981
 21
8.635200464
 31
0.0
 11
21.344376638
 21
8.5826477471
 31
0.0
 11
21.3298117095
 21
8.5305991442
 31
0.0
 11
21.3142983126
 21
8.4790546552
 31
0.0
 11
21.2978364474
 21
8.4280142802
 31
0.0
 11
21.2804261137
 21
8.3774780192
 31
0.0
 11
21.2620673116
 21
8.3274458722
 31
0.0
 11
21.2427600412
 21
8.2779178391
 31
0.0
  0
SPLINE
  5
307
100
AcDbEntity
  8
0
100
AcDbSpline
 62
6
  6
CONTINUOUS
 70
0
 71
3
 72
63
 73
59
 74
57
 42
0.0000001
 43
0.0000001
 44
0.0000000001
 12
0.0148556804
 22
0.2628175015
 32
0.0
 13
-0.2249171604
 23
-0.1367698844
 33
0.0
 40
0.0
 40
0.0
 40
0.0
 40
0.0
 40
0.0200874408
 40
0.0407518165
 40
0.0620336285
 40
0.072914887
 40
0.0839562923
 40
0.1065148941
 40
0.1180350342
 40
0.1297142059
 40
0.1415523201
 40
0.1535470648
 40
0.1656920191
 40
0.1779819892
 40
0.1904138503
 40
0.2029866891
 40
0.2157005544
 40
0.2285491872
 40
0.2415275188
 40
0.2546364829
 40
0.2678835464
 40
0.2812788392
 40
0.2948224821
 40
0.3085250457
 40
0.3224160149
 40
0.336542754
 40
0.3509379509
 40
0.3656284493
 40
0.3731001972
 40
0.3806651543
 40
0.3883325456
 40
0.396110184
 40
0.4040011179
 40
0.412006256
 40
0.4283519515
 40
0.4366896358
 40
0.4451304953
 40
0.4536689104
 40
0.4622999902
 40
0.4710223762
 40
0.4798341464
 40
0.4977107796
 40
0.5158925713
 40
0.5250819808
 40
0.5343268309
 40
0.5529664192
 40
0.5717926776
 40
0.5907854495
 40
0.6099207639
 40
0.6485310237
 40
0.6874925067
 40
0.7266834556
 40
0.7660078905
 40
0.8447076269
 40
0.8839201754
 40
0.9229345396
 40
0.961665115
 40
1.0
 40
1.0
 40
1.0
 40
1.0
 10
21.4405554742
 20
9.1668230517
 30
0.0
 10
21.4406549451
 20
9.1685828287
 30
0.0
 10
21.440682852
 20
9.1721646206
 30
0.0
 10
21.4402422985
 20
9.1775960206
 30
0.0
 10
21.4394899796
 20
9.1821752504
 30
0.0
 10
21.4386649816
 20
9.1858761181
 30
0.0
 10
21.4376761344
 20
9.1896525705
 30
0.0
 10
21.4364640786
 20
9.1934257981
 30
0.0
 10
21.4350370669
 20
9.1971793378
 30
0.0
 10
21.433844715
 20
9.2000138073
 30
0.0
 10
21.4325378462
 20
9.2028431976
 30
0.0
 10
21.4311158512
 20
9.2056624184
 30
0.0
 10
21.4295753171
 20
9.2084640441
 30
0.0
 10
21.4279134548
 20
9.2112403039
 30
0.0
 10
21.4261274215
 20
9.2139833422
 30
0.0
 10
21.4242143563
 20
9.2166851118
 30
0.0
 10
21.4221723926
 20
9.2193372461
 30
0.0
 10
21.4199962759
 20
9.2219273147
 30
0.0
 10
21.4176806869
 20
9.2244410482
 30
0.0
 10
21.415220747
 20
9.2268640614
 30
0.0
 10
21.4126117447
 20
9.2291814964
 30
0.0
 10
21.4098507593
 20
9.2313778834
 30
0.0
 10
21.4069290546
 20
9.2334267836
 30
0.0
 10
21.4038395387
 20
9.2352990341
 30
0.0
 10
21.4005759267
 20
9.2369650828
 30
0.0
 10
21.3971350266
 20
9.2383935425
 30
0.0
 10
21.3935208434
 20
9.2395545951
 30
0.0
 10
21.3903890285
 20
9.2402692952
 30
0.0
 10
21.3878120155
 20
9.2406777093
 30
0.0
 10
21.3858314456
 20
9.2408993088
 30
0.0
 10
21.3838159093
 20
9.2410298836
 30
0.0
 10
21.3817679378
 20
9.2410675353
 30
0.0
 10
21.3796906835
 20
9.2410154499
 30
0.0
 10
21.3768671944
 20
9.2408280447
 30
0.0
 10
21.3740182059
 20
9.2404697595
 30
0.0
 10
21.3711569609
 20
9.2399567387
 30
0.0
 10
21.3689842977
 20
9.2394916202
 30
0.0
 10
21.3668027065
 20
9.2389510994
 30
0.0
 10
21.3646148748
 20
9.2383375677
 30
0.0
 10
21.3624223326
 20
9.2376555424
 30
0.0
 10
21.3594801334
 20
9.2366557344
 30
0.0
 10
21.3557989765
 20
9.23525523
 30
0.0
 10
21.3521466848
 20
9.2336960722
 30
0.0
 10
21.3492237008
 20
9.2323620804
 30
0.0
 10
21.3462845579
 20
9.2309675973
 30
0.0
 10
21.3426178182
 20
9.2291351043
 30
0.0
 10
21.3382391553
 20
9.2268171226
 30
0.0
 10
21.3338691811
 20
9.2243920337
 30
0.0
 10
21.3280352802
 20
9.2210292955
 30
0.0
 10
21.3207671082
 20
9.2166483092
 30
0.0
 10
21.3120903874
 20
9.2111995194
 30
0.0
 10
21.3034210989
 20
9.2056225543
 30
0.0
 10
21.2918653266
 20
9.1980882918
 30
0.0
 10
21.2803237015
 20
9.1905288714
 30
0.0
 10
21.2687603421
 20
9.1830526977
 30
0.0
 10
21.2601102669
 20
9.1775302908
 30
0.0
 10
21.2514837035
 20
9.1721146594
 30
0.0
 10
21.2457244347
 20
9.1685707377
 30
0.0
 10
21.2428503769
 20
9.1668230517
 30
0.0
 11
21.4405554742
 21
9.1668230517
 31
0.0
 11
21.4406053572
 21
9.1721105746
 31
0.0
 11
21.4401740056
 21
9.1775330737
 31
0.0
 11
21.4392735095
 21
9.1830623876
 31
0.0
 11
21.4386511055
 21
9.185858298
 31
0.0
 11
21.4379153618
 21
9.1886701412
 31
0.0
 11
21.4361029956
 21
9.1943250728
 31
0.0
 11
21.4350257532
 21
9.1971598163
 31
0.0
 11
21.433834058
 21
9.1999938486
 31
0.0
 11
21.4325275958
 21
9.2028229908
 31
0.0
 11
21.4311053164
 21
9.2056419765
 31
0.0
 11
21.4295646103
 21
9.2084432341
 31
0.0
 11
21.4279026687
 21
9.2112188977
 31
0.0
 11
21.426116683
 21
9.2139611015
 31
0.0
 11
21.4242038445
 21
9.2166619799
 31
0.0
 11
21.4221611605
 21
9.2193130636
 31
0.0
 11
21.4199843644
 21
9.2219017077
 31
0.0
 11
21.4176686504
 21
9.2244135005
 31
0.0
 11
21.4152092111
 21
9.2268340242
 31
0.0
 11
21.4126012388
 21
9.229148861
 31
0.0
 11
21.4098397403
 21
9.2313415234
 31
0.0
 11
21.4069188479
 21
9.2333857725
 31
0.0
 11
21.4038324362
 21
9.2352524998
 31
0.0
 11
21.40057438
 21
9.2369125963
 31
0.0
 11
21.3971392513
 21
9.2383368426
 31
0.0
 11
21.3935310736
 21
9.2394945205
 31
0.0
 11
21.3897606739
 21
9.2403538329
 31
0.0
 11
21.3878180711
 21
9.2406616581
 31
0.0
 11
21.385839029
 21
9.2408829591
 31
0.0
 11
21.3838249332
 21
9.2410137996
 31
0.0
 11
21.381777939
 21
9.2410526294
 31
0.0
 11
21.3797013812
 21
9.2410015512
 31
0.0
 11
21.3775986938
 21
9.2408629764
 31
0.0
 11
21.3733286671
 21
9.2403329831
 31
0.0
 11
21.3711681962
 21
9.2399463875
 31
0.0
 11
21.3689953324
 21
9.2394819412
 31
0.0
 11
21.3668135095
 21
9.2389420561
 31
0.0
 11
21.3646256069
 21
9.2383295565
 31
0.0
 11
21.3624328961
 21
9.2376484634
 31
0.0
 11
21.3602363592
 21
9.2369030132
 31
0.0
 11
21.3558357339
 21
9.235235988
 31
0.0
 11
21.3514315859
 21
9.2333623735
 31
0.0
 11
21.3492306454
 21
9.2323586867
 31
0.0
 11
21.3470317426
 21
9.2313160115
 31
0.0
 11
21.3426412226
 21
9.2291254981
 31
0.0
 11
21.3382598252
 21
9.2268096838
 31
0.0
 11
21.3338867822
 21
9.2243863592
 31
0.0
 11
21.3295213251
 21
9.2218733143
 31
0.0
 11
21.3208097603
 21
9.2166380095
 31
0.0
 11
21.3121174427
 21
9.2111945454
 31
0.0
 11
21.3034366769
 21
9.2056200807
 31
0.0
 11
21.2947608379
 21
9.1999732749
 31
0.0
 11
21.2774103354
 21
9.1886533334
 31
0.0
 11
21.2687403776
 21
9.1830515898
 31
0.0
 11
21.2600822956
 21
9.1775279106
 31
0.0
 11
21.2514461928
 21
9.172109211
 31
0.0
 11
21.2428503769
 21
9.1668230517
 31
0.0
  0
SPLINE
  5
308
100
AcDbEntity
  8
0
100
AcDbSpline
 62
6
  6
CONTINUOUS
 70
0
 71
3
 72
70
 73
66
 74
64
 42
0.0000001
 43
0.0000001
 44
0.0000000001
 12
-0.1029616621
 22
0.2640299905
 32
0.0
 13
-0.2337721506
 23
-0.1601983812
 33
0.0
 40
0.0
 40
0.0
 40
0.0
 40
0.0
 40
0.0202845334
 40
0.0416581067
 40
0.064073174
 40
0.0756546384
 40
0.0874752856
 40
0.1118102344
 40
0.1243159298
 40
0.1370402533
 40
0.1499788752
 40
0.1631268116
 40
0.1764772012
 40
0.1900242132
 40
0.2037636481
 40
0.2176930322
 40
0.2318110966
 40
0.2461126494
 40
0.2605926716
 40
0.2752506451
 40
0.2900909771
 40
0.3051208387
 40
0.3203366021
 40
0.3357386247
 40
0.3513413143
 40
0.3592275949
 40
0.3671754473
 40
0.3832487516
 40
0.3995529575
 40
0.4077935244
 40
0.4160945929
 40
0.4244593987
 40
0.4328915359
 40
0.4413914764
 40
0.4499576866
 40
0.4672744288
 40
0.476018677
 40
0.4848120661
 40
0.4936481104
 40
0.5025204844
 40
0.5114278963
 40
0.5203703869
 40
0.5383543813
 40
0.5564541411
 40
0.5746366241
 40
0.5928635042
 40
0.6111208977
 40
0.6294018016
 40
0.6476955083
 40
0.6659881189
 40
0.6842643818
 40
0.7025146897
 40
0.7207309944
 40
0.7389043538
 40
0.7570250582
 40
0.7750827715
 40
0.793067865
 40
0.810972548
 40
0.8287890784
 40
0.8641260354
 40
0.8816304223
 40
0.8990135808
 40
0.9333628919
 40
0.9670624952
 40
1.0
 40
1.0
 40
1.0
 40
1.0
 10
21.2428503769
 20
9.1668230517
 30
0.0
 10
21.2421542005
 20
9.1686082935
 30
0.0
 10
21.2406005748
 20
9.1722271575
 30
0.0
 10
21.2378920516
 20
9.1776431152
 30
0.0
 10
21.2353091697
 20
9.1821942009
 30
0.0
 10
21.2330400452
 20
9.1858801819
 30
0.0
 10
21.2305872238
 20
9.1896646486
 30
0.0
 10
21.22795259
 20
9.193433871
 30
0.0
 10
21.2251409638
 20
9.1971782218
 30
0.0
 10
21.2229102985
 20
9.2000114115
 30
0.0
 10
21.22057685
 20
9.2028396391
 30
0.0
 10
21.218140208
 20
9.2056581644
 30
0.0
 10
21.215597079
 20
9.2084591829
 30
0.0
 10
21.2129446752
 20
9.211234828
 30
0.0
 10
21.2101801945
 20
9.2139771734
 30
0.0
 10
21.2073007599
 20
9.2166781043
 30
0.0
 10
21.2043044745
 20
9.219329722
 30
0.0
 10
21.201186643
 20
9.221919681
 30
0.0
 10
21.1979419671
 20
9.2244332418
 30
0.0
 10
21.1945658139
 20
9.2268558722
 30
0.0
 10
21.1910534857
 20
9.2291724576
 30
0.0
 10
21.1874025165
 20
9.2313682326
 30
0.0
 10
21.1836063682
 20
9.233417314
 30
0.0
 10
21.1796597102
 20
9.2352897791
 30
0.0
 10
21.1762536997
 20
9.236673195
 30
0.0
 10
21.1734529872
 20
9.2376619725
 30
0.0
 10
21.170579501
 20
9.2385734948
 30
0.0
 10
21.166892734
 20
9.2395441384
 30
0.0
 10
21.1631197181
 20
9.2402610711
 30
0.0
 10
21.160043679
 20
9.2406722322
 30
0.0
 10
21.157700951
 20
9.2408958995
 30
0.0
 10
21.1553332395
 20
9.241029841
 30
0.0
 10
21.1529433086
 20
9.2410702798
 30
0.0
 10
21.1505345638
 20
9.2410199602
 30
0.0
 10
21.1472913173
 20
9.2408347247
 30
0.0
 10
21.1440368362
 20
9.2404781605
 30
0.0
 10
21.1407843301
 20
9.239964076
 30
0.0
 10
21.1383361814
 20
9.2394996808
 30
0.0
 10
21.1358910946
 20
9.2389604391
 30
0.0
 10
21.1334520615
 20
9.2383486278
 30
0.0
 10
21.1310208395
 20
9.2376682902
 30
0.0
 10
21.127784884
 20
9.2366737013
 30
0.0
 10
21.1237647089
 20
9.2352798607
 30
0.0
 10
21.1189928377
 20
9.2334037524
 30
0.0
 10
21.1142684167
 20
9.2313535809
 30
0.0
 10
21.1095921754
 20
9.2291610581
 30
0.0
 10
21.1049656447
 20
9.2268449118
 30
0.0
 10
21.1003874714
 20
9.22442133
 30
0.0
 10
21.0958551612
 20
9.2219063664
 30
0.0
 10
21.0913662407
 20
9.2193158057
 30
0.0
 10
21.0869172137
 20
9.2166654275
 30
0.0
 10
21.0825070763
 20
9.2139646619
 30
0.0
 10
21.0781344576
 20
9.2112218697
 30
0.0
 10
21.0737976577
 20
9.2084454713
 30
0.0
 10
21.0694950543
 20
9.2056437664
 30
0.0
 10
21.0652247387
 20
9.2028252779
 30
0.0
 10
21.0609852656
 20
9.1999972299
 30
0.0
 10
21.0567768903
 20
9.1971637116
 30
0.0
 10
21.0512223244
 20
9.1933947776
 30
0.0
 10
21.045715359
 20
9.1896231239
 30
0.0
 10
21.0402506017
 20
9.1858623703
 30
0.0
 10
21.0348655253
 20
9.1821504044
 30
0.0
 10
21.0282240255
 20
9.1775655319
 30
0.0
 10
21.0203717172
 20
9.1721482418
 30
0.0
 10
21.0151845385
 20
9.1685818967
 30
0.0
 10
21.0126179147
 20
9.1668230517
 30
0.0
 11
21.2428503769
 21
9.1668230517
 31
0.0
 11
21.2405920252
 21
9.172109411
 31
0.0
 11
21.2378904328
 21
9.1775307327
 31
0.0
 11
21.2347612737
 21
9.1830588802
 31
0.0
 11
21.2330412515
 21
9.1858542199
 31
0.0
 11
21.2312195647
 21
9.1886655185
 31
0.0
 11
21.2272705944
 21
9.1943193784
 31
0.0
 11
21.2251427271
 21
9.1971535476
 31
0.0
 11
21.2229122158
 21
9.1999869484
 31
0.0
 11
21.2205787677
 21
9.2028153831
 31
0.0
 11
21.2181414927
 21
9.2056337598
 31
0.0
 11
21.2155978723
 21
9.208434546
 31
0.0
 11
21.2129451126
 21
9.2112097973
 31
0.0
 11
21.2101804201
 21
9.2139515696
 31
0.0
 11
21.2073010008
 21
9.2166519182
 31
0.0
 11
21.2043039549
 21
9.2193025164
 31
0.0
 11
21.201185282
 21
9.2218910757
 31
0.0
 11
21.1979403312
 21
9.2244029658
 31
0.0
 11
21.194564443
 21
9.2268235259
 31
0.0
 11
21.1910529582
 21
9.2291380951
 31
0.0
 11
21.1874012587
 21
9.2313307014
 31
0.0
 11
21.1836050281
 21
9.2333758521
 31
0.0
 11
21.179660083
 21
9.2352438533
 31
0.0
 11
21.1755622404
 21
9.2369049925
 31
0.0
 11
21.1734546755
 21
9.2376487037
 31
0.0
 11
21.1713076554
 21
9.2383295425
 31
0.0
 11
21.1669021581
 21
9.2394873555
 31
0.0
 11
21.1623624472
 21
9.2403478106
 31
0.0
 11
21.1600476605
 21
9.2406569522
 31
0.0
 11
21.1577057989
 21
9.2408802622
 31
0.0
 11
21.155339022
 21
9.2410139098
 31
0.0
 11
21.1529497496
 21
9.2410551718
 31
0.0
 11
21.1505414151
 21
9.241005638
 31
0.0
 11
21.1481176986
 21
9.240867948
 31
0.0
 11
21.1432388404
 21
9.2403386578
 31
0.0
 11
21.1407910589
 21
9.2399523368
 31
0.0
 11
21.138342616
 21
9.2394884182
 31
0.0
 11
21.1358971919
 21
9.2389495414
 31
0.0
 11
21.1334581827
 21
9.2383384849
 31
0.0
 11
21.1310270393
 21
9.2376589778
 31
0.0
 11
21.1286043976
 21
9.2369151476
 31
0.0
 11
21.1237871517
 21
9.2352510326
 31
0.0
 11
21.1190115098
 21
9.2333791703
 31
0.0
 11
21.1142825367
 21
9.231332591
 31
0.0
 11
21.1096044508
 21
9.2291423833
 31
0.0
 11
21.1049766158
 21
9.2268285015
 31
0.0
 11
21.1003966678
 21
9.2244069369
 31
0.0
 11
21.095862241
 21
9.2218936765
 31
0.0
 11
21.0913709694
 21
9.219304707
 31
0.0
 11
21.0869205691
 21
9.2166551393
 31
0.0
 11
21.0825092229
 21
9.2139551105
 31
0.0
 11
21.0781352779
 21
9.2112130037
 31
0.0
 11
21.0737970814
 21
9.2084372001
 31
0.0
 11
21.0694929808
 21
9.2056360808
 31
0.0
 11
21.0652213294
 21
9.2028180108
 31
0.0
 11
21.0609809846
 21
9.1999899749
 31
0.0
 11
21.0567716858
 21
9.1971565424
 31
0.0
 11
21.052593262
 21
9.1943220388
 31
0.0
 11
21.0443283534
 21
9.1886671209
 31
0.0
 11
21.0402415261
 21
9.1858553575
 31
0.0
 11
21.0361853308
 21
9.1830596862
 31
0.0
 11
21.0281732404
 21
9.1775310651
 31
0.0
 11
21.0203109918
 21
9.1721094876
 31
0.0
 11
21.0126179147
 21
9.1668230517
 31
0.0
  0
SPLINE
  5
309
100
AcDbEntity
  8
0
100
AcDbSpline
 62
6
  6
CONTINUOUS
 70
0
 71
3
 72
62
 73
58
 74
56
 42
0.0000001
 43
0.0000001
 44
0.0000000001
 12
-0.1856770236
 22
0.2292667195
 32
0.0
 13
-0.2246397553
 23
-0.1912489637
 33
0.0
 40
0.0
 40
0.0
 40
0.0
 40
0.0
 40
0.0233458646
 40
0.0478678005
 40
0.0734710684
 40
0.0866486223
 40
0.1000620438
 40
0.1275652584
 40
0.1416414787
 40
0.1559249946
 40
0.1704095195
 40
0.1850884941
 40
0.1999547526
 40
0.2150020475
 40
0.230225327
 40
0.2456208274
 40
0.2611853592
 40
0.2769120751
 40
0.2927947734
 40
0.3088307156
 40
0.3250209773
 40
0.341366961
 40
0.3578582591
 40
0.3744889119
 40
0.39126437
 40
0.4081997418
 40
0.4252817099
 40
0.4424805752
 40
0.4511198183
 40
0.4597842432
 40
0.4684748438
 40
0.4771923373
 40
0.4859350791
 40
0.4947003189
 40
0.5122808521
 40
0.5210889163
 40
0.5299007075
 40
0.5387099759
 40
0.5475121579
 40
0.5650977761
 40
0.5826625827
 40
0.6001954914
 40
0.6089431911
 40
0.6176729517
 40
0.6350730398
 40
0.652395699
 40
0.6696380636
 40
0.6867927783
 40
0.7208045429
 40
0.7543813256
 40
0.7874630621
 40
0.8199973065
 40
0.8519269174
 40
0.883186768
 40
0.9434090798
 40
0.9722103151
 40
1.0
 40
1.0
 40
1.0
 40
1.0
 10
21.0126179147
 20
9.1668230517
 30
0.0
 10
21.0111729845
 20
9.168607195
 30
0.0
 10
21.0081534936
 20
9.1722196137
 30
0.0
 10
21.0033673436
 20
9.1776333302
 30
0.0
 10
20.9991238624
 20
9.1821892061
 30
0.0
 10
20.9955571022
 20
9.1858804771
 30
0.0
 10
20.9918139518
 20
9.1896605716
 30
0.0
 10
20.9879354139
 20
9.1934304585
 30
0.0
 10
20.9839207528
 20
9.1971806548
 30
0.0
 10
20.9808025246
 20
9.20001443
 30
0.0
 10
20.9776004345
 20
9.2028434332
 30
0.0
 10
20.9743139024
 20
9.2056627581
 30
0.0
 10
20.9709399595
 20
9.2084643763
 30
0.0
 10
20.967476106
 20
9.2112405138
 30
0.0
 10
20.9639197842
 20
9.2139833139
 30
0.0
 10
20.9602684338
 20
9.2166847617
 30
0.0
 10
20.956520311
 20
9.2193370235
 30
0.0
 10
20.952670948
 20
9.2219271097
 30
0.0
 10
20.9487159394
 20
9.2244405498
 30
0.0
 10
20.9446512479
 20
9.2268629975
 30
0.0
 10
20.9404730795
 20
9.2291797106
 30
0.0
 10
20.9361795828
 20
9.2313756051
 30
0.0
 10
20.9317654409
 20
9.2334235928
 30
0.0
 10
20.9272273114
 20
9.2352945897
 30
0.0
 10
20.9225627065
 20
9.236959329
 30
0.0
 10
20.9177733176
 20
9.2383868253
 30
0.0
 10
20.9128693025
 20
9.2395476235
 30
0.0
 10
20.9087068443
 20
9.2402659863
 30
0.0
 10
20.9053381861
 20
9.2406764458
 30
0.0
 10
20.9027909811
 20
9.2408983738
 30
0.0
 10
20.9002297625
 20
9.2410294064
 30
0.0
 10
20.8976577973
 20
9.2410675769
 30
0.0
 10
20.8950787337
 20
9.2410160128
 30
0.0
 10
20.8916325731
 20
9.2408304357
 30
0.0
 10
20.8881910154
 20
9.2404747605
 30
0.0
 10
20.8847675748
 20
9.2399592678
 30
0.0
 10
20.8822099522
 20
9.2394945857
 30
0.0
 10
20.8796678253
 20
9.2389544515
 30
0.0
 10
20.8763039673
 20
9.2381371122
 30
0.0
 10
20.8721472978
 20
9.2369439624
 30
0.0
 10
20.867241728
 20
9.2352719815
 30
0.0
 10
20.8632229867
 20
9.2337060029
 30
0.0
 10
20.8600512472
 20
9.2323662083
 30
0.0
 10
20.8569150851
 20
9.2309770485
 30
0.0
 10
20.8530506942
 20
9.2291514039
 30
0.0
 10
20.8484957713
 20
9.226833102
 30
0.0
 10
20.8440245816
 20
9.2244075736
 30
0.0
 10
20.8381863681
 20
9.2210639937
 30
0.0
 10
20.8310798011
 20
9.2167070482
 30
0.0
 10
20.8228135628
 20
9.2112567035
 30
0.0
 10
20.8148097156
 20
9.2056789946
 30
0.0
 10
20.8070564198
 20
9.2000294033
 30
0.0
 10
20.7995393685
 20
9.1943622661
 30
0.0
 10
20.7899511711
 20
9.1869213345
 30
0.0
 10
20.7807318155
 20
9.1795085558
 30
0.0
 10
20.7718831195
 20
9.1721827854
 30
0.0
 10
20.7676289389
 20
9.1685946346
 30
0.0
 10
20.7655480496
 20
9.1668230517
 30
0.0
 11
21.0126179147
 21
9.1668230517
 31
0.0
 11
21.0082041842
 21
9.1721105746
 31
0.0
 11
21.0034150954
 21
9.1775330737
 31
0.0
 11
20.9982689073
 21
9.1830623876
 31
0.0
 11
20.9955676003
 21
9.185858298
 31
0.0
 11
20.9927830686
 21
9.1886701412
 31
0.0
 11
20.986964089
 21
9.1943250728
 31
0.0
 11
20.9839292626
 21
9.1971598163
 31
0.0
 11
20.9808106261
 21
9.1999938486
 31
0.0
 11
20.9776079861
 21
9.2028229908
 31
0.0
 11
20.9743204563
 21
9.2056419765
 31
0.0
 11
20.9709456811
 21
9.2084432341
 31
0.0
 11
20.9674811179
 21
9.2112188977
 31
0.0
 11
20.9639242237
 21
9.2139611015
 31
0.0
 11
20.9602724559
 21
9.2166619799
 31
0.0
 11
20.9565231356
 21
9.2193130636
 31
0.0
 11
20.9526726436
 21
9.2219017077
 31
0.0
 11
20.9487169628
 21
9.2244135005
 31
0.0
 11
20.9446520744
 21
9.2268340242
 31
0.0
 11
20.94047396
 21
9.229148861
 31
0.0
 11
20.9361788076
 21
9.2313415234
 31
0.0
 11
20.9317637791
 21
9.2333857725
 31
0.0
 11
20.9272263232
 21
9.2352524998
 31
0.0
 11
20.9225638884
 21
9.2369125963
 31
0.0
 11
20.9177748431
 21
9.2383368426
 31
0.0
 11
20.9128700228
 21
9.2394945205
 31
0.0
 11
20.9078692371
 21
9.2403538329
 31
0.0
 11
20.9053391095
 21
9.2406616581
 31
0.0
 11
20.9027924933
 21
9.2408829591
 31
0.0
 11
20.9002318978
 21
9.2410137996
 31
0.0
 11
20.8976603208
 21
9.2410526294
 31
0.0
 11
20.8950815075
 21
9.2410015512
 31
0.0
 11
20.8924992667
 21
9.2408629764
 31
0.0
 11
20.887339736
 21
9.2403329831
 31
0.0
 11
20.8847700634
 21
9.2399463875
 31
0.0
 11
20.8822121973
 21
9.2394819412
 31
0.0
 11
20.8796699455
 21
9.2389420561
 31
0.0
 11
20.8771463564
 21
9.2383295565
 31
0.0
 11
20.8721581515
 21
9.2369030132
 31
0.0
 11
20.8672515673
 21
9.235235988
 31
0.0
 11
20.8624301914
 21
9.2333623735
 31
0.0
 11
20.8600525777
 21
9.2323586867
 31
0.0
 11
20.8576975886
 21
9.2313160115
 31
0.0
 11
20.8530549707
 21
9.2291254981
 31
0.0
 11
20.8484991781
 21
9.2268096838
 31
0.0
 11
20.8440265756
 21
9.2243863592
 31
0.0
 11
20.8396335282
 21
9.2218733143
 31
0.0
 11
20.8310732405
 21
9.2166380095
 31
0.0
 11
20.8227969668
 21
9.2111945454
 31
0.0
 11
20.8147856535
 21
9.2056200807
 31
0.0
 11
20.8070240451
 21
9.1999732749
 31
0.0
 11
20.7995002596
 21
9.1943050207
 31
0.0
 11
20.7922125143
 21
9.1886533334
 31
0.0
 11
20.778359994
 21
9.1775279106
 31
0.0
 11
20.7718149447
 21
9.172109211
 31
0.0
 11
20.7655480496
 21
9.1668230517
 31
0.0
  0
SPLINE
  5
30A
100
AcDbEntity
  8
0
100
AcDbSpline
 62
6
  6
CONTINUOUS
 70
0
 71
3
 72
64
 73
60
 74
58
 42
0.0000001
 43
0.0000001
 44
0.0000000001
 12
-0.2246394631
 22
0.1912487149
 32
0.0
 13
-0.1856767821
 23
-0.2292664212
 33
0.0
 40
0.0
 40
0.0
 40
0.0
 40
0.0
 40
0.0277949907
 40
0.0566161235
 40
0.0863540237
 40
0.1015328268
 40
0.1169018629
 40
0.1481775595
 40
0.1640689697
 40
0.1801194407
 40
0.1963218182
 40
0.2126686967
 40
0.2291520823
 40
0.2457645998
 40
0.2624997428
 40
0.279351976
 40
0.2963160324
 40
0.3133825876
 40
0.3305423636
 40
0.34778893
 40
0.365119079
 40
0.3825290058
 40
0.4000005779
 40
0.4175184659
 40
0.4350776822
 40
0.4526819613
 40
0.4703051484
 40
0.4879040089
 40
0.496686107
 40
0.5054532554
 40
0.5142050058
 40
0.522941422
 40
0.5316613814
 40
0.5403628933
 40
0.5576967153
 40
0.5663240062
 40
0.5749182752
 40
0.5834745452
 40
0.5919896721
 40
0.6089055231
 40
0.6256844007
 40
0.6423278699
 40
0.6505957817
 40
0.6588241105
 40
0.6751601635
 40
0.6913424806
 40
0.707373618
 40
0.7232508871
 40
0.7545226313
 40
0.7851306495
 40
0.8001720009
 40
0.8150307523
 40
0.8441789418
 40
0.8725264813
 40
0.9000150299
 40
0.9265807347
 40
0.9521540317
 40
0.9766587915
 40
1.0
 40
1.0
 40
1.0
 40
1.0
 10
20.7655480496
 20
9.1668230517
 30
0.0
 10
20.7634667656
 20
9.1685949705
 30
0.0
 10
20.7592110646
 20
9.1721851337
 30
0.0
 10
20.7526698734
 20
9.1776009984
 30
0.0
 10
20.7470398592
 20
9.1821714065
 30
0.0
 10
20.7424088768
 20
9.1858730647
 30
0.0
 10
20.737639662
 20
9.1896438501
 30
0.0
 10
20.7327811956
 20
9.1934146492
 30
0.0
 10
20.7278297075
 20
9.1971740547
 30
0.0
 10
20.7240368899
 20
9.2000079802
 30
0.0
 10
20.7201847925
 20
9.2028371381
 30
0.0
 10
20.7162729903
 20
9.205656629
 30
0.0
 10
20.7122989772
 20
9.2084583793
 30
0.0
 10
20.7082606463
 20
9.2112346174
 30
0.0
 10
20.7041558432
 20
9.2139774919
 30
0.0
 10
20.6999824169
 20
9.2166789937
 30
0.0
 10
20.6957390326
 20
9.2193313304
 30
0.0
 10
20.6914219917
 20
9.2219214649
 30
0.0
 10
20.687027723
 20
9.224434922
 30
0.0
 10
20.682553014
 20
9.2268573726
 30
0.0
 10
20.677994935
 20
9.2291740867
 30
0.0
 10
20.6733527339
 20
9.231369951
 30
0.0
 10
20.6686229656
 20
9.2334179225
 30
0.0
 10
20.6638043533
 20
9.235288983
 30
0.0
 10
20.6588965122
 20
9.2369539398
 30
0.0
 10
20.6539033154
 20
9.238381905
 30
0.0
 10
20.6488371828
 20
9.2395434255
 30
0.0
 10
20.6445672029
 20
9.240264241
 30
0.0
 10
20.6411347563
 20
9.2406758321
 30
0.0
 10
20.6385573151
 20
9.2408979484
 30
0.0
 10
20.6359781221
 20
9.2410292015
 30
0.0
 10
20.6334005332
 20
9.2410675952
 30
0.0
 10
20.6308281095
 20
9.2410162367
 30
0.0
 10
20.6274147338
 20
9.2408313457
 30
0.0
 10
20.6240215256
 20
9.2404766104
 30
0.0
 10
20.6206623553
 20
9.2399601752
 30
0.0
 10
20.6181698049
 20
9.2394956292
 30
0.0
 10
20.6157038319
 20
9.2389556112
 30
0.0
 10
20.6124620862
 20
9.2381399355
 30
0.0
 10
20.6084829633
 20
9.2369493882
 30
0.0
 10
20.6038213369
 20
9.2352775899
 30
0.0
 10
20.6000316196
 20
9.2337093578
 30
0.0
 10
20.5970614433
 20
9.2323676137
 30
0.0
 10
20.5941457192
 20
9.2309802844
 30
0.0
 10
20.5905763806
 20
9.2291570448
 30
0.0
 10
20.586401635
 20
9.2268387316
 30
0.0
 10
20.5823408537
 20
9.2244131905
 30
0.0
 10
20.5770985489
 20
9.2210769902
 30
0.0
 10
20.5708038105
 20
9.2167300175
 30
0.0
 10
20.5647713021
 20
9.2121625472
 30
0.0
 10
20.560128035
 20
9.2084408907
 30
0.0
 10
20.555659987
 20
9.2047315237
 30
0.0
 10
20.550295552
 20
9.200055117
 30
0.0
 10
20.5441504535
 20
9.1943893454
 30
0.0
 10
20.5383388057
 20
9.188740826
 30
0.0
 10
20.5328604527
 20
9.1831444392
 30
0.0
 10
20.5277243359
 20
9.1776269532
 30
0.0
 10
20.5229413768
 20
9.172217238
 30
0.0
 10
20.5199228246
 20
9.1686068369
 30
0.0
 10
20.5184781844
 20
9.1668230517
 30
0.0
 11
20.7655480496
 21
9.1668230517
 31
0.0
 11
20.7592802707
 21
9.1721105746
 31
0.0
 11
20.7527307604
 21
9.1775330737
 31
0.0
 11
20.7459190825
 21
9.1830623876
 31
0.0
 11
20.7424210375
 21
9.185858298
 31
0.0
 11
20.7388639639
 21
9.1886701412
 31
0.0
 11
20.7315728338
 21
9.1943250728
 31
0.0
 11
20.7278385628
 21
9.1971598163
 31
0.0
 11
20.7240450116
 21
9.1999938486
 31
0.0
 11
20.7201920693
 21
9.2028229908
 31
0.0
 11
20.716279026
 21
9.2056419765
 31
0.0
 11
20.7123039014
 21
9.2084432341
 31
0.0
 11
20.7082645534
 21
9.2112188977
 31
0.0
 11
20.7041588397
 21
9.2139611015
 31
0.0
 11
20.6999846181
 21
9.2166619799
 31
0.0
 11
20.6957396495
 21
9.2193130636
 31
0.0
 11
20.6914210242
 21
9.2219017077
 31
0.0
 11
20.6870255484
 21
9.2244135005
 31
0.0
 11
20.6825500277
 21
9.2268340242
 31
0.0
 11
20.6779912674
 21
9.229148861
 31
0.0
 11
20.6733464614
 21
9.2313415234
 31
0.0
 11
20.6686146335
 21
9.2333857725
 31
0.0
 11
20.663795346
 21
9.2352524998
 31
0.0
 11
20.6588881614
 21
9.2369125963
 31
0.0
 11
20.6538935821
 21
9.2383368426
 31
0.0
 11
20.6488248489
 21
9.2394945205
 31
0.0
 11
20.6437043724
 21
9.2403538329
 31
0.0
 11
20.6411317969
 21
9.2406616581
 31
0.0
 11
20.6385547653
 21
9.2408829591
 31
0.0
 11
20.6359761091
 21
9.2410137996
 31
0.0
 11
20.6333989522
 21
9.2410526294
 31
0.0
 11
20.6308268649
 21
9.2410015512
 31
0.0
 11
20.6282634559
 21
9.2408629764
 31
0.0
 11
20.6231771062
 21
9.2403329831
 31
0.0
 11
20.6206613824
 21
9.2399463875
 31
0.0
 11
20.6181687704
 21
9.2394819412
 31
0.0
 11
20.6157028781
 21
9.2389420561
 31
0.0
 11
20.6132665259
 21
9.2383295565
 31
0.0
 11
20.6084841808
 21
9.2369030132
 31
0.0
 11
20.6038231542
 21
9.235235988
 31
0.0
 11
20.5992844537
 21
9.2333623735
 31
0.0
 11
20.5970612908
 21
9.2323586867
 31
0.0
 11
20.5948690691
 21
9.2313160115
 31
0.0
 11
20.5905761163
 21
9.2291254981
 31
0.0
 11
20.5864012307
 21
9.2268096838
 31
0.0
 11
20.5823396693
 21
9.2243863592
 31
0.0
 11
20.5783866889
 21
9.2218733143
 31
0.0
 11
20.5707900518
 21
9.2166380095
 31
0.0
 11
20.5635851079
 21
9.2111945454
 31
0.0
 11
20.5601221206
 21
9.2084197285
 31
0.0
 11
20.5567488951
 21
9.2056200807
 31
0.0
 11
20.550263268
 21
9.1999732749
 31
0.0
 11
20.5441139654
 21
9.1943050207
 31
0.0
 11
20.5382978812
 21
9.1886533334
 31
0.0
 11
20.5328163618
 21
9.1830515898
 31
0.0
 11
20.5276771125
 21
9.1775279106
 31
0.0
 11
20.5228913908
 21
9.172109211
 31
0.0
 11
20.5184781844
 21
9.1668230517
 31
0.0
  0
SPLINE
  5
30B
100
AcDbEntity
  8
0
100
AcDbSpline
 62
6
  6
CONTINUOUS
 70
0
 71
3
 72
64
 73
60
 74
58
 42
0.0000001
 43
0.0000001
 44
0.0000000001
 12
-0.2337685412
 22
0.1601959078
 32
0.0
 13
-0.1029600724
 23
-0.264025914
 33
0.0
 40
0.0
 40
0.0
 40
0.0
 40
0.0
 40
0.0329447985
 40
0.0666505129
 40
0.1010041746
 40
0.1183886855
 40
0.1358947303
 40
0.1712371103
 40
0.1890570579
 40
0.2069653864
 40
0.2249541573
 40
0.2430148953
 40
0.261137796
 40
0.279313313
 40
0.2975325106
 40
0.3157871772
 40
0.3340691797
 40
0.3523652306
 40
0.3706608672
 40
0.3889440739
 40
0.4072057263
 40
0.425435838
 40
0.4436065922
 40
0.4616906295
 40
0.4796708086
 40
0.4975395689
 40
0.5152622664
 40
0.5327868664
 40
0.5414644711
 40
0.550081357
 40
0.5586367543
 40
0.5671315218
 40
0.5755668425
 40
0.5839432212
 40
0.6005151362
 40
0.608711257
 40
0.6168442636
 40
0.6249118391
 40
0.6329131282
 40
0.6487343826
 40
0.6643446258
 40
0.6797605427
 40
0.6873966908
 40
0.6949828716
 40
0.7100063434
 40
0.7248433859
 40
0.7395010542
 40
0.753979823
 40
0.7823863845
 40
0.8100523633
 40
0.8235971639
 40
0.8369433622
 40
0.8630215634
 40
0.8882465936
 40
0.9125738053
 40
0.9359569319
 40
0.9583517152
 40
0.9797152228
 40
1.0
 40
1.0
 40
1.0
 40
1.0
 10
20.5184781844
 20
9.1668230517
 30
0.0
 10
20.5159110319
 20
9.168582259
 30
0.0
 10
20.5107228678
 20
9.1721492343
 30
0.0
 10
20.5028692822
 20
9.1775673673
 30
0.0
 10
20.4962269787
 20
9.1821528205
 30
0.0
 10
20.4908415554
 20
9.1858653303
 30
0.0
 10
20.4853761433
 20
9.1896263575
 30
0.0
 10
20.4798680322
 20
9.1933979112
 30
0.0
 10
20.4743123651
 20
9.1971671376
 30
0.0
 10
20.4701032247
 20
9.2000011946
 30
0.0
 10
20.4658634451
 20
9.202830401
 30
0.0
 10
20.4615929114
 20
9.2056499438
 30
0.0
 10
20.4572896513
 20
9.2084517757
 30
0.0
 10
20.4529520713
 20
9.2112280773
 30
0.0
 10
20.4485785589
 20
9.2139709675
 30
0.0
 10
20.4441674821
 20
9.2166723851
 30
0.0
 10
20.439718124
 20
9.2193245551
 30
0.0
 10
20.4352278279
 20
9.2219146958
 30
0.0
 10
20.4306939648
 20
9.2244281894
 30
0.0
 10
20.4261143805
 20
9.226850643
 30
0.0
 10
20.4214871333
 20
9.229167171
 30
0.0
 10
20.4168128262
 20
9.2313627115
 30
0.0
 10
20.4120900061
 20
9.2334107206
 30
0.0
 10
20.4073194357
 20
9.2352820418
 30
0.0
 10
20.4025029017
 20
9.2369474511
 30
0.0
 10
20.3976459521
 20
9.2383759965
 30
0.0
 10
20.3927623472
 20
9.2395381911
 30
0.0
 10
20.388673633
 20
9.2402618608
 30
0.0
 10
20.3854099825
 20
9.2406748946
 30
0.0
 10
20.3829777317
 20
9.2408974169
 30
0.0
 10
20.3805561403
 20
9.2410293363
 30
0.0
 10
20.3781484281
 20
9.2410681904
 30
0.0
 10
20.3757578456
 20
9.241017069
 30
0.0
 10
20.3726091588
 20
9.2408327189
 30
0.0
 10
20.3694949969
 20
9.2404785322
 30
0.0
 10
20.3664299613
 20
9.2399608601
 30
0.0
 10
20.3641721563
 20
9.2394962384
 30
0.0
 10
20.3619501401
 20
9.2389562572
 30
0.0
 10
20.3590492851
 20
9.2381419719
 30
0.0
 10
20.3555159395
 20
9.2369533797
 30
0.0
 10
20.3514157877
 20
9.2352815754
 30
0.0
 10
20.3481161064
 20
9.2337116846
 30
0.0
 10
20.3455521518
 20
9.232368598
 30
0.0
 10
20.3430536045
 20
9.2309823054
 30
0.0
 10
20.3400200418
 20
9.2291603889
 30
0.0
 10
20.3365101036
 20
9.2268419876
 30
0.0
 10
20.3331366395
 20
9.2244164546
 30
0.0
 10
20.3288405707
 20
9.2210846436
 30
0.0
 10
20.3237777951
 20
9.2167432196
 30
0.0
 10
20.3190463919
 20
9.2121706663
 30
0.0
 10
20.3154854681
 20
9.2084444353
 30
0.0
 10
20.3121211438
 20
9.2047400171
 30
0.0
 10
20.3081814753
 20
9.2000704707
 30
0.0
 10
20.3038253966
 20
9.1944048283
 30
0.0
 10
20.2998764606
 20
9.1887561704
 30
0.0
 10
20.2963329635
 20
9.18315872
 30
0.0
 10
20.2932030518
 20
9.1776392597
 30
0.0
 10
20.2904956468
 20
9.1722260253
 30
0.0
 10
20.2889418963
 20
9.1686082874
 30
0.0
 10
20.2882457222
 20
9.1668230517
 30
0.0
 11
20.5184781844
 21
9.1668230517
 31
0.0
 11
20.5107835032
 21
9.1721105485
 31
0.0
 11
20.5029199352
 21
9.1775330035
 31
0.0
 11
20.4949070065
 21
9.1830623159
 31
0.0
 11
20.4908506263
 21
9.1858582602
 31
0.0
 11
20.4867634145
 21
9.1886701585
 31
0.0
 11
20.4784969239
 21
9.1943252119
 31
0.0
 11
20.4743176156
 21
9.1971599979
 31
0.0
 11
20.470107579
 21
9.199994044
 31
0.0
 11
20.4658667977
 21
9.202823162
 31
0.0
 11
20.4615948259
 21
9.2056421593
 31
0.0
 11
20.4572902025
 21
9.2084434709
 31
0.0
 11
20.4529513198
 21
9.211219189
 31
0.0
 11
20.4485765704
 21
9.213961406
 31
0.0
 11
20.4441643466
 21
9.2166622143
 31
0.0
 11
20.4397130006
 21
9.2193132166
 31
0.0
 11
20.4352205474
 21
9.2219019282
 31
0.0
 11
20.4306848343
 21
9.2244138303
 31
0.0
 11
20.4261037075
 21
9.2268343897
 31
0.0
 11
20.421475013
 21
9.2291490728
 31
0.0
 11
20.4167970761
 21
9.2313415695
 31
0.0
 11
20.4120708333
 21
9.2333858883
 31
0.0
 11
20.4072981058
 21
9.2352527561
 31
0.0
 11
20.4024807158
 21
9.2369128972
 31
0.0
 11
20.3976212316
 21
9.2383369579
 31
0.0
 11
20.3927339568
 21
9.2394943596
 31
0.0
 11
20.3878425289
 21
9.2403535497
 31
0.0
 11
20.385402725
 21
9.2406614467
 31
0.0
 11
20.3829708437
 21
9.2408829484
 31
0.0
 11
20.3805498725
 21
9.2410141287
 31
0.0
 11
20.3781428485
 21
9.2410531727
 31
0.0
 11
20.3757528995
 21
9.2410021276
 31
0.0
 11
20.3733831633
 21
9.2408634531
 31
0.0
 11
20.3687168791
 21
9.2403330542
 31
0.0
 11
20.3664266065
 21
9.2399462491
 31
0.0
 11
20.3641690968
 21
9.239481653
 31
0.0
 11
20.3619474877
 21
9.2389417256
 31
0.0
 11
20.3597642753
 21
9.2383292637
 31
0.0
 11
20.3555136192
 21
9.236902869
 31
0.0
 11
20.3514158641
 21
9.2352360065
 31
0.0
 11
20.3474692608
 21
9.2333624687
 31
0.0
 11
20.3455520947
 21
9.2323587568
 31
0.0
 11
20.3436720521
 21
9.2313160114
 31
0.0
 11
20.3400213214
 21
9.2291254375
 31
0.0
 11
20.3365118358
 21
9.226809648
 31
0.0
 11
20.3331380865
 21
9.2243863659
 31
0.0
 11
20.3298945648
 21
9.2218733139
 31
0.0
 11
20.3237792957
 21
9.2166379894
 31
0.0
 11
20.3181366947
 21
9.2111945353
 31
0.0
 11
20.3154844793
 21
9.2084197126
 31
0.0
 11
20.312941451
 21
9.2056200721
 31
0.0
 11
20.3081737861
 21
9.1999732754
 31
0.0
 11
20.3038180373
 21
9.1943050155
 31
0.0
 11
20.2998699692
 21
9.1886533299
 31
0.0
 11
20.2963299325
 21
9.1830515856
 31
0.0
 11
20.2932047415
 21
9.1775279101
 31
0.0
 11
20.2905044883
 21
9.1721092126
 31
0.0
 11
20.2882457222
 21
9.1668230517
 31
0.0
  0
SPLINE
  5
30C
100
AcDbEntity
  8
0
100
AcDbSpline
 62
6
  6
CONTINUOUS
 70
0
 71
3
 72
63
 73
59
 74
57
 42
0.0000001
 43
0.0000001
 44
0.0000000001
 12
-0.2249127031
 22
0.1367671739
 32
0.0
 13
0.014855386
 23
-0.262812293
 33
0.0
 40
0.0
 40
0.0
 40
0.0
 40
0.0
 40
0.0383428946
 40
0.0771001966
 40
0.116159182
 40
0.1357662654
 40
0.1554077702
 40
0.1947577678
 40
0.2144485654
 40
0.234138038
 40
0.253817286
 40
0.2734761399
 40
0.3126811981
 40
0.3322020045
 40
0.3516520205
 40
0.3710185753
 40
0.3902817375
 40
0.409419726
 40
0.4284128569
 40
0.4472440352
 40
0.4658935145
 40
0.4843193198
 40
0.502479698
 40
0.5203435388
 40
0.5378900238
 40
0.555073761
 40
0.5718388181
 40
0.5800543755
 40
0.5881552619
 40
0.5961421547
 40
0.6040187945
 40
0.6117907507
 40
0.6194631405
 40
0.6345232719
 40
0.6419221257
 40
0.6492365214
 40
0.6564690945
 40
0.6636240624
 40
0.6777334114
 40
0.6916275377
 40
0.7053418709
 40
0.7121371367
 40
0.7188903887
 40
0.7322755682
 40
0.7455165888
 40
0.7586239414
 40
0.7715991137
 40
0.7844386426
 40
0.7971435554
 40
0.8221386271
 40
0.8465572319
 40
0.8703759296
 40
0.8935652978
 40
0.91611102
 40
0.9380074511
 40
0.9592671291
 40
0.9799173506
 40
1.0
 40
1.0
 40
1.0
 40
1.0
 10
20.2882457222
 20
9.1668230517
 30
0.0
 10
20.2853711209
 20
9.1685710682
 30
0.0
 10
20.279609615
 20
9.1721169193
 30
0.0
 10
20.2709775861
 20
9.1775365493
 30
0.0
 10
20.2637717384
 20
9.1821355214
 30
0.0
 10
20.2579964821
 20
9.185858066
 30
0.0
 10
20.2522094532
 20
9.1896094366
 30
0.0
 10
20.2464268663
 20
9.1933811159
 30
0.0
 10
20.240643866
 20
9.1971598445
 30
0.0
 10
20.2363053875
 20
9.1999939075
 30
0.0
 10
20.2319671015
 20
9.2028231432
 30
0.0
 10
20.2261886414
 20
9.2065787604
 30
0.0
 10
20.220404999
 20
9.2103009754
 30
0.0
 10
20.2146048237
 20
9.2139630528
 30
0.0
 10
20.2102568433
 20
9.216664388
 30
0.0
 10
20.2059050311
 20
9.2193164105
 30
0.0
 10
20.2015476487
 20
9.2219061824
 30
0.0
 10
20.1971833114
 20
9.2244193043
 30
0.0
 10
20.1928110401
 20
9.2268414779
 30
0.0
 10
20.1884302051
 20
9.229157964
 30
0.0
 10
20.1840428737
 20
9.231353349
 30
0.0
 10
20.1796492665
 20
9.2334010459
 30
0.0
 10
20.175252119
 20
9.2352722625
 30
0.0
 10
20.1708550696
 20
9.2369379864
 30
0.0
 10
20.166465157
 20
9.2383675768
 30
0.0
 10
20.162096726
 20
9.2395314921
 30
0.0
 10
20.1584661835
 20
9.240259405
 30
0.0
 10
20.1555926623
 20
9.2406741887
 30
0.0
 10
20.1534712538
 20
9.2408968434
 30
0.0
 10
20.1513720018
 20
9.2410286893
 30
0.0
 10
20.1492978401
 20
9.2410676426
 30
0.0
 10
20.1472515035
 20
9.2410167518
 30
0.0
 10
20.144580585
 20
9.2408333208
 30
0.0
 10
20.1419563379
 20
9.2404802839
 30
0.0
 10
20.1393952216
 20
9.23996181
 30
0.0
 10
20.1375257933
 20
9.2394973527
 30
0.0
 10
20.1356990981
 20
9.2389573346
 30
0.0
 10
20.133334073
 20
9.2381436196
 30
0.0
 10
20.1304831162
 20
9.2369550648
 30
0.0
 10
20.1272235884
 20
9.2352820038
 30
0.0
 10
20.1246426379
 20
9.2337113376
 30
0.0
 10
20.1226626757
 20
9.2323683335
 30
0.0
 10
20.1207485882
 20
9.2309816636
 30
0.0
 10
20.1184540524
 20
9.2291585748
 30
0.0
 10
20.1158485346
 20
9.2268396189
 30
0.0
 10
20.1133927911
 20
9.2244137881
 30
0.0
 10
20.1110805351
 20
9.2218988298
 30
0.0
 10
20.1089048333
 20
9.2193109378
 30
0.0
 10
20.1061976817
 20
9.2157972148
 30
0.0
 10
20.1031365447
 20
9.2112801396
 30
0.0
 10
20.0999359608
 20
9.2057019292
 30
0.0
 10
20.0972110463
 20
9.2000523594
 30
0.0
 10
20.0949412902
 20
9.1943820275
 30
0.0
 10
20.0931251822
 20
9.1887272875
 30
0.0
 10
20.0917601638
 20
9.1831209204
 30
0.0
 10
20.0908538416
 20
9.17759017
 30
0.0
 10
20.0904136235
 20
9.1721624232
 30
0.0
 10
20.0904411797
 20
9.1685823741
 30
0.0
 10
20.0905406249
 20
9.1668230517
 30
0.0
 11
20.2882457222
 21
9.1668230517
 31
0.0
 11
20.2796485045
 21
9.1721105746
 31
0.0
 11
20.2710067187
 21
9.1775330737
 31
0.0
 11
20.2623385405
 21
9.1830623876
 31
0.0
 11
20.2580002283
 21
9.185858298
 31
0.0
 11
20.2536614246
 21
9.1886701412
 31
0.0
 11
20.2449830922
 21
9.1943250728
 31
0.0
 11
20.2406437086
 21
9.1971598163
 31
0.0
 11
20.2363042771
 21
9.1999938486
 31
0.0
 11
20.2319648683
 21
9.2028229908
 31
0.0
 11
20.2276252551
 21
9.2056419765
 31
0.0
 11
20.2189418958
 21
9.2112188977
 31
0.0
 11
20.2145962692
 21
9.2139611015
 31
0.0
 11
20.2102467576
 21
9.2166619799
 31
0.0
 11
20.2058924184
 21
9.2193130636
 31
0.0
 11
20.2015322937
 21
9.2219017077
 31
0.0
 11
20.1971654192
 21
9.2244135005
 31
0.0
 11
20.1927908304
 21
9.2268340242
 31
0.0
 11
20.188407563
 21
9.229148861
 31
0.0
 11
20.1840153142
 21
9.2313415234
 31
0.0
 11
20.1796168999
 21
9.2333857725
 31
0.0
 11
20.1752160535
 21
9.2352524998
 31
0.0
 11
20.1708165084
 21
9.2369125963
 31
0.0
 11
20.1664227889
 21
9.2383368426
 31
0.0
 11
20.1620501375
 21
9.2394945205
 31
0.0
 11
20.1577215117
 21
9.2403538329
 31
0.0
 11
20.1555809358
 21
9.2406616581
 31
0.0
 11
20.1534600392
 21
9.2408829591
 31
0.0
 11
20.1513617103
 21
9.2410137996
 31
0.0
 11
20.1492886918
 21
9.2410526294
 31
0.0
 11
20.1472435035
 21
9.2410015512
 31
0.0
 11
20.1452286461
 21
9.2408629764
 31
0.0
 11
20.1412999281
 21
9.2403329831
 31
0.0
 11
20.139391069
 21
9.2399463875
 31
0.0
 11
20.1375225445
 21
9.2394819412
 31
0.0
 11
20.1356968547
 21
9.2389420561
 31
0.0
 11
20.1339158165
 21
9.2383295565
 31
0.0
 11
20.1304866784
 21
9.2369030132
 31
0.0
 11
20.1272313096
 21
9.235235988
 31
0.0
 11
20.1241455325
 21
9.2333623735
 31
0.0
 11
20.1226649353
 21
9.2323586867
 31
0.0
 11
20.1212251638
 21
9.2313160115
 31
0.0
 11
20.1184654477
 21
9.2291254981
 31
0.0
 11
20.1158605638
 21
9.2268096838
 31
0.0
 11
20.1134045761
 21
9.2243863592
 31
0.0
 11
20.1110915488
 21
9.2218733143
 31
0.0
 11
20.1089160608
 21
9.2192867889
 31
0.0
 11
20.106874356
 21
9.2166380095
 31
0.0
 11
20.1031786164
 21
9.2111945454
 31
0.0
 11
20.0999784043
 21
9.2056200807
 31
0.0
 11
20.0972536175
 21
9.1999732749
 31
0.0
 11
20.0949882479
 21
9.1943050207
 31
0.0
 11
20.0931772531
 21
9.1886533334
 31
0.0
 11
20.0918199445
 21
9.1830515898
 31
0.0
 11
20.0909217878
 21
9.1775279106
 31
0.0
 11
20.0904910172
 21
9.172109211
 31
0.0
 11
20.0905406249
 21
9.1668230517
 31
0.0
  0
SPLINE
  5
30D
100
AcDbEntity
  8
0
100
AcDbSpline
 62
6
  6
CONTINUOUS
 70
0
 71
3
 72
58
 73
54
 74
52
 42
0.0000001
 43
0.0000001
 44
0.0000000001
 12
-0.1843623077
 22
0.1073340049
 32
0.0
 13
0.0145678752
 23
-0.2128328595
 33
0.0
 40
0.0
 40
0.0
 40
0.0
 40
0.0
 40
0.0830453225
 40
0.1245109543
 40
0.1658372013
 40
0.206948778
 40
0.2477845981
 40
0.28828864
 40
0.3284033316
 40
0.3680605123
 40
0.4071542655
 40
0.4264541954
 40
0.4455708106
 40
0.4644904464
 40
0.4831955405
 40
0.5016599612
 40
0.5198576549
 40
0.5377642835
 40
0.5553576775
 40
0.5726183363
 40
0.5895160929
 40
0.6059876441
 40
0.6219718746
 40
0.6374194716
 40
0.6449315562
 40
0.6522984585
 40
0.6595192412
 40
0.6665946702
 40
0.6735272853
 40
0.6803203801
 40
0.6935005379
 40
0.7061741142
 40
0.7183874094
 40
0.7243411219
 40
0.7302027583
 40
0.7359817703
 40
0.7416895318
 40
0.7529430533
 40
0.7640656118
 40
0.7751278503
 40
0.7861734408
 40
0.7972213969
 40
0.8193316503
 40
0.8415756506
 40
0.8639895155
 40
0.8752458041
 40
0.8865258968
 40
0.9091510102
 40
0.9318468145
 40
0.9432078991
 40
0.9545670613
 40
0.9772788467
 40
1.0
 40
1.0
 40
1.0
 40
1.0
 10
20.0905406249
 20
9.1668230517
 30
0.0
 10
20.0854371491
 20
9.1697942474
 30
0.0
 10
20.0778492224
 20
9.1743594483
 30
0.0
 10
20.0678563965
 20
9.1806216268
 30
0.0
 10
20.0604424964
 20
9.1853827065
 30
0.0
 10
20.0531148218
 20
9.1901941995
 30
0.0
 10
20.0458761554
 20
9.1950340974
 30
0.0
 10
20.0387268354
 20
9.1998797051
 30
0.0
 10
20.0316675897
 20
9.204708643
 30
0.0
 10
20.0247018111
 20
9.2094965172
 30
0.0
 10
20.0189474825
 20
9.2134338751
 30
0.0
 10
20.0143830402
 20
9.216523493
 30
0.0
 10
20.0109962291
 20
9.2187935483
 30
0.0
 10
20.0076316912
 20
9.2210207575
 30
0.0
 10
20.00429
 20
9.2231983076
 30
0.0
 10
20.0009704442
 20
9.2253155095
 30
0.0
 10
19.9976732011
 20
9.2273616323
 30
0.0
 10
19.9943984539
 20
9.22932581
 30
0.0
 10
19.9911463663
 20
9.2311971586
 30
0.0
 10
19.9879180584
 20
9.2329644728
 30
0.0
 10
19.9847175414
 20
9.2346143773
 30
0.0
 10
19.9815491469
 20
9.2361253666
 30
0.0
 10
19.9784203304
 20
9.2374746287
 30
0.0
 10
19.9758285588
 20
9.2384540077
 30
0.0
 10
19.9737808558
 20
9.2391313025
 30
0.0
 10
19.9722742721
 20
9.2395793237
 30
0.0
 10
19.9707836581
 20
9.2399693016
 30
0.0
 10
19.9693099309
 20
9.2402979871
 30
0.0
 10
19.9678545921
 20
9.2405646752
 30
0.0
 10
19.9659601447
 20
9.2408352235
 30
0.0
 10
19.963643293
 20
9.2410239685
 30
0.0
 10
19.9609328593
 20
9.2410068184
 30
0.0
 10
19.958747008
 20
9.2407860219
 30
0.0
 10
19.9570644891
 20
9.2404843997
 30
0.0
 10
19.955845672
 20
9.2401991725
 30
0.0
 10
19.9546608959
 20
9.2398530314
 30
0.0
 10
19.9531358208
 20
9.2393132847
 30
0.0
 10
19.9513101703
 20
9.238493608
 30
0.0
 10
19.9492501335
 20
9.2372983864
 30
0.0
 10
19.9473265451
 20
9.2359201975
 30
0.0
 10
19.9455353425
 20
9.2343827921
 30
0.0
 10
19.9433176917
 20
9.232151476
 30
0.0
 10
19.9408445043
 20
9.229068285
 30
0.0
 10
19.9383499723
 20
9.2250167539
 30
0.0
 10
19.9366379088
 20
9.2214202711
 30
0.0
 10
19.935467828
 20
9.2184448219
 30
0.0
 10
19.9344263235
 20
9.2154059359
 30
0.0
 10
19.9333679637
 20
9.2115175266
 30
0.0
 10
19.932622234
 20
9.2075521772
 30
0.0
 10
19.932204436
 20
9.204349146
 30
0.0
 10
19.9319035782
 20
9.2011318571
 30
0.0
 10
19.9317463364
 20
9.1970927844
 30
0.0
 10
19.9318523741
 20
9.1938606112
 30
0.0
 10
19.9319627071
 20
9.1922486752
 30
0.0
 11
20.0905406249
 21
9.1668230517
 31
0.0
 11
20.0753532209
 21
9.1759446731
 31
0.0
 11
20.0678567353
 21
9.1806406949
 31
0.0
 11
20.0604378089
 21
9.1854034948
 31
0.0
 11
20.0531051902
 21
9.1902151522
 31
0.0
 11
20.0458616766
 21
9.1950548257
 31
0.0
 11
20.038707418
 21
9.1999003744
 31
0.0
 11
20.0316425523
 21
9.2047296518
 31
0.0
 11
20.0246670946
 21
9.2095167467
 31
0.0
 11
20.0177805774
 21
9.2142209864
 31
0.0
 11
20.0143704887
 21
9.2165281945
 31
0.0
 11
20.0109824156
 21
9.2187980799
 31
0.0
 11
20.0076162854
 21
9.2210250978
 31
0.0
 11
20.0042721119
 21
9.2232021564
 31
0.0
 11
20.0009500968
 21
9.2253187992
 31
0.0
 11
19.9976504665
 21
9.2273641277
 31
0.0
 11
19.9943734477
 21
9.2293272436
 31
0.0
 11
19.9911192666
 21
9.2311972483
 31
0.0
 11
19.9878881522
 21
9.2329632394
 31
0.0
 11
19.9846821792
 21
9.2346113932
 31
0.0
 11
19.9815085225
 21
9.2361198115
 31
0.0
 11
19.9783752312
 21
9.2374652127
 31
0.0
 11
19.9752903545
 21
9.2386243154
 31
0.0
 11
19.9737685869
 21
9.2391267293
 31
0.0
 11
19.9722619412
 21
9.2395738381
 31
0.0
 11
19.9707714238
 21
9.2399627314
 31
0.0
 11
19.9692980748
 21
9.2402906844
 31
0.0
 11
19.9678432696
 21
9.2405567805
 31
0.0
 11
19.9664085723
 21
9.2407611248
 31
0.0
 11
19.9636057668
 21
9.2409850235
 31
0.0
 11
19.9609021893
 21
9.2409633128
 31
0.0
 11
19.9583103705
 21
9.2406969245
 31
0.0
 11
19.9570602865
 21
9.2404722676
 31
0.0
 11
19.9558428412
 21
9.2401867909
 31
0.0
 11
19.9546596009
 21
9.2398406112
 31
0.0
 11
19.9535116989
 21
9.2394344437
 31
0.0
 11
19.9513209002
 21
9.2384526733
 31
0.0
 11
19.9492671652
 21
9.2372642793
 31
0.0
 11
19.947346962
 21
9.2358924096
 31
0.0
 11
19.9455567587
 21
9.2343602123
 31
0.0
 11
19.9438930232
 21
9.2326908352
 31
0.0
 11
19.9409307076
 21
9.2290202932
 31
0.0
 11
19.9384310138
 21
9.2249867215
 31
0.0
 11
19.9363647393
 21
9.220674656
 31
0.0
 11
19.9354851388
 21
9.2184402411
 31
0.0
 11
19.9347043341
 21
9.2161640458
 31
0.0
 11
19.9334318845
 21
9.21150816
 31
0.0
 11
19.932532959
 21
9.2067506251
 31
0.0
 11
19.9322190595
 21
9.2043473685
 31
0.0
 11
19.9319933504
 21
9.2019346433
 31
0.0
 11
19.9318042957
 21
9.1970932088
 31
0.0
 11
19.9319627071
 21
9.1922486752
 31
0.0
  0
SPLINE
  5
30E
100
AcDbEntity
  8
0
100
AcDbSpline
 62
6
  6
CONTINUOUS
 70
0
 71
3
 72
56
 73
52
 74
50
 42
0.0000001
 43
0.0000001
 44
0.0000000001
 12
-0.1306212886
 22
0.0805973366
 32
0.0
 13
0.009277416
 23
-0.1532050301
 33
0.0
 40
0.0
 40
0.0
 40
0.0
 40
0.0
 40
0.0895964996
 40
0.1777025056
 40
0.2210864018
 40
0.2639702553
 40
0.306315744
 40
0.3480829154
 40
0.3687367892
 40
0.3892290978
 40
0.4296878366
 40
0.4693731185
 40
0.5081967625
 40
0.5272576095
 40
0.5460661078
 40
0.5828424431
 40
0.6183568779
 40
0.6355891933
 40
0.6524447659
 40
0.6688971835
 40
0.6849036026
 40
0.700420413
 40
0.7154065711
 40
0.7298244304
 40
0.743640828
 40
0.7568261773
 40
0.7693441547
 40
0.7811628561
 40
0.7922638686
 40
0.8026475231
 40
0.8123402074
 40
0.8214101862
 40
0.829973478
 40
0.8381599192
 40
0.8461041862
 40
0.8539402972
 40
0.8617953777
 40
0.869784018
 40
0.8779976756
 40
0.8822104013
 40
0.8864998014
 40
0.8953187751
 40
0.9044684976
 40
0.9139425987
 40
0.9237239073
 40
0.9338052668
 40
0.9441813911
 40
0.9548419258
 40
0.9657723468
 40
0.9769547249
 40
1.0
 40
1.0
 40
1.0
 40
1.0
 10
19.9334712633
 20
9.1700809105
 30
0.0
 10
19.9295701932
 20
9.1724879903
 30
0.0
 10
19.9219060971
 20
9.1773816141
 30
0.0
 10
19.9125496338
 20
9.1837402878
 30
0.0
 10
19.905272728
 20
9.1889016549
 30
0.0
 10
19.8999527898
 20
9.1927743873
 30
0.0
 10
19.8947434542
 20
9.1966577355
 30
0.0
 10
19.8904793892
 20
9.1999056473
 30
0.0
 10
19.8871230322
 20
9.2024997874
 30
0.0
 10
19.8838309125
 20
9.2050675085
 30
0.0
 10
19.8797892863
 20
9.2082573787
 30
0.0
 10
19.8750324131
 20
9.21205464
 30
0.0
 10
19.87114125
 20
9.2151815376
 30
0.0
 10
19.8680842759
 20
9.2176413724
 30
0.0
 10
19.8651081212
 20
9.2200345652
 30
0.0
 10
19.8614693395
 20
9.2229470461
 30
0.0
 10
19.8578706239
 20
9.225780452
 30
0.0
 10
19.8550498693
 20
9.227953978
 30
0.0
 10
19.8529882643
 20
9.2295147517
 30
0.0
 10
19.8509609648
 20
9.2310167409
 30
0.0
 10
19.8489691157
 20
9.2324512052
 30
0.0
 10
19.8470148371
 20
9.2338089669
 30
0.0
 10
19.8451003067
 20
9.2350807308
 30
0.0
 10
19.8432276888
 20
9.2362572246
 30
0.0
 10
19.841399222
 20
9.2373291433
 30
0.0
 10
19.8396178464
 20
9.2382867479
 30
0.0
 10
19.8378878641
 20
9.2391205602
 30
0.0
 10
19.8362143428
 20
9.2398206836
 30
0.0
 10
19.8346023848
 20
9.240377023
 30
0.0
 10
19.8330569021
 20
9.2407794136
 30
0.0
 10
19.8315819926
 20
9.2410172373
 30
0.0
 10
19.8301818909
 20
9.2410796168
 30
0.0
 10
19.8288615467
 20
9.2409717973
 30
0.0
 10
19.8276237346
 20
9.2406993373
 30
0.0
 10
19.8264713657
 20
9.2402682562
 30
0.0
 10
19.8254073337
 20
9.2396851461
 30
0.0
 10
19.8244342602
 20
9.2389568965
 30
0.0
 10
19.8235543865
 20
9.2380914906
 30
0.0
 10
19.8229015771
 20
9.2372731493
 30
0.0
 10
19.8224223863
 20
9.2365644567
 30
0.0
 10
19.8219628191
 20
9.2358063704
 30
0.0
 10
19.8214413241
 20
9.2347922594
 30
0.0
 10
19.8209012555
 20
9.2334948926
 30
0.0
 10
19.820438082
 20
9.2321163014
 30
0.0
 10
19.8200485558
 20
9.2306659241
 30
0.0
 10
19.8197311658
 20
9.2291510092
 30
0.0
 10
19.8194842339
 20
9.2275775851
 30
0.0
 10
19.8193059197
 20
9.2259513032
 30
0.0
 10
19.8191944075
 20
9.2242777734
 30
0.0
 10
19.8191318455
 20
9.2219678275
 30
0.0
 10
19.8191814265
 20
9.2202154988
 30
0.0
 10
19.8192526934
 20
9.2190386148
 30
0.0
 11
19.9334712633
 21
9.1700809105
 31
0.0
 11
19.921878333
 21
9.1774778958
 31
0.0
 11
19.9106917333
 21
9.1850760388
 31
0.0
 11
19.9052598852
 21
9.1889276268
 31
0.0
 11
19.8999379507
 21
9.1928006733
 31
0.0
 11
19.8947265299
 21
9.196684438
 31
0.0
 11
19.8896262225
 21
9.2005681807
 31
0.0
 11
19.887117924
 21
9.2025066868
 31
0.0
 11
19.8846376519
 21
9.2044408559
 31
0.0
 11
19.8797618209
 21
9.2082864175
 31
0.0
 11
19.8750000424
 21
9.2120847375
 31
0.0
 11
19.8703536385
 21
9.2158155685
 31
0.0
 11
19.8680741162
 21
9.2176493406
 31
0.0
 11
19.8658240442
 21
9.2194579291
 31
0.0
 11
19.8614141514
 21
9.222981395
 31
0.0
 11
19.8571278629
 21
9.226348985
 31
0.0
 11
19.8550322963
 21
9.2279627286
 31
0.0
 11
19.8529691034
 21
9.2295235822
 31
0.0
 11
19.8509392255
 21
9.2310256751
 31
0.0
 11
19.8489447155
 21
9.2324601018
 31
0.0
 11
19.846987795
 21
9.233817496
 31
0.0
 11
19.8450706853
 21
9.2350884913
 31
0.0
 11
19.8431956082
 21
9.2362637216
 31
0.0
 11
19.841364785
 21
9.2373338206
 31
0.0
 11
19.8395807963
 21
9.2382893297
 31
0.0
 11
19.8378484212
 21
9.2391202246
 31
0.0
 11
19.8361732717
 21
9.239816267
 31
0.0
 11
19.8345609611
 21
9.2403672179
 31
0.0
 11
19.8330171028
 21
9.2407628386
 31
0.0
 11
19.8315473098
 21
9.2409928919
 31
0.0
 11
19.8301563963
 21
9.2410506419
 31
0.0
 11
19.8288467019
 21
9.2409402012
 31
0.0
 11
19.8276200883
 21
9.2406677773
 31
0.0
 11
19.826478417
 21
9.2402395775
 31
0.0
 11
19.8254235496
 21
9.2396618093
 31
0.0
 11
19.8244573473
 21
9.2389406806
 31
0.0
 11
19.8235807234
 21
9.2380833859
 31
0.0
 11
19.8227916097
 21
9.2371002223
 31
0.0
 11
19.8224290403
 21
9.2365648477
 31
0.0
 11
19.8220873538
 21
9.2360020954
 31
0.0
 11
19.8214653031
 21
9.2347999106
 31
0.0
 11
19.8209228051
 21
9.2335045734
 31
0.0
 11
19.8204572074
 21
9.2321269892
 31
0.0
 11
19.8200659383
 21
9.2306775816
 31
0.0
 11
19.8197469818
 21
9.2291634676
 31
0.0
 11
19.8194985552
 21
9.2275903765
 31
0.0
 11
19.8193188763
 21
9.2259640326
 31
0.0
 11
19.8192061632
 21
9.2242901601
 31
0.0
 11
19.8191586338
 21
9.2225744835
 31
0.0
 11
19.8192526934
 21
9.2190386148
 31
0.0
  0
SPLINE
  5
30F
100
AcDbEntity
  8
0
100
AcDbSpline
 62
6
  6
CONTINUOUS
 70
0
 71
3
 72
49
 73
45
 74
43
 42
0.0000001
 43
0.0000001
 44
0.0000000001
 12
-0.0681072695
 22
0.0544191572
 32
0.0
 13
0.0044637022
 23
-0.0870638857
 33
0.0
 40
0.0
 40
0.0
 40
0.0
 40
0.0
 40
0.0955035098
 40
0.1887594334
 40
0.279604715
 40
0.3240697474
 40
0.3678641332
 40
0.4532577071
 40
0.5353419976
 40
0.5749946838
 40
0.6136338274
 40
0.6874342065
 40
0.7223508525
 40
0.7557802035
 40
0.7875918936
 40
0.8175754126
 40
0.8454653772
 40
0.8709994679
 40
0.8828035257
 40
0.8939245951
 40
0.9043327487
 40
0.913997107
 40
0.9228887458
 40
0.9309824516
 40
0.9382587072
 40
0.9447070941
 40
0.9476222914
 40
0.9503342522
 40
0.952847869
 40
0.9551709119
 40
0.9592926034
 40
0.961139575
 40
0.9628802154
 40
0.9645484935
 40
0.9661814102
 40
0.9678169022
 40
0.9694913217
 40
0.9730754715
 40
0.9750418289
 40
0.977146876
 40
0.9818195503
 40
0.987166494
 40
0.99322236
 40
1.0
 40
1.0
 40
1.0
 40
1.0
 10
19.8215907409
 20
9.1827347951
 30
0.0
 10
19.8194225798
 20
9.1844672019
 30
0.0
 10
19.815184999
 20
9.187951465
 30
0.0
 10
19.809052024
 20
9.1932824411
 30
0.0
 10
19.8041545134
 20
9.1977703394
 30
0.0
 10
19.8003847817
 20
9.2013590664
 30
0.0
 10
19.7967731937
 20
9.2048835905
 30
0.0
 10
19.7924553237
 20
9.2092488721
 30
0.0
 10
19.7883131681
 20
9.2136165771
 30
0.0
 10
19.785153798
 20
9.217042728
 30
0.0
 10
19.7821857232
 20
9.2203176026
 30
0.0
 10
19.7793442219
 20
9.2235212
 30
0.0
 10
19.7766220231
 20
9.2266280001
 30
0.0
 10
19.7747083337
 20
9.2288209327
 30
0.0
 10
19.7728891691
 20
9.2309060847
 30
0.0
 10
19.7711690459
 20
9.2328640263
 30
0.0
 10
19.769553504
 20
9.23467093
 30
0.0
 10
19.7682687258
 20
9.2360647685
 30
0.0
 10
19.7672949211
 20
9.2370820417
 30
0.0
 10
19.7666142873
 20
9.2377713205
 30
0.0
 10
19.7659650312
 20
9.2384039911
 30
0.0
 10
19.7653483864
 20
9.238977002
 30
0.0
 10
19.7647656495
 20
9.2394872592
 30
0.0
 10
19.7642180936
 20
9.2399317301
 30
0.0
 10
19.763706974
 20
9.2403073618
 30
0.0
 10
19.7632996495
 20
9.2405688953
 30
0.0
 10
19.7629922759
 20
9.24073845
 30
0.0
 10
19.7627794548
 20
9.2408419967
 30
0.0
 10
19.7625765587
 20
9.2409259138
 30
0.0
 10
19.7623293899
 20
9.2410078177
 30
0.0
 10
19.7620909795
 20
9.2410549507
 30
0.0
 10
19.7618664048
 20
9.2410575503
 30
0.0
 10
19.7617143048
 20
9.2410388939
 30
0.0
 10
19.7615725075
 20
9.2409998627
 30
0.0
 10
19.7614411801
 20
9.2409406996
 30
0.0
 10
19.7613204914
 20
9.2408617646
 30
0.0
 10
19.7611705734
 20
9.2407279065
 30
0.0
 10
19.761045429
 20
9.2405561462
 30
0.0
 10
19.7609442127
 20
9.240357865
 30
0.0
 10
19.7608501542
 20
9.2401214205
 30
0.0
 10
19.7607611251
 20
9.2397791986
 30
0.0
 10
19.7606975764
 20
9.2393156543
 30
0.0
 10
19.7606732634
 20
9.2387873389
 30
0.0
 10
19.7606824757
 20
9.238414242
 30
0.0
 10
19.7606925602
 20
9.2382175461
 30
0.0
 11
19.8215907409
 21
9.1827347951
 31
0.0
 11
19.8151594356
 21
9.1880223008
 31
0.0
 11
19.8090231145
 21
9.193355276
 31
0.0
 11
19.803183863
 21
9.1987055365
 31
0.0
 11
19.8003762646
 21
9.2013783135
 31
0.0
 11
19.7976437109
 21
9.2040447048
 31
0.0
 11
19.7924068336
 21
9.2093357462
 31
0.0
 11
19.7874811255
 21
9.2145266242
 31
0.0
 11
19.7851375425
 21
9.2170677734
 31
0.0
 11
19.7828749708
 21
9.2195632714
 31
0.0
 11
19.7786010587
 21
9.2243723553
 31
0.0
 11
19.7765943236
 21
9.226661193
 31
0.0
 11
19.7746774738
 21
9.2288563923
 31
0.0
 11
19.7728530053
 21
9.2309450368
 31
0.0
 11
19.771125946
 21
9.2329071257
 31
0.0
 11
19.7695031049
 21
9.2347176734
 31
0.0
 11
19.7679913284
 21
9.2363515899
 31
0.0
 11
19.7672792288
 21
9.237094471
 31
0.0
 11
19.7665974627
 21
9.2377837857
 31
0.0
 11
19.7659469802
 21
9.2384163858
 31
0.0
 11
19.765329033
 21
9.2389890847
 31
0.0
 11
19.7647449326
 21
9.2394986882
 31
0.0
 11
19.7641959908
 21
9.239942002
 31
0.0
 11
19.7636835192
 21
9.2403158321
 31
0.0
 11
19.7632088297
 21
9.2406169841
 31
0.0
 11
19.762986063
 21
9.2407393077
 31
0.0
 11
19.7627732337
 21
9.2408422639
 31
0.0
 11
19.7625705058
 21
9.2409254535
 31
0.0
 11
19.7623780431
 21
9.2409884772
 31
0.0
 11
19.7620245004
 21
9.2410526616
 31
0.0
 11
19.7618634893
 21
9.2410538904
 31
0.0
 11
19.7617129349
 21
9.2410349113
 31
0.0
 11
19.761572796
 21
9.2409960119
 31
0.0
 11
19.7614430315
 21
9.2409374792
 31
0.0
 11
19.7613236004
 21
9.2408596008
 31
0.0
 11
19.7612144614
 21
9.2407626637
 31
0.0
 11
19.7610268958
 21
9.2405127632
 31
0.0
 11
19.7609483869
 21
9.2403603742
 31
0.0
 11
19.7608800058
 21
9.2401900759
 31
0.0
 11
19.7607734626
 21
9.2397969003
 31
0.0
 11
19.7607069374
 21
9.2393355347
 31
0.0
 11
19.7606801015
 21
9.2388082775
 31
0.0
 11
19.7606925602
 21
9.2382175461
 31
0.0
  0
LINE
  5
310
100
AcDbEntity
  8
0
100
AcDbLine
 62
6
  6
CONTINUOUS
 10
20.4144077451
 20
7.8932539332
 11
20.3809047891
 21
7.9428396028
  0
SPLINE
  5
311
100
AcDbEntity
  8
0
100
AcDbSpline
 62
6
  6
CONTINUOUS
 70
0
 71
3
 72
9
 73
5
 74
3
 42
0.0000001
 43
0.0000001
 44
0.0000000001
 12
0.0357337719
 22
-0.0502371482
 32
0.0
 13
0.0376306816
 23
-0.0488324207
 33
0.0
 40
0.0
 40
0.0
 40
0.0
 40
0.0
 40
0.4994384963
 40
1.0
 40
1.0
 40
1.0
 40
1.0
 10
20.3809047891
 20
7.9428396028
 30
0.0
 10
20.3868537295
 20
7.9344761475
 30
0.0
 10
20.3989009537
 20
7.9178267122
 30
0.0
 10
20.4112537554
 20
7.9014018098
 30
0.0
 10
20.417532579
 20
7.8932539332
 30
0.0
 11
20.3809047891
 21
7.9428396028
 31
0.0
 11
20.3989636475
 21
7.9179014168
 31
0.0
 11
20.417532579
 21
7.8932539332
 31
0.0
  0
LINE
  5
312
100
AcDbEntity
  8
0
100
AcDbLine
 62
6
  6
CONTINUOUS
 10
20.4779093084
 20
7.8932539332
 11
20.4514881425
 21
7.9428396028
  0
SPLINE
  5
313
100
AcDbEntity
  8
0
100
AcDbSpline
 62
6
  6
CONTINUOUS
 70
0
 71
3
 72
9
 73
5
 74
3
 42
0.0000001
 43
0.0000001
 44
0.0000000001
 12
0.0298501588
 22
-0.0501918805
 32
0.0
 13
0.0320071735
 23
-0.0488446281
 33
0.0
 40
0.0
 40
0.0
 40
0.0
 40
0.0
 40
0.4996007281
 40
1.0
 40
1.0
 40
1.0
 40
1.0
 10
20.4514881425
 20
7.9428396028
 30
0.0
 10
20.4564591962
 20
7.9344809694
 30
0.0
 10
20.4665528811
 20
7.9178353306
 30
0.0
 10
20.4769897021
 20
7.9014012053
 30
0.0
 10
20.4823284909
 20
7.8932539332
 30
0.0
 11
20.4514881425
 21
7.9428396028
 31
0.0
 11
20.4666304679
 21
7.9179014168
 31
0.0
 11
20.4823284909
 21
7.8932539332
 31
0.0
  0
LINE
  5
314
100
AcDbEntity
  8
0
100
AcDbLine
 62
6
  6
CONTINUOUS
 10
20.5610129765
 20
7.8932539332
 11
20.5434741596
 21
7.9428396028
  0
SPLINE
  5
315
100
AcDbEntity
  8
0
100
AcDbSpline
 62
6
  6
CONTINUOUS
 70
0
 71
3
 72
9
 73
5
 74
3
 42
0.0000001
 43
0.0000001
 44
0.0000000001
 12
0.021906741
 22
-0.0500598803
 32
0.0
 13
0.0242531915
 23
-0.0489661068
 33
0.0
 40
0.0
 40
0.0
 40
0.0
 40
0.0
 40
0.5002482957
 40
1.0
 40
1.0
 40
1.0
 40
1.0
 10
20.5434741596
 20
7.9428396028
 30
0.0
 10
20.5471270962
 20
7.9344921462
 30
0.0
 10
20.5545723518
 20
7.9178677393
 30
0.0
 10
20.5623851564
 20
7.9014108983
 30
0.0
 10
20.5664253476
 20
7.8932539332
 30
0.0
 11
20.5434741596
 21
7.9428396028
 31
0.0
 11
20.5546680276
 21
7.9179014168
 31
0.0
 11
20.5664253476
 21
7.8932539332
 31
0.0
  0
SPLINE
  5
316
100
AcDbEntity
  8
0
100
AcDbSpline
 62
6
  6
CONTINUOUS
 70
0
 71
3
 72
10
 73
6
 74
4
 42
0.0000001
 43
0.0000001
 44
0.0000000001
 12
-0.006608551
 22
0.0497078031
 32
0.0
 13
-0.0079482188
 23
0.0495112559
 33
0.0
 40
0.0
 40
0.0
 40
0.0
 40
0.0
 40
0.2473583893
 40
0.4965917761
 40
1.0
 40
1.0
 40
1.0
 40
1.0
 10
20.6580553719
 20
7.8932539332
 30
0.0
 10
20.6575104784
 20
7.8973524805
 30
0.0
 10
20.6563615479
 20
7.905573366
 30
0.0
 10
20.6538923654
 20
7.9221051597
 30
0.0
 10
20.6519278782
 20
7.9345314783
 30
0.0
 10
20.6505941453
 20
7.9428396028
 30
0.0
 11
20.6580553719
 21
7.8932539332
 31
0.0
 11
20.6563467202
 21
7.9055395143
 31
0.0
 11
20.6545083373
 21
7.9179014176
 31
0.0
 11
20.6505941453
 21
7.9428396028
 31
0.0
  0
SPLINE
  5
317
100
AcDbEntity
  8
0
100
AcDbSpline
 62
6
  6
CONTINUOUS
 70
0
 71
3
 72
9
 73
5
 74
3
 42
0.0000001
 43
0.0000001
 44
0.0000000001
 12
0.0124965461
 22
-0.0498509584
 32
0.0
 13
0.0148387187
 23
-0.0492046151
 33
0.0
 40
0.0
 40
0.0
 40
0.0
 40
0.0
 40
0.5013673001
 40
1.0
 40
1.0
 40
1.0
 40
1.0
 10
20.6505941453
 20
7.9428396028
 30
0.0
 10
20.6526825985
 20
7.9345083893
 30
0.0
 10
20.6569748026
 20
7.9179229504
 30
0.0
 10
20.6616257307
 20
7.9014322765
 30
0.0
 10
20.6640920875
 20
7.8932539332
 30
0.0
 11
20.6505941453
 21
7.9428396028
 31
0.0
 11
20.6570767122
 21
7.9179014168
 31
0.0
 11
20.6640920875
 21
7.8932539332
 31
0.0
  0
SPLINE
  5
318
100
AcDbEntity
  8
0
100
AcDbSpline
 62
6
  6
CONTINUOUS
 70
0
 71
3
 72
10
 73
6
 74
4
 42
0.0000001
 43
0.0000001
 44
0.0000000001
 12
0.0043205466
 22
0.0494986997
 32
0.0
 13
0.0023159836
 23
0.0496328986
 33
0.0
 40
0.0
 40
0.0
 40
0.0
 40
0.0
 40
0.2480377943
 40
0.4973806687
 40
1.0
 40
1.0
 40
1.0
 40
1.0
 10
20.7624232157
 20
7.8932539332
 30
0.0
 10
20.7627804353
 20
7.8973464493
 30
0.0
 10
20.763426642
 20
7.905559219
 30
0.0
 10
20.7645118967
 20
7.9220861739
 30
0.0
 10
20.7651600302
 20
7.934524118
 30
0.0
 10
20.7655480496
 20
7.9428396028
 30
0.0
 11
20.7624232157
 21
7.8932539332
 31
0.0
 11
20.7633984803
 21
7.9055395143
 31
0.0
 11
20.7642185623
 21
7.9179014177
 31
0.0
 11
20.7655480496
 21
7.9428396028
 31
0.0
  0
SPLINE
  5
319
100
AcDbEntity
  8
0
100
AcDbSpline
 62
6
  6
CONTINUOUS
 70
0
 71
3
 72
10
 73
6
 74
4
 42
0.0000001
 43
0.0000001
 44
0.0000000001
 12
0.0023159836
 22
-0.0496328984
 32
0.0
 13
0.0043205466
 23
-0.0494986996
 33
0.0
 40
0.0
 40
0.0
 40
0.0
 40
0.0
 40
0.5026193517
 40
0.7519622093
 40
1.0
 40
1.0
 40
1.0
 40
1.0
 10
20.7655480496
 20
7.9428396028
 30
0.0
 10
20.765936069
 20
7.9345241177
 30
0.0
 10
20.7665841983
 20
7.9220861732
 30
0.0
 10
20.767669471
 20
7.9055592197
 30
0.0
 10
20.7683156639
 20
7.8973464492
 30
0.0
 10
20.7686728835
 20
7.8932539332
 30
0.0
 11
20.7655480496
 21
7.9428396028
 31
0.0
 11
20.7668775392
 21
7.9179014168
 31
0.0
 11
20.7676976269
 21
7.9055395147
 31
0.0
 11
20.7686728835
 21
7.8932539332
 31
0.0
  0
SPLINE
  5
31A
100
AcDbEntity
  8
0
100
AcDbSpline
 62
6
  6
CONTINUOUS
 70
0
 71
3
 72
9
 73
5
 74
3
 42
0.0000001
 43
0.0000001
 44
0.0000000001
 12
0.0148387187
 22
0.0492046151
 32
0.0
 13
0.0124965461
 23
0.0498509584
 33
0.0
 40
0.0
 40
0.0
 40
0.0
 40
0.0
 40
0.4986327227
 40
1.0
 40
1.0
 40
1.0
 40
1.0
 10
20.8670040117
 20
7.8932539332
 30
0.0
 10
20.8694703686
 20
7.9014322769
 30
0.0
 10
20.8741213001
 20
7.9179229498
 30
0.0
 10
20.8784135007
 20
7.9345083897
 30
0.0
 10
20.8805019539
 20
7.9428396028
 30
0.0
 11
20.8670040117
 21
7.8932539332
 31
0.0
 11
20.8740193889
 21
7.9179014175
 31
0.0
 11
20.8805019539
 21
7.9428396028
 31
0.0
  0
SPLINE
  5
31B
100
AcDbEntity
  8
0
100
AcDbSpline
 62
6
  6
CONTINUOUS
 70
0
 71
3
 72
10
 73
6
 74
4
 42
0.0000001
 43
0.0000001
 44
0.0000000001
 12
-0.0079482188
 22
-0.0495112558
 32
0.0
 13
-0.006608551
 23
-0.0497078031
 33
0.0
 40
0.0
 40
0.0
 40
0.0
 40
0.0
 40
0.5034082334
 40
0.752641583
 40
1.0
 40
1.0
 40
1.0
 40
1.0
 10
20.8805019539
 20
7.9428396028
 30
0.0
 10
20.8791682209
 20
7.9345314782
 30
0.0
 10
20.8772037302
 20
7.9221051605
 30
0.0
 10
20.874734563
 20
7.9055733647
 30
0.0
 10
20.8735856208
 20
7.897352481
 30
0.0
 10
20.8730407272
 20
7.8932539332
 30
0.0
 11
20.8805019539
 21
7.9428396028
 31
0.0
 11
20.8765877637
 21
7.9179014168
 31
0.0
 11
20.874749386
 21
7.9055395147
 31
0.0
 11
20.8730407272
 21
7.8932539332
 31
0.0
  0
SPLINE
  5
31C
100
AcDbEntity
  8
0
100
AcDbSpline
 62
6
  6
CONTINUOUS
 70
0
 71
3
 72
9
 73
5
 74
3
 42
0.0000001
 43
0.0000001
 44
0.0000000001
 12
0.0242531915
 22
0.0489661068
 32
0.0
 13
0.021906741
 23
0.0500598803
 33
0.0
 40
0.0
 40
0.0
 40
0.0
 40
0.0
 40
0.4997517306
 40
1.0
 40
1.0
 40
1.0
 40
1.0
 10
20.9646707515
 20
7.8932539332
 30
0.0
 10
20.968710943
 20
7.9014108987
 30
0.0
 10
20.9765237503
 20
7.9178677385
 30
0.0
 10
20.9839690031
 20
7.9344921466
 30
0.0
 10
20.9876219395
 20
7.9428396028
 30
0.0
 11
20.9646707515
 21
7.8932539332
 31
0.0
 11
20.9764280735
 21
7.9179014175
 31
0.0
 11
20.9876219395
 21
7.9428396028
 31
0.0
  0
LINE
  5
31D
100
AcDbEntity
  8
0
100
AcDbLine
 62
6
  6
CONTINUOUS
 10
20.9876219395
 20
7.9428396028
 11
20.9700831226
 21
7.8932539332
  0
SPLINE
  5
31E
100
AcDbEntity
  8
0
100
AcDbSpline
 62
6
  6
CONTINUOUS
 70
0
 71
3
 72
9
 73
5
 74
3
 42
0.0000001
 43
0.0000001
 44
0.0000000001
 12
0.0320071735
 22
0.0488446281
 32
0.0
 13
0.0298501588
 23
0.0501918805
 33
0.0
 40
0.0
 40
0.0
 40
0.0
 40
0.0
 40
0.5003992978
 40
1.0
 40
1.0
 40
1.0
 40
1.0
 10
21.0487676083
 20
7.8932539332
 30
0.0
 10
21.0541063973
 20
7.9014012057
 30
0.0
 10
21.0645432203
 20
7.9178353298
 30
0.0
 10
21.0746369032
 20
7.9344809699
 30
0.0
 10
21.0796079566
 20
7.9428396028
 30
0.0
 11
21.0487676083
 21
7.8932539332
 31
0.0
 11
21.064465633
 21
7.9179014175
 31
0.0
 11
21.0796079566
 21
7.9428396028
 31
0.0
  0
LINE
  5
31F
100
AcDbEntity
  8
0
100
AcDbLine
 62
6
  6
CONTINUOUS
 10
21.0796079566
 20
7.9428396028
 11
21.0531867908
 21
7.8932539332
  0
SPLINE
  5
320
100
AcDbEntity
  8
0
100
AcDbSpline
 62
6
  6
CONTINUOUS
 70
0
 71
3
 72
9
 73
5
 74
3
 42
0.0000001
 43
0.0000001
 44
0.0000000001
 12
0.0376306816
 22
0.0488324207
 32
0.0
 13
0.0357337719
 23
0.0502371482
 33
0.0
 40
0.0
 40
0.0
 40
0.0
 40
0.0
 40
0.5005615267
 40
1.0
 40
1.0
 40
1.0
 40
1.0
 10
21.1135635202
 20
7.8932539332
 30
0.0
 10
21.119842344
 20
7.9014018102
 30
0.0
 10
21.132195147
 20
7.9178267116
 30
0.0
 10
21.1442423699
 20
7.9344761479
 30
0.0
 10
21.15019131
 20
7.9428396028
 30
0.0
 11
21.1135635202
 21
7.8932539332
 31
0.0
 11
21.1321324531
 21
7.9179014175
 31
0.0
 11
21.15019131
 21
7.9428396028
 31
0.0
  0
LINE
  5
321
100
AcDbEntity
  8
0
100
AcDbLine
 62
6
  6
CONTINUOUS
 10
21.15019131
 20
7.9428396028
 11
21.1166883541
 21
7.8932539332
  0
SPLINE
  5
322
100
AcDbEntity
  8
0
100
AcDbSpline
 62
6
  6
CONTINUOUS
 70
0
 71
3
 72
52
 73
48
 74
46
 42
0.0000001
 43
0.0000001
 44
0.0000000001
 12
0.0045306903
 22
0.0871676986
 32
0.0
 13
-0.0682057856
 23
-0.0544674733
 33
0.0
 40
0.0
 40
0.0
 40
0.0
 40
0.0
 40
0.0068098392
 40
0.0129128442
 40
0.0183096901
 40
0.0230222159
 40
0.0251400276
 40
0.0271131595
 40
0.0306924048
 40
0.0323581724
 40
0.0339844679
 40
0.0356119339
 40
0.0372829862
 40
0.040896637
 40
0.0429044588
 40
0.0450716017
 40
0.0474124109
 40
0.0499372986
 40
0.0555649271
 40
0.0619918261
 40
0.0692308091
 40
0.0772818005
 40
0.0861367792
 40
0.0957803982
 40
0.1061854857
 40
0.1173200168
 40
0.129149845
 40
0.154751529
 40
0.1826951854
 40
0.1974501867
 40
0.2126788017
 40
0.2444697108
 40
0.2779117853
 40
0.3128524129
 40
0.3491394449
 40
0.3866343474
 40
0.4252447991
 40
0.464889563
 40
0.5054885461
 40
0.5469646939
 40
0.5892591845
 40
0.632323744
 40
0.6761112284
 40
0.72057591
 40
0.8114025255
 40
0.9045994313
 40
1.0
 40
1.0
 40
1.0
 40
1.0
 10
3.6444015904
 20
9.2382121866
 30
0.0
 10
3.6444118748
 20
9.2384100526
 30
0.0
 10
3.6444215917
 20
9.2387858911
 30
0.0
 10
3.6443988246
 20
9.2393186639
 30
0.0
 10
3.644337211
 20
9.2397870371
 30
0.0
 10
3.6442498348
 20
9.2401332044
 30
0.0
 10
3.6441566931
 20
9.2403722194
 30
0.0
 10
3.6440563268
 20
9.2405717021
 30
0.0
 10
3.64393144
 20
9.2407439767
 30
0.0
 10
3.643780675
 20
9.2408763682
 30
0.0
 10
3.6436590181
 20
9.2409529987
 30
0.0
 10
3.6435261916
 20
9.241008489
 30
0.0
 10
3.6433298129
 20
9.2410552608
 30
0.0
 10
3.6431147846
 20
9.2410567741
 30
0.0
 10
3.6428907361
 20
9.2410219435
 30
0.0
 10
3.6427066761
 20
9.2409753252
 30
0.0
 10
3.6425127889
 20
9.2409094053
 30
0.0
 10
3.6422308381
 20
9.2407917904
 30
0.0
 10
3.641854523
 20
9.2405943347
 30
0.0
 10
3.6413803326
 20
9.2402931312
 30
0.0
 10
3.6408690678
 20
9.2399212802
 30
0.0
 10
3.6403216591
 20
9.2394806559
 30
0.0
 10
3.6397391176
 20
9.2389731223
 30
0.0
 10
3.6391227027
 20
9.2384009137
 30
0.0
 10
3.6384731918
 20
9.2377673338
 30
0.0
 10
3.6377916134
 20
9.2370758349
 30
0.0
 10
3.6368155493
 20
9.2360540264
 30
0.0
 10
3.6355277482
 20
9.2346539927
 30
0.0
 10
3.6342040357
 20
9.2331718037
 30
0.0
 10
3.6330888008
 20
9.2319081447
 30
0.0
 10
3.6319030624
 20
9.2305574219
 30
0.0
 10
3.6303633102
 20
9.2287940047
 30
0.0
 10
3.6284475393
 20
9.2265975306
 30
0.0
 10
3.62644132
 20
9.2243063645
 30
0.0
 10
3.6243474979
 20
9.2219351953
 30
0.0
 10
3.6221678912
 20
9.219497402
 30
0.0
 10
3.6199051926
 20
9.2170029582
 30
0.0
 10
3.6175609335
 20
9.2144607061
 30
0.0
 10
3.6151364764
 20
9.2118791752
 30
0.0
 10
3.6126326532
 20
9.2092666578
 30
0.0
 10
3.6100507417
 20
9.2066299005
 30
0.0
 10
3.607391842
 20
9.2039747316
 30
0.0
 10
3.6046567816
 20
9.2013068196
 30
0.0
 10
3.6008825371
 20
9.1977146572
 30
0.0
 10
3.5959795879
 20
9.1932239555
 30
0.0
 10
3.5898411832
 20
9.1878920084
 30
0.0
 10
3.5856007276
 20
9.1844080567
 30
0.0
 10
3.5834317707
 20
9.1826759807
 30
0.0
 11
3.6444015904
 21
9.2382121866
 31
0.0
 11
3.6444149556
 21
9.2388064356
 31
0.0
 11
3.6443896649
 21
9.2393385379
 31
0.0
 11
3.6443249712
 21
9.2398051401
 31
0.0
 11
3.6442201275
 21
9.2402028886
 31
0.0
 11
3.6441524159
 21
9.2403748948
 31
0.0
 11
3.6440743866
 21
9.2405284301
 31
0.0
 11
3.6438870015
 21
9.2407784109
 31
0.0
 11
3.6437774589
 21
9.2408740181
 31
0.0
 11
3.6436572251
 21
9.2409494776
 31
0.0
 11
3.6435262111
 21
9.2410043837
 31
0.0
 11
3.643384435
 21
9.2410386502
 31
0.0
 11
3.6430691074
 21
9.241046237
 31
0.0
 11
3.6428958191
 21
9.2410200656
 31
0.0
 11
3.6427122899
 21
9.2409742565
 31
0.0
 11
3.6425186512
 21
9.2409090639
 31
0.0
 11
3.6423150348
 21
9.2408247418
 31
0.0
 11
3.6418783945
 21
9.240599726
 31
0.0
 11
3.6414034214
 21
9.2403012421
 31
0.0
 11
3.6408911678
 21
9.2399313233
 31
0.0
 11
3.6403426862
 21
9.2394920026
 31
0.0
 11
3.639759029
 21
9.2389853132
 31
0.0
 11
3.6391412507
 21
9.2384135723
 31
0.0
 11
3.638490414
 21
9.2377801212
 31
0.0
 11
3.6378075834
 21
9.2370885315
 31
0.0
 11
3.6370938234
 21
9.2363423753
 31
0.0
 11
3.6355777728
 21
9.23470065
 31
0.0
 11
3.6339507782
 21
9.2328835199
 31
0.0
 11
3.633098338
 21
9.2319181076
 31
0.0
 11
3.632221256
 21
9.2309193116
 31
0.0
 11
3.6303950933
 21
9.2288300307
 31
0.0
 11
3.6284755012
 21
9.2266309972
 31
0.0
 11
3.6264655626
 21
9.2243372099
 31
0.0
 11
3.6243683603
 21
9.2219636679
 31
0.0
 11
3.6221866561
 21
9.2195241802
 31
0.0
 11
3.6199220646
 21
9.2170283069
 31
0.0
 11
3.6175759446
 21
9.2144846595
 31
0.0
 11
3.6151496548
 21
9.2119018497
 31
0.0
 11
3.6126445217
 21
9.2092883089
 31
0.0
 11
3.6100615596
 21
9.2066507187
 31
0.0
 11
3.6074016068
 21
9.2039947775
 31
0.0
 11
3.6046655
 21
9.2013261724
 31
0.0
 11
3.6018540689
 21
9.1986505573
 31
0.0
 11
3.5960075947
 21
9.1932961856
 31
0.0
 11
3.5898658249
 21
9.1879621038
 31
0.0
 11
3.5834317707
 21
9.1826759807
 31
0.0
  0
SPLINE
  5
323
100
AcDbEntity
  8
0
100
AcDbSpline
 62
6
  6
CONTINUOUS
 70
0
 71
3
 72
52
 73
48
 74
46
 42
0.0000001
 43
0.0000001
 44
0.0000000001
 12
0.0093359224
 22
0.1533105412
 32
0.0
 13
-0.1307371608
 23
-0.0806168486
 33
0.0
 40
0.0
 40
0.0
 40
0.0
 40
0.0
 40
0.0230666397
 40
0.0451619196
 40
0.0661888042
 40
0.0762835144
 40
0.086072387
 40
0.0955356021
 40
0.1046637424
 40
0.113460687
 40
0.1177418853
 40
0.1219496943
 40
0.1301663157
 40
0.1381701419
 40
0.1460381826
 40
0.1538739384
 40
0.1618061872
 40
0.1699840663
 40
0.1785659231
 40
0.1876803899
 40
0.1974124252
 40
0.2078142082
 40
0.218912715
 40
0.2307160618
 40
0.2432184156
 40
0.2564021565
 40
0.2702382638
 40
0.284688962
 40
0.2997100068
 40
0.3152523538
 40
0.3312646497
 40
0.3477109903
 40
0.3818088012
 40
0.4173455174
 40
0.4355881272
 40
0.4541173617
 40
0.4919764307
 40
0.5308050327
 40
0.5704889821
 40
0.6109406647
 40
0.6520862533
 40
0.6938561389
 40
0.7361978259
 40
0.7790664791
 40
0.822420057
 40
0.9104439536
 40
1.0
 40
1.0
 40
1.0
 40
1.0
 10
3.5858442742
 20
9.2190396878
 30
0.0
 10
3.5859160569
 20
9.2202184741
 30
0.0
 10
3.5859822661
 20
9.222531949
 30
0.0
 10
3.5858286367
 20
9.2259204229
 30
0.0
 10
3.5854739795
 20
9.2286262533
 30
0.0
 10
3.5850451815
 20
9.2306773213
 30
0.0
 10
3.5846559262
 20
9.2321294467
 30
0.0
 10
3.5841918383
 20
9.23350751
 30
0.0
 10
3.5836501404
 20
9.2348022892
 30
0.0
 10
3.5831268271
 20
9.2358134052
 30
0.0
 10
3.582665739
 20
9.2365691934
 30
0.0
 10
3.5821845837
 20
9.23727666
 30
0.0
 10
3.581529033
 20
9.2380945686
 30
0.0
 10
3.5806478239
 20
9.2389618155
 30
0.0
 10
3.5796770444
 20
9.239696554
 30
0.0
 10
3.5786161308
 20
9.2402872901
 30
0.0
 10
3.5774651875
 20
9.240722414
 30
0.0
 10
3.5762250842
 20
9.240990855
 30
0.0
 10
3.5748993152
 20
9.2410812738
 30
0.0
 10
3.573494278
 20
9.241000363
 30
0.0
 10
3.5720144874
 20
9.2407560876
 30
0.0
 10
3.5704646721
 20
9.2403551762
 30
0.0
 10
3.5688496471
 20
9.2398040944
 30
0.0
 10
3.5671743743
 20
9.2391091132
 30
0.0
 10
3.5654442273
 20
9.2382761743
 30
0.0
 10
3.5636625534
 20
9.2373157808
 30
0.0
 10
3.5618322843
 20
9.2362388023
 30
0.0
 10
3.5599565149
 20
9.2350559725
 30
0.0
 10
3.5580383606
 20
9.2337781053
 30
0.0
 10
3.5560809856
 20
9.2324159137
 30
0.0
 10
3.5540865569
 20
9.2309798473
 30
0.0
 10
3.5513476434
 20
9.2289524303
 30
0.0
 10
3.5478490266
 20
9.2262718776
 30
0.0
 10
3.5443158576
 20
9.2234862719
 30
0.0
 10
3.5414209523
 20
9.2211787113
 30
0.0
 10
3.5384387276
 20
9.2187899568
 30
0.0
 10
3.5346407839
 20
9.2157337173
 30
0.0
 10
3.5299975464
 20
9.2120003115
 30
0.0
 10
3.5252370868
 20
9.2082008951
 30
0.0
 10
3.5203617222
 20
9.2043554114
 30
0.0
 10
3.5153731669
 20
9.2004812239
 30
0.0
 10
3.5102714064
 20
9.1965954541
 30
0.0
 10
3.5050584529
 20
9.1927106374
 30
0.0
 10
3.4997358372
 20
9.1888379373
 30
0.0
 10
3.4924572899
 20
9.1836792507
 30
0.0
 10
3.4831001603
 20
9.1773212248
 30
0.0
 10
3.4754344155
 20
9.1724298222
 30
0.0
 10
3.4715316478
 20
9.1700232468
 30
0.0
 11
3.5858442742
 21
9.2190396878
 31
0.0
 11
3.5859390727
 21
9.2225813291
 31
0.0
 11
3.5857769849
 21
9.2259711704
 31
0.0
 11
3.585346897
 21
9.2291720195
 31
0.0
 11
3.5850277151
 21
9.230689303
 31
0.0
 11
3.5846362344
 21
9.2321409598
 31
0.0
 11
3.5841698567
 21
9.2335176038
 31
0.0
 11
3.5836259838
 21
9.2348098488
 31
0.0
 11
3.5830020174
 21
9.2360083088
 31
0.0
 11
3.5826591872
 21
9.2365694363
 31
0.0
 11
3.5822953593
 21
9.2371035976
 31
0.0
 11
3.5815035086
 21
9.2380862917
 31
0.0
 11
3.5806252354
 21
9.2389464794
 31
0.0
 11
3.5796602007
 21
9.2396739073
 31
0.0
 11
3.5786080835
 21
9.2402583147
 31
0.0
 11
3.577468563
 21
9.2406894411
 31
0.0
 11
3.5762413185
 21
9.240957026
 31
0.0
 11
3.5749266611
 21
9.2410525922
 31
0.0
 11
3.5735286975
 21
9.2409783738
 31
0.0
 11
3.5720529449
 21
9.2407405847
 31
0.0
 11
3.5705049225
 21
9.2403454457
 31
0.0
 11
3.5688901499
 21
9.2397991772
 31
0.0
 11
3.5672141464
 21
9.239108
 31
0.0
 11
3.5654821843
 21
9.2382786428
 31
0.0
 11
3.5636980485
 21
9.2373208932
 31
0.0
 11
3.5618649701
 21
9.236245678
 31
0.0
 11
3.5599861789
 21
9.2350639257
 31
0.0
 11
3.5580649052
 21
9.233786565
 31
0.0
 11
3.556104379
 21
9.2324245245
 31
0.0
 11
3.5541077353
 21
9.2309885343
 31
0.0
 11
3.5520767526
 21
9.2294864927
 31
0.0
 11
3.5479148149
 21
9.2263073527
 31
0.0
 11
3.5436245345
 21
9.2229330473
 31
0.0
 11
3.5414331134
 21
9.2211869995
 31
0.0
 11
3.5392115814
 21
9.2194081094
 31
0.0
 11
3.5346792167
 21
9.2157651342
 31
0.0
 11
3.5300294511
 21
9.2120305233
 31
0.0
 11
3.525264213
 21
9.2082299405
 31
0.0
 11
3.5203848473
 21
9.2043834985
 31
0.0
 11
3.515392416
 21
9.2005086162
 31
0.0
 11
3.5102879964
 21
9.1966220804
 31
0.0
 11
3.50507278
 21
9.1927366715
 31
0.0
 11
3.4997480037
 21
9.1888635641
 31
0.0
 11
3.4943149299
 21
9.1850135908
 31
0.0
 11
3.4831294838
 21
9.1774191248
 31
0.0
 11
3.4715316478
 21
9.1700232468
 31
0.0
  0
SPLINE
  5
324
100
AcDbEntity
  8
0
100
AcDbSpline
 62
6
  6
CONTINUOUS
 70
0
 71
3
 72
61
 73
57
 74
55
 42
0.0000001
 43
0.0000001
 44
0.0000000001
 12
0.0145338424
 22
0.2128469353
 32
0.0
 13
-0.1843724377
 23
-0.1073399025
 33
0.0
 40
0.0
 40
0.0
 40
0.0
 40
0.0
 40
0.0227308571
 40
0.0454572462
 40
0.0681888477
 40
0.0908902112
 40
0.1022201024
 40
0.1135315006
 40
0.1248240442
 40
0.1360927146
 40
0.1585128454
 40
0.1696631985
 40
0.1807750088
 40
0.1863201454
 40
0.191858832
 40
0.2029118663
 40
0.2139372781
 40
0.2249536627
 40
0.2359988772
 40
0.247130722
 40
0.2584095803
 40
0.2698978779
 40
0.2757465109
 40
0.2816782651
 40
0.2877053966
 40
0.2938410341
 40
0.306482293
 40
0.3196695619
 40
0.3334300045
 40
0.3477665891
 40
0.3551474473
 40
0.3626652308
 40
0.3781013697
 40
0.3940549942
 40
0.4104913237
 40
0.4273642754
 40
0.4359478154
 40
0.4446198863
 40
0.4622151048
 40
0.4801269201
 40
0.516799338
 40
0.5355058655
 40
0.5544279059
 40
0.5735498219
 40
0.5928557455
 40
0.6123294447
 40
0.6319548406
 40
0.6716121341
 40
0.7117397155
 40
0.7522556255
 40
0.7930927075
 40
0.8341888677
 40
0.8754867063
 40
0.9169321832
 40
0.9584624458
 40
1.0
 40
1.0
 40
1.0
 40
1.0
 10
3.4731327433
 20
9.1922481882
 30
0.0
 10
3.4732428656
 20
9.1938609193
 30
0.0
 10
3.4733483961
 20
9.1970950973
 30
0.0
 10
3.4731593521
 20
9.2019445697
 30
0.0
 10
3.4726228441
 20
9.2067661482
 30
0.0
 10
3.471875205
 20
9.2107374823
 30
0.0
 10
3.4710894258
 20
9.2138655668
 30
0.0
 10
3.4704050951
 20
9.2161804217
 30
0.0
 10
3.4696240709
 20
9.2184599934
 30
0.0
 10
3.4684533853
 20
9.2214376454
 30
0.0
 10
3.4670762284
 20
9.224320893
 30
0.0
 10
3.4654790578
 20
9.2270693781
 30
0.0
 10
3.4643884251
 20
9.228720496
 30
0.0
 10
3.4634590898
 20
9.2299966081
 30
0.0
 10
3.4624925891
 20
9.2312395129
 30
0.0
 10
3.4612101445
 20
9.232729223
 30
0.0
 10
3.4595462042
 20
9.2343968977
 30
0.0
 10
3.4577530248
 20
9.2359246815
 30
0.0
 10
3.4558257783
 20
9.2372934037
 30
0.0
 10
3.453760695
 20
9.2384825802
 30
0.0
 10
3.4515585217
 20
9.2394732265
 30
0.0
 10
3.4496228422
 20
9.240114095
 30
0.0
 10
3.4480154042
 20
9.2405095405
 30
0.0
 10
3.4467708181
 20
9.2407467258
 30
0.0
 10
3.4454951757
 20
9.2409202507
 30
0.0
 10
3.4437364594
 20
9.241065023
 30
0.0
 10
3.4414591803
 20
9.2410697446
 30
0.0
 10
3.4386520359
 20
9.2408149606
 30
0.0
 10
3.4357563926
 20
9.240313757
 30
0.0
 10
3.4333052169
 20
9.2397078514
 30
0.0
 10
3.4313120689
 20
9.2391155851
 30
0.0
 10
3.4292630607
 20
9.2384399624
 30
0.0
 10
3.4266723048
 20
9.237464865
 30
0.0
 10
3.4235465787
 20
9.236121808
 30
0.0
 10
3.4203824315
 20
9.2346164196
 30
0.0
 10
3.4177335794
 20
9.2332520249
 30
0.0
 10
3.4155976853
 20
9.2320993704
 30
0.0
 10
3.4134303349
 20
9.230897186
 30
0.0
 10
3.4107074594
 20
9.2293293751
 30
0.0
 10
3.4063058019
 20
9.2266883375
 30
0.0
 10
3.4018976482
 20
9.2239062742
 30
0.0
 10
3.3974693045
 20
9.221023757
 30
0.0
 10
3.3941035224
 20
9.2187968194
 30
0.0
 10
3.3907159704
 20
9.2165257207
 30
0.0
 10
3.3873065095
 20
9.2142169391
 30
0.0
 10
3.3838750754
 20
9.2118768029
 30
0.0
 10
3.3792540023
 20
9.20871239
 30
0.0
 10
3.3734267757
 20
9.204709769
 30
0.0
 10
3.3663679696
 20
9.1998762311
 30
0.0
 10
3.3592170073
 20
9.1950288892
 30
0.0
 10
3.3519773068
 20
9.1901899663
 30
0.0
 10
3.3446506241
 20
9.1853815951
 30
0.0
 10
3.3372406168
 20
9.1806220441
 30
0.0
 10
3.3297521755
 20
9.1759283982
 30
0.0
 10
3.3221921623
 20
9.1713180596
 30
0.0
 10
3.3171082676
 20
9.1683092641
 30
0.0
 10
3.3145554742
 20
9.1668230517
 30
0.0
 11
3.4731327433
 21
9.1922481882
 31
0.0
 11
3.4732905065
 21
9.1970950807
 31
0.0
 11
3.4731014321
 21
9.2019398989
 31
0.0
 11
3.4725623284
 21
9.2067594594
 31
0.0
 11
3.4716624536
 21
9.2115182926
 31
0.0
 11
3.4710730218
 21
9.2138624715
 31
0.0
 11
3.4703883502
 21
9.2161765096
 31
0.0
 11
3.4696067427
 21
9.2184553775
 31
0.0
 11
3.4687259459
 21
9.2206923021
 31
0.0
 11
3.4666547542
 21
9.2250037825
 31
0.0
 11
3.465458267
 21
9.2270598277
 31
0.0
 11
3.4641504572
 21
9.2290370689
 31
0.0
 11
3.4634538537
 21
9.2299932409
 31
0.0
 11
3.4627282137
 21
9.2309258255
 31
0.0
 11
3.4611876057
 21
9.2327110653
 31
0.0
 11
3.4595241431
 21
9.2343741012
 31
0.0
 11
3.4577333249
 21
9.2358961753
 31
0.0
 11
3.45581065
 21
9.2372585299
 31
0.0
 11
3.4537518693
 21
9.2384424026
 31
0.0
 11
3.4515571474
 21
9.239428955
 31
0.0
 11
3.4492304082
 21
9.2401992835
 31
0.0
 11
3.448018796
 21
9.2404974558
 31
0.0
 11
3.446775696
 21
9.2407344824
 31
0.0
 11
3.4455016137
 21
9.2409080003
 31
0.0
 11
3.4441970547
 21
9.2410156462
 31
0.0
 11
3.4415001689
 21
9.2410289321
 31
0.0
 11
3.4386976351
 21
9.2407818356
 31
0.0
 11
3.4358038711
 21
9.240287473
 31
0.0
 11
3.4328332943
 21
9.2395589603
 31
0.0
 11
3.4313237067
 21
9.2391109964
 31
0.0
 11
3.4298002792
 21
9.2386094529
 31
0.0
 11
3.4267161103
 21
9.2374549084
 31
0.0
 11
3.4235869765
 21
9.2361159059
 31
0.0
 11
3.4204185906
 21
9.2346134565
 31
0.0
 11
3.4172166649
 21
9.2329685711
 31
0.0
 11
3.41560491
 21
9.2320992809
 31
0.0
 11
3.4139868535
 21
9.2312021498
 31
0.0
 11
3.4107326441
 21
9.2293309995
 31
0.0
 11
3.4074547777
 21
9.2273667368
 31
0.0
 11
3.4008303303
 21
9.2232040031
 31
0.0
 11
3.3974848612
 21
9.2210279728
 31
0.0
 11
3.394117638
 21
9.2188012755
 31
0.0
 11
3.3907285939
 21
9.216530405
 31
0.0
 11
3.3873176515
 21
9.214221773
 31
0.0
 11
3.3838847333
 21
9.211881791
 31
0.0
 11
3.3804297587
 21
9.2095167218
 31
0.0
 11
3.3734531927
 21
9.2047303777
 31
0.0
 11
3.3663869863
 21
9.1998973561
 31
0.0
 11
3.3592306856
 21
9.1950494607
 31
0.0
 11
3.3519858937
 21
9.1902103544
 31
0.0
 11
3.3446548102
 21
9.1854014743
 31
0.0
 11
3.3372407499
 21
9.1806414165
 31
0.0
 11
3.3297477865
 21
9.1759469563
 31
0.0
 11
3.3221825302
 21
9.1713350632
 31
0.0
 11
3.3145554742
 21
9.1668230517
 31
0.0
  0
SPLINE
  5
325
100
AcDbEntity
  8
0
100
AcDbSpline
 62
6
  6
CONTINUOUS
 70
0
 71
3
 72
11
 73
7
 74
5
 42
0.0000001
 43
0.0000001
 44
0.0000000001
 12
-0.1389542415
 22
-0.3461367574
 32
0.0
 13
-0.1868972226
 23
-0.3227822242
 33
0.0
 40
0.0
 40
0.0
 40
0.0
 40
0.0
 40
0.250635293
 40
0.5006335669
 40
0.7503147526
 40
1.0
 40
1.0
 40
1.0
 40
1.0
 10
3.1167600412
 20
8.2779178391
 30
0.0
 10
3.1051510955
 20
8.2489998099
 30
0.0
 10
3.0809373328
 20
8.1916427161
 30
0.0
 10
3.0416023486
 20
8.1070343192
 30
0.0
 10
2.9993133694
 20
8.0239954997
 30
0.0
 10
2.9691631163
 20
7.9697042559
 30
0.0
 10
2.9536079566
 20
7.9428396028
 30
0.0
 11
3.1167600412
 21
8.2779178391
 31
0.0
 11
3.0803972856
 21
8.1917962373
 31
0.0
 11
3.0410843529
 21
8.107242664
 31
0.0
 11
2.9988212433
 21
8.0242571191
 31
0.0
 11
2.9536079566
 21
7.9428396028
 31
0.0
  0
LINE
  5
326
100
AcDbEntity
  8
0
100
AcDbLine
 62
6
  6
CONTINUOUS
 10
2.2884077451
 20
7.8932539332
 11
2.2549047891
 21
7.9428396028
  0
SPLINE
  5
327
100
AcDbEntity
  8
0
100
AcDbSpline
 62
6
  6
CONTINUOUS
 70
0
 71
3
 72
11
 73
7
 74
5
 42
0.0000001
 43
0.0000001
 44
0.0000000001
 12
0.1389531503
 22
-0.3461323251
 32
0.0
 13
0.1868949578
 23
-0.3227783128
 33
0.0
 40
0.0
 40
0.0
 40
0.0
 40
0.0
 40
0.2506352719
 40
0.5006335438
 40
0.7503147391
 40
1.0
 40
1.0
 40
1.0
 40
1.0
 10
2.1623377421
 20
8.277913644
 30
0.0
 10
2.1739465956
 20
8.2489959876
 30
0.0
 10
2.19816015
 20
8.1916396282
 30
0.0
 10
2.2374947481
 20
8.1070323011
 30
0.0
 10
2.2797832698
 20
8.0239945133
 30
0.0
 10
2.3099331704
 20
7.9697039318
 30
0.0
 10
2.3254881425
 20
7.9428396028
 30
0.0
 11
2.1623377421
 21
8.277913644
 31
0.0
 11
2.1987001834
 21
8.1917931478
 31
0.0
 11
2.2380127307
 21
8.1072406421
 31
0.0
 11
2.2802753837
 21
8.0242561271
 31
0.0
 11
2.3254881425
 21
7.9428396028
 31
0.0
  0
SPLINE
  5
328
100
AcDbEntity
  8
0
100
AcDbSpline
 62
6
  6
CONTINUOUS
 70
0
 71
3
 72
19
 73
15
 74
13
 42
0.0000001
 43
0.0000001
 44
0.0000000001
 12
-0.0617512258
 22
-1.2547777146
 32
0.0
 13
-0.4760113948
 23
-1.1626235328
 33
0.0
 40
0.0
 40
0.0
 40
0.0
 40
0.0
 40
0.1343934675
 40
0.2656847369
 40
0.3940656842
 40
0.5197415164
 40
0.5816364134
 40
0.6429382168
 40
0.7036763739
 40
0.763881159
 40
0.8235836581
 40
0.8828157477
 40
0.9416100697
 40
1.0
 40
1.0
 40
1.0
 40
1.0
 10
3.1168503769
 20
9.1668230517
 30
0.0
 10
3.1140840564
 20
9.1106117424
 30
0.0
 10
3.1066595804
 20
8.9995711828
 30
0.0
 10
3.0895058096
 20
8.8354050446
 30
0.0
 10
3.0664682845
 20
8.6756449445
 30
0.0
 10
3.0422432632
 20
8.5455290373
 30
0.0
 10
3.0198879065
 20
8.4437287454
 30
0.0
 10
3.001735915
 20
8.3688660083
 30
0.0
 10
2.9821141017
 20
8.2951072891
 30
0.0
 10
2.9610223424
 20
8.2224522395
 30
0.0
 10
2.9384606169
 20
8.1509010513
 30
0.0
 10
2.9144288113
 20
8.0804536108
 30
0.0
 10
2.8889271005
 20
8.0111105237
 30
0.0
 10
2.8708866969
 20
7.9654681051
 30
0.0
 10
2.8616219395
 20
7.9428396028
 30
0.0
 11
3.1168503769
 21
9.1668230517
 31
0.0
 11
3.105513364
 21
8.9983660941
 31
0.0
 11
3.0883001964
 21
8.8343260012
 31
0.0
 11
3.0652108739
 21
8.674702773
 31
0.0
 11
3.0362453966
 21
8.5194964095
 31
0.0
 11
3.0195590999
 21
8.4435495521
 31
0.0
 11
3.0014037646
 21
8.3687069108
 31
0.0
 11
2.9817793905
 21
8.2949684857
 31
0.0
 11
2.9606859777
 21
8.2223342767
 31
0.0
 11
2.9381235262
 21
8.150804284
 31
0.0
 11
2.914092036
 21
8.0803785074
 31
0.0
 11
2.8885915071
 21
8.011056947
 31
0.0
 11
2.8616219395
 21
7.9428396028
 31
0.0
  0
SPLINE
  5
329
100
AcDbEntity
  8
0
100
AcDbSpline
 62
6
  6
CONTINUOUS
 70
0
 71
3
 72
23
 73
19
 74
17
 42
0.0000001
 43
0.0000001
 44
0.0000000001
 12
-0.0313945272
 22
-1.2323921796
 32
0.0
 13
-0.2555956232
 23
-1.2060045514
 33
0.0
 40
0.0
 40
0.0
 40
0.0
 40
0.0
 40
0.0688024002
 40
0.1367311251
 40
0.20379243
 40
0.2699928158
 40
0.3353390407
 40
0.3998381312
 40
0.4634973943
 40
0.5263244301
 40
0.5883271447
 40
0.6495137638
 40
0.7098928466
 40
0.7694733003
 40
0.8282643951
 40
0.8862757796
 40
0.9435174967
 40
1.0
 40
1.0
 40
1.0
 40
1.0
 10
2.8866179147
 20
9.1668230517
 30
0.0
 10
2.8858979085
 20
9.1385592051
 30
0.0
 10
2.8842093575
 20
9.0823966052
 30
0.0
 10
2.8808999012
 20
8.9987162371
 30
0.0
 10
2.8768300608
 20
8.9161398074
 30
0.0
 10
2.8719998343
 20
8.8346673994
 30
0.0
 10
2.866409216
 20
8.7542989789
 30
0.0
 10
2.8600582003
 20
8.6750345423
 30
0.0
 10
2.8529467809
 20
8.5968740776
 30
0.0
 10
2.8450749504
 20
8.5198175746
 30
0.0
 10
2.8364427008
 20
8.4438650226
 30
0.0
 10
2.8270500227
 20
8.3690164103
 30
0.0
 10
2.8168969065
 20
8.2952717276
 30
0.0
 10
2.8059833401
 20
8.2226309595
 30
0.0
 10
2.7943093139
 20
8.1510941085
 30
0.0
 10
2.7818748037
 20
8.0806611137
 30
0.0
 10
2.7686798333
 20
8.011332146
 30
0.0
 10
2.7593141807
 20
7.9655456548
 30
0.0
 10
2.7545019539
 20
7.9428396028
 30
0.0
 11
2.8866179147
 21
9.1668230517
 31
0.0
 11
2.8840638951
 21
9.0820424648
 31
0.0
 11
2.880749445
 21
8.9983660941
 31
0.0
 11
2.8766745646
 21
8.9157939396
 31
0.0
 11
2.8718392538
 21
8.8343260012
 31
0.0
 11
2.8662435126
 21
8.753962279
 31
0.0
 11
2.859887341
 21
8.674702773
 31
0.0
 11
2.8527707391
 21
8.5965474832
 31
0.0
 11
2.8448937067
 21
8.5194964095
 31
0.0
 11
2.8362562439
 21
8.4435495521
 31
0.0
 11
2.8268583508
 21
8.3687069108
 31
0.0
 11
2.8167000273
 21
8.2949684857
 31
0.0
 11
2.8057812734
 21
8.2223342767
 31
0.0
 11
2.7941020891
 21
8.150804284
 31
0.0
 11
2.7816624744
 21
8.0803785074
 31
0.0
 11
2.7684624293
 21
8.011056947
 31
0.0
 11
2.7545019539
 21
7.9428396028
 31
0.0
  0
SPLINE
  5
32A
100
AcDbEntity
  8
0
100
AcDbSpline
 62
6
  6
CONTINUOUS
 70
0
 71
3
 72
23
 73
19
 74
17
 42
0.0000001
 43
0.0000001
 44
0.0000000001
 12
0.0313945272
 22
-1.2323921796
 32
0.0
 13
0.2555956232
 23
-1.2060045514
 33
0.0
 40
0.0
 40
0.0
 40
0.0
 40
0.0
 40
0.0688024002
 40
0.1367311251
 40
0.20379243
 40
0.2699928158
 40
0.3353390407
 40
0.3998381312
 40
0.4634973943
 40
0.5263244301
 40
0.5883271447
 40
0.6495137638
 40
0.7098928466
 40
0.7694733003
 40
0.8282643951
 40
0.8862757796
 40
0.9435174967
 40
1.0
 40
1.0
 40
1.0
 40
1.0
 10
2.3924781844
 20
9.1668230517
 30
0.0
 10
2.3931981907
 20
9.1385592051
 30
0.0
 10
2.3948867416
 20
9.0823966052
 30
0.0
 10
2.3981961979
 20
8.9987162371
 30
0.0
 10
2.4022660383
 20
8.9161398074
 30
0.0
 10
2.4070962649
 20
8.8346673994
 30
0.0
 10
2.4126868832
 20
8.7542989789
 30
0.0
 10
2.4190378988
 20
8.6750345423
 30
0.0
 10
2.4261493182
 20
8.5968740776
 30
0.0
 10
2.4340211487
 20
8.5198175746
 30
0.0
 10
2.4426533984
 20
8.4438650226
 30
0.0
 10
2.4520460764
 20
8.3690164103
 30
0.0
 10
2.4621991926
 20
8.2952717276
 30
0.0
 10
2.4731127591
 20
8.2226309595
 30
0.0
 10
2.4847867853
 20
8.1510941085
 30
0.0
 10
2.4972212954
 20
8.0806611137
 30
0.0
 10
2.5104162659
 20
8.011332146
 30
0.0
 10
2.5197819184
 20
7.9655456548
 30
0.0
 10
2.5245941453
 20
7.9428396028
 30
0.0
 11
2.3924781844
 21
9.1668230517
 31
0.0
 11
2.395032204
 21
9.0820424648
 31
0.0
 11
2.3983466541
 21
8.9983660941
 31
0.0
 11
2.4024215345
 21
8.9157939396
 31
0.0
 11
2.4072568453
 21
8.8343260012
 31
0.0
 11
2.4128525865
 21
8.753962279
 31
0.0
 11
2.4192087581
 21
8.674702773
 31
0.0
 11
2.4263253601
 21
8.5965474832
 31
0.0
 11
2.4342023924
 21
8.5194964095
 31
0.0
 11
2.4428398552
 21
8.4435495521
 31
0.0
 11
2.4522377483
 21
8.3687069108
 31
0.0
 11
2.4623960719
 21
8.2949684857
 31
0.0
 11
2.4733148258
 21
8.2223342767
 31
0.0
 11
2.4849940101
 21
8.150804284
 31
0.0
 11
2.4974336247
 21
8.0803785074
 31
0.0
 11
2.5106336698
 21
8.011056947
 31
0.0
 11
2.5245941453
 21
7.9428396028
 31
0.0
  0
LINE
  5
32B
100
AcDbEntity
  8
0
100
AcDbLine
 62
6
  6
CONTINUOUS
 10
20.4760551621
 20
7.5960169285
 11
20.4740807361
 21
7.5695973553
  0
SPLINE
  5
32C
100
AcDbEntity
  8
0
100
AcDbSpline
 62
6
  6
CONTINUOUS
 70
0
 71
3
 72
19
 73
15
 74
13
 42
0.0000001
 43
0.0000001
 44
0.0000000001
 12
0.0617512258
 22
-1.2547777146
 32
0.0
 13
0.4760113948
 23
-1.1626235328
 33
0.0
 40
0.0
 40
0.0
 40
0.0
 40
0.0
 40
0.1343934675
 40
0.2656847369
 40
0.3940656842
 40
0.5197415164
 40
0.5816364134
 40
0.6429382168
 40
0.7036763739
 40
0.763881159
 40
0.8235836581
 40
0.8828157477
 40
0.9416100697
 40
1.0
 40
1.0
 40
1.0
 40
1.0
 10
2.1622457222
 20
9.1668230517
 30
0.0
 10
2.1650120427
 20
9.1106117424
 30
0.0
 10
2.1724365187
 20
8.9995711828
 30
0.0
 10
2.1895902895
 20
8.8354050446
 30
0.0
 10
2.2126278147
 20
8.6756449445
 30
0.0
 10
2.2368528359
 20
8.5455290373
 30
0.0
 10
2.2592081926
 20
8.4437287454
 30
0.0
 10
2.2773601842
 20
8.3688660083
 30
0.0
 10
2.2969819974
 20
8.2951072891
 30
0.0
 10
2.3180737567
 20
8.2224522395
 30
0.0
 10
2.3406354823
 20
8.1509010513
 30
0.0
 10
2.3646672879
 20
8.0804536108
 30
0.0
 10
2.3901689986
 20
8.0111105237
 30
0.0
 10
2.4082094022
 20
7.9654681051
 30
0.0
 10
2.4174741596
 20
7.9428396028
 30
0.0
 11
2.1622457222
 21
9.1668230517
 31
0.0
 11
2.1735827351
 21
8.9983660941
 31
0.0
 11
2.1907959028
 21
8.8343260012
 31
0.0
 11
2.2138852252
 21
8.674702773
 31
0.0
 11
2.2428507025
 21
8.5194964095
 31
0.0
 11
2.2595369992
 21
8.4435495521
 31
0.0
 11
2.2776923346
 21
8.3687069108
 31
0.0
 11
2.2973167087
 21
8.2949684857
 31
0.0
 11
2.3184101214
 21
8.2223342767
 31
0.0
 11
2.3409725729
 21
8.150804284
 31
0.0
 11
2.3650040631
 21
8.0803785074
 31
0.0
 11
2.390504592
 21
8.011056947
 31
0.0
 11
2.4174741596
 21
7.9428396028
 31
0.0
  0
SPLINE
  5
32D
100
AcDbEntity
  8
0
100
AcDbSpline
 62
6
  6
CONTINUOUS
 70
0
 71
3
 72
19
 73
15
 74
13
 42
0.0000001
 43
0.0000001
 44
0.0000000001
 12
-0.0617512258
 22
-1.2547777146
 32
0.0
 13
-0.4760113948
 23
-1.1626235328
 33
0.0
 40
0.0
 40
0.0
 40
0.0
 40
0.0
 40
0.1343934675
 40
0.2656847369
 40
0.3940656842
 40
0.5197415164
 40
0.5816364134
 40
0.6429382168
 40
0.7036763739
 40
0.763881159
 40
0.8235836581
 40
0.8828157477
 40
0.9416100697
 40
1.0
 40
1.0
 40
1.0
 40
1.0
 10
21.2428503769
 20
9.1668230517
 30
0.0
 10
21.2400840564
 20
9.1106117424
 30
0.0
 10
21.2326595804
 20
8.9995711828
 30
0.0
 10
21.2155058096
 20
8.8354050446
 30
0.0
 10
21.1924682845
 20
8.6756449445
 30
0.0
 10
21.1682432632
 20
8.5455290373
 30
0.0
 10
21.1458879065
 20
8.4437287454
 30
0.0
 10
21.127735915
 20
8.3688660083
 30
0.0
 10
21.1081141017
 20
8.2951072891
 30
0.0
 10
21.0870223424
 20
8.2224522395
 30
0.0
 10
21.0644606169
 20
8.1509010513
 30
0.0
 10
21.0404288113
 20
8.0804536108
 30
0.0
 10
21.0149271005
 20
8.0111105237
 30
0.0
 10
20.9968866969
 20
7.9654681051
 30
0.0
 10
20.9876219395
 20
7.9428396028
 30
0.0
 11
21.2428503769
 21
9.1668230517
 31
0.0
 11
21.231513364
 21
8.9983660941
 31
0.0
 11
21.2143001964
 21
8.8343260012
 31
0.0
 11
21.1912108739
 21
8.674702773
 31
0.0
 11
21.1622453966
 21
8.5194964095
 31
0.0
 11
21.1455590999
 21
8.4435495521
 31
0.0
 11
21.1274037646
 21
8.3687069108
 31
0.0
 11
21.1077793905
 21
8.2949684857
 31
0.0
 11
21.0866859777
 21
8.2223342767
 31
0.0
 11
21.0641235262
 21
8.150804284
 31
0.0
 11
21.040092036
 21
8.0803785074
 31
0.0
 11
21.0145915071
 21
8.011056947
 31
0.0
 11
20.9876219395
 21
7.9428396028
 31
0.0
  0
SPLINE
  5
32E
100
AcDbEntity
  8
0
100
AcDbSpline
 62
6
  6
CONTINUOUS
 70
0
 71
3
 72
23
 73
19
 74
17
 42
0.0000001
 43
0.0000001
 44
0.0000000001
 12
-0.0313945272
 22
-1.2323921796
 32
0.0
 13
-0.2555956232
 23
-1.2060045514
 33
0.0
 40
0.0
 40
0.0
 40
0.0
 40
0.0
 40
0.0688024002
 40
0.1367311251
 40
0.20379243
 40
0.2699928158
 40
0.3353390407
 40
0.3998381312
 40
0.4634973943
 40
0.5263244301
 40
0.5883271447
 40
0.6495137638
 40
0.7098928466
 40
0.7694733003
 40
0.8282643951
 40
0.8862757796
 40
0.9435174967
 40
1.0
 40
1.0
 40
1.0
 40
1.0
 10
21.0126179147
 20
9.1668230517
 30
0.0
 10
21.0118979085
 20
9.1385592051
 30
0.0
 10
21.0102093575
 20
9.0823966052
 30
0.0
 10
21.0068999012
 20
8.9987162371
 30
0.0
 10
21.0028300608
 20
8.9161398074
 30
0.0
 10
20.9979998343
 20
8.8346673994
 30
0.0
 10
20.992409216
 20
8.7542989789
 30
0.0
 10
20.9860582003
 20
8.6750345423
 30
0.0
 10
20.9789467809
 20
8.5968740776
 30
0.0
 10
20.9710749504
 20
8.5198175746
 30
0.0
 10
20.9624427008
 20
8.4438650226
 30
0.0
 10
20.9530500227
 20
8.3690164103
 30
0.0
 10
20.9428969065
 20
8.2952717276
 30
0.0
 10
20.9319833401
 20
8.2226309595
 30
0.0
 10
20.9203093139
 20
8.1510941085
 30
0.0
 10
20.9078748037
 20
8.0806611137
 30
0.0
 10
20.8946798333
 20
8.011332146
 30
0.0
 10
20.8853141807
 20
7.9655456548
 30
0.0
 10
20.8805019539
 20
7.9428396028
 30
0.0
 11
21.0126179147
 21
9.1668230517
 31
0.0
 11
21.0100638951
 21
9.0820424648
 31
0.0
 11
21.006749445
 21
8.9983660941
 31
0.0
 11
21.0026745646
 21
8.9157939396
 31
0.0
 11
20.9978392538
 21
8.8343260012
 31
0.0
 11
20.9922435126
 21
8.753962279
 31
0.0
 11
20.985887341
 21
8.674702773
 31
0.0
 11
20.9787707391
 21
8.5965474832
 31
0.0
 11
20.9708937067
 21
8.5194964095
 31
0.0
 11
20.9622562439
 21
8.4435495521
 31
0.0
 11
20.9528583508
 21
8.3687069108
 31
0.0
 11
20.9427000273
 21
8.2949684857
 31
0.0
 11
20.9317812734
 21
8.2223342767
 31
0.0
 11
20.9201020891
 21
8.150804284
 31
0.0
 11
20.9076624744
 21
8.0803785074
 31
0.0
 11
20.8944624293
 21
8.011056947
 31
0.0
 11
20.8805019539
 21
7.9428396028
 31
0.0
  0
SPLINE
  5
32F
100
AcDbEntity
  8
0
100
AcDbSpline
 62
6
  6
CONTINUOUS
 70
0
 71
3
 72
23
 73
19
 74
17
 42
0.0000001
 43
0.0000001
 44
0.0000000001
 12
0.0313945272
 22
-1.2323921796
 32
0.0
 13
0.2555956232
 23
-1.2060045514
 33
0.0
 40
0.0
 40
0.0
 40
0.0
 40
0.0
 40
0.0688024002
 40
0.1367311251
 40
0.20379243
 40
0.2699928158
 40
0.3353390407
 40
0.3998381312
 40
0.4634973943
 40
0.5263244301
 40
0.5883271447
 40
0.6495137638
 40
0.7098928466
 40
0.7694733003
 40
0.8282643951
 40
0.8862757796
 40
0.9435174967
 40
1.0
 40
1.0
 40
1.0
 40
1.0
 10
20.5184781844
 20
9.1668230517
 30
0.0
 10
20.5191981907
 20
9.1385592051
 30
0.0
 10
20.5208867416
 20
9.0823966052
 30
0.0
 10
20.5241961979
 20
8.9987162371
 30
0.0
 10
20.5282660383
 20
8.9161398074
 30
0.0
 10
20.5330962649
 20
8.8346673994
 30
0.0
 10
20.5386868832
 20
8.7542989789
 30
0.0
 10
20.5450378988
 20
8.6750345423
 30
0.0
 10
20.5521493182
 20
8.5968740776
 30
0.0
 10
20.5600211487
 20
8.5198175746
 30
0.0
 10
20.5686533984
 20
8.4438650226
 30
0.0
 10
20.5780460764
 20
8.3690164103
 30
0.0
 10
20.5881991926
 20
8.2952717276
 30
0.0
 10
20.5991127591
 20
8.2226309595
 30
0.0
 10
20.6107867853
 20
8.1510941085
 30
0.0
 10
20.6232212954
 20
8.0806611137
 30
0.0
 10
20.6364162659
 20
8.011332146
 30
0.0
 10
20.6457819184
 20
7.9655456548
 30
0.0
 10
20.6505941453
 20
7.9428396028
 30
0.0
 11
20.5184781844
 21
9.1668230517
 31
0.0
 11
20.521032204
 21
9.0820424648
 31
0.0
 11
20.5243466541
 21
8.9983660941
 31
0.0
 11
20.5284215345
 21
8.9157939396
 31
0.0
 11
20.5332568453
 21
8.8343260012
 31
0.0
 11
20.5388525865
 21
8.753962279
 31
0.0
 11
20.5452087581
 21
8.674702773
 31
0.0
 11
20.5523253601
 21
8.5965474832
 31
0.0
 11
20.5602023924
 21
8.5194964095
 31
0.0
 11
20.5688398552
 21
8.4435495521
 31
0.0
 11
20.5782377483
 21
8.3687069108
 31
0.0
 11
20.5883960719
 21
8.2949684857
 31
0.0
 11
20.5993148258
 21
8.2223342767
 31
0.0
 11
20.6109940101
 21
8.150804284
 31
0.0
 11
20.6234336247
 21
8.0803785074
 31
0.0
 11
20.6366336698
 21
8.011056947
 31
0.0
 11
20.6505941453
 21
7.9428396028
 31
0.0
  0
SPLINE
  5
330
100
AcDbEntity
  8
0
100
AcDbSpline
 62
6
  6
CONTINUOUS
 70
0
 71
3
 72
19
 73
15
 74
13
 42
0.0000001
 43
0.0000001
 44
0.0000000001
 12
0.0617512258
 22
-1.2547777146
 32
0.0
 13
0.4760113948
 23
-1.1626235328
 33
0.0
 40
0.0
 40
0.0
 40
0.0
 40
0.0
 40
0.1343934675
 40
0.2656847369
 40
0.3940656842
 40
0.5197415164
 40
0.5816364134
 40
0.6429382168
 40
0.7036763739
 40
0.763881159
 40
0.8235836581
 40
0.8828157477
 40
0.9416100697
 40
1.0
 40
1.0
 40
1.0
 40
1.0
 10
20.2882457222
 20
9.1668230517
 30
0.0
 10
20.2910120427
 20
9.1106117424
 30
0.0
 10
20.2984365187
 20
8.9995711828
 30
0.0
 10
20.3155902895
 20
8.8354050446
 30
0.0
 10
20.3386278147
 20
8.6756449445
 30
0.0
 10
20.3628528359
 20
8.5455290373
 30
0.0
 10
20.3852081926
 20
8.4437287454
 30
0.0
 10
20.4033601842
 20
8.3688660083
 30
0.0
 10
20.4229819974
 20
8.2951072891
 30
0.0
 10
20.4440737567
 20
8.2224522395
 30
0.0
 10
20.4666354823
 20
8.1509010513
 30
0.0
 10
20.4906672879
 20
8.0804536108
 30
0.0
 10
20.5161689986
 20
8.0111105237
 30
0.0
 10
20.5342094022
 20
7.9654681051
 30
0.0
 10
20.5434741596
 20
7.9428396028
 30
0.0
 11
20.2882457222
 21
9.1668230517
 31
0.0
 11
20.2995827351
 21
8.9983660941
 31
0.0
 11
20.3167959028
 21
8.8343260012
 31
0.0
 11
20.3398852252
 21
8.674702773
 31
0.0
 11
20.3688507025
 21
8.5194964095
 31
0.0
 11
20.3855369992
 21
8.4435495521
 31
0.0
 11
20.4036923346
 21
8.3687069108
 31
0.0
 11
20.4233167087
 21
8.2949684857
 31
0.0
 11
20.4444101214
 21
8.2223342767
 31
0.0
 11
20.4669725729
 21
8.150804284
 31
0.0
 11
20.4910040631
 21
8.0803785074
 31
0.0
 11
20.516504592
 21
8.011056947
 31
0.0
 11
20.5434741596
 21
7.9428396028
 31
0.0
  0
SPLINE
  5
331
100
AcDbEntity
  8
0
100
AcDbSpline
 62
6
  6
CONTINUOUS
 70
0
 71
3
 72
9
 73
5
 74
3
 42
0.0000001
 43
0.0000001
 44
0.0000000001
 12
0.0357337719
 22
-0.0502371482
 32
0.0
 13
0.0376306816
 23
-0.0488324207
 33
0.0
 40
0.0
 40
0.0
 40
0.0
 40
0.0
 40
0.4994384963
 40
1.0
 40
1.0
 40
1.0
 40
1.0
 10
2.2549047891
 20
7.9428396028
 30
0.0
 10
2.2608537295
 20
7.9344761475
 30
0.0
 10
2.2729009537
 20
7.9178267122
 30
0.0
 10
2.2852537554
 20
7.9014018098
 30
0.0
 10
2.291532579
 20
7.8932539332
 30
0.0
 11
2.2549047891
 21
7.9428396028
 31
0.0
 11
2.2729636475
 21
7.9179014168
 31
0.0
 11
2.291532579
 21
7.8932539332
 31
0.0
  0
SPLINE
  5
332
100
AcDbEntity
  8
0
100
AcDbSpline
 62
6
  6
CONTINUOUS
 70
0
 71
3
 72
11
 73
7
 74
5
 42
0.0000001
 43
0.0000001
 44
0.0000000001
 12
0.005226154
 22
0.0223529355
 32
0.0
 13
0.0
 23
0.0229557489
 33
0.0
 40
0.0
 40
0.0
 40
0.0
 40
0.0
 40
0.2456068746
 40
0.4951225205
 40
0.7471317894
 40
1.0
 40
1.0
 40
1.0
 40
1.0
 10
3.352034609
 20
9.3754897466
 30
0.0
 10
3.3524624688
 20
9.3773197581
 30
0.0
 10
3.3532128296
 20
9.3810360499
 30
0.0
 10
3.3540142053
 20
9.386699671
 30
0.0
 10
3.3544975743
 20
9.3924548834
 30
0.0
 10
3.3546060688
 20
9.3963190068
 30
0.0
 10
3.3546060688
 20
9.3982539332
 30
0.0
 11
3.352034609
 21
9.3754897466
 31
0.0
 11
3.3531529453
 21
9.3810158103
 31
0.0
 11
3.3539579201
 21
9.386686782
 31
0.0
 11
3.3544434567
 21
9.3924514321
 31
0.0
 11
3.3546060688
 21
9.3982539332
 31
0.0
  0
LINE
  5
333
100
AcDbEntity
  8
0
100
AcDbLine
 62
6
  6
CONTINUOUS
 10
2.3519093084
 20
7.8932539332
 11
2.3254881425
 21
7.9428396028
  0
SPLINE
  5
334
100
AcDbEntity
  8
0
100
AcDbSpline
 62
6
  6
CONTINUOUS
 70
0
 71
3
 72
19
 73
15
 74
13
 42
0.0000001
 43
0.0000001
 44
0.0000000001
 12
0.0221846574
 22
0.0423833126
 32
0.0
 13
-0.0
 23
0.0478383132
 33
0.0
 40
0.0
 40
0.0
 40
0.0
 40
0.0
 40
0.1087914397
 40
0.1655279454
 40
0.2237197146
 40
0.283284112
 40
0.344133999
 40
0.4693031711
 40
0.5984308107
 40
0.6642155823
 40
0.7306593119
 40
0.7976182131
 40
0.8649352709
 40
1.0
 40
1.0
 40
1.0
 40
1.0
 10
3.2103588663
 20
9.3518908285
 30
0.0
 10
3.2111633665
 20
9.353427809
 30
0.0
 10
3.2122880469
 20
9.3558196641
 30
0.0
 10
3.2136278251
 20
9.3591264138
 30
0.0
 10
3.2145822534
 20
9.3617407303
 30
0.0
 10
3.2154696825
 20
9.3644475356
 30
0.0
 10
3.216570742
 20
9.3682062526
 30
0.0
 10
3.2177589037
 20
9.373092399
 30
0.0
 10
3.2186820741
 20
9.378115021
 30
0.0
 10
3.2192699355
 20
9.3822413772
 30
0.0
 10
3.2196340078
 20
9.3853970876
 30
0.0
 10
3.2199180216
 20
9.3885855398
 30
0.0
 10
3.2201896176
 20
9.3928721883
 30
0.0
 10
3.2202714242
 20
9.3961001769
 30
0.0
 10
3.2202714242
 20
9.3982539332
 30
0.0
 11
3.2103588663
 21
9.3518908285
 31
0.0
 11
3.2125841139
 21
9.3565955114
 31
0.0
 11
3.2136045757
 21
9.359110551
 31
0.0
 11
3.2145603357
 21
9.3617251338
 31
0.0
 11
3.2154489995
 21
9.3644324758
 31
0.0
 11
3.2162681728
 21
9.3672257928
 31
0.0
 11
3.2176893919
 21
9.3730425675
 31
0.0
 11
3.2188104529
 21
9.3791172379
 31
0.0
 11
3.2192546587
 21
9.3822327627
 31
0.0
 11
3.2196194048
 21
9.3853903216
 31
0.0
 11
3.2199039382
 21
9.3885808602
 31
0.0
 11
3.2201077749
 21
9.3917947371
 31
0.0
 11
3.2202714242
 21
9.3982539332
 31
0.0
  0
SPLINE
  5
335
100
AcDbEntity
  8
0
100
AcDbSpline
 62
6
  6
CONTINUOUS
 70
0
 71
3
 72
9
 73
5
 74
3
 42
0.0000001
 43
0.0000001
 44
0.0000000001
 12
0.0298501588
 22
-0.0501918805
 32
0.0
 13
0.0320071735
 23
-0.0488446281
 33
0.0
 40
0.0
 40
0.0
 40
0.0
 40
0.0
 40
0.4996007281
 40
1.0
 40
1.0
 40
1.0
 40
1.0
 10
2.3254881425
 20
7.9428396028
 30
0.0
 10
2.3304591962
 20
7.9344809694
 30
0.0
 10
2.3405528811
 20
7.9178353306
 30
0.0
 10
2.3509897021
 20
7.9014012053
 30
0.0
 10
2.3563284909
 20
7.8932539332
 30
0.0
 11
2.3254881425
 21
7.9428396028
 31
0.0
 11
2.3406304679
 21
7.9179014168
 31
0.0
 11
2.3563284909
 21
7.8932539332
 31
0.0
  0
SPLINE
  5
336
100
AcDbEntity
  8
0
100
AcDbSpline
 62
6
  6
CONTINUOUS
 70
0
 71
3
 72
23
 73
19
 74
17
 42
0.0000001
 43
0.0000001
 44
0.0000000001
 12
0.0326741108
 22
0.0481532685
 32
0.0
 13
0.0
 23
0.0581922227
 33
0.0
 40
0.0
 40
0.0
 40
0.0
 40
0.0
 40
0.044421774
 40
0.0919097895
 40
0.1424099535
 40
0.1958332409
 40
0.2520688713
 40
0.3109751221
 40
0.3723676701
 40
0.4360477581
 40
0.5018083811
 40
0.569428116
 40
0.6386704706
 40
0.7092942611
 40
0.7810515629
 40
0.8536437896
 40
0.9267381575
 40
1.0
 40
1.0
 40
1.0
 40
1.0
 10
3.0622249182
 20
9.342119815
 30
0.0
 10
3.0627087321
 20
9.3428328328
 30
0.0
 10
3.063654276
 20
9.3443462165
 30
0.0
 10
3.0649666112
 20
9.3467786644
 30
0.0
 10
3.0662158599
 20
9.3494382405
 30
0.0
 10
3.0673964855
 20
9.3523130485
 30
0.0
 10
3.0685028269
 20
9.3553909685
 30
0.0
 10
3.0695295883
 20
9.3586586136
 30
0.0
 10
3.0704731159
 20
9.3621011116
 30
0.0
 10
3.0713292459
 20
9.3657031099
 30
0.0
 10
3.0720936555
 20
9.3694489885
 30
0.0
 10
3.0727629142
 20
9.3733225169
 30
0.0
 10
3.0733346198
 20
9.3773069205
 30
0.0
 10
3.0738061543
 20
9.3813851973
 30
0.0
 10
3.074174617
 20
9.3855392903
 30
0.0
 10
3.0744387835
 20
9.3897493192
 30
0.0
 10
3.0745980241
 20
9.3939937857
 30
0.0
 10
3.0746336598
 20
9.3968328433
 30
0.0
 10
3.0746336598
 20
9.3982539332
 30
0.0
 11
3.0622249182
 21
9.342119815
 31
0.0
 11
3.0635997039
 21
9.344308924
 31
0.0
 11
3.0649166564
 21
9.3467383682
 31
0.0
 11
3.0661701689
 21
9.3493963303
 31
0.0
 11
3.0673547169
 21
9.3522706314
 31
0.0
 11
3.0684647799
 21
9.3553490826
 31
0.0
 11
3.0694952896
 21
9.3586184021
 31
0.0
 11
3.0704420323
 21
9.3620632426
 31
0.0
 11
3.0713008892
 21
9.3656680273
 31
0.0
 11
3.0720677662
 21
9.3694171562
 31
0.0
 11
3.0727392604
 21
9.3732943806
 31
0.0
 11
3.0733127408
 21
9.377282728
 31
0.0
 11
3.0737856164
 21
9.3813651877
 31
0.0
 11
3.0741553817
 21
9.3855245008
 31
0.0
 11
3.0744205374
 21
9.3897404738
 31
0.0
 11
3.0745802406
 21
9.3939909984
 31
0.0
 11
3.0746336598
 21
9.3982539332
 31
0.0
  0
LINE
  5
337
100
AcDbEntity
  8
0
100
AcDbLine
 62
6
  6
CONTINUOUS
 10
2.4350129765
 20
7.8932539332
 11
2.4174741596
 21
7.9428396028
  0
SPLINE
  5
338
100
AcDbEntity
  8
0
100
AcDbSpline
 62
6
  6
CONTINUOUS
 70
0
 71
3
 72
9
 73
5
 74
3
 42
0.0000001
 43
0.0000001
 44
0.0000000001
 12
0.021906741
 22
-0.0500598803
 32
0.0
 13
0.0242531915
 23
-0.0489661068
 33
0.0
 40
0.0
 40
0.0
 40
0.0
 40
0.0
 40
0.5002482957
 40
1.0
 40
1.0
 40
1.0
 40
1.0
 10
2.4174741596
 20
7.9428396028
 30
0.0
 10
2.4211270962
 20
7.9344921462
 30
0.0
 10
2.4285723518
 20
7.9178677393
 30
0.0
 10
2.4363851564
 20
7.9014108983
 30
0.0
 10
2.4404253476
 20
7.8932539332
 30
0.0
 11
2.4174741596
 21
7.9428396028
 31
0.0
 11
2.4286680276
 21
7.9179014168
 31
0.0
 11
2.4404253476
 21
7.8932539332
 31
0.0
  0
SPLINE
  5
339
100
AcDbEntity
  8
0
100
AcDbSpline
 62
6
  6
CONTINUOUS
 70
0
 71
3
 72
28
 73
24
 74
22
 42
0.0000001
 43
0.0000001
 44
0.0000000001
 12
0.0384670163
 22
0.0497121842
 32
0.0
 13
-0.0
 23
0.0628570807
 33
0.0
 40
0.0
 40
0.0
 40
0.0
 40
0.0
 40
0.0158270165
 40
0.0328302167
 40
0.0510300243
 40
0.0704373933
 40
0.0910561233
 40
0.1128845621
 40
0.1359164569
 40
0.1601354611
 40
0.1855167431
 40
0.2120328951
 40
0.268348336
 40
0.3288328437
 40
0.3931793677
 40
0.4610265142
 40
0.5320017047
 40
0.6057150095
 40
0.681750763
 40
0.759687478
 40
0.8390732151
 40
0.9193648009
 40
1.0
 40
1.0
 40
1.0
 40
1.0
 10
2.9096422131
 20
9.3370480012
 30
0.0
 10
2.9098451524
 20
9.3373102664
 30
0.0
 10
2.9102472034
 20
9.3378690736
 30
0.0
 10
2.9108206937
 20
9.338772015
 30
0.0
 10
2.9113851467
 20
9.3397678105
 30
0.0
 10
2.9119396869
 20
9.3408548455
 30
0.0
 10
2.9124834672
 20
9.3420315642
 30
0.0
 10
2.9130156187
 20
9.3432963606
 30
0.0
 10
2.9135351664
 20
9.3446474993
 30
0.0
 10
2.9140413417
 20
9.3460828576
 30
0.0
 10
2.9145334859
 20
9.3476000089
 30
0.0
 10
2.9151830007
 20
9.349772475
 30
0.0
 10
2.9159498201
 20
9.3526766281
 30
0.0
 10
2.9167845858
 20
9.3563798486
 30
0.0
 10
2.9175461109
 20
9.3603450638
 30
0.0
 10
2.9182303121
 20
9.3645471031
 30
0.0
 10
2.9188323534
 20
9.3689598037
 30
0.0
 10
2.9193480939
 20
9.3735560584
 30
0.0
 10
2.9197749258
 20
9.3783078493
 30
0.0
 10
2.9201098314
 20
9.3831861188
 30
0.0
 10
2.9203500491
 20
9.388159227
 30
0.0
 10
2.9204949795
 20
9.3931925508
 30
0.0
 10
2.9205274488
 20
9.3965644354
 30
0.0
 10
2.9205274488
 20
9.3982539332
 30
0.0
 11
2.9096422131
 21
9.3370480012
 31
0.0
 11
2.9102251078
 21
9.3378541901
 31
0.0
 11
2.9107998357
 21
9.3387552785
 31
0.0
 11
2.9113655129
 21
9.33974962
 31
0.0
 11
2.9119212556
 21
9.340835568
 31
0.0
 11
2.9124661797
 21
9.3420114761
 31
0.0
 11
2.9129994013
 21
9.3432756976
 31
0.0
 11
2.9135200409
 21
9.3446265569
 31
0.0
 11
2.9140272893
 21
9.3460618986
 31
0.0
 11
2.9145203949
 21
9.3475791746
 31
0.0
 11
2.9149986081
 21
9.3491758255
 31
0.0
 11
2.9159073577
 21
9.3525970139
 31
0.0
 11
2.916747566
 21
9.356304889
 31
0.0
 11
2.9175139628
 21
9.3602762497
 31
0.0
 11
2.9182020382
 21
9.3644850491
 31
0.0
 11
2.9188073258
 21
9.3689050904
 31
0.0
 11
2.9193259062
 21
9.3735093818
 31
0.0
 11
2.9197548597
 21
9.3782694789
 31
0.0
 11
2.9200913738
 21
9.3831567817
 31
0.0
 11
2.9203330358
 21
9.3881408821
 31
0.0
 11
2.9204786951
 21
9.3931856744
 31
0.0
 11
2.9205274488
 21
9.3982539332
 31
0.0
  0
SPLINE
  5
33A
100
AcDbEntity
  8
0
100
AcDbSpline
 62
6
  6
CONTINUOUS
 70
0
 71
3
 72
32
 73
28
 74
26
 42
0.0000001
 43
0.0000001
 44
0.0000000001
 12
0.0408323211
 22
0.049558092
 32
0.0
 13
0.0
 23
0.0642127941
 33
0.0
 40
0.0
 40
0.0
 40
0.0
 40
0.0
 40
0.0038718348
 40
0.0081507252
 40
0.0128528445
 40
0.0179898156
 40
0.0235700366
 40
0.029599586
 40
0.0430216797
 40
0.0582725223
 40
0.0753411756
 40
0.0942073962
 40
0.1148460057
 40
0.137228582
 40
0.161324191
 40
0.1870911882
 40
0.214476156
 40
0.2738786153
 40
0.3390849548
 40
0.4095946253
 40
0.484826591
 40
0.5641884777
 40
0.6470596853
 40
0.7327921268
 40
0.8207241813
 40
0.9100763596
 40
1.0
 40
1.0
 40
1.0
 40
1.0
 10
2.75509227
 20
9.334637251
 30
0.0
 10
2.7551449687
 20
9.3347012112
 30
0.0
 10
2.755249713
 20
9.3348410079
 30
0.0
 10
2.7553986457
 20
9.3350725158
 30
0.0
 10
2.7555469994
 20
9.3353359497
 30
0.0
 10
2.755694705
 20
9.3356312129
 30
0.0
 10
2.7558417146
 20
9.3359582281
 30
0.0
 10
2.7560439888
 20
9.3364544661
 30
0.0
 10
2.756291915
 20
9.3371550775
 30
0.0
 10
2.756575976
 20
9.3380922766
 30
0.0
 10
2.7568557316
 20
9.339151755
 30
0.0
 10
2.7571305468
 20
9.3403312141
 30
0.0
 10
2.757399783
 20
9.3416283306
 30
0.0
 10
2.7576628296
 20
9.3430407158
 30
0.0
 10
2.757919019
 20
9.3445657719
 30
0.0
 10
2.7581678196
 20
9.3462004314
 30
0.0
 10
2.7584981165
 20
9.3485868871
 30
0.0
 10
2.7588849974
 20
9.3518174065
 30
0.0
 10
2.7593009655
 20
9.355973213
 30
0.0
 10
2.7596764155
 20
9.3604729428
 30
0.0
 10
2.7600087461
 20
9.3652797858
 30
0.0
 10
2.7602947166
 20
9.370354625
 30
0.0
 10
2.7605319626
 20
9.3756569483
 30
0.0
 10
2.7607187827
 20
9.3811448262
 30
0.0
 10
2.7608530899
 20
9.3867729961
 30
0.0
 10
2.7609341151
 20
9.3924918923
 30
0.0
 10
2.7609522934
 20
9.3963291838
 30
0.0
 10
2.7609522934
 20
9.3982539332
 30
0.0
 11
2.75509227
 21
9.334637251
 31
0.0
 11
2.7552421583
 21
9.3348356094
 31
0.0
 11
2.7553915411
 21
9.335066212
 31
0.0
 11
2.7555403426
 21
9.3353289355
 31
0.0
 11
2.7556884871
 21
9.3356236563
 31
0.0
 11
2.7558358988
 21
9.335950251
 31
0.0
 11
2.7559825021
 21
9.3363085963
 31
0.0
 11
2.7562729801
 21
9.3371200411
 31
0.0
 11
2.7565593284
 21
9.3380565407
 31
0.0
 11
2.756840979
 21
9.3391157602
 31
0.0
 11
2.7571173669
 21
9.3402952632
 31
0.0
 11
2.7573879269
 21
9.3415926139
 31
0.0
 11
2.757652094
 21
9.343005376
 31
0.0
 11
2.7579093044
 21
9.3445310936
 31
0.0
 11
2.7581590325
 21
9.3461667099
 31
0.0
 11
2.7584007965
 21
9.3479084764
 31
0.0
 11
2.7588585149
 21
9.3516953121
 31
0.0
 11
2.7592786299
 21
9.3558612637
 31
0.0
 11
2.7596576583
 21
9.3603729937
 31
0.0
 11
2.7599926877
 21
9.3651922169
 31
0.0
 11
2.7602808821
 21
9.3702801098
 31
0.0
 11
2.7605199166
 21
9.3755961303
 31
0.0
 11
2.7607079713
 21
9.381098037
 31
0.0
 11
2.7608433187
 21
9.3867427774
 31
0.0
 11
2.7609249536
 21
9.3924797497
 31
0.0
 11
2.7609522934
 21
9.3982539332
 31
0.0
  0
SPLINE
  5
33B
100
AcDbEntity
  8
0
100
AcDbSpline
 62
6
  6
CONTINUOUS
 70
0
 71
3
 72
33
 73
29
 74
27
 42
0.0000001
 43
0.0000001
 44
0.0000000001
 12
-0.0411303894
 22
0.0492670773
 32
0.0
 13
0.0
 23
0.0641790763
 33
0.0
 40
0.0
 40
0.0
 40
0.0
 40
0.0
 40
0.0007058216
 40
0.0015312873
 40
0.0035627266
 40
0.0061228579
 40
0.0092234274
 40
0.0128699033
 40
0.0170647017
 40
0.0218085927
 40
0.0271013851
 40
0.0393298827
 40
0.0537387706
 40
0.070297382
 40
0.0889639579
 40
0.1096956083
 40
0.1324488329
 40
0.1571797026
 40
0.1838368572
 40
0.2426589585
 40
0.3083619408
 40
0.3803729614
 40
0.4580176511
 40
0.5405820631
 40
0.6273332234
 40
0.7174964882
 40
0.8102847922
 40
1.0
 40
1.0
 40
1.0
 40
1.0
 10
2.6011586031
 20
9.3341836361
 30
0.0
 10
2.6011489262
 20
9.3341952274
 30
0.0
 10
2.6011298111
 20
9.3342219488
 30
0.0
 10
2.601091837
 20
9.3342881206
 30
0.0
 10
2.601045898
 20
9.3343948529
 30
0.0
 10
2.6009936881
 20
9.3345509889
 30
0.0
 10
2.6009414027
 20
9.3347432041
 30
0.0
 10
2.6008890994
 20
9.3349714055
 30
0.0
 10
2.6008368799
 20
9.335235561
 30
0.0
 10
2.600784798
 20
9.3355355489
 30
0.0
 10
2.6007120763
 20
9.3360063064
 30
0.0
 10
2.6006235881
 20
9.3366837195
 30
0.0
 10
2.6005228664
 20
9.3376023475
 30
0.0
 10
2.6004235305
 20
9.3386595486
 30
0.0
 10
2.6003258303
 20
9.3398526628
 30
0.0
 10
2.6002300731
 20
9.3411788347
 30
0.0
 10
2.6001365187
 20
9.3426351867
 30
0.0
 10
2.6000454288
 20
9.3442186847
 30
0.0
 10
2.59992357
 20
9.346573272
 30
0.0
 10
2.5997809471
 20
9.3498044183
 30
0.0
 10
2.5996275944
 20
9.3540061529
 30
0.0
 10
2.5994887673
 20
9.3586112615
 30
0.0
 10
2.5993655886
 20
9.3635776451
 30
0.0
 10
2.5992592831
 20
9.3688598201
 30
0.0
 10
2.5991709762
 20
9.3744101696
 30
0.0
 10
2.5991013233
 20
9.3801795208
 30
0.0
 10
2.5990340109
 20
9.388151718
 30
0.0
 10
2.5990141426
 20
9.3941953509
 30
0.0
 10
2.5990141426
 20
9.3982539332
 30
0.0
 11
2.6011586031
 21
9.3341836361
 31
0.0
 11
2.6011318981
 21
9.3342202263
 31
0.0
 11
2.6011052107
 21
9.334265991
 31
0.0
 11
2.6010519032
 21
9.3343849708
 31
0.0
 11
2.6009987106
 21
9.3345404291
 31
0.0
 11
2.600945663
 21
9.3347322197
 31
0.0
 11
2.6008927901
 21
9.3349601963
 31
0.0
 11
2.6008401221
 21
9.3352242125
 31
0.0
 11
2.600787689
 21
9.3355241221
 31
0.0
 11
2.6007355206
 21
9.3358597788
 31
0.0
 11
2.6006320982
 21
9.3366377482
 31
0.0
 11
2.6005300939
 21
9.3375568543
 31
0.0
 11
2.6004297371
 21
9.3386148215
 31
0.0
 11
2.6003312514
 21
9.3398087701
 31
0.0
 11
2.6002348607
 21
9.3411358121
 31
0.0
 11
2.6001407884
 21
9.3425930598
 31
0.0
 11
2.6000492582
 21
9.3441776228
 31
0.0
 11
2.599960484
 21
9.3458861496
 31
0.0
 11
2.5997919705
 21
9.3496575348
 31
0.0
 11
2.5996367684
 21
9.3538714344
 31
0.0
 11
2.5994963557
 21
9.3584909017
 31
0.0
 11
2.5993719606
 21
9.3634725133
 31
0.0
 11
2.5992647142
 21
9.3687703356
 31
0.0
 11
2.5991756284
 21
9.3743372321
 31
0.0
 11
2.5991054509
 21
9.3801234016
 31
0.0
 11
2.5990548795
 21
9.3860782545
 31
0.0
 11
2.5990141426
 21
9.3982539332
 31
0.0
  0
SPLINE
  5
33C
100
AcDbEntity
  8
0
100
AcDbSpline
 62
6
  6
CONTINUOUS
 70
0
 71
3
 72
28
 73
24
 74
22
 42
0.0000001
 43
0.0000001
 44
0.0000000001
 12
-0.0400308751
 22
0.0497362001
 32
0.0
 13
-0.0
 23
0.0638448163
 33
0.0
 40
0.0
 40
0.0
 40
0.0
 40
0.0
 40
0.0122196032
 40
0.0258531997
 40
0.0409518429
 40
0.0575369774
 40
0.075614314
 40
0.0951803295
 40
0.1162250417
 40
0.1387338514
 40
0.1626869512
 40
0.1880511457
 40
0.2147871507
 40
0.2428539902
 40
0.3028084554
 40
0.3675573505
 40
0.4366627325
 40
0.5096514338
 40
0.5860404474
 40
0.6653145799
 40
0.8303768278
 40
0.9149629284
 40
1.0
 40
1.0
 40
1.0
 40
1.0
 10
2.4466509153
 20
9.335571662
 30
0.0
 10
2.4464878615
 20
9.3357742476
 30
0.0
 10
2.4461653072
 20
9.3362210776
 30
0.0
 10
2.4457124915
 20
9.3369664933
 30
0.0
 10
2.4452656853
 20
9.3378218153
 30
0.0
 10
2.4448254388
 20
9.3387854016
 30
0.0
 10
2.4443924666
 20
9.3398555143
 30
0.0
 10
2.4439675529
 20
9.341030252
 30
0.0
 10
2.4435514913
 20
9.3423076901
 30
0.0
 10
2.4431450877
 20
9.3436858318
 30
0.0
 10
2.4427492308
 20
9.3451624028
 30
0.0
 10
2.4423645162
 20
9.3467346707
 30
0.0
 10
2.4419915839
 20
9.3483995985
 30
0.0
 10
2.4415001212
 20
9.3507919651
 30
0.0
 10
2.440924436
 20
9.3539923368
 30
0.0
 10
2.4403054235
 20
9.3580706032
 30
0.0
 10
2.4397478999
 20
9.3624374755
 30
0.0
 10
2.4392558301
 20
9.3670613411
 30
0.0
 10
2.4388334745
 20
9.3719093398
 30
0.0
 10
2.4383604783
 20
9.3787187489
 30
0.0
 10
2.438049315
 20
9.385713229
 30
0.0
 10
2.4378916492
 20
9.3928342825
 30
0.0
 10
2.4378649381
 20
9.3964442078
 30
0.0
 10
2.4378649381
 20
9.3982539332
 30
0.0
 11
2.4466509153
 21
9.335571662
 31
0.0
 11
2.4461911449
 21
9.3362019463
 31
0.0
 11
2.4457364396
 21
9.3369441721
 31
0.0
 11
2.4452876249
 21
9.3377972862
 31
0.0
 11
2.4448454888
 21
9.3387594358
 31
0.0
 11
2.4444108115
 21
9.3398285964
 31
0.0
 11
2.4439843728
 21
9.3410027439
 31
0.0
 11
2.4435669529
 21
9.342279854
 31
0.0
 11
2.4431593317
 21
9.3436579025
 31
0.0
 11
2.4427622761
 21
9.3451347396
 31
0.0
 11
2.4423764756
 21
9.346707484
 31
0.0
 11
2.442002592
 21
9.3483729892
 31
0.0
 11
2.4416412869
 21
9.3501281085
 31
0.0
 11
2.440959059
 21
9.3538946027
 31
0.0
 11
2.4403349525
 21
9.3579811007
 31
0.0
 11
2.4397732617
 21
9.3623572209
 31
0.0
 11
2.439277934
 21
9.366990771
 31
0.0
 11
2.4388527633
 21
9.3718492454
 31
0.0
 11
2.4385005959
 21
9.3768982208
 31
0.0
 11
2.4380250148
 21
9.3874258531
 31
0.0
 11
2.4379050901
 21
9.3928249054
 31
0.0
 11
2.4378649381
 21
9.3982539332
 31
0.0
  0
SPLINE
  5
33D
100
AcDbEntity
  8
0
100
AcDbSpline
 62
6
  6
CONTINUOUS
 70
0
 71
3
 72
24
 73
20
 74
18
 42
0.0000001
 43
0.0000001
 44
0.0000000001
 12
-0.0360630266
 22
0.0492576759
 32
0.0
 13
-0.0
 23
0.0610480182
 33
0.0
 40
0.0
 40
0.0
 40
0.0
 40
0.0
 40
0.0190090512
 40
0.0389773906
 40
0.0599143241
 40
0.0818246724
 40
0.128554072
 40
0.1790885732
 40
0.2332851037
 40
0.2909738693
 40
0.3519468048
 40
0.4159417176
 40
0.4826804285
 40
0.5518748712
 40
0.6232146602
 40
0.6963766438
 40
0.8468051045
 40
0.9232779348
 40
1.0
 40
1.0
 40
1.0
 40
1.0
 10
2.2927531311
 20
9.339173478
 30
0.0
 10
2.2925246231
 20
9.3394855919
 30
0.0
 10
2.2920719208
 20
9.3401372863
 30
0.0
 10
2.2914206967
 20
9.3411684001
 30
0.0
 10
2.2907815266
 20
9.3422757484
 30
0.0
 10
2.289928219
 20
9.3438868932
 30
0.0
 10
2.2889032773
 20
9.3460866722
 30
0.0
 10
2.2877594634
 20
9.3489500787
 30
0.0
 10
2.2866824876
 20
9.3520760358
 30
0.0
 10
2.2856787262
 20
9.355448305
 30
0.0
 10
2.2847540266
 20
9.3590492089
 30
0.0
 10
2.2839124147
 20
9.3628591403
 30
0.0
 10
2.2831585101
 20
9.3668577018
 30
0.0
 10
2.2824970778
 20
9.3710239326
 30
0.0
 10
2.2819312016
 20
9.3753360569
 30
0.0
 10
2.2813020365
 20
9.3813051228
 30
0.0
 10
2.2808866753
 20
9.3873998348
 30
0.0
 10
2.2806767079
 20
9.3935751312
 30
0.0
 10
2.280641266
 20
9.3966926898
 30
0.0
 10
2.280641266
 20
9.3982539332
 30
0.0
 11
2.2927531311
 21
9.339173478
 31
0.0
 11
2.2920899712
 21
9.3401257898
 31
0.0
 11
2.2914379887
 21
9.3411558126
 31
0.0
 11
2.2907980745
 21
9.3422622476
 31
0.0
 11
2.2901711192
 21
9.3434437958
 31
0.0
 11
2.2889595412
 21
9.3460264666
 31
0.0
 11
2.2878095781
 21
9.3488891581
 31
0.0
 11
2.2867272752
 21
9.3520157206
 31
0.0
 11
2.2857186728
 21
9.3553899893
 31
0.0
 11
2.2847893287
 21
9.3589943845
 31
0.0
 11
2.2839438581
 21
9.3628085651
 31
0.0
 11
2.2831867672
 21
9.3668118709
 31
0.0
 11
2.282522426
 21
9.3709834866
 31
0.0
 11
2.2819541572
 21
9.3753014058
 31
0.0
 11
2.2814847979
 21
9.3797430697
 31
0.0
 11
2.2808533857
 21
9.3889046966
 31
0.0
 11
2.2806944475
 21
9.3935705051
 31
0.0
 11
2.280641266
 21
9.3982539332
 31
0.0
  0
SPLINE
  5
33E
100
AcDbEntity
  8
0
100
AcDbSpline
 62
6
  6
CONTINUOUS
 70
0
 71
3
 72
23
 73
19
 74
17
 42
0.0000001
 43
0.0000001
 44
0.0000000001
 12
-0.0280955537
 22
0.0460761674
 32
0.0
 13
0.0
 23
0.0539664094
 33
0.0
 40
0.0
 40
0.0
 40
0.0
 40
0.0
 40
0.049283104
 40
0.1008588761
 40
0.1546683268
 40
0.2106373929
 40
0.2686619559
 40
0.3286149845
 40
0.3903607888
 40
0.4537573456
 40
0.5186526841
 40
0.5848831468
 40
0.6522807158
 40
0.7206747337
 40
0.7898780772
 40
0.8596601048
 40
0.9297809852
 40
1.0
 40
1.0
 40
1.0
 40
1.0
 10
2.14210867
 20
9.346181472
 30
0.0
 10
2.1416471246
 20
9.3469383975
 30
0.0
 10
2.1407463232
 20
9.3485144742
 30
0.0
 10
2.1394883651
 20
9.350997269
 30
0.0
 10
2.1382967903
 20
9.3536450432
 30
0.0
 10
2.1371764866
 20
9.3564489379
 30
0.0
 10
2.1361309999
 20
9.3593990072
 30
0.0
 10
2.1351635043
 20
9.3624845697
 30
0.0
 10
2.1342773882
 20
9.3656947886
 30
0.0
 10
2.1334761703
 20
9.369018722
 30
0.0
 10
2.13276277
 20
9.3724450063
 30
0.0
 10
2.1321391366
 20
9.375961845
 30
0.0
 10
2.1316074365
 20
9.3795573623
 30
0.0
 10
2.1311698743
 20
9.3832193961
 30
0.0
 10
2.1308284946
 20
9.3869347011
 30
0.0
 10
2.130583726
 20
9.3906887388
 30
0.0
 10
2.1304362828
 20
9.3944661086
 30
0.0
 10
2.1304033061
 20
9.3969907771
 30
0.0
 10
2.1304033061
 20
9.3982539332
 30
0.0
 11
2.14210867
 21
9.346181472
 31
0.0
 11
2.1407860177
 21
9.3484889022
 31
0.0
 11
2.1395254235
 21
9.3509704322
 31
0.0
 11
2.1383314266
 21
9.3536175104
 31
0.0
 11
2.1372085089
 21
9.3564214668
 31
0.0
 11
2.136160488
 21
9.3593722592
 31
0.0
 11
2.1351907551
 21
9.362458965
 31
0.0
 11
2.1343026944
 21
9.3656706469
 31
0.0
 11
2.1334996775
 21
9.3689963577
 31
0.0
 11
2.132784563
 21
9.3724247384
 31
0.0
 11
2.1321595267
 21
9.3759438832
 31
0.0
 11
2.1316266974
 21
9.3795418482
 31
0.0
 11
2.1311882034
 21
9.3832066883
 31
0.0
 11
2.1308458357
 21
9.3869256182
 31
0.0
 11
2.1306004414
 21
9.3906834999
 31
0.0
 11
2.1304527038
 21
9.394464787
 31
0.0
 11
2.1304033061
 21
9.3982539332
 31
0.0
  0
SPLINE
  5
33F
100
AcDbEntity
  8
0
100
AcDbSpline
 62
6
  6
CONTINUOUS
 70
0
 71
3
 72
15
 73
11
 74
9
 42
0.0000001
 43
0.0000001
 44
0.0000000001
 12
-0.0146580662
 22
0.0358364848
 32
0.0
 13
0.0
 23
0.0387183748
 33
0.0
 40
0.0
 40
0.0
 40
0.0
 40
0.0
 40
0.1158890497
 40
0.2352794398
 40
0.3577784464
 40
0.4829490451
 40
0.6103323445
 40
0.7394143935
 40
0.8695354036
 40
1.0
 40
1.0
 40
1.0
 40
1.0
 10
1.9969927152
 20
9.3603935874
 30
0.0
 10
1.9964264788
 20
9.3617779394
 30
0.0
 10
1.9953591493
 20
9.3646227449
 30
0.0
 10
1.9939736423
 20
9.3690296375
 30
0.0
 10
1.9927870954
 20
9.373618047
 30
0.0
 10
1.9918054304
 20
9.3783598216
 30
0.0
 10
1.9910353632
 20
9.3832265001
 30
0.0
 10
1.9904830903
 20
9.3881869116
 30
0.0
 10
1.9901499258
 20
9.3932065226
 30
0.0
 10
1.9900752696
 20
9.3965701408
 30
0.0
 10
1.9900752696
 20
9.3982539332
 30
0.0
 11
1.9969927152
 21
9.3603935874
 31
0.0
 11
1.9954129301
 21
9.3645933216
 31
0.0
 11
1.994023392
 21
9.3690021346
 31
0.0
 11
1.9928330036
 21
9.3735932857
 31
0.0
 11
1.9918484192
 21
9.378338621
 31
0.0
 11
1.9910760706
 21
9.3832098462
 31
0.0
 11
1.9905214464
 21
9.388176824
 31
0.0
 11
1.9901871579
 21
9.3932037953
 31
0.0
 11
1.9900752696
 21
9.3982539332
 31
0.0
  0
SPLINE
  5
340
100
AcDbEntity
  8
0
100
AcDbSpline
 62
6
  6
CONTINUOUS
 70
0
 71
3
 72
10
 73
6
 74
4
 42
0.0000001
 43
0.0000001
 44
0.0000000001
 12
-0.006608551
 22
0.0497078031
 32
0.0
 13
-0.0079482188
 23
0.0495112559
 33
0.0
 40
0.0
 40
0.0
 40
0.0
 40
0.0
 40
0.2473583893
 40
0.4965917761
 40
1.0
 40
1.0
 40
1.0
 40
1.0
 10
2.5320553719
 20
7.8932539332
 30
0.0
 10
2.5315104784
 20
7.8973524805
 30
0.0
 10
2.5303615479
 20
7.905573366
 30
0.0
 10
2.5278923654
 20
7.9221051597
 30
0.0
 10
2.5259278782
 20
7.9345314783
 30
0.0
 10
2.5245941453
 20
7.9428396028
 30
0.0
 11
2.5320553719
 21
7.8932539332
 31
0.0
 11
2.5303467202
 21
7.9055395143
 31
0.0
 11
2.5285083373
 21
7.9179014176
 31
0.0
 11
2.5245941453
 21
7.9428396028
 31
0.0
  0
SPLINE
  5
341
100
AcDbEntity
  8
0
100
AcDbSpline
 62
6
  6
CONTINUOUS
 70
0
 71
3
 72
9
 73
5
 74
3
 42
0.0000001
 43
0.0000001
 44
0.0000000001
 12
0.0124965461
 22
-0.0498509584
 32
0.0
 13
0.0148387187
 23
-0.0492046151
 33
0.0
 40
0.0
 40
0.0
 40
0.0
 40
0.0
 40
0.5013673001
 40
1.0
 40
1.0
 40
1.0
 40
1.0
 10
2.5245941453
 20
7.9428396028
 30
0.0
 10
2.5266825985
 20
7.9345083893
 30
0.0
 10
2.5309748026
 20
7.9179229504
 30
0.0
 10
2.5356257307
 20
7.9014322765
 30
0.0
 10
2.5380920875
 20
7.8932539332
 30
0.0
 11
2.5245941453
 21
7.9428396028
 31
0.0
 11
2.5310767122
 21
7.9179014168
 31
0.0
 11
2.5380920875
 21
7.8932539332
 31
0.0
  0
SPLINE
  5
342
100
AcDbEntity
  8
0
100
AcDbSpline
 62
6
  6
CONTINUOUS
 70
0
 71
3
 72
10
 73
6
 74
4
 42
0.0000001
 43
0.0000001
 44
0.0000000001
 12
0.0043205466
 22
0.0494986997
 32
0.0
 13
0.0023159836
 23
0.0496328986
 33
0.0
 40
0.0
 40
0.0
 40
0.0
 40
0.0
 40
0.2480377943
 40
0.4973806687
 40
1.0
 40
1.0
 40
1.0
 40
1.0
 10
2.6364232157
 20
7.8932539332
 30
0.0
 10
2.6367804353
 20
7.8973464493
 30
0.0
 10
2.637426642
 20
7.905559219
 30
0.0
 10
2.6385118967
 20
7.9220861739
 30
0.0
 10
2.6391600302
 20
7.934524118
 30
0.0
 10
2.6395480496
 20
7.9428396028
 30
0.0
 11
2.6364232157
 21
7.8932539332
 31
0.0
 11
2.6373984803
 21
7.9055395143
 31
0.0
 11
2.6382185623
 21
7.9179014177
 31
0.0
 11
2.6395480496
 21
7.9428396028
 31
0.0
  0
SPLINE
  5
343
100
AcDbEntity
  8
0
100
AcDbSpline
 62
6
  6
CONTINUOUS
 70
0
 71
3
 72
10
 73
6
 74
4
 42
0.0000001
 43
0.0000001
 44
0.0000000001
 12
0.0023159836
 22
-0.0496328984
 32
0.0
 13
0.0043205466
 23
-0.0494986996
 33
0.0
 40
0.0
 40
0.0
 40
0.0
 40
0.0
 40
0.5026193517
 40
0.7519622093
 40
1.0
 40
1.0
 40
1.0
 40
1.0
 10
2.6395480496
 20
7.9428396028
 30
0.0
 10
2.639936069
 20
7.9345241177
 30
0.0
 10
2.6405841983
 20
7.9220861732
 30
0.0
 10
2.641669471
 20
7.9055592197
 30
0.0
 10
2.6423156639
 20
7.8973464492
 30
0.0
 10
2.6426728835
 20
7.8932539332
 30
0.0
 11
2.6395480496
 21
7.9428396028
 31
0.0
 11
2.6408775392
 21
7.9179014168
 31
0.0
 11
2.6416976269
 21
7.9055395147
 31
0.0
 11
2.6426728835
 21
7.8932539332
 31
0.0
  0
SPLINE
  5
344
100
AcDbEntity
  8
0
100
AcDbSpline
 62
6
  6
CONTINUOUS
 70
0
 71
3
 72
9
 73
5
 74
3
 42
0.0000001
 43
0.0000001
 44
0.0000000001
 12
0.0148387187
 22
0.0492046151
 32
0.0
 13
0.0124965461
 23
0.0498509584
 33
0.0
 40
0.0
 40
0.0
 40
0.0
 40
0.0
 40
0.4986327227
 40
1.0
 40
1.0
 40
1.0
 40
1.0
 10
2.7410040117
 20
7.8932539332
 30
0.0
 10
2.7434703686
 20
7.9014322769
 30
0.0
 10
2.7481213001
 20
7.9179229498
 30
0.0
 10
2.7524135007
 20
7.9345083897
 30
0.0
 10
2.7545019539
 20
7.9428396028
 30
0.0
 11
2.7410040117
 21
7.8932539332
 31
0.0
 11
2.7480193889
 21
7.9179014175
 31
0.0
 11
2.7545019539
 21
7.9428396028
 31
0.0
  0
SPLINE
  5
345
100
AcDbEntity
  8
0
100
AcDbSpline
 62
6
  6
CONTINUOUS
 70
0
 71
3
 72
11
 73
7
 74
5
 42
0.0000001
 43
0.0000001
 44
0.0000000001
 12
0.0
 22
0.0229561186
 32
0.0
 13
-0.0052251908
 23
0.0223535403
 33
0.0
 40
0.0
 40
0.0
 40
0.0
 40
0.0
 40
0.2531523524
 40
0.5050733
 40
0.7544056891
 40
1.0
 40
1.0
 40
1.0
 40
1.0
 10
21.4806060688
 20
9.3982539332
 30
0.0
 10
21.4806060688
 20
9.400191065
 30
0.0
 10
21.4804981847
 20
9.4040567655
 30
0.0
 10
21.4800144674
 20
9.4098121738
 30
0.0
 10
21.4792121508
 20
9.4154735417
 30
0.0
 10
21.4784623674
 20
9.4191884671
 30
0.0
 10
21.4780346084
 20
9.4210184345
 30
0.0
 11
21.4806060688
 21
9.3982539332
 31
0.0
 11
21.4804436671
 21
9.404063059
 31
0.0
 11
21.4799579748
 21
9.4098257548
 31
0.0
 11
21.4791527839
 21
9.4154925399
 31
0.0
 11
21.4780346084
 21
9.4210184345
 31
0.0
  0
SPLINE
  5
346
100
AcDbEntity
  8
0
100
AcDbSpline
 62
6
  6
CONTINUOUS
 70
0
 71
3
 72
10
 73
6
 74
4
 42
0.0000001
 43
0.0000001
 44
0.0000000001
 12
-0.0079482188
 22
-0.0495112558
 32
0.0
 13
-0.006608551
 23
-0.0497078031
 33
0.0
 40
0.0
 40
0.0
 40
0.0
 40
0.0
 40
0.5034082334
 40
0.752641583
 40
1.0
 40
1.0
 40
1.0
 40
1.0
 10
2.7545019539
 20
7.9428396028
 30
0.0
 10
2.7531682209
 20
7.9345314782
 30
0.0
 10
2.7512037302
 20
7.9221051605
 30
0.0
 10
2.748734563
 20
7.9055733647
 30
0.0
 10
2.7475856208
 20
7.897352481
 30
0.0
 10
2.7470407272
 20
7.8932539332
 30
0.0
 11
2.7545019539
 21
7.9428396028
 31
0.0
 11
2.7505877637
 21
7.9179014168
 31
0.0
 11
2.748749386
 21
7.9055395147
 31
0.0
 11
2.7470407272
 21
7.8932539332
 31
0.0
  0
SPLINE
  5
347
100
AcDbEntity
  8
0
100
AcDbSpline
 62
6
  6
CONTINUOUS
 70
0
 71
3
 72
9
 73
5
 74
3
 42
0.0000001
 43
0.0000001
 44
0.0000000001
 12
0.0242531915
 22
0.0489661068
 32
0.0
 13
0.021906741
 23
0.0500598803
 33
0.0
 40
0.0
 40
0.0
 40
0.0
 40
0.0
 40
0.4997517306
 40
1.0
 40
1.0
 40
1.0
 40
1.0
 10
2.8386707515
 20
7.8932539332
 30
0.0
 10
2.842710943
 20
7.9014108987
 30
0.0
 10
2.8505237503
 20
7.9178677385
 30
0.0
 10
2.8579690031
 20
7.9344921466
 30
0.0
 10
2.8616219395
 20
7.9428396028
 30
0.0
 11
2.8386707515
 21
7.8932539332
 31
0.0
 11
2.8504280735
 21
7.9179014175
 31
0.0
 11
2.8616219395
 21
7.9428396028
 31
0.0
  0
SPLINE
  5
348
100
AcDbEntity
  8
0
100
AcDbSpline
 62
6
  6
CONTINUOUS
 70
0
 71
3
 72
11
 73
7
 74
5
 42
0.0000001
 43
0.0000001
 44
0.0000000001
 12
0.0
 22
0.0251705607
 32
0.0
 13
-0.0052125183
 23
0.0246249219
 33
0.0
 40
0.0
 40
0.0
 40
0.0
 40
0.0
 40
0.2547037454
 40
0.5075361119
 40
0.7565819461
 40
1.0
 40
1.0
 40
1.0
 40
1.0
 10
21.3462714242
 20
9.3982539332
 30
0.0
 10
21.3462714242
 20
9.4003909452
 30
0.0
 10
21.3461650363
 20
9.4046500309
 30
0.0
 10
21.3456879569
 20
9.4109825933
 30
0.0
 10
21.3448975815
 20
9.4171883591
 30
0.0
 10
21.3441573991
 20
9.421255883
 30
0.0
 10
21.3437344588
 20
9.4232539332
 30
0.0
 11
21.3462714242
 21
9.3982539332
 31
0.0
 11
21.3461108369
 21
9.4046629577
 31
0.0
 11
21.3456308112
 21
9.4110087603
 31
0.0
 11
21.344835878
 21
9.417226776
 31
0.0
 11
21.3437344588
 21
9.4232539332
 31
0.0
  0
SPLINE
  5
349
100
AcDbEntity
  8
0
100
AcDbSpline
 62
6
  6
CONTINUOUS
 70
0
 71
3
 72
11
 73
7
 74
5
 42
0.0000001
 43
0.0000001
 44
0.0000000001
 12
0.0
 22
0.0250959977
 32
0.0
 13
-0.00393087
 23
0.0247862333
 33
0.0
 40
0.0
 40
0.0
 40
0.0
 40
0.0
 40
0.2554253387
 40
0.5086922417
 40
0.7575954057
 40
1.0
 40
1.0
 40
1.0
 40
1.0
 10
21.2006336598
 20
9.3982539332
 30
0.0
 10
21.2006336598
 20
9.4003906511
 30
0.0
 10
21.2005540537
 20
9.4046464592
 30
0.0
 10
21.2001970302
 20
9.4109754236
 30
0.0
 10
21.1996055773
 20
9.4171774372
 30
0.0
 10
21.1990505521
 20
9.4212511676
 30
0.0
 10
21.1987329318
 20
9.4232539332
 30
0.0
 11
21.2006336598
 21
9.3982539332
 31
0.0
 11
21.2005133456
 21
9.4046629577
 31
0.0
 11
21.2001537041
 21
9.4110087603
 31
0.0
 11
21.1995581296
 21
9.417226776
 31
0.0
 11
21.1987329318
 21
9.4232539332
 31
0.0
  0
SPLINE
  5
34A
100
AcDbEntity
  8
0
100
AcDbSpline
 62
6
  6
CONTINUOUS
 70
0
 71
3
 72
11
 73
7
 74
5
 42
0.0000001
 43
0.0000001
 44
0.0000000001
 12
0.0
 22
0.0250401182
 32
0.0
 13
-0.0025512227
 23
0.024909813
 33
0.0
 40
0.0
 40
0.0
 40
0.0
 40
0.0
 40
0.2559690584
 40
0.509564169
 40
0.7583609183
 40
1.0
 40
1.0
 40
1.0
 40
1.0
 10
21.0465274488
 20
9.3982539332
 30
0.0
 10
21.0465274488
 20
9.4003904317
 30
0.0
 10
21.0464760877
 20
9.4046437927
 30
0.0
 10
21.0462457204
 20
9.4109700379
 30
0.0
 10
21.0458641061
 20
9.4171691546
 30
0.0
 10
21.0455054455
 20
9.4212475384
 30
0.0
 10
21.0452999538
 20
9.4232539332
 30
0.0
 11
21.0465274488
 21
9.3982539332
 31
0.0
 11
21.0464497496
 21
9.4046629577
 31
0.0
 11
21.0462174922
 21
9.4110087603
 31
0.0
 11
21.0458328687
 21
9.417226776
 31
0.0
 11
21.0452999538
 21
9.4232539332
 31
0.0
  0
LINE
  5
34B
100
AcDbEntity
  8
0
100
AcDbLine
 62
6
  6
CONTINUOUS
 10
2.8616219395
 20
7.9428396028
 11
2.8440831226
 21
7.8932539332
  0
SPLINE
  5
34C
100
AcDbEntity
  8
0
100
AcDbSpline
 62
6
  6
CONTINUOUS
 70
0
 71
3
 72
11
 73
7
 74
5
 42
0.0000001
 43
0.0000001
 44
0.0000000001
 12
0.0
 22
0.0250206842
 32
0.0
 13
0.0018344326
 23
0.0249533464
 33
0.0
 40
0.0
 40
0.0
 40
0.0
 40
0.0
 40
0.2561587491
 40
0.509868522
 40
0.7586283669
 40
1.0
 40
1.0
 40
1.0
 40
1.0
 10
20.5638649381
 20
9.3982539332
 30
0.0
 10
20.5638649381
 20
9.4003903556
 30
0.0
 10
20.5639017923
 20
9.4046428674
 30
0.0
 10
20.5640670969
 20
9.4109681623
 30
0.0
 10
20.5643409268
 20
9.4171662544
 30
0.0
 10
20.5645984236
 20
9.4212462565
 30
0.0
 10
20.5647460169
 20
9.4232539332
 30
0.0
 11
20.5638649381
 21
9.3982539332
 31
0.0
 11
20.5639207095
 21
9.4046629577
 31
0.0
 11
20.5640874206
 21
9.4110087603
 31
0.0
 11
20.5643634981
 21
9.417226776
 31
0.0
 11
20.5647460169
 21
9.4232539332
 31
0.0
  0
SPLINE
  5
34D
100
AcDbEntity
  8
0
100
AcDbSpline
 62
6
  6
CONTINUOUS
 70
0
 71
3
 72
11
 73
7
 74
5
 42
0.0000001
 43
0.0000001
 44
0.0000000001
 12
0.0
 22
0.0250653969
 32
0.0
 13
0.0032514322
 23
0.0248536176
 33
0.0
 40
0.0
 40
0.0
 40
0.0
 40
0.0
 40
0.2557227784
 40
0.5091691426
 40
0.7580139766
 40
1.0
 40
1.0
 40
1.0
 40
1.0
 10
20.406641266
 20
9.3982539332
 30
0.0
 10
20.406641266
 20
9.4003905308
 30
0.0
 10
20.4067068998
 20
9.4046449978
 30
0.0
 10
20.4070012729
 20
9.4109724756
 30
0.0
 10
20.4074889264
 20
9.4171729119
 30
0.0
 10
20.4079469298
 20
9.4212491905
 30
0.0
 10
20.4082091968
 20
9.4232539332
 30
0.0
 11
20.406641266
 21
9.3982539332
 31
0.0
 11
20.4067405144
 21
9.4046629577
 31
0.0
 11
20.4070371866
 21
9.4110087603
 31
0.0
 11
20.4075284823
 21
9.417226776
 31
0.0
 11
20.4082091968
 21
9.4232539332
 31
0.0
  0
SPLINE
  5
34E
100
AcDbEntity
  8
0
100
AcDbSpline
 62
6
  6
CONTINUOUS
 70
0
 71
3
 72
11
 73
7
 74
5
 42
0.0000001
 43
0.0000001
 44
0.0000000001
 12
0.0
 22
0.0251312922
 32
0.0
 13
0.0045857082
 23
0.0247093733
 33
0.0
 40
0.0
 40
0.0
 40
0.0
 40
0.0
 40
0.2550832148
 40
0.5081439459
 40
0.7571145486
 40
1.0
 40
1.0
 40
1.0
 40
1.0
 10
20.2564033061
 20
9.3982539332
 30
0.0
 10
20.2564033061
 20
9.4003907901
 30
0.0
 10
20.2564965185
 20
9.4046481479
 30
0.0
 10
20.2569145413
 20
9.4109788198
 30
0.0
 10
20.2576070631
 20
9.4171826255
 30
0.0
 10
20.2582563038
 20
9.4212534174
 30
0.0
 10
20.2586275711
 20
9.4232539332
 30
0.0
 11
20.2564033061
 21
9.3982539332
 31
0.0
 11
20.2565440999
 21
9.4046629577
 31
0.0
 11
20.2569649586
 21
9.4110087603
 31
0.0
 11
20.2576619102
 21
9.417226776
 31
0.0
 11
20.2586275711
 21
9.4232539332
 31
0.0
  0
SPLINE
  5
34F
100
AcDbEntity
  8
0
100
AcDbSpline
 62
6
  6
CONTINUOUS
 70
0
 71
3
 72
9
 73
5
 74
3
 42
0.0000001
 43
0.0000001
 44
0.0000000001
 12
0.0320071735
 22
0.0488446281
 32
0.0
 13
0.0298501588
 23
0.0501918805
 33
0.0
 40
0.0
 40
0.0
 40
0.0
 40
0.0
 40
0.5003992978
 40
1.0
 40
1.0
 40
1.0
 40
1.0
 10
2.9227676083
 20
7.8932539332
 30
0.0
 10
2.9281063973
 20
7.9014012057
 30
0.0
 10
2.9385432203
 20
7.9178353298
 30
0.0
 10
2.9486369032
 20
7.9344809699
 30
0.0
 10
2.9536079566
 20
7.9428396028
 30
0.0
 11
2.9227676083
 21
7.8932539332
 31
0.0
 11
2.938465633
 21
7.9179014175
 31
0.0
 11
2.9536079566
 21
7.9428396028
 31
0.0
  0
LINE
  5
350
100
AcDbEntity
  8
0
100
AcDbLine
 62
6
  6
CONTINUOUS
 10
2.9536079566
 20
7.9428396028
 11
2.9271867908
 21
7.8932539332
  0
SPLINE
  5
351
100
AcDbEntity
  8
0
100
AcDbSpline
 62
6
  6
CONTINUOUS
 70
0
 71
3
 72
11
 73
7
 74
5
 42
0.0000001
 43
0.0000001
 44
0.0000000001
 12
0.0
 22
0.0252130089
 32
0.0
 13
0.0058082869
 23
0.0245348654
 33
0.0
 40
0.0
 40
0.0
 40
0.0
 40
0.0
 40
0.2542949346
 40
0.5068816472
 40
0.756009035
 40
1.0
 40
1.0
 40
1.0
 40
1.0
 10
20.1160752696
 20
9.3982539332
 30
0.0
 10
20.1160752696
 20
9.4003911133
 30
0.0
 10
20.1161943389
 20
9.4046520712
 30
0.0
 10
20.1167282457
 20
9.4109866664
 30
0.0
 10
20.1176127821
 20
9.4171945109
 30
0.0
 10
20.1184401859
 20
9.4212585047
 30
0.0
 10
20.1189125758
 20
9.4232539332
 30
0.0
 11
20.1160752696
 21
9.3982539332
 31
0.0
 11
20.1162548682
 21
9.4046629577
 31
0.0
 11
20.1167917221
 21
9.4110087603
 31
0.0
 11
20.1176807641
 21
9.417226776
 31
0.0
 11
20.1189125758
 21
9.4232539332
 31
0.0
  0
SPLINE
  5
352
100
AcDbEntity
  8
0
100
AcDbSpline
 62
6
  6
CONTINUOUS
 70
0
 71
3
 72
9
 73
5
 74
3
 42
0.0000001
 43
0.0000001
 44
0.0000000001
 12
0.0376306816
 22
0.0488324207
 32
0.0
 13
0.0357337719
 23
0.0502371482
 33
0.0
 40
0.0
 40
0.0
 40
0.0
 40
0.0
 40
0.5005615267
 40
1.0
 40
1.0
 40
1.0
 40
1.0
 10
2.9875635202
 20
7.8932539332
 30
0.0
 10
2.993842344
 20
7.9014018102
 30
0.0
 10
3.006195147
 20
7.9178267116
 30
0.0
 10
3.0182423699
 20
7.9344761479
 30
0.0
 10
3.02419131
 20
7.9428396028
 30
0.0
 11
2.9875635202
 21
7.8932539332
 31
0.0
 11
3.0061324531
 21
7.9179014175
 31
0.0
 11
3.02419131
 21
7.9428396028
 31
0.0
  0
LINE
  5
353
100
AcDbEntity
  8
0
100
AcDbLine
 62
6
  6
CONTINUOUS
 10
3.02419131
 20
7.9428396028
 11
2.9906883541
 21
7.8932539332
  0
SPLINE
  5
354
100
AcDbEntity
  8
0
100
AcDbSpline
 62
6
  6
CONTINUOUS
 70
0
 71
3
 72
11
 73
7
 74
5
 42
0.0000001
 43
0.0000001
 44
0.0000000001
 12
0.0
 22
0.0229561186
 32
0.0
 13
-0.0052251908
 23
0.0223535403
 33
0.0
 40
0.0
 40
0.0
 40
0.0
 40
0.0
 40
0.2531523524
 40
0.5050733
 40
0.7544056891
 40
1.0
 40
1.0
 40
1.0
 40
1.0
 10
3.3546060688
 20
9.3982539332
 30
0.0
 10
3.3546060688
 20
9.400191065
 30
0.0
 10
3.3544981847
 20
9.4040567655
 30
0.0
 10
3.3540144674
 20
9.4098121738
 30
0.0
 10
3.3532121508
 20
9.4154735417
 30
0.0
 10
3.3524623674
 20
9.4191884671
 30
0.0
 10
3.3520346084
 20
9.4210184345
 30
0.0
 11
3.3546060688
 21
9.3982539332
 31
0.0
 11
3.3544436671
 21
9.404063059
 31
0.0
 11
3.3539579748
 21
9.4098257548
 31
0.0
 11
3.3531527839
 21
9.4154925399
 31
0.0
 11
3.3520346084
 21
9.4210184345
 31
0.0
  0
SPLINE
  5
355
100
AcDbEntity
  8
0
100
AcDbSpline
 62
6
  6
CONTINUOUS
 70
0
 71
3
 72
11
 73
7
 74
5
 42
0.0000001
 43
0.0000001
 44
0.0000000001
 12
0.0
 22
0.0251705607
 32
0.0
 13
-0.0052125183
 23
0.0246249219
 33
0.0
 40
0.0
 40
0.0
 40
0.0
 40
0.0
 40
0.2547037454
 40
0.5075361119
 40
0.7565819461
 40
1.0
 40
1.0
 40
1.0
 40
1.0
 10
3.2202714242
 20
9.3982539332
 30
0.0
 10
3.2202714242
 20
9.4003909452
 30
0.0
 10
3.2201650363
 20
9.4046500309
 30
0.0
 10
3.2196879569
 20
9.4109825933
 30
0.0
 10
3.2188975815
 20
9.4171883591
 30
0.0
 10
3.2181573991
 20
9.421255883
 30
0.0
 10
3.2177344588
 20
9.4232539332
 30
0.0
 11
3.2202714242
 21
9.3982539332
 31
0.0
 11
3.2201108369
 21
9.4046629577
 31
0.0
 11
3.2196308112
 21
9.4110087603
 31
0.0
 11
3.218835878
 21
9.417226776
 31
0.0
 11
3.2177344588
 21
9.4232539332
 31
0.0
  0
SPLINE
  5
356
100
AcDbEntity
  8
0
100
AcDbSpline
 62
6
  6
CONTINUOUS
 70
0
 71
3
 72
11
 73
7
 74
5
 42
0.0000001
 43
0.0000001
 44
0.0000000001
 12
0.0
 22
0.0250959977
 32
0.0
 13
-0.00393087
 23
0.0247862333
 33
0.0
 40
0.0
 40
0.0
 40
0.0
 40
0.0
 40
0.2554253387
 40
0.5086922417
 40
0.7575954057
 40
1.0
 40
1.0
 40
1.0
 40
1.0
 10
3.0746336598
 20
9.3982539332
 30
0.0
 10
3.0746336598
 20
9.4003906511
 30
0.0
 10
3.0745540537
 20
9.4046464592
 30
0.0
 10
3.0741970302
 20
9.4109754236
 30
0.0
 10
3.0736055773
 20
9.4171774372
 30
0.0
 10
3.0730505521
 20
9.4212511676
 30
0.0
 10
3.0727329318
 20
9.4232539332
 30
0.0
 11
3.0746336598
 21
9.3982539332
 31
0.0
 11
3.0745133456
 21
9.4046629577
 31
0.0
 11
3.0741537041
 21
9.4110087603
 31
0.0
 11
3.0735581296
 21
9.417226776
 31
0.0
 11
3.0727329318
 21
9.4232539332
 31
0.0
  0
SPLINE
  5
357
100
AcDbEntity
  8
0
100
AcDbSpline
 62
6
  6
CONTINUOUS
 70
0
 71
3
 72
11
 73
7
 74
5
 42
0.0000001
 43
0.0000001
 44
0.0000000001
 12
0.0
 22
0.0250401182
 32
0.0
 13
-0.0025512227
 23
0.024909813
 33
0.0
 40
0.0
 40
0.0
 40
0.0
 40
0.0
 40
0.2559690584
 40
0.509564169
 40
0.7583609183
 40
1.0
 40
1.0
 40
1.0
 40
1.0
 10
2.9205274488
 20
9.3982539332
 30
0.0
 10
2.9205274488
 20
9.4003904317
 30
0.0
 10
2.9204760877
 20
9.4046437927
 30
0.0
 10
2.9202457204
 20
9.4109700379
 30
0.0
 10
2.9198641061
 20
9.4171691546
 30
0.0
 10
2.9195054455
 20
9.4212475384
 30
0.0
 10
2.9192999538
 20
9.4232539332
 30
0.0
 11
2.9205274488
 21
9.3982539332
 31
0.0
 11
2.9204497496
 21
9.4046629577
 31
0.0
 11
2.9202174922
 21
9.4110087603
 31
0.0
 11
2.9198328687
 21
9.417226776
 31
0.0
 11
2.9192999538
 21
9.4232539332
 31
0.0
  0
SPLINE
  5
358
100
AcDbEntity
  8
0
100
AcDbSpline
 62
6
  6
CONTINUOUS
 70
0
 71
3
 72
11
 73
7
 74
5
 42
0.0000001
 43
0.0000001
 44
0.0000000001
 12
0.0
 22
0.0250206842
 32
0.0
 13
0.0018344326
 23
0.0249533464
 33
0.0
 40
0.0
 40
0.0
 40
0.0
 40
0.0
 40
0.2561587491
 40
0.509868522
 40
0.7586283669
 40
1.0
 40
1.0
 40
1.0
 40
1.0
 10
2.4378649381
 20
9.3982539332
 30
0.0
 10
2.4378649381
 20
9.4003903556
 30
0.0
 10
2.4379017923
 20
9.4046428674
 30
0.0
 10
2.4380670969
 20
9.4109681623
 30
0.0
 10
2.4383409268
 20
9.4171662544
 30
0.0
 10
2.4385984236
 20
9.4212462565
 30
0.0
 10
2.4387460169
 20
9.4232539332
 30
0.0
 11
2.4378649381
 21
9.3982539332
 31
0.0
 11
2.4379207095
 21
9.4046629577
 31
0.0
 11
2.4380874206
 21
9.4110087603
 31
0.0
 11
2.4383634981
 21
9.417226776
 31
0.0
 11
2.4387460169
 21
9.4232539332
 31
0.0
  0
SPLINE
  5
359
100
AcDbEntity
  8
0
100
AcDbSpline
 62
6
  6
CONTINUOUS
 70
0
 71
3
 72
11
 73
7
 74
5
 42
0.0000001
 43
0.0000001
 44
0.0000000001
 12
0.0
 22
0.0250653969
 32
0.0
 13
0.0032514322
 23
0.0248536176
 33
0.0
 40
0.0
 40
0.0
 40
0.0
 40
0.0
 40
0.2557227784
 40
0.5091691426
 40
0.7580139766
 40
1.0
 40
1.0
 40
1.0
 40
1.0
 10
2.280641266
 20
9.3982539332
 30
0.0
 10
2.280641266
 20
9.4003905308
 30
0.0
 10
2.2807068998
 20
9.4046449978
 30
0.0
 10
2.2810012729
 20
9.4109724756
 30
0.0
 10
2.2814889264
 20
9.4171729119
 30
0.0
 10
2.2819469298
 20
9.4212491905
 30
0.0
 10
2.2822091968
 20
9.4232539332
 30
0.0
 11
2.280641266
 21
9.3982539332
 31
0.0
 11
2.2807405144
 21
9.4046629577
 31
0.0
 11
2.2810371866
 21
9.4110087603
 31
0.0
 11
2.2815284823
 21
9.417226776
 31
0.0
 11
2.2822091968
 21
9.4232539332
 31
0.0
  0
SPLINE
  5
35A
100
AcDbEntity
  8
0
100
AcDbSpline
 62
6
  6
CONTINUOUS
 70
0
 71
3
 72
11
 73
7
 74
5
 42
0.0000001
 43
0.0000001
 44
0.0000000001
 12
0.0
 22
0.0251312922
 32
0.0
 13
0.0045857082
 23
0.0247093733
 33
0.0
 40
0.0
 40
0.0
 40
0.0
 40
0.0
 40
0.2550832148
 40
0.5081439459
 40
0.7571145486
 40
1.0
 40
1.0
 40
1.0
 40
1.0
 10
2.1304033061
 20
9.3982539332
 30
0.0
 10
2.1304033061
 20
9.4003907901
 30
0.0
 10
2.1304965185
 20
9.4046481479
 30
0.0
 10
2.1309145413
 20
9.4109788198
 30
0.0
 10
2.1316070631
 20
9.4171826255
 30
0.0
 10
2.1322563038
 20
9.4212534174
 30
0.0
 10
2.1326275711
 20
9.4232539332
 30
0.0
 11
2.1304033061
 21
9.3982539332
 31
0.0
 11
2.1305440999
 21
9.4046629577
 31
0.0
 11
2.1309649586
 21
9.4110087603
 31
0.0
 11
2.1316619102
 21
9.417226776
 31
0.0
 11
2.1326275711
 21
9.4232539332
 31
0.0
  0
SPLINE
  5
35B
100
AcDbEntity
  8
0
100
AcDbSpline
 62
6
  6
CONTINUOUS
 70
0
 71
3
 72
52
 73
48
 74
46
 42
0.0000001
 43
0.0000001
 44
0.0000000001
 12
0.0045306903
 22
0.0871676986
 32
0.0
 13
-0.0682057856
 23
-0.0544674733
 33
0.0
 40
0.0
 40
0.0
 40
0.0
 40
0.0
 40
0.0068098392
 40
0.0129128442
 40
0.0183096901
 40
0.0230222159
 40
0.0251400276
 40
0.0271131595
 40
0.0306924048
 40
0.0323581724
 40
0.0339844679
 40
0.0356119339
 40
0.0372829862
 40
0.040896637
 40
0.0429044588
 40
0.0450716017
 40
0.0474124109
 40
0.0499372986
 40
0.0555649271
 40
0.0619918261
 40
0.0692308091
 40
0.0772818005
 40
0.0861367792
 40
0.0957803982
 40
0.1061854857
 40
0.1173200168
 40
0.129149845
 40
0.154751529
 40
0.1826951854
 40
0.1974501867
 40
0.2126788017
 40
0.2444697108
 40
0.2779117853
 40
0.3128524129
 40
0.3491394449
 40
0.3866343474
 40
0.4252447991
 40
0.464889563
 40
0.5054885461
 40
0.5469646939
 40
0.5892591845
 40
0.632323744
 40
0.6761112284
 40
0.72057591
 40
0.8114025255
 40
0.9045994313
 40
1.0
 40
1.0
 40
1.0
 40
1.0
 10
21.7704015904
 20
9.2382121866
 30
0.0
 10
21.7704118748
 20
9.2384100526
 30
0.0
 10
21.7704215917
 20
9.2387858911
 30
0.0
 10
21.7703988246
 20
9.2393186639
 30
0.0
 10
21.770337211
 20
9.2397870371
 30
0.0
 10
21.7702498348
 20
9.2401332044
 30
0.0
 10
21.7701566931
 20
9.2403722194
 30
0.0
 10
21.7700563268
 20
9.2405717021
 30
0.0
 10
21.76993144
 20
9.2407439767
 30
0.0
 10
21.769780675
 20
9.2408763682
 30
0.0
 10
21.7696590181
 20
9.2409529987
 30
0.0
 10
21.7695261916
 20
9.241008489
 30
0.0
 10
21.7693298129
 20
9.2410552608
 30
0.0
 10
21.7691147846
 20
9.2410567741
 30
0.0
 10
21.7688907361
 20
9.2410219435
 30
0.0
 10
21.7687066761
 20
9.2409753252
 30
0.0
 10
21.7685127889
 20
9.2409094053
 30
0.0
 10
21.7682308381
 20
9.2407917904
 30
0.0
 10
21.767854523
 20
9.2405943347
 30
0.0
 10
21.7673803326
 20
9.2402931312
 30
0.0
 10
21.7668690678
 20
9.2399212802
 30
0.0
 10
21.7663216591
 20
9.2394806559
 30
0.0
 10
21.7657391176
 20
9.2389731223
 30
0.0
 10
21.7651227027
 20
9.2384009137
 30
0.0
 10
21.7644731918
 20
9.2377673338
 30
0.0
 10
21.7637916134
 20
9.2370758349
 30
0.0
 10
21.7628155493
 20
9.2360540264
 30
0.0
 10
21.7615277482
 20
9.2346539927
 30
0.0
 10
21.7602040357
 20
9.2331718037
 30
0.0
 10
21.7590888008
 20
9.2319081447
 30
0.0
 10
21.7579030624
 20
9.2305574219
 30
0.0
 10
21.7563633102
 20
9.2287940047
 30
0.0
 10
21.7544475393
 20
9.2265975306
 30
0.0
 10
21.75244132
 20
9.2243063645
 30
0.0
 10
21.7503474979
 20
9.2219351953
 30
0.0
 10
21.7481678912
 20
9.219497402
 30
0.0
 10
21.7459051926
 20
9.2170029582
 30
0.0
 10
21.7435609335
 20
9.2144607061
 30
0.0
 10
21.7411364764
 20
9.2118791752
 30
0.0
 10
21.7386326532
 20
9.2092666578
 30
0.0
 10
21.7360507417
 20
9.2066299005
 30
0.0
 10
21.733391842
 20
9.2039747316
 30
0.0
 10
21.7306567816
 20
9.2013068196
 30
0.0
 10
21.7268825371
 20
9.1977146572
 30
0.0
 10
21.7219795879
 20
9.1932239555
 30
0.0
 10
21.7158411832
 20
9.1878920084
 30
0.0
 10
21.7116007276
 20
9.1844080567
 30
0.0
 10
21.7094317707
 20
9.1826759807
 30
0.0
 11
21.7704015904
 21
9.2382121866
 31
0.0
 11
21.7704149556
 21
9.2388064356
 31
0.0
 11
21.7703896649
 21
9.2393385379
 31
0.0
 11
21.7703249712
 21
9.2398051401
 31
0.0
 11
21.7702201275
 21
9.2402028886
 31
0.0
 11
21.7701524159
 21
9.2403748948
 31
0.0
 11
21.7700743866
 21
9.2405284301
 31
0.0
 11
21.7698870015
 21
9.2407784109
 31
0.0
 11
21.7697774589
 21
9.2408740181
 31
0.0
 11
21.7696572251
 21
9.2409494776
 31
0.0
 11
21.7695262111
 21
9.2410043837
 31
0.0
 11
21.769384435
 21
9.2410386502
 31
0.0
 11
21.7690691074
 21
9.241046237
 31
0.0
 11
21.7688958191
 21
9.2410200656
 31
0.0
 11
21.7687122899
 21
9.2409742565
 31
0.0
 11
21.7685186512
 21
9.2409090639
 31
0.0
 11
21.7683150348
 21
9.2408247418
 31
0.0
 11
21.7678783945
 21
9.240599726
 31
0.0
 11
21.7674034214
 21
9.2403012421
 31
0.0
 11
21.7668911678
 21
9.2399313233
 31
0.0
 11
21.7663426862
 21
9.2394920026
 31
0.0
 11
21.765759029
 21
9.2389853132
 31
0.0
 11
21.7651412507
 21
9.2384135723
 31
0.0
 11
21.764490414
 21
9.2377801212
 31
0.0
 11
21.7638075834
 21
9.2370885315
 31
0.0
 11
21.7630938234
 21
9.2363423753
 31
0.0
 11
21.7615777728
 21
9.23470065
 31
0.0
 11
21.7599507782
 21
9.2328835199
 31
0.0
 11
21.759098338
 21
9.2319181076
 31
0.0
 11
21.758221256
 21
9.2309193116
 31
0.0
 11
21.7563950933
 21
9.2288300307
 31
0.0
 11
21.7544755012
 21
9.2266309972
 31
0.0
 11
21.7524655626
 21
9.2243372099
 31
0.0
 11
21.7503683603
 21
9.2219636679
 31
0.0
 11
21.7481866561
 21
9.2195241802
 31
0.0
 11
21.7459220646
 21
9.2170283069
 31
0.0
 11
21.7435759446
 21
9.2144846595
 31
0.0
 11
21.7411496548
 21
9.2119018497
 31
0.0
 11
21.7386445217
 21
9.2092883089
 31
0.0
 11
21.7360615596
 21
9.2066507187
 31
0.0
 11
21.7334016068
 21
9.2039947775
 31
0.0
 11
21.7306655
 21
9.2013261724
 31
0.0
 11
21.7278540689
 21
9.1986505573
 31
0.0
 11
21.7220075947
 21
9.1932961856
 31
0.0
 11
21.7158658249
 21
9.1879621038
 31
0.0
 11
21.7094317707
 21
9.1826759807
 31
0.0
  0
SPLINE
  5
35C
100
AcDbEntity
  8
0
100
AcDbSpline
 62
6
  6
CONTINUOUS
 70
0
 71
3
 72
11
 73
7
 74
5
 42
0.0000001
 43
0.0000001
 44
0.0000000001
 12
0.0
 22
0.0252130089
 32
0.0
 13
0.0058082869
 23
0.0245348654
 33
0.0
 40
0.0
 40
0.0
 40
0.0
 40
0.0
 40
0.2542949346
 40
0.5068816472
 40
0.756009035
 40
1.0
 40
1.0
 40
1.0
 40
1.0
 10
1.9900752696
 20
9.3982539332
 30
0.0
 10
1.9900752696
 20
9.4003911133
 30
0.0
 10
1.9901943389
 20
9.4046520712
 30
0.0
 10
1.9907282457
 20
9.4109866664
 30
0.0
 10
1.9916127821
 20
9.4171945109
 30
0.0
 10
1.9924401859
 20
9.4212585047
 30
0.0
 10
1.9929125758
 20
9.4232539332
 30
0.0
 11
1.9900752696
 21
9.3982539332
 31
0.0
 11
1.9902548682
 21
9.4046629577
 31
0.0
 11
1.9907917221
 21
9.4110087603
 31
0.0
 11
1.9916807641
 21
9.417226776
 31
0.0
 11
1.9929125758
 21
9.4232539332
 31
0.0
  0
SPLINE
  5
35D
100
AcDbEntity
  8
0
100
AcDbSpline
 62
6
  6
CONTINUOUS
 70
0
 71
3
 72
52
 73
48
 74
46
 42
0.0000001
 43
0.0000001
 44
0.0000000001
 12
0.0093359224
 22
0.1533105412
 32
0.0
 13
-0.1307371608
 23
-0.0806168486
 33
0.0
 40
0.0
 40
0.0
 40
0.0
 40
0.0
 40
0.0230666397
 40
0.0451619196
 40
0.0661888042
 40
0.0762835144
 40
0.086072387
 40
0.0955356021
 40
0.1046637424
 40
0.113460687
 40
0.1177418853
 40
0.1219496943
 40
0.1301663157
 40
0.1381701419
 40
0.1460381826
 40
0.1538739384
 40
0.1618061872
 40
0.1699840663
 40
0.1785659231
 40
0.1876803899
 40
0.1974124252
 40
0.2078142082
 40
0.218912715
 40
0.2307160618
 40
0.2432184156
 40
0.2564021565
 40
0.2702382638
 40
0.284688962
 40
0.2997100068
 40
0.3152523538
 40
0.3312646497
 40
0.3477109903
 40
0.3818088012
 40
0.4173455174
 40
0.4355881272
 40
0.4541173617
 40
0.4919764307
 40
0.5308050327
 40
0.5704889821
 40
0.6109406647
 40
0.6520862533
 40
0.6938561389
 40
0.7361978259
 40
0.7790664791
 40
0.822420057
 40
0.9104439536
 40
1.0
 40
1.0
 40
1.0
 40
1.0
 10
21.7118442742
 20
9.2190396878
 30
0.0
 10
21.7119160569
 20
9.2202184741
 30
0.0
 10
21.7119822661
 20
9.222531949
 30
0.0
 10
21.7118286367
 20
9.2259204229
 30
0.0
 10
21.7114739795
 20
9.2286262533
 30
0.0
 10
21.7110451815
 20
9.2306773213
 30
0.0
 10
21.7106559262
 20
9.2321294467
 30
0.0
 10
21.7101918383
 20
9.23350751
 30
0.0
 10
21.7096501404
 20
9.2348022892
 30
0.0
 10
21.7091268271
 20
9.2358134052
 30
0.0
 10
21.708665739
 20
9.2365691934
 30
0.0
 10
21.7081845837
 20
9.23727666
 30
0.0
 10
21.707529033
 20
9.2380945686
 30
0.0
 10
21.7066478239
 20
9.2389618155
 30
0.0
 10
21.7056770444
 20
9.239696554
 30
0.0
 10
21.7046161308
 20
9.2402872901
 30
0.0
 10
21.7034651875
 20
9.240722414
 30
0.0
 10
21.7022250842
 20
9.240990855
 30
0.0
 10
21.7008993152
 20
9.2410812738
 30
0.0
 10
21.699494278
 20
9.241000363
 30
0.0
 10
21.6980144874
 20
9.2407560876
 30
0.0
 10
21.6964646721
 20
9.2403551762
 30
0.0
 10
21.6948496471
 20
9.2398040944
 30
0.0
 10
21.6931743743
 20
9.2391091132
 30
0.0
 10
21.6914442273
 20
9.2382761743
 30
0.0
 10
21.6896625534
 20
9.2373157808
 30
0.0
 10
21.6878322843
 20
9.2362388023
 30
0.0
 10
21.6859565149
 20
9.2350559725
 30
0.0
 10
21.6840383606
 20
9.2337781053
 30
0.0
 10
21.6820809856
 20
9.2324159137
 30
0.0
 10
21.6800865569
 20
9.2309798473
 30
0.0
 10
21.6773476434
 20
9.2289524303
 30
0.0
 10
21.6738490266
 20
9.2262718776
 30
0.0
 10
21.6703158576
 20
9.2234862719
 30
0.0
 10
21.6674209523
 20
9.2211787113
 30
0.0
 10
21.6644387276
 20
9.2187899568
 30
0.0
 10
21.6606407839
 20
9.2157337173
 30
0.0
 10
21.6559975464
 20
9.2120003115
 30
0.0
 10
21.6512370868
 20
9.2082008951
 30
0.0
 10
21.6463617222
 20
9.2043554114
 30
0.0
 10
21.6413731669
 20
9.2004812239
 30
0.0
 10
21.6362714064
 20
9.1965954541
 30
0.0
 10
21.6310584529
 20
9.1927106374
 30
0.0
 10
21.6257358372
 20
9.1888379373
 30
0.0
 10
21.6184572899
 20
9.1836792507
 30
0.0
 10
21.6091001603
 20
9.1773212248
 30
0.0
 10
21.6014344155
 20
9.1724298222
 30
0.0
 10
21.5975316478
 20
9.1700232468
 30
0.0
 11
21.7118442742
 21
9.2190396878
 31
0.0
 11
21.7119390727
 21
9.2225813291
 31
0.0
 11
21.7117769849
 21
9.2259711704
 31
0.0
 11
21.711346897
 21
9.2291720195
 31
0.0
 11
21.7110277151
 21
9.230689303
 31
0.0
 11
21.7106362344
 21
9.2321409598
 31
0.0
 11
21.7101698567
 21
9.2335176038
 31
0.0
 11
21.7096259838
 21
9.2348098488
 31
0.0
 11
21.7090020174
 21
9.2360083088
 31
0.0
 11
21.7086591872
 21
9.2365694363
 31
0.0
 11
21.7082953593
 21
9.2371035976
 31
0.0
 11
21.7075035086
 21
9.2380862917
 31
0.0
 11
21.7066252354
 21
9.2389464794
 31
0.0
 11
21.7056602007
 21
9.2396739073
 31
0.0
 11
21.7046080835
 21
9.2402583147
 31
0.0
 11
21.703468563
 21
9.2406894411
 31
0.0
 11
21.7022413185
 21
9.240957026
 31
0.0
 11
21.7009266611
 21
9.2410525922
 31
0.0
 11
21.6995286975
 21
9.2409783738
 31
0.0
 11
21.6980529449
 21
9.2407405847
 31
0.0
 11
21.6965049225
 21
9.2403454457
 31
0.0
 11
21.6948901499
 21
9.2397991772
 31
0.0
 11
21.6932141464
 21
9.239108
 31
0.0
 11
21.6914821843
 21
9.2382786428
 31
0.0
 11
21.6896980485
 21
9.2373208932
 31
0.0
 11
21.6878649701
 21
9.236245678
 31
0.0
 11
21.6859861789
 21
9.2350639257
 31
0.0
 11
21.6840649052
 21
9.233786565
 31
0.0
 11
21.682104379
 21
9.2324245245
 31
0.0
 11
21.6801077353
 21
9.2309885343
 31
0.0
 11
21.6780767526
 21
9.2294864927
 31
0.0
 11
21.6739148149
 21
9.2263073527
 31
0.0
 11
21.6696245345
 21
9.2229330473
 31
0.0
 11
21.6674331134
 21
9.2211869995
 31
0.0
 11
21.6652115814
 21
9.2194081094
 31
0.0
 11
21.6606792167
 21
9.2157651342
 31
0.0
 11
21.6560294511
 21
9.2120305233
 31
0.0
 11
21.651264213
 21
9.2082299405
 31
0.0
 11
21.6463848473
 21
9.2043834985
 31
0.0
 11
21.641392416
 21
9.2005086162
 31
0.0
 11
21.6362879964
 21
9.1966220804
 31
0.0
 11
21.63107278
 21
9.1927366715
 31
0.0
 11
21.6257480037
 21
9.1888635641
 31
0.0
 11
21.6203149299
 21
9.1850135908
 31
0.0
 11
21.6091294838
 21
9.1774191248
 31
0.0
 11
21.5975316478
 21
9.1700232468
 31
0.0
  0
SPLINE
  5
35E
100
AcDbEntity
  8
0
100
AcDbSpline
 62
6
  6
CONTINUOUS
 70
0
 71
3
 72
61
 73
57
 74
55
 42
0.0000001
 43
0.0000001
 44
0.0000000001
 12
0.0145338424
 22
0.2128469353
 32
0.0
 13
-0.1843724377
 23
-0.1073399025
 33
0.0
 40
0.0
 40
0.0
 40
0.0
 40
0.0
 40
0.0227308571
 40
0.0454572462
 40
0.0681888477
 40
0.0908902112
 40
0.1022201024
 40
0.1135315006
 40
0.1248240442
 40
0.1360927146
 40
0.1585128454
 40
0.1696631985
 40
0.1807750088
 40
0.1863201454
 40
0.191858832
 40
0.2029118663
 40
0.2139372781
 40
0.2249536627
 40
0.2359988772
 40
0.247130722
 40
0.2584095803
 40
0.2698978779
 40
0.2757465109
 40
0.2816782651
 40
0.2877053966
 40
0.2938410341
 40
0.306482293
 40
0.3196695619
 40
0.3334300045
 40
0.3477665891
 40
0.3551474473
 40
0.3626652308
 40
0.3781013697
 40
0.3940549942
 40
0.4104913237
 40
0.4273642754
 40
0.4359478154
 40
0.4446198863
 40
0.4622151048
 40
0.4801269201
 40
0.516799338
 40
0.5355058655
 40
0.5544279059
 40
0.5735498219
 40
0.5928557455
 40
0.6123294447
 40
0.6319548406
 40
0.6716121341
 40
0.7117397155
 40
0.7522556255
 40
0.7930927075
 40
0.8341888677
 40
0.8754867063
 40
0.9169321832
 40
0.9584624458
 40
1.0
 40
1.0
 40
1.0
 40
1.0
 10
21.5991327433
 20
9.1922481882
 30
0.0
 10
21.5992428656
 20
9.1938609193
 30
0.0
 10
21.5993483961
 20
9.1970950973
 30
0.0
 10
21.5991593521
 20
9.2019445697
 30
0.0
 10
21.5986228441
 20
9.2067661482
 30
0.0
 10
21.597875205
 20
9.2107374823
 30
0.0
 10
21.5970894258
 20
9.2138655668
 30
0.0
 10
21.5964050951
 20
9.2161804217
 30
0.0
 10
21.5956240709
 20
9.2184599934
 30
0.0
 10
21.5944533853
 20
9.2214376454
 30
0.0
 10
21.5930762284
 20
9.224320893
 30
0.0
 10
21.5914790578
 20
9.2270693781
 30
0.0
 10
21.5903884251
 20
9.228720496
 30
0.0
 10
21.5894590898
 20
9.2299966081
 30
0.0
 10
21.5884925891
 20
9.2312395129
 30
0.0
 10
21.5872101445
 20
9.232729223
 30
0.0
 10
21.5855462042
 20
9.2343968977
 30
0.0
 10
21.5837530248
 20
9.2359246815
 30
0.0
 10
21.5818257783
 20
9.2372934037
 30
0.0
 10
21.579760695
 20
9.2384825802
 30
0.0
 10
21.5775585217
 20
9.2394732265
 30
0.0
 10
21.5756228422
 20
9.240114095
 30
0.0
 10
21.5740154042
 20
9.2405095405
 30
0.0
 10
21.5727708181
 20
9.2407467258
 30
0.0
 10
21.5714951757
 20
9.2409202507
 30
0.0
 10
21.5697364594
 20
9.241065023
 30
0.0
 10
21.5674591803
 20
9.2410697446
 30
0.0
 10
21.5646520359
 20
9.2408149606
 30
0.0
 10
21.5617563926
 20
9.240313757
 30
0.0
 10
21.5593052169
 20
9.2397078514
 30
0.0
 10
21.5573120689
 20
9.2391155851
 30
0.0
 10
21.5552630607
 20
9.2384399624
 30
0.0
 10
21.5526723048
 20
9.237464865
 30
0.0
 10
21.5495465787
 20
9.236121808
 30
0.0
 10
21.5463824315
 20
9.2346164196
 30
0.0
 10
21.5437335794
 20
9.2332520249
 30
0.0
 10
21.5415976853
 20
9.2320993704
 30
0.0
 10
21.5394303349
 20
9.230897186
 30
0.0
 10
21.5367074594
 20
9.2293293751
 30
0.0
 10
21.5323058019
 20
9.2266883375
 30
0.0
 10
21.5278976482
 20
9.2239062742
 30
0.0
 10
21.5234693045
 20
9.221023757
 30
0.0
 10
21.5201035224
 20
9.2187968194
 30
0.0
 10
21.5167159704
 20
9.2165257207
 30
0.0
 10
21.5133065095
 20
9.2142169391
 30
0.0
 10
21.5098750754
 20
9.2118768029
 30
0.0
 10
21.5052540023
 20
9.20871239
 30
0.0
 10
21.4994267757
 20
9.204709769
 30
0.0
 10
21.4923679696
 20
9.1998762311
 30
0.0
 10
21.4852170073
 20
9.1950288892
 30
0.0
 10
21.4779773068
 20
9.1901899663
 30
0.0
 10
21.4706506241
 20
9.1853815951
 30
0.0
 10
21.4632406168
 20
9.1806220441
 30
0.0
 10
21.4557521755
 20
9.1759283982
 30
0.0
 10
21.4481921623
 20
9.1713180596
 30
0.0
 10
21.4431082676
 20
9.1683092641
 30
0.0
 10
21.4405554742
 20
9.1668230517
 30
0.0
 11
21.5991327433
 21
9.1922481882
 31
0.0
 11
21.5992905065
 21
9.1970950807
 31
0.0
 11
21.5991014321
 21
9.2019398989
 31
0.0
 11
21.5985623284
 21
9.2067594594
 31
0.0
 11
21.5976624536
 21
9.2115182926
 31
0.0
 11
21.5970730218
 21
9.2138624715
 31
0.0
 11
21.5963883502
 21
9.2161765096
 31
0.0
 11
21.5956067427
 21
9.2184553775
 31
0.0
 11
21.5947259459
 21
9.2206923021
 31
0.0
 11
21.5926547542
 21
9.2250037825
 31
0.0
 11
21.591458267
 21
9.2270598277
 31
0.0
 11
21.5901504572
 21
9.2290370689
 31
0.0
 11
21.5894538537
 21
9.2299932409
 31
0.0
 11
21.5887282137
 21
9.2309258255
 31
0.0
 11
21.5871876057
 21
9.2327110653
 31
0.0
 11
21.5855241431
 21
9.2343741012
 31
0.0
 11
21.5837333249
 21
9.2358961753
 31
0.0
 11
21.58181065
 21
9.2372585299
 31
0.0
 11
21.5797518693
 21
9.2384424026
 31
0.0
 11
21.5775571474
 21
9.239428955
 31
0.0
 11
21.5752304082
 21
9.2401992835
 31
0.0
 11
21.574018796
 21
9.2404974558
 31
0.0
 11
21.572775696
 21
9.2407344824
 31
0.0
 11
21.5715016137
 21
9.2409080003
 31
0.0
 11
21.5701970547
 21
9.2410156462
 31
0.0
 11
21.5675001689
 21
9.2410289321
 31
0.0
 11
21.5646976351
 21
9.2407818356
 31
0.0
 11
21.5618038711
 21
9.240287473
 31
0.0
 11
21.5588332943
 21
9.2395589603
 31
0.0
 11
21.5573237067
 21
9.2391109964
 31
0.0
 11
21.5558002792
 21
9.2386094529
 31
0.0
 11
21.5527161103
 21
9.2374549084
 31
0.0
 11
21.5495869765
 21
9.2361159059
 31
0.0
 11
21.5464185906
 21
9.2346134565
 31
0.0
 11
21.5432166649
 21
9.2329685711
 31
0.0
 11
21.54160491
 21
9.2320992809
 31
0.0
 11
21.5399868535
 21
9.2312021498
 31
0.0
 11
21.5367326441
 21
9.2293309995
 31
0.0
 11
21.5334547777
 21
9.2273667368
 31
0.0
 11
21.5268303303
 21
9.2232040031
 31
0.0
 11
21.5234848612
 21
9.2210279728
 31
0.0
 11
21.520117638
 21
9.2188012755
 31
0.0
 11
21.5167285939
 21
9.216530405
 31
0.0
 11
21.5133176515
 21
9.214221773
 31
0.0
 11
21.5098847333
 21
9.211881791
 31
0.0
 11
21.5064297587
 21
9.2095167218
 31
0.0
 11
21.4994531927
 21
9.2047303777
 31
0.0
 11
21.4923869863
 21
9.1998973561
 31
0.0
 11
21.4852306856
 21
9.1950494607
 31
0.0
 11
21.4779858937
 21
9.1902103544
 31
0.0
 11
21.4706548102
 21
9.1854014743
 31
0.0
 11
21.4632407499
 21
9.1806414165
 31
0.0
 11
21.4557477865
 21
9.1759469563
 31
0.0
 11
21.4481825302
 21
9.1713350632
 31
0.0
 11
21.4405554742
 21
9.1668230517
 31
0.0
  0
SPLINE
  5
35F
100
AcDbEntity
  8
0
100
AcDbSpline
 62
6
  6
CONTINUOUS
 70
0
 71
3
 72
63
 73
59
 74
57
 42
0.0000001
 43
0.0000001
 44
0.0000000001
 12
0.0148556804
 22
0.2628175015
 32
0.0
 13
-0.2249171604
 23
-0.1367698844
 33
0.0
 40
0.0
 40
0.0
 40
0.0
 40
0.0
 40
0.0200874408
 40
0.0407518165
 40
0.0620336285
 40
0.072914887
 40
0.0839562923
 40
0.1065148941
 40
0.1180350342
 40
0.1297142059
 40
0.1415523201
 40
0.1535470648
 40
0.1656920191
 40
0.1779819892
 40
0.1904138503
 40
0.2029866891
 40
0.2157005544
 40
0.2285491872
 40
0.2415275188
 40
0.2546364829
 40
0.2678835464
 40
0.2812788392
 40
0.2948224821
 40
0.3085250457
 40
0.3224160149
 40
0.336542754
 40
0.3509379509
 40
0.3656284493
 40
0.3731001972
 40
0.3806651543
 40
0.3883325456
 40
0.396110184
 40
0.4040011179
 40
0.412006256
 40
0.4283519515
 40
0.4366896358
 40
0.4451304953
 40
0.4536689104
 40
0.4622999902
 40
0.4710223762
 40
0.4798341464
 40
0.4977107796
 40
0.5158925713
 40
0.5250819808
 40
0.5343268309
 40
0.5529664192
 40
0.5717926776
 40
0.5907854495
 40
0.6099207639
 40
0.6485310237
 40
0.6874925067
 40
0.7266834556
 40
0.7660078905
 40
0.8447076269
 40
0.8839201754
 40
0.9229345396
 40
0.961665115
 40
1.0
 40
1.0
 40
1.0
 40
1.0
 10
3.3145554742
 20
9.1668230517
 30
0.0
 10
3.3146549451
 20
9.1685828287
 30
0.0
 10
3.314682852
 20
9.1721646206
 30
0.0
 10
3.3142422985
 20
9.1775960206
 30
0.0
 10
3.3134899796
 20
9.1821752504
 30
0.0
 10
3.3126649816
 20
9.1858761181
 30
0.0
 10
3.3116761344
 20
9.1896525705
 30
0.0
 10
3.3104640786
 20
9.1934257981
 30
0.0
 10
3.3090370669
 20
9.1971793378
 30
0.0
 10
3.307844715
 20
9.2000138073
 30
0.0
 10
3.3065378462
 20
9.2028431976
 30
0.0
 10
3.3051158512
 20
9.2056624184
 30
0.0
 10
3.3035753171
 20
9.2084640441
 30
0.0
 10
3.3019134548
 20
9.2112403039
 30
0.0
 10
3.3001274215
 20
9.2139833422
 30
0.0
 10
3.2982143563
 20
9.2166851118
 30
0.0
 10
3.2961723926
 20
9.2193372461
 30
0.0
 10
3.2939962759
 20
9.2219273147
 30
0.0
 10
3.2916806869
 20
9.2244410482
 30
0.0
 10
3.289220747
 20
9.2268640614
 30
0.0
 10
3.2866117447
 20
9.2291814964
 30
0.0
 10
3.2838507593
 20
9.2313778834
 30
0.0
 10
3.2809290546
 20
9.2334267836
 30
0.0
 10
3.2778395387
 20
9.2352990341
 30
0.0
 10
3.2745759267
 20
9.2369650828
 30
0.0
 10
3.2711350266
 20
9.2383935425
 30
0.0
 10
3.2675208434
 20
9.2395545951
 30
0.0
 10
3.2643890285
 20
9.2402692952
 30
0.0
 10
3.2618120155
 20
9.2406777093
 30
0.0
 10
3.2598314456
 20
9.2408993088
 30
0.0
 10
3.2578159093
 20
9.2410298836
 30
0.0
 10
3.2557679378
 20
9.2410675353
 30
0.0
 10
3.2536906835
 20
9.2410154499
 30
0.0
 10
3.2508671944
 20
9.2408280447
 30
0.0
 10
3.2480182059
 20
9.2404697595
 30
0.0
 10
3.2451569609
 20
9.2399567387
 30
0.0
 10
3.2429842977
 20
9.2394916202
 30
0.0
 10
3.2408027065
 20
9.2389510994
 30
0.0
 10
3.2386148748
 20
9.2383375677
 30
0.0
 10
3.2364223326
 20
9.2376555424
 30
0.0
 10
3.2334801334
 20
9.2366557344
 30
0.0
 10
3.2297989765
 20
9.23525523
 30
0.0
 10
3.2261466848
 20
9.2336960722
 30
0.0
 10
3.2232237008
 20
9.2323620804
 30
0.0
 10
3.2202845579
 20
9.2309675973
 30
0.0
 10
3.2166178182
 20
9.2291351043
 30
0.0
 10
3.2122391553
 20
9.2268171226
 30
0.0
 10
3.2078691811
 20
9.2243920337
 30
0.0
 10
3.2020352802
 20
9.2210292955
 30
0.0
 10
3.1947671082
 20
9.2166483092
 30
0.0
 10
3.1860903874
 20
9.2111995194
 30
0.0
 10
3.1774210989
 20
9.2056225543
 30
0.0
 10
3.1658653266
 20
9.1980882918
 30
0.0
 10
3.1543237015
 20
9.1905288714
 30
0.0
 10
3.1427603421
 20
9.1830526977
 30
0.0
 10
3.1341102669
 20
9.1775302908
 30
0.0
 10
3.1254837035
 20
9.1721146594
 30
0.0
 10
3.1197244347
 20
9.1685707377
 30
0.0
 10
3.1168503769
 20
9.1668230517
 30
0.0
 11
3.3145554742
 21
9.1668230517
 31
0.0
 11
3.3146053572
 21
9.1721105746
 31
0.0
 11
3.3141740056
 21
9.1775330737
 31
0.0
 11
3.3132735095
 21
9.1830623876
 31
0.0
 11
3.3126511055
 21
9.185858298
 31
0.0
 11
3.3119153618
 21
9.1886701412
 31
0.0
 11
3.3101029956
 21
9.1943250728
 31
0.0
 11
3.3090257532
 21
9.1971598163
 31
0.0
 11
3.307834058
 21
9.1999938486
 31
0.0
 11
3.3065275958
 21
9.2028229908
 31
0.0
 11
3.3051053164
 21
9.2056419765
 31
0.0
 11
3.3035646103
 21
9.2084432341
 31
0.0
 11
3.3019026687
 21
9.2112188977
 31
0.0
 11
3.300116683
 21
9.2139611015
 31
0.0
 11
3.2982038445
 21
9.2166619799
 31
0.0
 11
3.2961611605
 21
9.2193130636
 31
0.0
 11
3.2939843644
 21
9.2219017077
 31
0.0
 11
3.2916686504
 21
9.2244135005
 31
0.0
 11
3.2892092111
 21
9.2268340242
 31
0.0
 11
3.2866012388
 21
9.229148861
 31
0.0
 11
3.2838397403
 21
9.2313415234
 31
0.0
 11
3.2809188479
 21
9.2333857725
 31
0.0
 11
3.2778324362
 21
9.2352524998
 31
0.0
 11
3.27457438
 21
9.2369125963
 31
0.0
 11
3.2711392513
 21
9.2383368426
 31
0.0
 11
3.2675310736
 21
9.2394945205
 31
0.0
 11
3.2637606739
 21
9.2403538329
 31
0.0
 11
3.2618180711
 21
9.2406616581
 31
0.0
 11
3.259839029
 21
9.2408829591
 31
0.0
 11
3.2578249332
 21
9.2410137996
 31
0.0
 11
3.255777939
 21
9.2410526294
 31
0.0
 11
3.2537013812
 21
9.2410015512
 31
0.0
 11
3.2515986938
 21
9.2408629764
 31
0.0
 11
3.2473286671
 21
9.2403329831
 31
0.0
 11
3.2451681962
 21
9.2399463875
 31
0.0
 11
3.2429953324
 21
9.2394819412
 31
0.0
 11
3.2408135095
 21
9.2389420561
 31
0.0
 11
3.2386256069
 21
9.2383295565
 31
0.0
 11
3.2364328961
 21
9.2376484634
 31
0.0
 11
3.2342363592
 21
9.2369030132
 31
0.0
 11
3.2298357339
 21
9.235235988
 31
0.0
 11
3.2254315859
 21
9.2333623735
 31
0.0
 11
3.2232306454
 21
9.2323586867
 31
0.0
 11
3.2210317426
 21
9.2313160115
 31
0.0
 11
3.2166412226
 21
9.2291254981
 31
0.0
 11
3.2122598252
 21
9.2268096838
 31
0.0
 11
3.2078867822
 21
9.2243863592
 31
0.0
 11
3.2035213251
 21
9.2218733143
 31
0.0
 11
3.1948097603
 21
9.2166380095
 31
0.0
 11
3.1861174427
 21
9.2111945454
 31
0.0
 11
3.1774366769
 21
9.2056200807
 31
0.0
 11
3.1687608379
 21
9.1999732749
 31
0.0
 11
3.1514103354
 21
9.1886533334
 31
0.0
 11
3.1427403776
 21
9.1830515898
 31
0.0
 11
3.1340822956
 21
9.1775279106
 31
0.0
 11
3.1254461928
 21
9.172109211
 31
0.0
 11
3.1168503769
 21
9.1668230517
 31
0.0
  0
SPLINE
  5
360
100
AcDbEntity
  8
0
100
AcDbSpline
 62
6
  6
CONTINUOUS
 70
0
 71
3
 72
11
 73
7
 74
5
 42
0.0000001
 43
0.0000001
 44
0.0000000001
 12
-0.1389542415
 22
-0.3461367574
 32
0.0
 13
-0.1868972226
 23
-0.3227822242
 33
0.0
 40
0.0
 40
0.0
 40
0.0
 40
0.0
 40
0.250635293
 40
0.5006335669
 40
0.7503147526
 40
1.0
 40
1.0
 40
1.0
 40
1.0
 10
21.2427600412
 20
8.2779178391
 30
0.0
 10
21.2311510955
 20
8.2489998099
 30
0.0
 10
21.2069373328
 20
8.1916427161
 30
0.0
 10
21.1676023486
 20
8.1070343192
 30
0.0
 10
21.1253133694
 20
8.0239954997
 30
0.0
 10
21.0951631163
 20
7.9697042559
 30
0.0
 10
21.0796079566
 20
7.9428396028
 30
0.0
 11
21.2427600412
 21
8.2779178391
 31
0.0
 11
21.2063972856
 21
8.1917962373
 31
0.0
 11
21.1670843529
 21
8.107242664
 31
0.0
 11
21.1248212433
 21
8.0242571191
 31
0.0
 11
21.0796079566
 21
7.9428396028
 31
0.0
  0
SPLINE
  5
361
100
AcDbEntity
  8
0
100
AcDbSpline
 62
6
  6
CONTINUOUS
 70
0
 71
3
 72
70
 73
66
 74
64
 42
0.0000001
 43
0.0000001
 44
0.0000000001
 12
-0.1029616621
 22
0.2640299905
 32
0.0
 13
-0.2337721506
 23
-0.1601983812
 33
0.0
 40
0.0
 40
0.0
 40
0.0
 40
0.0
 40
0.0202845334
 40
0.0416581067
 40
0.064073174
 40
0.0756546384
 40
0.0874752856
 40
0.1118102344
 40
0.1243159298
 40
0.1370402533
 40
0.1499788752
 40
0.1631268116
 40
0.1764772012
 40
0.1900242132
 40
0.2037636481
 40
0.2176930322
 40
0.2318110966
 40
0.2461126494
 40
0.2605926716
 40
0.2752506451
 40
0.2900909771
 40
0.3051208387
 40
0.3203366021
 40
0.3357386247
 40
0.3513413143
 40
0.3592275949
 40
0.3671754473
 40
0.3832487516
 40
0.3995529575
 40
0.4077935244
 40
0.4160945929
 40
0.4244593987
 40
0.4328915359
 40
0.4413914764
 40
0.4499576866
 40
0.4672744288
 40
0.476018677
 40
0.4848120661
 40
0.4936481104
 40
0.5025204844
 40
0.5114278963
 40
0.5203703869
 40
0.5383543813
 40
0.5564541411
 40
0.5746366241
 40
0.5928635042
 40
0.6111208977
 40
0.6294018016
 40
0.6476955083
 40
0.6659881189
 40
0.6842643818
 40
0.7025146897
 40
0.7207309944
 40
0.7389043538
 40
0.7570250582
 40
0.7750827715
 40
0.793067865
 40
0.810972548
 40
0.8287890784
 40
0.8641260354
 40
0.8816304223
 40
0.8990135808
 40
0.9333628919
 40
0.9670624952
 40
1.0
 40
1.0
 40
1.0
 40
1.0
 10
3.1168503769
 20
9.1668230517
 30
0.0
 10
3.1161542005
 20
9.1686082935
 30
0.0
 10
3.1146005748
 20
9.1722271575
 30
0.0
 10
3.1118920516
 20
9.1776431152
 30
0.0
 10
3.1093091697
 20
9.1821942009
 30
0.0
 10
3.1070400452
 20
9.1858801819
 30
0.0
 10
3.1045872238
 20
9.1896646486
 30
0.0
 10
3.10195259
 20
9.193433871
 30
0.0
 10
3.0991409638
 20
9.1971782218
 30
0.0
 10
3.0969102985
 20
9.2000114115
 30
0.0
 10
3.09457685
 20
9.2028396391
 30
0.0
 10
3.092140208
 20
9.2056581644
 30
0.0
 10
3.089597079
 20
9.2084591829
 30
0.0
 10
3.0869446752
 20
9.211234828
 30
0.0
 10
3.0841801945
 20
9.2139771734
 30
0.0
 10
3.0813007599
 20
9.2166781043
 30
0.0
 10
3.0783044745
 20
9.219329722
 30
0.0
 10
3.075186643
 20
9.221919681
 30
0.0
 10
3.0719419671
 20
9.2244332418
 30
0.0
 10
3.0685658139
 20
9.2268558722
 30
0.0
 10
3.0650534857
 20
9.2291724576
 30
0.0
 10
3.0614025165
 20
9.2313682326
 30
0.0
 10
3.0576063682
 20
9.233417314
 30
0.0
 10
3.0536597102
 20
9.2352897791
 30
0.0
 10
3.0502536997
 20
9.236673195
 30
0.0
 10
3.0474529872
 20
9.2376619725
 30
0.0
 10
3.044579501
 20
9.2385734948
 30
0.0
 10
3.040892734
 20
9.2395441384
 30
0.0
 10
3.0371197181
 20
9.2402610711
 30
0.0
 10
3.034043679
 20
9.2406722322
 30
0.0
 10
3.031700951
 20
9.2408958995
 30
0.0
 10
3.0293332395
 20
9.241029841
 30
0.0
 10
3.0269433086
 20
9.2410702798
 30
0.0
 10
3.0245345638
 20
9.2410199602
 30
0.0
 10
3.0212913173
 20
9.2408347247
 30
0.0
 10
3.0180368362
 20
9.2404781605
 30
0.0
 10
3.0147843301
 20
9.239964076
 30
0.0
 10
3.0123361814
 20
9.2394996808
 30
0.0
 10
3.0098910946
 20
9.2389604391
 30
0.0
 10
3.0074520615
 20
9.2383486278
 30
0.0
 10
3.0050208395
 20
9.2376682902
 30
0.0
 10
3.001784884
 20
9.2366737013
 30
0.0
 10
2.9977647089
 20
9.2352798607
 30
0.0
 10
2.9929928377
 20
9.2334037524
 30
0.0
 10
2.9882684167
 20
9.2313535809
 30
0.0
 10
2.9835921754
 20
9.2291610581
 30
0.0
 10
2.9789656447
 20
9.2268449118
 30
0.0
 10
2.9743874714
 20
9.22442133
 30
0.0
 10
2.9698551612
 20
9.2219063664
 30
0.0
 10
2.9653662407
 20
9.2193158057
 30
0.0
 10
2.9609172137
 20
9.2166654275
 30
0.0
 10
2.9565070763
 20
9.2139646619
 30
0.0
 10
2.9521344576
 20
9.2112218697
 30
0.0
 10
2.9477976577
 20
9.2084454713
 30
0.0
 10
2.9434950543
 20
9.2056437664
 30
0.0
 10
2.9392247387
 20
9.2028252779
 30
0.0
 10
2.9349852656
 20
9.1999972299
 30
0.0
 10
2.9307768903
 20
9.1971637116
 30
0.0
 10
2.9252223244
 20
9.1933947776
 30
0.0
 10
2.919715359
 20
9.1896231239
 30
0.0
 10
2.9142506017
 20
9.1858623703
 30
0.0
 10
2.9088655253
 20
9.1821504044
 30
0.0
 10
2.9022240255
 20
9.1775655319
 30
0.0
 10
2.8943717172
 20
9.1721482418
 30
0.0
 10
2.8891845385
 20
9.1685818967
 30
0.0
 10
2.8866179147
 20
9.1668230517
 30
0.0
 11
3.1168503769
 21
9.1668230517
 31
0.0
 11
3.1145920252
 21
9.172109411
 31
0.0
 11
3.1118904328
 21
9.1775307327
 31
0.0
 11
3.1087612737
 21
9.1830588802
 31
0.0
 11
3.1070412515
 21
9.1858542199
 31
0.0
 11
3.1052195647
 21
9.1886655185
 31
0.0
 11
3.1012705944
 21
9.1943193784
 31
0.0
 11
3.0991427271
 21
9.1971535476
 31
0.0
 11
3.0969122158
 21
9.1999869484
 31
0.0
 11
3.0945787677
 21
9.2028153831
 31
0.0
 11
3.0921414927
 21
9.2056337598
 31
0.0
 11
3.0895978723
 21
9.208434546
 31
0.0
 11
3.0869451126
 21
9.2112097973
 31
0.0
 11
3.0841804201
 21
9.2139515696
 31
0.0
 11
3.0813010008
 21
9.2166519182
 31
0.0
 11
3.0783039549
 21
9.2193025164
 31
0.0
 11
3.075185282
 21
9.2218910757
 31
0.0
 11
3.0719403312
 21
9.2244029658
 31
0.0
 11
3.068564443
 21
9.2268235259
 31
0.0
 11
3.0650529582
 21
9.2291380951
 31
0.0
 11
3.0614012587
 21
9.2313307014
 31
0.0
 11
3.0576050281
 21
9.2333758521
 31
0.0
 11
3.053660083
 21
9.2352438533
 31
0.0
 11
3.0495622404
 21
9.2369049925
 31
0.0
 11
3.0474546755
 21
9.2376487037
 31
0.0
 11
3.0453076554
 21
9.2383295425
 31
0.0
 11
3.0409021581
 21
9.2394873555
 31
0.0
 11
3.0363624472
 21
9.2403478106
 31
0.0
 11
3.0340476605
 21
9.2406569522
 31
0.0
 11
3.0317057989
 21
9.2408802622
 31
0.0
 11
3.029339022
 21
9.2410139098
 31
0.0
 11
3.0269497496
 21
9.2410551718
 31
0.0
 11
3.0245414151
 21
9.241005638
 31
0.0
 11
3.0221176986
 21
9.240867948
 31
0.0
 11
3.0172388404
 21
9.2403386578
 31
0.0
 11
3.0147910589
 21
9.2399523368
 31
0.0
 11
3.012342616
 21
9.2394884182
 31
0.0
 11
3.0098971919
 21
9.2389495414
 31
0.0
 11
3.0074581827
 21
9.2383384849
 31
0.0
 11
3.0050270393
 21
9.2376589778
 31
0.0
 11
3.0026043976
 21
9.2369151476
 31
0.0
 11
2.9977871517
 21
9.2352510326
 31
0.0
 11
2.9930115098
 21
9.2333791703
 31
0.0
 11
2.9882825367
 21
9.231332591
 31
0.0
 11
2.9836044508
 21
9.2291423833
 31
0.0
 11
2.9789766158
 21
9.2268285015
 31
0.0
 11
2.9743966678
 21
9.2244069369
 31
0.0
 11
2.969862241
 21
9.2218936765
 31
0.0
 11
2.9653709694
 21
9.219304707
 31
0.0
 11
2.9609205691
 21
9.2166551393
 31
0.0
 11
2.9565092229
 21
9.2139551105
 31
0.0
 11
2.9521352779
 21
9.2112130037
 31
0.0
 11
2.9477970814
 21
9.2084372001
 31
0.0
 11
2.9434929808
 21
9.2056360808
 31
0.0
 11
2.9392213294
 21
9.2028180108
 31
0.0
 11
2.9349809846
 21
9.1999899749
 31
0.0
 11
2.9307716858
 21
9.1971565424
 31
0.0
 11
2.926593262
 21
9.1943220388
 31
0.0
 11
2.9183283534
 21
9.1886671209
 31
0.0
 11
2.9142415261
 21
9.1858553575
 31
0.0
 11
2.9101853308
 21
9.1830596862
 31
0.0
 11
2.9021732404
 21
9.1775310651
 31
0.0
 11
2.8943109918
 21
9.1721094876
 31
0.0
 11
2.8866179147
 21
9.1668230517
 31
0.0
  0
SPLINE
  5
362
100
AcDbEntity
  8
0
100
AcDbSpline
 62
6
  6
CONTINUOUS
 70
0
 71
3
 72
11
 73
7
 74
5
 42
0.0000001
 43
0.0000001
 44
0.0000000001
 12
0.1389531503
 22
-0.3461323251
 32
0.0
 13
0.1868949578
 23
-0.3227783128
 33
0.0
 40
0.0
 40
0.0
 40
0.0
 40
0.0
 40
0.2506352719
 40
0.5006335438
 40
0.7503147391
 40
1.0
 40
1.0
 40
1.0
 40
1.0
 10
20.2883377421
 20
8.277913644
 30
0.0
 10
20.2999465956
 20
8.2489959876
 30
0.0
 10
20.32416015
 20
8.1916396282
 30
0.0
 10
20.3634947481
 20
8.1070323011
 30
0.0
 10
20.4057832698
 20
8.0239945133
 30
0.0
 10
20.4359331704
 20
7.9697039318
 30
0.0
 10
20.4514881425
 20
7.9428396028
 30
0.0
 11
20.2883377421
 21
8.277913644
 31
0.0
 11
20.3247001834
 21
8.1917931478
 31
0.0
 11
20.3640127307
 21
8.1072406421
 31
0.0
 11
20.4062753837
 21
8.0242561271
 31
0.0
 11
20.4514881425
 21
7.9428396028
 31
0.0
  0
SPLINE
  5
363
100
AcDbEntity
  8
0
100
AcDbSpline
 62
6
  6
CONTINUOUS
 70
0
 71
3
 72
62
 73
58
 74
56
 42
0.0000001
 43
0.0000001
 44
0.0000000001
 12
-0.1856770236
 22
0.2292667195
 32
0.0
 13
-0.2246397553
 23
-0.1912489637
 33
0.0
 40
0.0
 40
0.0
 40
0.0
 40
0.0
 40
0.0233458646
 40
0.0478678005
 40
0.0734710684
 40
0.0866486223
 40
0.1000620438
 40
0.1275652584
 40
0.1416414787
 40
0.1559249946
 40
0.1704095195
 40
0.1850884941
 40
0.1999547526
 40
0.2150020475
 40
0.230225327
 40
0.2456208274
 40
0.2611853592
 40
0.2769120751
 40
0.2927947734
 40
0.3088307156
 40
0.3250209773
 40
0.341366961
 40
0.3578582591
 40
0.3744889119
 40
0.39126437
 40
0.4081997418
 40
0.4252817099
 40
0.4424805752
 40
0.4511198183
 40
0.4597842432
 40
0.4684748438
 40
0.4771923373
 40
0.4859350791
 40
0.4947003189
 40
0.5122808521
 40
0.5210889163
 40
0.5299007075
 40
0.5387099759
 40
0.5475121579
 40
0.5650977761
 40
0.5826625827
 40
0.6001954914
 40
0.6089431911
 40
0.6176729517
 40
0.6350730398
 40
0.652395699
 40
0.6696380636
 40
0.6867927783
 40
0.7208045429
 40
0.7543813256
 40
0.7874630621
 40
0.8199973065
 40
0.8519269174
 40
0.883186768
 40
0.9434090798
 40
0.9722103151
 40
1.0
 40
1.0
 40
1.0
 40
1.0
 10
2.8866179147
 20
9.1668230517
 30
0.0
 10
2.8851729845
 20
9.168607195
 30
0.0
 10
2.8821534936
 20
9.1722196137
 30
0.0
 10
2.8773673436
 20
9.1776333302
 30
0.0
 10
2.8731238624
 20
9.1821892061
 30
0.0
 10
2.8695571022
 20
9.1858804771
 30
0.0
 10
2.8658139518
 20
9.1896605716
 30
0.0
 10
2.8619354139
 20
9.1934304585
 30
0.0
 10
2.8579207528
 20
9.1971806548
 30
0.0
 10
2.8548025246
 20
9.20001443
 30
0.0
 10
2.8516004345
 20
9.2028434332
 30
0.0
 10
2.8483139024
 20
9.2056627581
 30
0.0
 10
2.8449399595
 20
9.2084643763
 30
0.0
 10
2.841476106
 20
9.2112405138
 30
0.0
 10
2.8379197842
 20
9.2139833139
 30
0.0
 10
2.8342684338
 20
9.2166847617
 30
0.0
 10
2.830520311
 20
9.2193370235
 30
0.0
 10
2.826670948
 20
9.2219271097
 30
0.0
 10
2.8227159394
 20
9.2244405498
 30
0.0
 10
2.8186512479
 20
9.2268629975
 30
0.0
 10
2.8144730795
 20
9.2291797106
 30
0.0
 10
2.8101795828
 20
9.2313756051
 30
0.0
 10
2.8057654409
 20
9.2334235928
 30
0.0
 10
2.8012273114
 20
9.2352945897
 30
0.0
 10
2.7965627065
 20
9.236959329
 30
0.0
 10
2.7917733176
 20
9.2383868253
 30
0.0
 10
2.7868693025
 20
9.2395476235
 30
0.0
 10
2.7827068443
 20
9.2402659863
 30
0.0
 10
2.7793381861
 20
9.2406764458
 30
0.0
 10
2.7767909811
 20
9.2408983738
 30
0.0
 10
2.7742297625
 20
9.2410294064
 30
0.0
 10
2.7716577973
 20
9.2410675769
 30
0.0
 10
2.7690787337
 20
9.2410160128
 30
0.0
 10
2.7656325731
 20
9.2408304357
 30
0.0
 10
2.7621910154
 20
9.2404747605
 30
0.0
 10
2.7587675748
 20
9.2399592678
 30
0.0
 10
2.7562099522
 20
9.2394945857
 30
0.0
 10
2.7536678253
 20
9.2389544515
 30
0.0
 10
2.7503039673
 20
9.2381371122
 30
0.0
 10
2.7461472978
 20
9.2369439624
 30
0.0
 10
2.741241728
 20
9.2352719815
 30
0.0
 10
2.7372229867
 20
9.2337060029
 30
0.0
 10
2.7340512472
 20
9.2323662083
 30
0.0
 10
2.7309150851
 20
9.2309770485
 30
0.0
 10
2.7270506942
 20
9.2291514039
 30
0.0
 10
2.7224957713
 20
9.226833102
 30
0.0
 10
2.7180245816
 20
9.2244075736
 30
0.0
 10
2.7121863681
 20
9.2210639937
 30
0.0
 10
2.7050798011
 20
9.2167070482
 30
0.0
 10
2.6968135628
 20
9.2112567035
 30
0.0
 10
2.6888097156
 20
9.2056789946
 30
0.0
 10
2.6810564198
 20
9.2000294033
 30
0.0
 10
2.6735393685
 20
9.1943622661
 30
0.0
 10
2.6639511711
 20
9.1869213345
 30
0.0
 10
2.6547318155
 20
9.1795085558
 30
0.0
 10
2.6458831195
 20
9.1721827854
 30
0.0
 10
2.6416289389
 20
9.1685946346
 30
0.0
 10
2.6395480496
 20
9.1668230517
 30
0.0
 11
2.8866179147
 21
9.1668230517
 31
0.0
 11
2.8822041842
 21
9.1721105746
 31
0.0
 11
2.8774150954
 21
9.1775330737
 31
0.0
 11
2.8722689073
 21
9.1830623876
 31
0.0
 11
2.8695676003
 21
9.185858298
 31
0.0
 11
2.8667830686
 21
9.1886701412
 31
0.0
 11
2.860964089
 21
9.1943250728
 31
0.0
 11
2.8579292626
 21
9.1971598163
 31
0.0
 11
2.8548106261
 21
9.1999938486
 31
0.0
 11
2.8516079861
 21
9.2028229908
 31
0.0
 11
2.8483204563
 21
9.2056419765
 31
0.0
 11
2.8449456811
 21
9.2084432341
 31
0.0
 11
2.8414811179
 21
9.2112188977
 31
0.0
 11
2.8379242237
 21
9.2139611015
 31
0.0
 11
2.8342724559
 21
9.2166619799
 31
0.0
 11
2.8305231356
 21
9.2193130636
 31
0.0
 11
2.8266726436
 21
9.2219017077
 31
0.0
 11
2.8227169628
 21
9.2244135005
 31
0.0
 11
2.8186520744
 21
9.2268340242
 31
0.0
 11
2.81447396
 21
9.229148861
 31
0.0
 11
2.8101788076
 21
9.2313415234
 31
0.0
 11
2.8057637791
 21
9.2333857725
 31
0.0
 11
2.8012263232
 21
9.2352524998
 31
0.0
 11
2.7965638884
 21
9.2369125963
 31
0.0
 11
2.7917748431
 21
9.2383368426
 31
0.0
 11
2.7868700228
 21
9.2394945205
 31
0.0
 11
2.7818692371
 21
9.2403538329
 31
0.0
 11
2.7793391095
 21
9.2406616581
 31
0.0
 11
2.7767924933
 21
9.2408829591
 31
0.0
 11
2.7742318978
 21
9.2410137996
 31
0.0
 11
2.7716603208
 21
9.2410526294
 31
0.0
 11
2.7690815075
 21
9.2410015512
 31
0.0
 11
2.7664992667
 21
9.2408629764
 31
0.0
 11
2.761339736
 21
9.2403329831
 31
0.0
 11
2.7587700634
 21
9.2399463875
 31
0.0
 11
2.7562121973
 21
9.2394819412
 31
0.0
 11
2.7536699455
 21
9.2389420561
 31
0.0
 11
2.7511463564
 21
9.2383295565
 31
0.0
 11
2.7461581515
 21
9.2369030132
 31
0.0
 11
2.7412515673
 21
9.235235988
 31
0.0
 11
2.7364301914
 21
9.2333623735
 31
0.0
 11
2.7340525777
 21
9.2323586867
 31
0.0
 11
2.7316975886
 21
9.2313160115
 31
0.0
 11
2.7270549707
 21
9.2291254981
 31
0.0
 11
2.7224991781
 21
9.2268096838
 31
0.0
 11
2.7180265756
 21
9.2243863592
 31
0.0
 11
2.7136335282
 21
9.2218733143
 31
0.0
 11
2.7050732405
 21
9.2166380095
 31
0.0
 11
2.6967969668
 21
9.2111945454
 31
0.0
 11
2.6887856535
 21
9.2056200807
 31
0.0
 11
2.6810240451
 21
9.1999732749
 31
0.0
 11
2.6735002596
 21
9.1943050207
 31
0.0
 11
2.6662125143
 21
9.1886533334
 31
0.0
 11
2.652359994
 21
9.1775279106
 31
0.0
 11
2.6458149447
 21
9.172109211
 31
0.0
 11
2.6395480496
 21
9.1668230517
 31
0.0
  0
SPLINE
  5
364
100
AcDbEntity
  8
0
100
AcDbSpline
 62
6
  6
CONTINUOUS
 70
0
 71
3
 72
64
 73
60
 74
58
 42
0.0000001
 43
0.0000001
 44
0.0000000001
 12
-0.2246394631
 22
0.1912487149
 32
0.0
 13
-0.1856767821
 23
-0.2292664212
 33
0.0
 40
0.0
 40
0.0
 40
0.0
 40
0.0
 40
0.0277949907
 40
0.0566161235
 40
0.0863540237
 40
0.1015328268
 40
0.1169018629
 40
0.1481775595
 40
0.1640689697
 40
0.1801194407
 40
0.1963218182
 40
0.2126686967
 40
0.2291520823
 40
0.2457645998
 40
0.2624997428
 40
0.279351976
 40
0.2963160324
 40
0.3133825876
 40
0.3305423636
 40
0.34778893
 40
0.365119079
 40
0.3825290058
 40
0.4000005779
 40
0.4175184659
 40
0.4350776822
 40
0.4526819613
 40
0.4703051484
 40
0.4879040089
 40
0.496686107
 40
0.5054532554
 40
0.5142050058
 40
0.522941422
 40
0.5316613814
 40
0.5403628933
 40
0.5576967153
 40
0.5663240062
 40
0.5749182752
 40
0.5834745452
 40
0.5919896721
 40
0.6089055231
 40
0.6256844007
 40
0.6423278699
 40
0.6505957817
 40
0.6588241105
 40
0.6751601635
 40
0.6913424806
 40
0.707373618
 40
0.7232508871
 40
0.7545226313
 40
0.7851306495
 40
0.8001720009
 40
0.8150307523
 40
0.8441789418
 40
0.8725264813
 40
0.9000150299
 40
0.9265807347
 40
0.9521540317
 40
0.9766587915
 40
1.0
 40
1.0
 40
1.0
 40
1.0
 10
2.6395480496
 20
9.1668230517
 30
0.0
 10
2.6374667656
 20
9.1685949705
 30
0.0
 10
2.6332110646
 20
9.1721851337
 30
0.0
 10
2.6266698734
 20
9.1776009984
 30
0.0
 10
2.6210398592
 20
9.1821714065
 30
0.0
 10
2.6164088768
 20
9.1858730647
 30
0.0
 10
2.611639662
 20
9.1896438501
 30
0.0
 10
2.6067811956
 20
9.1934146492
 30
0.0
 10
2.6018297075
 20
9.1971740547
 30
0.0
 10
2.5980368899
 20
9.2000079802
 30
0.0
 10
2.5941847925
 20
9.2028371381
 30
0.0
 10
2.5902729903
 20
9.205656629
 30
0.0
 10
2.5862989772
 20
9.2084583793
 30
0.0
 10
2.5822606463
 20
9.2112346174
 30
0.0
 10
2.5781558432
 20
9.2139774919
 30
0.0
 10
2.5739824169
 20
9.2166789937
 30
0.0
 10
2.5697390326
 20
9.2193313304
 30
0.0
 10
2.5654219917
 20
9.2219214649
 30
0.0
 10
2.561027723
 20
9.224434922
 30
0.0
 10
2.556553014
 20
9.2268573726
 30
0.0
 10
2.551994935
 20
9.2291740867
 30
0.0
 10
2.5473527339
 20
9.231369951
 30
0.0
 10
2.5426229656
 20
9.2334179225
 30
0.0
 10
2.5378043533
 20
9.235288983
 30
0.0
 10
2.5328965122
 20
9.2369539398
 30
0.0
 10
2.5279033154
 20
9.238381905
 30
0.0
 10
2.5228371828
 20
9.2395434255
 30
0.0
 10
2.5185672029
 20
9.240264241
 30
0.0
 10
2.5151347563
 20
9.2406758321
 30
0.0
 10
2.5125573151
 20
9.2408979484
 30
0.0
 10
2.5099781221
 20
9.2410292015
 30
0.0
 10
2.5074005332
 20
9.2410675952
 30
0.0
 10
2.5048281095
 20
9.2410162367
 30
0.0
 10
2.5014147338
 20
9.2408313457
 30
0.0
 10
2.4980215256
 20
9.2404766104
 30
0.0
 10
2.4946623553
 20
9.2399601752
 30
0.0
 10
2.4921698049
 20
9.2394956292
 30
0.0
 10
2.4897038319
 20
9.2389556112
 30
0.0
 10
2.4864620862
 20
9.2381399355
 30
0.0
 10
2.4824829633
 20
9.2369493882
 30
0.0
 10
2.4778213369
 20
9.2352775899
 30
0.0
 10
2.4740316196
 20
9.2337093578
 30
0.0
 10
2.4710614433
 20
9.2323676137
 30
0.0
 10
2.4681457192
 20
9.2309802844
 30
0.0
 10
2.4645763806
 20
9.2291570448
 30
0.0
 10
2.460401635
 20
9.2268387316
 30
0.0
 10
2.4563408537
 20
9.2244131905
 30
0.0
 10
2.4510985489
 20
9.2210769902
 30
0.0
 10
2.4448038105
 20
9.2167300175
 30
0.0
 10
2.4387713021
 20
9.2121625472
 30
0.0
 10
2.434128035
 20
9.2084408907
 30
0.0
 10
2.429659987
 20
9.2047315237
 30
0.0
 10
2.424295552
 20
9.200055117
 30
0.0
 10
2.4181504535
 20
9.1943893454
 30
0.0
 10
2.4123388057
 20
9.188740826
 30
0.0
 10
2.4068604527
 20
9.1831444392
 30
0.0
 10
2.4017243359
 20
9.1776269532
 30
0.0
 10
2.3969413768
 20
9.172217238
 30
0.0
 10
2.3939228246
 20
9.1686068369
 30
0.0
 10
2.3924781844
 20
9.1668230517
 30
0.0
 11
2.6395480496
 21
9.1668230517
 31
0.0
 11
2.6332802707
 21
9.1721105746
 31
0.0
 11
2.6267307604
 21
9.1775330737
 31
0.0
 11
2.6199190825
 21
9.1830623876
 31
0.0
 11
2.6164210375
 21
9.185858298
 31
0.0
 11
2.6128639639
 21
9.1886701412
 31
0.0
 11
2.6055728338
 21
9.1943250728
 31
0.0
 11
2.6018385628
 21
9.1971598163
 31
0.0
 11
2.5980450116
 21
9.1999938486
 31
0.0
 11
2.5941920693
 21
9.2028229908
 31
0.0
 11
2.590279026
 21
9.2056419765
 31
0.0
 11
2.5863039014
 21
9.2084432341
 31
0.0
 11
2.5822645534
 21
9.2112188977
 31
0.0
 11
2.5781588397
 21
9.2139611015
 31
0.0
 11
2.5739846181
 21
9.2166619799
 31
0.0
 11
2.5697396495
 21
9.2193130636
 31
0.0
 11
2.5654210242
 21
9.2219017077
 31
0.0
 11
2.5610255484
 21
9.2244135005
 31
0.0
 11
2.5565500277
 21
9.2268340242
 31
0.0
 11
2.5519912674
 21
9.229148861
 31
0.0
 11
2.5473464614
 21
9.2313415234
 31
0.0
 11
2.5426146335
 21
9.2333857725
 31
0.0
 11
2.537795346
 21
9.2352524998
 31
0.0
 11
2.5328881614
 21
9.2369125963
 31
0.0
 11
2.5278935821
 21
9.2383368426
 31
0.0
 11
2.5228248489
 21
9.2394945205
 31
0.0
 11
2.5177043724
 21
9.2403538329
 31
0.0
 11
2.5151317969
 21
9.2406616581
 31
0.0
 11
2.5125547653
 21
9.2408829591
 31
0.0
 11
2.5099761091
 21
9.2410137996
 31
0.0
 11
2.5073989522
 21
9.2410526294
 31
0.0
 11
2.5048268649
 21
9.2410015512
 31
0.0
 11
2.5022634559
 21
9.2408629764
 31
0.0
 11
2.4971771062
 21
9.2403329831
 31
0.0
 11
2.4946613824
 21
9.2399463875
 31
0.0
 11
2.4921687704
 21
9.2394819412
 31
0.0
 11
2.4897028781
 21
9.2389420561
 31
0.0
 11
2.4872665259
 21
9.2383295565
 31
0.0
 11
2.4824841808
 21
9.2369030132
 31
0.0
 11
2.4778231542
 21
9.235235988
 31
0.0
 11
2.4732844537
 21
9.2333623735
 31
0.0
 11
2.4710612908
 21
9.2323586867
 31
0.0
 11
2.4688690691
 21
9.2313160115
 31
0.0
 11
2.4645761163
 21
9.2291254981
 31
0.0
 11
2.4604012307
 21
9.2268096838
 31
0.0
 11
2.4563396693
 21
9.2243863592
 31
0.0
 11
2.4523866889
 21
9.2218733143
 31
0.0
 11
2.4447900518
 21
9.2166380095
 31
0.0
 11
2.4375851079
 21
9.2111945454
 31
0.0
 11
2.4341221206
 21
9.2084197285
 31
0.0
 11
2.4307488951
 21
9.2056200807
 31
0.0
 11
2.424263268
 21
9.1999732749
 31
0.0
 11
2.4181139654
 21
9.1943050207
 31
0.0
 11
2.4122978812
 21
9.1886533334
 31
0.0
 11
2.4068163618
 21
9.1830515898
 31
0.0
 11
2.4016771125
 21
9.1775279106
 31
0.0
 11
2.3968913908
 21
9.172109211
 31
0.0
 11
2.3924781844
 21
9.1668230517
 31
0.0
  0
SPLINE
  5
365
100
AcDbEntity
  8
0
100
AcDbSpline
 62
6
  6
CONTINUOUS
 70
0
 71
3
 72
64
 73
60
 74
58
 42
0.0000001
 43
0.0000001
 44
0.0000000001
 12
-0.2337685412
 22
0.1601959078
 32
0.0
 13
-0.1029600724
 23
-0.264025914
 33
0.0
 40
0.0
 40
0.0
 40
0.0
 40
0.0
 40
0.0329447985
 40
0.0666505129
 40
0.1010041746
 40
0.1183886855
 40
0.1358947303
 40
0.1712371103
 40
0.1890570579
 40
0.2069653864
 40
0.2249541573
 40
0.2430148953
 40
0.261137796
 40
0.279313313
 40
0.2975325106
 40
0.3157871772
 40
0.3340691797
 40
0.3523652306
 40
0.3706608672
 40
0.3889440739
 40
0.4072057263
 40
0.425435838
 40
0.4436065922
 40
0.4616906295
 40
0.4796708086
 40
0.4975395689
 40
0.5152622664
 40
0.5327868664
 40
0.5414644711
 40
0.550081357
 40
0.5586367543
 40
0.5671315218
 40
0.5755668425
 40
0.5839432212
 40
0.6005151362
 40
0.608711257
 40
0.6168442636
 40
0.6249118391
 40
0.6329131282
 40
0.6487343826
 40
0.6643446258
 40
0.6797605427
 40
0.6873966908
 40
0.6949828716
 40
0.7100063434
 40
0.7248433859
 40
0.7395010542
 40
0.753979823
 40
0.7823863845
 40
0.8100523633
 40
0.8235971639
 40
0.8369433622
 40
0.8630215634
 40
0.8882465936
 40
0.9125738053
 40
0.9359569319
 40
0.9583517152
 40
0.9797152228
 40
1.0
 40
1.0
 40
1.0
 40
1.0
 10
2.3924781844
 20
9.1668230517
 30
0.0
 10
2.3899110319
 20
9.168582259
 30
0.0
 10
2.3847228678
 20
9.1721492343
 30
0.0
 10
2.3768692822
 20
9.1775673673
 30
0.0
 10
2.3702269787
 20
9.1821528205
 30
0.0
 10
2.3648415554
 20
9.1858653303
 30
0.0
 10
2.3593761433
 20
9.1896263575
 30
0.0
 10
2.3538680322
 20
9.1933979112
 30
0.0
 10
2.3483123651
 20
9.1971671376
 30
0.0
 10
2.3441032247
 20
9.2000011946
 30
0.0
 10
2.3398634451
 20
9.202830401
 30
0.0
 10
2.3355929114
 20
9.2056499438
 30
0.0
 10
2.3312896513
 20
9.2084517757
 30
0.0
 10
2.3269520713
 20
9.2112280773
 30
0.0
 10
2.3225785589
 20
9.2139709675
 30
0.0
 10
2.3181674821
 20
9.2166723851
 30
0.0
 10
2.313718124
 20
9.2193245551
 30
0.0
 10
2.3092278279
 20
9.2219146958
 30
0.0
 10
2.3046939648
 20
9.2244281894
 30
0.0
 10
2.3001143805
 20
9.226850643
 30
0.0
 10
2.2954871333
 20
9.229167171
 30
0.0
 10
2.2908128262
 20
9.2313627115
 30
0.0
 10
2.2860900061
 20
9.2334107206
 30
0.0
 10
2.2813194357
 20
9.2352820418
 30
0.0
 10
2.2765029017
 20
9.2369474511
 30
0.0
 10
2.2716459521
 20
9.2383759965
 30
0.0
 10
2.2667623472
 20
9.2395381911
 30
0.0
 10
2.262673633
 20
9.2402618608
 30
0.0
 10
2.2594099825
 20
9.2406748946
 30
0.0
 10
2.2569777317
 20
9.2408974169
 30
0.0
 10
2.2545561403
 20
9.2410293363
 30
0.0
 10
2.2521484281
 20
9.2410681904
 30
0.0
 10
2.2497578456
 20
9.241017069
 30
0.0
 10
2.2466091588
 20
9.2408327189
 30
0.0
 10
2.2434949969
 20
9.2404785322
 30
0.0
 10
2.2404299613
 20
9.2399608601
 30
0.0
 10
2.2381721563
 20
9.2394962384
 30
0.0
 10
2.2359501401
 20
9.2389562572
 30
0.0
 10
2.2330492851
 20
9.2381419719
 30
0.0
 10
2.2295159395
 20
9.2369533797
 30
0.0
 10
2.2254157877
 20
9.2352815754
 30
0.0
 10
2.2221161064
 20
9.2337116846
 30
0.0
 10
2.2195521518
 20
9.232368598
 30
0.0
 10
2.2170536045
 20
9.2309823054
 30
0.0
 10
2.2140200418
 20
9.2291603889
 30
0.0
 10
2.2105101036
 20
9.2268419876
 30
0.0
 10
2.2071366395
 20
9.2244164546
 30
0.0
 10
2.2028405707
 20
9.2210846436
 30
0.0
 10
2.1977777951
 20
9.2167432196
 30
0.0
 10
2.1930463919
 20
9.2121706663
 30
0.0
 10
2.1894854681
 20
9.2084444353
 30
0.0
 10
2.1861211438
 20
9.2047400171
 30
0.0
 10
2.1821814753
 20
9.2000704707
 30
0.0
 10
2.1778253966
 20
9.1944048283
 30
0.0
 10
2.1738764606
 20
9.1887561704
 30
0.0
 10
2.1703329635
 20
9.18315872
 30
0.0
 10
2.1672030518
 20
9.1776392597
 30
0.0
 10
2.1644956468
 20
9.1722260253
 30
0.0
 10
2.1629418963
 20
9.1686082874
 30
0.0
 10
2.1622457222
 20
9.1668230517
 30
0.0
 11
2.3924781844
 21
9.1668230517
 31
0.0
 11
2.3847835032
 21
9.1721105485
 31
0.0
 11
2.3769199352
 21
9.1775330035
 31
0.0
 11
2.3689070065
 21
9.1830623159
 31
0.0
 11
2.3648506263
 21
9.1858582602
 31
0.0
 11
2.3607634145
 21
9.1886701585
 31
0.0
 11
2.3524969239
 21
9.1943252119
 31
0.0
 11
2.3483176156
 21
9.1971599979
 31
0.0
 11
2.344107579
 21
9.199994044
 31
0.0
 11
2.3398667977
 21
9.202823162
 31
0.0
 11
2.3355948259
 21
9.2056421593
 31
0.0
 11
2.3312902025
 21
9.2084434709
 31
0.0
 11
2.3269513198
 21
9.211219189
 31
0.0
 11
2.3225765704
 21
9.213961406
 31
0.0
 11
2.3181643466
 21
9.2166622143
 31
0.0
 11
2.3137130006
 21
9.2193132166
 31
0.0
 11
2.3092205474
 21
9.2219019282
 31
0.0
 11
2.3046848343
 21
9.2244138303
 31
0.0
 11
2.3001037075
 21
9.2268343897
 31
0.0
 11
2.295475013
 21
9.2291490728
 31
0.0
 11
2.2907970761
 21
9.2313415695
 31
0.0
 11
2.2860708333
 21
9.2333858883
 31
0.0
 11
2.2812981058
 21
9.2352527561
 31
0.0
 11
2.2764807158
 21
9.2369128972
 31
0.0
 11
2.2716212316
 21
9.2383369579
 31
0.0
 11
2.2667339568
 21
9.2394943596
 31
0.0
 11
2.2618425289
 21
9.2403535497
 31
0.0
 11
2.259402725
 21
9.2406614467
 31
0.0
 11
2.2569708437
 21
9.2408829484
 31
0.0
 11
2.2545498725
 21
9.2410141287
 31
0.0
 11
2.2521428485
 21
9.2410531727
 31
0.0
 11
2.2497528995
 21
9.2410021276
 31
0.0
 11
2.2473831633
 21
9.2408634531
 31
0.0
 11
2.2427168791
 21
9.2403330542
 31
0.0
 11
2.2404266065
 21
9.2399462491
 31
0.0
 11
2.2381690968
 21
9.239481653
 31
0.0
 11
2.2359474877
 21
9.2389417256
 31
0.0
 11
2.2337642753
 21
9.2383292637
 31
0.0
 11
2.2295136192
 21
9.236902869
 31
0.0
 11
2.2254158641
 21
9.2352360065
 31
0.0
 11
2.2214692608
 21
9.2333624687
 31
0.0
 11
2.2195520947
 21
9.2323587568
 31
0.0
 11
2.2176720521
 21
9.2313160114
 31
0.0
 11
2.2140213214
 21
9.2291254375
 31
0.0
 11
2.2105118358
 21
9.226809648
 31
0.0
 11
2.2071380865
 21
9.2243863659
 31
0.0
 11
2.2038945648
 21
9.2218733139
 31
0.0
 11
2.1977792957
 21
9.2166379894
 31
0.0
 11
2.1921366947
 21
9.2111945353
 31
0.0
 11
2.1894844793
 21
9.2084197126
 31
0.0
 11
2.186941451
 21
9.2056200721
 31
0.0
 11
2.1821737861
 21
9.1999732754
 31
0.0
 11
2.1778180373
 21
9.1943050155
 31
0.0
 11
2.1738699692
 21
9.1886533299
 31
0.0
 11
2.1703299325
 21
9.1830515856
 31
0.0
 11
2.1672047415
 21
9.1775279101
 31
0.0
 11
2.1645044883
 21
9.1721092126
 31
0.0
 11
2.1622457222
 21
9.1668230517
 31
0.0
  0
SPLINE
  5
366
100
AcDbEntity
  8
0
100
AcDbSpline
 62
6
  6
CONTINUOUS
 70
0
 71
3
 72
63
 73
59
 74
57
 42
0.0000001
 43
0.0000001
 44
0.0000000001
 12
-0.2249127031
 22
0.1367671739
 32
0.0
 13
0.014855386
 23
-0.262812293
 33
0.0
 40
0.0
 40
0.0
 40
0.0
 40
0.0
 40
0.0383428946
 40
0.0771001966
 40
0.116159182
 40
0.1357662654
 40
0.1554077702
 40
0.1947577678
 40
0.2144485654
 40
0.234138038
 40
0.253817286
 40
0.2734761399
 40
0.3126811981
 40
0.3322020045
 40
0.3516520205
 40
0.3710185753
 40
0.3902817375
 40
0.409419726
 40
0.4284128569
 40
0.4472440352
 40
0.4658935145
 40
0.4843193198
 40
0.502479698
 40
0.5203435388
 40
0.5378900238
 40
0.555073761
 40
0.5718388181
 40
0.5800543755
 40
0.5881552619
 40
0.5961421547
 40
0.6040187945
 40
0.6117907507
 40
0.6194631405
 40
0.6345232719
 40
0.6419221257
 40
0.6492365214
 40
0.6564690945
 40
0.6636240624
 40
0.6777334114
 40
0.6916275377
 40
0.7053418709
 40
0.7121371367
 40
0.7188903887
 40
0.7322755682
 40
0.7455165888
 40
0.7586239414
 40
0.7715991137
 40
0.7844386426
 40
0.7971435554
 40
0.8221386271
 40
0.8465572319
 40
0.8703759296
 40
0.8935652978
 40
0.91611102
 40
0.9380074511
 40
0.9592671291
 40
0.9799173506
 40
1.0
 40
1.0
 40
1.0
 40
1.0
 10
2.1622457222
 20
9.1668230517
 30
0.0
 10
2.1593711209
 20
9.1685710682
 30
0.0
 10
2.153609615
 20
9.1721169193
 30
0.0
 10
2.1449775861
 20
9.1775365493
 30
0.0
 10
2.1377717384
 20
9.1821355214
 30
0.0
 10
2.1319964821
 20
9.185858066
 30
0.0
 10
2.1262094532
 20
9.1896094366
 30
0.0
 10
2.1204268663
 20
9.1933811159
 30
0.0
 10
2.114643866
 20
9.1971598445
 30
0.0
 10
2.1103053875
 20
9.1999939075
 30
0.0
 10
2.1059671015
 20
9.2028231432
 30
0.0
 10
2.1001886414
 20
9.2065787604
 30
0.0
 10
2.094404999
 20
9.2103009754
 30
0.0
 10
2.0886048237
 20
9.2139630528
 30
0.0
 10
2.0842568433
 20
9.216664388
 30
0.0
 10
2.0799050311
 20
9.2193164105
 30
0.0
 10
2.0755476487
 20
9.2219061824
 30
0.0
 10
2.0711833114
 20
9.2244193043
 30
0.0
 10
2.0668110401
 20
9.2268414779
 30
0.0
 10
2.0624302051
 20
9.229157964
 30
0.0
 10
2.0580428737
 20
9.231353349
 30
0.0
 10
2.0536492665
 20
9.2334010459
 30
0.0
 10
2.049252119
 20
9.2352722625
 30
0.0
 10
2.0448550696
 20
9.2369379864
 30
0.0
 10
2.040465157
 20
9.2383675768
 30
0.0
 10
2.036096726
 20
9.2395314921
 30
0.0
 10
2.0324661835
 20
9.240259405
 30
0.0
 10
2.0295926623
 20
9.2406741887
 30
0.0
 10
2.0274712538
 20
9.2408968434
 30
0.0
 10
2.0253720018
 20
9.2410286893
 30
0.0
 10
2.0232978401
 20
9.2410676426
 30
0.0
 10
2.0212515035
 20
9.2410167518
 30
0.0
 10
2.018580585
 20
9.2408333208
 30
0.0
 10
2.0159563379
 20
9.2404802839
 30
0.0
 10
2.0133952216
 20
9.23996181
 30
0.0
 10
2.0115257933
 20
9.2394973527
 30
0.0
 10
2.0096990981
 20
9.2389573346
 30
0.0
 10
2.007334073
 20
9.2381436196
 30
0.0
 10
2.0044831162
 20
9.2369550648
 30
0.0
 10
2.0012235884
 20
9.2352820038
 30
0.0
 10
1.9986426379
 20
9.2337113376
 30
0.0
 10
1.9966626757
 20
9.2323683335
 30
0.0
 10
1.9947485882
 20
9.2309816636
 30
0.0
 10
1.9924540524
 20
9.2291585748
 30
0.0
 10
1.9898485346
 20
9.2268396189
 30
0.0
 10
1.9873927911
 20
9.2244137881
 30
0.0
 10
1.9850805351
 20
9.2218988298
 30
0.0
 10
1.9829048333
 20
9.2193109378
 30
0.0
 10
1.9801976817
 20
9.2157972148
 30
0.0
 10
1.9771365447
 20
9.2112801396
 30
0.0
 10
1.9739359608
 20
9.2057019292
 30
0.0
 10
1.9712110463
 20
9.2000523594
 30
0.0
 10
1.9689412902
 20
9.1943820275
 30
0.0
 10
1.9671251822
 20
9.1887272875
 30
0.0
 10
1.9657601638
 20
9.1831209204
 30
0.0
 10
1.9648538416
 20
9.17759017
 30
0.0
 10
1.9644136235
 20
9.1721624232
 30
0.0
 10
1.9644411797
 20
9.1685823741
 30
0.0
 10
1.9645406249
 20
9.1668230517
 30
0.0
 11
2.1622457222
 21
9.1668230517
 31
0.0
 11
2.1536485045
 21
9.1721105746
 31
0.0
 11
2.1450067187
 21
9.1775330737
 31
0.0
 11
2.1363385405
 21
9.1830623876
 31
0.0
 11
2.1320002283
 21
9.185858298
 31
0.0
 11
2.1276614246
 21
9.1886701412
 31
0.0
 11
2.1189830922
 21
9.1943250728
 31
0.0
 11
2.1146437086
 21
9.1971598163
 31
0.0
 11
2.1103042771
 21
9.1999938486
 31
0.0
 11
2.1059648683
 21
9.2028229908
 31
0.0
 11
2.1016252551
 21
9.2056419765
 31
0.0
 11
2.0929418958
 21
9.2112188977
 31
0.0
 11
2.0885962692
 21
9.2139611015
 31
0.0
 11
2.0842467576
 21
9.2166619799
 31
0.0
 11
2.0798924184
 21
9.2193130636
 31
0.0
 11
2.0755322937
 21
9.2219017077
 31
0.0
 11
2.0711654192
 21
9.2244135005
 31
0.0
 11
2.0667908304
 21
9.2268340242
 31
0.0
 11
2.062407563
 21
9.229148861
 31
0.0
 11
2.0580153142
 21
9.2313415234
 31
0.0
 11
2.0536168999
 21
9.2333857725
 31
0.0
 11
2.0492160535
 21
9.2352524998
 31
0.0
 11
2.0448165084
 21
9.2369125963
 31
0.0
 11
2.0404227889
 21
9.2383368426
 31
0.0
 11
2.0360501375
 21
9.2394945205
 31
0.0
 11
2.0317215117
 21
9.2403538329
 31
0.0
 11
2.0295809358
 21
9.2406616581
 31
0.0
 11
2.0274600392
 21
9.2408829591
 31
0.0
 11
2.0253617103
 21
9.2410137996
 31
0.0
 11
2.0232886918
 21
9.2410526294
 31
0.0
 11
2.0212435035
 21
9.2410015512
 31
0.0
 11
2.0192286461
 21
9.2408629764
 31
0.0
 11
2.0152999281
 21
9.2403329831
 31
0.0
 11
2.013391069
 21
9.2399463875
 31
0.0
 11
2.0115225445
 21
9.2394819412
 31
0.0
 11
2.0096968547
 21
9.2389420561
 31
0.0
 11
2.0079158165
 21
9.2383295565
 31
0.0
 11
2.0044866784
 21
9.2369030132
 31
0.0
 11
2.0012313096
 21
9.235235988
 31
0.0
 11
1.9981455325
 21
9.2333623735
 31
0.0
 11
1.9966649353
 21
9.2323586867
 31
0.0
 11
1.9952251638
 21
9.2313160115
 31
0.0
 11
1.9924654477
 21
9.2291254981
 31
0.0
 11
1.9898605638
 21
9.2268096838
 31
0.0
 11
1.9874045761
 21
9.2243863592
 31
0.0
 11
1.9850915488
 21
9.2218733143
 31
0.0
 11
1.9829160608
 21
9.2192867889
 31
0.0
 11
1.980874356
 21
9.2166380095
 31
0.0
 11
1.9771786164
 21
9.2111945454
 31
0.0
 11
1.9739784043
 21
9.2056200807
 31
0.0
 11
1.9712536175
 21
9.1999732749
 31
0.0
 11
1.9689882479
 21
9.1943050207
 31
0.0
 11
1.9671772531
 21
9.1886533334
 31
0.0
 11
1.9658199445
 21
9.1830515898
 31
0.0
 11
1.9649217878
 21
9.1775279106
 31
0.0
 11
1.9644910172
 21
9.172109211
 31
0.0
 11
1.9645406249
 21
9.1668230517
 31
0.0
  0
SPLINE
  5
367
100
AcDbEntity
  8
0
100
AcDbSpline
 62
6
  6
CONTINUOUS
 70
0
 71
3
 72
58
 73
54
 74
52
 42
0.0000001
 43
0.0000001
 44
0.0000000001
 12
-0.1843623077
 22
0.1073340049
 32
0.0
 13
0.0145678752
 23
-0.2128328595
 33
0.0
 40
0.0
 40
0.0
 40
0.0
 40
0.0
 40
0.0830453225
 40
0.1245109543
 40
0.1658372013
 40
0.206948778
 40
0.2477845981
 40
0.28828864
 40
0.3284033316
 40
0.3680605123
 40
0.4071542655
 40
0.4264541954
 40
0.4455708106
 40
0.4644904464
 40
0.4831955405
 40
0.5016599612
 40
0.5198576549
 40
0.5377642835
 40
0.5553576775
 40
0.5726183363
 40
0.5895160929
 40
0.6059876441
 40
0.6219718746
 40
0.6374194716
 40
0.6449315562
 40
0.6522984585
 40
0.6595192412
 40
0.6665946702
 40
0.6735272853
 40
0.6803203801
 40
0.6935005379
 40
0.7061741142
 40
0.7183874094
 40
0.7243411219
 40
0.7302027583
 40
0.7359817703
 40
0.7416895318
 40
0.7529430533
 40
0.7640656118
 40
0.7751278503
 40
0.7861734408
 40
0.7972213969
 40
0.8193316503
 40
0.8415756506
 40
0.8639895155
 40
0.8752458041
 40
0.8865258968
 40
0.9091510102
 40
0.9318468145
 40
0.9432078991
 40
0.9545670613
 40
0.9772788467
 40
1.0
 40
1.0
 40
1.0
 40
1.0
 10
1.9645406249
 20
9.1668230517
 30
0.0
 10
1.9594371491
 20
9.1697942474
 30
0.0
 10
1.9518492224
 20
9.1743594483
 30
0.0
 10
1.9418563965
 20
9.1806216268
 30
0.0
 10
1.9344424964
 20
9.1853827065
 30
0.0
 10
1.9271148218
 20
9.1901941995
 30
0.0
 10
1.9198761554
 20
9.1950340974
 30
0.0
 10
1.9127268354
 20
9.1998797051
 30
0.0
 10
1.9056675897
 20
9.204708643
 30
0.0
 10
1.8987018111
 20
9.2094965172
 30
0.0
 10
1.8929474825
 20
9.2134338751
 30
0.0
 10
1.8883830402
 20
9.216523493
 30
0.0
 10
1.8849962291
 20
9.2187935483
 30
0.0
 10
1.8816316912
 20
9.2210207575
 30
0.0
 10
1.87829
 20
9.2231983076
 30
0.0
 10
1.8749704442
 20
9.2253155095
 30
0.0
 10
1.8716732011
 20
9.2273616323
 30
0.0
 10
1.8683984539
 20
9.22932581
 30
0.0
 10
1.8651463663
 20
9.2311971586
 30
0.0
 10
1.8619180584
 20
9.2329644728
 30
0.0
 10
1.8587175414
 20
9.2346143773
 30
0.0
 10
1.8555491469
 20
9.2361253666
 30
0.0
 10
1.8524203304
 20
9.2374746287
 30
0.0
 10
1.8498285588
 20
9.2384540077
 30
0.0
 10
1.8477808558
 20
9.2391313025
 30
0.0
 10
1.8462742721
 20
9.2395793237
 30
0.0
 10
1.8447836581
 20
9.2399693016
 30
0.0
 10
1.8433099309
 20
9.2402979871
 30
0.0
 10
1.8418545921
 20
9.2405646752
 30
0.0
 10
1.8399601447
 20
9.2408352235
 30
0.0
 10
1.837643293
 20
9.2410239685
 30
0.0
 10
1.8349328593
 20
9.2410068184
 30
0.0
 10
1.832747008
 20
9.2407860219
 30
0.0
 10
1.8310644891
 20
9.2404843997
 30
0.0
 10
1.829845672
 20
9.2401991725
 30
0.0
 10
1.8286608959
 20
9.2398530314
 30
0.0
 10
1.8271358208
 20
9.2393132847
 30
0.0
 10
1.8253101703
 20
9.238493608
 30
0.0
 10
1.8232501335
 20
9.2372983864
 30
0.0
 10
1.8213265451
 20
9.2359201975
 30
0.0
 10
1.8195353425
 20
9.2343827921
 30
0.0
 10
1.8173176917
 20
9.232151476
 30
0.0
 10
1.8148445043
 20
9.229068285
 30
0.0
 10
1.8123499723
 20
9.2250167539
 30
0.0
 10
1.8106379088
 20
9.2214202711
 30
0.0
 10
1.809467828
 20
9.2184448219
 30
0.0
 10
1.8084263235
 20
9.2154059359
 30
0.0
 10
1.8073679637
 20
9.2115175266
 30
0.0
 10
1.806622234
 20
9.2075521772
 30
0.0
 10
1.806204436
 20
9.204349146
 30
0.0
 10
1.8059035782
 20
9.2011318571
 30
0.0
 10
1.8057463364
 20
9.1970927844
 30
0.0
 10
1.8058523741
 20
9.1938606112
 30
0.0
 10
1.8059627071
 20
9.1922486752
 30
0.0
 11
1.9645406249
 21
9.1668230517
 31
0.0
 11
1.9493532209
 21
9.1759446731
 31
0.0
 11
1.9418567353
 21
9.1806406949
 31
0.0
 11
1.9344378089
 21
9.1854034948
 31
0.0
 11
1.9271051902
 21
9.1902151522
 31
0.0
 11
1.9198616766
 21
9.1950548257
 31
0.0
 11
1.912707418
 21
9.1999003744
 31
0.0
 11
1.9056425523
 21
9.2047296518
 31
0.0
 11
1.8986670946
 21
9.2095167467
 31
0.0
 11
1.8917805774
 21
9.2142209864
 31
0.0
 11
1.8883704887
 21
9.2165281945
 31
0.0
 11
1.8849824156
 21
9.2187980799
 31
0.0
 11
1.8816162854
 21
9.2210250978
 31
0.0
 11
1.8782721119
 21
9.2232021564
 31
0.0
 11
1.8749500968
 21
9.2253187992
 31
0.0
 11
1.8716504665
 21
9.2273641277
 31
0.0
 11
1.8683734477
 21
9.2293272436
 31
0.0
 11
1.8651192666
 21
9.2311972483
 31
0.0
 11
1.8618881522
 21
9.2329632394
 31
0.0
 11
1.8586821792
 21
9.2346113932
 31
0.0
 11
1.8555085225
 21
9.2361198115
 31
0.0
 11
1.8523752312
 21
9.2374652127
 31
0.0
 11
1.8492903545
 21
9.2386243154
 31
0.0
 11
1.8477685869
 21
9.2391267293
 31
0.0
 11
1.8462619412
 21
9.2395738381
 31
0.0
 11
1.8447714238
 21
9.2399627314
 31
0.0
 11
1.8432980748
 21
9.2402906844
 31
0.0
 11
1.8418432696
 21
9.2405567805
 31
0.0
 11
1.8404085723
 21
9.2407611248
 31
0.0
 11
1.8376057668
 21
9.2409850235
 31
0.0
 11
1.8349021893
 21
9.2409633128
 31
0.0
 11
1.8323103705
 21
9.2406969245
 31
0.0
 11
1.8310602865
 21
9.2404722676
 31
0.0
 11
1.8298428412
 21
9.2401867909
 31
0.0
 11
1.8286596009
 21
9.2398406112
 31
0.0
 11
1.8275116989
 21
9.2394344437
 31
0.0
 11
1.8253209002
 21
9.2384526733
 31
0.0
 11
1.8232671652
 21
9.2372642793
 31
0.0
 11
1.821346962
 21
9.2358924096
 31
0.0
 11
1.8195567587
 21
9.2343602123
 31
0.0
 11
1.8178930232
 21
9.2326908352
 31
0.0
 11
1.8149307076
 21
9.2290202932
 31
0.0
 11
1.8124310138
 21
9.2249867215
 31
0.0
 11
1.8103647393
 21
9.220674656
 31
0.0
 11
1.8094851388
 21
9.2184402411
 31
0.0
 11
1.8087043341
 21
9.2161640458
 31
0.0
 11
1.8074318845
 21
9.21150816
 31
0.0
 11
1.806532959
 21
9.2067506251
 31
0.0
 11
1.8062190595
 21
9.2043473685
 31
0.0
 11
1.8059933504
 21
9.2019346433
 31
0.0
 11
1.8058042957
 21
9.1970932088
 31
0.0
 11
1.8059627071
 21
9.1922486752
 31
0.0
  0
SPLINE
  5
368
100
AcDbEntity
  8
0
100
AcDbSpline
 62
6
  6
CONTINUOUS
 70
0
 71
3
 72
56
 73
52
 74
50
 42
0.0000001
 43
0.0000001
 44
0.0000000001
 12
-0.1306212886
 22
0.0805973366
 32
0.0
 13
0.009277416
 23
-0.1532050301
 33
0.0
 40
0.0
 40
0.0
 40
0.0
 40
0.0
 40
0.0895964996
 40
0.1777025056
 40
0.2210864018
 40
0.2639702553
 40
0.306315744
 40
0.3480829154
 40
0.3687367892
 40
0.3892290978
 40
0.4296878366
 40
0.4693731185
 40
0.5081967625
 40
0.5272576095
 40
0.5460661078
 40
0.5828424431
 40
0.6183568779
 40
0.6355891933
 40
0.6524447659
 40
0.6688971835
 40
0.6849036026
 40
0.700420413
 40
0.7154065711
 40
0.7298244304
 40
0.743640828
 40
0.7568261773
 40
0.7693441547
 40
0.7811628561
 40
0.7922638686
 40
0.8026475231
 40
0.8123402074
 40
0.8214101862
 40
0.829973478
 40
0.8381599192
 40
0.8461041862
 40
0.8539402972
 40
0.8617953777
 40
0.869784018
 40
0.8779976756
 40
0.8822104013
 40
0.8864998014
 40
0.8953187751
 40
0.9044684976
 40
0.9139425987
 40
0.9237239073
 40
0.9338052668
 40
0.9441813911
 40
0.9548419258
 40
0.9657723468
 40
0.9769547249
 40
1.0
 40
1.0
 40
1.0
 40
1.0
 10
1.8074712633
 20
9.1700809105
 30
0.0
 10
1.8035701932
 20
9.1724879903
 30
0.0
 10
1.7959060971
 20
9.1773816141
 30
0.0
 10
1.7865496338
 20
9.1837402878
 30
0.0
 10
1.779272728
 20
9.1889016549
 30
0.0
 10
1.7739527898
 20
9.1927743873
 30
0.0
 10
1.7687434542
 20
9.1966577355
 30
0.0
 10
1.7644793892
 20
9.1999056473
 30
0.0
 10
1.7611230322
 20
9.2024997874
 30
0.0
 10
1.7578309125
 20
9.2050675085
 30
0.0
 10
1.7537892863
 20
9.2082573787
 30
0.0
 10
1.7490324131
 20
9.21205464
 30
0.0
 10
1.74514125
 20
9.2151815376
 30
0.0
 10
1.7420842759
 20
9.2176413724
 30
0.0
 10
1.7391081212
 20
9.2200345652
 30
0.0
 10
1.7354693395
 20
9.2229470461
 30
0.0
 10
1.7318706239
 20
9.225780452
 30
0.0
 10
1.7290498693
 20
9.227953978
 30
0.0
 10
1.7269882643
 20
9.2295147517
 30
0.0
 10
1.7249609648
 20
9.2310167409
 30
0.0
 10
1.7229691157
 20
9.2324512052
 30
0.0
 10
1.7210148371
 20
9.2338089669
 30
0.0
 10
1.7191003067
 20
9.2350807308
 30
0.0
 10
1.7172276888
 20
9.2362572246
 30
0.0
 10
1.715399222
 20
9.2373291433
 30
0.0
 10
1.7136178464
 20
9.2382867479
 30
0.0
 10
1.7118878641
 20
9.2391205602
 30
0.0
 10
1.7102143428
 20
9.2398206836
 30
0.0
 10
1.7086023848
 20
9.240377023
 30
0.0
 10
1.7070569021
 20
9.2407794136
 30
0.0
 10
1.7055819926
 20
9.2410172373
 30
0.0
 10
1.7041818909
 20
9.2410796168
 30
0.0
 10
1.7028615467
 20
9.2409717973
 30
0.0
 10
1.7016237346
 20
9.2406993373
 30
0.0
 10
1.7004713657
 20
9.2402682562
 30
0.0
 10
1.6994073337
 20
9.2396851461
 30
0.0
 10
1.6984342602
 20
9.2389568965
 30
0.0
 10
1.6975543865
 20
9.2380914906
 30
0.0
 10
1.6969015771
 20
9.2372731493
 30
0.0
 10
1.6964223863
 20
9.2365644567
 30
0.0
 10
1.6959628191
 20
9.2358063704
 30
0.0
 10
1.6954413241
 20
9.2347922594
 30
0.0
 10
1.6949012555
 20
9.2334948926
 30
0.0
 10
1.694438082
 20
9.2321163014
 30
0.0
 10
1.6940485558
 20
9.2306659241
 30
0.0
 10
1.6937311658
 20
9.2291510092
 30
0.0
 10
1.6934842339
 20
9.2275775851
 30
0.0
 10
1.6933059197
 20
9.2259513032
 30
0.0
 10
1.6931944075
 20
9.2242777734
 30
0.0
 10
1.6931318455
 20
9.2219678275
 30
0.0
 10
1.6931814265
 20
9.2202154988
 30
0.0
 10
1.6932526934
 20
9.2190386148
 30
0.0
 11
1.8074712633
 21
9.1700809105
 31
0.0
 11
1.795878333
 21
9.1774778958
 31
0.0
 11
1.7846917333
 21
9.1850760388
 31
0.0
 11
1.7792598852
 21
9.1889276268
 31
0.0
 11
1.7739379507
 21
9.1928006733
 31
0.0
 11
1.7687265299
 21
9.196684438
 31
0.0
 11
1.7636262225
 21
9.2005681807
 31
0.0
 11
1.761117924
 21
9.2025066868
 31
0.0
 11
1.7586376519
 21
9.2044408559
 31
0.0
 11
1.7537618209
 21
9.2082864175
 31
0.0
 11
1.7490000424
 21
9.2120847375
 31
0.0
 11
1.7443536385
 21
9.2158155685
 31
0.0
 11
1.7420741162
 21
9.2176493406
 31
0.0
 11
1.7398240442
 21
9.2194579291
 31
0.0
 11
1.7354141514
 21
9.222981395
 31
0.0
 11
1.7311278629
 21
9.226348985
 31
0.0
 11
1.7290322963
 21
9.2279627286
 31
0.0
 11
1.7269691034
 21
9.2295235822
 31
0.0
 11
1.7249392255
 21
9.2310256751
 31
0.0
 11
1.7229447155
 21
9.2324601018
 31
0.0
 11
1.720987795
 21
9.233817496
 31
0.0
 11
1.7190706853
 21
9.2350884913
 31
0.0
 11
1.7171956082
 21
9.2362637216
 31
0.0
 11
1.715364785
 21
9.2373338206
 31
0.0
 11
1.7135807963
 21
9.2382893297
 31
0.0
 11
1.7118484212
 21
9.2391202246
 31
0.0
 11
1.7101732717
 21
9.239816267
 31
0.0
 11
1.7085609611
 21
9.2403672179
 31
0.0
 11
1.7070171028
 21
9.2407628386
 31
0.0
 11
1.7055473098
 21
9.2409928919
 31
0.0
 11
1.7041563963
 21
9.2410506419
 31
0.0
 11
1.7028467019
 21
9.2409402012
 31
0.0
 11
1.7016200883
 21
9.2406677773
 31
0.0
 11
1.700478417
 21
9.2402395775
 31
0.0
 11
1.6994235496
 21
9.2396618093
 31
0.0
 11
1.6984573473
 21
9.2389406806
 31
0.0
 11
1.6975807234
 21
9.2380833859
 31
0.0
 11
1.6967916097
 21
9.2371002223
 31
0.0
 11
1.6964290403
 21
9.2365648477
 31
0.0
 11
1.6960873538
 21
9.2360020954
 31
0.0
 11
1.6954653031
 21
9.2347999106
 31
0.0
 11
1.6949228051
 21
9.2335045734
 31
0.0
 11
1.6944572074
 21
9.2321269892
 31
0.0
 11
1.6940659383
 21
9.2306775816
 31
0.0
 11
1.6937469818
 21
9.2291634676
 31
0.0
 11
1.6934985552
 21
9.2275903765
 31
0.0
 11
1.6933188763
 21
9.2259640326
 31
0.0
 11
1.6932061632
 21
9.2242901601
 31
0.0
 11
1.6931586338
 21
9.2225744835
 31
0.0
 11
1.6932526934
 21
9.2190386148
 31
0.0
  0
SPLINE
  5
369
100
AcDbEntity
  8
0
100
AcDbSpline
 62
6
  6
CONTINUOUS
 70
0
 71
3
 72
49
 73
45
 74
43
 42
0.0000001
 43
0.0000001
 44
0.0000000001
 12
-0.0681072695
 22
0.0544191572
 32
0.0
 13
0.0044637022
 23
-0.0870638857
 33
0.0
 40
0.0
 40
0.0
 40
0.0
 40
0.0
 40
0.0955035098
 40
0.1887594334
 40
0.279604715
 40
0.3240697474
 40
0.3678641332
 40
0.4532577071
 40
0.5353419976
 40
0.5749946838
 40
0.6136338274
 40
0.6874342065
 40
0.7223508525
 40
0.7557802035
 40
0.7875918936
 40
0.8175754126
 40
0.8454653772
 40
0.8709994679
 40
0.8828035257
 40
0.8939245951
 40
0.9043327487
 40
0.913997107
 40
0.9228887458
 40
0.9309824516
 40
0.9382587072
 40
0.9447070941
 40
0.9476222914
 40
0.9503342522
 40
0.952847869
 40
0.9551709119
 40
0.9592926034
 40
0.961139575
 40
0.9628802154
 40
0.9645484935
 40
0.9661814102
 40
0.9678169022
 40
0.9694913217
 40
0.9730754715
 40
0.9750418289
 40
0.977146876
 40
0.9818195503
 40
0.987166494
 40
0.99322236
 40
1.0
 40
1.0
 40
1.0
 40
1.0
 10
1.6955907409
 20
9.1827347951
 30
0.0
 10
1.6934225798
 20
9.1844672019
 30
0.0
 10
1.689184999
 20
9.187951465
 30
0.0
 10
1.683052024
 20
9.1932824411
 30
0.0
 10
1.6781545134
 20
9.1977703394
 30
0.0
 10
1.6743847817
 20
9.2013590664
 30
0.0
 10
1.6707731937
 20
9.2048835905
 30
0.0
 10
1.6664553237
 20
9.2092488721
 30
0.0
 10
1.6623131681
 20
9.2136165771
 30
0.0
 10
1.659153798
 20
9.217042728
 30
0.0
 10
1.6561857232
 20
9.2203176026
 30
0.0
 10
1.6533442219
 20
9.2235212
 30
0.0
 10
1.6506220231
 20
9.2266280001
 30
0.0
 10
1.6487083337
 20
9.2288209327
 30
0.0
 10
1.6468891691
 20
9.2309060847
 30
0.0
 10
1.6451690459
 20
9.2328640263
 30
0.0
 10
1.643553504
 20
9.23467093
 30
0.0
 10
1.6422687258
 20
9.2360647685
 30
0.0
 10
1.6412949211
 20
9.2370820417
 30
0.0
 10
1.6406142873
 20
9.2377713205
 30
0.0
 10
1.6399650312
 20
9.2384039911
 30
0.0
 10
1.6393483864
 20
9.238977002
 30
0.0
 10
1.6387656495
 20
9.2394872592
 30
0.0
 10
1.6382180936
 20
9.2399317301
 30
0.0
 10
1.637706974
 20
9.2403073618
 30
0.0
 10
1.6372996495
 20
9.2405688953
 30
0.0
 10
1.6369922759
 20
9.24073845
 30
0.0
 10
1.6367794548
 20
9.2408419967
 30
0.0
 10
1.6365765587
 20
9.2409259138
 30
0.0
 10
1.6363293899
 20
9.2410078177
 30
0.0
 10
1.6360909795
 20
9.2410549507
 30
0.0
 10
1.6358664048
 20
9.2410575503
 30
0.0
 10
1.6357143048
 20
9.2410388939
 30
0.0
 10
1.6355725075
 20
9.2409998627
 30
0.0
 10
1.6354411801
 20
9.2409406996
 30
0.0
 10
1.6353204914
 20
9.2408617646
 30
0.0
 10
1.6351705734
 20
9.2407279065
 30
0.0
 10
1.635045429
 20
9.2405561462
 30
0.0
 10
1.6349442127
 20
9.240357865
 30
0.0
 10
1.6348501542
 20
9.2401214205
 30
0.0
 10
1.6347611251
 20
9.2397791986
 30
0.0
 10
1.6346975764
 20
9.2393156543
 30
0.0
 10
1.6346732634
 20
9.2387873389
 30
0.0
 10
1.6346824757
 20
9.238414242
 30
0.0
 10
1.6346925602
 20
9.2382175461
 30
0.0
 11
1.6955907409
 21
9.1827347951
 31
0.0
 11
1.6891594356
 21
9.1880223008
 31
0.0
 11
1.6830231145
 21
9.193355276
 31
0.0
 11
1.677183863
 21
9.1987055365
 31
0.0
 11
1.6743762646
 21
9.2013783135
 31
0.0
 11
1.6716437109
 21
9.2040447048
 31
0.0
 11
1.6664068336
 21
9.2093357462
 31
0.0
 11
1.6614811255
 21
9.2145266242
 31
0.0
 11
1.6591375425
 21
9.2170677734
 31
0.0
 11
1.6568749708
 21
9.2195632714
 31
0.0
 11
1.6526010587
 21
9.2243723553
 31
0.0
 11
1.6505943236
 21
9.226661193
 31
0.0
 11
1.6486774738
 21
9.2288563923
 31
0.0
 11
1.6468530053
 21
9.2309450368
 31
0.0
 11
1.645125946
 21
9.2329071257
 31
0.0
 11
1.6435031049
 21
9.2347176734
 31
0.0
 11
1.6419913284
 21
9.2363515899
 31
0.0
 11
1.6412792288
 21
9.237094471
 31
0.0
 11
1.6405974627
 21
9.2377837857
 31
0.0
 11
1.6399469802
 21
9.2384163858
 31
0.0
 11
1.639329033
 21
9.2389890847
 31
0.0
 11
1.6387449326
 21
9.2394986882
 31
0.0
 11
1.6381959908
 21
9.239942002
 31
0.0
 11
1.6376835192
 21
9.2403158321
 31
0.0
 11
1.6372088297
 21
9.2406169841
 31
0.0
 11
1.636986063
 21
9.2407393077
 31
0.0
 11
1.6367732337
 21
9.2408422639
 31
0.0
 11
1.6365705058
 21
9.2409254535
 31
0.0
 11
1.6363780431
 21
9.2409884772
 31
0.0
 11
1.6360245004
 21
9.2410526616
 31
0.0
 11
1.6358634893
 21
9.2410538904
 31
0.0
 11
1.6357129349
 21
9.2410349113
 31
0.0
 11
1.635572796
 21
9.2409960119
 31
0.0
 11
1.6354430315
 21
9.2409374792
 31
0.0
 11
1.6353236004
 21
9.2408596008
 31
0.0
 11
1.6352144614
 21
9.2407626637
 31
0.0
 11
1.6350268958
 21
9.2405127632
 31
0.0
 11
1.6349483869
 21
9.2403603742
 31
0.0
 11
1.6348800058
 21
9.2401900759
 31
0.0
 11
1.6347734626
 21
9.2397969003
 31
0.0
 11
1.6347069374
 21
9.2393355347
 31
0.0
 11
1.6346801015
 21
9.2388082775
 31
0.0
 11
1.6346925602
 21
9.2382175461
 31
0.0
  0
LINE
  5
36A
100
AcDbEntity
  8
0
100
AcDbLine
 62
6
  6
CONTINUOUS
 10
20.4687693071
 20
7.5529924105
 11
20.4705492726
 21
7.574540186
  0
LINE
  5
36B
100
AcDbEntity
  8
0
100
AcDbLine
 62
6
  6
CONTINUOUS
 10
20.4739697751
 20
7.6203331205
 11
20.4717858125
 21
7.5911603341
  0
SPLINE
  5
36C
100
AcDbEntity
  8
0
100
AcDbSpline
 62
6
  6
CONTINUOUS
 70
0
 71
3
 72
11
 73
7
 74
5
 42
0.0000001
 43
0.0000001
 44
0.0000000001
 12
0.005226154
 22
0.0223529355
 32
0.0
 13
0.0
 23
0.0229557489
 33
0.0
 40
0.0
 40
0.0
 40
0.0
 40
0.0
 40
0.2456068746
 40
0.4951225205
 40
0.7471317894
 40
1.0
 40
1.0
 40
1.0
 40
1.0
 10
21.478034609
 20
9.3754897466
 30
0.0
 10
21.4784624688
 20
9.3773197581
 30
0.0
 10
21.4792128296
 20
9.3810360499
 30
0.0
 10
21.4800142053
 20
9.386699671
 30
0.0
 10
21.4804975743
 20
9.3924548834
 30
0.0
 10
21.4806060688
 20
9.3963190068
 30
0.0
 10
21.4806060688
 20
9.3982539332
 30
0.0
 11
21.478034609
 21
9.3754897466
 31
0.0
 11
21.4791529453
 21
9.3810158103
 31
0.0
 11
21.4799579201
 21
9.386686782
 31
0.0
 11
21.4804434567
 21
9.3924514321
 31
0.0
 11
21.4806060688
 21
9.3982539332
 31
0.0
  0
SPLINE
  5
36D
100
AcDbEntity
  8
0
100
AcDbSpline
 62
6
  6
CONTINUOUS
 70
0
 71
3
 72
19
 73
15
 74
13
 42
0.0000001
 43
0.0000001
 44
0.0000000001
 12
0.0221846574
 22
0.0423833126
 32
0.0
 13
0.0
 23
0.0478383132
 33
0.0
 40
0.0
 40
0.0
 40
0.0
 40
0.0
 40
0.1087914397
 40
0.1655279454
 40
0.2237197146
 40
0.283284112
 40
0.344133999
 40
0.4693031711
 40
0.5984308107
 40
0.6642155823
 40
0.7306593119
 40
0.7976182131
 40
0.8649352709
 40
1.0
 40
1.0
 40
1.0
 40
1.0
 10
21.3363588663
 20
9.3518908285
 30
0.0
 10
21.3371633665
 20
9.353427809
 30
0.0
 10
21.3382880469
 20
9.3558196641
 30
0.0
 10
21.3396278251
 20
9.3591264138
 30
0.0
 10
21.3405822534
 20
9.3617407303
 30
0.0
 10
21.3414696825
 20
9.3644475356
 30
0.0
 10
21.342570742
 20
9.3682062526
 30
0.0
 10
21.3437589037
 20
9.373092399
 30
0.0
 10
21.3446820741
 20
9.378115021
 30
0.0
 10
21.3452699355
 20
9.3822413772
 30
0.0
 10
21.3456340078
 20
9.3853970876
 30
0.0
 10
21.3459180216
 20
9.3885855398
 30
0.0
 10
21.3461896176
 20
9.3928721883
 30
0.0
 10
21.3462714242
 20
9.3961001769
 30
0.0
 10
21.3462714242
 20
9.3982539332
 30
0.0
 11
21.3363588663
 21
9.3518908285
 31
0.0
 11
21.3385841139
 21
9.3565955114
 31
0.0
 11
21.3396045757
 21
9.359110551
 31
0.0
 11
21.3405603357
 21
9.3617251338
 31
0.0
 11
21.3414489995
 21
9.3644324758
 31
0.0
 11
21.3422681728
 21
9.3672257928
 31
0.0
 11
21.3436893919
 21
9.3730425675
 31
0.0
 11
21.3448104529
 21
9.3791172379
 31
0.0
 11
21.3452546587
 21
9.3822327627
 31
0.0
 11
21.3456194048
 21
9.3853903216
 31
0.0
 11
21.3459039382
 21
9.3885808602
 31
0.0
 11
21.3461077749
 21
9.3917947371
 31
0.0
 11
21.3462714242
 21
9.3982539332
 31
0.0
  0
SPLINE
  5
36E
100
AcDbEntity
  8
0
100
AcDbSpline
 62
6
  6
CONTINUOUS
 70
0
 71
3
 72
23
 73
19
 74
17
 42
0.0000001
 43
0.0000001
 44
0.0000000001
 12
0.0326741108
 22
0.0481532685
 32
0.0
 13
-0.0
 23
0.0581922227
 33
0.0
 40
0.0
 40
0.0
 40
0.0
 40
0.0
 40
0.044421774
 40
0.0919097895
 40
0.1424099535
 40
0.1958332409
 40
0.2520688713
 40
0.3109751221
 40
0.3723676701
 40
0.4360477581
 40
0.5018083811
 40
0.569428116
 40
0.6386704706
 40
0.7092942611
 40
0.7810515629
 40
0.8536437896
 40
0.9267381575
 40
1.0
 40
1.0
 40
1.0
 40
1.0
 10
21.1882249182
 20
9.342119815
 30
0.0
 10
21.1887087321
 20
9.3428328328
 30
0.0
 10
21.189654276
 20
9.3443462165
 30
0.0
 10
21.1909666112
 20
9.3467786644
 30
0.0
 10
21.1922158599
 20
9.3494382405
 30
0.0
 10
21.1933964855
 20
9.3523130485
 30
0.0
 10
21.1945028269
 20
9.3553909685
 30
0.0
 10
21.1955295883
 20
9.3586586136
 30
0.0
 10
21.1964731159
 20
9.3621011116
 30
0.0
 10
21.1973292459
 20
9.3657031099
 30
0.0
 10
21.1980936555
 20
9.3694489885
 30
0.0
 10
21.1987629142
 20
9.3733225169
 30
0.0
 10
21.1993346198
 20
9.3773069205
 30
0.0
 10
21.1998061543
 20
9.3813851973
 30
0.0
 10
21.200174617
 20
9.3855392903
 30
0.0
 10
21.2004387835
 20
9.3897493192
 30
0.0
 10
21.2005980241
 20
9.3939937857
 30
0.0
 10
21.2006336598
 20
9.3968328433
 30
0.0
 10
21.2006336598
 20
9.3982539332
 30
0.0
 11
21.1882249182
 21
9.342119815
 31
0.0
 11
21.1895997039
 21
9.344308924
 31
0.0
 11
21.1909166564
 21
9.3467383682
 31
0.0
 11
21.1921701689
 21
9.3493963303
 31
0.0
 11
21.1933547169
 21
9.3522706314
 31
0.0
 11
21.1944647799
 21
9.3553490826
 31
0.0
 11
21.1954952896
 21
9.3586184021
 31
0.0
 11
21.1964420323
 21
9.3620632426
 31
0.0
 11
21.1973008892
 21
9.3656680273
 31
0.0
 11
21.1980677662
 21
9.3694171562
 31
0.0
 11
21.1987392604
 21
9.3732943806
 31
0.0
 11
21.1993127408
 21
9.377282728
 31
0.0
 11
21.1997856164
 21
9.3813651877
 31
0.0
 11
21.2001553817
 21
9.3855245008
 31
0.0
 11
21.2004205374
 21
9.3897404738
 31
0.0
 11
21.2005802406
 21
9.3939909984
 31
0.0
 11
21.2006336598
 21
9.3982539332
 31
0.0
  0
SPLINE
  5
36F
100
AcDbEntity
  8
0
100
AcDbSpline
 62
6
  6
CONTINUOUS
 70
0
 71
3
 72
28
 73
24
 74
22
 42
0.0000001
 43
0.0000001
 44
0.0000000001
 12
0.0384670163
 22
0.0497121842
 32
0.0
 13
0.0
 23
0.0628570807
 33
0.0
 40
0.0
 40
0.0
 40
0.0
 40
0.0
 40
0.0158270165
 40
0.0328302167
 40
0.0510300243
 40
0.0704373933
 40
0.0910561233
 40
0.1128845621
 40
0.1359164569
 40
0.1601354611
 40
0.1855167431
 40
0.2120328951
 40
0.268348336
 40
0.3288328437
 40
0.3931793677
 40
0.4610265142
 40
0.5320017047
 40
0.6057150095
 40
0.681750763
 40
0.759687478
 40
0.8390732151
 40
0.9193648009
 40
1.0
 40
1.0
 40
1.0
 40
1.0
 10
21.0356422131
 20
9.3370480012
 30
0.0
 10
21.0358451524
 20
9.3373102664
 30
0.0
 10
21.0362472034
 20
9.3378690736
 30
0.0
 10
21.0368206937
 20
9.338772015
 30
0.0
 10
21.0373851467
 20
9.3397678105
 30
0.0
 10
21.0379396869
 20
9.3408548455
 30
0.0
 10
21.0384834672
 20
9.3420315642
 30
0.0
 10
21.0390156187
 20
9.3432963606
 30
0.0
 10
21.0395351664
 20
9.3446474993
 30
0.0
 10
21.0400413417
 20
9.3460828576
 30
0.0
 10
21.0405334859
 20
9.3476000089
 30
0.0
 10
21.0411830007
 20
9.349772475
 30
0.0
 10
21.0419498201
 20
9.3526766281
 30
0.0
 10
21.0427845858
 20
9.3563798486
 30
0.0
 10
21.0435461109
 20
9.3603450638
 30
0.0
 10
21.0442303121
 20
9.3645471031
 30
0.0
 10
21.0448323534
 20
9.3689598037
 30
0.0
 10
21.0453480939
 20
9.3735560584
 30
0.0
 10
21.0457749258
 20
9.3783078493
 30
0.0
 10
21.0461098314
 20
9.3831861188
 30
0.0
 10
21.0463500491
 20
9.388159227
 30
0.0
 10
21.0464949795
 20
9.3931925508
 30
0.0
 10
21.0465274488
 20
9.3965644354
 30
0.0
 10
21.0465274488
 20
9.3982539332
 30
0.0
 11
21.0356422131
 21
9.3370480012
 31
0.0
 11
21.0362251078
 21
9.3378541901
 31
0.0
 11
21.0367998357
 21
9.3387552785
 31
0.0
 11
21.0373655129
 21
9.33974962
 31
0.0
 11
21.0379212556
 21
9.340835568
 31
0.0
 11
21.0384661797
 21
9.3420114761
 31
0.0
 11
21.0389994013
 21
9.3432756976
 31
0.0
 11
21.0395200409
 21
9.3446265569
 31
0.0
 11
21.0400272893
 21
9.3460618986
 31
0.0
 11
21.0405203949
 21
9.3475791746
 31
0.0
 11
21.0409986081
 21
9.3491758255
 31
0.0
 11
21.0419073577
 21
9.3525970139
 31
0.0
 11
21.042747566
 21
9.356304889
 31
0.0
 11
21.0435139628
 21
9.3602762497
 31
0.0
 11
21.0442020382
 21
9.3644850491
 31
0.0
 11
21.0448073258
 21
9.3689050904
 31
0.0
 11
21.0453259062
 21
9.3735093818
 31
0.0
 11
21.0457548597
 21
9.3782694789
 31
0.0
 11
21.0460913738
 21
9.3831567817
 31
0.0
 11
21.0463330358
 21
9.3881408821
 31
0.0
 11
21.0464786951
 21
9.3931856744
 31
0.0
 11
21.0465274488
 21
9.3982539332
 31
0.0
  0
SPLINE
  5
370
100
AcDbEntity
  8
0
100
AcDbSpline
 62
6
  6
CONTINUOUS
 70
0
 71
3
 72
32
 73
28
 74
26
 42
0.0000001
 43
0.0000001
 44
0.0000000001
 12
0.0408323211
 22
0.049558092
 32
0.0
 13
0.0
 23
0.0642127941
 33
0.0
 40
0.0
 40
0.0
 40
0.0
 40
0.0
 40
0.0038718348
 40
0.0081507252
 40
0.0128528445
 40
0.0179898156
 40
0.0235700366
 40
0.029599586
 40
0.0430216797
 40
0.0582725223
 40
0.0753411756
 40
0.0942073962
 40
0.1148460057
 40
0.137228582
 40
0.161324191
 40
0.1870911882
 40
0.214476156
 40
0.2738786153
 40
0.3390849548
 40
0.4095946253
 40
0.484826591
 40
0.5641884777
 40
0.6470596853
 40
0.7327921268
 40
0.8207241813
 40
0.9100763596
 40
1.0
 40
1.0
 40
1.0
 40
1.0
 10
20.88109227
 20
9.334637251
 30
0.0
 10
20.8811449687
 20
9.3347012112
 30
0.0
 10
20.881249713
 20
9.3348410079
 30
0.0
 10
20.8813986457
 20
9.3350725158
 30
0.0
 10
20.8815469994
 20
9.3353359497
 30
0.0
 10
20.881694705
 20
9.3356312129
 30
0.0
 10
20.8818417146
 20
9.3359582281
 30
0.0
 10
20.8820439888
 20
9.3364544661
 30
0.0
 10
20.882291915
 20
9.3371550775
 30
0.0
 10
20.882575976
 20
9.3380922766
 30
0.0
 10
20.8828557316
 20
9.339151755
 30
0.0
 10
20.8831305468
 20
9.3403312141
 30
0.0
 10
20.883399783
 20
9.3416283306
 30
0.0
 10
20.8836628296
 20
9.3430407158
 30
0.0
 10
20.883919019
 20
9.3445657719
 30
0.0
 10
20.8841678196
 20
9.3462004314
 30
0.0
 10
20.8844981165
 20
9.3485868871
 30
0.0
 10
20.8848849974
 20
9.3518174065
 30
0.0
 10
20.8853009655
 20
9.355973213
 30
0.0
 10
20.8856764155
 20
9.3604729428
 30
0.0
 10
20.8860087461
 20
9.3652797858
 30
0.0
 10
20.8862947166
 20
9.370354625
 30
0.0
 10
20.8865319626
 20
9.3756569483
 30
0.0
 10
20.8867187827
 20
9.3811448262
 30
0.0
 10
20.8868530899
 20
9.3867729961
 30
0.0
 10
20.8869341151
 20
9.3924918923
 30
0.0
 10
20.8869522934
 20
9.3963291838
 30
0.0
 10
20.8869522934
 20
9.3982539332
 30
0.0
 11
20.88109227
 21
9.334637251
 31
0.0
 11
20.8812421583
 21
9.3348356094
 31
0.0
 11
20.8813915411
 21
9.335066212
 31
0.0
 11
20.8815403426
 21
9.3353289355
 31
0.0
 11
20.8816884871
 21
9.3356236563
 31
0.0
 11
20.8818358988
 21
9.335950251
 31
0.0
 11
20.8819825021
 21
9.3363085963
 31
0.0
 11
20.8822729801
 21
9.3371200411
 31
0.0
 11
20.8825593284
 21
9.3380565407
 31
0.0
 11
20.882840979
 21
9.3391157602
 31
0.0
 11
20.8831173669
 21
9.3402952632
 31
0.0
 11
20.8833879269
 21
9.3415926139
 31
0.0
 11
20.883652094
 21
9.343005376
 31
0.0
 11
20.8839093044
 21
9.3445310936
 31
0.0
 11
20.8841590325
 21
9.3461667099
 31
0.0
 11
20.8844007965
 21
9.3479084764
 31
0.0
 11
20.8848585149
 21
9.3516953121
 31
0.0
 11
20.8852786299
 21
9.3558612637
 31
0.0
 11
20.8856576583
 21
9.3603729937
 31
0.0
 11
20.8859926877
 21
9.3651922169
 31
0.0
 11
20.8862808821
 21
9.3702801098
 31
0.0
 11
20.8865199166
 21
9.3755961303
 31
0.0
 11
20.8867079713
 21
9.381098037
 31
0.0
 11
20.8868433187
 21
9.3867427774
 31
0.0
 11
20.8869249536
 21
9.3924797497
 31
0.0
 11
20.8869522934
 21
9.3982539332
 31
0.0
  0
SPLINE
  5
371
100
AcDbEntity
  8
0
100
AcDbSpline
 62
6
  6
CONTINUOUS
 70
0
 71
3
 72
33
 73
29
 74
27
 42
0.0000001
 43
0.0000001
 44
0.0000000001
 12
-0.0411303893
 22
0.0492670773
 32
0.0
 13
0.0
 23
0.0641790763
 33
0.0
 40
0.0
 40
0.0
 40
0.0
 40
0.0
 40
0.0007058216
 40
0.0015312873
 40
0.0035627266
 40
0.0061228579
 40
0.0092234274
 40
0.0128699033
 40
0.0170647017
 40
0.0218085927
 40
0.0271013851
 40
0.0393298827
 40
0.0537387706
 40
0.070297382
 40
0.0889639579
 40
0.1096956083
 40
0.1324488329
 40
0.1571797026
 40
0.1838368572
 40
0.2426589585
 40
0.3083619408
 40
0.3803729614
 40
0.4580176511
 40
0.5405820631
 40
0.6273332234
 40
0.7174964882
 40
0.8102847922
 40
1.0
 40
1.0
 40
1.0
 40
1.0
 10
20.7271586031
 20
9.3341836361
 30
0.0
 10
20.7271489262
 20
9.3341952274
 30
0.0
 10
20.7271298111
 20
9.3342219488
 30
0.0
 10
20.727091837
 20
9.3342881206
 30
0.0
 10
20.727045898
 20
9.3343948529
 30
0.0
 10
20.7269936881
 20
9.3345509889
 30
0.0
 10
20.7269414027
 20
9.3347432041
 30
0.0
 10
20.7268890994
 20
9.3349714055
 30
0.0
 10
20.7268368799
 20
9.335235561
 30
0.0
 10
20.726784798
 20
9.3355355489
 30
0.0
 10
20.7267120763
 20
9.3360063064
 30
0.0
 10
20.7266235881
 20
9.3366837195
 30
0.0
 10
20.7265228664
 20
9.3376023475
 30
0.0
 10
20.7264235305
 20
9.3386595486
 30
0.0
 10
20.7263258303
 20
9.3398526628
 30
0.0
 10
20.7262300731
 20
9.3411788347
 30
0.0
 10
20.7261365187
 20
9.3426351867
 30
0.0
 10
20.7260454288
 20
9.3442186847
 30
0.0
 10
20.72592357
 20
9.346573272
 30
0.0
 10
20.7257809471
 20
9.3498044183
 30
0.0
 10
20.7256275944
 20
9.3540061529
 30
0.0
 10
20.7254887673
 20
9.3586112615
 30
0.0
 10
20.7253655886
 20
9.3635776451
 30
0.0
 10
20.7252592831
 20
9.3688598201
 30
0.0
 10
20.7251709762
 20
9.3744101696
 30
0.0
 10
20.7251013233
 20
9.3801795208
 30
0.0
 10
20.7250340109
 20
9.388151718
 30
0.0
 10
20.7250141426
 20
9.3941953509
 30
0.0
 10
20.7250141426
 20
9.3982539332
 30
0.0
 11
20.7271586031
 21
9.3341836361
 31
0.0
 11
20.7271318981
 21
9.3342202263
 31
0.0
 11
20.7271052107
 21
9.334265991
 31
0.0
 11
20.7270519032
 21
9.3343849708
 31
0.0
 11
20.7269987106
 21
9.3345404291
 31
0.0
 11
20.726945663
 21
9.3347322197
 31
0.0
 11
20.7268927901
 21
9.3349601963
 31
0.0
 11
20.7268401221
 21
9.3352242125
 31
0.0
 11
20.726787689
 21
9.3355241221
 31
0.0
 11
20.7267355206
 21
9.3358597788
 31
0.0
 11
20.7266320982
 21
9.3366377482
 31
0.0
 11
20.7265300939
 21
9.3375568543
 31
0.0
 11
20.7264297371
 21
9.3386148215
 31
0.0
 11
20.7263312514
 21
9.3398087701
 31
0.0
 11
20.7262348607
 21
9.3411358121
 31
0.0
 11
20.7261407884
 21
9.3425930598
 31
0.0
 11
20.7260492582
 21
9.3441776228
 31
0.0
 11
20.725960484
 21
9.3458861496
 31
0.0
 11
20.7257919705
 21
9.3496575348
 31
0.0
 11
20.7256367684
 21
9.3538714344
 31
0.0
 11
20.7254963557
 21
9.3584909017
 31
0.0
 11
20.7253719606
 21
9.3634725133
 31
0.0
 11
20.7252647142
 21
9.3687703356
 31
0.0
 11
20.7251756284
 21
9.3743372321
 31
0.0
 11
20.7251054509
 21
9.3801234016
 31
0.0
 11
20.7250548795
 21
9.3860782545
 31
0.0
 11
20.7250141426
 21
9.3982539332
 31
0.0
  0
SPLINE
  5
372
100
AcDbEntity
  8
0
100
AcDbSpline
 62
6
  6
CONTINUOUS
 70
0
 71
3
 72
28
 73
24
 74
22
 42
0.0000001
 43
0.0000001
 44
0.0000000001
 12
-0.0400308751
 22
0.0497362001
 32
0.0
 13
0.0
 23
0.0638448163
 33
0.0
 40
0.0
 40
0.0
 40
0.0
 40
0.0
 40
0.0122196032
 40
0.0258531997
 40
0.0409518429
 40
0.0575369774
 40
0.075614314
 40
0.0951803295
 40
0.1162250417
 40
0.1387338514
 40
0.1626869512
 40
0.1880511457
 40
0.2147871507
 40
0.2428539902
 40
0.3028084554
 40
0.3675573505
 40
0.4366627325
 40
0.5096514338
 40
0.5860404474
 40
0.6653145799
 40
0.8303768278
 40
0.9149629284
 40
1.0
 40
1.0
 40
1.0
 40
1.0
 10
20.5726509153
 20
9.335571662
 30
0.0
 10
20.5724878615
 20
9.3357742476
 30
0.0
 10
20.5721653072
 20
9.3362210776
 30
0.0
 10
20.5717124915
 20
9.3369664933
 30
0.0
 10
20.5712656853
 20
9.3378218153
 30
0.0
 10
20.5708254388
 20
9.3387854016
 30
0.0
 10
20.5703924666
 20
9.3398555143
 30
0.0
 10
20.5699675529
 20
9.341030252
 30
0.0
 10
20.5695514913
 20
9.3423076901
 30
0.0
 10
20.5691450877
 20
9.3436858318
 30
0.0
 10
20.5687492308
 20
9.3451624028
 30
0.0
 10
20.5683645162
 20
9.3467346707
 30
0.0
 10
20.5679915839
 20
9.3483995985
 30
0.0
 10
20.5675001212
 20
9.3507919651
 30
0.0
 10
20.566924436
 20
9.3539923368
 30
0.0
 10
20.5663054235
 20
9.3580706032
 30
0.0
 10
20.5657478999
 20
9.3624374755
 30
0.0
 10
20.5652558301
 20
9.3670613411
 30
0.0
 10
20.5648334745
 20
9.3719093398
 30
0.0
 10
20.5643604783
 20
9.3787187489
 30
0.0
 10
20.564049315
 20
9.385713229
 30
0.0
 10
20.5638916492
 20
9.3928342825
 30
0.0
 10
20.5638649381
 20
9.3964442078
 30
0.0
 10
20.5638649381
 20
9.3982539332
 30
0.0
 11
20.5726509153
 21
9.335571662
 31
0.0
 11
20.5721911449
 21
9.3362019463
 31
0.0
 11
20.5717364396
 21
9.3369441721
 31
0.0
 11
20.5712876249
 21
9.3377972862
 31
0.0
 11
20.5708454888
 21
9.3387594358
 31
0.0
 11
20.5704108115
 21
9.3398285964
 31
0.0
 11
20.5699843728
 21
9.3410027439
 31
0.0
 11
20.5695669529
 21
9.342279854
 31
0.0
 11
20.5691593317
 21
9.3436579025
 31
0.0
 11
20.5687622761
 21
9.3451347396
 31
0.0
 11
20.5683764756
 21
9.346707484
 31
0.0
 11
20.568002592
 21
9.3483729892
 31
0.0
 11
20.5676412869
 21
9.3501281085
 31
0.0
 11
20.566959059
 21
9.3538946027
 31
0.0
 11
20.5663349525
 21
9.3579811007
 31
0.0
 11
20.5657732617
 21
9.3623572209
 31
0.0
 11
20.565277934
 21
9.366990771
 31
0.0
 11
20.5648527633
 21
9.3718492454
 31
0.0
 11
20.5645005959
 21
9.3768982208
 31
0.0
 11
20.5640250148
 21
9.3874258531
 31
0.0
 11
20.5639050901
 21
9.3928249054
 31
0.0
 11
20.5638649381
 21
9.3982539332
 31
0.0
  0
SPLINE
  5
373
100
AcDbEntity
  8
0
100
AcDbSpline
 62
6
  6
CONTINUOUS
 70
0
 71
3
 72
24
 73
20
 74
18
 42
0.0000001
 43
0.0000001
 44
0.0000000001
 12
-0.0360630266
 22
0.0492576759
 32
0.0
 13
0.0
 23
0.0610480182
 33
0.0
 40
0.0
 40
0.0
 40
0.0
 40
0.0
 40
0.0190090512
 40
0.0389773906
 40
0.0599143241
 40
0.0818246724
 40
0.128554072
 40
0.1790885732
 40
0.2332851037
 40
0.2909738693
 40
0.3519468048
 40
0.4159417176
 40
0.4826804285
 40
0.5518748712
 40
0.6232146602
 40
0.6963766438
 40
0.8468051045
 40
0.9232779348
 40
1.0
 40
1.0
 40
1.0
 40
1.0
 10
20.4187531311
 20
9.339173478
 30
0.0
 10
20.4185246231
 20
9.3394855919
 30
0.0
 10
20.4180719208
 20
9.3401372863
 30
0.0
 10
20.4174206967
 20
9.3411684001
 30
0.0
 10
20.4167815266
 20
9.3422757484
 30
0.0
 10
20.415928219
 20
9.3438868932
 30
0.0
 10
20.4149032773
 20
9.3460866722
 30
0.0
 10
20.4137594634
 20
9.3489500787
 30
0.0
 10
20.4126824876
 20
9.3520760358
 30
0.0
 10
20.4116787262
 20
9.355448305
 30
0.0
 10
20.4107540266
 20
9.3590492089
 30
0.0
 10
20.4099124147
 20
9.3628591403
 30
0.0
 10
20.4091585101
 20
9.3668577018
 30
0.0
 10
20.4084970778
 20
9.3710239326
 30
0.0
 10
20.4079312016
 20
9.3753360569
 30
0.0
 10
20.4073020365
 20
9.3813051228
 30
0.0
 10
20.4068866753
 20
9.3873998348
 30
0.0
 10
20.4066767079
 20
9.3935751312
 30
0.0
 10
20.406641266
 20
9.3966926898
 30
0.0
 10
20.406641266
 20
9.3982539332
 30
0.0
 11
20.4187531311
 21
9.339173478
 31
0.0
 11
20.4180899712
 21
9.3401257898
 31
0.0
 11
20.4174379887
 21
9.3411558126
 31
0.0
 11
20.4167980745
 21
9.3422622476
 31
0.0
 11
20.4161711192
 21
9.3434437958
 31
0.0
 11
20.4149595412
 21
9.3460264666
 31
0.0
 11
20.4138095781
 21
9.3488891581
 31
0.0
 11
20.4127272752
 21
9.3520157206
 31
0.0
 11
20.4117186728
 21
9.3553899893
 31
0.0
 11
20.4107893287
 21
9.3589943845
 31
0.0
 11
20.4099438581
 21
9.3628085651
 31
0.0
 11
20.4091867672
 21
9.3668118709
 31
0.0
 11
20.408522426
 21
9.3709834866
 31
0.0
 11
20.4079541572
 21
9.3753014058
 31
0.0
 11
20.4074847979
 21
9.3797430697
 31
0.0
 11
20.4068533857
 21
9.3889046966
 31
0.0
 11
20.4066944475
 21
9.3935705051
 31
0.0
 11
20.406641266
 21
9.3982539332
 31
0.0
  0
SPLINE
  5
374
100
AcDbEntity
  8
0
100
AcDbSpline
 62
6
  6
CONTINUOUS
 70
0
 71
3
 72
23
 73
19
 74
17
 42
0.0000001
 43
0.0000001
 44
0.0000000001
 12
-0.0280955537
 22
0.0460761674
 32
0.0
 13
-0.0
 23
0.0539664094
 33
0.0
 40
0.0
 40
0.0
 40
0.0
 40
0.0
 40
0.049283104
 40
0.1008588761
 40
0.1546683268
 40
0.2106373929
 40
0.2686619559
 40
0.3286149845
 40
0.3903607888
 40
0.4537573456
 40
0.5186526841
 40
0.5848831468
 40
0.6522807158
 40
0.7206747337
 40
0.7898780772
 40
0.8596601048
 40
0.9297809852
 40
1.0
 40
1.0
 40
1.0
 40
1.0
 10
20.26810867
 20
9.346181472
 30
0.0
 10
20.2676471246
 20
9.3469383975
 30
0.0
 10
20.2667463232
 20
9.3485144742
 30
0.0
 10
20.2654883651
 20
9.350997269
 30
0.0
 10
20.2642967903
 20
9.3536450432
 30
0.0
 10
20.2631764866
 20
9.3564489379
 30
0.0
 10
20.2621309999
 20
9.3593990072
 30
0.0
 10
20.2611635043
 20
9.3624845697
 30
0.0
 10
20.2602773882
 20
9.3656947886
 30
0.0
 10
20.2594761703
 20
9.369018722
 30
0.0
 10
20.25876277
 20
9.3724450063
 30
0.0
 10
20.2581391366
 20
9.375961845
 30
0.0
 10
20.2576074365
 20
9.3795573623
 30
0.0
 10
20.2571698743
 20
9.3832193961
 30
0.0
 10
20.2568284946
 20
9.3869347011
 30
0.0
 10
20.256583726
 20
9.3906887388
 30
0.0
 10
20.2564362828
 20
9.3944661086
 30
0.0
 10
20.2564033061
 20
9.3969907771
 30
0.0
 10
20.2564033061
 20
9.3982539332
 30
0.0
 11
20.26810867
 21
9.346181472
 31
0.0
 11
20.2667860177
 21
9.3484889022
 31
0.0
 11
20.2655254235
 21
9.3509704322
 31
0.0
 11
20.2643314266
 21
9.3536175104
 31
0.0
 11
20.2632085089
 21
9.3564214668
 31
0.0
 11
20.262160488
 21
9.3593722592
 31
0.0
 11
20.2611907551
 21
9.362458965
 31
0.0
 11
20.2603026944
 21
9.3656706469
 31
0.0
 11
20.2594996775
 21
9.3689963577
 31
0.0
 11
20.258784563
 21
9.3724247384
 31
0.0
 11
20.2581595267
 21
9.3759438832
 31
0.0
 11
20.2576266974
 21
9.3795418482
 31
0.0
 11
20.2571882034
 21
9.3832066883
 31
0.0
 11
20.2568458357
 21
9.3869256182
 31
0.0
 11
20.2566004414
 21
9.3906834999
 31
0.0
 11
20.2564527038
 21
9.394464787
 31
0.0
 11
20.2564033061
 21
9.3982539332
 31
0.0
  0
SPLINE
  5
375
100
AcDbEntity
  8
0
100
AcDbSpline
 62
6
  6
CONTINUOUS
 70
0
 71
3
 72
15
 73
11
 74
9
 42
0.0000001
 43
0.0000001
 44
0.0000000001
 12
-0.0146580662
 22
0.0358364848
 32
0.0
 13
-0.0
 23
0.0387183748
 33
0.0
 40
0.0
 40
0.0
 40
0.0
 40
0.0
 40
0.1158890497
 40
0.2352794398
 40
0.3577784464
 40
0.4829490451
 40
0.6103323445
 40
0.7394143935
 40
0.8695354036
 40
1.0
 40
1.0
 40
1.0
 40
1.0
 10
20.1229927152
 20
9.3603935874
 30
0.0
 10
20.1224264788
 20
9.3617779394
 30
0.0
 10
20.1213591493
 20
9.3646227449
 30
0.0
 10
20.1199736423
 20
9.3690296375
 30
0.0
 10
20.1187870954
 20
9.373618047
 30
0.0
 10
20.1178054304
 20
9.3783598216
 30
0.0
 10
20.1170353632
 20
9.3832265001
 30
0.0
 10
20.1164830903
 20
9.3881869116
 30
0.0
 10
20.1161499258
 20
9.3932065226
 30
0.0
 10
20.1160752696
 20
9.3965701408
 30
0.0
 10
20.1160752696
 20
9.3982539332
 30
0.0
 11
20.1229927152
 21
9.3603935874
 31
0.0
 11
20.1214129301
 21
9.3645933216
 31
0.0
 11
20.120023392
 21
9.3690021346
 31
0.0
 11
20.1188330036
 21
9.3735932857
 31
0.0
 11
20.1178484192
 21
9.378338621
 31
0.0
 11
20.1170760706
 21
9.3832098462
 31
0.0
 11
20.1165214464
 21
9.388176824
 31
0.0
 11
20.1161871579
 21
9.3932037953
 31
0.0
 11
20.1160752696
 21
9.3982539332
 31
0.0
  0
ENDSEC
  0
SECTION
  2
OBJECTS
  0
DICTIONARY
  5
C
100
AcDbDictionary
280
0
281
1
  3
ACAD_GROUP
350
D
  3
ACAD_MLINESTYLE
350
17
  3
ACAD_LAYOUT
350
1A
  3
ACAD_PLOTSETTINGS
350
19
  3
ACAD_PLOTSTYLENAME
350
E
  0
DICTIONARY
  5
D
102
{ACAD_REACTORS
330
C
102
}
100
AcDbDictionary
280
0
281
1
  0
ACDBDICTIONARYWDFLT
  5
E
102
{ACAD_REACTORS
330
C
102
}
100
AcDbDictionary
281
1
  3
Normal
350
F
100
AcDbDictionaryWithDefault
340
F
  0
DICTIONARY
  5
17
102
{ACAD_REACTORS
330
C
102
}
100
AcDbDictionary
280
0
281
1
  3
Standard
350
18
  0
DICTIONARY
  5
19
102
{ACAD_REACTORS
330
C
102
}
100
AcDbDictionary
281
1
  0
DICTIONARY
  5
1A
102
{ACAD_REACTORS
330
C
102
}
100
AcDbDictionary
281
1
  3
Model
350
376
  3
Layout1
350
377
  0
ACDBPLACEHOLDER
  5
F
102
{ACAD_REACTORS
330
E
102
}
  0
MLINESTYLE
  5
18
102
{ACAD_REACTORS
330
17
102
}
100
AcDbMlineStyle
  2
STANDARD
 70
0
  3

 62
256
 51
90.0
 52
90.0
 71
2
 49
0.5
 62
256
  6
BYLAYER
 49
-0.5
 62
256
  6
BYLAYER
  0
LAYOUT
  5
376
102
{ACAD_REACTORS
330
1A
102
}
100
AcDbPlotSettings
  1

  2
none_device
  4
ISO_A2_(594.00_x_420.00_MM)
  6

 40
0.0
 41
0.0
 42
0.0
 43
0.0
 44
594.0
 45
420.0
 46
0.0
 47
0.0
 48
0.0
 49
0.0
140
0.0
141
0.0
142
1.0
143
1.0
 70
1024
 72
0
 73
0
 74
0
  7

 75
0
147
1.0
148
0.0
149
0.0
100
AcDbLayout
  1
Model
 70
0
 71
0
 10
0.0
 20
0.0
 11
23.3858267717
 21
16.5354330709
 12
0.0
 22
0.0
 32
0.0
 14
0.0
 24
0.0
 34
0.0
 15
0.0
 25
0.0
 35
0.0
146
0.0
 13
0.0
 23
0.0
 33
0.0
 16
1.0
 26
0.0
 36
0.0
 17
0.0
 27
1.0
 37
0.0
 76
0
330
204
345
0
346
0
  0
LAYOUT
  5
377
102
{ACAD_REACTORS
330
1A
102
}
100
AcDbPlotSettings
  1

  2
none_device
  4
ISO_A2_(594.00_x_420.00_MM)
  6

 40
0.0
 41
0.0
 42
0.0
 43
0.0
 44
594.0
 45
420.0
 46
0.0
 47
0.0
 48
0.0
 49
0.0
140
0.0
141
0.0
142
1.0
143
1.0
 70
0
 72
0
 73
0
 74
0
  7

 75
0
147
1.0
148
0.0
149
0.0
100
AcDbLayout
  1
Layout1
 70
0
 71
1
 10
0.0
 20
0.0
 11
23.3858267717
 21
16.5354330709
 12
0.0
 22
0.0
 32
0.0
 14
0.0
 24
0.0
 34
0.0
 15
0.0
 25
0.0
 35
0.0
146
0.0
 13
0.0
 23
0.0
 33
0.0
 16
1.0
 26
0.0
 36
0.0
 17
0.0
 27
1.0
 37
0.0
 76
0
330
205
345
0
346
0
  0
ENDSEC
  0
EOF
