  0
SECTION
  2
HEADER
  9
$ACADVER
  1
AC1015
  9
$DWGCODEPAGE
  3
ANSI_1252
  9
$EXTMAX
 10
33.1102362205
 20
23.3858267717
 30
0.0
  9
$EXTMIN
 10
0.0
 20
0.0
 30
0.0
  9
$LIMMIN
 10
0.0
 20
0.0
  9
$LIMMAX
 10
33.1102362205
 20
23.3858267717
  9
$VIEWCTR
 10
16.5551181102
 20
11.6929133858
  9
$VIEWSIZE
 40
23.3858267717
  9
$CLAYER
  8
0
  9
$LTSCALE
 40
1.8210629921
  9
$CELTYPE
  6
BYLAYER
  9
$DIMSCALE
 40
1.0
  9
$DIMASZ
 40
0.1
  9
$DIMEXO
 40
0.2069389764
  9
$DIMDLI
 40
1.2581889764
  9
$DIMEXE
 40
0.595984252
  9
$DIMCEN
 40
0.297992126
  9
$DIMLFAC
 40
1.0
  9
$DIMBLK
  1
_FILLED
  9
$DIMTXT
 40
0.08
  9
$DIMTOL
 70
1
  9
$DIMLIM
 70
0
  9
$DIMTFAC
 40
1.0
  9
$DIMTP
 40
0.01
  9
$DIMTM
 40
0.01
  9
$PDMODE
 70
3
  9
$PDSIZE
 40
0.06
  9
$HANDSEED
  5
371
  9
$TILEMODE
 70
1
  9
$MEASUREMENT
 70
0
  9
$INSUNITS
 70
1
  0
ENDSEC
  0
SECTION
  2
CLASSES
  0
CLASS
  1
ACDBDICTIONARYWDFLT
  2
AcDbDictionaryWithDefault
  3
AutoCAD 2000
 90
0
280
0
281
0
  0
CLASS
  1
ACDBPLACEHOLDER
  2
AcDbPlaceHolder
  3
AutoCAD 2000
 90
0
280
0
281
0
  0
CLASS
  1
LAYOUT
  2
AcDbLayout
  3
AutoCAD 2000
 90
0
280
0
281
0
  0
ENDSEC
  0
SECTION
  2
TABLES
  0
TABLE
  2
VPORT
  5
8
100
AcDbSymbolTable
 70
2
  0
VPORT
  5
1F4
100
AcDbSymbolTableRecord
100
AcDbViewportTableRecord
  2
*ACTIVE
 70
0
 10
0.0
 20
0.0
 11
1.0
 21
1.0
 12
16.5551181102
 22
11.6929133858
 13
0.0
 23
0.0
 14
1.0
 24
1.0
 15
0.0
 25
0.0
 16
0.0
 26
0.0
 36
1.0
 17
0.0
 27
0.0
 37
0.0
 40
23.3858267717
 41
1.4158249158
 42
50.0
 43
0.0
 44
0.0
 50
0.0
 51
0.0
 71
0
 72
100
 73
1
 74
1
 75
0
 76
0
 77
0
 78
0
  0
ENDTAB
  0
TABLE
  2
LTYPE
  5
5
100
AcDbSymbolTable
 70
6
  0
LTYPE
  5
14
100
AcDbSymbolTableRecord
100
AcDbLinetypeTableRecord
  2
BYBLOCK
 70
0
  3

 72
65
 73
0
 40
0.0
  0
LTYPE
  5
15
100
AcDbSymbolTableRecord
100
AcDbLinetypeTableRecord
  2
BYLAYER
 70
0
  3

 72
65
 73
0
 40
0.0
  0
LTYPE
  5
16
100
AcDbSymbolTableRecord
100
AcDbLinetypeTableRecord
  2
CONTINUOUS
 70
64
  3
Solid line
 72
65
 73
0
 40
0.0
  0
LTYPE
  5
1F5
100
AcDbSymbolTableRecord
100
AcDbLinetypeTableRecord
  2
CENTER
 70
64
  3
____ _ ____ _ ____ _ ____ _ ____ _ ____ _ ____
 72
65
 73
4
 40
0.6
 49
0.375
 74
0
 49
-0.075
 74
0
 49
0.075
 74
0
 49
-0.075
 74
0
  0
LTYPE
  5
1F6
100
AcDbSymbolTableRecord
100
AcDbLinetypeTableRecord
  2
HIDDEN
 70
64
  3
- - - - - - - - - - - - - - - - - - - -
 72
65
 73
2
 40
0.2
 49
0.1
 74
0
 49
-0.1
 74
0
  0
LTYPE
  5
1F7
100
AcDbSymbolTableRecord
100
AcDbLinetypeTableRecord
  2
PHANTOM
 70
64
  3
_____ _ _ _____ _ _ _____ _ _ _____
 72
65
 73
6
 40
0.8
 49
0.45
 74
0
 49
-0.05
 74
0
 49
0.1
 74
0
 49
-0.05
 74
0
 49
0.1
 74
0
 49
-0.05
 74
0
  0
LTYPE
  5
1F8
100
AcDbSymbolTableRecord
100
AcDbLinetypeTableRecord
  2
DOT
 70
64
  3
. . . . . . . . . . . . . . . . . . . .
 72
65
 73
2
 40
0.2
 49
0.1
 74
0
 49
-0.1
 74
0
  0
LTYPE
  5
1F9
100
AcDbSymbolTableRecord
100
AcDbLinetypeTableRecord
  2
DASHED
 70
64
  3
- - - - - - - - - - - - - - - - - - - -
 72
65
 73
2
 40
0.2
 49
0.1
 74
0
 49
-0.1
 74
0
  0
ENDTAB
  0
TABLE
  2
LAYER
  5
2
100
AcDbSymbolTable
 70
36
  0
LAYER
  5
10
100
AcDbSymbolTableRecord
100
AcDbLayerTableRecord
  2
0
 70
0
 62
7
  6
CONTINUOUS
370
-3
390
F
  0
LAYER
  5
1FA
100
AcDbSymbolTableRecord
100
AcDbLayerTableRecord
  2
DEFAULT_1
 70
0
 62
7
  6
CENTER
370
-3
390
F
  0
LAYER
  5
1FB
100
AcDbSymbolTableRecord
100
AcDbLayerTableRecord
  2
DEFAULT_2
 70
0
 62
8
  6
HIDDEN
370
-3
390
F
  0
LAYER
  5
1FC
100
AcDbSymbolTableRecord
100
AcDbLayerTableRecord
  2
DEFAULT_3
 70
0
 62
7
  6
PHANTOM
370
-3
390
F
  0
LAYER
  5
1FD
100
AcDbSymbolTableRecord
100
AcDbLayerTableRecord
  2
3_ALL_SYMBOLS
 70
0
 62
7
  6
CONTINUOUS
370
-3
390
F
  0
LAYER
  5
1FE
100
AcDbSymbolTableRecord
100
AcDbLayerTableRecord
  2
DEFAULT_COORDINATE_SYSTEM
 70
0
 62
7
  6
CONTINUOUS
370
-3
390
F
  0
LAYER
  5
1FF
100
AcDbSymbolTableRecord
100
AcDbLayerTableRecord
  2
DEFAULT_DATUM_AXES
 70
0
 62
7
  6
CONTINUOUS
370
-3
390
F
  0
LAYER
  5
200
100
AcDbSymbolTableRecord
100
AcDbLayerTableRecord
  2
DEFAULT_DATUM_CURVES
 70
0
 62
7
  6
CONTINUOUS
370
-3
390
F
  0
LAYER
  5
201
100
AcDbSymbolTableRecord
100
AcDbLayerTableRecord
  2
DEFAULT_DATUM_PLANES
 70
0
 62
7
  6
CONTINUOUS
370
-3
390
F
  0
ENDTAB
  0
TABLE
  2
STYLE
  5
3
100
AcDbSymbolTable
 70
1
  0
STYLE
  5
11
100
AcDbSymbolTableRecord
100
AcDbTextStyleTableRecord
  2
STANDARD
 70
0
 40
0.0
 41
0.8
 50
0.0
 71
0
 42
0.2
  3
txt
  4

  0
STYLE
  5
202
100
AcDbSymbolTableRecord
100
AcDbTextStyleTableRecord
  2
TEXTSTYLE_1
 70
0
 40
0.0
 41
0.8
 50
0.0
 71
0
 42
0.2
  3
gdt
  4

  0
ENDTAB
  0
TABLE
  2
VIEW
  5
6
100
AcDbSymbolTable
 70
0
  0
ENDTAB
  0
TABLE
  2
UCS
  5
7
100
AcDbSymbolTable
 70
0
  0
ENDTAB
  0
TABLE
  2
APPID
  5
9
100
AcDbSymbolTable
 70
1
  0
APPID
  5
203
100
AcDbSymbolTableRecord
100
AcDbRegAppTableRecord
  2
ACAD
 70
0
  0
ENDTAB
  0
TABLE
  2
BLOCK_RECORD
  5
1
100
AcDbSymbolTable
 70
0
  0
BLOCK_RECORD
  5
204
100
AcDbSymbolTableRecord
100
AcDbBlockTableRecord
  2
*Model_Space
  0
BLOCK_RECORD
  5
205
100
AcDbSymbolTableRecord
100
AcDbBlockTableRecord
  2
*Paper_Space
  0
ENDTAB
  0
TABLE
  2
DIMSTYLE
  5
A
100
AcDbSymbolTable
 70
1
100
AcDbDimStyleTable
 71
0
  0
DIMSTYLE
105
206
100
AcDbSymbolTableRecord
100
AcDbDimStyleTableRecord
  2
STANDARD
 70
0
  3

  4

 40
1.0
 41
0.1
 42
0.0625
 43
0.38
 44
0.18
 45
0.0
 46
0.0
 47
0.01
 48
0.01
140
0.08
141
0.09
142
0.0
143
25.4
144
1.0
145
0.0
146
1.0
147
0.09
 71
1.0
 72
0.0
 73
1
 74
1
 75
0
 76
0
 77
0
 78
4
170
0
171
2
172
0
173
0
174
0
175
0
176
0
177
0
178
0
270
2
271
2
272
2
273
2
274
2
275
0
280
0
281
0
282
0
283
1
284
4
285
0
286
0
287
3
288
0
340
11
  0
ENDTAB
  0
ENDSEC
  0
SECTION
  2
BLOCKS
  0
BLOCK
  5
20
100
AcDbEntity
  8
0
100
AcDbBlockBegin
  2
*Model_Space
 70
0
 10
0.0
 20
0.0
 30
0.0
  3
*Model_Space
  1

  0
ENDBLK
  5
21
100
AcDbEntity
  8
0
100
AcDbBlockEnd
  0
BLOCK
  5
1C
100
AcDbEntity
  8
0
100
AcDbBlockBegin
  2
*Paper_Space
 70
0
 10
0.0
 20
0.0
 30
0.0
  3
*Paper_Space
  1

  0
ENDBLK
  5
1D
100
AcDbEntity
  8
0
100
AcDbBlockEnd
  0
ENDSEC
  0
SECTION
  2
ENTITIES
  0
LINE
  5
207
100
AcDbEntity
  8
0
100
AcDbLine
 62
6
  6
CONTINUOUS
 10
0.2327858019
 20
13.0020595521
 11
0.2327858019
 21
12.8520595521
  0
LWPOLYLINE
  5
208
100
AcDbEntity
  8
0
100
AcDbPolyline
 62
6
  6
CONTINUOUS
 90
25
 70
0
 10
0.8454728016
 20
12.5096767264
 10
0.8475109867
 20
12.4853865695
 10
0.8511566383
 20
12.4463493841
 10
0.8552407076
 20
12.4075588606
 10
0.8597644722
 20
12.3690200092
 10
0.8647286755
 20
12.3307371595
 10
0.8701338667
 20
12.2927122651
 10
0.8759803712
 20
12.2549462464
 10
0.8822682768
 20
12.2174396236
 10
0.8889975897
 20
12.1801919562
 10
0.8961693807
 20
12.1431965323
 10
0.9037856162
 20
12.106443201
 10
0.9118486257
 20
12.0699218356
 10
0.9203609152
 20
12.0336231938
 10
0.9293231065
 20
11.9975468203
 10
0.938734408
 20
11.9616971818
 10
0.9485982016
 20
11.9260629393
 10
0.958922868
 20
11.8906176256
 10
0.9697151857
 20
11.8553441653
 10
0.9809782474
 20
11.8202390835
 10
0.9927145364
 20
11.7853004458
 10
1.0049260629
 20
11.7505269062
 10
1.0176143748
 20
11.7159172181
 10
1.0307802806
 20
11.6814704645
 10
1.0405837022
 20
11.6566988177
  0
LINE
  5
209
100
AcDbEntity
  8
0
100
AcDbLine
 62
6
  6
CONTINUOUS
 10
0.8427783773
 20
12.5456286706
 11
0.8454728016
 21
12.5096767264
  0
LWPOLYLINE
  5
20A
100
AcDbEntity
  8
0
100
AcDbPolyline
 62
6
  6
CONTINUOUS
 90
37
 70
0
 10
0.6842029733
 20
12.5710524358
 10
0.6865843236
 20
12.538936265
 10
0.6901079061
 20
12.4988097406
 10
0.6942085197
 20
12.4590796152
 10
0.6988818928
 20
12.4197339804
 10
0.7041240201
 20
12.380761846
 10
0.709931342
 20
12.342151835
 10
0.7163008582
 20
12.3038919269
 10
0.7232305526
 20
12.2659676876
 10
0.7307196951
 20
12.2283619209
 10
0.7387685655
 20
12.1910570779
 10
0.7473781209
 20
12.1540369082
 10
0.7565485546
 20
12.1172917471
 10
0.766280038
 20
12.0808138696
 10
0.7765731904
 20
12.0445953599
 10
0.7874321968
 20
12.0086181637
 10
0.7988670344
 20
11.9728501741
 10
0.810888668
 20
11.9372632236
 10
0.8235064569
 20
11.9018391465
 10
0.8367291487
 20
11.8665647437
 10
0.8505621541
 20
11.8314374375
 10
0.8650102099
 20
11.7964565588
 10
0.8800858682
 20
11.761603656
 10
0.8958106398
 20
11.726843738
 10
0.9122014734
 20
11.6921566998
 10
0.9292502144
 20
11.6575750504
 10
0.9469394319
 20
11.6231429872
 10
0.9652377704
 20
11.5889219887
 10
0.9839434305
 20
11.5552630559
 10
1.0026961026
 20
11.5227338619
 10
1.0211007052
 20
11.4918799559
 10
1.0388425108
 20
11.4630503241
 10
1.0559073227
 20
11.4360903994
 10
1.0723465937
 20
11.4107671439
 10
1.0882195148
 20
11.3868611504
 10
1.1035923209
 20
11.3641616123
 10
1.1175667666
 20
11.3438607332
  0
LWPOLYLINE
  5
20B
100
AcDbEntity
  8
0
100
AcDbPolyline
 62
6
  6
CONTINUOUS
 90
47
 70
0
 10
0.5714902798
 20
12.5978443033
 10
0.5727386418
 20
12.5785403433
 10
0.5759502355
 20
12.5372563407
 10
0.5798621679
 20
12.4964493877
 10
0.584465756
 20
12.4560970143
 10
0.5897536675
 20
12.4161765398
 10
0.5957197911
 20
12.3766662815
 10
0.6023594433
 20
12.337544122
 10
0.6096694367
 20
12.2987875826
 10
0.6176477311
 20
12.2603757886
 10
0.6262934202
 20
12.22228906
 10
0.6356069898
 20
12.1845076147
 10
0.6455899354
 20
12.1470131452
 10
0.6562438139
 20
12.109791667
 10
0.6675709374
 20
12.0728300737
 10
0.6795745897
 20
12.0361153261
 10
0.6922599864
 20
11.9996318385
 10
0.7056345468
 20
11.9633615253
 10
0.7197132612
 20
11.92727111
 10
0.7345197996
 20
11.8913136284
 10
0.7499982293
 20
11.8556305234
 10
0.7659473838
 20
11.8206472834
 10
0.7821238863
 20
11.7867979475
 10
0.7982632438
 20
11.7544832875
 10
0.8142337404
 20
11.7237912129
 10
0.8300457756
 20
11.6945414535
 10
0.8457279055
 20
11.6665499369
 10
0.8613207518
 20
11.639638322
 10
0.8768683594
 20
11.6136461045
 10
0.8923717347
 20
11.5885012716
 10
0.9078136533
 20
11.5641686836
 10
0.9231790179
 20
11.5406141041
 10
0.9384547563
 20
11.5178041332
 10
0.9536294163
 20
11.4957065794
 10
0.9686845818
 20
11.4743022654
 10
0.9835912912
 20
11.453588383
 10
0.9983201891
 20
11.4335630282
 10
1.0128421998
 20
11.4142242064
 10
1.0271282609
 20
11.3955701868
 10
1.0411486834
 20
11.3776002652
 10
1.0548711198
 20
11.3603171657
 10
1.0682574277
 20
11.343730555
 10
1.0812668562
 20
11.3278526012
 10
1.09385418
 20
11.3126999955
 10
1.1059758664
 20
11.298286346
 10
1.1175912804
 20
11.2846208932
 10
1.1283606588
 20
11.2720595521
  0
LWPOLYLINE
  5
20C
100
AcDbEntity
  8
0
100
AcDbPolyline
 62
6
  6
CONTINUOUS
 90
38
 70
0
 10
0.5129314773
 20
12.6170199724
 10
0.5152946233
 20
12.5786787968
 10
0.5185895845
 20
12.5375362597
 10
0.5226324531
 20
12.4968747736
 10
0.5274130499
 20
12.4566709332
 10
0.5329227969
 20
12.4169011318
 10
0.5391545677
 20
12.3775427712
 10
0.5461028892
 20
12.3385728435
 10
0.5537640078
 20
12.2999679887
 10
0.5621355206
 20
12.2617064341
 10
0.5712163305
 20
12.223767694
 10
0.5810069205
 20
12.186131217
 10
0.5915089888
 20
12.1487778118
 10
0.6027243527
 20
12.1116928306
 10
0.6146556663
 20
12.0748626976
 10
0.6273067144
 20
12.0382738599
 10
0.6406844326
 20
12.0019075485
 10
0.6547994411
 20
11.9657400011
 10
0.669663071
 20
11.9297509213
 10
0.6852864657
 20
11.893924798
 10
0.7016818906
 20
11.8582470951
 10
0.71886294
 20
11.8227037246
 10
0.7368447683
 20
11.7872806182
 10
0.7556458593
 20
11.7519605945
 10
0.7752864276
 20
11.7167269781
 10
0.7957878351
 20
11.6815646186
 10
0.8171726052
 20
11.6464596936
 10
0.8394639158
 20
11.6114003512
 10
0.8626819037
 20
11.5763818942
 10
0.8868421644
 20
11.5414075846
 10
0.9119593194
 20
11.5064822499
 10
0.9380585311
 20
11.4715968164
 10
0.9651918429
 20
11.4367101773
 10
0.9934167809
 20
11.4017809827
 10
1.0226065217
 20
11.3669896381
 10
1.0520562017
 20
11.3331423161
 10
1.0808941251
 20
11.3011146983
 10
1.1078801909
 20
11.2720595521
  0
LINE
  5
20D
100
AcDbEntity
  8
0
100
AcDbLine
 62
6
  6
CONTINUOUS
 10
1.1652858019
 20
11.1620595521
 11
1.1652858019
 21
11.1180595521
  0
LINE
  5
20E
100
AcDbEntity
  8
0
100
AcDbLine
 62
6
  6
CONTINUOUS
 10
1.1872892368
 20
10.0450595521
 11
1.1872892368
 21
9.9620595521
  0
LINE
  5
20F
100
AcDbEntity
  8
0
100
AcDbLine
 62
6
  6
CONTINUOUS
 10
1.2457858019
 20
9.9270595521
 11
1.2457858019
 21
9.9030595521
  0
LINE
  5
210
100
AcDbEntity
  8
0
100
AcDbLine
 62
6
  6
CONTINUOUS
 10
1.8276840943
 20
11.0170135693
 11
1.8276889948
 21
11.0165262103
  0
LINE
  5
211
100
AcDbEntity
  8
0
100
AcDbLine
 62
6
  6
CONTINUOUS
 10
1.5177858019
 20
12.5456286706
 11
1.5177858019
 21
11.3216452217
  0
LINE
  5
212
100
AcDbEntity
  8
0
100
AcDbLine
 62
6
  6
CONTINUOUS
 10
1.7897858019
 20
9.9270595521
 11
1.7897858019
 21
9.9030595521
  0
LINE
  5
213
100
AcDbEntity
  8
0
100
AcDbLine
 62
6
  6
CONTINUOUS
 10
1.848282367
 20
10.0450595521
 11
1.848282367
 21
9.9620595521
  0
LINE
  5
214
100
AcDbEntity
  8
0
100
AcDbLine
 62
6
  6
CONTINUOUS
 10
1.8702858019
 20
11.1620595521
 11
1.8702858019
 21
11.1180595521
  0
LINE
  5
215
100
AcDbEntity
  8
0
100
AcDbLine
 62
7
  6
CONTINUOUS
 10
1.8897858019
 20
10.0870066887
 11
1.8897858019
 21
10.7405112097
  0
LINE
  5
216
100
AcDbEntity
  8
0
100
AcDbLine
 62
6
  6
CONTINUOUS
 10
2.5202769806
 20
12.5786787968
 11
2.5226401266
 21
12.6170199725
  0
LINE
  5
217
100
AcDbEntity
  8
0
100
AcDbLine
 62
6
  6
CONTINUOUS
 10
2.1927932266
 20
12.5456286706
 11
2.1900987659
 21
12.5096762742
  0
LINE
  5
218
100
AcDbEntity
  8
0
100
AcDbLine
 62
6
  6
CONTINUOUS
 10
0.4824920167
 20
12.6795523817
 11
0.5007778931
 21
12.631244913
  0
LINE
  5
219
100
AcDbEntity
  8
0
100
AcDbLine
 62
6
  6
CONTINUOUS
 10
2.8027858019
 20
13.0020595521
 11
2.8027858019
 21
12.8520595521
  0
LINE
  5
21A
100
AcDbEntity
  8
0
100
AcDbLine
 62
6
  6
CONTINUOUS
 10
2.5521445946
 20
12.6770823265
 11
2.5347937107
 21
12.631244913
  0
LWPOLYLINE
  5
21B
100
AcDbEntity
  8
0
100
AcDbPolyline
 62
6
  6
CONTINUOUS
 90
25
 70
0
 10
1.9949889621
 20
11.6567014591
 10
2.0044986355
 20
11.6807204356
 10
2.0177063468
 20
11.7152473833
 10
2.0304341213
 20
11.7499379952
 10
2.042682745
 20
11.7847931469
 10
2.054453758
 20
11.8198140491
 10
2.0657491713
 20
11.8550020101
 10
2.0765714771
 20
11.8903589317
 10
2.0869237794
 20
11.9258882445
 10
2.0968129006
 20
11.9616070849
 10
2.1062473227
 20
11.997542222
 10
2.1152304941
 20
12.0337052293
 10
2.1237616413
 20
12.0700917197
 10
2.131841402
 20
12.106702232
 10
2.1394722846
 20
12.1435460442
 10
2.1466566171
 20
12.1806333059
 10
2.1533963636
 20
12.2179741906
 10
2.1596925913
 20
12.2555754177
 10
2.1655452927
 20
12.2934373524
 10
2.1709545462
 20
12.3315593782
 10
2.1759206751
 20
12.3699404718
 10
2.1804442334
 20
12.4085785574
 10
2.1845259715
 20
12.4474690926
 10
2.1881671869
 20
12.4866068212
 10
2.1900987659
 20
12.5096762742
  0
LWPOLYLINE
  5
21C
100
AcDbEntity
  8
0
100
AcDbPolyline
 62
6
  6
CONTINUOUS
 90
37
 70
0
 10
1.9180057442
 20
11.3438620418
 10
1.931879314
 20
11.3640153246
 10
1.9472393322
 20
11.3866931021
 10
1.9631000853
 20
11.4105769838
 10
1.9795263589
 20
11.4358753842
 10
1.9965759828
 20
11.4628051854
 10
2.014299183
 20
11.4915967691
 10
2.0326824905
 20
11.5224049683
 10
2.0514167332
 20
11.5548897333
 10
2.0701119207
 20
11.5885151029
 10
2.0884118512
 20
11.6227227954
 10
2.1061126119
 20
11.6571603653
 10
2.1231777107
 20
11.6917581837
 10
2.1395852408
 20
11.7264638107
 10
2.1553237848
 20
11.761237684
 10
2.1704109584
 20
11.7961007886
 10
2.1848699145
 20
11.8310915955
 10
2.1987138668
 20
11.8662302033
 10
2.2119471893
 20
11.9015164763
 10
2.2245749773
 20
11.9369521427
 10
2.2366060082
 20
11.9725504069
 10
2.2480497525
 20
12.0083297029
 10
2.2589171883
 20
12.044318192
 10
2.2692183025
 20
12.0805479658
 10
2.2789573209
 20
12.1170371922
 10
2.2881348739
 20
12.1537938171
 10
2.2967511396
 20
12.1908255857
 10
2.3048063115
 20
12.2281421564
 10
2.3123013477
 20
12.2657597754
 10
2.3192365329
 20
12.3036960075
 10
2.3256111409
 20
12.3419680679
 10
2.3314231591
 20
12.3805904195
 10
2.3366695878
 20
12.4195751043
 10
2.3413468663
 20
12.4589335194
 10
2.3454509868
 20
12.4986766729
 10
2.3489776741
 20
12.5388164916
 10
2.3513686306
 20
12.5710524356
  0
LINE
  5
21D
100
AcDbEntity
  8
0
100
AcDbLine
 62
6
  6
CONTINUOUS
 10
1.9180057442
 20
11.3438620418
 11
1.9024290624
 21
11.3216452217
  0
LINE
  5
21E
100
AcDbEntity
  8
0
100
AcDbLine
 62
6
  6
CONTINUOUS
 10
1.1175667666
 20
11.3438607332
 11
1.1331425415
 21
11.3216452217
  0
LWPOLYLINE
  5
21F
100
AcDbEntity
  8
0
100
AcDbPolyline
 62
6
  6
CONTINUOUS
 90
47
 70
0
 10
1.907210945
 20
11.2720595521
 10
1.9179803235
 20
11.2846208932
 10
1.9295957374
 20
11.298286346
 10
1.9417174239
 20
11.3126999955
 10
1.9543047476
 20
11.3278526012
 10
1.9673141762
 20
11.343730555
 10
1.9807004841
 20
11.3603171657
 10
1.9944229205
 20
11.3776002652
 10
2.008443343
 20
11.3955701868
 10
2.0227294041
 20
11.4142242064
 10
2.0372514148
 20
11.4335630282
 10
2.0519803127
 20
11.453588383
 10
2.066887022
 20
11.4743022654
 10
2.0819421875
 20
11.4957065794
 10
2.0971168475
 20
11.5178041332
 10
2.1123925859
 20
11.5406141041
 10
2.1277579506
 20
11.5641686836
 10
2.1431998692
 20
11.5885012716
 10
2.1587032444
 20
11.6136461045
 10
2.1742508521
 20
11.639638322
 10
2.1898436983
 20
11.6665499369
 10
2.2055258282
 20
11.6945414535
 10
2.2213378634
 20
11.7237912129
 10
2.2373083601
 20
11.7544832875
 10
2.2534477175
 20
11.7867979475
 10
2.26962422
 20
11.8206472834
 10
2.2855733745
 20
11.8556305234
 10
2.3010518042
 20
11.8913136284
 10
2.3158583426
 20
11.92727111
 10
2.3299370571
 20
11.9633615253
 10
2.3433116175
 20
11.9996318385
 10
2.3559970142
 20
12.0361153261
 10
2.3680006664
 20
12.0728300737
 10
2.37932779
 20
12.109791667
 10
2.3899816684
 20
12.1470131452
 10
2.399964614
 20
12.1845076147
 10
2.4092781837
 20
12.22228906
 10
2.4179238727
 20
12.2603757886
 10
2.4259021672
 20
12.2987875826
 10
2.4332121605
 20
12.337544122
 10
2.4398518127
 20
12.3766662815
 10
2.4458179364
 20
12.4161765398
 10
2.4511058479
 20
12.4560970143
 10
2.4557094359
 20
12.4964493877
 10
2.4596213683
 20
12.5372563407
 10
2.4628329621
 20
12.5785403433
 10
2.464081324
 20
12.5978443033
  0
LINE
  5
220
100
AcDbEntity
  8
0
100
AcDbLine
 62
6
  6
CONTINUOUS
 10
1.3507148087
 20
9.8441306199
 11
1.3577858765
 21
9.8370595521
  0
LWPOLYLINE
  5
221
100
AcDbEntity
  8
0
100
AcDbPolyline
 62
6
  6
CONTINUOUS
 90
36
 70
0
 10
1.9546774788
 20
11.3011146983
 10
1.9835154022
 20
11.3331423161
 10
2.0129650821
 20
11.3669896381
 10
2.0421548229
 20
11.4017809827
 10
2.070379761
 20
11.4367101773
 10
2.0975130727
 20
11.4715968164
 10
2.1236122845
 20
11.5064822499
 10
2.1487294394
 20
11.5414075846
 10
2.1728897001
 20
11.5763818942
 10
2.1961076881
 20
11.6114003512
 10
2.2183989987
 20
11.6464596936
 10
2.2397837688
 20
11.6815646186
 10
2.2602851763
 20
11.7167269781
 10
2.2799257445
 20
11.7519605945
 10
2.2987268355
 20
11.7872806182
 10
2.3167086639
 20
11.8227037246
 10
2.3338897133
 20
11.8582470951
 10
2.3502851382
 20
11.893924798
 10
2.3659085328
 20
11.9297509213
 10
2.3807721628
 20
11.9657400011
 10
2.3948871712
 20
12.0019075485
 10
2.4082648895
 20
12.0382738599
 10
2.4209159375
 20
12.0748626976
 10
2.4328472512
 20
12.1116928306
 10
2.4440626151
 20
12.1487778118
 10
2.4545646833
 20
12.186131217
 10
2.4643552734
 20
12.223767694
 10
2.4734360833
 20
12.2617064341
 10
2.4818075961
 20
12.2999679887
 10
2.4894687146
 20
12.3385728435
 10
2.4964170361
 20
12.3775427712
 10
2.5026488069
 20
12.4169011318
 10
2.508158554
 20
12.4566709332
 10
2.5129391508
 20
12.4968747736
 10
2.5169820194
 20
12.5375362597
 10
2.5202769806
 20
12.5786787968
  0
LINE
  5
222
100
AcDbEntity
  8
0
100
AcDbLine
 62
6
  6
CONTINUOUS
 10
1.9276914129
 20
11.2720595521
 11
1.95467746
 21
11.301114678
  0
LINE
  5
223
100
AcDbEntity
  8
0
100
AcDbLine
 62
6
  6
CONTINUOUS
 10
1.6848567951
 20
9.8441306199
 11
1.6777857273
 21
9.8370595521
  0
LINE
  5
224
100
AcDbEntity
  8
0
100
AcDbLine
 62
6
  6
CONTINUOUS
 10
2.8027858019
 20
12.8520595521
 11
2.7177858019
 21
12.8020595521
  0
LINE
  5
225
100
AcDbEntity
  8
0
100
AcDbLine
 62
6
  6
CONTINUOUS
 10
0.2327858019
 20
12.8520595521
 11
0.3177858019
 21
12.8020595521
  0
LINE
  5
226
100
AcDbEntity
  8
0
100
AcDbLine
 62
6
  6
CONTINUOUS
 10
31.7797857273
 20
9.8370595521
 11
31.4597858765
 21
9.8370595521
  0
LINE
  5
227
100
AcDbEntity
  8
0
100
AcDbLine
 62
6
  6
CONTINUOUS
 10
1.3577858765
 20
9.8370595521
 11
1.6777857273
 21
9.8370595521
  0
LINE
  5
228
100
AcDbEntity
  8
0
100
AcDbLine
 62
6
  6
CONTINUOUS
 10
31.7868567951
 20
9.8441306199
 11
31.4527148087
 21
9.8441306199
  0
LINE
  5
229
100
AcDbEntity
  8
0
100
AcDbLine
 62
6
  6
CONTINUOUS
 10
1.3507148087
 20
9.8441306199
 11
1.6848567951
 21
9.8441306199
  0
LINE
  5
22A
100
AcDbEntity
  8
0
100
AcDbLine
 62
6
  6
CONTINUOUS
 10
31.8917858019
 20
9.9030595521
 11
31.3477858019
 21
9.9030595521
  0
LINE
  5
22B
100
AcDbEntity
  8
0
100
AcDbLine
 62
6
  6
CONTINUOUS
 10
1.2457858019
 20
9.9030595521
 11
1.7897858019
 21
9.9030595521
  0
LINE
  5
22C
100
AcDbEntity
  8
0
100
AcDbLine
 62
9
  6
CONTINUOUS
 10
31.915282367
 20
9.9270595521
 11
31.3242892368
 21
9.9270595521
  0
LINE
  5
22D
100
AcDbEntity
  8
0
100
AcDbLine
 62
6
  6
CONTINUOUS
 10
1.813282367
 20
9.9270595521
 11
1.2222892368
 21
9.9270595521
  0
LINE
  5
22E
100
AcDbEntity
  8
0
100
AcDbLine
 62
9
  6
CONTINUOUS
 10
31.950282367
 20
9.9620595521
 11
31.2892892368
 21
9.9620595521
  0
LINE
  5
22F
100
AcDbEntity
  8
0
100
AcDbLine
 62
9
  6
CONTINUOUS
 10
1.848282367
 20
9.9620595521
 11
1.1872892368
 21
9.9620595521
  0
LINE
  5
230
100
AcDbEntity
  8
0
100
AcDbLine
 62
6
  6
CONTINUOUS
 10
31.950282367
 20
10.0450595521
 11
31.2892892368
 21
10.0450595521
  0
LINE
  5
231
100
AcDbEntity
  8
0
100
AcDbLine
 62
6
  6
CONTINUOUS
 10
1.1872892368
 20
10.0450595521
 11
1.848282367
 21
10.0450595521
  0
LINE
  5
232
100
AcDbEntity
  8
0
100
AcDbLine
 62
6
  6
CONTINUOUS
 10
1.8897858019
 20
10.1015595521
 11
31.2477858019
 21
10.1015595521
  0
LINE
  5
233
100
AcDbEntity
  8
0
100
AcDbLine
 62
6
  6
CONTINUOUS
 10
1.8897858019
 20
10.7265595521
 11
31.2477858019
 21
10.7265595521
  0
LINE
  5
234
100
AcDbEntity
  8
0
100
AcDbLine
 62
9
  6
CONTINUOUS
 10
31.9981201503
 20
10.7327652116
 11
31.2477858019
 21
10.7327652116
  0
LINE
  5
235
100
AcDbEntity
  8
0
100
AcDbLine
 62
9
  6
CONTINUOUS
 10
1.1394514536
 20
10.7327652116
 11
1.8897858019
 21
10.7327652116
  0
LINE
  5
236
100
AcDbEntity
  8
0
100
AcDbLine
 62
6
  6
CONTINUOUS
 10
31.9722858019
 20
11.1180595521
 11
31.2672858019
 21
11.1180595521
  0
LINE
  5
237
100
AcDbEntity
  8
0
100
AcDbLine
 62
6
  6
CONTINUOUS
 10
1.1652858019
 20
11.1180595521
 11
1.8702858019
 21
11.1180595521
  0
LINE
  5
238
100
AcDbEntity
  8
0
100
AcDbLine
 62
7
  6
CONTINUOUS
 10
31.9722858019
 20
11.1620595521
 11
31.2672858019
 21
11.1620595521
  0
LINE
  5
239
100
AcDbEntity
  8
0
100
AcDbLine
 62
7
  6
CONTINUOUS
 10
1.1652858019
 20
11.1620595521
 11
1.8702858019
 21
11.1620595521
  0
LINE
  5
23A
100
AcDbEntity
  8
0
100
AcDbLine
 62
7
  6
CONTINUOUS
 10
31.9572858019
 20
11.1920595521
 11
31.2822858019
 21
11.1920595521
  0
LINE
  5
23B
100
AcDbEntity
  8
0
100
AcDbLine
 62
7
  6
CONTINUOUS
 10
1.8552858019
 20
11.1920595521
 11
1.1802858019
 21
11.1920595521
  0
LINE
  5
23C
100
AcDbEntity
  8
0
100
AcDbLine
 62
7
  6
CONTINUOUS
 10
32.0072858019
 20
11.2420595521
 11
31.2322858019
 21
11.2420595521
  0
LINE
  5
23D
100
AcDbEntity
  8
0
100
AcDbLine
 62
7
  6
CONTINUOUS
 10
1.9052858019
 20
11.2420595521
 11
1.1302858019
 21
11.2420595521
  0
LINE
  5
23E
100
AcDbEntity
  8
0
100
AcDbLine
 62
7
  6
CONTINUOUS
 10
1.1302858019
 20
11.2529826559
 11
1.9052858019
 21
11.2529826559
  0
LINE
  5
23F
100
AcDbEntity
  8
0
100
AcDbLine
 62
7
  6
CONTINUOUS
 10
31.2322858019
 20
11.2529826559
 11
32.0072858019
 21
11.2529826559
  0
LINE
  5
240
100
AcDbEntity
  8
0
100
AcDbLine
 62
6
  6
CONTINUOUS
 10
32.0296869695
 20
11.2720595521
 11
32.0104980383
 21
11.2720595521
  0
LINE
  5
241
100
AcDbEntity
  8
0
100
AcDbLine
 62
6
  6
CONTINUOUS
 10
32.0091873716
 20
11.2720595521
 11
31.9709261064
 21
11.2720595521
  0
LINE
  5
242
100
AcDbEntity
  8
0
100
AcDbLine
 62
6
  6
CONTINUOUS
 10
31.9678012725
 20
11.2720595521
 11
31.9074245431
 21
11.2720595521
  0
LINE
  5
243
100
AcDbEntity
  8
0
100
AcDbLine
 62
6
  6
CONTINUOUS
 10
31.9030053606
 20
11.2720595521
 11
31.8243208749
 21
11.2720595521
  0
LINE
  5
244
100
AcDbEntity
  8
0
100
AcDbLine
 62
6
  6
CONTINUOUS
 10
31.8189085039
 20
11.2720595521
 11
31.7272784796
 21
11.2720595521
  0
LINE
  5
245
100
AcDbEntity
  8
0
100
AcDbLine
 62
6
  6
CONTINUOUS
 10
31.721241764
 20
11.2720595521
 11
31.6229106358
 21
11.2720595521
  0
LINE
  5
246
100
AcDbEntity
  8
0
100
AcDbLine
 62
6
  6
CONTINUOUS
 10
31.616660968
 20
11.2720595521
 11
31.5183298398
 21
11.2720595521
  0
LINE
  5
247
100
AcDbEntity
  8
0
100
AcDbLine
 62
6
  6
CONTINUOUS
 10
31.5122931243
 20
11.2720595521
 11
31.4206631
 21
11.2720595521
  0
LINE
  5
248
100
AcDbEntity
  8
0
100
AcDbLine
 62
6
  6
CONTINUOUS
 10
31.4152507289
 20
11.2720595521
 11
31.3365662432
 21
11.2720595521
  0
LINE
  5
249
100
AcDbEntity
  8
0
100
AcDbLine
 62
6
  6
CONTINUOUS
 10
31.3321470607
 20
11.2720595521
 11
31.2717703313
 21
11.2720595521
  0
LINE
  5
24A
100
AcDbEntity
  8
0
100
AcDbLine
 62
6
  6
CONTINUOUS
 10
31.2686454974
 20
11.2720595521
 11
31.2303842322
 21
11.2720595521
  0
LINE
  5
24B
100
AcDbEntity
  8
0
100
AcDbLine
 62
6
  6
CONTINUOUS
 10
31.2290735656
 20
11.2720595521
 11
31.2098846343
 21
11.2720595521
  0
LINE
  5
24C
100
AcDbEntity
  8
0
100
AcDbLine
 62
6
  6
CONTINUOUS
 10
1.9276869695
 20
11.2720595521
 11
1.9084980383
 21
11.2720595521
  0
LINE
  5
24D
100
AcDbEntity
  8
0
100
AcDbLine
 62
6
  6
CONTINUOUS
 10
1.9071873716
 20
11.2720595521
 11
1.8689261064
 21
11.2720595521
  0
LINE
  5
24E
100
AcDbEntity
  8
0
100
AcDbLine
 62
6
  6
CONTINUOUS
 10
1.8658012725
 20
11.2720595521
 11
1.8054245431
 21
11.2720595521
  0
LINE
  5
24F
100
AcDbEntity
  8
0
100
AcDbLine
 62
6
  6
CONTINUOUS
 10
1.8010053606
 20
11.2720595521
 11
1.7223208749
 21
11.2720595521
  0
LINE
  5
250
100
AcDbEntity
  8
0
100
AcDbLine
 62
6
  6
CONTINUOUS
 10
1.7169085039
 20
11.2720595521
 11
1.6252784796
 21
11.2720595521
  0
LINE
  5
251
100
AcDbEntity
  8
0
100
AcDbLine
 62
6
  6
CONTINUOUS
 10
1.619241764
 20
11.2720595521
 11
1.5209106358
 21
11.2720595521
  0
LINE
  5
252
100
AcDbEntity
  8
0
100
AcDbLine
 62
6
  6
CONTINUOUS
 10
1.514660968
 20
11.2720595521
 11
1.4163298398
 21
11.2720595521
  0
LINE
  5
253
100
AcDbEntity
  8
0
100
AcDbLine
 62
6
  6
CONTINUOUS
 10
1.4102931243
 20
11.2720595521
 11
1.3186631
 21
11.2720595521
  0
LINE
  5
254
100
AcDbEntity
  8
0
100
AcDbLine
 62
6
  6
CONTINUOUS
 10
1.3132507289
 20
11.2720595521
 11
1.2345662432
 21
11.2720595521
  0
LINE
  5
255
100
AcDbEntity
  8
0
100
AcDbLine
 62
6
  6
CONTINUOUS
 10
1.2301470607
 20
11.2720595521
 11
1.1697703313
 21
11.2720595521
  0
LINE
  5
256
100
AcDbEntity
  8
0
100
AcDbLine
 62
6
  6
CONTINUOUS
 10
1.1666454974
 20
11.2720595521
 11
1.1283842322
 21
11.2720595521
  0
LINE
  5
257
100
AcDbEntity
  8
0
100
AcDbLine
 62
6
  6
CONTINUOUS
 10
1.1270735656
 20
11.2720595521
 11
1.1078846343
 21
11.2720595521
  0
LINE
  5
258
100
AcDbEntity
  8
0
100
AcDbLine
 62
9
  6
CONTINUOUS
 10
0.5007778931
 20
12.631244913
 11
2.5347937107
 21
12.631244913
  0
LINE
  5
259
100
AcDbEntity
  8
0
100
AcDbLine
 62
9
  6
CONTINUOUS
 10
30.6027778931
 20
12.631244913
 11
32.6367937107
 21
12.631244913
  0
LINE
  5
25A
100
AcDbEntity
  8
0
100
AcDbLine
 62
7
  6
CONTINUOUS
 10
2.2915502471
 20
12.8020595521
 11
2.2918438553
 21
12.802036881
  0
LINE
  5
25B
100
AcDbEntity
  8
0
100
AcDbLine
 62
7
  6
CONTINUOUS
 10
0.3603979364
 20
12.7770595521
 11
0.4128857985
 21
12.7770595521
  0
LINE
  5
25C
100
AcDbEntity
  8
0
100
AcDbLine
 62
7
  6
CONTINUOUS
 10
0.5751369145
 20
12.7770595521
 11
0.6817421349
 21
12.7770595521
  0
LINE
  5
25D
100
AcDbEntity
  8
0
100
AcDbLine
 62
7
  6
CONTINUOUS
 10
0.8027277827
 20
12.7770595521
 11
1.0827001917
 21
12.7770595521
  0
LINE
  5
25E
100
AcDbEntity
  8
0
100
AcDbLine
 62
7
  6
CONTINUOUS
 10
2.2950134248
 20
12.7770595521
 11
2.4090595823
 21
12.7770595521
  0
LINE
  5
25F
100
AcDbEntity
  8
0
100
AcDbLine
 62
7
  6
CONTINUOUS
 10
2.6514476848
 20
12.7770595521
 11
2.6937481627
 21
12.7770595521
  0
LINE
  5
260
100
AcDbEntity
  8
0
100
AcDbLine
 62
7
  6
CONTINUOUS
 10
30.5148857985
 20
12.7770595521
 11
30.7837421349
 21
12.7770595521
  0
LINE
  5
261
100
AcDbEntity
  8
0
100
AcDbLine
 62
7
  6
CONTINUOUS
 10
31.0390624273
 20
12.7770595521
 11
31.1847001917
 21
12.7770595521
  0
LINE
  5
262
100
AcDbEntity
  8
0
100
AcDbLine
 62
7
  6
CONTINUOUS
 10
32.5110595823
 20
12.7770595521
 11
32.6910281541
 21
12.7770595521
  0
LINE
  5
263
100
AcDbEntity
  8
0
100
AcDbLine
 62
7
  6
CONTINUOUS
 10
0.4884312856
 20
12.8020595521
 11
0.4881055965
 21
12.8020595521
  0
LINE
  5
264
100
AcDbEntity
  8
0
100
AcDbLine
 62
6
  6
CONTINUOUS
 10
0.3177858019
 20
12.8020595521
 11
0.4881055965
 21
12.8020595521
  0
LINE
  5
265
100
AcDbEntity
  8
0
100
AcDbLine
 62
6
  6
CONTINUOUS
 10
0.4884312856
 20
12.8020595521
 11
2.7177858019
 21
12.8020595521
  0
LINE
  5
266
100
AcDbEntity
  8
0
100
AcDbLine
 62
6
  6
CONTINUOUS
 10
30.4197858019
 20
12.8020595521
 11
32.8197858019
 21
12.8020595521
  0
LINE
  5
267
100
AcDbEntity
  8
0
100
AcDbLine
 62
6
  6
CONTINUOUS
 10
0.2327858019
 20
12.8520595521
 11
2.8027858019
 21
12.8520595521
  0
LINE
  5
268
100
AcDbEntity
  8
0
100
AcDbLine
 62
6
  6
CONTINUOUS
 10
30.3347858019
 20
12.8520595521
 11
32.9047858019
 21
12.8520595521
  0
LINE
  5
269
100
AcDbEntity
  8
0
100
AcDbLine
 62
6
  6
CONTINUOUS
 10
0.2327858019
 20
13.0020595521
 11
2.8027858019
 21
13.0020595521
  0
LINE
  5
26A
100
AcDbEntity
  8
0
100
AcDbLine
 62
6
  6
CONTINUOUS
 10
30.3347858019
 20
13.0020595521
 11
32.9047858019
 21
13.0020595521
  0
LINE
  5
26B
100
AcDbEntity
  8
0
100
AcDbLine
 62
7
  6
CONTINUOUS
 10
32.3938438553
 20
12.802036881
 11
32.3932994413
 21
12.8020595521
  0
LINE
  5
26C
100
AcDbEntity
  8
0
100
AcDbLine
 62
7
  6
CONTINUOUS
 10
32.3935502471
 20
12.8020595521
 11
32.3938438553
 21
12.802036881
  0
LINE
  5
26D
100
AcDbEntity
  8
0
100
AcDbLine
 62
7
  6
CONTINUOUS
 10
32.7925788575
 20
12.8020358676
 11
32.792460542
 21
12.8020595521
  0
LINE
  5
26E
100
AcDbEntity
  8
0
100
AcDbLine
 62
6
  6
CONTINUOUS
 10
32.9047858019
 20
12.8520595521
 11
32.8197858019
 21
12.8020595521
  0
LINE
  5
26F
100
AcDbEntity
  8
0
100
AcDbLine
 62
6
  6
CONTINUOUS
 10
30.4197858019
 20
12.8020595521
 11
30.3347858019
 21
12.8520595521
  0
LINE
  5
270
100
AcDbEntity
  8
0
100
AcDbLine
 62
6
  6
CONTINUOUS
 10
31.4597858765
 20
9.8370595521
 11
31.4527148087
 21
9.8441306199
  0
LINE
  5
271
100
AcDbEntity
  8
0
100
AcDbLine
 62
6
  6
CONTINUOUS
 10
31.1828941251
 20
11.3011146983
 11
31.2098801909
 21
11.2720595521
  0
LWPOLYLINE
  5
272
100
AcDbEntity
  8
0
100
AcDbPolyline
 62
6
  6
CONTINUOUS
 90
47
 70
0
 10
32.009210945
 20
11.2720595521
 10
32.0199803235
 20
11.2846208932
 10
32.0315957374
 20
11.298286346
 10
32.0437174239
 20
11.3126999955
 10
32.0563047476
 20
11.3278526012
 10
32.0693141762
 20
11.343730555
 10
32.0827004841
 20
11.3603171657
 10
32.0964229205
 20
11.3776002652
 10
32.110443343
 20
11.3955701868
 10
32.1247294041
 20
11.4142242064
 10
32.1392514148
 20
11.4335630282
 10
32.1539803127
 20
11.453588383
 10
32.168887022
 20
11.4743022654
 10
32.1839421875
 20
11.4957065794
 10
32.1991168475
 20
11.5178041332
 10
32.2143925859
 20
11.5406141041
 10
32.2297579506
 20
11.5641686836
 10
32.2451998692
 20
11.5885012716
 10
32.2607032444
 20
11.6136461045
 10
32.2762508521
 20
11.639638322
 10
32.2918436983
 20
11.6665499369
 10
32.3075258282
 20
11.6945414535
 10
32.3233378634
 20
11.7237912129
 10
32.3393083601
 20
11.7544832875
 10
32.3554477175
 20
11.7867979475
 10
32.37162422
 20
11.8206472834
 10
32.3875733745
 20
11.8556305234
 10
32.4030518042
 20
11.8913136284
 10
32.4178583426
 20
11.92727111
 10
32.4319370571
 20
11.9633615253
 10
32.4453116175
 20
11.9996318385
 10
32.4579970142
 20
12.0361153261
 10
32.4700006664
 20
12.0728300737
 10
32.48132779
 20
12.109791667
 10
32.4919816684
 20
12.1470131452
 10
32.501964614
 20
12.1845076147
 10
32.5112781837
 20
12.22228906
 10
32.5199238727
 20
12.2603757886
 10
32.5279021672
 20
12.2987875826
 10
32.5352121605
 20
12.337544122
 10
32.5418518127
 20
12.3766662815
 10
32.5478179364
 20
12.4161765398
 10
32.5531058479
 20
12.4560970143
 10
32.5577094359
 20
12.4964493877
 10
32.5616213683
 20
12.5372563407
 10
32.5648329621
 20
12.5785403433
 10
32.566081324
 20
12.5978443033
  0
LWPOLYLINE
  5
273
100
AcDbEntity
  8
0
100
AcDbPolyline
 62
6
  6
CONTINUOUS
 90
38
 70
0
 10
32.0296914129
 20
11.2720595521
 10
32.0566774434
 20
11.3011146596
 10
32.0855153288
 20
11.3331422333
 10
32.1149649715
 20
11.3669895086
 10
32.1441546787
 20
11.4017808076
 10
32.1723795874
 20
11.4367099584
 10
32.1995128722
 20
11.4715965535
 10
32.2256120593
 20
11.5064819429
 10
32.2507291919
 20
11.5414072335
 10
32.2748894325
 20
11.5763814989
 10
32.2981074025
 20
11.6113999115
 10
32.3203986972
 20
11.6464592092
 10
32.3417834532
 20
11.6815640892
 10
32.3622848485
 20
11.7167264033
 10
32.3819254065
 20
11.7519599741
 10
32.400726489
 20
11.7872799517
 10
32.4187083106
 20
11.8227030116
 10
32.4358893549
 20
11.8582463349
 10
32.4522847764
 20
11.89392399
 10
32.4679081692
 20
11.9297500648
 10
32.482771799
 20
11.9657390953
 10
32.4968868089
 20
12.0019065925
 10
32.5102645302
 20
12.0382728528
 10
32.5229155829
 20
12.0748616383
 10
32.5348469027
 20
12.1116917179
 10
32.5460622745
 20
12.1487766446
 10
32.5565643523
 20
12.1861299939
 10
32.5663549537
 20
12.2237664138
 10
32.5754357766
 20
12.2617050954
 10
32.5838073043
 20
12.29996659
 10
32.5914684396
 20
12.3385713831
 10
32.5984167797
 20
12.3775412475
 10
32.6046485711
 20
12.416899543
 10
32.6101583408
 20
12.4566692773
 10
32.6149389625
 20
12.4968730487
 10
32.6189818582
 20
12.5375344636
 10
32.6222768488
 20
12.5786769275
 10
32.6246401266
 20
12.6170199725
  0
LINE
  5
274
100
AcDbEntity
  8
0
100
AcDbLine
 62
6
  6
CONTINUOUS
 10
31.7868567951
 20
9.8441306199
 11
31.7797857273
 21
9.8370595521
  0
LINE
  5
275
100
AcDbEntity
  8
0
100
AcDbLine
 62
6
  6
CONTINUOUS
 10
31.2195667666
 20
11.3438607332
 11
31.2351425415
 21
11.3216452217
  0
LWPOLYLINE
  5
276
100
AcDbEntity
  8
0
100
AcDbPolyline
 62
6
  6
CONTINUOUS
 90
37
 70
0
 10
32.0200057442
 20
11.3438620418
 10
32.033879314
 20
11.3640153246
 10
32.0492393322
 20
11.3866931021
 10
32.0651000853
 20
11.4105769838
 10
32.0815263589
 20
11.4358753842
 10
32.0985759828
 20
11.4628051854
 10
32.116299183
 20
11.4915967691
 10
32.1346824905
 20
11.5224049683
 10
32.1534167332
 20
11.5548897333
 10
32.1721119207
 20
11.5885151029
 10
32.1904118512
 20
11.6227227954
 10
32.2081126119
 20
11.6571603653
 10
32.2251777107
 20
11.6917581837
 10
32.2415852408
 20
11.7264638107
 10
32.2573237848
 20
11.761237684
 10
32.2724109584
 20
11.7961007886
 10
32.2868699145
 20
11.8310915955
 10
32.3007138668
 20
11.8662302033
 10
32.3139471893
 20
11.9015164763
 10
32.3265749773
 20
11.9369521427
 10
32.3386060082
 20
11.9725504069
 10
32.3500497525
 20
12.0083297029
 10
32.3609171883
 20
12.044318192
 10
32.3712183025
 20
12.0805479658
 10
32.3809573209
 20
12.1170371922
 10
32.3901348739
 20
12.1537938171
 10
32.3987511396
 20
12.1908255857
 10
32.4068063115
 20
12.2281421564
 10
32.4143013477
 20
12.2657597754
 10
32.4212365329
 20
12.3036960075
 10
32.4276111409
 20
12.3419680679
 10
32.4334231591
 20
12.3805904195
 10
32.4386695878
 20
12.4195751043
 10
32.4433468663
 20
12.4589335194
 10
32.4474509868
 20
12.4986766729
 10
32.4509776741
 20
12.5388164916
 10
32.4533686306
 20
12.5710524356
  0
LINE
  5
277
100
AcDbEntity
  8
0
100
AcDbLine
 62
6
  6
CONTINUOUS
 10
32.0200057442
 20
11.3438620418
 11
32.0044290624
 21
11.3216452217
  0
LWPOLYLINE
  5
278
100
AcDbEntity
  8
0
100
AcDbPolyline
 62
6
  6
CONTINUOUS
 90
37
 70
0
 10
30.7862029733
 20
12.5710524358
 10
30.7885843236
 20
12.538936265
 10
30.7921079061
 20
12.4988097406
 10
30.7962085197
 20
12.4590796152
 10
30.8008818928
 20
12.4197339804
 10
30.8061240201
 20
12.380761846
 10
30.811931342
 20
12.342151835
 10
30.8183008582
 20
12.3038919269
 10
30.8252305526
 20
12.2659676876
 10
30.8327196951
 20
12.2283619209
 10
30.8407685655
 20
12.1910570779
 10
30.8493781209
 20
12.1540369082
 10
30.8585485546
 20
12.1172917471
 10
30.868280038
 20
12.0808138696
 10
30.8785731904
 20
12.0445953599
 10
30.8894321968
 20
12.0086181637
 10
30.9008670344
 20
11.9728501741
 10
30.912888668
 20
11.9372632236
 10
30.9255064569
 20
11.9018391465
 10
30.9387291487
 20
11.8665647437
 10
30.9525621541
 20
11.8314374375
 10
30.9670102099
 20
11.7964565588
 10
30.9820858682
 20
11.761603656
 10
30.9978106398
 20
11.726843738
 10
31.0142014734
 20
11.6921566998
 10
31.0312502144
 20
11.6575750504
 10
31.0489394319
 20
11.6231429872
 10
31.0672377704
 20
11.5889219887
 10
31.0859434305
 20
11.5552630559
 10
31.1046961026
 20
11.5227338619
 10
31.1231007052
 20
11.4918799559
 10
31.1408425108
 20
11.4630503241
 10
31.1579073227
 20
11.4360903994
 10
31.1743465937
 20
11.4107671439
 10
31.1902195148
 20
11.3868611504
 10
31.2055923209
 20
11.3641616123
 10
31.2195667666
 20
11.3438607332
  0
LWPOLYLINE
  5
279
100
AcDbEntity
  8
0
100
AcDbPolyline
 62
6
  6
CONTINUOUS
 90
47
 70
0
 10
30.6734902798
 20
12.5978443033
 10
30.6747386418
 20
12.5785403433
 10
30.6779502355
 20
12.5372563407
 10
30.6818621679
 20
12.4964493877
 10
30.686465756
 20
12.4560970143
 10
30.6917536675
 20
12.4161765398
 10
30.6977197911
 20
12.3766662815
 10
30.7043594433
 20
12.337544122
 10
30.7116694367
 20
12.2987875826
 10
30.7196477311
 20
12.2603757886
 10
30.7282934202
 20
12.22228906
 10
30.7376069898
 20
12.1845076147
 10
30.7475899354
 20
12.1470131452
 10
30.7582438139
 20
12.109791667
 10
30.7695709374
 20
12.0728300737
 10
30.7815745897
 20
12.0361153261
 10
30.7942599864
 20
11.9996318385
 10
30.8076345468
 20
11.9633615253
 10
30.8217132612
 20
11.92727111
 10
30.8365197996
 20
11.8913136284
 10
30.8519982293
 20
11.8556305234
 10
30.8679473838
 20
11.8206472834
 10
30.8841238863
 20
11.7867979475
 10
30.9002632438
 20
11.7544832875
 10
30.9162337404
 20
11.7237912129
 10
30.9320457756
 20
11.6945414535
 10
30.9477279055
 20
11.6665499369
 10
30.9633207518
 20
11.639638322
 10
30.9788683594
 20
11.6136461045
 10
30.9943717347
 20
11.5885012716
 10
31.0098136533
 20
11.5641686836
 10
31.0251790179
 20
11.5406141041
 10
31.0404547563
 20
11.5178041332
 10
31.0556294163
 20
11.4957065794
 10
31.0706845818
 20
11.4743022654
 10
31.0855912912
 20
11.453588383
 10
31.1003201891
 20
11.4335630282
 10
31.1148421998
 20
11.4142242064
 10
31.1291282609
 20
11.3955701868
 10
31.1431486834
 20
11.3776002652
 10
31.1568711198
 20
11.3603171657
 10
31.1702574277
 20
11.343730555
 10
31.1832668562
 20
11.3278526012
 10
31.19585418
 20
11.3126999955
 10
31.2079758664
 20
11.298286346
 10
31.2195912804
 20
11.2846208932
 10
31.2303606588
 20
11.2720595521
  0
LWPOLYLINE
  5
27A
100
AcDbEntity
  8
0
100
AcDbPolyline
 62
6
  6
CONTINUOUS
 90
4
 70
0
 10
30.6149314773
 20
12.6170199724
 10
30.6172946233
 20
12.5786787968
 10
30.6205895845
 20
12.5375362597
 10
30.6246324531
 20
12.4968747736
  0
LINE
  5
27B
100
AcDbEntity
  8
0
100
AcDbLine
 62
6
  6
CONTINUOUS
 10
30.3347858019
 20
13.0020595521
 11
30.3347858019
 21
12.8520595521
  0
LINE
  5
27C
100
AcDbEntity
  8
0
100
AcDbLine
 62
6
  6
CONTINUOUS
 10
30.9078490245
 20
12.8020595521
 11
30.9072991958
 21
12.7998240822
  0
LWPOLYLINE
  5
27D
100
AcDbEntity
  8
0
100
AcDbPolyline
 62
6
  6
CONTINUOUS
 90
25
 70
0
 10
32.0969889621
 20
11.6567014591
 10
32.1064986355
 20
11.6807204356
 10
32.1197063468
 20
11.7152473833
 10
32.1324341213
 20
11.7499379952
 10
32.144682745
 20
11.7847931469
 10
32.156453758
 20
11.8198140491
 10
32.1677491713
 20
11.8550020101
 10
32.1785714771
 20
11.8903589317
 10
32.1889237794
 20
11.9258882445
 10
32.1988129006
 20
11.9616070849
 10
32.2082473227
 20
11.997542222
 10
32.2172304941
 20
12.0337052293
 10
32.2257616413
 20
12.0700917197
 10
32.233841402
 20
12.106702232
 10
32.2414722846
 20
12.1435460442
 10
32.2486566171
 20
12.1806333059
 10
32.2553963636
 20
12.2179741906
 10
32.2616925913
 20
12.2555754177
 10
32.2675452927
 20
12.2934373524
 10
32.2729545462
 20
12.3315593782
 10
32.2779206751
 20
12.3699404718
 10
32.2824442334
 20
12.4085785574
 10
32.2865259715
 20
12.4474690926
 10
32.2901671869
 20
12.4866068212
 10
32.2920987659
 20
12.5096762742
  0
LINE
  5
27E
100
AcDbEntity
  8
0
100
AcDbLine
 62
6
  6
CONTINUOUS
 10
30.5844920167
 20
12.6795523817
 11
30.6027778931
 21
12.631244913
  0
LWPOLYLINE
  5
27F
100
AcDbEntity
  8
0
100
AcDbPolyline
 62
6
  6
CONTINUOUS
 90
34
 70
0
 10
30.6246326414
 20
12.4968730487
 10
30.629413263
 20
12.4566692773
 10
30.6349230327
 20
12.416899543
 10
30.6411548242
 20
12.3775412475
 10
30.6481031643
 20
12.3385713831
 10
30.6557642995
 20
12.29996659
 10
30.6641358272
 20
12.2617050954
 10
30.6732166502
 20
12.2237664138
 10
30.6830072515
 20
12.1861299939
 10
30.6935093293
 20
12.1487766446
 10
30.7047247011
 20
12.1116917179
 10
30.716656021
 20
12.0748616383
 10
30.7293070737
 20
12.0382728528
 10
30.742684795
 20
12.0019065925
 10
30.7567998048
 20
11.9657390953
 10
30.7716634346
 20
11.9297500648
 10
30.7872868275
 20
11.89392399
 10
30.8036822489
 20
11.8582463349
 10
30.8208632933
 20
11.8227030116
 10
30.8388451148
 20
11.7872799517
 10
30.8576461973
 20
11.7519599741
 10
30.8772867553
 20
11.7167264033
 10
30.8977881506
 20
11.6815640892
 10
30.9191729067
 20
11.6464592092
 10
30.9414642013
 20
11.6113999115
 10
30.9646821713
 20
11.5763814989
 10
30.9888424119
 20
11.5414072335
 10
31.0139595446
 20
11.5064819429
 10
31.0400587316
 20
11.4715965535
 10
31.0671920164
 20
11.4367099584
 10
31.0954169251
 20
11.4017808076
 10
31.1246066323
 20
11.3669895086
 10
31.154056275
 20
11.3331422333
 10
31.1828941439
 20
11.301114678
  0
LWPOLYLINE
  5
280
100
AcDbEntity
  8
0
100
AcDbPolyline
 62
6
  6
CONTINUOUS
 90
25
 70
0
 10
30.9474728016
 20
12.5096767264
 10
30.9495109867
 20
12.4853865695
 10
30.9531566383
 20
12.4463493841
 10
30.9572407076
 20
12.4075588606
 10
30.9617644722
 20
12.3690200092
 10
30.9667286755
 20
12.3307371595
 10
30.9721338667
 20
12.2927122651
 10
30.9779803712
 20
12.2549462464
 10
30.9842682768
 20
12.2174396236
 10
30.9909975897
 20
12.1801919562
 10
30.9981693807
 20
12.1431965323
 10
31.0057856162
 20
12.106443201
 10
31.0138486257
 20
12.0699218356
 10
31.0223609152
 20
12.0336231938
 10
31.0313231065
 20
11.9975468203
 10
31.040734408
 20
11.9616971818
 10
31.0505982016
 20
11.9260629393
 10
31.060922868
 20
11.8906176256
 10
31.0717151857
 20
11.8553441653
 10
31.0829782474
 20
11.8202390835
 10
31.0947145364
 20
11.7853004458
 10
31.1069260629
 20
11.7505269062
 10
31.1196143748
 20
11.7159172181
 10
31.1327802806
 20
11.6814704645
 10
31.1425837022
 20
11.6566988177
  0
LINE
  5
281
100
AcDbEntity
  8
0
100
AcDbLine
 62
6
  6
CONTINUOUS
 10
30.9447783773
 20
12.5456286706
 11
30.9474728016
 21
12.5096767264
  0
LINE
  5
282
100
AcDbEntity
  8
0
100
AcDbLine
 62
7
  6
CONTINUOUS
 10
31.2477858019
 20
10.7405112097
 11
31.2477858019
 21
10.0870066887
  0
LINE
  5
283
100
AcDbEntity
  8
0
100
AcDbLine
 62
6
  6
CONTINUOUS
 10
31.2672858019
 20
11.1620595521
 11
31.2672858019
 21
11.1180595521
  0
LINE
  5
284
100
AcDbEntity
  8
0
100
AcDbLine
 62
6
  6
CONTINUOUS
 10
31.2892892368
 20
10.0450595521
 11
31.2892892368
 21
9.9620595521
  0
LINE
  5
285
100
AcDbEntity
  8
0
100
AcDbLine
 62
6
  6
CONTINUOUS
 10
31.3477858019
 20
9.9270595521
 11
31.3477858019
 21
9.9030595521
  0
LINE
  5
286
100
AcDbEntity
  8
0
100
AcDbLine
 62
6
  6
CONTINUOUS
 10
31.6197858019
 20
12.5456286706
 11
31.6197858019
 21
11.3216452217
  0
LINE
  5
287
100
AcDbEntity
  8
0
100
AcDbLine
 62
6
  6
CONTINUOUS
 10
31.8917858019
 20
9.9270595521
 11
31.8917858019
 21
9.9030595521
  0
LINE
  5
288
100
AcDbEntity
  8
0
100
AcDbLine
 62
6
  6
CONTINUOUS
 10
31.950282367
 20
10.0450595521
 11
31.950282367
 21
9.9620595521
  0
LINE
  5
289
100
AcDbEntity
  8
0
100
AcDbLine
 62
6
  6
CONTINUOUS
 10
31.9722858019
 20
11.1620595521
 11
31.9722858019
 21
11.1180595521
  0
LINE
  5
28A
100
AcDbEntity
  8
0
100
AcDbLine
 62
6
  6
CONTINUOUS
 10
32.9047858019
 20
13.0020595521
 11
32.9047858019
 21
12.8520595521
  0
LINE
  5
28B
100
AcDbEntity
  8
0
100
AcDbLine
 62
6
  6
CONTINUOUS
 10
32.2947932266
 20
12.5456286706
 11
32.2920987659
 21
12.5096762742
  0
LINE
  5
28C
100
AcDbEntity
  8
0
100
AcDbLine
 62
6
  6
CONTINUOUS
 10
32.6541445946
 20
12.6770823265
 11
32.6367937107
 21
12.631244913
  0
ARC
  5
28D
100
AcDbEntity
  8
0
100
AcDbCircle
 62
6
  6
CONTINUOUS
 10
1.2937474565
 20
9.8460595521
 40
0.057
100
AcDbArc
 50
358.0606880897
 51
90.0
  0
ARC
  5
28E
100
AcDbEntity
  8
0
100
AcDbCircle
 62
6
  6
CONTINUOUS
 10
1.2222892368
 20
9.9620595521
 40
0.035
100
AcDbArc
 50
180.0
 51
270.0
  0
ARC
  5
28F
100
AcDbEntity
  8
0
100
AcDbCircle
 62
7
  6
CONTINUOUS
 10
1.435470605
 20
10.934492358
 40
0.385685398
100
AcDbArc
 50
353.5664837224
 51
354.083526179
  0
ARC
  5
290
100
AcDbEntity
  8
0
100
AcDbCircle
 62
6
  6
CONTINUOUS
 10
0.8902858019
 20
10.9429852821
 40
0.326
100
AcDbArc
 50
319.8458068178
 51
32.4822048034
  0
ARC
  5
291
100
AcDbEntity
  8
0
100
AcDbCircle
 62
6
  6
CONTINUOUS
 10
1.1802858019
 20
11.2420595521
 40
0.05
100
AcDbArc
 50
180.0
 51
270.0
  0
ARC
  5
292
100
AcDbEntity
  8
0
100
AcDbCircle
 62
6
  6
CONTINUOUS
 10
1.5177858019
 20
10.4135660248
 40
0.495
100
AcDbArc
 50
139.8458068178
 51
228.1125252055
  0
ARC
  5
293
100
AcDbEntity
  8
0
100
AcDbCircle
 62
6
  6
CONTINUOUS
 10
1.5177858019
 20
10.4135660248
 40
0.495
100
AcDbArc
 50
311.8874747945
 51
318.7217959866
  0
ARC
  5
294
100
AcDbEntity
  8
0
100
AcDbCircle
 62
6
  6
CONTINUOUS
 10
1.7418241474
 20
9.8460595521
 40
0.057
100
AcDbArc
 50
90.0
 51
181.9393119103
  0
ARC
  5
295
100
AcDbEntity
  8
0
100
AcDbCircle
 62
6
  6
CONTINUOUS
 10
1.813282367
 20
9.9620595521
 40
0.035
100
AcDbArc
 50
270.0
 51
360.0
  0
ARC
  5
296
100
AcDbEntity
  8
0
100
AcDbCircle
 62
6
  6
CONTINUOUS
 10
2.1452858019
 20
10.9429852821
 40
0.326
100
AcDbArc
 50
147.5177951966
 51
166.9626799915
  0
ARC
  5
297
100
AcDbEntity
  8
0
100
AcDbCircle
 62
6
  6
CONTINUOUS
 10
2.1452858019
 20
10.9429852821
 40
0.326
100
AcDbArc
 50
195.0838464242
 51
218.3954915547
  0
ARC
  5
298
100
AcDbEntity
  8
0
100
AcDbCircle
 62
7
  6
CONTINUOUS
 10
2.0403140366
 20
10.9717487307
 40
0.238577468
100
AcDbArc
 50
206.5298238908
 51
208.1371732689
  0
ARC
  5
299
100
AcDbEntity
  8
0
100
AcDbCircle
 62
7
  6
CONTINUOUS
 10
2.0085200103
 20
10.9291077032
 40
0.2034985432
100
AcDbArc
 50
155.1255464492
 51
159.8403283776
  0
ARC
  5
29A
100
AcDbEntity
  8
0
100
AcDbCircle
 62
6
  6
CONTINUOUS
 10
1.9791872647
 20
10.9985582148
 40
0.1908045925
100
AcDbArc
 50
211.9565133736
 51
212.9649583163
  0
ARC
  5
29B
100
AcDbEntity
  8
0
100
AcDbCircle
 62
7
  6
CONTINUOUS
 10
1.9984569713
 20
10.9507044691
 40
0.1878850354
100
AcDbArc
 50
197.3305713918
 51
200.0985497569
  0
ARC
  5
29C
100
AcDbEntity
  8
0
100
AcDbCircle
 62
7
  6
CONTINUOUS
 10
1.965926178
 20
10.9430956208
 40
0.1544098591
100
AcDbArc
 50
181.1613833411
 51
187.3485555869
  0
ARC
  5
29D
100
AcDbEntity
  8
0
100
AcDbCircle
 62
6
  6
CONTINUOUS
 10
1.8552858019
 20
11.2420595521
 40
0.05
100
AcDbArc
 50
270.0
 51
360.0
  0
ARC
  5
29E
100
AcDbEntity
  8
0
100
AcDbCircle
 62
6
  6
CONTINUOUS
 10
0.077386458
 20
12.8187295521
 40
2.4068193439
100
AcDbArc
 50
319.4172131634
 51
320.0123584086
  0
ARC
  5
29F
100
AcDbEntity
  8
0
100
AcDbCircle
 62
6
  6
CONTINUOUS
 10
-0.1532780482
 20
12.7774367518
 40
1.7115977987
100
AcDbArc
 50
359.9873732294
 51
0.8242772932
  0
ARC
  5
2A0
100
AcDbEntity
  8
0
100
AcDbCircle
 62
6
  6
CONTINUOUS
 10
0.6878818057
 20
12.7020695521
 40
0.20006
100
AcDbArc
 50
200.73321
 51
209.4856357153
  0
ARC
  5
2A1
100
AcDbEntity
  8
0
100
AcDbCircle
 62
6
  6
CONTINUOUS
 10
0.6751369152
 20
12.7770595534
 40
0.1000000007
100
AcDbArc
 50
180.0000007627
 51
302.2205824321
  0
ARC
  5
2A2
100
AcDbEntity
  8
0
100
AcDbCircle
 62
6
  6
CONTINUOUS
 10
0.4177858019
 20
12.7770595521
 40
0.1
100
AcDbArc
 50
165.5222821653
 51
273.0822625225
  0
ARC
  5
2A3
100
AcDbEntity
  8
0
100
AcDbCircle
 62
6
  6
CONTINUOUS
 10
0.5128857981
 20
12.7770595522
 40
0.0999999995
100
AcDbArc
 50
165.5224881265
 51
291.1183031295
  0
ARC
  5
2A4
100
AcDbEntity
  8
0
100
AcDbCircle
 62
6
  6
CONTINUOUS
 10
0.9026736083
 20
12.7770595519
 40
0.0999999994
100
AcDbArc
 50
193.1586468471
 51
311.6553165078
  0
ARC
  5
2A5
100
AcDbEntity
  8
0
100
AcDbCircle
 62
6
  6
CONTINUOUS
 10
0.5849328955
 20
12.7770595518
 40
0.0999999993
100
AcDbArc
 50
165.5224880554
 51
296.8142226022
  0
ARC
  5
2A6
100
AcDbEntity
  8
0
100
AcDbCircle
 62
6
  6
CONTINUOUS
 10
1.4793963556
 20
12.7770595521
 40
0.0999999992
100
AcDbArc
 50
219.5069130577
 51
320.1557495683
  0
ARC
  5
2A7
100
AcDbEntity
  8
0
100
AcDbCircle
 62
6
  6
CONTINUOUS
 10
0.4603979354
 20
12.7770595516
 40
0.0999999991
100
AcDbArc
 50
179.9999997179
 51
285.2164703457
  0
ARC
  5
2A8
100
AcDbEntity
  8
0
100
AcDbCircle
 62
6
  6
CONTINUOUS
 10
1.0355775403
 20
12.7770595514
 40
0.0999999989
100
AcDbArc
 50
207.6219359016
 51
315.3639066123
  0
ARC
  5
2A9
100
AcDbEntity
  8
0
100
AcDbCircle
 62
6
  6
CONTINUOUS
 10
1.3267728065
 20
12.7770595508
 40
0.0999999988
100
AcDbArc
 50
217.7385717645
 51
319.7440703899
  0
ARC
  5
2AA
100
AcDbEntity
  8
0
100
AcDbCircle
 62
6
  6
CONTINUOUS
 10
1.1778671079
 20
12.7770595505
 40
0.0999999984
100
AcDbArc
 50
214.1487982195
 51
318.132478025
  0
ARC
  5
2AB
100
AcDbEntity
  8
0
100
AcDbCircle
 62
6
  6
CONTINUOUS
 10
0.7817421207
 20
12.7770595518
 40
0.0999999857
100
AcDbArc
 50
165.5224856065
 51
307.2120947915
  0
ARC
  5
2AC
100
AcDbEntity
  8
0
100
AcDbCircle
 62
6
  6
CONTINUOUS
 10
0.4284909265
 20
12.7770595291
 40
0.0999999767
100
AcDbArc
 50
165.5224877517
 51
279.1799719321
  0
ARC
  5
2AD
100
AcDbEntity
  8
0
100
AcDbCircle
 62
7
  6
CONTINUOUS
 10
0.447081876
 20
12.7770779628
 40
0.0653620934
100
AcDbArc
 50
157.5296814197
 51
180.0161385598
  0
ARC
  5
2AE
100
AcDbEntity
  8
0
100
AcDbCircle
 62
6
  6
CONTINUOUS
 10
-0.7178921588
 20
13.3428307936
 40
3.3445506427
100
AcDbArc
 50
321.7460695056
 51
322.1219599195
  0
ARC
  5
2AF
100
AcDbEntity
  8
0
100
AcDbCircle
 62
6
  6
CONTINUOUS
 10
2.9581851459
 20
12.8187295521
 40
2.4068193439
100
AcDbArc
 50
219.9876415914
 51
220.5827868366
  0
ARC
  5
2B0
100
AcDbEntity
  8
0
100
AcDbCircle
 62
6
  6
CONTINUOUS
 10
1.968251116
 20
12.7774711816
 40
0.5718689571
100
AcDbArc
 50
177.53571769
 51
180.0412412742
  0
ARC
  5
2B1
100
AcDbEntity
  8
0
100
AcDbCircle
 62
6
  6
CONTINUOUS
 10
2.3476897981
 20
12.7020695521
 40
0.20006
100
AcDbArc
 50
330.5143604928
 51
339.26679
  0
ARC
  5
2B2
100
AcDbEntity
  8
0
100
AcDbCircle
 62
6
  6
CONTINUOUS
 10
1.783899887
 20
12.777059554
 40
0.1000000011
100
AcDbArc
 50
220.9140992581
 51
323.7853522015
  0
ARC
  5
2B3
100
AcDbEntity
  8
0
100
AcDbCircle
 62
6
  6
CONTINUOUS
 10
1.9298530546
 20
12.7770595527
 40
0.1000000004
100
AcDbArc
 50
223.1294683772
 51
328.6189501444
  0
ARC
  5
2B4
100
AcDbEntity
  8
0
100
AcDbCircle
 62
6
  6
CONTINUOUS
 10
2.5514476846
 20
12.7770595523
 40
0.1000000002
100
AcDbArc
 50
251.7957596049
 51
14.477512248
  0
ARC
  5
2B5
100
AcDbEntity
  8
0
100
AcDbCircle
 62
6
  6
CONTINUOUS
 10
2.3090595823
 20
12.7770595522
 40
0.1
100
AcDbArc
 50
235.2230095885
 51
359.9999999353
  0
ARC
  5
2B6
100
AcDbEntity
  8
0
100
AcDbCircle
 62
6
  6
CONTINUOUS
 10
2.593748163
 20
12.7770595521
 40
0.0999999997
100
AcDbArc
 50
257.7829098906
 51
359.9999999661
  0
ARC
  5
2B7
100
AcDbEntity
  8
0
100
AcDbCircle
 62
6
  6
CONTINUOUS
 10
2.6151062576
 20
12.7770595521
 40
0.0999999996
100
AcDbArc
 50
263.8324271184
 51
14.4775122291
  0
ARC
  5
2B8
100
AcDbEntity
  8
0
100
AcDbCircle
 62
6
  6
CONTINUOUS
 10
1.6327671118
 20
12.7770595521
 40
0.0999999995
100
AcDbArc
 50
219.9135781691
 51
321.1835828747
  0
ARC
  5
2B9
100
AcDbEntity
  8
0
100
AcDbCircle
 62
6
  6
CONTINUOUS
 10
2.0677858024
 20
12.7770595509
 40
0.0999999987
100
AcDbArc
 50
226.3888178851
 51
337.7524479049
  0
ARC
  5
2BA
100
AcDbEntity
  8
0
100
AcDbCircle
 62
6
  6
CONTINUOUS
 10
2.4890281591
 20
12.7770595523
 40
0.0999999949
100
AcDbArc
 50
245.9960863068
 51
14.4775127716
  0
ARC
  5
2BB
100
AcDbEntity
  8
0
100
AcDbCircle
 62
6
  6
CONTINUOUS
 10
2.4077045039
 20
12.7770595525
 40
0.0999999919
100
AcDbArc
 50
240.4432345883
 51
14.4775131088
  0
ARC
  5
2BC
100
AcDbEntity
  8
0
100
AcDbCircle
 62
6
  6
CONTINUOUS
 10
2.1950134426
 20
12.7770595523
 40
0.0999999822
100
AcDbArc
 50
230.4881726412
 51
14.4775146033
  0
ARC
  5
2BD
100
AcDbEntity
  8
0
100
AcDbCircle
 62
7
  6
CONTINUOUS
 10
2.6032612699
 20
12.7770680761
 40
0.0646679804
100
AcDbArc
 50
359.9924477339
 51
22.7343406358
  0
ARC
  5
2BE
100
AcDbEntity
  8
0
100
AcDbCircle
 62
6
  6
CONTINUOUS
 10
3.826250506
 20
13.39983296
 40
3.4370009938
100
AcDbArc
 50
217.883163132
 51
218.2488725961
  0
ARC
  5
2BF
100
AcDbEntity
  8
0
100
AcDbCircle
 62
7
  6
CONTINUOUS
 10
26.2091374173
 20
11.3142606349
 40
5.1344637623
100
AcDbArc
 50
355.57821335
 51
355.8738533765
  0
ARC
  5
2C0
100
AcDbEntity
  8
0
100
AcDbCircle
 62
6
  6
CONTINUOUS
 10
31.3957474565
 20
9.8460595521
 40
0.057
100
AcDbArc
 50
358.0606880897
 51
90.0
  0
ARC
  5
2C1
100
AcDbEntity
  8
0
100
AcDbCircle
 62
6
  6
CONTINUOUS
 10
31.3242892368
 20
9.9620595521
 40
0.035
100
AcDbArc
 50
180.0
 51
270.0
  0
ARC
  5
2C2
100
AcDbEntity
  8
0
100
AcDbCircle
 62
6
  6
CONTINUOUS
 10
31.8438241474
 20
9.8460595521
 40
0.057
100
AcDbArc
 50
90.0
 51
181.9393119103
  0
ARC
  5
2C3
100
AcDbEntity
  8
0
100
AcDbCircle
 62
6
  6
CONTINUOUS
 10
31.915282367
 20
9.9620595521
 40
0.035
100
AcDbArc
 50
270.0
 51
360.0
  0
ARC
  5
2C4
100
AcDbEntity
  8
0
100
AcDbCircle
 62
6
  6
CONTINUOUS
 10
31.6197858019
 20
10.4135660248
 40
0.495
100
AcDbArc
 50
311.8874747945
 51
40.1541931822
  0
ARC
  5
2C5
100
AcDbEntity
  8
0
100
AcDbCircle
 62
6
  6
CONTINUOUS
 10
31.6197858019
 20
10.4135660248
 40
0.495
100
AcDbArc
 50
221.2782040134
 51
228.1125252055
  0
ARC
  5
2C6
100
AcDbEntity
  8
0
100
AcDbCircle
 62
6
  6
CONTINUOUS
 10
32.2472858019
 20
10.9429852821
 40
0.326
100
AcDbArc
 50
147.5177951966
 51
220.1541931822
  0
ARC
  5
2C7
100
AcDbEntity
  8
0
100
AcDbCircle
 62
6
  6
CONTINUOUS
 10
30.9922858019
 20
10.9429852821
 40
0.326
100
AcDbArc
 50
13.0373200085
 51
32.4822048034
  0
ARC
  5
2C8
100
AcDbEntity
  8
0
100
AcDbCircle
 62
6
  6
CONTINUOUS
 10
30.9922858019
 20
10.9429852821
 40
0.326
100
AcDbArc
 50
321.6045084453
 51
344.9161535758
  0
ARC
  5
2C9
100
AcDbEntity
  8
0
100
AcDbCircle
 62
6
  6
CONTINUOUS
 10
31.0607563251
 20
10.9399807439
 40
0.2660114013
100
AcDbArc
 50
12.3782244146
 51
12.5972646061
  0
ARC
  5
2CA
100
AcDbEntity
  8
0
100
AcDbCircle
 62
7
  6
CONTINUOUS
 10
31.1391146325
 20
10.9507044691
 40
0.1878850354
100
AcDbArc
 50
339.9014502431
 51
342.6694286083
  0
ARC
  5
2CB
100
AcDbEntity
  8
0
100
AcDbCircle
 62
7
  6
CONTINUOUS
 10
31.1716454259
 20
10.9430956208
 40
0.1544098591
100
AcDbArc
 50
352.651444413
 51
358.8386166589
  0
ARC
  5
2CC
100
AcDbEntity
  8
0
100
AcDbCircle
 62
6
  6
CONTINUOUS
 10
31.2822858019
 20
11.2420595521
 40
0.05
100
AcDbArc
 50
180.0
 51
270.0
  0
ARC
  5
2CD
100
AcDbEntity
  8
0
100
AcDbCircle
 62
6
  6
CONTINUOUS
 10
31.9572858019
 20
11.2420595521
 40
0.05
100
AcDbArc
 50
270.0
 51
360.0
  0
ARC
  5
2CE
100
AcDbEntity
  8
0
100
AcDbCircle
 62
6
  6
CONTINUOUS
 10
30.179386458
 20
12.8187295521
 40
2.4068193439
100
AcDbArc
 50
319.4172131634
 51
320.0123584086
  0
ARC
  5
2CF
100
AcDbEntity
  8
0
100
AcDbCircle
 62
6
  6
CONTINUOUS
 10
29.9487219516
 20
12.7774367518
 40
1.7115977989
100
AcDbArc
 50
359.9873732294
 51
0.8242772932
  0
ARC
  5
2D0
100
AcDbEntity
  8
0
100
AcDbCircle
 62
6
  6
CONTINUOUS
 10
30.7898818057
 20
12.7020695521
 40
0.20006
100
AcDbArc
 50
200.73321
 51
209.4856357153
  0
ARC
  5
2D1
100
AcDbEntity
  8
0
100
AcDbCircle
 62
6
  6
CONTINUOUS
 10
30.7771369152
 20
12.7770595534
 40
0.1000000007
100
AcDbArc
 50
180.0000007627
 51
302.2205824321
  0
ARC
  5
2D2
100
AcDbEntity
  8
0
100
AcDbCircle
 62
6
  6
CONTINUOUS
 10
30.5197858019
 20
12.7770595521
 40
0.1
100
AcDbArc
 50
165.5222821653
 51
273.0822625225
  0
ARC
  5
2D3
100
AcDbEntity
  8
0
100
AcDbCircle
 62
6
  6
CONTINUOUS
 10
30.6148857981
 20
12.7770595522
 40
0.0999999995
100
AcDbArc
 50
180.0000000963
 51
291.1183031295
  0
ARC
  5
2D4
100
AcDbEntity
  8
0
100
AcDbCircle
 62
6
  6
CONTINUOUS
 10
31.0046736083
 20
12.7770595519
 40
0.0999999994
100
AcDbArc
 50
193.1586468471
 51
311.6553165078
  0
ARC
  5
2D5
100
AcDbEntity
  8
0
100
AcDbCircle
 62
6
  6
CONTINUOUS
 10
30.6869328955
 20
12.7770595518
 40
0.0999999993
100
AcDbArc
 50
179.9999998768
 51
296.8142226022
  0
ARC
  5
2D6
100
AcDbEntity
  8
0
100
AcDbCircle
 62
6
  6
CONTINUOUS
 10
31.5813963556
 20
12.7770595521
 40
0.0999999992
100
AcDbArc
 50
219.5069130577
 51
320.1557495683
  0
ARC
  5
2D7
100
AcDbEntity
  8
0
100
AcDbCircle
 62
6
  6
CONTINUOUS
 10
30.5623979354
 20
12.7770595516
 40
0.0999999991
100
AcDbArc
 50
165.5224879119
 51
285.2164703457
  0
ARC
  5
2D8
100
AcDbEntity
  8
0
100
AcDbCircle
 62
6
  6
CONTINUOUS
 10
31.1375775403
 20
12.7770595514
 40
0.0999999989
100
AcDbArc
 50
207.6219359016
 51
315.3639066123
  0
ARC
  5
2D9
100
AcDbEntity
  8
0
100
AcDbCircle
 62
6
  6
CONTINUOUS
 10
31.4287728065
 20
12.7770595508
 40
0.0999999988
100
AcDbArc
 50
217.7385717645
 51
319.7440703899
  0
ARC
  5
2DA
100
AcDbEntity
  8
0
100
AcDbCircle
 62
6
  6
CONTINUOUS
 10
31.2798671079
 20
12.7770595505
 40
0.0999999984
100
AcDbArc
 50
214.1487982195
 51
318.132478025
  0
ARC
  5
2DB
100
AcDbEntity
  8
0
100
AcDbCircle
 62
6
  6
CONTINUOUS
 10
30.8837421207
 20
12.7770595518
 40
0.0999999857
100
AcDbArc
 50
165.5224856065
 51
307.2120947915
  0
ARC
  5
2DC
100
AcDbEntity
  8
0
100
AcDbCircle
 62
6
  6
CONTINUOUS
 10
30.5304909265
 20
12.7770595291
 40
0.0999999767
100
AcDbArc
 50
165.5224877516
 51
279.1799719321
  0
ARC
  5
2DD
100
AcDbEntity
  8
0
100
AcDbCircle
 62
7
  6
CONTINUOUS
 10
30.5960755874
 20
12.7771085345
 40
0.0676919576
100
AcDbArc
 50
158.3706209386
 51
180.0414591808
  0
ARC
  5
2DE
100
AcDbEntity
  8
0
100
AcDbCircle
 62
6
  6
CONTINUOUS
 10
29.3841078407
 20
13.3428307939
 40
3.3445506434
100
AcDbArc
 50
321.7460695057
 51
322.1219599195
  0
ARC
  5
2DF
100
AcDbEntity
  8
0
100
AcDbCircle
 62
6
  6
CONTINUOUS
 10
33.0601851459
 20
12.8187295521
 40
2.4068193439
100
AcDbArc
 50
219.9876415914
 51
220.5827868366
  0
ARC
  5
2E0
100
AcDbEntity
  8
0
100
AcDbCircle
 62
6
  6
CONTINUOUS
 10
32.070251116
 20
12.7774711816
 40
0.5718689571
100
AcDbArc
 50
177.53571769
 51
180.0412412742
  0
ARC
  5
2E1
100
AcDbEntity
  8
0
100
AcDbCircle
 62
6
  6
CONTINUOUS
 10
32.4496897981
 20
12.7020695521
 40
0.20006
100
AcDbArc
 50
330.5143604928
 51
339.26679
  0
ARC
  5
2E2
100
AcDbEntity
  8
0
100
AcDbCircle
 62
6
  6
CONTINUOUS
 10
31.885899887
 20
12.777059554
 40
0.1000000011
100
AcDbArc
 50
220.9140992581
 51
323.7853522015
  0
ARC
  5
2E3
100
AcDbEntity
  8
0
100
AcDbCircle
 62
6
  6
CONTINUOUS
 10
32.0318530546
 20
12.7770595527
 40
0.1000000004
100
AcDbArc
 50
223.1294683772
 51
328.6189501444
  0
ARC
  5
2E4
100
AcDbEntity
  8
0
100
AcDbCircle
 62
6
  6
CONTINUOUS
 10
32.6534476846
 20
12.7770595523
 40
0.1000000002
100
AcDbArc
 50
251.7957596049
 51
14.477512248
  0
ARC
  5
2E5
100
AcDbEntity
  8
0
100
AcDbCircle
 62
6
  6
CONTINUOUS
 10
32.4110595823
 20
12.7770595522
 40
0.1
100
AcDbArc
 50
235.2230095885
 51
14.4775126762
  0
ARC
  5
2E6
100
AcDbEntity
  8
0
100
AcDbCircle
 62
6
  6
CONTINUOUS
 10
32.5910281541
 20
12.777059552
 40
0.1
100
AcDbArc
 50
245.9960863068
 51
360.0
  0
ARC
  5
2E7
100
AcDbEntity
  8
0
100
AcDbCircle
 62
6
  6
CONTINUOUS
 10
32.7171062576
 20
12.7770595521
 40
0.0999999996
100
AcDbArc
 50
263.8324271184
 51
14.4775122291
  0
ARC
  5
2E8
100
AcDbEntity
  8
0
100
AcDbCircle
 62
6
  6
CONTINUOUS
 10
32.5097044962
 20
12.7770595518
 40
0.0999999996
100
AcDbArc
 50
240.4432345883
 51
0.0000001318
  0
ARC
  5
2E9
100
AcDbEntity
  8
0
100
AcDbCircle
 62
6
  6
CONTINUOUS
 10
31.7347671118
 20
12.7770595521
 40
0.0999999995
100
AcDbArc
 50
219.9135781691
 51
321.1835828747
  0
ARC
  5
2EA
100
AcDbEntity
  8
0
100
AcDbCircle
 62
6
  6
CONTINUOUS
 10
32.6957481633
 20
12.777059552
 40
0.0999999994
100
AcDbArc
 50
257.7829098906
 51
14.477512292
  0
ARC
  5
2EB
100
AcDbEntity
  8
0
100
AcDbCircle
 62
6
  6
CONTINUOUS
 10
32.1697858024
 20
12.7770595509
 40
0.0999999987
100
AcDbArc
 50
226.3888178851
 51
337.7524479049
  0
ARC
  5
2EC
100
AcDbEntity
  8
0
100
AcDbCircle
 62
6
  6
CONTINUOUS
 10
32.2970134426
 20
12.7770595523
 40
0.0999999822
100
AcDbArc
 50
230.4881726412
 51
14.4775146034
  0
ARC
  5
2ED
100
AcDbEntity
  8
0
100
AcDbCircle
 62
6
  6
CONTINUOUS
 10
33.9282505063
 20
13.3998329603
 40
3.4370009942
100
AcDbArc
 50
217.8831631321
 51
218.248872596
  0
SPLINE
  5
2EE
100
AcDbEntity
  8
0
100
AcDbSpline
 62
7
  6
CONTINUOUS
 70
0
 71
3
 72
11
 73
7
 74
5
 42
0.0000001
 43
0.0000001
 44
0.0000000001
 12
0.0
 22
0.0253971186
 32
0.0
 13
-0.0078347578
 23
0.0241584396
 33
0.0
 40
0.0
 40
0.0
 40
0.0
 40
0.0
 40
0.2525383038
 40
0.5040738165
 40
0.7535575354
 40
1.0
 40
1.0
 40
1.0
 40
1.0
 10
2.4075056302
 20
12.7770595521
 30
0.0
 10
2.4075056302
 20
12.7791974671
 30
0.0
 10
2.4073419966
 20
12.7834665964
 30
0.0
 10
2.4066085348
 20
12.7898098767
 30
0.0
 10
2.4053933821
 20
12.7960262644
 30
0.0
 10
2.4042623793
 20
12.8000749969
 30
0.0
 10
2.4036187736
 20
12.8020595521
 30
0.0
 11
2.4075056302
 21
12.7770595521
 31
0.0
 11
2.4072595961
 21
12.7834685766
 31
0.0
 11
2.4065241542
 21
12.7898143792
 31
0.0
 11
2.4053062458
 21
12.7960323949
 31
0.0
 11
2.4036187736
 21
12.8020595521
 31
0.0
  0
SPLINE
  5
2EF
100
AcDbEntity
  8
0
100
AcDbSpline
 62
7
  6
CONTINUOUS
 70
0
 71
3
 72
11
 73
7
 74
5
 42
0.0000001
 43
0.0000001
 44
0.0000000001
 12
0.0
 22
0.0250959977
 32
0.0
 13
0.00393087
 23
0.0247862334
 33
0.0
 40
0.0
 40
0.0
 40
0.0
 40
0.0
 40
0.2554246424
 40
0.5086911786
 40
0.757595179
 40
1.0
 40
1.0
 40
1.0
 40
1.0
 10
1.0827001917
 20
12.7770595521
 30
0.0
 10
1.0827001917
 20
12.7791962641
 30
0.0
 10
1.082779796
 20
12.7834520634
 30
0.0
 10
1.0831368209
 20
12.7897810259
 30
0.0
 10
1.0837282728
 20
12.7959830454
 30
0.0
 10
1.0842832991
 20
12.8000567846
 30
0.0
 10
1.0846009197
 20
12.8020595521
 30
0.0
 11
1.0827001917
 21
12.7770595521
 31
0.0
 11
1.0828205045
 21
12.7834685591
 31
0.0
 11
1.0831801458
 21
12.7898143526
 31
0.0
 11
1.0837757214
 21
12.7960323892
 31
0.0
 11
1.0846009197
 21
12.8020595521
 31
0.0
  0
SPLINE
  5
2F0
100
AcDbEntity
  8
0
100
AcDbSpline
 62
7
  6
CONTINUOUS
 70
0
 71
3
 72
11
 73
7
 74
5
 42
0.0000001
 43
0.0000001
 44
0.0000000001
 12
0.0
 22
0.025257786
 32
0.0
 13
0.0063704148
 23
0.0244412269
 33
0.0
 40
0.0
 40
0.0
 40
0.0
 40
0.0
 40
0.2538645542
 40
0.506193116
 40
0.755407616
 40
1.0
 40
1.0
 40
1.0
 40
1.0
 10
0.8027277827
 20
12.7770595521
 30
0.0
 10
0.8027277827
 20
12.7791969043
 30
0.0
 10
0.8028589737
 20
12.783459833
 30
0.0
 10
0.8034472014
 20
12.7897965581
 30
0.0
 10
0.8044217386
 20
12.7960065569
 30
0.0
 10
0.8053322215
 20
12.8000668394
 30
0.0
 10
0.8058516065
 20
12.8020595521
 30
0.0
 11
0.8027277827
 21
12.7770595521
 31
0.0
 11
0.8029255154
 21
12.7834685591
 31
0.0
 11
0.8035165815
 21
12.7898143526
 31
0.0
 11
0.8044954029
 21
12.7960323892
 31
0.0
 11
0.8058516065
 21
12.8020595521
 31
0.0
  0
SPLINE
  5
2F1
100
AcDbEntity
  8
0
100
AcDbSpline
 62
7
  6
CONTINUOUS
 70
0
 71
3
 72
10
 73
6
 74
4
 42
0.0000001
 43
0.0000001
 44
0.0000000001
 12
0.0
 22
0.0254311993
 32
0.0
 13
0.0082402639
 23
0.024059176
 33
0.0
 40
0.0
 40
0.0
 40
0.0
 40
0.0
 40
0.2522205844
 40
0.5036105728
 40
1.0
 40
1.0
 40
1.0
 40
1.0
 10
0.5781556436
 20
12.7770595521
 30
0.0
 10
0.5781556436
 20
12.7791976427
 30
0.0
 10
0.5783287281
 20
12.783469383
 30
0.0
 10
0.5793569005
 20
12.7918893155
 30
0.0
 10
0.5808970801
 20
12.7980786452
 30
0.0
 10
0.58226054
 20
12.8020595521
 30
0.0
 11
0.5781556436
 21
12.7770595521
 31
0.0
 11
0.5784154766
 21
12.7834685591
 31
0.0
 11
0.5791921737
 21
12.7898143526
 31
0.0
 11
0.58226054
 21
12.8020595521
 31
0.0
  0
SPLINE
  5
2F2
100
AcDbEntity
  8
0
100
AcDbSpline
 62
6
  6
CONTINUOUS
 70
0
 71
3
 72
16
 73
12
 74
10
 42
0.0000001
 43
0.0000001
 44
0.0000000001
 12
-0.0021086964
 22
0.0597027633
 32
0.0
 13
0.01330602
 23
0.0582393027
 33
0.0
 40
0.0
 40
0.0
 40
0.0
 40
0.0
 40
0.1254056684
 40
0.2512854761
 40
0.3142766027
 40
0.3772337047
 40
0.5029326775
 40
0.6282108675
 40
0.7528921365
 40
0.8768543691
 40
1.0
 40
1.0
 40
1.0
 40
1.0
 10
1.811548039
 20
10.939965953
 30
0.0
 10
1.8114598915
 20
10.9424616413
 30
0.0
 10
1.8113725725
 20
10.947466013
 30
0.0
 10
1.8114824033
 20
10.9537246508
 30
0.0
 10
1.8117011368
 20
10.9587348403
 30
0.0
 10
1.8120071345
 20
10.9637368439
 30
0.0
 10
1.8125496155
 20
10.9699660367
 30
0.0
 10
1.813444255
 20
10.9773942412
 30
0.0
 10
1.8145702221
 20
10.9847558899
 30
0.0
 10
1.815911899
 20
10.9920379147
 30
0.0
 10
1.8169424431
 20
10.9968503026
 30
0.0
 10
1.8174886359
 20
10.9992409412
 30
0.0
 11
1.811548039
 21
10.939965953
 31
0.0
 11
1.8114163562
 21
10.9474565291
 31
0.0
 11
1.811547933
 21
10.9549754366
 31
0.0
 11
1.8117121108
 21
10.9587349428
 31
0.0
 11
1.8119415993
 21
10.9624889916
 31
0.0
 11
1.8125914846
 21
10.9699700723
 31
0.0
 11
1.8134852155
 21
10.9774006353
 31
0.0
 11
1.8146097414
 21
10.9847637166
 31
0.0
 11
1.8159497768
 21
10.9920469697
 31
0.0
 11
1.8174886359
 21
10.9992409412
 31
0.0
  0
SPLINE
  5
2F3
100
AcDbEntity
  8
0
100
AcDbSpline
 62
6
  6
CONTINUOUS
 70
0
 71
3
 72
14
 73
10
 74
8
 42
0.0000001
 43
0.0000001
 44
0.0000000001
 12
-0.0205279542
 22
0.0563517331
 32
0.0
 13
-0.0067527349
 23
0.0595929131
 33
0.0
 40
0.0
 40
0.0
 40
0.0
 40
0.0
 40
0.1057121243
 40
0.2196581986
 40
0.3397852333
 40
0.4648470441
 40
0.7265538115
 40
0.8620985116
 40
1.0
 40
1.0
 40
1.0
 40
1.0
 10
1.8268583028
 20
10.8651848627
 30
0.0
 10
1.8261349516
 20
10.8671705499
 30
0.0
 10
1.82467772
 20
10.8713134319
 30
0.0
 10
1.8225693047
 20
10.8777713416
 30
0.0
 10
1.8205109929
 20
10.884650538
 30
0.0
 10
1.8178701864
 20
10.8944348423
 30
0.0
 10
1.8156022043
 20
10.9046361476
 30
0.0
 10
1.8138137025
 20
10.9151857774
 30
0.0
 10
1.813094983
 20
10.9206064877
 30
0.0
 10
1.8127845789
 20
10.9233458049
 30
0.0
 11
1.8268583028
 21
10.8651848627
 31
0.0
 11
1.8247541672
 21
10.8711655255
 31
0.0
 11
1.8226339414
 21
10.8776621348
 31
0.0
 11
1.8205699707
 21
10.8845646937
 31
0.0
 11
1.8186171582
 21
10.8918065105
 31
0.0
 11
1.8152268214
 21
10.9071316487
 31
0.0
 11
1.8138695287
 21
10.9151467338
 31
0.0
 11
1.8127845789
 21
10.9233458049
 31
0.0
  0
LINE
  5
2F4
100
AcDbEntity
  8
0
100
AcDbLine
 62
7
  6
CONTINUOUS
 10
1.8305177937
 20
10.8581495524
 11
1.8299313938
 21
10.8592393896
  0
SPLINE
  5
2F5
100
AcDbEntity
  8
0
100
AcDbSpline
 62
6
  6
CONTINUOUS
 70
0
 71
3
 72
23
 73
19
 74
17
 42
0.0000001
 43
0.0000001
 44
0.0000000001
 12
0.003561748
 22
0.002909322
 32
0.0
 13
0.002310053
 23
-0.0039766643
 33
0.0
 40
0.0
 40
0.0
 40
0.0
 40
0.0
 40
0.2207410988
 40
0.4152701685
 40
0.5822407478
 40
0.6550074501
 40
0.7204708428
 40
0.7785651438
 40
0.8292624724
 40
0.8725995566
 40
0.908732308
 40
0.9380539395
 40
0.9504347857
 40
0.9615295348
 40
0.9716201128
 40
0.9810840313
 40
0.9903809899
 40
1.0
 40
1.0
 40
1.0
 40
1.0
 10
1.8238996909
 20
11.0147055698
 30
0.0
 10
1.8241617657
 20
11.0149196388
 30
0.0
 10
1.8246564888
 20
11.0153203057
 30
0.0
 10
1.8253584824
 20
11.0158716079
 30
0.0
 10
1.8258917538
 20
11.0162703341
 30
0.0
 10
1.8262749881
 20
11.0165387887
 30
0.0
 10
1.8265259498
 20
11.0167049853
 30
0.0
 10
1.8267535975
 20
11.0168448849
 30
0.0
 10
1.8269577022
 20
11.0169579017
 30
0.0
 10
1.8271381558
 20
11.0170435624
 30
0.0
 10
1.8272948397
 20
11.0171013606
 30
0.0
 10
1.827412034
 20
11.0171274454
 30
0.0
 10
1.8274930961
 20
11.0171311715
 30
0.0
 10
1.8275445278
 20
11.0171262121
 30
0.0
 10
1.8275900621
 20
11.0171134911
 30
0.0
 10
1.8276295464
 20
11.0170927423
 30
0.0
 10
1.8276626343
 20
11.0170639047
 30
0.0
 10
1.8276797363
 20
11.0170401577
 30
0.0
 10
1.8276871431
 20
11.0170274071
 30
0.0
 11
1.8238996909
 21
11.0147055698
 31
0.0
 11
1.8246893995
 21
11.0153434872
 31
0.0
 11
1.825394044
 21
11.0158946974
 31
0.0
 11
1.8260106555
 21
11.0163523442
 31
0.0
 11
1.8262850253
 21
11.0165439464
 31
0.0
 11
1.8265363445
 21
11.016709708
 31
0.0
 11
1.8267643546
 21
11.016848964
 31
0.0
 11
1.826968798
 21
11.0169610513
 31
0.0
 11
1.8271494172
 21
11.0170453066
 31
0.0
 11
1.8273059547
 21
11.0171010668
 31
0.0
 11
1.827438153
 21
11.0171276685
 31
0.0
 11
1.8274950505
 21
11.0171298367
 31
0.0
 11
1.8275457958
 21
11.0171245106
 31
0.0
 11
1.8275903833
 21
11.0171116475
 31
0.0
 11
1.8276288074
 21
11.0170912045
 31
0.0
 11
1.8276610626
 21
11.0170631386
 31
0.0
 11
1.8276871431
 21
11.0170274071
 31
0.0
  0
SPLINE
  5
2F6
100
AcDbEntity
  8
0
100
AcDbSpline
 62
6
  6
CONTINUOUS
 70
0
 71
3
 72
11
 73
7
 74
5
 42
0.0000001
 43
0.0000001
 44
0.0000000001
 12
0.006559489
 22
-0.0269650808
 32
0.0
 13
0.0087693821
 23
-0.0263294591
 33
0.0
 40
0.0
 40
0.0
 40
0.0
 40
0.0
 40
0.2795349915
 40
0.5435266637
 40
0.7866988601
 40
1.0
 40
1.0
 40
1.0
 40
1.0
 10
1.8220135803
 20
10.8861404213
 30
0.0
 10
1.8226247825
 20
10.8836278601
 30
0.0
 10
1.8238829909
 20
10.8787591699
 30
0.0
 10
1.8258826653
 20
10.8717613087
 30
0.0
 10
1.8278508761
 20
10.8653934755
 30
0.0
 10
1.8291646304
 20
10.8613803134
 30
0.0
 10
1.8297881368
 20
10.8595082789
 30
0.0
 11
1.8220135803
 21
10.8861404213
 31
0.0
 11
1.8239516006
 21
10.8786289057
 31
0.0
 11
1.825961695
 21
10.8715839086
 31
0.0
 11
1.8279514176
 21
10.8651355273
 31
0.0
 11
1.8297881368
 21
10.8595082789
 31
0.0
  0
LINE
  5
2F7
100
AcDbEntity
  8
0
100
AcDbLine
 62
7
  6
CONTINUOUS
 10
1.8220135803
 20
10.8861404213
 11
1.8213336555
 21
10.8816020985
  0
SPLINE
  5
2F8
100
AcDbEntity
  8
0
100
AcDbSpline
 62
6
  6
CONTINUOUS
 70
0
 71
3
 72
14
 73
10
 74
8
 42
0.0000001
 43
0.0000001
 44
0.0000000001
 12
0.0020277322
 22
0.0574104524
 32
0.0
 13
-0.0123143551
 23
0.0561108582
 33
0.0
 40
0.0
 40
0.0
 40
0.0
 40
0.0
 40
0.125309543
 40
0.2510898502
 40
0.3769608283
 40
0.5026201996
 40
0.6279015172
 40
0.7526408278
 40
1.0
 40
1.0
 40
1.0
 40
1.0
 10
31.3260235648
 20
10.939965953
 30
0.0
 10
31.3261082629
 20
10.9423639789
 30
0.0
 10
31.3261954889
 20
10.947172337
 30
0.0
 10
31.3260836813
 20
10.9543910795
 30
0.0
 10
31.3257298345
 20
10.961608819
 30
0.0
 10
31.32513683
 20
10.9688011428
 30
0.0
 10
31.3243173886
 20
10.9759493846
 30
0.0
 10
31.322940959
 20
10.9853746914
 30
0.0
 10
31.3215993335
 20
10.9923775325
 30
0.0
 10
31.3205839773
 20
10.9970040443
 30
0.0
 11
31.3260235648
 21
10.939965953
 31
0.0
 11
31.3261550518
 21
10.9471633155
 31
0.0
 11
31.3260433969
 21
10.9543880599
 31
0.0
 11
31.3256895799
 21
10.961610214
 31
0.0
 11
31.3250980098
 21
10.9688045933
 31
0.0
 11
31.3242794106
 21
10.975954829
 31
0.0
 11
31.3232452416
 21
10.9830456164
 31
0.0
 11
31.3205839773
 21
10.9970040443
 31
0.0
  0
SPLINE
  5
2F9
100
AcDbEntity
  8
0
100
AcDbSpline
 62
6
  6
CONTINUOUS
 70
0
 71
3
 72
10
 73
6
 74
4
 42
0.0000001
 43
0.0000001
 44
0.0000000001
 12
0.0058615782
 22
0.0255180073
 32
0.0
 13
0.0029479957
 23
0.0260160742
 33
0.0
 40
0.0
 40
0.0
 40
0.0
 40
0.0
 40
0.4918318759
 40
0.7442411147
 40
1.0
 40
1.0
 40
1.0
 40
1.0
 10
31.3203460806
 20
10.8975546894
 30
0.0
 10
31.321307051
 20
10.9017382126
 30
0.0
 10
31.3225977188
 20
10.9081083294
 30
0.0
 10
31.3239684721
 20
10.9167283665
 30
0.0
 10
31.3245356996
 20
10.9211278575
 30
0.0
 10
31.324787025
 20
10.9233458049
 30
0.0
 11
31.3203460806
 21
10.8975546894
 31
0.0
 11
31.3228947949
 21
10.9101773684
 31
0.0
 11
31.323931969
 21
10.9167041955
 31
0.0
 11
31.324787025
 21
10.9233458049
 31
0.0
  0
SPLINE
  5
2FA
100
AcDbEntity
  8
0
100
AcDbSpline
 62
7
  6
CONTINUOUS
 70
0
 71
3
 72
23
 73
19
 74
17
 42
0.0000001
 43
0.0000001
 44
0.0000000001
 12
0.0300959147
 22
-0.0853284783
 32
0.0
 13
-0.0203875956
 23
-0.0881536116
 33
0.0
 40
0.0
 40
0.0
 40
0.0
 40
0.0
 40
0.1094487045
 40
0.1675250435
 40
0.22751455
 40
0.2891922424
 40
0.3523450726
 40
0.416713985
 40
0.482008413
 40
0.5479371095
 40
0.6141683309
 40
0.6472929668
 40
0.6803672475
 40
0.7462113084
 40
0.8114026052
 40
0.8756337083
 40
0.9386029935
 40
1.0
 40
1.0
 40
1.0
 40
1.0
 10
31.3208755207
 20
10.9970371834
 30
0.0
 10
31.321973507
 20
10.993924153
 30
0.0
 10
31.3235297558
 20
10.9891137907
 30
0.0
 10
31.3253604322
 20
10.9824998149
 30
0.0
 10
31.3266423849
 20
10.9772314556
 30
0.0
 10
31.3277808458
 20
10.9717736593
 30
0.0
 10
31.3287485517
 20
10.9661487659
 30
0.0
 10
31.3295243951
 20
10.9603840447
 30
0.0
 10
31.3300896409
 20
10.9545105966
 30
0.0
 10
31.3304253468
 20
10.9485632929
 30
0.0
 10
31.3305107286
 20
10.9435776112
 30
0.0
 10
31.3304598728
 20
10.9395835871
 30
0.0
 10
31.330328672
 20
10.9356030767
 30
0.0
 10
31.3300183807
 20
10.9306618658
 30
0.0
 10
31.3294231361
 20
10.9248013426
 30
0.0
 10
31.328616559
 20
10.9190537098
 30
0.0
 10
31.327621069
 20
10.9134522196
 30
0.0
 10
31.3268374777
 20
10.9097832145
 30
0.0
 10
31.3264202319
 20
10.9079790919
 30
0.0
 11
31.3208755207
 21
10.9970371834
 31
0.0
 11
31.3239180885
 21
10.9876131941
 31
0.0
 11
31.3253189189
 21
10.9825485795
 31
0.0
 11
31.3266015858
 21
10.9772744326
 31
0.0
 11
31.3277399105
 21
10.9718111367
 31
0.0
 11
31.3287082106
 21
10.9661796805
 31
0.0
 11
31.32948444
 21
10.9604075108
 31
0.0
 11
31.3300491535
 21
10.9545266925
 31
0.0
 11
31.3303859053
 21
10.9485709466
 31
0.0
 11
31.3304880693
 21
10.9425791863
 31
0.0
 11
31.3304497493
 21
10.939582299
 31
0.0
 11
31.3303513116
 21
10.9365913424
 31
0.0
 11
31.3299788456
 21
10.9306453962
 31
0.0
 11
31.329382643
 21
10.9247770662
 31
0.0
 11
31.328576045
 21
10.9190216524
 31
0.0
 11
31.3275801767
 21
10.913411872
 31
0.0
 11
31.3264202319
 21
10.9079790919
 31
0.0
  0
LINE
  5
2FB
100
AcDbEntity
  8
0
100
AcDbLine
 62
7
  6
CONTINUOUS
 10
31.307783467
 20
10.8595082789
 11
31.3070538101
 21
10.8581495524
  0
SPLINE
  5
2FC
100
AcDbEntity
  8
0
100
AcDbSpline
 62
6
  6
CONTINUOUS
 70
0
 71
3
 72
11
 73
7
 74
5
 42
0.0000001
 43
0.0000001
 44
0.0000000001
 12
-0.006559489
 22
-0.0269650808
 32
0.0
 13
-0.0087693821
 23
-0.0263294591
 33
0.0
 40
0.0
 40
0.0
 40
0.0
 40
0.0
 40
0.2795349915
 40
0.5435266637
 40
0.7866988601
 40
1.0
 40
1.0
 40
1.0
 40
1.0
 10
31.3155580236
 20
10.8861404213
 30
0.0
 10
31.3149468213
 20
10.8836278601
 30
0.0
 10
31.3136886129
 20
10.8787591699
 30
0.0
 10
31.3116889386
 20
10.8717613087
 30
0.0
 10
31.3097207277
 20
10.8653934755
 30
0.0
 10
31.3084069735
 20
10.8613803134
 30
0.0
 10
31.307783467
 20
10.8595082789
 30
0.0
 11
31.3155580236
 21
10.8861404213
 31
0.0
 11
31.3136200033
 21
10.8786289057
 31
0.0
 11
31.3116099088
 21
10.8715839086
 31
0.0
 11
31.3096201862
 21
10.8651355273
 31
0.0
 11
31.307783467
 21
10.8595082789
 31
0.0
  0
SPLINE
  5
2FD
100
AcDbEntity
  8
0
100
AcDbSpline
 62
6
  6
CONTINUOUS
 70
0
 71
3
 72
12
 73
8
 74
6
 42
0.0000001
 43
0.0000001
 44
0.0000000001
 12
-0.0075341279
 22
-0.0134865002
 32
0.0
 13
-0.008416689
 23
-0.0129540773
 33
0.0
 40
0.0
 40
0.0
 40
0.0
 40
0.0
 40
0.2899898163
 40
0.4256265969
 40
0.554743
 40
0.7922865389
 40
1.0
 40
1.0
 40
1.0
 40
1.0
 10
31.3264202319
 20
10.9079790919
 30
0.0
 10
31.3256919584
 20
10.9066754426
 30
0.0
 10
31.3246052909
 20
10.9047718874
 30
0.0
 10
31.3231574403
 20
10.9023093635
 30
0.0
 10
31.3218292746
 20
10.900089842
 30
0.0
 10
31.3202822844
 20
10.897568851
 30
0.0
 10
31.3190528149
 20
10.8956333856
 30
0.0
 10
31.3184700617
 20
10.8947364735
 30
0.0
 11
31.3264202319
 21
10.9079790919
 31
0.0
 11
31.3241999803
 21
10.9040881492
 31
0.0
 11
31.3231380434
 21
10.9022818292
 31
0.0
 11
31.3221137406
 21
10.9005703012
 31
0.0
 11
31.3201933359
 21
10.8974432796
 31
0.0
 11
31.3184700617
 21
10.8947364735
 31
0.0
  0
LINE
  5
2FE
100
AcDbEntity
  8
0
100
AcDbLine
 62
7
  6
CONTINUOUS
 10
31.3282075275
 20
10.9691387394
 11
31.3260235646
 21
10.9399659495
  0
SPLINE
  5
2FF
100
AcDbEntity
  8
0
100
AcDbSpline
 62
7
  6
CONTINUOUS
 70
0
 71
3
 72
11
 73
7
 74
5
 42
0.0000001
 43
0.0000001
 44
0.0000000001
 12
0.0
 22
0.025561492
 32
0.0
 13
-0.0092204049
 23
0.0238405958
 33
0.0
 40
0.0
 40
0.0
 40
0.0
 40
0.0
 40
0.2509922799
 40
0.5016084923
 40
0.7514136227
 40
1.0
 40
1.0
 40
1.0
 40
1.0
 10
32.6808202041
 20
12.7770595521
 30
0.0
 10
32.6808202041
 20
12.7791981311
 30
0.0
 10
32.6806245014
 20
12.783474625
 30
0.0
 10
32.6797476398
 20
12.7898254768
 30
0.0
 10
32.6782950366
 20
12.7960488585
 30
0.0
 10
32.6769489599
 20
12.8000840696
 30
0.0
 10
32.6761849375
 20
12.8020595521
 30
0.0
 11
32.6808202041
 21
12.7770595521
 31
0.0
 11
32.6805267963
 21
12.7834685766
 31
0.0
 11
32.6796497459
 21
12.7898143792
 31
0.0
 11
32.6781973306
 21
12.7960323949
 31
0.0
 11
32.6761849375
 21
12.8020595521
 31
0.0
  0
SPLINE
  5
300
100
AcDbEntity
  8
0
100
AcDbSpline
 62
7
  6
CONTINUOUS
 70
0
 71
3
 72
11
 73
7
 74
5
 42
0.0000001
 43
0.0000001
 44
0.0000000001
 12
0.0
 22
0.0250959977
 32
0.0
 13
0.00393087
 23
0.0247862334
 33
0.0
 40
0.0
 40
0.0
 40
0.0
 40
0.0
 40
0.2554246424
 40
0.5086911786
 40
0.757595179
 40
1.0
 40
1.0
 40
1.0
 40
1.0
 10
31.1847001917
 20
12.7770595521
 30
0.0
 10
31.1847001917
 20
12.7791962641
 30
0.0
 10
31.184779796
 20
12.7834520634
 30
0.0
 10
31.1851368209
 20
12.7897810259
 30
0.0
 10
31.1857282728
 20
12.7959830454
 30
0.0
 10
31.1862832991
 20
12.8000567846
 30
0.0
 10
31.1866009197
 20
12.8020595521
 30
0.0
 11
31.1847001917
 21
12.7770595521
 31
0.0
 11
31.1848205045
 21
12.7834685591
 31
0.0
 11
31.1851801458
 21
12.7898143526
 31
0.0
 11
31.1857757214
 21
12.7960323892
 31
0.0
 11
31.1866009197
 21
12.8020595521
 31
0.0
  0
SPLINE
  5
301
100
AcDbEntity
  8
0
100
AcDbSpline
 62
7
  6
CONTINUOUS
 70
0
 71
3
 72
11
 73
7
 74
5
 42
0.0000001
 43
0.0000001
 44
0.0000000001
 12
0.0
 22
0.0251705607
 32
0.0
 13
0.0052125183
 23
0.0246249219
 33
0.0
 40
0.0
 40
0.0
 40
0.0
 40
0.0
 40
0.2547030503
 40
0.507535051
 40
0.7565817196
 40
1.0
 40
1.0
 40
1.0
 40
1.0
 10
31.0390624273
 20
12.7770595521
 30
0.0
 10
31.0390624273
 20
12.7791965583
 30
0.0
 10
31.0391688128
 20
12.7834556351
 30
0.0
 10
31.039645894
 20
12.7897881956
 30
0.0
 10
31.040436268
 20
12.7959939673
 30
0.0
 10
31.041176452
 20
12.8000615
 30
0.0
 10
31.0415993927
 20
12.8020595521
 30
0.0
 11
31.0390624273
 21
12.7770595521
 31
0.0
 11
31.0392230128
 21
12.7834685591
 31
0.0
 11
31.039703038
 21
12.7898143526
 31
0.0
 11
31.0404979728
 21
12.7960323892
 31
0.0
 11
31.0415993927
 21
12.8020595521
 31
0.0
  0
SPLINE
  5
302
100
AcDbEntity
  8
0
100
AcDbSpline
 62
6
  6
CONTINUOUS
 70
0
 71
3
 72
15
 73
11
 74
9
 42
0.0000001
 43
0.0000001
 44
0.0000000001
 12
-0.0703207353
 22
-0.8754816881
 32
0.0
 13
-0.3272140393
 23
-0.8150731038
 33
0.0
 40
0.0
 40
0.0
 40
0.0
 40
0.0
 40
0.1300482194
 40
0.2583111987
 40
0.3849528624
 40
0.510143504
 40
0.6340593997
 40
0.7568823142
 40
0.8787989007
 40
1.0
 40
1.0
 40
1.0
 40
1.0
 10
2.1900987659
 20
12.5096762742
 30
0.0
 10
2.1870504037
 20
12.4717246626
 30
0.0
 10
2.1797122409
 20
12.3964384576
 30
0.0
 10
2.1648260842
 20
12.2847012169
 30
0.0
 10
2.1461404747
 20
12.1749762494
 30
0.0
 10
2.1236550379
 20
12.0672657209
 30
0.0
 10
2.0973693569
 20
11.9615699292
 30
0.0
 10
2.0672828478
 20
11.8578890964
 30
0.0
 10
2.0333961007
 20
11.7562260651
 30
0.0
 10
2.0082085292
 20
11.6896307112
 30
0.0
 10
1.9949889621
 20
11.6567014591
 30
0.0
 11
2.1900987659
 21
12.5096762742
 31
0.0
 11
2.1789896461
 21
12.3959962696
 31
0.0
 11
2.1640863532
 21
12.28433288
 31
0.0
 11
2.1453888873
 21
12.1746861056
 31
0.0
 11
2.1228972484
 21
12.0670559461
 31
0.0
 11
2.0966114364
 21
11.9614424018
 31
0.0
 11
2.0665314513
 21
11.8578454725
 31
0.0
 11
2.0326572932
 21
11.7562651583
 31
0.0
 11
1.9949889621
 21
11.6567014591
 31
0.0
  0
SPLINE
  5
303
100
AcDbEntity
  8
0
100
AcDbSpline
 62
6
  6
CONTINUOUS
 70
0
 71
3
 72
21
 73
17
 74
15
 42
0.0000001
 43
0.0000001
 44
0.0000000001
 12
-0.0044776777
 22
-0.0193374787
 32
0.0
 13
-0.0100575054
 23
-0.017112401
 33
0.0
 40
0.0
 40
0.0
 40
0.0
 40
0.0
 40
0.0094561191
 40
0.0203616336
 40
0.032735073
 40
0.0465863741
 40
0.0787360494
 40
0.1168154504
 40
0.1607990397
 40
0.2106448197
 40
0.2662522251
 40
0.3274692872
 40
0.4661029058
 40
0.6252725187
 40
0.8036783401
 40
1.0
 40
1.0
 40
1.0
 40
1.0
 10
1.8276889948
 20
11.0165262103
 30
0.0
 10
1.827674881
 20
11.0164652578
 30
0.0
 10
1.8276393475
 20
11.0163351949
 30
0.0
 10
1.8275713032
 20
11.0161295086
 30
0.0
 10
1.8274848601
 20
11.0158994938
 30
0.0
 10
1.8273377398
 20
11.0155423347
 30
0.0
 10
1.8271063213
 20
11.0150362507
 30
0.0
 10
1.8267704351
 20
11.0143592536
 30
0.0
 10
1.826365044
 20
11.0135862948
 30
0.0
 10
1.8258916577
 20
11.0127182231
 30
0.0
 10
1.8253522878
 20
11.0117563575
 30
0.0
 10
1.8245129412
 20
11.0102892707
 30
0.0
 10
1.8233139375
 20
11.0082386222
 30
0.0
 10
1.8217081227
 20
11.0055277641
 30
0.0
 10
1.8199034964
 20
11.0024910521
 30
0.0
 10
1.8186419631
 20
11.0003566476
 30
0.0
 10
1.8179837944
 20
10.9992368027
 30
0.0
 11
1.8276889948
 21
11.0165262103
 31
0.0
 11
1.8276404122
 21
11.0163449111
 31
0.0
 11
1.82757308
 21
11.0161391846
 31
0.0
 11
1.8274871787
 21
11.0159090949
 31
0.0
 11
1.8273828891
 21
11.0156547062
 31
0.0
 11
1.8271198672
 21
11.0150732892
 31
0.0
 11
1.8267854594
 21
11.0143954473
 31
0.0
 11
1.826381111
 21
11.0136216943
 31
0.0
 11
1.825908299
 21
11.0127525848
 31
0.0
 11
1.8253691312
 21
11.0117894751
 31
0.0
 11
1.8247662925
 21
11.0107344559
 31
0.0
 11
1.823380428
 21
11.0083571592
 31
0.0
 11
1.8217723867
 21
11.0056376248
 31
0.0
 11
1.819965206
 21
11.0025922695
 31
0.0
 11
1.8179837944
 21
10.9992368027
 31
0.0
  0
LINE
  5
304
100
AcDbEntity
  8
0
100
AcDbLine
 62
6
  6
CONTINUOUS
 10
1.8179837944
 20
10.9992368027
 11
1.8173123225
 21
10.9980920637
  0
SPLINE
  5
305
100
AcDbEntity
  8
0
100
AcDbSpline
 62
6
  6
CONTINUOUS
 70
0
 71
3
 72
15
 73
11
 74
9
 42
0.0000001
 43
0.0000001
 44
0.0000000001
 12
-0.0703207353
 22
-0.8754816881
 32
0.0
 13
-0.3272140393
 23
-0.8150731038
 33
0.0
 40
0.0
 40
0.0
 40
0.0
 40
0.0
 40
0.1300482194
 40
0.2583111987
 40
0.3849528624
 40
0.510143504
 40
0.6340593997
 40
0.7568823142
 40
0.8787989007
 40
1.0
 40
1.0
 40
1.0
 40
1.0
 10
32.2920987659
 20
12.5096762742
 30
0.0
 10
32.2890504037
 20
12.4717246626
 30
0.0
 10
32.2817122409
 20
12.3964384576
 30
0.0
 10
32.2668260842
 20
12.2847012169
 30
0.0
 10
32.2481404747
 20
12.1749762494
 30
0.0
 10
32.2256550379
 20
12.0672657209
 30
0.0
 10
32.1993693569
 20
11.9615699292
 30
0.0
 10
32.1692828478
 20
11.8578890964
 30
0.0
 10
32.1353961007
 20
11.7562260651
 30
0.0
 10
32.1102085292
 20
11.6896307112
 30
0.0
 10
32.0969889621
 20
11.6567014591
 30
0.0
 11
32.2920987659
 21
12.5096762742
 31
0.0
 11
32.2809896461
 21
12.3959962696
 31
0.0
 11
32.2660863532
 21
12.28433288
 31
0.0
 11
32.2473888873
 21
12.1746861056
 31
0.0
 11
32.2248972484
 21
12.0670559461
 31
0.0
 11
32.1986114364
 21
11.9614424018
 31
0.0
 11
32.1685314513
 21
11.8578454725
 31
0.0
 11
32.1346572932
 21
11.7562651583
 31
0.0
 11
32.0969889621
 21
11.6567014591
 31
0.0
  0
SPLINE
  5
306
100
AcDbEntity
  8
0
100
AcDbSpline
 62
6
  6
CONTINUOUS
 70
0
 71
3
 72
22
 73
18
 74
16
 42
0.0000001
 43
0.0000001
 44
0.0000000001
 12
0.0050526534
 22
-0.0218205919
 32
0.0
 13
0.0112802692
 23
-0.0193500145
 33
0.0
 40
0.0
 40
0.0
 40
0.0
 40
0.0
 40
0.0090734497
 40
0.0196371702
 40
0.0317103724
 40
0.0453027452
 40
0.0770557033
 40
0.1148939047
 40
0.1587841806
 40
0.2086648489
 40
0.2643923041
 40
0.3257947586
 40
0.3926975345
 40
0.4649242186
 40
0.6246361708
 40
0.8034813035
 40
1.0
 40
1.0
 40
1.0
 40
1.0
 10
31.309882609
 20
11.0165262103
 30
0.0
 10
31.3098978907
 20
11.0164602143
 30
0.0
 10
31.309936999
 20
11.0163187761
 30
0.0
 10
31.31001264
 20
11.0160943609
 30
0.0
 10
31.3101095534
 20
11.0158417639
 30
0.0
 10
31.3102757755
 20
11.0154465598
 30
0.0
 10
31.3105384145
 20
11.0148835634
 30
0.0
 10
31.3109203479
 20
11.0141272055
 30
0.0
 10
31.311382279
 20
11.0132598966
 30
0.0
 10
31.3119221226
 20
11.012282949
 30
0.0
 10
31.3125370881
 20
11.0111982301
 30
0.0
 10
31.3132239643
 20
11.0100082475
 30
0.0
 10
31.3139794307
 20
11.0087156555
 30
0.0
 10
31.3151122977
 20
11.0067935138
 30
0.0
 10
31.3166786654
 20
11.0041567722
 30
0.0
 10
31.31871693
 20
11.0007210163
 30
0.0
 10
31.3201365928
 20
10.99830473
 30
0.0
 10
31.3208755207
 20
10.9970371834
 30
0.0
 11
31.309882609
 21
11.0165262103
 31
0.0
 11
31.3099356822
 21
11.0163300362
 31
0.0
 11
31.3100104671
 21
11.0161055604
 31
0.0
 11
31.3101067386
 21
11.015852863
 31
0.0
 11
31.3102242712
 21
11.0155720242
 31
0.0
 11
31.3105222186
 21
11.0149262426
 31
0.0
 11
31.3109025063
 21
11.0141688567
 31
0.0
 11
31.3113633317
 21
11.0133005074
 31
0.0
 11
31.3119026862
 21
11.0123220974
 31
0.0
 11
31.3125175217
 21
11.0112358513
 31
0.0
 11
31.3132044622
 21
11.0100444108
 31
0.0
 11
31.3139601316
 21
11.0087504176
 31
0.0
 11
31.3147811536
 21
11.0073565134
 31
0.0
 11
31.3166054206
 21
11.0042794143
 31
0.0
 11
31.3186472881
 21
11.0008331257
 31
0.0
 11
31.3208755207
 21
10.9970371834
 31
0.0
  0
LINE
  5
307
100
AcDbEntity
  8
0
100
AcDbLine
 62
7
  6
CONTINUOUS
 10
31.3230070595
 20
10.9017980294
 11
31.3247870252
 21
10.9233458077
  0
SPLINE
  5
308
100
AcDbEntity
  8
0
100
AcDbSpline
 62
6
  6
CONTINUOUS
 70
0
 71
3
 72
11
 73
7
 74
5
 42
0.0000001
 43
0.0000001
 44
0.0000000001
 12
0.0
 22
0.0251312922
 32
0.0
 13
-0.0045857082
 23
0.0247093733
 33
0.0
 40
0.0
 40
0.0
 40
0.0
 40
0.0
 40
0.2550825191
 40
0.5081428838
 40
0.7571143221
 40
1.0
 40
1.0
 40
1.0
 40
1.0
 10
2.0269305454
 20
12.7770595521
 30
0.0
 10
2.0269305454
 20
12.7791964032
 30
0.0
 10
2.0268373352
 20
12.7834537521
 30
0.0
 10
2.0264193107
 20
12.789784422
 30
0.0
 10
2.02572679
 20
12.7959882337
 30
0.0
 10
2.0250775481
 20
12.8000590344
 30
0.0
 10
2.0247062804
 20
12.8020595521
 30
0.0
 11
2.0269305454
 21
12.7770595521
 31
0.0
 11
2.0267897532
 21
12.7834685591
 31
0.0
 11
2.0263688948
 21
12.7898143526
 31
0.0
 11
2.0256719419
 21
12.7960323892
 31
0.0
 11
2.0247062804
 21
12.8020595521
 31
0.0
  0
SPLINE
  5
309
100
AcDbEntity
  8
0
100
AcDbSpline
 62
6
  6
CONTINUOUS
 70
0
 71
3
 72
9
 73
5
 74
3
 42
0.0000001
 43
0.0000001
 44
0.0000000001
 12
0.0242531915
 22
0.0489661068
 32
0.0
 13
0.021906741
 23
0.0500598803
 33
0.0
 40
0.0
 40
0.0
 40
0.0
 40
0.0
 40
0.4997517306
 40
1.0
 40
1.0
 40
1.0
 40
1.0
 10
1.7169085039
 20
11.2720595521
 30
0.0
 10
1.7209486953
 20
11.2802165176
 30
0.0
 10
1.7287615027
 20
11.2966733574
 30
0.0
 10
1.7362067555
 20
11.3132977655
 30
0.0
 10
1.7398596919
 20
11.3216452217
 30
0.0
 11
1.7169085039
 21
11.2720595521
 31
0.0
 11
1.7286658259
 21
11.2967070364
 31
0.0
 11
1.7398596919
 21
11.3216452217
 31
0.0
  0
SPLINE
  5
30A
100
AcDbEntity
  8
0
100
AcDbSpline
 62
6
  6
CONTINUOUS
 70
0
 71
3
 72
11
 73
7
 74
5
 42
0.0000001
 43
0.0000001
 44
0.0000000001
 12
0.0
 22
0.0250653969
 32
0.0
 13
-0.0032514322
 23
0.0248536176
 33
0.0
 40
0.0
 40
0.0
 40
0.0
 40
0.0
 40
0.2557220815
 40
0.5091680786
 40
0.7580137499
 40
1.0
 40
1.0
 40
1.0
 40
1.0
 10
1.8766925855
 20
12.7770595521
 30
0.0
 10
1.8766925855
 20
12.7791961439
 30
0.0
 10
1.8766269532
 20
12.7834506021
 30
0.0
 10
1.8763325789
 20
12.7897780778
 30
0.0
 10
1.8758449263
 20
12.79597852
 30
0.0
 10
1.8753869219
 20
12.8000548075
 30
0.0
 10
1.8751246546
 20
12.8020595521
 30
0.0
 11
1.8766925855
 21
12.7770595521
 31
0.0
 11
1.8765933382
 21
12.7834685591
 31
0.0
 11
1.8762966663
 21
12.7898143526
 31
0.0
 11
1.8758053696
 21
12.7960323892
 31
0.0
 11
1.8751246546
 21
12.8020595521
 31
0.0
  0
LINE
  5
30B
100
AcDbEntity
  8
0
100
AcDbLine
 62
6
  6
CONTINUOUS
 10
1.7398596919
 20
11.3216452217
 11
1.7223208749
 21
11.2720595521
  0
SPLINE
  5
30C
100
AcDbEntity
  8
0
100
AcDbSpline
 62
6
  6
CONTINUOUS
 70
0
 71
3
 72
11
 73
7
 74
5
 42
0.0000001
 43
0.0000001
 44
0.0000000001
 12
0.0
 22
0.0250206842
 32
0.0
 13
-0.0018344326
 23
0.0249533464
 33
0.0
 40
0.0
 40
0.0
 40
0.0
 40
0.0
 40
0.2561580514
 40
0.5098674566
 40
0.7586281401
 40
1.0
 40
1.0
 40
1.0
 40
1.0
 10
1.7194689134
 20
12.7770595521
 30
0.0
 10
1.7194689134
 20
12.7791959686
 30
0.0
 10
1.71943206
 20
12.7834484716
 30
0.0
 10
1.7192667548
 20
12.7897737646
 30
0.0
 10
1.7189929254
 20
12.7959718626
 30
0.0
 10
1.718735428
 20
12.8000518735
 30
0.0
 10
1.7185878345
 20
12.8020595521
 30
0.0
 11
1.7194689134
 21
12.7770595521
 31
0.0
 11
1.7194131426
 21
12.7834685591
 31
0.0
 11
1.7192464316
 21
12.7898143526
 31
0.0
 11
1.7189703537
 21
12.7960323892
 31
0.0
 11
1.7185878345
 21
12.8020595521
 31
0.0
  0
SPLINE
  5
30D
100
AcDbEntity
  8
0
100
AcDbSpline
 62
6
  6
CONTINUOUS
 70
0
 71
3
 72
9
 73
5
 74
3
 42
0.0000001
 43
0.0000001
 44
0.0000000001
 12
0.0320071735
 22
0.0488446281
 32
0.0
 13
0.0298501588
 23
0.0501918805
 33
0.0
 40
0.0
 40
0.0
 40
0.0
 40
0.0
 40
0.5003992978
 40
1.0
 40
1.0
 40
1.0
 40
1.0
 10
1.8010053606
 20
11.2720595521
 30
0.0
 10
1.8063441497
 20
11.2802068246
 30
0.0
 10
1.8167809726
 20
11.2966409487
 30
0.0
 10
1.8268746555
 20
11.3132865887
 30
0.0
 10
1.831845709
 20
11.3216452217
 30
0.0
 11
1.8010053606
 21
11.2720595521
 31
0.0
 11
1.8167033854
 21
11.2967070364
 31
0.0
 11
1.831845709
 21
11.3216452217
 31
0.0
  0
SPLINE
  5
30E
100
AcDbEntity
  8
0
100
AcDbSpline
 62
6
  6
CONTINUOUS
 70
0
 71
3
 72
11
 73
7
 74
5
 42
0.0000001
 43
0.0000001
 44
0.0000000001
 12
0.0
 22
0.0250401182
 32
0.0
 13
0.0025512227
 23
0.024909813
 33
0.0
 40
0.0
 40
0.0
 40
0.0
 40
0.0
 40
0.2559683611
 40
0.5095631042
 40
0.7583606915
 40
1.0
 40
1.0
 40
1.0
 40
1.0
 10
1.2368064027
 20
12.7770595521
 30
0.0
 10
1.2368064027
 20
12.7791960447
 30
0.0
 10
1.2368577626
 20
12.7834493969
 30
0.0
 10
1.2370881309
 20
12.7897756401
 30
0.0
 10
1.2374697445
 20
12.7959747628
 30
0.0
 10
1.2378284058
 20
12.8000531554
 30
0.0
 10
1.2380338977
 20
12.8020595521
 30
0.0
 11
1.2368064027
 21
12.7770595521
 31
0.0
 11
1.236884101
 21
12.7834685591
 31
0.0
 11
1.2371163582
 21
12.7898143526
 31
0.0
 11
1.2375009825
 21
12.7960323892
 31
0.0
 11
1.2380338977
 21
12.8020595521
 31
0.0
  0
SPLINE
  5
30F
100
AcDbEntity
  8
0
100
AcDbSpline
 62
6
  6
CONTINUOUS
 70
0
 71
3
 72
59
 73
55
 74
53
 42
0.0000001
 43
0.0000001
 44
0.0000000001
 12
-0.2246376127
 22
0.1912471395
 32
0.0
 13
-0.1856752526
 23
-0.2292645328
 33
0.0
 40
0.0
 40
0.0
 40
0.0
 40
0.0
 40
0.0277952196
 40
0.0566165899
 40
0.086354735
 40
0.1015336631
 40
0.1169028259
 40
0.14817878
 40
0.1640703211
 40
0.1801209244
 40
0.1963234354
 40
0.2126704485
 40
0.2457660465
 40
0.2793528086
 40
0.2963170048
 40
0.3133837006
 40
0.3305436179
 40
0.3477903264
 40
0.3651206182
 40
0.3825306883
 40
0.4000024044
 40
0.4175204366
 40
0.4350797975
 40
0.4526842217
 40
0.4703075539
 40
0.4879065594
 40
0.4966887298
 40
0.5054559505
 40
0.5142077729
 40
0.5229442611
 40
0.5316642924
 40
0.5403658759
 40
0.5576998407
 40
0.5663272026
 40
0.5749215425
 40
0.5834778829
 40
0.59199308
 40
0.6089090703
 40
0.6256880861
 40
0.6423316924
 40
0.6588272537
 40
0.6751634412
 40
0.6913458916
 40
0.7073771611
 40
0.7232545609
 40
0.7545265628
 40
0.7851348331
 40
0.8150340732
 40
0.8441825028
 40
0.9000142063
 40
0.9265801299
 40
0.9521536376
 40
0.9766585992
 40
1.0
 40
1.0
 40
1.0
 40
1.0
 10
31.6197858019
 20
12.5456286706
 30
0.0
 10
31.617704518
 20
12.5474005894
 30
0.0
 10
31.6134488169
 20
12.5509907526
 30
0.0
 10
31.6069076258
 20
12.5564066173
 30
0.0
 10
31.6012776115
 20
12.5609770254
 30
0.0
 10
31.5966466291
 20
12.5646786836
 30
0.0
 10
31.5918774144
 20
12.568449469
 30
0.0
 10
31.5870189481
 20
12.5722202679
 30
0.0
 10
31.5820674596
 20
12.5759796738
 30
0.0
 10
31.5782746431
 20
12.5788135982
 30
0.0
 10
31.5744225415
 20
12.5816427602
 30
0.0
 10
31.5691854675
 20
12.5854174558
 30
0.0
 10
31.56248673
 20
12.5900874476
 30
0.0
 10
31.5556157229
 20
12.5946123648
 30
0.0
 10
31.5499767854
 20
12.5981369402
 30
0.0
 10
31.5456597439
 20
12.6007270862
 30
0.0
 10
31.5412654754
 20
12.6032405403
 30
0.0
 10
31.5367907664
 20
12.6056629917
 30
0.0
 10
31.5322326874
 20
12.6079797055
 30
0.0
 10
31.5275904862
 20
12.6101755699
 30
0.0
 10
31.522860718
 20
12.6122235414
 30
0.0
 10
31.5180421057
 20
12.6140946019
 30
0.0
 10
31.5131342646
 20
12.6157595587
 30
0.0
 10
31.5081410678
 20
12.6171875239
 30
0.0
 10
31.5030749351
 20
12.6183490443
 30
0.0
 10
31.4988049552
 20
12.6190698599
 30
0.0
 10
31.4953725087
 20
12.619481451
 30
0.0
 10
31.4927950674
 20
12.6197035673
 30
0.0
 10
31.4902158744
 20
12.6198348204
 30
0.0
 10
31.4876382856
 20
12.6198732141
 30
0.0
 10
31.4850658619
 20
12.6198218556
 30
0.0
 10
31.4816524861
 20
12.6196369646
 30
0.0
 10
31.4782592779
 20
12.6192822293
 30
0.0
 10
31.4749001077
 20
12.6187657941
 30
0.0
 10
31.4724075572
 20
12.6183012482
 30
0.0
 10
31.4699415845
 20
12.6177612299
 30
0.0
 10
31.4666998374
 20
12.616945555
 30
0.0
 10
31.4627207252
 20
12.6157550024
 30
0.0
 10
31.4580590549
 20
12.6140832258
 30
0.0
 10
31.4535216033
 20
12.6122054257
 30
0.0
 10
31.449107621
 20
12.6101556851
 30
0.0
 10
31.4448141418
 20
12.6079626994
 30
0.0
 10
31.4406393852
 20
12.6056443412
 30
0.0
 10
31.4365786059
 20
12.6032188112
 30
0.0
 10
31.431336305
 20
12.599882611
 30
0.0
 10
31.4250415312
 20
12.5955356112
 30
0.0
 10
31.417843962
 20
12.5900860301
 30
0.0
 10
31.4110127108
 20
12.5845091176
 30
0.0
 10
31.4024959022
 20
12.5770846281
 30
0.0
 10
31.3945263462
 20
12.5695382263
 30
0.0
 10
31.3870982369
 20
12.5619500934
 30
0.0
 10
31.3819620802
 20
12.5564325632
 30
0.0
 10
31.3771791313
 20
12.5510228593
 30
0.0
 10
31.3741605769
 20
12.5474124558
 30
0.0
 10
31.3727159368
 20
12.5456286706
 30
0.0
 11
31.6197858019
 21
12.5456286706
 31
0.0
 11
31.6135180231
 21
12.5509161935
 31
0.0
 11
31.6069685128
 21
12.5563386926
 31
0.0
 11
31.6001568348
 21
12.5618680065
 31
0.0
 11
31.5966587898
 21
12.5646639169
 31
0.0
 11
31.5931017162
 21
12.5674757601
 31
0.0
 11
31.5858105861
 21
12.5731306917
 31
0.0
 11
31.5820763152
 21
12.5759654352
 31
0.0
 11
31.578282764
 21
12.5787994675
 31
0.0
 11
31.5744298217
 21
12.5816286097
 31
0.0
 11
31.5705167784
 21
12.5844475954
 31
0.0
 11
31.5625023057
 21
12.5900245166
 31
0.0
 11
31.5542223705
 21
12.5954675988
 31
0.0
 11
31.5499774019
 21
12.5981186825
 31
0.0
 11
31.5456587765
 21
12.6007073266
 31
0.0
 11
31.5412633008
 21
12.6032191194
 31
0.0
 11
31.5367877801
 21
12.6056396431
 31
0.0
 11
31.5322290198
 21
12.6079544799
 31
0.0
 11
31.5275842137
 21
12.6101471423
 31
0.0
 11
31.5228523858
 21
12.6121913914
 31
0.0
 11
31.5180330983
 21
12.6140581187
 31
0.0
 11
31.5131259138
 21
12.6157182152
 31
0.0
 11
31.5081313345
 21
12.6171424615
 31
0.0
 11
31.5030626012
 21
12.6183001394
 31
0.0
 11
31.4979421248
 21
12.6191594518
 31
0.0
 11
31.4953695492
 21
12.619467277
 31
0.0
 11
31.4927925176
 21
12.619688578
 31
0.0
 11
31.4902138615
 21
12.6198194185
 31
0.0
 11
31.4876367045
 21
12.6198582483
 31
0.0
 11
31.4850646173
 21
12.61980717
 31
0.0
 11
31.4825012083
 21
12.6196685953
 31
0.0
 11
31.4774148586
 21
12.619138602
 31
0.0
 11
31.4748991347
 21
12.6187520064
 31
0.0
 11
31.4724065228
 21
12.6182875601
 31
0.0
 11
31.4699406305
 21
12.617747675
 31
0.0
 11
31.4675042783
 21
12.6171351754
 31
0.0
 11
31.4627219331
 21
12.6157086321
 31
0.0
 11
31.4580609065
 21
12.6140416069
 31
0.0
 11
31.4535222061
 21
12.6121679924
 31
0.0
 11
31.4491068215
 21
12.6101216304
 31
0.0
 11
31.4448138686
 21
12.6079311169
 31
0.0
 11
31.4406389831
 21
12.6056153027
 31
0.0
 11
31.4365774217
 21
12.6031919781
 31
0.0
 11
31.4326244413
 21
12.6006789332
 31
0.0
 11
31.4250278042
 21
12.5954436283
 31
0.0
 11
31.4178228603
 21
12.5900001643
 31
0.0
 11
31.4109866474
 21
12.5844256996
 31
0.0
 11
31.4045010203
 21
12.5787788938
 31
0.0
 11
31.3925356335
 21
12.5674589523
 31
0.0
 11
31.3870541142
 21
12.5618572087
 31
0.0
 11
31.3819148648
 21
12.5563335295
 31
0.0
 11
31.3771291431
 21
12.5509148299
 31
0.0
 11
31.3727159368
 21
12.5456286706
 31
0.0
  0
SPLINE
  5
310
100
AcDbEntity
  8
0
100
AcDbSpline
 62
6
  6
CONTINUOUS
 70
0
 71
3
 72
61
 73
57
 74
55
 42
0.0000001
 43
0.0000001
 44
0.0000000001
 12
-0.2337668919
 22
0.1601947776
 32
0.0
 13
-0.1029593459
 23
-0.2640240511
 33
0.0
 40
0.0
 40
0.0
 40
0.0
 40
0.0
 40
0.032945031
 40
0.0666509832
 40
0.1010048873
 40
0.1183895208
 40
0.1358956891
 40
0.1712383184
 40
0.1890583918
 40
0.2069668466
 40
0.2249557445
 40
0.2430166099
 40
0.2793150082
 40
0.2975343343
 40
0.3157891297
 40
0.3340712612
 40
0.3523674413
 40
0.370663207
 40
0.3889465426
 40
0.4072083239
 40
0.4254385642
 40
0.4616879362
 40
0.4796682421
 40
0.4975371286
 40
0.5152599511
 40
0.5327846748
 40
0.5414623407
 40
0.5500792874
 40
0.558634745
 40
0.5671295724
 40
0.5755649527
 40
0.5839413905
 40
0.6005134225
 40
0.608709601
 40
0.616842665
 40
0.6249102975
 40
0.632911643
 40
0.648733009
 40
0.6643433624
 40
0.6797593881
 40
0.6949807195
 40
0.7100042973
 40
0.7248414445
 40
0.7394992162
 40
0.7539780871
 40
0.7823848491
 40
0.8100510231
 40
0.8235959193
 40
0.8369422117
 40
0.863020597
 40
0.8882458051
 40
0.9125731884
 40
0.93595648
 40
0.9583514214
 40
0.9797150797
 40
1.0
 40
1.0
 40
1.0
 40
1.0
 10
31.3727159368
 20
12.5456286706
 30
0.0
 10
31.3701487843
 20
12.5473878779
 30
0.0
 10
31.3649606201
 20
12.5509548532
 30
0.0
 10
31.3571070346
 20
12.5563729862
 30
0.0
 10
31.3504647311
 20
12.5609584394
 30
0.0
 10
31.3450793077
 20
12.5646709492
 30
0.0
 10
31.3396138957
 20
12.5684319764
 30
0.0
 10
31.3341057847
 20
12.57220353
 30
0.0
 10
31.3285501172
 20
12.5759727567
 30
0.0
 10
31.324340978
 20
12.5788068129
 30
0.0
 10
31.3201011941
 20
12.5816360223
 30
0.0
 10
31.3143978865
 20
12.5854015273
 30
0.0
 10
31.308640145
 20
12.5891241125
 30
0.0
 10
31.3028163125
 20
12.5927765858
 30
0.0
 10
31.2984052343
 20
12.5954780041
 30
0.0
 10
31.2939558761
 20
12.5981301742
 30
0.0
 10
31.2894655817
 20
12.6007203139
 30
0.0
 10
31.2849317118
 20
12.6032338114
 30
0.0
 10
31.2803521529
 20
12.6056562505
 30
0.0
 10
31.2757248109
 20
12.6079728321
 30
0.0
 10
31.2695050549
 20
12.6108942316
 30
0.0
 10
31.2631792652
 20
12.6135267492
 30
0.0
 10
31.2567406861
 20
12.6157530677
 30
0.0
 10
31.2518836959
 20
12.617181616
 30
0.0
 10
31.2470001019
 20
12.6183438099
 30
0.0
 10
31.2429113851
 20
12.6190674798
 30
0.0
 10
31.2396477349
 20
12.6194805135
 30
0.0
 10
31.237215484
 20
12.6197030358
 30
0.0
 10
31.2347938927
 20
12.6198349552
 30
0.0
 10
31.2323861804
 20
12.6198738093
 30
0.0
 10
31.2299955979
 20
12.6198226879
 30
0.0
 10
31.2268469112
 20
12.6196383378
 30
0.0
 10
31.2237327493
 20
12.6192841511
 30
0.0
 10
31.2206677137
 20
12.618766479
 30
0.0
 10
31.2184099086
 20
12.6183018573
 30
0.0
 10
31.2161878928
 20
12.6177618761
 30
0.0
 10
31.213287036
 20
12.6169475911
 30
0.0
 10
31.2097537033
 20
12.615758996
 30
0.0
 10
31.2056534993
 20
12.6140872034
 30
0.0
 10
31.2017066504
 20
12.6122092768
 30
0.0
 10
31.1979098194
 20
12.6101592563
 30
0.0
 10
31.1942578083
 20
12.6079660447
 30
0.0
 10
31.1907478522
 20
12.6056475968
 30
0.0
 10
31.1873743928
 20
12.603222076
 30
0.0
 10
31.1830783225
 20
12.5998902611
 30
0.0
 10
31.1780155477
 20
12.595548839
 30
0.0
 10
31.1732841442
 20
12.5909762852
 30
0.0
 10
31.1697232205
 20
12.5872500542
 30
0.0
 10
31.1663588962
 20
12.583545636
 30
0.0
 10
31.1624192277
 20
12.5788760896
 30
0.0
 10
31.158063149
 20
12.5732104472
 30
0.0
 10
31.154114213
 20
12.5675617893
 30
0.0
 10
31.1505707159
 20
12.5619643389
 30
0.0
 10
31.1474408042
 20
12.5564448786
 30
0.0
 10
31.1447333991
 20
12.5510316442
 30
0.0
 10
31.1431796486
 20
12.5474139063
 30
0.0
 10
31.1424834746
 20
12.5456286706
 30
0.0
 11
31.3727159368
 21
12.5456286706
 31
0.0
 11
31.3650212556
 21
12.5509161674
 31
0.0
 11
31.3571576875
 21
12.5563386224
 31
0.0
 11
31.3491447588
 21
12.5618679348
 31
0.0
 11
31.3450883786
 21
12.5646638791
 31
0.0
 11
31.3410011668
 21
12.5674757774
 31
0.0
 11
31.3327346762
 21
12.5731308308
 31
0.0
 11
31.3285553679
 21
12.5759656168
 31
0.0
 11
31.3243453313
 21
12.5787996629
 31
0.0
 11
31.3201045501
 21
12.5816287809
 31
0.0
 11
31.3158325783
 21
12.5844477782
 31
0.0
 11
31.3071890722
 21
12.5900248079
 31
0.0
 11
31.3028143227
 21
12.5927670249
 31
0.0
 11
31.298402099
 21
12.5954678332
 31
0.0
 11
31.293950753
 21
12.5981188355
 31
0.0
 11
31.2894582998
 21
12.6007075471
 31
0.0
 11
31.2849225867
 21
12.6032194492
 31
0.0
 11
31.2803414598
 21
12.6056400086
 31
0.0
 11
31.2757127653
 21
12.6079546917
 31
0.0
 11
31.2710348285
 21
12.6101471884
 31
0.0
 11
31.2615358582
 21
12.614058375
 31
0.0
 11
31.2567184682
 21
12.6157185161
 31
0.0
 11
31.251858984
 21
12.6171425768
 31
0.0
 11
31.2469717092
 21
12.6182999785
 31
0.0
 11
31.2420802813
 21
12.6191591686
 31
0.0
 11
31.2396404774
 21
12.6194670656
 31
0.0
 11
31.2372085961
 21
12.6196885673
 31
0.0
 11
31.2347876249
 21
12.6198197476
 31
0.0
 11
31.2323806008
 21
12.6198587916
 31
0.0
 11
31.2299906519
 21
12.6198077465
 31
0.0
 11
31.2276209156
 21
12.619669072
 31
0.0
 11
31.2229546315
 21
12.6191386731
 31
0.0
 11
31.2206643588
 21
12.618751868
 31
0.0
 11
31.2184068492
 21
12.6182872719
 31
0.0
 11
31.2161852401
 21
12.6177473445
 31
0.0
 11
31.2140020277
 21
12.6171348826
 31
0.0
 11
31.2097513716
 21
12.6157084879
 31
0.0
 11
31.2056536164
 21
12.6140416254
 31
0.0
 11
31.2017070132
 21
12.6121680876
 31
0.0
 11
31.1979098044
 21
12.6101216303
 31
0.0
 11
31.1942590738
 21
12.6079310564
 31
0.0
 11
31.1907495881
 21
12.6056152669
 31
0.0
 11
31.1873758388
 21
12.6031919848
 31
0.0
 11
31.1841323172
 21
12.6006789328
 31
0.0
 11
31.1780170481
 21
12.5954436083
 31
0.0
 11
31.1723744471
 21
12.5900001542
 31
0.0
 11
31.1697222317
 21
12.5872253315
 31
0.0
 11
31.1671792033
 21
12.584425691
 31
0.0
 11
31.1624115384
 21
12.5787788943
 31
0.0
 11
31.1580557897
 21
12.5731106344
 31
0.0
 11
31.1541077215
 21
12.5674589488
 31
0.0
 11
31.1505676848
 21
12.5618572045
 31
0.0
 11
31.1474424938
 21
12.556333529
 31
0.0
 11
31.1447422406
 21
12.5509148315
 31
0.0
 11
31.1424834746
 21
12.5456286706
 31
0.0
  0
SPLINE
  5
311
100
AcDbEntity
  8
0
100
AcDbSpline
 62
6
  6
CONTINUOUS
 70
0
 71
3
 72
11
 73
7
 74
5
 42
0.0000001
 43
0.0000001
 44
0.0000000001
 12
0.1389478324
 22
-0.3461107235
 32
0.0
 13
0.1868839201
 23
-0.32275925
 33
0.0
 40
0.0
 40
0.0
 40
0.0
 40
0.0
 40
0.2506351689
 40
0.5006334314
 40
0.7503146736
 40
1.0
 40
1.0
 40
1.0
 40
1.0
 10
1.0405837022
 20
11.6566988177
 30
0.0
 10
1.0521921066
 20
11.6277829779
 30
0.0
 10
1.0764046458
 20
11.5704301981
 30
0.0
 10
1.1157373622
 20
11.4858280844
 30
0.0
 10
1.1580236542
 20
11.4027953252
 30
0.0
 10
1.1881718374
 20
11.3485079712
 30
0.0
 10
1.2037258949
 20
11.3216452217
 30
0.0
 11
1.0405837022
 21
11.6566988177
 31
0.0
 11
1.0769446121
 21
11.5705837094
 31
0.0
 11
1.1162552809
 21
11.4860364073
 31
0.0
 11
1.1585157085
 21
11.4030569114
 31
0.0
 11
1.2037258949
 21
11.3216452217
 31
0.0
  0
SPLINE
  5
312
100
AcDbEntity
  8
0
100
AcDbSpline
 62
6
  6
CONTINUOUS
 70
0
 71
3
 72
62
 73
58
 74
56
 42
0.0000001
 43
0.0000001
 44
0.0000000001
 12
-0.2249121045
 22
0.1367668099
 32
0.0
 13
0.0148553465
 23
-0.2628115936
 33
0.0
 40
0.0
 40
0.0
 40
0.0
 40
0.0
 40
0.0383429967
 40
0.0771004018
 40
0.1161594912
 40
0.1357666267
 40
0.1554081838
 40
0.1947582861
 40
0.2144491361
 40
0.2341386612
 40
0.2538179615
 40
0.2734768677
 40
0.3126820303
 40
0.3516527017
 40
0.3710193081
 40
0.3902825215
 40
0.4094205609
 40
0.4284137424
 40
0.4472449708
 40
0.4658944998
 40
0.4843203541
 40
0.5024807806
 40
0.520344669
 40
0.5291598815
 40
0.5378926252
 40
0.5550764081
 40
0.5718415099
 40
0.5800570891
 40
0.5881579971
 40
0.5961449112
 40
0.6040215719
 40
0.6117935488
 40
0.6194659591
 40
0.6270433494
 40
0.6345297281
 40
0.6419286017
 40
0.6492430168
 40
0.6564756092
 40
0.6636305961
 40
0.6777399826
 40
0.6916341459
 40
0.7053485157
 40
0.7188954373
 40
0.7322806523
 40
0.7455217082
 40
0.7586290956
 40
0.7716043025
 40
0.7971430155
 40
0.8221381537
 40
0.8465568235
 40
0.8703755846
 40
0.8935650145
 40
0.9161107967
 40
0.9380072861
 40
0.9592670207
 40
0.9799172972
 40
1.0
 40
1.0
 40
1.0
 40
1.0
 10
31.1424834746
 20
12.5456286706
 30
0.0
 10
31.1396088732
 20
12.5473766871
 30
0.0
 10
31.1338473674
 20
12.5509225382
 30
0.0
 10
31.1252153385
 20
12.5563421682
 30
0.0
 10
31.1180094907
 20
12.5609411403
 30
0.0
 10
31.1122342345
 20
12.5646636849
 30
0.0
 10
31.1064472056
 20
12.5684150555
 30
0.0
 10
31.1006646186
 20
12.5721867348
 30
0.0
 10
31.0948816185
 20
12.5759654634
 30
0.0
 10
31.0905431395
 20
12.5787995264
 30
0.0
 10
31.0862048552
 20
12.5816287624
 30
0.0
 10
31.0804263865
 20
12.5853843778
 30
0.0
 10
31.0732077018
 20
12.5900302065
 30
0.0
 10
31.0659572435
 20
12.5945786835
 30
0.0
 10
31.0601427821
 20
12.5981220259
 30
0.0
 10
31.0557854014
 20
12.6007118023
 30
0.0
 10
31.0514210636
 20
12.6032249229
 30
0.0
 10
31.0470487927
 20
12.6056470969
 30
0.0
 10
31.0426679567
 20
12.6079635831
 30
0.0
 10
31.0382806291
 20
12.6101589672
 30
0.0
 10
31.0338870078
 20
12.612206667
 30
0.0
 10
31.0294899116
 20
12.6140778732
 30
0.0
 10
31.0258093652
 20
12.6154721386
 30
0.0
 10
31.0228660599
 20
12.6164687837
 30
0.0
 10
31.0199553131
 20
12.6173723649
 30
0.0
 10
31.0163344479
 20
12.6183371254
 30
0.0
 10
31.0127039394
 20
12.6190650221
 30
0.0
 10
31.0098304141
 20
12.619479808
 30
0.0
 10
31.0077090056
 20
12.6197024621
 30
0.0
 10
31.0056097568
 20
12.6198343087
 30
0.0
 10
31.0035355825
 20
12.6198732596
 30
0.0
 10
31.0014892922
 20
12.6198223776
 30
0.0
 10
30.9994733819
 20
12.6196839101
 30
0.0
 10
30.9974903556
 20
12.6194603219
 30
0.0
 10
30.9955427108
 20
12.619154022
 30
0.0
 10
30.9936329427
 20
12.6187674265
 30
0.0
 10
30.9917635538
 20
12.6183029722
 30
0.0
 10
30.9899368487
 20
12.6177629533
 30
0.0
 10
30.9875718247
 20
12.6169492386
 30
0.0
 10
30.984720883
 20
12.6157606837
 30
0.0
 10
30.9814612879
 20
12.6140876226
 30
0.0
 10
30.9783740808
 20
12.6122087187
 30
0.0
 10
30.9754532769
 20
12.6101581533
 30
0.0
 10
30.9726918206
 20
12.6079642383
 30
0.0
 10
30.9700862872
 20
12.6056452344
 30
0.0
 10
30.9676305271
 20
12.603219377
 30
0.0
 10
30.9645639569
 20
12.5998840627
 30
0.0
 10
30.9610673474
 20
12.5955355299
 30
0.0
 10
30.9573744315
 20
12.5900858967
 30
0.0
 10
30.9541736784
 20
12.5845075124
 30
0.0
 10
30.9514488076
 20
12.5788579875
 30
0.0
 10
30.9491790403
 20
12.573187644
 30
0.0
 10
30.9473629352
 20
12.567532907
 30
0.0
 10
30.945997916
 20
12.5619265392
 30
0.0
 10
30.945091594
 20
12.5563957889
 30
0.0
 10
30.9446513759
 20
12.5509680421
 30
0.0
 10
30.9446789321
 20
12.547387993
 30
0.0
 10
30.9447783773
 20
12.5456286706
 30
0.0
 11
31.1424834746
 21
12.5456286706
 31
0.0
 11
31.1338862569
 21
12.5509161935
 31
0.0
 11
31.1252444711
 21
12.5563386926
 31
0.0
 11
31.1165762929
 21
12.5618680065
 31
0.0
 11
31.1122379806
 21
12.5646639169
 31
0.0
 11
31.107899177
 21
12.5674757601
 31
0.0
 11
31.0992208445
 21
12.5731306917
 31
0.0
 11
31.094881461
 21
12.5759654352
 31
0.0
 11
31.0905420294
 21
12.5787994675
 31
0.0
 11
31.0862026207
 21
12.5816286097
 31
0.0
 11
31.0818630075
 21
12.5844475954
 31
0.0
 11
31.0731796482
 21
12.5900245166
 31
0.0
 11
31.0644845099
 21
12.5954675988
 31
0.0
 11
31.0601301707
 21
12.5981186825
 31
0.0
 11
31.0557700461
 21
12.6007073266
 31
0.0
 11
31.0514031716
 21
12.6032191194
 31
0.0
 11
31.0470285828
 21
12.6056396431
 31
0.0
 11
31.0426453154
 21
12.6079544799
 31
0.0
 11
31.0382530666
 21
12.6101471423
 31
0.0
 11
31.0338546523
 21
12.6121913914
 31
0.0
 11
31.0294538058
 21
12.6140581187
 31
0.0
 11
31.0250542607
 21
12.6157182152
 31
0.0
 11
31.0228561493
 21
12.6164616795
 31
0.0
 11
31.0206605413
 21
12.6171424615
 31
0.0
 11
31.0162878898
 21
12.6183001394
 31
0.0
 11
31.011959264
 21
12.6191594518
 31
0.0
 11
31.0098186882
 21
12.619467277
 31
0.0
 11
31.0076977916
 21
12.619688578
 31
0.0
 11
31.0055994626
 21
12.6198194185
 31
0.0
 11
31.0035264441
 21
12.6198582483
 31
0.0
 11
31.0014812558
 21
12.61980717
 31
0.0
 11
30.9994663985
 21
12.6196685953
 31
0.0
 11
30.9974843731
 21
12.6194449354
 31
0.0
 11
30.9955376804
 21
12.619138602
 31
0.0
 11
30.9936288214
 21
12.6187520064
 31
0.0
 11
30.9917602968
 21
12.6182875601
 31
0.0
 11
30.989934607
 21
12.617747675
 31
0.0
 11
30.9881535689
 21
12.6171351754
 31
0.0
 11
30.9847244307
 21
12.6157086321
 31
0.0
 11
30.9814690619
 21
12.6140416069
 31
0.0
 11
30.9783832848
 21
12.6121679924
 31
0.0
 11
30.9754629162
 21
12.6101216304
 31
0.0
 11
30.9727032001
 21
12.6079311169
 31
0.0
 11
30.9700983161
 21
12.6056153027
 31
0.0
 11
30.9676423284
 21
12.6031919781
 31
0.0
 11
30.9653293011
 21
12.6006789332
 31
0.0
 11
30.9611121084
 21
12.5954436283
 31
0.0
 11
30.9574163687
 21
12.5900001643
 31
0.0
 11
30.9542161567
 21
12.5844256996
 31
0.0
 11
30.9514913699
 21
12.5787788938
 31
0.0
 11
30.9492260003
 21
12.5731106396
 31
0.0
 11
30.9474150055
 21
12.5674589523
 31
0.0
 11
30.9460576968
 21
12.5618572087
 31
0.0
 11
30.9451595401
 21
12.5563335295
 31
0.0
 11
30.9447287696
 21
12.5509148299
 31
0.0
 11
30.9447783773
 21
12.5456286706
 31
0.0
  0
SPLINE
  5
313
100
AcDbEntity
  8
0
100
AcDbSpline
 62
6
  6
CONTINUOUS
 70
0
 71
3
 72
55
 73
51
 74
49
 42
0.0000001
 43
0.0000001
 44
0.0000000001
 12
-0.1843606321
 22
0.1073330294
 32
0.0
 13
0.0145676631
 23
-0.2128309307
 33
0.0
 40
0.0
 40
0.0
 40
0.0
 40
0.0
 40
0.0830460636
 40
0.1245120654
 40
0.1658386813
 40
0.2069506251
 40
0.2477868099
 40
0.2882912137
 40
0.3284062637
 40
0.368063799
 40
0.4071579021
 40
0.4264580048
 40
0.4455747912
 40
0.4644945967
 40
0.4831998585
 40
0.5198615983
 40
0.5377683881
 40
0.5553619405
 40
0.572622755
 40
0.5895206642
 40
0.6059923647
 40
0.6219767405
 40
0.6374244784
 40
0.6449366316
 40
0.6523036013
 40
0.65952445
 40
0.6665999438
 40
0.6803231123
 40
0.6935033909
 40
0.7061770833
 40
0.7183904903
 40
0.7243442571
 40
0.730205947
 40
0.7359850115
 40
0.7416928249
 40
0.752946448
 40
0.7640691064
 40
0.7751314438
 40
0.7861771329
 40
0.7972251876
 40
0.819335638
 40
0.8415798361
 40
0.8639939004
 40
0.8865248849
 40
0.9091501998
 40
0.9318462064
 40
0.9432073923
 40
0.9545666559
 40
0.9772786441
 40
1.0
 40
1.0
 40
1.0
 40
1.0
 10
30.9447783773
 20
12.5456286706
 30
0.0
 10
30.9396749023
 20
12.5485998658
 30
0.0
 10
30.9320869768
 20
12.5531650659
 30
0.0
 10
30.9220941525
 20
12.5594272434
 30
0.0
 10
30.9146802537
 20
12.5641883222
 30
0.0
 10
30.9073525802
 20
12.5689998144
 30
0.0
 10
30.9001139148
 20
12.5738397115
 30
0.0
 10
30.8929645959
 20
12.5786853184
 30
0.0
 10
30.8859053513
 20
12.5835142555
 30
0.0
 10
30.8789395737
 20
12.5883021293
 30
0.0
 10
30.873185246
 20
12.5922394858
 30
0.0
 10
30.8686208041
 20
12.5953291051
 30
0.0
 10
30.8652339942
 20
12.5975991549
 30
0.0
 10
30.8618694546
 20
12.5998263831
 30
0.0
 10
30.85744363
 20
12.6027103022
 30
0.0
 10
30.8530369349
 20
12.6054918235
 30
0.0
 10
30.8486362279
 20
12.6081314286
 30
0.0
 10
30.8453841317
 20
12.610002767
 30
0.0
 10
30.8421558266
 20
12.6117700841
 30
0.0
 10
30.8389553094
 20
12.6134199882
 30
0.0
 10
30.8357869154
 20
12.6149309782
 30
0.0
 10
30.8326580988
 20
12.6162802411
 30
0.0
 10
30.8300663284
 20
12.6172596204
 30
0.0
 10
30.8280186237
 20
12.6179369167
 30
0.0
 10
30.8265120455
 20
12.6183849361
 30
0.0
 10
30.8250214118
 20
12.6187749229
 30
0.0
 10
30.8230763802
 20
12.6192087057
 30
0.0
 10
30.8206894567
 20
12.6196007801
 30
0.0
 10
30.8178811268
 20
12.6198295855
 30
0.0
 10
30.8151706115
 20
12.6198124384
 30
0.0
 10
30.8129847787
 20
12.6195916429
 30
0.0
 10
30.8113022571
 20
12.6192900219
 30
0.0
 10
30.8100834403
 20
12.6190047955
 30
0.0
 10
30.8088986638
 20
12.6186586554
 30
0.0
 10
30.8073735883
 20
12.6181189097
 30
0.0
 10
30.8055479373
 20
12.6172992344
 30
0.0
 10
30.8034879
 20
12.6161040145
 30
0.0
 10
30.8015643108
 20
12.6147258267
 30
0.0
 10
30.799773108
 20
12.6131884236
 30
0.0
 10
30.7975554536
 20
12.6109571047
 30
0.0
 10
30.7950822862
 20
12.6078739488
 30
0.0
 10
30.7925876647
 20
12.6038222811
 30
0.0
 10
30.7905307109
 20
12.5995011267
 30
0.0
 10
30.7888744149
 20
12.5949840707
 30
0.0
 10
30.787605732
 20
12.5903232804
 30
0.0
 10
30.7868599887
 20
12.5863578047
 30
0.0
 10
30.7864421913
 20
12.5831547909
 30
0.0
 10
30.786141332
 20
12.5799374985
 30
0.0
 10
30.7859840889
 20
12.5758984286
 30
0.0
 10
30.7860901254
 20
12.5726662554
 30
0.0
 10
30.7862004577
 20
12.5710543196
 30
0.0
 11
30.9447783773
 21
12.5456286706
 31
0.0
 11
30.9295909757
 21
12.5547502905
 31
0.0
 11
30.9220944914
 21
12.5594463114
 31
0.0
 11
30.9146755661
 21
12.5642091105
 31
0.0
 11
30.9073429485
 21
12.5690207671
 31
0.0
 11
30.9000994361
 21
12.5738604398
 31
0.0
 11
30.8929451785
 21
12.5787059878
 31
0.0
 11
30.8858803139
 21
12.5835352644
 31
0.0
 11
30.8789048572
 21
12.5883223586
 31
0.0
 11
30.8720183411
 21
12.5930265976
 31
0.0
 11
30.8686082528
 21
12.5953338055
 31
0.0
 11
30.8652201802
 21
12.5976036906
 31
0.0
 11
30.8618540504
 21
12.5998307084
 31
0.0
 11
30.8585098774
 21
12.6020077668
 31
0.0
 11
30.851888233
 21
12.606169738
 31
0.0
 11
30.8486112145
 21
12.6081328539
 31
0.0
 11
30.8453570339
 21
12.6100028588
 31
0.0
 11
30.84212592
 21
12.6117688502
 31
0.0
 11
30.8389199473
 21
12.6134170043
 31
0.0
 11
30.8357462909
 21
12.6149254231
 31
0.0
 11
30.832613
 21
12.616270825
 31
0.0
 11
30.8295281234
 21
12.6174299286
 31
0.0
 11
30.8280063559
 21
12.617932343
 31
0.0
 11
30.8264997104
 21
12.6183794523
 31
0.0
 11
30.8250091929
 21
12.6187683462
 31
0.0
 11
30.8235358441
 21
12.6190962999
 31
0.0
 11
30.8206463415
 21
12.6195667416
 31
0.0
 11
30.8178435359
 21
12.6197906418
 31
0.0
 11
30.8151399582
 21
12.6197689326
 31
0.0
 11
30.8125481391
 21
12.6195025459
 31
0.0
 11
30.8112980549
 21
12.6192778899
 31
0.0
 11
30.8100806094
 21
12.618992414
 31
0.0
 11
30.8088973688
 21
12.6186462351
 31
0.0
 11
30.8077494665
 21
12.6182400684
 31
0.0
 11
30.8055586672
 21
12.6172582997
 31
0.0
 11
30.8035049316
 21
12.6160699073
 31
0.0
 11
30.8015847278
 21
12.6146980391
 31
0.0
 11
30.7997945238
 21
12.6131658431
 31
0.0
 11
30.7981307877
 21
12.6114964672
 31
0.0
 11
30.7951684707
 21
12.6078259274
 31
0.0
 11
30.7926687755
 21
12.6037923576
 31
0.0
 11
30.7906024996
 21
12.5994802938
 31
0.0
 11
30.788942093
 21
12.5949696851
 31
0.0
 11
30.7876696419
 21
12.5903138006
 31
0.0
 11
30.7867707148
 21
12.5855562669
 31
0.0
 11
30.7864568144
 21
12.5831530108
 31
0.0
 11
30.7862311045
 21
12.5807402861
 31
0.0
 11
30.7860420482
 21
12.5758988524
 31
0.0
 11
30.7862004577
 21
12.5710543196
 31
0.0
  0
SPLINE
  5
314
100
AcDbEntity
  8
0
100
AcDbSpline
 62
6
  6
CONTINUOUS
 70
0
 71
3
 72
50
 73
46
 74
44
 42
0.0000001
 43
0.0000001
 44
0.0000000001
 12
-0.1305654774
 22
0.0805839875
 32
0.0
 13
0.0092738407
 23
-0.1531506409
 33
0.0
 40
0.0
 40
0.0
 40
0.0
 40
0.0
 40
0.0896023576
 40
0.1777131495
 40
0.2639831713
 40
0.3063303472
 40
0.3480990345
 40
0.3892464316
 40
0.429706121
 40
0.4693919918
 40
0.5082158882
 40
0.5272767402
 40
0.5460851014
 40
0.5828606953
 40
0.6183738281
 40
0.652459622
 40
0.6689108665
 40
0.6849158402
 40
0.7004309642
 40
0.7154152297
 40
0.7298310297
 40
0.7436452457
 40
0.7568282938
 40
0.7693438313
 40
0.7811600294
 40
0.7922585684
 40
0.802639895
 40
0.812330541
 40
0.8213990096
 40
0.8299614091
 40
0.8381475609
 40
0.846092103
 40
0.8539289922
 40
0.8617852735
 40
0.8697754427
 40
0.8779908325
 40
0.8864921722
 40
0.8953129921
 40
0.9044645263
 40
0.9139403727
 40
0.923723362
 40
0.9338063623
 40
0.95484046
 40
0.976951902
 40
1.0
 40
1.0
 40
1.0
 40
1.0
 10
30.787664627
 20
12.5489139222
 30
0.0
 10
30.7837649688
 20
12.5513207606
 30
0.0
 10
30.7761036456
 20
12.5562137922
 30
0.0
 10
30.764936555
 20
12.563804478
 30
0.0
 10
30.7559371773
 20
12.5702774807
 30
0.0
 10
30.7489509223
 20
12.5754862254
 30
0.0
 10
30.7438545826
 20
12.5793683817
 30
0.0
 10
30.738871425
 20
12.5832392877
 30
0.0
 10
30.7340021519
 20
12.5870828004
 30
0.0
 10
30.7292469613
 20
12.5908788538
 30
0.0
 10
30.7253571806
 20
12.5940047099
 30
0.0
 10
30.7223012905
 20
12.5964636797
 30
0.0
 10
30.7193262058
 20
12.5988559651
 30
0.0
 10
30.715688745
 20
12.6017672873
 30
0.0
 10
30.7114139453
 20
12.6051325271
 30
0.0
 10
30.7079187938
 20
12.6078072697
 30
0.0
 10
30.7051841039
 20
12.6098330526
 30
0.0
 10
30.7031929776
 20
12.6112666539
 30
0.0
 10
30.7012394286
 20
12.6126235344
 30
0.0
 10
30.6993256215
 20
12.6138943917
 30
0.0
 10
30.697453722
 20
12.6150699638
 30
0.0
 10
30.6956259678
 20
12.6161409496
 30
0.0
 10
30.6938453045
 20
12.6170976163
 30
0.0
 10
30.6921160385
 20
12.6179304927
 30
0.0
 10
30.6904432364
 20
12.6186296867
 30
0.0
 10
30.6888319958
 20
12.6191851085
 30
0.0
 10
30.6872872248
 20
12.6195866045
 30
0.0
 10
30.6858130117
 20
12.6198235447
 30
0.0
 10
30.6844135989
 20
12.6198851144
 30
0.0
 10
30.6830939221
 20
12.6197765978
 30
0.0
 10
30.68185675
 20
12.6195035422
 30
0.0
 10
30.6807049931
 20
12.6190719677
 30
0.0
 10
30.6796415378
 20
12.6184884601
 30
0.0
 10
30.6786690169
 20
12.6177599164
 30
0.0
 10
30.6777896141
 20
12.6168942731
 30
0.0
 10
30.6770002765
 20
12.6159041246
 30
0.0
 10
30.6762974706
 20
12.6148007287
 30
0.0
 10
30.6756777716
 20
12.6135950298
 30
0.0
 10
30.6751379738
 20
12.6122977296
 30
0.0
 10
30.6746750671
 20
12.6109193338
 30
0.0
 10
30.6742857385
 20
12.6094691646
 30
0.0
 10
30.6738568455
 20
12.6074209079
 30
0.0
 10
30.6735050156
 20
12.6047169486
 30
0.0
 10
30.6733538529
 20
12.6013318213
 30
0.0
 10
30.6734191916
 20
12.599020944
 30
0.0
 10
30.6734904397
 20
12.5978443337
 30
0.0
 11
30.787664627
 21
12.5489139222
 31
0.0
 11
30.7760758615
 21
12.5563100266
 31
0.0
 11
30.7648933429
 21
12.5639069379
 31
0.0
 11
30.7541434971
 21
12.571630021
 31
0.0
 11
30.7489339719
 21
12.5755129002
 31
0.0
 11
30.7438355114
 21
12.5793956943
 31
0.0
 11
30.7388487388
 21
12.5832673567
 31
0.0
 11
30.7339746593
 21
12.5871118136
 31
0.0
 11
30.7292145853
 21
12.5909089465
 31
0.0
 11
30.7245698378
 21
12.5946385224
 31
0.0
 11
30.7222911257
 21
12.5964716453
 31
0.0
 11
30.7200418535
 21
12.598279559
 31
0.0
 11
30.7156335308
 21
12.6018015965
 31
0.0
 11
30.7113487706
 21
12.605167675
 31
0.0
 11
30.7071914949
 21
12.6083407034
 31
0.0
 11
30.7051623497
 21
12.6098419762
 31
0.0
 11
30.7031685717
 21
12.6112755467
 31
0.0
 11
30.7012123811
 21
12.6126320552
 31
0.0
 11
30.6992959976
 21
12.6139021421
 31
0.0
 11
30.6974216414
 21
12.6150764478
 31
0.0
 11
30.6955915322
 21
12.6161456126
 31
0.0
 11
30.6938082565
 21
12.6171001828
 31
0.0
 11
30.6920766026
 21
12.6179301379
 31
0.0
 11
30.6904021788
 21
12.6186252466
 31
0.0
 11
30.6887905943
 21
12.6191752774
 31
0.0
 11
30.6872474587
 21
12.6195699987
 31
0.0
 11
30.6857783808
 21
12.619799181
 31
0.0
 11
30.6843881614
 21
12.6198561378
 31
0.0
 11
30.6830791309
 21
12.6197450109
 31
0.0
 11
30.6818531496
 21
12.6194720033
 31
0.0
 11
30.6807120779
 21
12.619043318
 31
0.0
 11
30.6796577761
 21
12.6184651581
 31
0.0
 11
30.678692104
 21
12.6177437271
 31
0.0
 11
30.6778159656
 21
12.6168862233
 31
0.0
 11
30.6770272881
 21
12.615902943
 31
0.0
 11
30.6763234209
 21
12.614804784
 31
0.0
 11
30.6757017133
 21
12.613602644
 31
0.0
 11
30.6751595147
 21
12.6123074207
 31
0.0
 11
30.6746941746
 21
12.6109300118
 31
0.0
 11
30.6743031236
 21
12.6094808305
 31
0.0
 11
30.6739843482
 21
12.6079669827
 31
0.0
 11
30.6735564989
 21
12.6047681828
 31
0.0
 11
30.6733963797
 21
12.6013793791
 31
0.0
 11
30.6734904397
 21
12.5978443337
 31
0.0
  0
SPLINE
  5
315
100
AcDbEntity
  8
0
100
AcDbSpline
 62
6
  6
CONTINUOUS
 70
0
 71
3
 72
45
 73
41
 74
39
 42
0.0000001
 43
0.0000001
 44
0.0000000001
 12
-0.068106728
 22
0.054418555
 32
0.0
 13
0.0044636255
 23
-0.0870630896
 33
0.0
 40
0.0
 40
0.0
 40
0.0
 40
0.0
 40
0.0955048088
 40
0.1887620041
 40
0.2796085277
 40
0.3240741691
 40
0.3678691558
 40
0.4532639105
 40
0.5353493474
 40
0.5750025914
 40
0.6136422823
 40
0.6874437236
 40
0.7557906902
 40
0.7876028562
 40
0.8175868342
 40
0.8454772363
 40
0.8710117378
 40
0.8828159893
 40
0.8939372438
 40
0.9043455733
 40
0.9140100979
 40
0.9229018923
 40
0.9309957426
 40
0.9382721308
 40
0.9447206374
 40
0.9503460316
 40
0.952859696
 40
0.9551827829
 40
0.9593045501
 40
0.962884295
 40
0.9645525974
 40
0.9661855353
 40
0.9678210464
 40
0.9694954836
 40
0.973079668
 40
0.9771466301
 40
0.9818193504
 40
0.9871663498
 40
0.9932222823
 40
1.0
 40
1.0
 40
1.0
 40
1.0
 10
30.6758288473
 20
12.5615401311
 30
0.0
 10
30.673660674
 20
12.5632725423
 30
0.0
 10
30.6694230692
 20
12.5667568147
 30
0.0
 10
30.6632900598
 20
12.5720878066
 30
0.0
 10
30.6583925219
 20
12.5765757193
 30
0.0
 10
30.6546227693
 20
12.5801644585
 30
0.0
 10
30.6510111611
 20
12.5836889952
 30
0.0
 10
30.6466932668
 20
12.5880542933
 30
0.0
 10
30.642551089
 20
12.5924220169
 30
0.0
 10
30.6393917001
 20
12.5958481811
 30
0.0
 10
30.636423614
 20
12.5991230764
 30
0.0
 10
30.6329374294
 20
12.603053425
 30
0.0
 10
30.6296132103
 20
12.6068618509
 30
0.0
 10
30.6271270057
 20
12.6097116129
 30
0.0
 10
30.625406869
 20
12.6116695639
 30
0.0
 10
30.6237913184
 20
12.6134764809
 30
0.0
 10
30.6225065322
 20
12.6148703296
 30
0.0
 10
30.6215327215
 20
12.6158876111
 30
0.0
 10
30.6208520836
 20
12.6165768957
 30
0.0
 10
30.6202028231
 20
12.6172095726
 30
0.0
 10
30.6195861751
 20
12.6177825874
 30
0.0
 10
30.6190034317
 20
12.6182928555
 30
0.0
 10
30.6184558805
 20
12.6187373134
 30
0.0
 10
30.6179447303
 20
12.6191130078
 30
0.0
 10
30.617471147
 20
12.6194169607
 30
0.0
 10
30.6170954959
 20
12.6196151844
 30
0.0
 10
30.6168143473
 20
12.6197315351
 30
0.0
 10
30.616567081
 20
12.6198134148
 30
0.0
 10
30.6162794182
 20
12.6198705223
 30
0.0
 10
30.6160037502
 20
12.619858783
 30
0.0
 10
30.6158102755
 20
12.6198054793
 30
0.0
 10
30.6156789375
 20
12.6197463236
 30
0.0
 10
30.6155582535
 20
12.6196673902
 30
0.0
 10
30.6154083153
 20
12.6195335202
 30
0.0
 10
30.615246943
 20
12.6193119401
 30
0.0
 10
30.6151023526
 20
12.6189822557
 30
0.0
 10
30.6149988663
 20
12.6185848789
 30
0.0
 10
30.6149353334
 20
12.6181212623
 30
0.0
 10
30.6149110144
 20
12.6175929696
 30
0.0
 10
30.6149202279
 20
12.6172198659
 30
0.0
 10
30.6149303123
 20
12.6170231695
 30
0.0
 11
30.6758288473
 21
12.5615401311
 31
0.0
 11
30.6693975059
 21
12.5668276509
 31
0.0
 11
30.6632611502
 21
12.5721606418
 31
0.0
 11
30.6574218662
 21
12.5775109196
 31
0.0
 11
30.6546142521
 21
12.5801837057
 31
0.0
 11
30.6518816833
 21
12.5828501064
 31
0.0
 11
30.646644777
 21
12.5881411678
 31
0.0
 11
30.6417190415
 21
12.5933320672
 31
0.0
 11
30.6393754455
 21
12.5958732275
 31
0.0
 11
30.6371128613
 21
12.5983687368
 31
0.0
 11
30.6328389251
 21
12.6031778445
 31
0.0
 11
30.6289153181
 21
12.6076619058
 31
0.0
 11
30.6270908392
 21
12.6097505625
 31
0.0
 11
30.6253637698
 21
12.611712664
 31
0.0
 11
30.623740919
 21
12.6135232242
 31
0.0
 11
30.6222291333
 21
12.6151571533
 31
0.0
 11
30.6215170293
 21
12.6159000405
 31
0.0
 11
30.6208352589
 21
12.6165893611
 31
0.0
 11
30.6201847723
 21
12.617221967
 31
0.0
 11
30.619566821
 21
12.6177946715
 31
0.0
 11
30.6189827167
 21
12.6183042803
 31
0.0
 11
30.6184337712
 21
12.6187475993
 31
0.0
 11
30.6179212961
 21
12.6191214342
 31
0.0
 11
30.6174466031
 21
12.6194225908
 31
0.0
 11
30.617011004
 21
12.6196478748
 31
0.0
 11
30.6168082745
 21
12.6197310663
 31
0.0
 11
30.6166158104
 21
12.6197940919
 31
0.0
 11
30.6162622649
 21
12.6198582797
 31
0.0
 11
30.6159506969
 21
12.6198405322
 31
0.0
 11
30.6158105569
 21
12.6198016338
 31
0.0
 11
30.6156807914
 21
12.6197431022
 31
0.0
 11
30.6155613592
 21
12.6196652246
 31
0.0
 11
30.6154522193
 21
12.6195682883
 31
0.0
 11
30.6152646521
 21
12.6193183888
 31
0.0
 11
30.6151177607
 21
12.618995702
 31
0.0
 11
30.6150112164
 21
12.6186025264
 31
0.0
 11
30.6149446904
 21
12.6181411604
 31
0.0
 11
30.6149178539
 21
12.6176139022
 31
0.0
 11
30.6149303123
 21
12.6170231695
 31
0.0
  0
SPLINE
  5
316
100
AcDbEntity
  8
0
100
AcDbSpline
 62
6
  6
CONTINUOUS
 70
0
 71
3
 72
57
 73
53
 74
51
 42
0.0000001
 43
0.0000001
 44
0.0000000001
 12
0.0148554621
 22
0.2628136399
 32
0.0
 13
-0.2249138557
 23
-0.1367678748
 33
0.0
 40
0.0
 40
0.0
 40
0.0
 40
0.0
 40
0.020087736
 40
0.0407524152
 40
0.0620345399
 40
0.0729159583
 40
0.0839575259
 40
0.1065164591
 40
0.1297125821
 40
0.1415508703
 40
0.1535457911
 40
0.1779769708
 40
0.2029772986
 40
0.2156913506
 40
0.2285401723
 40
0.2415186945
 40
0.2546278512
 40
0.2678751093
 40
0.281270599
 40
0.2948144409
 40
0.3085172058
 40
0.3224083792
 40
0.3365353258
 40
0.3509307342
 40
0.3656214485
 40
0.3730933061
 40
0.3806583744
 40
0.3883258784
 40
0.396103631
 40
0.4039946808
 40
0.4119999366
 40
0.4283458722
 40
0.4366836791
 40
0.4451246625
 40
0.4536632032
 40
0.4622944098
 40
0.4798273409
 40
0.4977042367
 40
0.5158862955
 40
0.5343203128
 40
0.5529601749
 40
0.5717867099
 40
0.5907797609
 40
0.6099153565
 40
0.6485261836
 40
0.6874882391
 40
0.7266797638
 40
0.7660047765
 40
0.8447056692
 40
0.9229334073
 40
0.9616645517
 40
1.0
 40
1.0
 40
1.0
 40
1.0
 10
32.2947932266
 20
12.5456286706
 30
0.0
 10
32.2948926974
 20
12.5473884476
 30
0.0
 10
32.2949206042
 20
12.55097024
 30
0.0
 10
32.2944800516
 20
12.5564016377
 30
0.0
 10
32.2937277298
 20
12.5609808745
 30
0.0
 10
32.2929027379
 20
12.5646817278
 30
0.0
 10
32.291913865
 20
12.5684582411
 30
0.0
 10
32.2903883722
 20
12.5732073742
 30
0.0
 10
32.2885062555
 20
12.5779019424
 30
0.0
 10
32.2867755956
 20
12.5816488187
 30
0.0
 10
32.2848680653
 20
12.5854306467
 30
0.0
 10
32.2821836006
 20
12.5901102229
 30
0.0
 10
32.2791174655
 20
12.5946266355
 30
0.0
 10
32.2764101557
 20
12.5981428355
 30
0.0
 10
32.2742340254
 20
12.6007329416
 30
0.0
 10
32.27191844
 20
12.603246665
 30
0.0
 10
32.2694584992
 20
12.6056696809
 30
0.0
 10
32.2668494971
 20
12.6079871151
 30
0.0
 10
32.2640885117
 20
12.6101835024
 30
0.0
 10
32.261166807
 20
12.6122324025
 30
0.0
 10
32.2580772911
 20
12.614104653
 30
0.0
 10
32.254813679
 20
12.6157707017
 30
0.0
 10
32.251372779
 20
12.6171991614
 30
0.0
 10
32.2477585958
 20
12.6183602139
 30
0.0
 10
32.2446267809
 20
12.6190749141
 30
0.0
 10
32.2420497679
 20
12.6194833282
 30
0.0
 10
32.240069198
 20
12.6197049277
 30
0.0
 10
32.2380536617
 20
12.6198355025
 30
0.0
 10
32.2360056902
 20
12.6198731542
 30
0.0
 10
32.2339284359
 20
12.6198210688
 30
0.0
 10
32.2311049467
 20
12.6196336636
 30
0.0
 10
32.2282559586
 20
12.6192753784
 30
0.0
 10
32.2253947128
 20
12.6187623576
 30
0.0
 10
32.2232220519
 20
12.6182972391
 30
0.0
 10
32.2210404518
 20
12.6177567182
 30
0.0
 10
32.2181082071
 20
12.6169344195
 30
0.0
 10
32.214433157
 20
12.6157334577
 30
0.0
 10
32.210036761
 20
12.614060895
 30
0.0
 10
32.2056383289
 20
12.6121830597
 30
0.0
 10
32.2012436305
 20
12.6101335795
 30
0.0
 10
32.1968555701
 20
12.6079407568
 30
0.0
 10
32.1924769078
 20
12.6056227324
 30
0.0
 10
32.1881069334
 20
12.603197655
 30
0.0
 10
32.1822730326
 20
12.599834913
 30
0.0
 10
32.1750048606
 20
12.5954539288
 30
0.0
 10
32.1663281397
 20
12.5900051374
 30
0.0
 10
32.1576588515
 20
12.5844281759
 30
0.0
 10
32.146103078
 20
12.5768938969
 30
0.0
 10
32.1316977191
 20
12.567458936
 30
0.0
 10
32.1172620829
 20
12.5581653701
 30
0.0
 10
32.1057214605
 20
12.5509202707
 30
0.0
 10
32.0999621871
 20
12.5473763566
 30
0.0
 10
32.0970881292
 20
12.5456286706
 30
0.0
 11
32.2947932266
 21
12.5456286706
 31
0.0
 11
32.2948431096
 21
12.5509161935
 31
0.0
 11
32.2944117579
 21
12.5563386926
 31
0.0
 11
32.2935112618
 21
12.5618680065
 31
0.0
 11
32.2928888578
 21
12.5646639169
 31
0.0
 11
32.2921531142
 21
12.5674757601
 31
0.0
 11
32.290340748
 21
12.5731306917
 31
0.0
 11
32.2880718104
 21
12.5787994675
 31
0.0
 11
32.2867653481
 21
12.5816286097
 31
0.0
 11
32.2853430688
 21
12.5844475954
 31
0.0
 11
32.282140421
 21
12.5900245166
 31
0.0
 11
32.2784415968
 21
12.5954675988
 31
0.0
 11
32.2763989129
 21
12.5981186825
 31
0.0
 11
32.2742221168
 21
12.6007073266
 31
0.0
 11
32.2719064028
 21
12.6032191194
 31
0.0
 11
32.2694469635
 21
12.6056396431
 31
0.0
 11
32.2668389911
 21
12.6079544799
 31
0.0
 11
32.2640774927
 21
12.6101471423
 31
0.0
 11
32.2611566002
 21
12.6121913914
 31
0.0
 11
32.2580701885
 21
12.6140581187
 31
0.0
 11
32.2548121323
 21
12.6157182152
 31
0.0
 11
32.2513770037
 21
12.6171424615
 31
0.0
 11
32.247768826
 21
12.6183001394
 31
0.0
 11
32.2439984263
 21
12.6191594518
 31
0.0
 11
32.2420558234
 21
12.619467277
 31
0.0
 11
32.2400767814
 21
12.619688578
 31
0.0
 11
32.2380626855
 21
12.6198194185
 31
0.0
 11
32.2360156914
 21
12.6198582483
 31
0.0
 11
32.2339391336
 21
12.61980717
 31
0.0
 11
32.2318364462
 21
12.6196685953
 31
0.0
 11
32.2275664195
 21
12.619138602
 31
0.0
 11
32.2254059485
 21
12.6187520064
 31
0.0
 11
32.2232330848
 21
12.6182875601
 31
0.0
 11
32.2210512619
 21
12.617747675
 31
0.0
 11
32.2188633592
 21
12.6171351754
 31
0.0
 11
32.2144741115
 21
12.6157086321
 31
0.0
 11
32.2100734863
 21
12.6140416069
 31
0.0
 11
32.2056693382
 21
12.6121679924
 31
0.0
 11
32.201269495
 21
12.6101216304
 31
0.0
 11
32.196878975
 21
12.6079311169
 31
0.0
 11
32.1924975776
 21
12.6056153027
 31
0.0
 11
32.1881245346
 21
12.6031919781
 31
0.0
 11
32.1837590775
 21
12.6006789332
 31
0.0
 11
32.1750475127
 21
12.5954436283
 31
0.0
 11
32.1663551951
 21
12.5900001643
 31
0.0
 11
32.1576744293
 21
12.5844256996
 31
0.0
 11
32.1489985902
 21
12.5787788938
 31
0.0
 11
32.1316480878
 21
12.5674589523
 31
0.0
 11
32.114320048
 21
12.5563335295
 31
0.0
 11
32.1056839451
 21
12.5509148299
 31
0.0
 11
32.0970881292
 21
12.5456286706
 31
0.0
  0
SPLINE
  5
317
100
AcDbEntity
  8
0
100
AcDbSpline
 62
6
  6
CONTINUOUS
 70
0
 71
3
 72
64
 73
60
 74
58
 42
0.0000001
 43
0.0000001
 44
0.0000000001
 12
-0.1029608314
 22
0.2640278604
 32
0.0
 13
-0.2337702646
 23
-0.1601970888
 33
0.0
 40
0.0
 40
0.0
 40
0.0
 40
0.0
 40
0.020284697
 40
0.0416584428
 40
0.0640736909
 40
0.0756552488
 40
0.0874759913
 40
0.1118111365
 40
0.1243169327
 40
0.1370413589
 40
0.1499800851
 40
0.1631281277
 40
0.1900235569
 40
0.2037631027
 40
0.2176925991
 40
0.2318107774
 40
0.2461124456
 40
0.2605925846
 40
0.2752506763
 40
0.2900911281
 40
0.305121111
 40
0.3203369971
 40
0.3357391439
 40
0.3513419594
 40
0.3671741735
 40
0.3832476075
 40
0.3995519449
 40
0.4077925782
 40
0.4160937137
 40
0.4244585871
 40
0.4328907922
 40
0.4413908013
 40
0.4499570806
 40
0.4672739625
 40
0.4848096723
 40
0.4936457879
 40
0.5025182336
 40
0.5203668461
 40
0.5383509856
 40
0.5564508915
 40
0.5746335211
 40
0.5928605483
 40
0.611118089
 40
0.6293991405
 40
0.6476929947
 40
0.665985753
 40
0.6842621633
 40
0.7025126184
 40
0.7207290701
 40
0.7570231556
 40
0.7750810145
 40
0.7930662532
 40
0.8287876971
 40
0.8641249392
 40
0.8816294674
 40
0.8990127661
 40
0.9333623542
 40
0.9670622295
 40
1.0
 40
1.0
 40
1.0
 40
1.0
 10
32.0970881292
 20
12.5456286706
 30
0.0
 10
32.0963919528
 20
12.5474139124
 30
0.0
 10
32.0948383272
 20
12.5510327764
 30
0.0
 10
32.092129804
 20
12.5564487341
 30
0.0
 10
32.089546922
 20
12.5609998198
 30
0.0
 10
32.0872777976
 20
12.5646858008
 30
0.0
 10
32.0848249761
 20
12.5684702676
 30
0.0
 10
32.082190343
 20
12.5722394893
 30
0.0
 10
32.0793787151
 20
12.5759838417
 30
0.0
 10
32.0771480552
 20
12.5788170263
 30
0.0
 10
32.0748145856
 20
12.5816452738
 30
0.0
 10
32.0715411747
 20
12.5854317338
 30
0.0
 10
32.0680776658
 20
12.5891523947
 30
0.0
 10
32.0644179602
 20
12.5927827755
 30
0.0
 10
32.0615385086
 20
12.5954837278
 30
0.0
 10
32.0585422279
 20
12.5981353397
 30
0.0
 10
32.0554243951
 20
12.6007253003
 30
0.0
 10
32.0521797196
 20
12.6032388606
 30
0.0
 10
32.0488035659
 20
12.6056614911
 30
0.0
 10
32.0452912391
 20
12.6079780766
 30
0.0
 10
32.0416402647
 20
12.6101738513
 30
0.0
 10
32.0378441363
 20
12.6122229337
 30
0.0
 10
32.0338974026
 20
12.614095395
 30
0.0
 10
32.0297957996
 20
12.6157614708
 30
0.0
 10
32.0255378995
 20
12.6171894865
 30
0.0
 10
32.0211305351
 20
12.6183497157
 30
0.0
 10
32.0173574643
 20
12.6190666953
 30
0.0
 10
32.0142814326
 20
12.6194778501
 30
0.0
 10
32.0119387029
 20
12.6197015186
 30
0.0
 10
32.0095709925
 20
12.6198354599
 30
0.0
 10
32.0071810591
 20
12.6198758985
 30
0.0
 10
32.0047723231
 20
12.6198255799
 30
0.0
 10
32.0015290327
 20
12.6196403395
 30
0.0
 10
31.9974486285
 20
12.6191932864
 30
0.0
 10
31.9933804368
 20
12.6184831589
 30
0.0
 10
31.9901288513
 20
12.6177660614
 30
0.0
 10
31.9868705051
 20
12.6169487218
 30
0.0
 10
31.9828176063
 20
12.615754938
 30
0.0
 10
31.9780025159
 20
12.6140855005
 30
0.0
 10
31.9732305753
 20
12.6122093657
 30
0.0
 10
31.968506173
 20
12.6101592013
 30
0.0
 10
31.9638299267
 20
12.6079666766
 30
0.0
 10
31.9592033974
 20
12.6056505308
 30
0.0
 10
31.9546252237
 20
12.6032269489
 30
0.0
 10
31.9500929135
 20
12.6007119854
 30
0.0
 10
31.9456039931
 20
12.5981214243
 30
0.0
 10
31.9411549658
 20
12.5954710474
 30
0.0
 10
31.9367448295
 20
12.5927702773
 30
0.0
 10
31.9309220996
 20
12.5891179062
 30
0.0
 10
31.9251655661
 20
12.5853950546
 30
0.0
 10
31.9194624957
 20
12.581630897
 30
0.0
 10
31.9138229079
 20
12.577868866
 30
0.0
 10
31.9068555335
 20
12.5731561151
 30
0.0
 10
31.8999531116
 20
12.5684287445
 30
0.0
 10
31.894488354
 20
12.5646679889
 30
0.0
 10
31.8891032777
 20
12.5609560234
 30
0.0
 10
31.8824617778
 20
12.5563711508
 30
0.0
 10
31.8746094695
 20
12.5509538607
 30
0.0
 10
31.8694222909
 20
12.5473875156
 30
0.0
 10
31.8668556671
 20
12.5456286706
 30
0.0
 11
32.0970881292
 21
12.5456286706
 31
0.0
 11
32.0948297776
 21
12.5509150299
 31
0.0
 11
32.0921281851
 21
12.5563363516
 31
0.0
 11
32.088999026
 21
12.5618644991
 31
0.0
 11
32.0872790038
 21
12.5646598388
 31
0.0
 11
32.0854573171
 21
12.5674711374
 31
0.0
 11
32.0815083468
 21
12.5731249973
 31
0.0
 11
32.0793804795
 21
12.5759591665
 31
0.0
 11
32.0771499681
 21
12.5787925672
 31
0.0
 11
32.07481652
 21
12.581621002
 31
0.0
 11
32.0723792451
 21
12.5844393787
 31
0.0
 11
32.067182865
 21
12.5900154162
 31
0.0
 11
32.0644181724
 21
12.5927571885
 31
0.0
 11
32.0615387532
 21
12.5954575371
 31
0.0
 11
32.0585417073
 21
12.5981081353
 31
0.0
 11
32.0554230344
 21
12.6006966946
 31
0.0
 11
32.0521780836
 21
12.6032085847
 31
0.0
 11
32.0488021954
 21
12.6056291448
 31
0.0
 11
32.0452907105
 21
12.607943714
 31
0.0
 11
32.0416390111
 21
12.6101363203
 31
0.0
 11
32.0378427805
 21
12.612181471
 31
0.0
 11
32.0338978354
 21
12.6140494722
 31
0.0
 11
32.0297999928
 21
12.6157106114
 31
0.0
 11
32.0255454078
 21
12.6171351614
 31
0.0
 11
32.0211399105
 21
12.6182929744
 31
0.0
 11
32.0166001996
 21
12.6191534295
 31
0.0
 11
32.0142854128
 21
12.6194625711
 31
0.0
 11
32.0119435513
 21
12.6196858811
 31
0.0
 11
32.0095767744
 21
12.6198195287
 31
0.0
 11
32.007187502
 21
12.6198607907
 31
0.0
 11
32.0047791674
 21
12.6198112569
 31
0.0
 11
32.002355451
 21
12.6196735669
 31
0.0
 11
31.9974765927
 21
12.6191442767
 31
0.0
 11
31.9925803684
 21
12.6182940371
 31
0.0
 11
31.9901349443
 21
12.6177551603
 31
0.0
 11
31.987695935
 21
12.6171441038
 31
0.0
 11
31.9828421499
 21
12.6157207665
 31
0.0
 11
31.978024904
 21
12.6140566515
 31
0.0
 11
31.9732492621
 21
12.6121847892
 31
0.0
 11
31.968520289
 21
12.6101382099
 31
0.0
 11
31.9638422031
 21
12.6079480022
 31
0.0
 11
31.9592143681
 21
12.6056341204
 31
0.0
 11
31.9546344202
 21
12.6032125558
 31
0.0
 11
31.9500999934
 21
12.6006992954
 31
0.0
 11
31.9456087217
 21
12.5981103259
 31
0.0
 11
31.9411583215
 21
12.5954607582
 31
0.0
 11
31.9367469752
 21
12.5927607294
 31
0.0
 11
31.9323730302
 21
12.5900186226
 31
0.0
 11
31.9237307332
 21
12.5844416997
 31
0.0
 11
31.9194590818
 21
12.5816236297
 31
0.0
 11
31.9152187369
 21
12.5787955937
 31
0.0
 11
31.9068310143
 21
12.5731276577
 31
0.0
 11
31.8985661058
 21
12.5674727398
 31
0.0
 11
31.8944792784
 21
12.5646609764
 31
0.0
 11
31.8904230831
 21
12.5618653051
 31
0.0
 11
31.8824109928
 21
12.556336684
 31
0.0
 11
31.8745487442
 21
12.5509151065
 31
0.0
 11
31.8668556671
 21
12.5456286706
 31
0.0
  0
SPLINE
  5
318
100
AcDbEntity
  8
0
100
AcDbSpline
 62
6
  6
CONTINUOUS
 70
0
 71
3
 72
57
 73
53
 74
51
 42
0.0000001
 43
0.0000001
 44
0.0000000001
 12
-0.1856760123
 22
0.2292654708
 32
0.0
 13
-0.2246385318
 23
-0.191247922
 33
0.0
 40
0.0
 40
0.0
 40
0.0
 40
0.0
 40
0.0233459917
 40
0.0478680612
 40
0.0734714685
 40
0.0866490943
 40
0.1000625888
 40
0.1275659532
 40
0.1416422502
 40
0.1559258439
 40
0.1704104477
 40
0.1850895022
 40
0.2150020924
 40
0.2456195142
 40
0.2611841308
 40
0.2769109323
 40
0.2927937171
 40
0.3088297467
 40
0.3250200965
 40
0.3413661692
 40
0.3578575572
 40
0.3744883006
 40
0.39126385
 40
0.408199314
 40
0.4252813752
 40
0.4424803343
 40
0.4511196244
 40
0.4597840964
 40
0.4684747444
 40
0.4771922853
 40
0.4859350748
 40
0.4947003623
 40
0.5122809913
 40
0.5210891034
 40
0.5299009426
 40
0.538710259
 40
0.547512489
 40
0.565098203
 40
0.5826631052
 40
0.6001961094
 40
0.6176730063
 40
0.6350731891
 40
0.6523959426
 40
0.6696384012
 40
0.6867932093
 40
0.7208051592
 40
0.7543821247
 40
0.7874640415
 40
0.819998463
 40
0.8831867282
 40
0.943409368
 40
1.0
 40
1.0
 40
1.0
 40
1.0
 10
31.8668556671
 20
12.5456286706
 30
0.0
 10
31.8654107369
 20
12.5474128139
 30
0.0
 10
31.862391246
 20
12.5510252326
 30
0.0
 10
31.857605096
 20
12.5564389491
 30
0.0
 10
31.8533616148
 20
12.560994825
 30
0.0
 10
31.8497948545
 20
12.564686096
 30
0.0
 10
31.8460517041
 20
12.5684661905
 30
0.0
 10
31.8421731665
 20
12.5722360772
 30
0.0
 10
31.8381585047
 20
12.575986274
 30
0.0
 10
31.8350402786
 20
12.5788200475
 30
0.0
 10
31.8318381807
 20
12.5816490576
 30
0.0
 10
31.8274285903
 20
12.585431787
 30
0.0
 10
31.8216988749
 20
12.5901110486
 30
0.0
 10
31.8157282077
 20
12.5946257028
 30
0.0
 10
31.8107580666
 20
12.5981426297
 30
0.0
 10
31.8069086995
 20
12.6007327321
 30
0.0
 10
31.802953692
 20
12.6032461677
 30
0.0
 10
31.7988890002
 20
12.6056686167
 30
0.0
 10
31.7947108319
 20
12.6079853295
 30
0.0
 10
31.7904173352
 20
12.610181224
 30
0.0
 10
31.7860031932
 20
12.6122292116
 30
0.0
 10
31.7814650638
 20
12.6141002086
 30
0.0
 10
31.7768004589
 20
12.6157649479
 30
0.0
 10
31.7720110699
 20
12.6171924442
 30
0.0
 10
31.7671070549
 20
12.6183532424
 30
0.0
 10
31.7629445967
 20
12.6190716052
 30
0.0
 10
31.7595759384
 20
12.6194820647
 30
0.0
 10
31.7570287335
 20
12.6197039927
 30
0.0
 10
31.7544675149
 20
12.6198350253
 30
0.0
 10
31.7518955497
 20
12.6198731958
 30
0.0
 10
31.7493164861
 20
12.6198216316
 30
0.0
 10
31.7458703255
 20
12.6196360546
 30
0.0
 10
31.7424287677
 20
12.6192803794
 30
0.0
 10
31.7390053271
 20
12.6187648867
 30
0.0
 10
31.7364477045
 20
12.6183002047
 30
0.0
 10
31.7339055778
 20
12.6177600703
 30
0.0
 10
31.7305417187
 20
12.6169427317
 30
0.0
 10
31.7263850582
 20
12.6157495759
 30
0.0
 10
31.721479451
 20
12.6140776199
 30
0.0
 10
31.7166607645
 20
12.6121997814
 30
0.0
 10
31.7119307223
 20
12.6101500433
 30
0.0
 10
31.7072884523
 20
12.607957057
 30
0.0
 10
31.7027335221
 20
12.6056387118
 30
0.0
 10
31.6982623344
 20
12.6032131949
 30
0.0
 10
31.6924241202
 20
12.5998696114
 30
0.0
 10
31.6853175536
 20
12.5955126666
 30
0.0
 10
31.677051315
 20
12.5900623257
 30
0.0
 10
31.6690474685
 20
12.5844846011
 30
0.0
 10
31.6588096398
 20
12.5770246844
 30
0.0
 10
31.6466357851
 20
12.5676945269
 30
0.0
 10
31.6328398711
 20
12.5566016132
 30
0.0
 10
31.6240232808
 20
12.5492362842
 30
0.0
 10
31.6197858019
 20
12.5456286706
 30
0.0
 11
31.8668556671
 21
12.5456286706
 31
0.0
 11
31.8624419366
 21
12.5509161935
 31
0.0
 11
31.8576528478
 21
12.5563386926
 31
0.0
 11
31.8525066597
 21
12.5618680065
 31
0.0
 11
31.8498053527
 21
12.5646639169
 31
0.0
 11
31.8470208209
 21
12.5674757601
 31
0.0
 11
31.8412018413
 21
12.5731306917
 31
0.0
 11
31.8381670149
 21
12.5759654352
 31
0.0
 11
31.8350483784
 21
12.5787994675
 31
0.0
 11
31.8318457384
 21
12.5816286097
 31
0.0
 11
31.8285582086
 21
12.5844475954
 31
0.0
 11
31.8217188702
 21
12.5900245166
 31
0.0
 11
31.8145102082
 21
12.5954675988
 31
0.0
 11
31.810760888
 21
12.5981186825
 31
0.0
 11
31.806910396
 21
12.6007073266
 31
0.0
 11
31.8029547151
 21
12.6032191194
 31
0.0
 11
31.7988898268
 21
12.6056396431
 31
0.0
 11
31.7947117124
 21
12.6079544799
 31
0.0
 11
31.79041656
 21
12.6101471423
 31
0.0
 11
31.7860015315
 21
12.6121913914
 31
0.0
 11
31.7814640756
 21
12.6140581187
 31
0.0
 11
31.7768016407
 21
12.6157182152
 31
0.0
 11
31.7720125955
 21
12.6171424615
 31
0.0
 11
31.7671077752
 21
12.6183001394
 31
0.0
 11
31.7621069894
 21
12.6191594518
 31
0.0
 11
31.7595768619
 21
12.619467277
 31
0.0
 11
31.7570302456
 21
12.619688578
 31
0.0
 11
31.7544696502
 21
12.6198194185
 31
0.0
 11
31.7518980731
 21
12.6198582483
 31
0.0
 11
31.7493192599
 21
12.61980717
 31
0.0
 11
31.746737019
 21
12.6196685953
 31
0.0
 11
31.7415774884
 21
12.619138602
 31
0.0
 11
31.7390078158
 21
12.6187520064
 31
0.0
 11
31.7364499496
 21
12.6182875601
 31
0.0
 11
31.7339076978
 21
12.617747675
 31
0.0
 11
31.7313841087
 21
12.6171351754
 31
0.0
 11
31.7263959039
 21
12.6157086321
 31
0.0
 11
31.7214893197
 21
12.6140416069
 31
0.0
 11
31.7166679438
 21
12.6121679924
 31
0.0
 11
31.711935341
 21
12.6101216304
 31
0.0
 11
31.7072927231
 21
12.6079311169
 31
0.0
 11
31.7027369304
 21
12.6056153027
 31
0.0
 11
31.698264328
 21
12.6031919781
 31
0.0
 11
31.6938712806
 21
12.6006789332
 31
0.0
 11
31.6853109929
 21
12.5954436283
 31
0.0
 11
31.6770347192
 21
12.5900001643
 31
0.0
 11
31.6690234059
 21
12.5844256996
 31
0.0
 11
31.6612617975
 21
12.5787788938
 31
0.0
 11
31.6464502667
 21
12.5674589523
 31
0.0
 11
31.6325977463
 21
12.5563335295
 31
0.0
 11
31.6197858019
 21
12.5456286706
 31
0.0
  0
LINE
  5
319
100
AcDbEntity
  8
0
100
AcDbLine
 62
6
  6
CONTINUOUS
 10
1.831845709
 20
11.3216452217
 11
1.8054245431
 21
11.2720595521
  0
SPLINE
  5
31A
100
AcDbEntity
  8
0
100
AcDbSpline
 62
6
  6
CONTINUOUS
 70
0
 71
3
 72
9
 73
5
 74
3
 42
0.0000001
 43
0.0000001
 44
0.0000000001
 12
0.0376306816
 22
0.0488324207
 32
0.0
 13
0.0357337719
 23
0.0502371482
 33
0.0
 40
0.0
 40
0.0
 40
0.0
 40
0.0
 40
0.5005615267
 40
1.0
 40
1.0
 40
1.0
 40
1.0
 10
1.8658012725
 20
11.2720595521
 30
0.0
 10
1.8720800963
 20
11.2802074291
 30
0.0
 10
1.8844328994
 20
11.2966323305
 30
0.0
 10
1.8964801222
 20
11.3132817668
 30
0.0
 10
1.9024290624
 20
11.3216452217
 30
0.0
 11
1.8658012725
 21
11.2720595521
 31
0.0
 11
1.8843702055
 21
11.2967070364
 31
0.0
 11
1.9024290624
 21
11.3216452217
 31
0.0
  0
LINE
  5
31B
100
AcDbEntity
  8
0
100
AcDbLine
 62
6
  6
CONTINUOUS
 10
1.9024290624
 20
11.3216452217
 11
1.8689261064
 21
11.2720595521
  0
SPLINE
  5
31C
100
AcDbEntity
  8
0
100
AcDbSpline
 62
6
  6
CONTINUOUS
 70
0
 71
3
 72
19
 73
15
 74
13
 42
0.0000001
 43
0.0000001
 44
0.0000000001
 12
-0.0617512258
 22
-1.2547777146
 32
0.0
 13
-0.4760113948
 23
-1.1626235328
 33
0.0
 40
0.0
 40
0.0
 40
0.0
 40
0.0
 40
0.1343934675
 40
0.2656847369
 40
0.3940656842
 40
0.5197415164
 40
0.5816364134
 40
0.6429382168
 40
0.7036763739
 40
0.763881159
 40
0.8235836581
 40
0.8828157477
 40
0.9416100697
 40
1.0
 40
1.0
 40
1.0
 40
1.0
 10
1.9950881292
 20
12.5456286706
 30
0.0
 10
1.9923218088
 20
12.4894173613
 30
0.0
 10
1.9848973328
 20
12.3783768017
 30
0.0
 10
1.9677435619
 20
12.2142106634
 30
0.0
 10
1.9447060368
 20
12.0544505634
 30
0.0
 10
1.9204810156
 20
11.9243346562
 30
0.0
 10
1.8981256589
 20
11.8225343643
 30
0.0
 10
1.8799736673
 20
11.7476716272
 30
0.0
 10
1.8603518541
 20
11.673912908
 30
0.0
 10
1.8392600947
 20
11.6012578584
 30
0.0
 10
1.8166983692
 20
11.5297066702
 30
0.0
 10
1.7926665636
 20
11.4592592297
 30
0.0
 10
1.7671648528
 20
11.3899161426
 30
0.0
 10
1.7491244493
 20
11.344273724
 30
0.0
 10
1.7398596919
 20
11.3216452217
 30
0.0
 11
1.9950881292
 21
12.5456286706
 31
0.0
 11
1.9837511164
 21
12.377171713
 31
0.0
 11
1.9665379487
 21
12.2131316201
 31
0.0
 11
1.9434486263
 21
12.0535083919
 31
0.0
 11
1.914483149
 21
11.8983020284
 31
0.0
 11
1.8977968523
 21
11.822355171
 31
0.0
 11
1.8796415169
 21
11.7475125297
 31
0.0
 11
1.8600171428
 21
11.6737741046
 31
0.0
 11
1.83892373
 21
11.6011398956
 31
0.0
 11
1.8163612786
 21
11.5296099029
 31
0.0
 11
1.7923297884
 21
11.4591841263
 31
0.0
 11
1.7668292595
 21
11.3898625659
 31
0.0
 11
1.7398596919
 21
11.3216452217
 31
0.0
  0
SPLINE
  5
31D
100
AcDbEntity
  8
0
100
AcDbSpline
 62
6
  6
CONTINUOUS
 70
0
 71
3
 72
15
 73
11
 74
9
 42
0.0000001
 43
0.0000001
 44
0.0000000001
 12
-0.0313940118
 22
-1.2323719498
 32
0.0
 13
-0.2555914276
 23
-1.2059847547
 33
0.0
 40
0.0
 40
0.0
 40
0.0
 40
0.0
 40
0.1367318357
 40
0.269994057
 40
0.3998397127
 40
0.5263261502
 40
0.6495154087
 40
0.7694746429
 40
0.8862765788
 40
1.0
 40
1.0
 40
1.0
 40
1.0
 10
1.7648556671
 20
12.5456286706
 30
0.0
 10
1.7634248135
 20
12.489460511
 30
0.0
 10
1.7595887212
 20
12.3785720385
 30
0.0
 10
1.7507190369
 20
12.2144974861
 30
0.0
 10
1.7388082405
 20
12.0548356548
 30
0.0
 10
1.7238561465
 20
11.8995869079
 30
0.0
 10
1.7058625297
 20
11.7487508349
 30
0.0
 10
1.6848269949
 20
11.6023267091
 30
0.0
 10
1.6607494853
 20
11.4603156691
 30
0.0
 10
1.6424286167
 20
11.3673614591
 30
0.0
 10
1.6327397062
 20
11.3216452217
 30
0.0
 11
1.7648556671
 21
12.5456286706
 31
0.0
 11
1.7589871974
 21
12.377171713
 31
0.0
 11
1.7500770062
 21
12.2131316201
 31
0.0
 11
1.7381250934
 21
12.0535083919
 31
0.0
 11
1.7231314591
 21
11.8983020284
 31
0.0
 11
1.7050961032
 21
11.7475125297
 31
0.0
 11
1.6840190257
 21
11.6011398956
 31
0.0
 11
1.6599002267
 21
11.4591841263
 31
0.0
 11
1.6327397062
 21
11.3216452217
 31
0.0
  0
SPLINE
  5
31E
100
AcDbEntity
  8
0
100
AcDbSpline
 62
6
  6
CONTINUOUS
 70
0
 71
3
 72
47
 73
43
 74
41
 42
0.0000001
 43
0.0000001
 44
0.0000000001
 12
0.0045306143
 22
0.0871669144
 32
0.0
 13
-0.0682051941
 23
-0.0544669526
 33
0.0
 40
0.0
 40
0.0
 40
0.0
 40
0.0
 40
0.006809901
 40
0.0129129602
 40
0.0183098528
 40
0.0230224183
 40
0.0271087706
 40
0.0306880462
 40
0.0323538288
 40
0.0339801398
 40
0.0356076225
 40
0.0372786931
 40
0.0408923861
 40
0.0429002323
 40
0.0450674018
 40
0.0499303613
 40
0.0555580587
 40
0.0619850355
 40
0.0692241051
 40
0.0772751918
 40
0.0861302741
 40
0.0957740048
 40
0.1061792115
 40
0.1173138687
 40
0.1291438297
 40
0.1547457976
 40
0.182689759
 40
0.2126736703
 40
0.2444649191
 40
0.2779073486
 40
0.3128483449
 40
0.3491357573
 40
0.3866310511
 40
0.4252419045
 40
0.4648870796
 40
0.5054864825
 40
0.546963058
 40
0.6323216433
 40
0.7205730561
 40
0.8114006004
 40
0.904598458
 40
1.0
 40
1.0
 40
1.0
 40
1.0
 10
2.522639343
 20
12.61701781
 30
0.0
 10
2.5226496273
 20
12.617215676
 30
0.0
 10
2.5226593461
 20
12.6175915207
 30
0.0
 10
2.5226365705
 20
12.6181242691
 30
0.0
 10
2.5225749814
 20
12.6185927163
 30
0.0
 10
2.5224734615
 20
12.6189943875
 30
0.0
 10
2.5223304799
 20
12.6193269993
 30
0.0
 10
2.5221692071
 20
12.6195495865
 30
0.0
 10
2.5220184214
 20
12.6196819914
 30
0.0
 10
2.5218967679
 20
12.6197586189
 30
0.0
 10
2.5217639401
 20
12.6198141091
 30
0.0
 10
2.5215675608
 20
12.6198608805
 30
0.0
 10
2.5213525339
 20
12.6198623896
 30
0.0
 10
2.5211284792
 20
12.6198275673
 30
0.0
 10
2.5208732012
 20
12.6197628597
 30
0.0
 10
2.5205287992
 20
12.6196289121
 30
0.0
 10
2.5200923105
 20
12.6194000011
 30
0.0
 10
2.5196180621
 20
12.6190987272
 30
0.0
 10
2.5191068144
 20
12.6187268966
 30
0.0
 10
2.5185593988
 20
12.6182862637
 30
0.0
 10
2.5179768578
 20
12.6177787304
 30
0.0
 10
2.5173604412
 20
12.6172065193
 30
0.0
 10
2.5167109292
 20
12.6165729377
 30
0.0
 10
2.5160293492
 20
12.6158814372
 30
0.0
 10
2.5150532852
 20
12.6148596246
 30
0.0
 10
2.5137654663
 20
12.6134596013
 30
0.0
 10
2.5121466809
 20
12.6116468697
 30
0.0
 10
2.5104232092
 20
12.609686328
 30
0.0
 10
2.5086010155
 20
12.6075996068
 30
0.0
 10
2.5066852647
 20
12.605403108
 30
0.0
 10
2.5046790356
 20
12.6031119446
 30
0.0
 10
2.502585212
 20
12.6007407703
 30
0.0
 10
2.5004056015
 20
12.5983029744
 30
0.0
 10
2.4981428995
 20
12.595808527
 30
0.0
 10
2.4957986367
 20
12.5932662732
 30
0.0
 10
2.4933741756
 20
12.5906847345
 30
0.0
 10
2.4900033955
 20
12.5871676495
 30
0.0
 10
2.4856002232
 20
12.5827201059
 30
0.0
 10
2.4800597949
 20
12.5773806814
 30
0.0
 10
2.4742172546
 20
12.5720295267
 30
0.0
 10
2.4680788452
 20
12.5666975424
 30
0.0
 10
2.463838382
 20
12.5632135958
 30
0.0
 10
2.4616694218
 20
12.5614815187
 30
0.0
 11
2.522639343
 21
12.61701781
 31
0.0
 11
2.5226527079
 21
12.6176120591
 31
0.0
 11
2.5226274168
 21
12.6181441613
 31
0.0
 11
2.5225627227
 21
12.6186107632
 31
0.0
 11
2.5224578785
 21
12.6190085114
 31
0.0
 11
2.5223121371
 21
12.6193340523
 31
0.0
 11
2.5221247513
 21
12.6195840324
 31
0.0
 11
2.5220152083
 21
12.6196796392
 31
0.0
 11
2.5218949741
 21
12.6197550983
 31
0.0
 11
2.5217639598
 21
12.6198100038
 31
0.0
 11
2.5216221832
 21
12.6198442698
 31
0.0
 11
2.5213068548
 21
12.6198518554
 31
0.0
 11
2.521133566
 21
12.6198256834
 31
0.0
 11
2.5209500363
 21
12.6197798737
 31
0.0
 11
2.5205527802
 21
12.6196303576
 31
0.0
 11
2.5201161389
 21
12.6194053403
 31
0.0
 11
2.5196411647
 21
12.6191068549
 31
0.0
 11
2.51912891
 21
12.6187369344
 31
0.0
 11
2.5185804273
 21
12.6182976121
 31
0.0
 11
2.5179967688
 21
12.6177909209
 31
0.0
 11
2.5173789893
 21
12.6172191782
 31
0.0
 11
2.5167281514
 21
12.6165857251
 31
0.0
 11
2.5160453195
 21
12.6158941336
 31
0.0
 11
2.5153315581
 21
12.6151479755
 31
0.0
 11
2.5138155048
 21
12.6135062464
 31
0.0
 11
2.5121885074
 21
12.6116891126
 31
0.0
 11
2.5104589823
 21
12.6097249007
 31
0.0
 11
2.5086328166
 21
12.6076356163
 31
0.0
 11
2.5067132214
 21
12.6054365793
 31
0.0
 11
2.5047032796
 21
12.6031427886
 31
0.0
 11
2.502606074
 21
12.6007692433
 31
0.0
 11
2.5004243664
 21
12.5983297525
 31
0.0
 11
2.4981597714
 21
12.595833876
 31
0.0
 11
2.4958136478
 21
12.5932902256
 31
0.0
 11
2.4933873542
 21
12.5907074129
 31
0.0
 11
2.4908822174
 21
12.5880938692
 31
0.0
 11
2.4856392944
 21
12.5828003325
 31
0.0
 11
2.480091748
 21
12.5774561074
 31
0.0
 11
2.474245265
 21
12.5721017313
 31
0.0
 11
2.4681034858
 21
12.5667676455
 31
0.0
 11
2.4616694218
 21
12.5614815187
 31
0.0
  0
SPLINE
  5
31F
100
AcDbEntity
  8
0
100
AcDbSpline
 62
6
  6
CONTINUOUS
 70
0
 71
3
 72
50
 73
46
 74
44
 42
0.0000001
 43
0.0000001
 44
0.0000000001
 12
0.0093324716
 22
0.1532585018
 32
0.0
 13
-0.1306834719
 23
-0.0806045506
 33
0.0
 40
0.0
 40
0.0
 40
0.0
 40
0.0
 40
0.0230691816
 40
0.0451671495
 40
0.0661968895
 40
0.0762931036
 40
0.0860835568
 40
0.0955484206
 40
0.1046782586
 40
0.113476916
 40
0.1219649994
 40
0.1301831928
 40
0.1381884248
 40
0.1460575989
 40
0.1538940902
 40
0.1618265473
 40
0.1700039905
 40
0.1785847323
 40
0.1876975614
 40
0.1974275714
 40
0.2078270588
 40
0.2189230976
 40
0.2307238851
 40
0.2432236556
 40
0.2564048636
 40
0.2702385588
 40
0.2846870247
 40
0.2997060685
 40
0.3152466904
 40
0.3312575334
 40
0.3477025491
 40
0.3817981074
 40
0.4173332021
 40
0.4355752586
 40
0.4541040418
 40
0.4919624972
 40
0.5307909078
 40
0.5704750657
 40
0.610927245
 40
0.6520736312
 40
0.7361863819
 40
0.779056494
 40
0.8224117113
 40
0.9104393501
 40
1.0
 40
1.0
 40
1.0
 40
1.0
 10
2.4640820326
 20
12.5978454068
 30
0.0
 10
2.4641537968
 20
12.5990239228
 30
0.0
 10
2.4642200034
 20
12.6013368786
 30
0.0
 10
2.4640664902
 20
12.6047246175
 30
0.0
 10
2.4637120398
 20
12.6074299028
 30
0.0
 10
2.463283482
 20
12.6094806025
 30
0.0
 10
2.4628944388
 20
12.610932511
 30
0.0
 10
2.4624306122
 20
12.6123103896
 30
0.0
 10
2.4618891843
 20
12.6136051063
 30
0.0
 10
2.4612672034
 20
12.6148074684
 30
0.0
 10
2.4605615919
 20
12.6159082085
 30
0.0
 10
2.4597692845
 20
12.6168973894
 30
0.0
 10
2.4588885294
 20
12.6177648581
 30
0.0
 10
2.4579182851
 20
12.6184998723
 30
0.0
 10
2.4568579419
 20
12.6190910034
 30
0.0
 10
2.4557076127
 20
12.6195266336
 30
0.0
 10
2.4544681595
 20
12.6197957097
 30
0.0
 10
2.4531430545
 20
12.6198868655
 30
0.0
 10
2.4517386936
 20
12.6198067236
 30
0.0
 10
2.4502595917
 20
12.6195632642
 30
0.0
 10
2.4487104735
 20
12.6191632085
 30
0.0
 10
2.4470961508
 20
12.6186130198
 30
0.0
 10
2.44542158
 20
12.6179189676
 30
0.0
 10
2.4436921339
 20
12.6170869791
 30
0.0
 10
2.4419111695
 20
12.6161275278
 30
0.0
 10
2.4400816135
 20
12.6150514822
 30
0.0
 10
2.4382065592
 20
12.6138695666
 30
0.0
 10
2.4362891193
 20
12.612592588
 30
0.0
 10
2.4343324573
 20
12.6112312528
 30
0.0
 10
2.4323387477
 20
12.6097960101
 30
0.0
 10
2.429600792
 20
12.6077696764
 30
0.0
 10
2.4261033929
 20
12.6050904313
 30
0.0
 10
2.4225714822
 20
12.6023060625
 30
0.0
 10
2.4196776092
 20
12.5999994391
 30
0.0
 10
2.416696421
 20
12.5976115983
 30
0.0
 10
2.4128997994
 20
12.5945564589
 30
0.0
 10
2.4082581969
 20
12.590824296
 30
0.0
 10
2.4034994292
 20
12.5870260369
 30
0.0
 10
2.3986257778
 20
12.5831816474
 30
0.0
 10
2.3919275525
 20
12.5779791374
 30
0.0
 10
2.3850566093
 20
12.5727975469
 30
0.0
 10
2.3780072849
 20
12.5676677827
 30
0.0
 10
2.3707313466
 20
12.562510035
 30
0.0
 10
2.3613775612
 20
12.5561530226
 30
0.0
 10
2.353714588
 20
12.5512622235
 30
0.0
 10
2.3498132225
 20
12.5488558915
 30
0.0
 11
2.4640820326
 21
12.5978454068
 31
0.0
 11
2.4641768315
 21
12.6013862351
 31
0.0
 11
2.4640148662
 21
12.6047753418
 31
0.0
 11
2.4635850306
 21
12.6079755607
 31
0.0
 11
2.4632660267
 21
12.6094925796
 31
0.0
 11
2.4628747619
 21
12.6109440172
 31
0.0
 11
2.4624086396
 21
12.6123204939
 31
0.0
 11
2.4618650636
 21
12.6136126302
 31
0.0
 11
2.4612414374
 21
12.6148110465
 31
0.0
 11
2.4605351644
 21
12.6159063632
 31
0.0
 11
2.4597437445
 21
12.6168891639
 31
0.0
 11
2.4588659437
 21
12.6177495457
 31
0.0
 11
2.4579014228
 21
12.6184772624
 31
0.0
 11
2.4568498611
 21
12.6190620607
 31
0.0
 11
2.4557109381
 21
12.6194936871
 31
0.0
 11
2.4544843332
 21
12.6197618882
 31
0.0
 11
2.4531703482
 21
12.6198581673
 31
0.0
 11
2.4517730721
 21
12.6197847143
 31
0.0
 11
2.4502980177
 21
12.6195477383
 31
0.0
 11
2.4487507005
 21
12.6191534556
 31
0.0
 11
2.4471366363
 21
12.6186080824
 31
0.0
 11
2.4454613404
 21
12.6179178349
 31
0.0
 11
2.4437300862
 21
12.6170894276
 31
0.0
 11
2.441946664
 21
12.6161326249
 31
0.0
 11
2.4401143024
 21
12.6150583458
 31
0.0
 11
2.4382362294
 21
12.6138775111
 31
0.0
 11
2.4363156727
 21
12.6126010419
 31
0.0
 11
2.4343558602
 21
12.6112398591
 31
0.0
 11
2.4323599278
 21
12.6098046921
 31
0.0
 11
2.4303296658
 21
12.6083034606
 31
0.0
 11
2.4261691994
 21
12.6051258938
 31
0.0
 11
2.4218804268
 21
12.6017530719
 31
0.0
 11
2.4196897726
 21
12.6000077249
 31
0.0
 11
2.4174690187
 21
12.5982295199
 31
0.0
 11
2.4129382452
 21
12.5945878671
 31
0.0
 11
2.4082901163
 21
12.5908544991
 31
0.0
 11
2.4035265603
 21
12.587055075
 31
0.0
 11
2.3986489245
 21
12.5832097232
 31
0.0
 11
2.3936582701
 21
12.5793358516
 31
0.0
 11
2.3833423243
 21
12.5715657045
 31
0.0
 11
2.3780194589
 21
12.56769339
 31
0.0
 11
2.3725883383
 21
12.5638441357
 31
0.0
 11
2.3614069192
 21
12.5562508883
 31
0.0
 11
2.3498132225
 21
12.5488558915
 31
0.0
  0
SPLINE
  5
320
100
AcDbEntity
  8
0
100
AcDbSpline
 62
6
  6
CONTINUOUS
 70
0
 71
3
 72
52
 73
48
 74
46
 42
0.0000001
 43
0.0000001
 44
0.0000000001
 12
0.0145335159
 22
0.2128434361
 32
0.0
 13
-0.1843694014
 23
-0.1073381348
 33
0.0
 40
0.0
 40
0.0
 40
0.0
 40
0.0
 40
0.0227312273
 40
0.0454579866
 40
0.0681899584
 40
0.0908916914
 40
0.1022217669
 40
0.1135333492
 40
0.1248260765
 40
0.1360949302
 40
0.1585154255
 40
0.1696659598
 40
0.1807779509
 40
0.191860569
 40
0.2029137831
 40
0.2139393744
 40
0.2249559384
 40
0.2360013333
 40
0.2471333603
 40
0.2584124036
 40
0.2699008902
 40
0.2816773531
 40
0.2938360483
 40
0.3064775167
 40
0.3196650041
 40
0.3334256745
 40
0.3477624962
 40
0.362659755
 40
0.3780961485
 40
0.3940500356
 40
0.4104866353
 40
0.4273598641
 40
0.4446154663
 40
0.4801216374
 40
0.516794655
 40
0.5355014882
 40
0.5544238377
 40
0.5928522005
 40
0.6123262173
 40
0.6319519334
 40
0.6716098737
 40
0.7117381093
 40
0.7522546797
 40
0.7930924271
 40
0.8341892569
 40
0.9169326542
 40
1.0
 40
1.0
 40
1.0
 40
1.0
 10
2.3513704976
 20
12.5710538349
 30
0.0
 10
2.3514806191
 20
12.5726665658
 30
0.0
 10
2.3515861484
 20
12.5759007432
 30
0.0
 10
2.3513971025
 20
12.5807502147
 30
0.0
 10
2.3508605927
 20
12.5855717921
 30
0.0
 10
2.3501129522
 20
12.5895431252
 30
0.0
 10
2.3493271719
 20
12.5926712086
 30
0.0
 10
2.3486428404
 20
12.594986063
 30
0.0
 10
2.3478618154
 20
12.5972656331
 30
0.0
 10
2.3466911287
 20
12.6002432882
 30
0.0
 10
2.345313971
 20
12.6031265092
 30
0.0
 10
2.3437167989
 20
12.6058750519
 30
0.0
 10
2.3424089878
 20
12.6078547802
 30
0.0
 10
2.340987633
 20
12.6097461413
 30
0.0
 10
2.3394479181
 20
12.6115348475
 30
0.0
 10
2.337783933
 20
12.6132025319
 30
0.0
 10
2.3359907664
 20
12.614730311
 30
0.0
 10
2.334063509
 20
12.6160990335
 30
0.0
 10
2.3319984528
 20
12.6172882038
 30
0.0
 10
2.3297961758
 20
12.6182788651
 30
0.0
 10
2.3274599235
 20
12.6190524207
 30
0.0
 10
2.3249938938
 20
12.6195892618
 30
0.0
 10
2.3224029535
 20
12.6198698298
 30
0.0
 10
2.319697009
 20
12.6198753392
 30
0.0
 10
2.3168897482
 20
12.6196205902
 30
0.0
 10
2.313994111
 20
12.6191193425
 30
0.0
 10
2.3110237483
 20
12.6183852119
 30
0.0
 10
2.3079920087
 20
12.6174305503
 30
0.0
 10
2.304910081
 20
12.6162704669
 30
0.0
 10
2.3017843052
 20
12.614927418
 30
0.0
 10
2.2986201561
 20
12.6134220446
 30
0.0
 10
2.295423058
 20
12.6117751468
 30
0.0
 10
2.2910800686
 20
12.6093951419
 30
0.0
 10
2.2856015914
 20
12.6061616249
 30
0.0
 10
2.2801354062
 20
12.6027119035
 30
0.0
 10
2.2757070367
 20
12.5998293663
 30
0.0
 10
2.2711962815
 20
12.5968448346
 30
0.0
 10
2.26666771
 20
12.5937886845
 30
0.0
 10
2.2621128144
 20
12.5906824186
 30
0.0
 10
2.2574917446
 20
12.5875179985
 30
0.0
 10
2.2516645179
 20
12.5835153819
 30
0.0
 10
2.2446057125
 20
12.5786818438
 30
0.0
 10
2.2374547543
 20
12.5738345025
 30
0.0
 10
2.2302150436
 20
12.5689955827
 30
0.0
 10
2.2204243617
 20
12.5625700835
 30
0.0
 10
2.2080040612
 20
12.5546791548
 30
0.0
 10
2.1978982522
 20
12.5486007686
 30
0.0
 10
2.1927932266
 20
12.5456286706
 30
0.0
 11
2.3513704976
 21
12.5710538349
 31
0.0
 11
2.3515282588
 21
12.5759007266
 31
0.0
 11
2.3513391825
 21
12.5807455438
 31
0.0
 11
2.350800077
 21
12.5855651033
 31
0.0
 11
2.3499002005
 21
12.5903239352
 31
0.0
 11
2.3493107679
 21
12.5926681135
 31
0.0
 11
2.3486260955
 21
12.5949821508
 31
0.0
 11
2.3478444871
 21
12.5972610179
 31
0.0
 11
2.3469636896
 21
12.5994979417
 31
0.0
 11
2.3448924963
 21
12.6038094202
 31
0.0
 11
2.3436960083
 21
12.6058654643
 31
0.0
 11
2.3423881978
 21
12.6078427045
 31
0.0
 11
2.3409659535
 21
12.6097314599
 31
0.0
 11
2.3394253448
 21
12.6115166984
 31
0.0
 11
2.3377618815
 21
12.613179733
 31
0.0
 11
2.3359710626
 21
12.6147018056
 31
0.0
 11
2.3340483869
 21
12.6160641586
 31
0.0
 11
2.3319896056
 21
12.6172480297
 31
0.0
 11
2.3297948831
 21
12.6182345804
 31
0.0
 11
2.3274681434
 21
12.6190049071
 31
0.0
 11
2.3250134307
 21
12.6195401042
 31
0.0
 11
2.3224347891
 21
12.6198212661
 31
0.0
 11
2.3197379029
 21
12.6198345502
 31
0.0
 11
2.316935369
 21
12.6195874521
 31
0.0
 11
2.314041605
 21
12.619093088
 31
0.0
 11
2.3110710283
 21
12.618364574
 31
0.0
 11
2.3080380134
 21
12.6174150655
 31
0.0
 11
2.3049538448
 21
12.6162605201
 31
0.0
 11
2.3018247114
 21
12.6149215169
 31
0.0
 11
2.2986563258
 21
12.6134190669
 31
0.0
 11
2.2954544005
 21
12.6117741811
 31
0.0
 11
2.2922245896
 21
12.6100077595
 31
0.0
 11
2.2856925147
 21
12.6061723463
 31
0.0
 11
2.2790680683
 21
12.6020096128
 31
0.0
 11
2.2757225997
 21
12.5998335826
 31
0.0
 11
2.272355377
 21
12.5976068855
 31
0.0
 11
2.2655553916
 21
12.5930273835
 31
0.0
 11
2.2621224739
 21
12.5906874019
 31
0.0
 11
2.2586674998
 21
12.588322333
 31
0.0
 11
2.251690935
 21
12.5835359897
 31
0.0
 11
2.2446247297
 21
12.5787029689
 31
0.0
 11
2.2374684302
 21
12.5738550744
 31
0.0
 11
2.2302236395
 21
12.569015969
 31
0.0
 11
2.2228925573
 21
12.5642070898
 31
0.0
 11
2.2079855362
 21
12.5547525736
 31
0.0
 11
2.1927932266
 21
12.5456286706
 31
0.0
  0
SPLINE
  5
321
100
AcDbEntity
  8
0
100
AcDbSpline
 62
6
  6
CONTINUOUS
 70
0
 71
3
 72
11
 73
7
 74
5
 42
0.0000001
 43
0.0000001
 44
0.0000000001
 12
-0.1389485195
 22
-0.3461135142
 32
0.0
 13
-0.186885346
 23
-0.3227617128
 33
0.0
 40
0.0
 40
0.0
 40
0.0
 40
0.0
 40
0.2506351822
 40
0.5006334459
 40
0.7503146821
 40
1.0
 40
1.0
 40
1.0
 40
1.0
 10
1.9949889621
 20
11.6567014591
 30
0.0
 10
1.9833804996
 20
11.6277853845
 30
0.0
 10
1.9591678292
 20
11.5704321423
 30
0.0
 10
1.9198348697
 20
11.485829355
 30
0.0
 10
1.8775482897
 20
11.4027959463
 30
0.0
 10
1.8473998846
 20
11.3485081753
 30
0.0
 10
1.831845709
 20
11.3216452217
 30
0.0
 11
1.9949889621
 21
11.6567014591
 31
0.0
 11
1.9586278543
 21
11.5705856547
 31
0.0
 11
1.9193169428
 21
11.4860376803
 31
0.0
 11
1.8770562277
 21
11.403057536
 31
0.0
 11
1.831845709
 21
11.3216452217
 31
0.0
  0
LINE
  5
322
100
AcDbEntity
  8
0
100
AcDbLine
 62
6
  6
CONTINUOUS
 10
31.2686454974
 20
11.2720595521
 11
31.2351425415
 21
11.3216452217
  0
SPLINE
  5
323
100
AcDbEntity
  8
0
100
AcDbSpline
 62
6
  6
CONTINUOUS
 70
0
 71
3
 72
9
 73
5
 74
3
 42
0.0000001
 43
0.0000001
 44
0.0000000001
 12
0.0357337719
 22
-0.0502371482
 32
0.0
 13
0.0376306816
 23
-0.0488324207
 33
0.0
 40
0.0
 40
0.0
 40
0.0
 40
0.0
 40
0.4994384963
 40
1.0
 40
1.0
 40
1.0
 40
1.0
 10
31.2351425415
 20
11.3216452217
 30
0.0
 10
31.2410914819
 20
11.3132817664
 30
0.0
 10
31.2531387061
 20
11.2966323311
 30
0.0
 10
31.2654915078
 20
11.2802074287
 30
0.0
 10
31.2717703313
 20
11.2720595521
 30
0.0
 11
31.2351425415
 21
11.3216452217
 31
0.0
 11
31.2532013999
 21
11.2967070357
 31
0.0
 11
31.2717703313
 21
11.2720595521
 31
0.0
  0
LINE
  5
324
100
AcDbEntity
  8
0
100
AcDbLine
 62
6
  6
CONTINUOUS
 10
31.3321470607
 20
11.2720595521
 11
31.3057258949
 21
11.3216452217
  0
SPLINE
  5
325
100
AcDbEntity
  8
0
100
AcDbSpline
 62
6
  6
CONTINUOUS
 70
0
 71
3
 72
9
 73
5
 74
3
 42
0.0000001
 43
0.0000001
 44
0.0000000001
 12
0.0298501588
 22
-0.0501918805
 32
0.0
 13
0.0320071735
 23
-0.0488446281
 33
0.0
 40
0.0
 40
0.0
 40
0.0
 40
0.0
 40
0.4996007281
 40
1.0
 40
1.0
 40
1.0
 40
1.0
 10
31.3057258949
 20
11.3216452217
 30
0.0
 10
31.3106969486
 20
11.3132865883
 30
0.0
 10
31.3207906335
 20
11.2966409495
 30
0.0
 10
31.3312274544
 20
11.2802068242
 30
0.0
 10
31.3365662432
 20
11.2720595521
 30
0.0
 11
31.3057258949
 21
11.3216452217
 31
0.0
 11
31.3208682203
 21
11.2967070357
 31
0.0
 11
31.3365662432
 21
11.2720595521
 31
0.0
  0
LINE
  5
326
100
AcDbEntity
  8
0
100
AcDbLine
 62
6
  6
CONTINUOUS
 10
31.4152507289
 20
11.2720595521
 11
31.397711912
 21
11.3216452217
  0
SPLINE
  5
327
100
AcDbEntity
  8
0
100
AcDbSpline
 62
6
  6
CONTINUOUS
 70
0
 71
3
 72
9
 73
5
 74
3
 42
0.0000001
 43
0.0000001
 44
0.0000000001
 12
0.021906741
 22
-0.0500598803
 32
0.0
 13
0.0242531915
 23
-0.0489661068
 33
0.0
 40
0.0
 40
0.0
 40
0.0
 40
0.0
 40
0.5002482957
 40
1.0
 40
1.0
 40
1.0
 40
1.0
 10
31.397711912
 20
11.3216452217
 30
0.0
 10
31.4013648486
 20
11.3132977651
 30
0.0
 10
31.4088101042
 20
11.2966733582
 30
0.0
 10
31.4166229087
 20
11.2802165172
 30
0.0
 10
31.4206631
 20
11.2720595521
 30
0.0
 11
31.397711912
 21
11.3216452217
 31
0.0
 11
31.4089057799
 21
11.2967070357
 31
0.0
 11
31.4206631
 21
11.2720595521
 31
0.0
  0
SPLINE
  5
328
100
AcDbEntity
  8
0
100
AcDbSpline
 62
6
  6
CONTINUOUS
 70
0
 71
3
 72
10
 73
6
 74
4
 42
0.0000001
 43
0.0000001
 44
0.0000000001
 12
-0.006608551
 22
0.0497078031
 32
0.0
 13
-0.0079482188
 23
0.0495112559
 33
0.0
 40
0.0
 40
0.0
 40
0.0
 40
0.0
 40
0.2473583893
 40
0.4965917761
 40
1.0
 40
1.0
 40
1.0
 40
1.0
 10
31.5122931243
 20
11.2720595521
 30
0.0
 10
31.5117482308
 20
11.2761580994
 30
0.0
 10
31.5105993003
 20
11.2843789849
 30
0.0
 10
31.5081301177
 20
11.3009107786
 30
0.0
 10
31.5061656305
 20
11.3133370972
 30
0.0
 10
31.5048318976
 20
11.3216452217
 30
0.0
 11
31.5122931243
 21
11.2720595521
 31
0.0
 11
31.5105844726
 21
11.2843451332
 31
0.0
 11
31.5087460897
 21
11.2967070365
 31
0.0
 11
31.5048318976
 21
11.3216452217
 31
0.0
  0
SPLINE
  5
329
100
AcDbEntity
  8
0
100
AcDbSpline
 62
6
  6
CONTINUOUS
 70
0
 71
3
 72
9
 73
5
 74
3
 42
0.0000001
 43
0.0000001
 44
0.0000000001
 12
0.0124965461
 22
-0.0498509584
 32
0.0
 13
0.0148387187
 23
-0.0492046151
 33
0.0
 40
0.0
 40
0.0
 40
0.0
 40
0.0
 40
0.5013673001
 40
1.0
 40
1.0
 40
1.0
 40
1.0
 10
31.5048318976
 20
11.3216452217
 30
0.0
 10
31.5069203508
 20
11.3133140082
 30
0.0
 10
31.511212555
 20
11.2967285693
 30
0.0
 10
31.515863483
 20
11.2802378954
 30
0.0
 10
31.5183298398
 20
11.2720595521
 30
0.0
 11
31.5048318976
 21
11.3216452217
 31
0.0
 11
31.5113144646
 21
11.2967070357
 31
0.0
 11
31.5183298398
 21
11.2720595521
 31
0.0
  0
SPLINE
  5
32A
100
AcDbEntity
  8
0
100
AcDbSpline
 62
6
  6
CONTINUOUS
 70
0
 71
3
 72
10
 73
6
 74
4
 42
0.0000001
 43
0.0000001
 44
0.0000000001
 12
0.0043205466
 22
0.0494986997
 32
0.0
 13
0.0023159836
 23
0.0496328986
 33
0.0
 40
0.0
 40
0.0
 40
0.0
 40
0.0
 40
0.2480377943
 40
0.4973806687
 40
1.0
 40
1.0
 40
1.0
 40
1.0
 10
31.616660968
 20
11.2720595521
 30
0.0
 10
31.6170181876
 20
11.2761520682
 30
0.0
 10
31.6176643943
 20
11.2843648379
 30
0.0
 10
31.6187496491
 20
11.3008917927
 30
0.0
 10
31.6193977825
 20
11.3133297369
 30
0.0
 10
31.6197858019
 20
11.3216452217
 30
0.0
 11
31.616660968
 21
11.2720595521
 31
0.0
 11
31.6176362327
 21
11.2843451332
 31
0.0
 11
31.6184563146
 21
11.2967070366
 31
0.0
 11
31.6197858019
 21
11.3216452217
 31
0.0
  0
SPLINE
  5
32B
100
AcDbEntity
  8
0
100
AcDbSpline
 62
6
  6
CONTINUOUS
 70
0
 71
3
 72
10
 73
6
 74
4
 42
0.0000001
 43
0.0000001
 44
0.0000000001
 12
0.0023159836
 22
-0.0496328984
 32
0.0
 13
0.0043205466
 23
-0.0494986996
 33
0.0
 40
0.0
 40
0.0
 40
0.0
 40
0.0
 40
0.5026193517
 40
0.7519622093
 40
1.0
 40
1.0
 40
1.0
 40
1.0
 10
31.6197858019
 20
11.3216452217
 30
0.0
 10
31.6201738213
 20
11.3133297366
 30
0.0
 10
31.6208219506
 20
11.3008917921
 30
0.0
 10
31.6219072233
 20
11.2843648386
 30
0.0
 10
31.6225534162
 20
11.2761520681
 30
0.0
 10
31.6229106358
 20
11.2720595521
 30
0.0
 11
31.6197858019
 21
11.3216452217
 31
0.0
 11
31.6211152916
 21
11.2967070357
 31
0.0
 11
31.6219353793
 21
11.2843451336
 31
0.0
 11
31.6229106358
 21
11.2720595521
 31
0.0
  0
SPLINE
  5
32C
100
AcDbEntity
  8
0
100
AcDbSpline
 62
6
  6
CONTINUOUS
 70
0
 71
3
 72
9
 73
5
 74
3
 42
0.0000001
 43
0.0000001
 44
0.0000000001
 12
0.0148387187
 22
0.0492046151
 32
0.0
 13
0.0124965461
 23
0.0498509584
 33
0.0
 40
0.0
 40
0.0
 40
0.0
 40
0.0
 40
0.4986327227
 40
1.0
 40
1.0
 40
1.0
 40
1.0
 10
31.721241764
 20
11.2720595521
 30
0.0
 10
31.7237081209
 20
11.2802378958
 30
0.0
 10
31.7283590524
 20
11.2967285687
 30
0.0
 10
31.7326512531
 20
11.3133140086
 30
0.0
 10
31.7347397062
 20
11.3216452217
 30
0.0
 11
31.721241764
 21
11.2720595521
 31
0.0
 11
31.7282571413
 21
11.2967070364
 31
0.0
 11
31.7347397062
 21
11.3216452217
 31
0.0
  0
SPLINE
  5
32D
100
AcDbEntity
  8
0
100
AcDbSpline
 62
6
  6
CONTINUOUS
 70
0
 71
3
 72
10
 73
6
 74
4
 42
0.0000001
 43
0.0000001
 44
0.0000000001
 12
-0.0079482188
 22
-0.0495112558
 32
0.0
 13
-0.006608551
 23
-0.0497078031
 33
0.0
 40
0.0
 40
0.0
 40
0.0
 40
0.0
 40
0.5034082334
 40
0.752641583
 40
1.0
 40
1.0
 40
1.0
 40
1.0
 10
31.7347397062
 20
11.3216452217
 30
0.0
 10
31.7334059733
 20
11.3133370971
 30
0.0
 10
31.7314414826
 20
11.3009107794
 30
0.0
 10
31.7289723154
 20
11.2843789836
 30
0.0
 10
31.7278233731
 20
11.2761580999
 30
0.0
 10
31.7272784796
 20
11.2720595521
 30
0.0
 11
31.7347397062
 21
11.3216452217
 31
0.0
 11
31.7308255161
 21
11.2967070357
 31
0.0
 11
31.7289871384
 21
11.2843451336
 31
0.0
 11
31.7272784796
 21
11.2720595521
 31
0.0
  0
SPLINE
  5
32E
100
AcDbEntity
  8
0
100
AcDbSpline
 62
6
  6
CONTINUOUS
 70
0
 71
3
 72
9
 73
5
 74
3
 42
0.0000001
 43
0.0000001
 44
0.0000000001
 12
0.0242531915
 22
0.0489661068
 32
0.0
 13
0.021906741
 23
0.0500598803
 33
0.0
 40
0.0
 40
0.0
 40
0.0
 40
0.0
 40
0.4997517306
 40
1.0
 40
1.0
 40
1.0
 40
1.0
 10
31.8189085039
 20
11.2720595521
 30
0.0
 10
31.8229486953
 20
11.2802165176
 30
0.0
 10
31.8307615027
 20
11.2966733574
 30
0.0
 10
31.8382067555
 20
11.3132977655
 30
0.0
 10
31.8418596919
 20
11.3216452217
 30
0.0
 11
31.8189085039
 21
11.2720595521
 31
0.0
 11
31.8306658259
 21
11.2967070364
 31
0.0
 11
31.8418596919
 21
11.3216452217
 31
0.0
  0
LINE
  5
32F
100
AcDbEntity
  8
0
100
AcDbLine
 62
6
  6
CONTINUOUS
 10
31.8418596919
 20
11.3216452217
 11
31.8243208749
 21
11.2720595521
  0
SPLINE
  5
330
100
AcDbEntity
  8
0
100
AcDbSpline
 62
6
  6
CONTINUOUS
 70
0
 71
3
 72
9
 73
5
 74
3
 42
0.0000001
 43
0.0000001
 44
0.0000000001
 12
0.0320071735
 22
0.0488446281
 32
0.0
 13
0.0298501588
 23
0.0501918805
 33
0.0
 40
0.0
 40
0.0
 40
0.0
 40
0.0
 40
0.5003992978
 40
1.0
 40
1.0
 40
1.0
 40
1.0
 10
31.9030053606
 20
11.2720595521
 30
0.0
 10
31.9083441497
 20
11.2802068246
 30
0.0
 10
31.9187809726
 20
11.2966409487
 30
0.0
 10
31.9288746555
 20
11.3132865887
 30
0.0
 10
31.933845709
 20
11.3216452217
 30
0.0
 11
31.9030053606
 21
11.2720595521
 31
0.0
 11
31.9187033854
 21
11.2967070364
 31
0.0
 11
31.933845709
 21
11.3216452217
 31
0.0
  0
LINE
  5
331
100
AcDbEntity
  8
0
100
AcDbLine
 62
6
  6
CONTINUOUS
 10
31.933845709
 20
11.3216452217
 11
31.9074245431
 21
11.2720595521
  0
SPLINE
  5
332
100
AcDbEntity
  8
0
100
AcDbSpline
 62
6
  6
CONTINUOUS
 70
0
 71
3
 72
9
 73
5
 74
3
 42
0.0000001
 43
0.0000001
 44
0.0000000001
 12
0.0376306816
 22
0.0488324207
 32
0.0
 13
0.0357337719
 23
0.0502371482
 33
0.0
 40
0.0
 40
0.0
 40
0.0
 40
0.0
 40
0.5005615267
 40
1.0
 40
1.0
 40
1.0
 40
1.0
 10
31.9678012725
 20
11.2720595521
 30
0.0
 10
31.9740800963
 20
11.2802074291
 30
0.0
 10
31.9864328994
 20
11.2966323305
 30
0.0
 10
31.9984801222
 20
11.3132817668
 30
0.0
 10
32.0044290624
 20
11.3216452217
 30
0.0
 11
31.9678012725
 21
11.2720595521
 31
0.0
 11
31.9863702055
 21
11.2967070364
 31
0.0
 11
32.0044290624
 21
11.3216452217
 31
0.0
  0
LINE
  5
333
100
AcDbEntity
  8
0
100
AcDbLine
 62
6
  6
CONTINUOUS
 10
32.0044290624
 20
11.3216452217
 11
31.9709261064
 21
11.2720595521
  0
SPLINE
  5
334
100
AcDbEntity
  8
0
100
AcDbSpline
 62
6
  6
CONTINUOUS
 70
0
 71
3
 72
27
 73
23
 74
21
 42
0.0000001
 43
0.0000001
 44
0.0000000001
 12
-0.0384778085
 22
0.0497026015
 32
0.0
 13
0.0
 23
0.0628561082
 33
0.0
 40
0.0
 40
0.0
 40
0.0
 40
0.0
 40
0.0158210835
 40
0.0328153366
 40
0.0510102225
 40
0.0704227461
 40
0.0910534036
 40
0.1128933556
 40
0.1359291229
 40
0.1601436579
 40
0.2120240594
 40
0.2683506424
 40
0.3288483159
 40
0.3931868816
 40
0.4610232875
 40
0.5319972437
 40
0.6057120213
 40
0.6817596481
 40
0.7597262572
 40
0.8391278606
 40
0.919406644
 40
1.0
 40
1.0
 40
1.0
 40
1.0
 10
31.3496917242
 20
12.7158545705
 30
0.0
 10
31.349488804
 20
12.7161166868
 30
0.0
 10
31.3490866824
 20
12.7166750402
 30
0.0
 10
31.3485129874
 20
12.7175773441
 30
0.0
 10
31.3479484078
 20
12.7185728457
 30
0.0
 10
31.3473940016
 20
12.7196602205
 30
0.0
 10
31.3468504118
 20
12.7208376655
 30
0.0
 10
31.3463184133
 20
12.7221031198
 30
0.0
 10
31.3457988047
 20
12.723454456
 30
0.0
 10
31.3451076749
 20
12.7254133209
 30
0.0
 10
31.344286018
 20
12.7280645477
 30
0.0
 10
31.3433839621
 20
12.7314830946
 30
0.0
 10
31.3425495609
 20
12.7351867345
 30
0.0
 10
31.3417875592
 20
12.7391516551
 30
0.0
 10
31.3411032258
 20
12.7433531953
 30
0.0
 10
31.3405016077
 20
12.7477656603
 30
0.0
 10
31.3399857003
 20
12.7523620761
 30
0.0
 10
31.3395586832
 20
12.7571146895
 30
0.0
 10
31.339224097
 20
12.7619941166
 30
0.0
 10
31.3389839562
 20
12.7669678401
 30
0.0
 10
31.3388389323
 20
12.7720002697
 30
0.0
 10
31.3388064027
 20
12.7753709572
 30
0.0
 10
31.3388064027
 20
12.7770595521
 30
0.0
 11
31.3496917242
 21
12.7158545705
 31
0.0
 11
31.3491087427
 21
12.7166602173
 31
0.0
 11
31.348533932
 21
12.7175605662
 31
0.0
 11
31.3479682193
 21
12.7185545112
 31
0.0
 11
31.3474125198
 21
12.719640824
 31
0.0
 11
31.3468676769
 21
12.7208175738
 31
0.0
 11
31.3463345087
 21
12.7220825802
 31
0.0
 11
31.3458138334
 21
12.7234336626
 31
0.0
 11
31.3453064691
 21
12.7248686404
 31
0.0
 11
31.3443349458
 21
12.7279815593
 31
0.0
 11
31.3434263926
 21
12.7314034678
 31
0.0
 11
31.3425863347
 21
12.7351121652
 31
0.0
 11
31.3418197538
 21
12.7390829172
 31
0.0
 11
31.3411316246
 21
12.7432909569
 31
0.0
 11
31.3405265509
 21
12.7477108794
 31
0.0
 11
31.3400079191
 21
12.7523151861
 31
0.0
 11
31.3395788665
 21
12.7570759493
 31
0.0
 11
31.3392424912
 21
12.7619650692
 31
0.0
 11
31.3390009088
 21
12.7669500946
 31
0.0
 11
31.3388552014
 21
12.7719940024
 31
0.0
 11
31.3388064027
 21
12.7770595521
 31
0.0
  0
SPLINE
  5
335
100
AcDbEntity
  8
0
100
AcDbSpline
 62
6
  6
CONTINUOUS
 70
0
 71
3
 72
30
 73
26
 74
24
 42
0.0000001
 43
0.0000001
 44
0.0000000001
 12
0.0412408102
 22
0.0491730737
 32
0.0
 13
0.0
 23
0.0641778435
 33
0.0
 40
0.0
 40
0.0
 40
0.0
 40
0.0
 40
0.0015241046
 40
0.0035482304
 40
0.0061014324
 40
0.0091980421
 40
0.0128451041
 40
0.0170440397
 40
0.0270934084
 40
0.0393316485
 40
0.0537364284
 40
0.0702822315
 40
0.0889418702
 40
0.1096830299
 40
0.1324533497
 40
0.1838472102
 40
0.2426533181
 40
0.308376577
 40
0.3803903831
 40
0.4580201855
 40
0.5405817468
 40
0.6273346145
 40
0.7175169464
 40
0.8103371818
 40
1.0
 40
1.0
 40
1.0
 40
1.0
 10
31.6581752474
 20
12.712990452
 30
0.0
 10
31.6581961992
 20
12.7130154337
 30
0.0
 10
31.6582360305
 20
12.7130808293
 30
0.0
 10
31.6582879946
 20
12.7132006594
 30
0.0
 10
31.6583402122
 20
12.7133564927
 30
0.0
 10
31.6583925024
 20
12.7135484356
 30
0.0
 10
31.6584447949
 20
12.7137766664
 30
0.0
 10
31.6585189195
 20
12.7141522915
 30
0.0
 10
31.658608516
 20
12.7147119393
 30
0.0
 10
31.6587102585
 20
12.7154903191
 30
0.0
 10
31.6588109839
 20
12.7164087891
 30
0.0
 10
31.6589103947
 20
12.7174654451
 30
0.0
 10
31.6590081147
 20
12.718658317
 30
0.0
 10
31.659103834
 20
12.7199848877
 30
0.0
 10
31.6592338153
 20
12.722011013
 30
0.0
 10
31.659386884
 20
12.7248515452
 30
0.0
 10
31.6595530755
 20
12.728611372
 30
0.0
 10
31.6597062124
 20
12.7328131902
 30
0.0
 10
31.6598450891
 20
12.7374183816
 30
0.0
 10
31.6599683343
 20
12.742384349
 30
0.0
 10
31.6600745547
 20
12.7476660811
 30
0.0
 10
31.6601628986
 20
12.7532167067
 30
0.0
 10
31.6602325606
 20
12.7589870747
 30
0.0
 10
31.6602997776
 20
12.7669590898
 30
0.0
 10
31.6603197089
 20
12.7730021685
 30
0.0
 10
31.6603197089
 20
12.7770595521
 30
0.0
 11
31.6581752474
 21
12.712990452
 31
0.0
 11
31.658228644
 21
12.7130724053
 31
0.0
 11
31.6582819561
 21
12.7131908657
 31
0.0
 11
31.658335153
 21
12.7133458491
 31
0.0
 11
31.6583882039
 21
12.7135373712
 31
0.0
 11
31.6584410783
 21
12.7137653814
 31
0.0
 11
31.6584937467
 21
12.714029663
 31
0.0
 11
31.6585983482
 21
12.7146660708
 31
0.0
 11
31.6587017739
 21
12.7154446553
 31
0.0
 11
31.6588037891
 21
12.7163634771
 31
0.0
 11
31.6589041591
 21
12.7174205968
 31
0.0
 11
31.6590026493
 21
12.7186140752
 31
0.0
 11
31.6590990289
 21
12.7199417043
 31
0.0
 11
31.6591930857
 21
12.7214000243
 31
0.0
 11
31.6593734026
 21
12.7246934389
 31
0.0
 11
31.6595419442
 21
12.7284637229
 31
0.0
 11
31.6596970989
 21
12.7326788453
 31
0.0
 11
31.6598375142
 21
12.7372984026
 31
0.0
 11
31.6599619314
 21
12.7422789621
 31
0.0
 11
31.6600691408
 21
12.7475765004
 31
0.0
 11
31.6601582345
 21
12.7531433994
 31
0.0
 11
31.6602284186
 21
12.7589306815
 31
0.0
 11
31.6602789611
 21
12.7648874696
 31
0.0
 11
31.6603197089
 21
12.7770595521
 31
0.0
  0
SPLINE
  5
336
100
AcDbEntity
  8
0
100
AcDbSpline
 62
6
  6
CONTINUOUS
 70
0
 71
3
 72
30
 73
26
 74
24
 42
0.0000001
 43
0.0000001
 44
0.0000000001
 12
-0.040868469
 22
0.0495283576
 32
0.0
 13
-0.0
 23
0.0642128489
 33
0.0
 40
0.0
 40
0.0
 40
0.0
 40
0.0
 40
0.0038704557
 40
0.008151133
 40
0.0128574049
 40
0.0179998895
 40
0.0296184166
 40
0.0430425303
 40
0.0582836518
 40
0.0753409897
 40
0.0942061883
 40
0.1148570744
 40
0.1372545093
 40
0.161355838
 40
0.1871167346
 40
0.2144916809
 40
0.2738949671
 40
0.339119003
 40
0.4096186643
 40
0.4848379013
 40
0.5641975663
 40
0.6470713596
 40
0.8207809213
 40
0.910123166
 40
1.0
 40
1.0
 40
1.0
 40
1.0
 10
31.5042415726
 20
12.7134424529
 30
0.0
 10
31.504188846
 20
12.713506352
 30
0.0
 10
31.5040840634
 20
12.7136461365
 30
0.0
 10
31.5039351541
 20
12.7138777774
 30
0.0
 10
31.5037868116
 20
12.7141415013
 30
0.0
 10
31.5035814475
 20
12.71455271
 30
0.0
 10
31.5033298697
 20
12.7151484838
 30
0.0
 10
31.5030419875
 20
12.715961601
 30
0.0
 10
31.5027577842
 20
12.7168983777
 30
0.0
 10
31.5024778994
 20
12.7179573218
 30
0.0
 10
31.5022030908
 20
12.7191367897
 30
0.0
 10
31.501933991
 20
12.7204345059
 30
0.0
 10
31.5016710528
 20
12.7218476273
 30
0.0
 10
31.5014148575
 20
12.7233729966
 30
0.0
 10
31.5011659482
 20
12.7250074153
 30
0.0
 10
31.5008354586
 20
12.7273935163
 30
0.0
 10
31.5004486633
 20
12.7306242361
 30
0.0
 10
31.5000330438
 20
12.7347802616
 30
0.0
 10
31.4996573074
 20
12.7392798616
 30
0.0
 10
31.4993249767
 20
12.7440861743
 30
0.0
 10
31.4990391706
 20
12.749160766
 30
0.0
 10
31.4987176369
 20
12.7563443147
 30
0.0
 10
31.4985069121
 20
12.7637462257
 30
0.0
 10
31.4983997599
 20
12.7712997152
 30
0.0
 10
31.498381558
 20
12.7751358029
 30
0.0
 10
31.498381558
 20
12.7770595521
 30
0.0
 11
31.5042415726
 21
12.7134424529
 31
0.0
 11
31.504091677
 21
12.7136406951
 31
0.0
 11
31.5039422909
 21
12.7138714326
 31
0.0
 11
31.5037934883
 21
12.7141344621
 31
0.0
 11
31.5036453434
 21
12.7144295792
 31
0.0
 11
31.5033513229
 21
12.7151152581
 31
0.0
 11
31.5030608224
 21
12.7159268334
 31
0.0
 11
31.5027744347
 21
12.7168626691
 31
0.0
 11
31.5024927527
 21
12.7179211292
 31
0.0
 11
31.5022163687
 21
12.7191005669
 31
0.0
 11
31.5019458487
 21
12.7203987323
 31
0.0
 11
31.5016817188
 21
12.7218124733
 31
0.0
 11
31.5014245022
 21
12.7233385636
 31
0.0
 11
31.5011747216
 21
12.724973777
 31
0.0
 11
31.5009329002
 21
12.7267148874
 31
0.0
 11
31.5004752164
 21
12.7305017841
 31
0.0
 11
31.5000552129
 21
12.7346688926
 31
0.0
 11
31.4996761072
 21
12.7391799749
 31
0.0
 11
31.4993410779
 21
12.743998383
 31
0.0
 11
31.4990529705
 21
12.7490861423
 31
0.0
 11
31.4988138901
 21
12.7544023314
 31
0.0
 11
31.4984905692
 21
12.7655520303
 31
0.0
 11
31.4984089209
 21
12.7712883694
 31
0.0
 11
31.498381558
 21
12.7770595521
 31
0.0
  0
SPLINE
  5
337
100
AcDbEntity
  8
0
100
AcDbSpline
 62
6
  6
CONTINUOUS
 70
0
 71
3
 72
27
 73
23
 74
21
 42
0.0000001
 43
0.0000001
 44
0.0000000001
 12
0.039998465
 22
0.0497617903
 32
0.0
 13
-0.0
 23
0.0638444436
 33
0.0
 40
0.0
 40
0.0
 40
0.0
 40
0.0
 40
0.0122288131
 40
0.025866191
 40
0.0409583575
 40
0.057532941
 40
0.0756049761
 40
0.0951779967
 40
0.1162364937
 40
0.1387563841
 40
0.1627099115
 40
0.1880666174
 40
0.2428559207
 40
0.3028289184
 40
0.3675809988
 40
0.4366726891
 40
0.5096550356
 40
0.5860431067
 40
0.6653238115
 40
0.8304329904
 40
0.9150074065
 40
1.0
 40
1.0
 40
1.0
 40
1.0
 10
31.8126829266
 20
12.71437746
 30
0.0
 10
31.8128459712
 20
12.7145803025
 30
0.0
 10
31.8131684242
 20
12.7150275366
 30
0.0
 10
31.8136212153
 20
12.7157731099
 30
0.0
 10
31.8140682224
 20
12.7166279962
 30
0.0
 10
31.8145086506
 20
12.7175909733
 30
0.0
 10
31.8149417185
 20
12.7186608427
 30
0.0
 10
31.8153664833
 20
12.7198359811
 30
0.0
 10
31.8157823758
 20
12.7211141788
 30
0.0
 10
31.8161886696
 20
12.7224929021
 30
0.0
 10
31.8165846383
 20
12.7239695224
 30
0.0
 10
31.8171114993
 20
12.7261215042
 30
0.0
 10
31.8177334711
 20
12.7290385923
 30
0.0
 10
31.8184092708
 20
12.7327991996
 30
0.0
 10
31.8190283719
 20
12.7368776301
 30
0.0
 10
31.8195862521
 20
12.741244061
 30
0.0
 10
31.8200780516
 20
12.7458674845
 30
0.0
 10
31.8205003654
 20
12.7507154392
 30
0.0
 10
31.8209736212
 20
12.7575259141
 30
0.0
 10
31.8212843502
 20
12.7645212648
 30
0.0
 10
31.8214421576
 20
12.7716420744
 30
0.0
 10
31.8214689134
 20
12.7752507838
 30
0.0
 10
31.8214689134
 20
12.7770595521
 30
0.0
 11
31.8126829266
 21
12.71437746
 31
0.0
 11
31.8131427055
 21
12.71500846
 31
0.0
 11
31.8135974417
 21
12.7157509441
 31
0.0
 11
31.8140463167
 21
12.7166035529
 31
0.0
 11
31.8144885122
 21
12.7175649269
 31
0.0
 11
31.8149232096
 21
12.7186337067
 31
0.0
 11
31.815349605
 21
12.719808338
 31
0.0
 11
31.8157669581
 21
12.7210863875
 31
0.0
 11
31.8161745472
 21
12.7224651745
 31
0.0
 11
31.8165716502
 21
12.7239420179
 31
0.0
 11
31.8169575453
 21
12.725514237
 31
0.0
 11
31.8176928239
 21
12.7289340787
 31
0.0
 11
31.8183748323
 21
12.7327017924
 31
0.0
 11
31.8189989434
 21
12.736788471
 31
0.0
 11
31.8195607671
 21
12.7411636668
 31
0.0
 11
31.8200559708
 21
12.7457967948
 31
0.0
 11
31.820481092
 21
12.7506551846
 31
0.0
 11
31.8208333444
 21
12.7557045451
 31
0.0
 11
31.8213087726
 21
12.7662351221
 31
0.0
 11
31.8214287262
 21
12.771633396
 31
0.0
 11
31.8214689134
 21
12.7770595521
 31
0.0
  0
SPLINE
  5
338
100
AcDbEntity
  8
0
100
AcDbSpline
 62
6
  6
CONTINUOUS
 70
0
 71
3
 72
14
 73
10
 74
8
 42
0.0000001
 43
0.0000001
 44
0.0000000001
 12
0.0146635801
 22
0.0358305689
 32
0.0
 13
0.0
 23
0.0387149874
 33
0.0
 40
0.0
 40
0.0
 40
0.0
 40
0.0
 40
0.2351945358
 40
0.3577089902
 40
0.4829125082
 40
0.6103558478
 40
0.7394758994
 40
0.8695895995
 40
1.0
 40
1.0
 40
1.0
 40
1.0
 10
2.1603410385
 20
12.7391991948
 30
0.0
 10
2.1614906364
 20
12.7420082462
 30
0.0
 10
2.1629856481
 20
12.7463884157
 30
0.0
 10
2.1645466597
 20
12.7524231144
 30
0.0
 10
2.1655288806
 20
12.7571660671
 30
0.0
 10
2.166298244
 20
12.7620340619
 30
0.0
 10
2.1668503849
 20
12.7669952336
 30
0.0
 10
2.1671837815
 20
12.7720140755
 30
0.0
 10
2.1672585819
 20
12.7753766064
 30
0.0
 10
2.1672585819
 20
12.7770595521
 30
0.0
 11
2.1603410385
 21
12.7391991948
 31
0.0
 11
2.1633101524
 21
12.7478070672
 31
0.0
 11
2.1645007416
 21
12.7523983554
 31
0.0
 11
2.165485611
 21
12.7571445002
 31
0.0
 11
2.1662576821
 21
12.7620176859
 31
0.0
 11
2.166812162
 21
12.7669857202
 31
0.0
 11
2.1671465831
 21
12.7720119574
 31
0.0
 11
2.1672585819
 21
12.7770595521
 31
0.0
  0
SPLINE
  5
339
100
AcDbEntity
  8
0
100
AcDbSpline
 62
6
  6
CONTINUOUS
 70
0
 71
3
 72
23
 73
19
 74
17
 42
0.0000001
 43
0.0000001
 44
0.0000000001
 12
0.0360758019
 22
0.0492483412
 32
0.0
 13
-0.0
 23
0.0610480351
 33
0.0
 40
0.0
 40
0.0
 40
0.0
 40
0.0
 40
0.0389731089
 40
0.0818333483
 40
0.1285611389
 40
0.179082394
 40
0.2332848716
 40
0.2909883509
 40
0.3519572316
 40
0.4159398892
 40
0.4826729782
 40
0.5518662223
 40
0.6232093877
 40
0.6963871705
 40
0.7710724882
 40
0.8468634482
 40
0.923319889
 40
1.0
 40
1.0
 40
1.0
 40
1.0
 10
31.9665808265
 20
12.7179784781
 30
0.0
 10
31.9670494886
 20
12.7186182651
 30
0.0
 10
31.9679652135
 20
12.7200122744
 30
0.0
 10
31.969225043
 20
12.7223073829
 30
0.0
 10
31.9704305442
 20
12.7248931036
 30
0.0
 10
31.9715751005
 20
12.7277561033
 30
0.0
 10
31.9726516261
 20
12.7308823753
 30
0.0
 10
31.9736547369
 20
12.7342551857
 30
0.0
 10
31.9745798587
 20
12.7378559354
 30
0.0
 10
31.9754218625
 20
12.7416653333
 30
0.0
 10
31.9761753822
 20
12.7456635757
 30
0.0
 10
31.9768366994
 20
12.7498297569
 30
0.0
 10
31.9774027996
 20
12.7541421969
 30
0.0
 10
31.9778704635
 20
12.7585787871
 30
0.0
 10
31.9782361558
 20
12.7631157255
 30
0.0
 10
31.9784986529
 20
12.7677266093
 30
0.0
 10
31.9786570698
 20
12.7723828196
 30
0.0
 10
31.9786925855
 20
12.775499162
 30
0.0
 10
31.9786925855
 20
12.7770595521
 30
0.0
 11
31.9665808265
 21
12.7179784781
 31
0.0
 11
31.9678959041
 21
12.7199612325
 31
0.0
 11
31.9691626304
 21
12.7222506978
 31
0.0
 11
31.9703744028
 21
12.7248331698
 31
0.0
 11
31.9715246261
 21
12.727694886
 31
0.0
 11
31.9726067577
 21
12.730821893
 31
0.0
 11
31.9736150919
 21
12.7341971804
 31
0.0
 11
31.9745445968
 21
12.7378012796
 31
0.0
 11
31.975390259
 21
12.7416146525
 31
0.0
 11
31.9761471494
 21
12.745617648
 31
0.0
 11
31.9768113838
 21
12.7497892078
 31
0.0
 11
31.9773797874
 21
12.7541073184
 31
0.0
 11
31.9778491986
 21
12.7585499479
 31
0.0
 11
31.9782166159
 21
12.7630945116
 31
0.0
 11
31.9784803492
 21
12.7677138782
 31
0.0
 11
31.9786393529
 21
12.7723786846
 31
0.0
 11
31.9786925855
 21
12.7770595521
 31
0.0
  0
SPLINE
  5
33A
100
AcDbEntity
  8
0
100
AcDbSpline
 62
6
  6
CONTINUOUS
 70
0
 71
3
 72
21
 73
17
 74
15
 42
0.0000001
 43
0.0000001
 44
0.0000000001
 12
0.0281081726
 22
0.0460660183
 32
0.0
 13
-0.0
 23
0.0539643161
 33
0.0
 40
0.0
 40
0.0
 40
0.0
 40
0.0
 40
0.0492747711
 40
0.1008522557
 40
0.1546773715
 40
0.2106556641
 40
0.2686773166
 40
0.3286226133
 40
0.4537448249
 40
0.5186431864
 40
0.584882194
 40
0.6522982121
 40
0.720722195
 40
0.7899444993
 40
0.8597271698
 40
1.0
 40
1.0
 40
1.0
 40
1.0
 10
2.0152250915
 20
12.7249877136
 30
0.0
 10
2.0156867661
 20
12.7257443445
 30
0.0
 10
2.0165880069
 20
12.7273199571
 30
0.0
 10
2.0178459657
 20
12.7298028369
 30
0.0
 10
2.0190367091
 20
12.7324513891
 30
0.0
 10
2.0201569248
 20
12.7352555939
 30
0.0
 10
2.0212028518
 20
12.7382053774
 30
0.0
 10
2.0225120157
 20
12.7423783256
 30
0.0
 10
2.0236310735
 20
12.7467372917
 30
0.0
 10
2.0245710357
 20
12.7512505106
 30
0.0
 10
2.025194894
 20
12.7547677755
 30
0.0
 10
2.0257267245
 20
12.7583641582
 30
0.0
 10
2.0261638444
 20
12.7620273165
 30
0.0
 10
2.0265051259
 20
12.7657434151
 30
0.0
 10
2.0268320496
 20
12.7707568294
 30
0.0
 10
2.0269305454
 20
12.7745363096
 30
0.0
 10
2.0269305454
 20
12.7770595521
 30
0.0
 11
2.0152250915
 21
12.7249877136
 31
0.0
 11
2.0165480862
 21
12.7272943103
 31
0.0
 11
2.0178086479
 21
12.7297758393
 31
0.0
 11
2.0190022585
 21
12.7324238954
 31
0.0
 11
2.0201250907
 21
12.7352282962
 31
0.0
 11
2.0211733793
 21
12.7381786979
 31
0.0
 11
2.0221433596
 21
12.7412647571
 31
0.0
 11
2.0238340473
 21
12.7478017974
 31
0.0
 11
2.0245492247
 21
12.751230193
 31
0.0
 11
2.0251744463
 21
12.7547496324
 31
0.0
 11
2.0257073378
 21
12.7583484519
 31
0.0
 11
2.0261456002
 21
12.7620148041
 31
0.0
 11
2.0264878406
 21
12.7657346278
 31
0.0
 11
2.0267332663
 21
12.7694923959
 31
0.0
 11
2.0269305454
 21
12.7770595521
 31
0.0
  0
SPLINE
  5
33B
100
AcDbEntity
  8
0
100
AcDbSpline
 62
6
  6
CONTINUOUS
 70
0
 71
3
 72
23
 73
19
 74
17
 42
0.0000001
 43
0.0000001
 44
0.0000000001
 12
0.0360758019
 22
0.0492483412
 32
0.0
 13
-0.0
 23
0.0610480351
 33
0.0
 40
0.0
 40
0.0
 40
0.0
 40
0.0
 40
0.0389731089
 40
0.0818333483
 40
0.1285611389
 40
0.179082394
 40
0.2332848716
 40
0.2909883509
 40
0.3519572316
 40
0.4159398892
 40
0.4826729782
 40
0.5518662223
 40
0.6232093877
 40
0.6963871705
 40
0.7710724882
 40
0.8468634482
 40
0.923319889
 40
1.0
 40
1.0
 40
1.0
 40
1.0
 10
1.8645808265
 20
12.7179784781
 30
0.0
 10
1.8650494886
 20
12.7186182651
 30
0.0
 10
1.8659652135
 20
12.7200122744
 30
0.0
 10
1.867225043
 20
12.7223073829
 30
0.0
 10
1.8684305442
 20
12.7248931036
 30
0.0
 10
1.8695751005
 20
12.7277561033
 30
0.0
 10
1.8706516261
 20
12.7308823753
 30
0.0
 10
1.8716547369
 20
12.7342551857
 30
0.0
 10
1.8725798587
 20
12.7378559354
 30
0.0
 10
1.8734218625
 20
12.7416653333
 30
0.0
 10
1.8741753822
 20
12.7456635757
 30
0.0
 10
1.8748366994
 20
12.7498297569
 30
0.0
 10
1.8754027996
 20
12.7541421969
 30
0.0
 10
1.8758704635
 20
12.7585787871
 30
0.0
 10
1.8762361558
 20
12.7631157255
 30
0.0
 10
1.8764986529
 20
12.7677266093
 30
0.0
 10
1.8766570698
 20
12.7723828196
 30
0.0
 10
1.8766925855
 20
12.775499162
 30
0.0
 10
1.8766925855
 20
12.7770595521
 30
0.0
 11
1.8645808265
 21
12.7179784781
 31
0.0
 11
1.8658959041
 21
12.7199612325
 31
0.0
 11
1.8671626304
 21
12.7222506978
 31
0.0
 11
1.8683744028
 21
12.7248331698
 31
0.0
 11
1.8695246261
 21
12.727694886
 31
0.0
 11
1.8706067577
 21
12.730821893
 31
0.0
 11
1.8716150919
 21
12.7341971804
 31
0.0
 11
1.8725445968
 21
12.7378012796
 31
0.0
 11
1.873390259
 21
12.7416146525
 31
0.0
 11
1.8741471494
 21
12.745617648
 31
0.0
 11
1.8748113838
 21
12.7497892078
 31
0.0
 11
1.8753797874
 21
12.7541073184
 31
0.0
 11
1.8758491986
 21
12.7585499479
 31
0.0
 11
1.8762166159
 21
12.7630945116
 31
0.0
 11
1.8764803492
 21
12.7677138782
 31
0.0
 11
1.8766393529
 21
12.7723786846
 31
0.0
 11
1.8766925855
 21
12.7770595521
 31
0.0
  0
SPLINE
  5
33C
100
AcDbEntity
  8
0
100
AcDbSpline
 62
6
  6
CONTINUOUS
 70
0
 71
3
 72
27
 73
23
 74
21
 42
0.0000001
 43
0.0000001
 44
0.0000000001
 12
0.039998465
 22
0.0497617903
 32
0.0
 13
0.0
 23
0.0638444436
 33
0.0
 40
0.0
 40
0.0
 40
0.0
 40
0.0
 40
0.0122288131
 40
0.025866191
 40
0.0409583575
 40
0.057532941
 40
0.0756049761
 40
0.0951779967
 40
0.1162364937
 40
0.1387563841
 40
0.1627099115
 40
0.1880666174
 40
0.2428559207
 40
0.3028289184
 40
0.3675809988
 40
0.4366726891
 40
0.5096550356
 40
0.5860431067
 40
0.6653238115
 40
0.8304329904
 40
0.9150074065
 40
1.0
 40
1.0
 40
1.0
 40
1.0
 10
1.7106829266
 20
12.71437746
 30
0.0
 10
1.7108459712
 20
12.7145803025
 30
0.0
 10
1.7111684242
 20
12.7150275366
 30
0.0
 10
1.7116212153
 20
12.7157731099
 30
0.0
 10
1.7120682224
 20
12.7166279962
 30
0.0
 10
1.7125086506
 20
12.7175909733
 30
0.0
 10
1.7129417185
 20
12.7186608427
 30
0.0
 10
1.7133664833
 20
12.7198359811
 30
0.0
 10
1.7137823758
 20
12.7211141788
 30
0.0
 10
1.7141886696
 20
12.7224929021
 30
0.0
 10
1.7145846383
 20
12.7239695224
 30
0.0
 10
1.7151114993
 20
12.7261215042
 30
0.0
 10
1.7157334711
 20
12.7290385923
 30
0.0
 10
1.7164092708
 20
12.7327991996
 30
0.0
 10
1.7170283719
 20
12.7368776301
 30
0.0
 10
1.7175862521
 20
12.741244061
 30
0.0
 10
1.7180780516
 20
12.7458674845
 30
0.0
 10
1.7185003654
 20
12.7507154392
 30
0.0
 10
1.7189736212
 20
12.7575259141
 30
0.0
 10
1.7192843502
 20
12.7645212648
 30
0.0
 10
1.7194421576
 20
12.7716420744
 30
0.0
 10
1.7194689134
 20
12.7752507838
 30
0.0
 10
1.7194689134
 20
12.7770595521
 30
0.0
 11
1.7106829266
 21
12.71437746
 31
0.0
 11
1.7111427055
 21
12.71500846
 31
0.0
 11
1.7115974417
 21
12.7157509441
 31
0.0
 11
1.7120463167
 21
12.7166035529
 31
0.0
 11
1.7124885122
 21
12.7175649269
 31
0.0
 11
1.7129232096
 21
12.7186337067
 31
0.0
 11
1.713349605
 21
12.719808338
 31
0.0
 11
1.7137669581
 21
12.7210863875
 31
0.0
 11
1.7141745472
 21
12.7224651745
 31
0.0
 11
1.7145716502
 21
12.7239420179
 31
0.0
 11
1.7149575453
 21
12.725514237
 31
0.0
 11
1.7156928239
 21
12.7289340787
 31
0.0
 11
1.7163748323
 21
12.7327017924
 31
0.0
 11
1.7169989434
 21
12.736788471
 31
0.0
 11
1.7175607671
 21
12.7411636668
 31
0.0
 11
1.7180559708
 21
12.7457967948
 31
0.0
 11
1.718481092
 21
12.7506551846
 31
0.0
 11
1.7188333444
 21
12.7557045451
 31
0.0
 11
1.7193087726
 21
12.7662351221
 31
0.0
 11
1.7194287262
 21
12.771633396
 31
0.0
 11
1.7194689134
 21
12.7770595521
 31
0.0
  0
SPLINE
  5
33D
100
AcDbEntity
  8
0
100
AcDbSpline
 62
6
  6
CONTINUOUS
 70
0
 71
3
 72
30
 73
26
 74
24
 42
0.0000001
 43
0.0000001
 44
0.0000000001
 12
-0.040868469
 22
0.0495283576
 32
0.0
 13
0.0
 23
0.0642128489
 33
0.0
 40
0.0
 40
0.0
 40
0.0
 40
0.0
 40
0.0038704557
 40
0.008151133
 40
0.0128574049
 40
0.0179998895
 40
0.0296184166
 40
0.0430425303
 40
0.0582836518
 40
0.0753409897
 40
0.0942061883
 40
0.1148570744
 40
0.1372545093
 40
0.161355838
 40
0.1871167346
 40
0.2144916809
 40
0.2738949671
 40
0.339119003
 40
0.4096186643
 40
0.4848379013
 40
0.5641975663
 40
0.6470713596
 40
0.8207809213
 40
0.910123166
 40
1.0
 40
1.0
 40
1.0
 40
1.0
 10
1.4022415726
 20
12.7134424529
 30
0.0
 10
1.402188846
 20
12.713506352
 30
0.0
 10
1.4020840634
 20
12.7136461365
 30
0.0
 10
1.4019351541
 20
12.7138777774
 30
0.0
 10
1.4017868116
 20
12.7141415013
 30
0.0
 10
1.4015814475
 20
12.71455271
 30
0.0
 10
1.4013298697
 20
12.7151484838
 30
0.0
 10
1.4010419875
 20
12.715961601
 30
0.0
 10
1.4007577842
 20
12.7168983777
 30
0.0
 10
1.4004778994
 20
12.7179573218
 30
0.0
 10
1.4002030908
 20
12.7191367897
 30
0.0
 10
1.399933991
 20
12.7204345059
 30
0.0
 10
1.3996710528
 20
12.7218476273
 30
0.0
 10
1.3994148575
 20
12.7233729966
 30
0.0
 10
1.3991659482
 20
12.7250074153
 30
0.0
 10
1.3988354586
 20
12.7273935163
 30
0.0
 10
1.3984486633
 20
12.7306242361
 30
0.0
 10
1.3980330438
 20
12.7347802616
 30
0.0
 10
1.3976573074
 20
12.7392798616
 30
0.0
 10
1.3973249767
 20
12.7440861743
 30
0.0
 10
1.3970391706
 20
12.749160766
 30
0.0
 10
1.3967176369
 20
12.7563443147
 30
0.0
 10
1.3965069121
 20
12.7637462257
 30
0.0
 10
1.3963997599
 20
12.7712997152
 30
0.0
 10
1.396381558
 20
12.7751358029
 30
0.0
 10
1.396381558
 20
12.7770595521
 30
0.0
 11
1.4022415726
 21
12.7134424529
 31
0.0
 11
1.402091677
 21
12.7136406951
 31
0.0
 11
1.4019422909
 21
12.7138714326
 31
0.0
 11
1.4017934883
 21
12.7141344621
 31
0.0
 11
1.4016453434
 21
12.7144295792
 31
0.0
 11
1.4013513229
 21
12.7151152581
 31
0.0
 11
1.4010608224
 21
12.7159268334
 31
0.0
 11
1.4007744347
 21
12.7168626691
 31
0.0
 11
1.4004927527
 21
12.7179211292
 31
0.0
 11
1.4002163687
 21
12.7191005669
 31
0.0
 11
1.3999458487
 21
12.7203987323
 31
0.0
 11
1.3996817188
 21
12.7218124733
 31
0.0
 11
1.3994245022
 21
12.7233385636
 31
0.0
 11
1.3991747216
 21
12.724973777
 31
0.0
 11
1.3989329002
 21
12.7267148874
 31
0.0
 11
1.3984752164
 21
12.7305017841
 31
0.0
 11
1.3980552129
 21
12.7346688926
 31
0.0
 11
1.3976761072
 21
12.7391799749
 31
0.0
 11
1.3973410779
 21
12.743998383
 31
0.0
 11
1.3970529705
 21
12.7490861423
 31
0.0
 11
1.3968138901
 21
12.7544023314
 31
0.0
 11
1.3964905692
 21
12.7655520303
 31
0.0
 11
1.3964089209
 21
12.7712883694
 31
0.0
 11
1.396381558
 21
12.7770595521
 31
0.0
  0
SPLINE
  5
33E
100
AcDbEntity
  8
0
100
AcDbSpline
 62
6
  6
CONTINUOUS
 70
0
 71
3
 72
30
 73
26
 74
24
 42
0.0000001
 43
0.0000001
 44
0.0000000001
 12
0.0412408102
 22
0.0491730737
 32
0.0
 13
0.0
 23
0.0641778435
 33
0.0
 40
0.0
 40
0.0
 40
0.0
 40
0.0
 40
0.0015241046
 40
0.0035482304
 40
0.0061014324
 40
0.0091980421
 40
0.0128451041
 40
0.0170440397
 40
0.0270934084
 40
0.0393316485
 40
0.0537364284
 40
0.0702822315
 40
0.0889418702
 40
0.1096830299
 40
0.1324533497
 40
0.1838472102
 40
0.2426533181
 40
0.308376577
 40
0.3803903831
 40
0.4580201855
 40
0.5405817468
 40
0.6273346145
 40
0.7175169464
 40
0.8103371818
 40
1.0
 40
1.0
 40
1.0
 40
1.0
 10
1.5561752474
 20
12.712990452
 30
0.0
 10
1.5561961992
 20
12.7130154337
 30
0.0
 10
1.5562360305
 20
12.7130808293
 30
0.0
 10
1.5562879946
 20
12.7132006594
 30
0.0
 10
1.5563402122
 20
12.7133564927
 30
0.0
 10
1.5563925024
 20
12.7135484356
 30
0.0
 10
1.5564447949
 20
12.7137766664
 30
0.0
 10
1.5565189195
 20
12.7141522915
 30
0.0
 10
1.556608516
 20
12.7147119393
 30
0.0
 10
1.5567102585
 20
12.7154903191
 30
0.0
 10
1.5568109839
 20
12.7164087891
 30
0.0
 10
1.5569103947
 20
12.7174654451
 30
0.0
 10
1.5570081147
 20
12.718658317
 30
0.0
 10
1.557103834
 20
12.7199848877
 30
0.0
 10
1.5572338153
 20
12.722011013
 30
0.0
 10
1.557386884
 20
12.7248515452
 30
0.0
 10
1.5575530755
 20
12.728611372
 30
0.0
 10
1.5577062124
 20
12.7328131902
 30
0.0
 10
1.5578450891
 20
12.7374183816
 30
0.0
 10
1.5579683343
 20
12.742384349
 30
0.0
 10
1.5580745547
 20
12.7476660811
 30
0.0
 10
1.5581628986
 20
12.7532167067
 30
0.0
 10
1.5582325606
 20
12.7589870747
 30
0.0
 10
1.5582997776
 20
12.7669590898
 30
0.0
 10
1.5583197089
 20
12.7730021685
 30
0.0
 10
1.5583197089
 20
12.7770595521
 30
0.0
 11
1.5561752474
 21
12.712990452
 31
0.0
 11
1.556228644
 21
12.7130724053
 31
0.0
 11
1.5562819561
 21
12.7131908657
 31
0.0
 11
1.556335153
 21
12.7133458491
 31
0.0
 11
1.5563882039
 21
12.7135373712
 31
0.0
 11
1.5564410783
 21
12.7137653814
 31
0.0
 11
1.5564937467
 21
12.714029663
 31
0.0
 11
1.5565983482
 21
12.7146660708
 31
0.0
 11
1.5567017739
 21
12.7154446553
 31
0.0
 11
1.5568037891
 21
12.7163634771
 31
0.0
 11
1.5569041591
 21
12.7174205968
 31
0.0
 11
1.5570026493
 21
12.7186140752
 31
0.0
 11
1.5570990289
 21
12.7199417043
 31
0.0
 11
1.5571930857
 21
12.7214000243
 31
0.0
 11
1.5573734026
 21
12.7246934389
 31
0.0
 11
1.5575419442
 21
12.7284637229
 31
0.0
 11
1.5576970989
 21
12.7326788453
 31
0.0
 11
1.5578375142
 21
12.7372984026
 31
0.0
 11
1.5579619314
 21
12.7422789621
 31
0.0
 11
1.5580691408
 21
12.7475765004
 31
0.0
 11
1.5581582345
 21
12.7531433994
 31
0.0
 11
1.5582284186
 21
12.7589306815
 31
0.0
 11
1.5582789611
 21
12.7648874696
 31
0.0
 11
1.5583197089
 21
12.7770595521
 31
0.0
  0
SPLINE
  5
33F
100
AcDbEntity
  8
0
100
AcDbSpline
 62
6
  6
CONTINUOUS
 70
0
 71
3
 72
59
 73
55
 74
53
 42
0.0000001
 43
0.0000001
 44
0.0000000001
 12
-0.2246376127
 22
0.1912471395
 32
0.0
 13
-0.1856752526
 23
-0.2292645328
 33
0.0
 40
0.0
 40
0.0
 40
0.0
 40
0.0
 40
0.0277952196
 40
0.0566165899
 40
0.086354735
 40
0.1015336631
 40
0.1169028259
 40
0.14817878
 40
0.1640703211
 40
0.1801209244
 40
0.1963234354
 40
0.2126704485
 40
0.2457660465
 40
0.2793528086
 40
0.2963170048
 40
0.3133837006
 40
0.3305436179
 40
0.3477903264
 40
0.3651206182
 40
0.3825306883
 40
0.4000024044
 40
0.4175204366
 40
0.4350797975
 40
0.4526842217
 40
0.4703075539
 40
0.4879065594
 40
0.4966887298
 40
0.5054559505
 40
0.5142077729
 40
0.5229442611
 40
0.5316642924
 40
0.5403658759
 40
0.5576998407
 40
0.5663272026
 40
0.5749215425
 40
0.5834778829
 40
0.59199308
 40
0.6089090703
 40
0.6256880861
 40
0.6423316924
 40
0.6588272537
 40
0.6751634412
 40
0.6913458916
 40
0.7073771611
 40
0.7232545609
 40
0.7545265628
 40
0.7851348331
 40
0.8150340732
 40
0.8441825028
 40
0.9000142063
 40
0.9265801299
 40
0.9521536376
 40
0.9766585992
 40
1.0
 40
1.0
 40
1.0
 40
1.0
 10
1.5177858019
 20
12.5456286706
 30
0.0
 10
1.515704518
 20
12.5474005894
 30
0.0
 10
1.5114488169
 20
12.5509907526
 30
0.0
 10
1.5049076258
 20
12.5564066173
 30
0.0
 10
1.4992776115
 20
12.5609770254
 30
0.0
 10
1.4946466291
 20
12.5646786836
 30
0.0
 10
1.4898774144
 20
12.568449469
 30
0.0
 10
1.4850189481
 20
12.5722202679
 30
0.0
 10
1.4800674596
 20
12.5759796738
 30
0.0
 10
1.4762746431
 20
12.5788135982
 30
0.0
 10
1.4724225415
 20
12.5816427602
 30
0.0
 10
1.4671854675
 20
12.5854174558
 30
0.0
 10
1.46048673
 20
12.5900874476
 30
0.0
 10
1.4536157229
 20
12.5946123648
 30
0.0
 10
1.4479767854
 20
12.5981369402
 30
0.0
 10
1.4436597439
 20
12.6007270862
 30
0.0
 10
1.4392654754
 20
12.6032405403
 30
0.0
 10
1.4347907664
 20
12.6056629917
 30
0.0
 10
1.4302326874
 20
12.6079797055
 30
0.0
 10
1.4255904862
 20
12.6101755699
 30
0.0
 10
1.420860718
 20
12.6122235414
 30
0.0
 10
1.4160421057
 20
12.6140946019
 30
0.0
 10
1.4111342646
 20
12.6157595587
 30
0.0
 10
1.4061410678
 20
12.6171875239
 30
0.0
 10
1.4010749351
 20
12.6183490443
 30
0.0
 10
1.3968049552
 20
12.6190698599
 30
0.0
 10
1.3933725087
 20
12.619481451
 30
0.0
 10
1.3907950674
 20
12.6197035673
 30
0.0
 10
1.3882158744
 20
12.6198348204
 30
0.0
 10
1.3856382856
 20
12.6198732141
 30
0.0
 10
1.3830658619
 20
12.6198218556
 30
0.0
 10
1.3796524861
 20
12.6196369646
 30
0.0
 10
1.3762592779
 20
12.6192822293
 30
0.0
 10
1.3729001077
 20
12.6187657941
 30
0.0
 10
1.3704075572
 20
12.6183012482
 30
0.0
 10
1.3679415845
 20
12.6177612299
 30
0.0
 10
1.3646998374
 20
12.616945555
 30
0.0
 10
1.3607207252
 20
12.6157550024
 30
0.0
 10
1.3560590549
 20
12.6140832258
 30
0.0
 10
1.3515216033
 20
12.6122054257
 30
0.0
 10
1.347107621
 20
12.6101556851
 30
0.0
 10
1.3428141418
 20
12.6079626994
 30
0.0
 10
1.3386393852
 20
12.6056443412
 30
0.0
 10
1.3345786059
 20
12.6032188112
 30
0.0
 10
1.329336305
 20
12.599882611
 30
0.0
 10
1.3230415312
 20
12.5955356112
 30
0.0
 10
1.315843962
 20
12.5900860301
 30
0.0
 10
1.3090127108
 20
12.5845091176
 30
0.0
 10
1.3004959022
 20
12.5770846281
 30
0.0
 10
1.2925263462
 20
12.5695382263
 30
0.0
 10
1.2850982369
 20
12.5619500934
 30
0.0
 10
1.2799620802
 20
12.5564325632
 30
0.0
 10
1.2751791313
 20
12.5510228593
 30
0.0
 10
1.2721605769
 20
12.5474124558
 30
0.0
 10
1.2707159368
 20
12.5456286706
 30
0.0
 11
1.5177858019
 21
12.5456286706
 31
0.0
 11
1.5115180231
 21
12.5509161935
 31
0.0
 11
1.5049685128
 21
12.5563386926
 31
0.0
 11
1.4981568348
 21
12.5618680065
 31
0.0
 11
1.4946587898
 21
12.5646639169
 31
0.0
 11
1.4911017162
 21
12.5674757601
 31
0.0
 11
1.4838105861
 21
12.5731306917
 31
0.0
 11
1.4800763152
 21
12.5759654352
 31
0.0
 11
1.476282764
 21
12.5787994675
 31
0.0
 11
1.4724298217
 21
12.5816286097
 31
0.0
 11
1.4685167784
 21
12.5844475954
 31
0.0
 11
1.4605023057
 21
12.5900245166
 31
0.0
 11
1.4522223705
 21
12.5954675988
 31
0.0
 11
1.4479774019
 21
12.5981186825
 31
0.0
 11
1.4436587765
 21
12.6007073266
 31
0.0
 11
1.4392633008
 21
12.6032191194
 31
0.0
 11
1.4347877801
 21
12.6056396431
 31
0.0
 11
1.4302290198
 21
12.6079544799
 31
0.0
 11
1.4255842137
 21
12.6101471423
 31
0.0
 11
1.4208523858
 21
12.6121913914
 31
0.0
 11
1.4160330983
 21
12.6140581187
 31
0.0
 11
1.4111259138
 21
12.6157182152
 31
0.0
 11
1.4061313345
 21
12.6171424615
 31
0.0
 11
1.4010626012
 21
12.6183001394
 31
0.0
 11
1.3959421248
 21
12.6191594518
 31
0.0
 11
1.3933695492
 21
12.619467277
 31
0.0
 11
1.3907925176
 21
12.619688578
 31
0.0
 11
1.3882138615
 21
12.6198194185
 31
0.0
 11
1.3856367045
 21
12.6198582483
 31
0.0
 11
1.3830646173
 21
12.61980717
 31
0.0
 11
1.3805012083
 21
12.6196685953
 31
0.0
 11
1.3754148586
 21
12.619138602
 31
0.0
 11
1.3728991347
 21
12.6187520064
 31
0.0
 11
1.3704065228
 21
12.6182875601
 31
0.0
 11
1.3679406305
 21
12.617747675
 31
0.0
 11
1.3655042783
 21
12.6171351754
 31
0.0
 11
1.3607219331
 21
12.6157086321
 31
0.0
 11
1.3560609065
 21
12.6140416069
 31
0.0
 11
1.3515222061
 21
12.6121679924
 31
0.0
 11
1.3471068215
 21
12.6101216304
 31
0.0
 11
1.3428138686
 21
12.6079311169
 31
0.0
 11
1.3386389831
 21
12.6056153027
 31
0.0
 11
1.3345774217
 21
12.6031919781
 31
0.0
 11
1.3306244413
 21
12.6006789332
 31
0.0
 11
1.3230278042
 21
12.5954436283
 31
0.0
 11
1.3158228603
 21
12.5900001643
 31
0.0
 11
1.3089866474
 21
12.5844256996
 31
0.0
 11
1.3025010203
 21
12.5787788938
 31
0.0
 11
1.2905356335
 21
12.5674589523
 31
0.0
 11
1.2850541142
 21
12.5618572087
 31
0.0
 11
1.2799148648
 21
12.5563335295
 31
0.0
 11
1.2751291431
 21
12.5509148299
 31
0.0
 11
1.2707159368
 21
12.5456286706
 31
0.0
  0
SPLINE
  5
340
100
AcDbEntity
  8
0
100
AcDbSpline
 62
6
  6
CONTINUOUS
 70
0
 71
3
 72
27
 73
23
 74
21
 42
0.0000001
 43
0.0000001
 44
0.0000000001
 12
-0.0384778085
 22
0.0497026015
 32
0.0
 13
-0.0
 23
0.0628561082
 33
0.0
 40
0.0
 40
0.0
 40
0.0
 40
0.0
 40
0.0158210835
 40
0.0328153366
 40
0.0510102225
 40
0.0704227461
 40
0.0910534036
 40
0.1128933556
 40
0.1359291229
 40
0.1601436579
 40
0.2120240594
 40
0.2683506424
 40
0.3288483159
 40
0.3931868816
 40
0.4610232875
 40
0.5319972437
 40
0.6057120213
 40
0.6817596481
 40
0.7597262572
 40
0.8391278606
 40
0.919406644
 40
1.0
 40
1.0
 40
1.0
 40
1.0
 10
1.2476917242
 20
12.7158545705
 30
0.0
 10
1.247488804
 20
12.7161166868
 30
0.0
 10
1.2470866824
 20
12.7166750402
 30
0.0
 10
1.2465129874
 20
12.7175773441
 30
0.0
 10
1.2459484078
 20
12.7185728457
 30
0.0
 10
1.2453940016
 20
12.7196602205
 30
0.0
 10
1.2448504118
 20
12.7208376655
 30
0.0
 10
1.2443184133
 20
12.7221031198
 30
0.0
 10
1.2437988047
 20
12.723454456
 30
0.0
 10
1.2431076749
 20
12.7254133209
 30
0.0
 10
1.242286018
 20
12.7280645477
 30
0.0
 10
1.2413839621
 20
12.7314830946
 30
0.0
 10
1.2405495609
 20
12.7351867345
 30
0.0
 10
1.2397875592
 20
12.7391516551
 30
0.0
 10
1.2391032258
 20
12.7433531953
 30
0.0
 10
1.2385016077
 20
12.7477656603
 30
0.0
 10
1.2379857003
 20
12.7523620761
 30
0.0
 10
1.2375586832
 20
12.7571146895
 30
0.0
 10
1.237224097
 20
12.7619941166
 30
0.0
 10
1.2369839562
 20
12.7669678401
 30
0.0
 10
1.2368389323
 20
12.7720002697
 30
0.0
 10
1.2368064027
 20
12.7753709572
 30
0.0
 10
1.2368064027
 20
12.7770595521
 30
0.0
 11
1.2476917242
 21
12.7158545705
 31
0.0
 11
1.2471087427
 21
12.7166602173
 31
0.0
 11
1.246533932
 21
12.7175605662
 31
0.0
 11
1.2459682193
 21
12.7185545112
 31
0.0
 11
1.2454125198
 21
12.719640824
 31
0.0
 11
1.2448676769
 21
12.7208175738
 31
0.0
 11
1.2443345087
 21
12.7220825802
 31
0.0
 11
1.2438138334
 21
12.7234336626
 31
0.0
 11
1.2433064691
 21
12.7248686404
 31
0.0
 11
1.2423349458
 21
12.7279815593
 31
0.0
 11
1.2414263926
 21
12.7314034678
 31
0.0
 11
1.2405863347
 21
12.7351121652
 31
0.0
 11
1.2398197538
 21
12.7390829172
 31
0.0
 11
1.2391316246
 21
12.7432909569
 31
0.0
 11
1.2385265509
 21
12.7477108794
 31
0.0
 11
1.2380079191
 21
12.7523151861
 31
0.0
 11
1.2375788665
 21
12.7570759493
 31
0.0
 11
1.2372424912
 21
12.7619650692
 31
0.0
 11
1.2370009088
 21
12.7669500946
 31
0.0
 11
1.2368552014
 21
12.7719940024
 31
0.0
 11
1.2368064027
 21
12.7770595521
 31
0.0
  0
SPLINE
  5
341
100
AcDbEntity
  8
0
100
AcDbSpline
 62
6
  6
CONTINUOUS
 70
0
 71
3
 72
61
 73
57
 74
55
 42
0.0000001
 43
0.0000001
 44
0.0000000001
 12
-0.2337668919
 22
0.1601947776
 32
0.0
 13
-0.1029593459
 23
-0.2640240511
 33
0.0
 40
0.0
 40
0.0
 40
0.0
 40
0.0
 40
0.032945031
 40
0.0666509832
 40
0.1010048873
 40
0.1183895208
 40
0.1358956891
 40
0.1712383184
 40
0.1890583918
 40
0.2069668466
 40
0.2249557445
 40
0.2430166099
 40
0.2793150082
 40
0.2975343343
 40
0.3157891297
 40
0.3340712612
 40
0.3523674413
 40
0.370663207
 40
0.3889465426
 40
0.4072083239
 40
0.4254385642
 40
0.4616879362
 40
0.4796682421
 40
0.4975371286
 40
0.5152599511
 40
0.5327846748
 40
0.5414623407
 40
0.5500792874
 40
0.558634745
 40
0.5671295724
 40
0.5755649527
 40
0.5839413905
 40
0.6005134225
 40
0.608709601
 40
0.616842665
 40
0.6249102975
 40
0.632911643
 40
0.648733009
 40
0.6643433624
 40
0.6797593881
 40
0.6949807195
 40
0.7100042973
 40
0.7248414445
 40
0.7394992162
 40
0.7539780871
 40
0.7823848491
 40
0.8100510231
 40
0.8235959193
 40
0.8369422117
 40
0.863020597
 40
0.8882458051
 40
0.9125731884
 40
0.93595648
 40
0.9583514214
 40
0.9797150797
 40
1.0
 40
1.0
 40
1.0
 40
1.0
 10
1.2707159368
 20
12.5456286706
 30
0.0
 10
1.2681487843
 20
12.5473878779
 30
0.0
 10
1.2629606201
 20
12.5509548532
 30
0.0
 10
1.2551070346
 20
12.5563729862
 30
0.0
 10
1.2484647311
 20
12.5609584394
 30
0.0
 10
1.2430793077
 20
12.5646709492
 30
0.0
 10
1.2376138957
 20
12.5684319764
 30
0.0
 10
1.2321057847
 20
12.57220353
 30
0.0
 10
1.2265501172
 20
12.5759727567
 30
0.0
 10
1.222340978
 20
12.5788068129
 30
0.0
 10
1.2181011941
 20
12.5816360223
 30
0.0
 10
1.2123978865
 20
12.5854015273
 30
0.0
 10
1.206640145
 20
12.5891241125
 30
0.0
 10
1.2008163125
 20
12.5927765858
 30
0.0
 10
1.1964052343
 20
12.5954780041
 30
0.0
 10
1.1919558761
 20
12.5981301742
 30
0.0
 10
1.1874655817
 20
12.6007203139
 30
0.0
 10
1.1829317118
 20
12.6032338114
 30
0.0
 10
1.1783521529
 20
12.6056562505
 30
0.0
 10
1.1737248109
 20
12.6079728321
 30
0.0
 10
1.1675050549
 20
12.6108942316
 30
0.0
 10
1.1611792652
 20
12.6135267492
 30
0.0
 10
1.1547406861
 20
12.6157530677
 30
0.0
 10
1.1498836959
 20
12.617181616
 30
0.0
 10
1.1450001019
 20
12.6183438099
 30
0.0
 10
1.1409113851
 20
12.6190674798
 30
0.0
 10
1.1376477349
 20
12.6194805135
 30
0.0
 10
1.135215484
 20
12.6197030358
 30
0.0
 10
1.1327938927
 20
12.6198349552
 30
0.0
 10
1.1303861804
 20
12.6198738093
 30
0.0
 10
1.1279955979
 20
12.6198226879
 30
0.0
 10
1.1248469112
 20
12.6196383378
 30
0.0
 10
1.1217327493
 20
12.6192841511
 30
0.0
 10
1.1186677137
 20
12.618766479
 30
0.0
 10
1.1164099086
 20
12.6183018573
 30
0.0
 10
1.1141878928
 20
12.6177618761
 30
0.0
 10
1.111287036
 20
12.6169475911
 30
0.0
 10
1.1077537033
 20
12.615758996
 30
0.0
 10
1.1036534993
 20
12.6140872034
 30
0.0
 10
1.0997066504
 20
12.6122092768
 30
0.0
 10
1.0959098194
 20
12.6101592563
 30
0.0
 10
1.0922578083
 20
12.6079660447
 30
0.0
 10
1.0887478522
 20
12.6056475968
 30
0.0
 10
1.0853743928
 20
12.603222076
 30
0.0
 10
1.0810783225
 20
12.5998902611
 30
0.0
 10
1.0760155477
 20
12.595548839
 30
0.0
 10
1.0712841442
 20
12.5909762852
 30
0.0
 10
1.0677232205
 20
12.5872500542
 30
0.0
 10
1.0643588962
 20
12.583545636
 30
0.0
 10
1.0604192277
 20
12.5788760896
 30
0.0
 10
1.056063149
 20
12.5732104472
 30
0.0
 10
1.052114213
 20
12.5675617893
 30
0.0
 10
1.0485707159
 20
12.5619643389
 30
0.0
 10
1.0454408042
 20
12.5564448786
 30
0.0
 10
1.0427333991
 20
12.5510316442
 30
0.0
 10
1.0411796486
 20
12.5474139063
 30
0.0
 10
1.0404834746
 20
12.5456286706
 30
0.0
 11
1.2707159368
 21
12.5456286706
 31
0.0
 11
1.2630212556
 21
12.5509161674
 31
0.0
 11
1.2551576875
 21
12.5563386224
 31
0.0
 11
1.2471447588
 21
12.5618679348
 31
0.0
 11
1.2430883786
 21
12.5646638791
 31
0.0
 11
1.2390011668
 21
12.5674757774
 31
0.0
 11
1.2307346762
 21
12.5731308308
 31
0.0
 11
1.2265553679
 21
12.5759656168
 31
0.0
 11
1.2223453313
 21
12.5787996629
 31
0.0
 11
1.2181045501
 21
12.5816287809
 31
0.0
 11
1.2138325783
 21
12.5844477782
 31
0.0
 11
1.2051890722
 21
12.5900248079
 31
0.0
 11
1.2008143227
 21
12.5927670249
 31
0.0
 11
1.196402099
 21
12.5954678332
 31
0.0
 11
1.191950753
 21
12.5981188355
 31
0.0
 11
1.1874582998
 21
12.6007075471
 31
0.0
 11
1.1829225867
 21
12.6032194492
 31
0.0
 11
1.1783414598
 21
12.6056400086
 31
0.0
 11
1.1737127653
 21
12.6079546917
 31
0.0
 11
1.1690348285
 21
12.6101471884
 31
0.0
 11
1.1595358582
 21
12.614058375
 31
0.0
 11
1.1547184682
 21
12.6157185161
 31
0.0
 11
1.149858984
 21
12.6171425768
 31
0.0
 11
1.1449717092
 21
12.6182999785
 31
0.0
 11
1.1400802813
 21
12.6191591686
 31
0.0
 11
1.1376404774
 21
12.6194670656
 31
0.0
 11
1.1352085961
 21
12.6196885673
 31
0.0
 11
1.1327876249
 21
12.6198197476
 31
0.0
 11
1.1303806008
 21
12.6198587916
 31
0.0
 11
1.1279906519
 21
12.6198077465
 31
0.0
 11
1.1256209156
 21
12.619669072
 31
0.0
 11
1.1209546315
 21
12.6191386731
 31
0.0
 11
1.1186643588
 21
12.618751868
 31
0.0
 11
1.1164068492
 21
12.6182872719
 31
0.0
 11
1.1141852401
 21
12.6177473445
 31
0.0
 11
1.1120020277
 21
12.6171348826
 31
0.0
 11
1.1077513716
 21
12.6157084879
 31
0.0
 11
1.1036536164
 21
12.6140416254
 31
0.0
 11
1.0997070132
 21
12.6121680876
 31
0.0
 11
1.0959098044
 21
12.6101216303
 31
0.0
 11
1.0922590738
 21
12.6079310564
 31
0.0
 11
1.0887495881
 21
12.6056152669
 31
0.0
 11
1.0853758388
 21
12.6031919848
 31
0.0
 11
1.0821323172
 21
12.6006789328
 31
0.0
 11
1.0760170481
 21
12.5954436083
 31
0.0
 11
1.0703744471
 21
12.5900001542
 31
0.0
 11
1.0677222317
 21
12.5872253315
 31
0.0
 11
1.0651792033
 21
12.584425691
 31
0.0
 11
1.0604115384
 21
12.5787788943
 31
0.0
 11
1.0560557897
 21
12.5731106344
 31
0.0
 11
1.0521077215
 21
12.5674589488
 31
0.0
 11
1.0485676848
 21
12.5618572045
 31
0.0
 11
1.0454424938
 21
12.556333529
 31
0.0
 11
1.0427422406
 21
12.5509148315
 31
0.0
 11
1.0404834746
 21
12.5456286706
 31
0.0
  0
SPLINE
  5
342
100
AcDbEntity
  8
0
100
AcDbSpline
 62
6
  6
CONTINUOUS
 70
0
 71
3
 72
23
 73
19
 74
17
 42
0.0000001
 43
0.0000001
 44
0.0000000001
 12
-0.0326545884
 22
0.0481659806
 32
0.0
 13
0.0
 23
0.0581917849
 33
0.0
 40
0.0
 40
0.0
 40
0.0
 40
0.0
 40
0.0444353954
 40
0.0919166352
 40
0.1424068535
 40
0.1958386548
 40
0.2520878561
 40
0.3109918375
 40
0.3723737951
 40
0.4360467656
 40
0.5018061511
 40
0.5694270584
 40
0.6386782
 40
0.7093245688
 40
0.781106519
 40
0.8537024808
 40
0.9267786281
 40
1.0
 40
1.0
 40
1.0
 40
1.0
 10
1.0951090189
 20
12.7209258932
 30
0.0
 10
1.0946253457
 20
12.721639318
 30
0.0
 10
1.093680111
 20
12.7231530078
 30
0.0
 10
1.0923670505
 20
12.7255849525
 30
0.0
 10
1.0911172054
 20
12.7282440716
 30
0.0
 10
1.0899371741
 20
12.7311193704
 30
0.0
 10
1.0888314341
 20
12.7341978745
 30
0.0
 10
1.0878042841
 20
12.7374653732
 30
0.0
 10
1.086860323
 20
12.7409073284
 30
0.0
 10
1.0860043635
 20
12.744508968
 30
0.0
 10
1.0852403415
 20
12.7482547514
 30
0.0
 10
1.0845708856
 20
12.7521283834
 30
0.0
 10
1.0839989526
 20
12.7561133647
 30
0.0
 10
1.0835275632
 20
12.7601927247
 30
0.0
 10
1.0831594661
 20
12.7643478091
 30
0.0
 10
1.0828952407
 20
12.7685579966
 30
0.0
 10
1.0827358947
 20
12.7728013604
 30
0.0
 10
1.0827001917
 20
12.775639258
 30
0.0
 10
1.0827001917
 20
12.7770595521
 30
0.0
 11
1.0951090189
 21
12.7209258932
 31
0.0
 11
1.0937342707
 21
12.7231159388
 31
0.0
 11
1.0924170103
 21
12.7255447439
 31
0.0
 11
1.0911632657
 21
12.7282019321
 31
0.0
 11
1.0899789722
 21
12.7310768487
 31
0.0
 11
1.0888691944
 21
12.7341562159
 31
0.0
 11
1.0878385192
 21
12.7374253177
 31
0.0
 11
1.0868915284
 21
12.740869423
 31
0.0
 11
1.0860327858
 21
12.7444737805
 31
0.0
 11
1.08526615
 21
12.7482228558
 31
0.0
 11
1.0845945708
 21
12.7521001047
 31
0.0
 11
1.0840209376
 21
12.7560889161
 31
0.0
 11
1.083548139
 21
12.7601726763
 31
0.0
 11
1.0831785897
 21
12.764333417
 31
0.0
 11
1.0829134476
 21
12.7685495768
 31
0.0
 11
1.0827536643
 21
12.7727990053
 31
0.0
 11
1.0827001917
 21
12.7770595521
 31
0.0
  0
SPLINE
  5
343
100
AcDbEntity
  8
0
100
AcDbSpline
 62
6
  6
CONTINUOUS
 70
0
 71
3
 72
62
 73
58
 74
56
 42
0.0000001
 43
0.0000001
 44
0.0000000001
 12
-0.2249121045
 22
0.1367668099
 32
0.0
 13
0.0148553465
 23
-0.2628115936
 33
0.0
 40
0.0
 40
0.0
 40
0.0
 40
0.0
 40
0.0383429967
 40
0.0771004018
 40
0.1161594912
 40
0.1357666267
 40
0.1554081838
 40
0.1947582861
 40
0.2144491361
 40
0.2341386612
 40
0.2538179615
 40
0.2734768677
 40
0.3126820303
 40
0.3516527017
 40
0.3710193081
 40
0.3902825215
 40
0.4094205609
 40
0.4284137424
 40
0.4472449708
 40
0.4658944998
 40
0.4843203541
 40
0.5024807806
 40
0.520344669
 40
0.5291598815
 40
0.5378926252
 40
0.5550764081
 40
0.5718415099
 40
0.5800570891
 40
0.5881579971
 40
0.5961449112
 40
0.6040215719
 40
0.6117935488
 40
0.6194659591
 40
0.6270433494
 40
0.6345297281
 40
0.6419286017
 40
0.6492430168
 40
0.6564756092
 40
0.6636305961
 40
0.6777399826
 40
0.6916341459
 40
0.7053485157
 40
0.7188954373
 40
0.7322806523
 40
0.7455217082
 40
0.7586290956
 40
0.7716043025
 40
0.7971430155
 40
0.8221381537
 40
0.8465568235
 40
0.8703755846
 40
0.8935650145
 40
0.9161107967
 40
0.9380072861
 40
0.9592670207
 40
0.9799172972
 40
1.0
 40
1.0
 40
1.0
 40
1.0
 10
1.0404834746
 20
12.5456286706
 30
0.0
 10
1.0376088732
 20
12.5473766871
 30
0.0
 10
1.0318473674
 20
12.5509225382
 30
0.0
 10
1.0232153385
 20
12.5563421682
 30
0.0
 10
1.0160094907
 20
12.5609411403
 30
0.0
 10
1.0102342345
 20
12.5646636849
 30
0.0
 10
1.0044472056
 20
12.5684150555
 30
0.0
 10
0.9986646186
 20
12.5721867348
 30
0.0
 10
0.9928816185
 20
12.5759654634
 30
0.0
 10
0.9885431395
 20
12.5787995264
 30
0.0
 10
0.9842048552
 20
12.5816287624
 30
0.0
 10
0.9784263865
 20
12.5853843778
 30
0.0
 10
0.9712077018
 20
12.5900302065
 30
0.0
 10
0.9639572435
 20
12.5945786835
 30
0.0
 10
0.9581427821
 20
12.5981220259
 30
0.0
 10
0.9537854014
 20
12.6007118023
 30
0.0
 10
0.9494210636
 20
12.6032249229
 30
0.0
 10
0.9450487927
 20
12.6056470969
 30
0.0
 10
0.9406679567
 20
12.6079635831
 30
0.0
 10
0.9362806291
 20
12.6101589672
 30
0.0
 10
0.9318870078
 20
12.612206667
 30
0.0
 10
0.9274899116
 20
12.6140778732
 30
0.0
 10
0.9238093652
 20
12.6154721386
 30
0.0
 10
0.9208660599
 20
12.6164687837
 30
0.0
 10
0.9179553131
 20
12.6173723649
 30
0.0
 10
0.9143344479
 20
12.6183371254
 30
0.0
 10
0.9107039394
 20
12.6190650221
 30
0.0
 10
0.9078304141
 20
12.619479808
 30
0.0
 10
0.9057090056
 20
12.6197024621
 30
0.0
 10
0.9036097568
 20
12.6198343087
 30
0.0
 10
0.9015355825
 20
12.6198732596
 30
0.0
 10
0.8994892922
 20
12.6198223776
 30
0.0
 10
0.8974733819
 20
12.6196839101
 30
0.0
 10
0.8954903556
 20
12.6194603219
 30
0.0
 10
0.8935427108
 20
12.619154022
 30
0.0
 10
0.8916329427
 20
12.6187674265
 30
0.0
 10
0.8897635538
 20
12.6183029722
 30
0.0
 10
0.8879368487
 20
12.6177629533
 30
0.0
 10
0.8855718247
 20
12.6169492386
 30
0.0
 10
0.882720883
 20
12.6157606837
 30
0.0
 10
0.8794612879
 20
12.6140876226
 30
0.0
 10
0.8763740808
 20
12.6122087187
 30
0.0
 10
0.8734532769
 20
12.6101581533
 30
0.0
 10
0.8706918206
 20
12.6079642383
 30
0.0
 10
0.8680862872
 20
12.6056452344
 30
0.0
 10
0.8656305271
 20
12.603219377
 30
0.0
 10
0.8625639569
 20
12.5998840627
 30
0.0
 10
0.8590673474
 20
12.5955355299
 30
0.0
 10
0.8553744315
 20
12.5900858967
 30
0.0
 10
0.8521736784
 20
12.5845075124
 30
0.0
 10
0.8494488076
 20
12.5788579875
 30
0.0
 10
0.8471790403
 20
12.573187644
 30
0.0
 10
0.8453629352
 20
12.567532907
 30
0.0
 10
0.843997916
 20
12.5619265392
 30
0.0
 10
0.843091594
 20
12.5563957889
 30
0.0
 10
0.8426513759
 20
12.5509680421
 30
0.0
 10
0.8426789321
 20
12.547387993
 30
0.0
 10
0.8427783773
 20
12.5456286706
 30
0.0
 11
1.0404834746
 21
12.5456286706
 31
0.0
 11
1.0318862569
 21
12.5509161935
 31
0.0
 11
1.0232444711
 21
12.5563386926
 31
0.0
 11
1.0145762929
 21
12.5618680065
 31
0.0
 11
1.0102379806
 21
12.5646639169
 31
0.0
 11
1.005899177
 21
12.5674757601
 31
0.0
 11
0.9972208445
 21
12.5731306917
 31
0.0
 11
0.992881461
 21
12.5759654352
 31
0.0
 11
0.9885420294
 21
12.5787994675
 31
0.0
 11
0.9842026207
 21
12.5816286097
 31
0.0
 11
0.9798630075
 21
12.5844475954
 31
0.0
 11
0.9711796482
 21
12.5900245166
 31
0.0
 11
0.9624845099
 21
12.5954675988
 31
0.0
 11
0.9581301707
 21
12.5981186825
 31
0.0
 11
0.9537700461
 21
12.6007073266
 31
0.0
 11
0.9494031716
 21
12.6032191194
 31
0.0
 11
0.9450285828
 21
12.6056396431
 31
0.0
 11
0.9406453154
 21
12.6079544799
 31
0.0
 11
0.9362530666
 21
12.6101471423
 31
0.0
 11
0.9318546523
 21
12.6121913914
 31
0.0
 11
0.9274538058
 21
12.6140581187
 31
0.0
 11
0.9230542607
 21
12.6157182152
 31
0.0
 11
0.9208561493
 21
12.6164616795
 31
0.0
 11
0.9186605413
 21
12.6171424615
 31
0.0
 11
0.9142878898
 21
12.6183001394
 31
0.0
 11
0.909959264
 21
12.6191594518
 31
0.0
 11
0.9078186882
 21
12.619467277
 31
0.0
 11
0.9056977916
 21
12.619688578
 31
0.0
 11
0.9035994626
 21
12.6198194185
 31
0.0
 11
0.9015264441
 21
12.6198582483
 31
0.0
 11
0.8994812558
 21
12.61980717
 31
0.0
 11
0.8974663985
 21
12.6196685953
 31
0.0
 11
0.8954843731
 21
12.6194449354
 31
0.0
 11
0.8935376804
 21
12.619138602
 31
0.0
 11
0.8916288214
 21
12.6187520064
 31
0.0
 11
0.8897602968
 21
12.6182875601
 31
0.0
 11
0.887934607
 21
12.617747675
 31
0.0
 11
0.8861535689
 21
12.6171351754
 31
0.0
 11
0.8827244307
 21
12.6157086321
 31
0.0
 11
0.8794690619
 21
12.6140416069
 31
0.0
 11
0.8763832848
 21
12.6121679924
 31
0.0
 11
0.8734629162
 21
12.6101216304
 31
0.0
 11
0.8707032001
 21
12.6079311169
 31
0.0
 11
0.8680983161
 21
12.6056153027
 31
0.0
 11
0.8656423284
 21
12.6031919781
 31
0.0
 11
0.8633293011
 21
12.6006789332
 31
0.0
 11
0.8591121084
 21
12.5954436283
 31
0.0
 11
0.8554163687
 21
12.5900001643
 31
0.0
 11
0.8522161567
 21
12.5844256996
 31
0.0
 11
0.8494913699
 21
12.5787788938
 31
0.0
 11
0.8472260003
 21
12.5731106396
 31
0.0
 11
0.8454150055
 21
12.5674589523
 31
0.0
 11
0.8440576968
 21
12.5618572087
 31
0.0
 11
0.8431595401
 21
12.5563335295
 31
0.0
 11
0.8427287696
 21
12.5509148299
 31
0.0
 11
0.8427783773
 21
12.5456286706
 31
0.0
  0
SPLINE
  5
344
100
AcDbEntity
  8
0
100
AcDbSpline
 62
6
  6
CONTINUOUS
 70
0
 71
3
 72
15
 73
11
 74
9
 42
0.0000001
 43
0.0000001
 44
0.0000000001
 12
-0.0221712478
 22
0.0423874921
 32
0.0
 13
0.0
 23
0.0478357995
 33
0.0
 40
0.0
 40
0.0
 40
0.0
 40
0.0
 40
0.1088152433
 40
0.2237193401
 40
0.3441139714
 40
0.4692911988
 40
0.5984479242
 40
0.7307193855
 40
0.8649906598
 40
1.0
 40
1.0
 40
1.0
 40
1.0
 10
0.9469750481
 20
12.730696227
 30
0.0
 10
0.9461708582
 20
12.7322336954
 30
0.0
 10
0.9446518499
 20
12.7354661729
 30
0.0
 10
0.9426856739
 20
12.7405931663
 30
0.0
 10
0.9409877575
 20
12.7460887199
 30
0.0
 10
0.9395750264
 20
12.7518979539
 30
0.0
 10
0.9384595949
 20
12.7579639296
 30
0.0
 10
0.9376566737
 20
12.7642251865
 30
0.0
 10
0.9371715823
 20
12.7706122665
 30
0.0
 10
0.9370624273
 20
12.7749067921
 30
0.0
 10
0.9370624273
 20
12.7770595521
 30
0.0
 11
0.9469750481
 21
12.730696227
 31
0.0
 11
0.9447501444
 21
12.7354020296
 31
0.0
 11
0.9427733548
 21
12.7405307856
 31
0.0
 11
0.9410657795
 21
12.7460309915
 31
0.0
 11
0.9396445422
 21
12.7518478345
 31
0.0
 11
0.9385232068
 21
12.7579235391
 31
0.0
 11
0.9377146267
 21
12.7641989725
 31
0.0
 11
0.9372262149
 21
12.7706033496
 31
0.0
 11
0.9370624273
 21
12.7770595521
 31
0.0
  0
SPLINE
  5
345
100
AcDbEntity
  8
0
100
AcDbSpline
 62
6
  6
CONTINUOUS
 70
0
 71
3
 72
55
 73
51
 74
49
 42
0.0000001
 43
0.0000001
 44
0.0000000001
 12
-0.1843606321
 22
0.1073330294
 32
0.0
 13
0.0145676631
 23
-0.2128309307
 33
0.0
 40
0.0
 40
0.0
 40
0.0
 40
0.0
 40
0.0830460636
 40
0.1245120654
 40
0.1658386813
 40
0.2069506251
 40
0.2477868099
 40
0.2882912137
 40
0.3284062637
 40
0.368063799
 40
0.4071579021
 40
0.4264580048
 40
0.4455747912
 40
0.4644945967
 40
0.4831998585
 40
0.5198615983
 40
0.5377683881
 40
0.5553619405
 40
0.572622755
 40
0.5895206642
 40
0.6059923647
 40
0.6219767405
 40
0.6374244784
 40
0.6449366316
 40
0.6523036013
 40
0.65952445
 40
0.6665999438
 40
0.6803231123
 40
0.6935033909
 40
0.7061770833
 40
0.7183904903
 40
0.7243442571
 40
0.730205947
 40
0.7359850115
 40
0.7416928249
 40
0.752946448
 40
0.7640691064
 40
0.7751314438
 40
0.7861771329
 40
0.7972251876
 40
0.819335638
 40
0.8415798361
 40
0.8639939004
 40
0.8865248849
 40
0.9091501998
 40
0.9318462064
 40
0.9432073923
 40
0.9545666559
 40
0.9772786441
 40
1.0
 40
1.0
 40
1.0
 40
1.0
 10
0.8427783773
 20
12.5456286706
 30
0.0
 10
0.8376749023
 20
12.5485998658
 30
0.0
 10
0.8300869768
 20
12.5531650659
 30
0.0
 10
0.8200941525
 20
12.5594272434
 30
0.0
 10
0.8126802537
 20
12.5641883222
 30
0.0
 10
0.8053525802
 20
12.5689998144
 30
0.0
 10
0.7981139148
 20
12.5738397115
 30
0.0
 10
0.7909645959
 20
12.5786853184
 30
0.0
 10
0.7839053513
 20
12.5835142555
 30
0.0
 10
0.7769395737
 20
12.5883021293
 30
0.0
 10
0.771185246
 20
12.5922394858
 30
0.0
 10
0.7666208041
 20
12.5953291051
 30
0.0
 10
0.7632339942
 20
12.5975991549
 30
0.0
 10
0.7598694546
 20
12.5998263831
 30
0.0
 10
0.75544363
 20
12.6027103022
 30
0.0
 10
0.7510369349
 20
12.6054918235
 30
0.0
 10
0.7466362279
 20
12.6081314286
 30
0.0
 10
0.7433841317
 20
12.610002767
 30
0.0
 10
0.7401558266
 20
12.6117700841
 30
0.0
 10
0.7369553094
 20
12.6134199882
 30
0.0
 10
0.7337869154
 20
12.6149309782
 30
0.0
 10
0.7306580988
 20
12.6162802411
 30
0.0
 10
0.7280663284
 20
12.6172596204
 30
0.0
 10
0.7260186237
 20
12.6179369167
 30
0.0
 10
0.7245120455
 20
12.6183849361
 30
0.0
 10
0.7230214118
 20
12.6187749229
 30
0.0
 10
0.7210763802
 20
12.6192087057
 30
0.0
 10
0.7186894567
 20
12.6196007801
 30
0.0
 10
0.7158811268
 20
12.6198295855
 30
0.0
 10
0.7131706115
 20
12.6198124384
 30
0.0
 10
0.7109847787
 20
12.6195916429
 30
0.0
 10
0.7093022571
 20
12.6192900219
 30
0.0
 10
0.7080834403
 20
12.6190047955
 30
0.0
 10
0.7068986638
 20
12.6186586554
 30
0.0
 10
0.7053735883
 20
12.6181189097
 30
0.0
 10
0.7035479373
 20
12.6172992344
 30
0.0
 10
0.7014879
 20
12.6161040145
 30
0.0
 10
0.6995643108
 20
12.6147258267
 30
0.0
 10
0.697773108
 20
12.6131884236
 30
0.0
 10
0.6955554536
 20
12.6109571047
 30
0.0
 10
0.6930822862
 20
12.6078739488
 30
0.0
 10
0.6905876647
 20
12.6038222811
 30
0.0
 10
0.6885307109
 20
12.5995011267
 30
0.0
 10
0.6868744149
 20
12.5949840707
 30
0.0
 10
0.685605732
 20
12.5903232804
 30
0.0
 10
0.6848599887
 20
12.5863578047
 30
0.0
 10
0.6844421913
 20
12.5831547909
 30
0.0
 10
0.684141332
 20
12.5799374985
 30
0.0
 10
0.6839840889
 20
12.5758984286
 30
0.0
 10
0.6840901254
 20
12.5726662554
 30
0.0
 10
0.6842004577
 20
12.5710543196
 30
0.0
 11
0.8427783773
 21
12.5456286706
 31
0.0
 11
0.8275909757
 21
12.5547502905
 31
0.0
 11
0.8200944914
 21
12.5594463114
 31
0.0
 11
0.8126755661
 21
12.5642091105
 31
0.0
 11
0.8053429485
 21
12.5690207671
 31
0.0
 11
0.7980994361
 21
12.5738604398
 31
0.0
 11
0.7909451785
 21
12.5787059878
 31
0.0
 11
0.7838803139
 21
12.5835352644
 31
0.0
 11
0.7769048572
 21
12.5883223586
 31
0.0
 11
0.7700183411
 21
12.5930265976
 31
0.0
 11
0.7666082528
 21
12.5953338055
 31
0.0
 11
0.7632201802
 21
12.5976036906
 31
0.0
 11
0.7598540504
 21
12.5998307084
 31
0.0
 11
0.7565098774
 21
12.6020077668
 31
0.0
 11
0.749888233
 21
12.606169738
 31
0.0
 11
0.7466112145
 21
12.6081328539
 31
0.0
 11
0.7433570339
 21
12.6100028588
 31
0.0
 11
0.74012592
 21
12.6117688502
 31
0.0
 11
0.7369199473
 21
12.6134170043
 31
0.0
 11
0.7337462909
 21
12.6149254231
 31
0.0
 11
0.730613
 21
12.616270825
 31
0.0
 11
0.7275281234
 21
12.6174299286
 31
0.0
 11
0.7260063559
 21
12.617932343
 31
0.0
 11
0.7244997104
 21
12.6183794523
 31
0.0
 11
0.7230091929
 21
12.6187683462
 31
0.0
 11
0.7215358441
 21
12.6190962999
 31
0.0
 11
0.7186463415
 21
12.6195667416
 31
0.0
 11
0.7158435359
 21
12.6197906418
 31
0.0
 11
0.7131399582
 21
12.6197689326
 31
0.0
 11
0.7105481391
 21
12.6195025459
 31
0.0
 11
0.7092980549
 21
12.6192778899
 31
0.0
 11
0.7080806094
 21
12.618992414
 31
0.0
 11
0.7068973688
 21
12.6186462351
 31
0.0
 11
0.7057494665
 21
12.6182400684
 31
0.0
 11
0.7035586672
 21
12.6172582997
 31
0.0
 11
0.7015049316
 21
12.6160699073
 31
0.0
 11
0.6995847278
 21
12.6146980391
 31
0.0
 11
0.6977945238
 21
12.6131658431
 31
0.0
 11
0.6961307877
 21
12.6114964672
 31
0.0
 11
0.6931684707
 21
12.6078259274
 31
0.0
 11
0.6906687755
 21
12.6037923576
 31
0.0
 11
0.6886024996
 21
12.5994802938
 31
0.0
 11
0.686942093
 21
12.5949696851
 31
0.0
 11
0.6856696419
 21
12.5903138006
 31
0.0
 11
0.6847707148
 21
12.5855562669
 31
0.0
 11
0.6844568144
 21
12.5831530108
 31
0.0
 11
0.6842311045
 21
12.5807402861
 31
0.0
 11
0.6840420482
 21
12.5758988524
 31
0.0
 11
0.6842004577
 21
12.5710543196
 31
0.0
  0
SPLINE
  5
346
100
AcDbEntity
  8
0
100
AcDbSpline
 62
6
  6
CONTINUOUS
 70
0
 71
3
 72
11
 73
7
 74
5
 42
0.0000001
 43
0.0000001
 44
0.0000000001
 12
-0.005227255
 22
0.0223531342
 32
0.0
 13
0.0
 23
0.0229561931
 33
0.0
 40
0.0
 40
0.0
 40
0.0
 40
0.0
 40
0.2456719003
 40
0.4952647594
 40
0.7472549898
 40
1.0
 40
1.0
 40
1.0
 40
1.0
 10
0.8052992385
 20
12.7542948522
 30
0.0
 10
0.8048711752
 20
12.7561253645
 30
0.0
 10
0.8041207998
 20
12.7598428582
 30
0.0
 10
0.8033202286
 20
12.7655076451
 30
0.0
 10
0.8028364747
 20
12.7712624189
 30
0.0
 10
0.8027277827
 20
12.775125531
 30
0.0
 10
0.8027277827
 20
12.7770595521
 30
0.0
 11
0.8052992385
 21
12.7542948522
 31
0.0
 11
0.8041808174
 21
12.759822533
 31
0.0
 11
0.8033762086
 21
12.7654954589
 31
0.0
 11
0.8028905474
 21
12.7712597723
 31
0.0
 11
0.8027277827
 21
12.7770595521
 31
0.0
  0
SPLINE
  5
347
100
AcDbEntity
  8
0
100
AcDbSpline
 62
6
  6
CONTINUOUS
 70
0
 71
3
 72
15
 73
11
 74
9
 42
0.0000001
 43
0.0000001
 44
0.0000000001
 12
0.0313940118
 22
-1.2323719498
 32
0.0
 13
0.2555914276
 23
-1.2059847547
 33
0.0
 40
0.0
 40
0.0
 40
0.0
 40
0.0
 40
0.1367318357
 40
0.269994057
 40
0.3998397127
 40
0.5263261502
 40
0.6495154087
 40
0.7694746429
 40
0.8862765788
 40
1.0
 40
1.0
 40
1.0
 40
1.0
 10
31.3727159368
 20
12.5456286706
 30
0.0
 10
31.3741467904
 20
12.489460511
 30
0.0
 10
31.3779828827
 20
12.3785720385
 30
0.0
 10
31.386852567
 20
12.2144974861
 30
0.0
 10
31.3987633633
 20
12.0548356548
 30
0.0
 10
31.4137154574
 20
11.8995869079
 30
0.0
 10
31.4317090742
 20
11.7487508349
 30
0.0
 10
31.4527446089
 20
11.6023267091
 30
0.0
 10
31.4768221185
 20
11.4603156691
 30
0.0
 10
31.4951429871
 20
11.3673614591
 30
0.0
 10
31.5048318976
 20
11.3216452217
 30
0.0
 11
31.3727159368
 21
12.5456286706
 31
0.0
 11
31.3785844064
 21
12.377171713
 31
0.0
 11
31.3874945977
 21
12.2131316201
 31
0.0
 11
31.3994465105
 21
12.0535083919
 31
0.0
 11
31.4144401448
 21
11.8983020284
 31
0.0
 11
31.4324755007
 21
11.7475125297
 31
0.0
 11
31.4535525781
 21
11.6011398956
 31
0.0
 11
31.4776713771
 21
11.4591841263
 31
0.0
 11
31.5048318976
 21
11.3216452217
 31
0.0
  0
SPLINE
  5
348
100
AcDbEntity
  8
0
100
AcDbSpline
 62
6
  6
CONTINUOUS
 70
0
 71
3
 72
19
 73
15
 74
13
 42
0.0000001
 43
0.0000001
 44
0.0000000001
 12
0.0617512258
 22
-1.2547777146
 32
0.0
 13
0.4760113948
 23
-1.1626235328
 33
0.0
 40
0.0
 40
0.0
 40
0.0
 40
0.0
 40
0.1343934675
 40
0.2656847369
 40
0.3940656842
 40
0.5197415164
 40
0.5816364134
 40
0.6429382168
 40
0.7036763739
 40
0.763881159
 40
0.8235836581
 40
0.8828157477
 40
0.9416100697
 40
1.0
 40
1.0
 40
1.0
 40
1.0
 10
31.1424834746
 20
12.5456286706
 30
0.0
 10
31.1452497951
 20
12.4894173613
 30
0.0
 10
31.1526742711
 20
12.3783768017
 30
0.0
 10
31.1698280419
 20
12.2142106634
 30
0.0
 10
31.192865567
 20
12.0544505634
 30
0.0
 10
31.2170905882
 20
11.9243346562
 30
0.0
 10
31.239445945
 20
11.8225343643
 30
0.0
 10
31.2575979365
 20
11.7476716272
 30
0.0
 10
31.2772197498
 20
11.673912908
 30
0.0
 10
31.2983115091
 20
11.6012578584
 30
0.0
 10
31.3208732346
 20
11.5297066702
 30
0.0
 10
31.3449050402
 20
11.4592592297
 30
0.0
 10
31.370406751
 20
11.3899161426
 30
0.0
 10
31.3884471546
 20
11.344273724
 30
0.0
 10
31.397711912
 20
11.3216452217
 30
0.0
 11
31.1424834746
 21
12.5456286706
 31
0.0
 11
31.1538204875
 21
12.377171713
 31
0.0
 11
31.1710336551
 21
12.2131316201
 31
0.0
 11
31.1941229776
 21
12.0535083919
 31
0.0
 11
31.2230884549
 21
11.8983020284
 31
0.0
 11
31.2397747515
 21
11.822355171
 31
0.0
 11
31.2579300869
 21
11.7475125297
 31
0.0
 11
31.277554461
 21
11.6737741046
 31
0.0
 11
31.2986478738
 21
11.6011398956
 31
0.0
 11
31.3212103253
 21
11.5296099029
 31
0.0
 11
31.3452418155
 21
11.4591841263
 31
0.0
 11
31.3707423444
 21
11.3898625659
 31
0.0
 11
31.397711912
 21
11.3216452217
 31
0.0
  0
SPLINE
  5
349
100
AcDbEntity
  8
0
100
AcDbSpline
 62
6
  6
CONTINUOUS
 70
0
 71
3
 72
50
 73
46
 74
44
 42
0.0000001
 43
0.0000001
 44
0.0000000001
 12
-0.1305654774
 22
0.0805839875
 32
0.0
 13
0.0092738407
 23
-0.1531506409
 33
0.0
 40
0.0
 40
0.0
 40
0.0
 40
0.0
 40
0.0896023576
 40
0.1777131495
 40
0.2639831713
 40
0.3063303472
 40
0.3480990345
 40
0.3892464316
 40
0.429706121
 40
0.4693919918
 40
0.5082158882
 40
0.5272767402
 40
0.5460851014
 40
0.5828606953
 40
0.6183738281
 40
0.652459622
 40
0.6689108665
 40
0.6849158402
 40
0.7004309642
 40
0.7154152297
 40
0.7298310297
 40
0.7436452457
 40
0.7568282938
 40
0.7693438313
 40
0.7811600294
 40
0.7922585684
 40
0.802639895
 40
0.812330541
 40
0.8213990096
 40
0.8299614091
 40
0.8381475609
 40
0.846092103
 40
0.8539289922
 40
0.8617852735
 40
0.8697754427
 40
0.8779908325
 40
0.8864921722
 40
0.8953129921
 40
0.9044645263
 40
0.9139403727
 40
0.923723362
 40
0.9338063623
 40
0.95484046
 40
0.976951902
 40
1.0
 40
1.0
 40
1.0
 40
1.0
 10
0.685664627
 20
12.5489139222
 30
0.0
 10
0.6817649688
 20
12.5513207606
 30
0.0
 10
0.6741036456
 20
12.5562137922
 30
0.0
 10
0.662936555
 20
12.563804478
 30
0.0
 10
0.6539371773
 20
12.5702774807
 30
0.0
 10
0.6469509223
 20
12.5754862254
 30
0.0
 10
0.6418545826
 20
12.5793683817
 30
0.0
 10
0.636871425
 20
12.5832392877
 30
0.0
 10
0.6320021519
 20
12.5870828004
 30
0.0
 10
0.6272469613
 20
12.5908788538
 30
0.0
 10
0.6233571806
 20
12.5940047099
 30
0.0
 10
0.6203012905
 20
12.5964636797
 30
0.0
 10
0.6173262058
 20
12.5988559651
 30
0.0
 10
0.613688745
 20
12.6017672873
 30
0.0
 10
0.6094139453
 20
12.6051325271
 30
0.0
 10
0.6059187938
 20
12.6078072697
 30
0.0
 10
0.6031841039
 20
12.6098330526
 30
0.0
 10
0.6011929776
 20
12.6112666539
 30
0.0
 10
0.5992394286
 20
12.6126235344
 30
0.0
 10
0.5973256215
 20
12.6138943917
 30
0.0
 10
0.595453722
 20
12.6150699638
 30
0.0
 10
0.5936259678
 20
12.6161409496
 30
0.0
 10
0.5918453045
 20
12.6170976163
 30
0.0
 10
0.5901160385
 20
12.6179304927
 30
0.0
 10
0.5884432364
 20
12.6186296867
 30
0.0
 10
0.5868319958
 20
12.6191851085
 30
0.0
 10
0.5852872248
 20
12.6195866045
 30
0.0
 10
0.5838130117
 20
12.6198235447
 30
0.0
 10
0.5824135989
 20
12.6198851144
 30
0.0
 10
0.5810939221
 20
12.6197765978
 30
0.0
 10
0.57985675
 20
12.6195035422
 30
0.0
 10
0.5787049931
 20
12.6190719677
 30
0.0
 10
0.5776415378
 20
12.6184884601
 30
0.0
 10
0.5766690169
 20
12.6177599164
 30
0.0
 10
0.5757896141
 20
12.6168942731
 30
0.0
 10
0.5750002765
 20
12.6159041246
 30
0.0
 10
0.5742974706
 20
12.6148007287
 30
0.0
 10
0.5736777716
 20
12.6135950298
 30
0.0
 10
0.5731379738
 20
12.6122977296
 30
0.0
 10
0.5726750671
 20
12.6109193338
 30
0.0
 10
0.5722857385
 20
12.6094691646
 30
0.0
 10
0.5718568455
 20
12.6074209079
 30
0.0
 10
0.5715050156
 20
12.6047169486
 30
0.0
 10
0.5713538529
 20
12.6013318213
 30
0.0
 10
0.5714191916
 20
12.599020944
 30
0.0
 10
0.5714904397
 20
12.5978443337
 30
0.0
 11
0.685664627
 21
12.5489139222
 31
0.0
 11
0.6740758615
 21
12.5563100266
 31
0.0
 11
0.6628933429
 21
12.5639069379
 31
0.0
 11
0.6521434971
 21
12.571630021
 31
0.0
 11
0.6469339719
 21
12.5755129002
 31
0.0
 11
0.6418355114
 21
12.5793956943
 31
0.0
 11
0.6368487388
 21
12.5832673567
 31
0.0
 11
0.6319746593
 21
12.5871118136
 31
0.0
 11
0.6272145853
 21
12.5909089465
 31
0.0
 11
0.6225698378
 21
12.5946385224
 31
0.0
 11
0.6202911257
 21
12.5964716453
 31
0.0
 11
0.6180418535
 21
12.598279559
 31
0.0
 11
0.6136335308
 21
12.6018015965
 31
0.0
 11
0.6093487706
 21
12.605167675
 31
0.0
 11
0.6051914949
 21
12.6083407034
 31
0.0
 11
0.6031623497
 21
12.6098419762
 31
0.0
 11
0.6011685717
 21
12.6112755467
 31
0.0
 11
0.5992123811
 21
12.6126320552
 31
0.0
 11
0.5972959976
 21
12.6139021421
 31
0.0
 11
0.5954216414
 21
12.6150764478
 31
0.0
 11
0.5935915322
 21
12.6161456126
 31
0.0
 11
0.5918082565
 21
12.6171001828
 31
0.0
 11
0.5900766026
 21
12.6179301379
 31
0.0
 11
0.5884021788
 21
12.6186252466
 31
0.0
 11
0.5867905943
 21
12.6191752774
 31
0.0
 11
0.5852474587
 21
12.6195699987
 31
0.0
 11
0.5837783808
 21
12.619799181
 31
0.0
 11
0.5823881614
 21
12.6198561378
 31
0.0
 11
0.5810791309
 21
12.6197450109
 31
0.0
 11
0.5798531496
 21
12.6194720033
 31
0.0
 11
0.5787120779
 21
12.619043318
 31
0.0
 11
0.5776577761
 21
12.6184651581
 31
0.0
 11
0.576692104
 21
12.6177437271
 31
0.0
 11
0.5758159656
 21
12.6168862233
 31
0.0
 11
0.5750272881
 21
12.615902943
 31
0.0
 11
0.5743234209
 21
12.614804784
 31
0.0
 11
0.5737017133
 21
12.613602644
 31
0.0
 11
0.5731595147
 21
12.6123074207
 31
0.0
 11
0.5726941746
 21
12.6109300118
 31
0.0
 11
0.5723031236
 21
12.6094808305
 31
0.0
 11
0.5719843482
 21
12.6079669827
 31
0.0
 11
0.5715564989
 21
12.6047681828
 31
0.0
 11
0.5713963797
 21
12.6013793791
 31
0.0
 11
0.5714904397
 21
12.5978443337
 31
0.0
  0
SPLINE
  5
34A
100
AcDbEntity
  8
0
100
AcDbSpline
 62
6
  6
CONTINUOUS
 70
0
 71
3
 72
21
 73
17
 74
15
 42
0.0000001
 43
0.0000001
 44
0.0000000001
 12
0.0281081726
 22
0.0460660183
 32
0.0
 13
0.0
 23
0.0539643161
 33
0.0
 40
0.0
 40
0.0
 40
0.0
 40
0.0
 40
0.0492747711
 40
0.1008522557
 40
0.1546773715
 40
0.2106556641
 40
0.2686773166
 40
0.3286226133
 40
0.4537448249
 40
0.5186431864
 40
0.584882194
 40
0.6522982121
 40
0.720722195
 40
0.7899444993
 40
0.8597271698
 40
1.0
 40
1.0
 40
1.0
 40
1.0
 10
32.1172250915
 20
12.7249877136
 30
0.0
 10
32.1176867661
 20
12.7257443445
 30
0.0
 10
32.1185880069
 20
12.7273199571
 30
0.0
 10
32.1198459657
 20
12.7298028369
 30
0.0
 10
32.1210367091
 20
12.7324513891
 30
0.0
 10
32.1221569248
 20
12.7352555939
 30
0.0
 10
32.1232028518
 20
12.7382053774
 30
0.0
 10
32.1245120157
 20
12.7423783256
 30
0.0
 10
32.1256310735
 20
12.7467372917
 30
0.0
 10
32.1265710357
 20
12.7512505106
 30
0.0
 10
32.127194894
 20
12.7547677755
 30
0.0
 10
32.1277267245
 20
12.7583641582
 30
0.0
 10
32.1281638444
 20
12.7620273165
 30
0.0
 10
32.1285051259
 20
12.7657434151
 30
0.0
 10
32.1288320496
 20
12.7707568294
 30
0.0
 10
32.1289305454
 20
12.7745363096
 30
0.0
 10
32.1289305454
 20
12.7770595521
 30
0.0
 11
32.1172250915
 21
12.7249877136
 31
0.0
 11
32.1185480862
 21
12.7272943103
 31
0.0
 11
32.1198086479
 21
12.7297758393
 31
0.0
 11
32.1210022585
 21
12.7324238954
 31
0.0
 11
32.1221250907
 21
12.7352282962
 31
0.0
 11
32.1231733793
 21
12.7381786979
 31
0.0
 11
32.1241433596
 21
12.7412647571
 31
0.0
 11
32.1258340473
 21
12.7478017974
 31
0.0
 11
32.1265492247
 21
12.751230193
 31
0.0
 11
32.1271744463
 21
12.7547496324
 31
0.0
 11
32.1277073378
 21
12.7583484519
 31
0.0
 11
32.1281456002
 21
12.7620148041
 31
0.0
 11
32.1284878406
 21
12.7657346278
 31
0.0
 11
32.1287332663
 21
12.7694923959
 31
0.0
 11
32.1289305454
 21
12.7770595521
 31
0.0
  0
SPLINE
  5
34B
100
AcDbEntity
  8
0
100
AcDbSpline
 62
6
  6
CONTINUOUS
 70
0
 71
3
 72
45
 73
41
 74
39
 42
0.0000001
 43
0.0000001
 44
0.0000000001
 12
-0.068106728
 22
0.054418555
 32
0.0
 13
0.0044636255
 23
-0.0870630896
 33
0.0
 40
0.0
 40
0.0
 40
0.0
 40
0.0
 40
0.0955048088
 40
0.1887620041
 40
0.2796085277
 40
0.3240741691
 40
0.3678691558
 40
0.4532639105
 40
0.5353493474
 40
0.5750025914
 40
0.6136422823
 40
0.6874437236
 40
0.7557906902
 40
0.7876028562
 40
0.8175868342
 40
0.8454772363
 40
0.8710117378
 40
0.8828159893
 40
0.8939372438
 40
0.9043455733
 40
0.9140100979
 40
0.9229018923
 40
0.9309957426
 40
0.9382721308
 40
0.9447206374
 40
0.9503460316
 40
0.952859696
 40
0.9551827829
 40
0.9593045501
 40
0.962884295
 40
0.9645525974
 40
0.9661855353
 40
0.9678210464
 40
0.9694954836
 40
0.973079668
 40
0.9771466301
 40
0.9818193504
 40
0.9871663498
 40
0.9932222823
 40
1.0
 40
1.0
 40
1.0
 40
1.0
 10
0.5738288473
 20
12.5615401311
 30
0.0
 10
0.571660674
 20
12.5632725423
 30
0.0
 10
0.5674230692
 20
12.5667568147
 30
0.0
 10
0.5612900598
 20
12.5720878066
 30
0.0
 10
0.5563925219
 20
12.5765757193
 30
0.0
 10
0.5526227693
 20
12.5801644585
 30
0.0
 10
0.5490111611
 20
12.5836889952
 30
0.0
 10
0.5446932668
 20
12.5880542933
 30
0.0
 10
0.540551089
 20
12.5924220169
 30
0.0
 10
0.5373917001
 20
12.5958481811
 30
0.0
 10
0.534423614
 20
12.5991230764
 30
0.0
 10
0.5309374294
 20
12.603053425
 30
0.0
 10
0.5276132103
 20
12.6068618509
 30
0.0
 10
0.5251270057
 20
12.6097116129
 30
0.0
 10
0.523406869
 20
12.6116695639
 30
0.0
 10
0.5217913184
 20
12.6134764809
 30
0.0
 10
0.5205065322
 20
12.6148703296
 30
0.0
 10
0.5195327215
 20
12.6158876111
 30
0.0
 10
0.5188520836
 20
12.6165768957
 30
0.0
 10
0.5182028231
 20
12.6172095726
 30
0.0
 10
0.5175861751
 20
12.6177825874
 30
0.0
 10
0.5170034317
 20
12.6182928555
 30
0.0
 10
0.5164558805
 20
12.6187373134
 30
0.0
 10
0.5159447303
 20
12.6191130078
 30
0.0
 10
0.515471147
 20
12.6194169607
 30
0.0
 10
0.5150954959
 20
12.6196151844
 30
0.0
 10
0.5148143473
 20
12.6197315351
 30
0.0
 10
0.514567081
 20
12.6198134148
 30
0.0
 10
0.5142794182
 20
12.6198705223
 30
0.0
 10
0.5140037502
 20
12.619858783
 30
0.0
 10
0.5138102755
 20
12.6198054793
 30
0.0
 10
0.5136789375
 20
12.6197463236
 30
0.0
 10
0.5135582535
 20
12.6196673902
 30
0.0
 10
0.5134083153
 20
12.6195335202
 30
0.0
 10
0.513246943
 20
12.6193119401
 30
0.0
 10
0.5131023526
 20
12.6189822557
 30
0.0
 10
0.5129988663
 20
12.6185848789
 30
0.0
 10
0.5129353334
 20
12.6181212623
 30
0.0
 10
0.5129110144
 20
12.6175929696
 30
0.0
 10
0.5129202279
 20
12.6172198659
 30
0.0
 10
0.5129303123
 20
12.6170231695
 30
0.0
 11
0.5738288473
 21
12.5615401311
 31
0.0
 11
0.5673975059
 21
12.5668276509
 31
0.0
 11
0.5612611502
 21
12.5721606418
 31
0.0
 11
0.5554218662
 21
12.5775109196
 31
0.0
 11
0.5526142521
 21
12.5801837057
 31
0.0
 11
0.5498816833
 21
12.5828501064
 31
0.0
 11
0.544644777
 21
12.5881411678
 31
0.0
 11
0.5397190415
 21
12.5933320672
 31
0.0
 11
0.5373754455
 21
12.5958732275
 31
0.0
 11
0.5351128613
 21
12.5983687368
 31
0.0
 11
0.5308389251
 21
12.6031778445
 31
0.0
 11
0.5269153181
 21
12.6076619058
 31
0.0
 11
0.5250908392
 21
12.6097505625
 31
0.0
 11
0.5233637698
 21
12.611712664
 31
0.0
 11
0.521740919
 21
12.6135232242
 31
0.0
 11
0.5202291333
 21
12.6151571533
 31
0.0
 11
0.5195170293
 21
12.6159000405
 31
0.0
 11
0.5188352589
 21
12.6165893611
 31
0.0
 11
0.5181847723
 21
12.617221967
 31
0.0
 11
0.517566821
 21
12.6177946715
 31
0.0
 11
0.5169827167
 21
12.6183042803
 31
0.0
 11
0.5164337712
 21
12.6187475993
 31
0.0
 11
0.5159212961
 21
12.6191214342
 31
0.0
 11
0.5154466031
 21
12.6194225908
 31
0.0
 11
0.515011004
 21
12.6196478748
 31
0.0
 11
0.5148082745
 21
12.6197310663
 31
0.0
 11
0.5146158104
 21
12.6197940919
 31
0.0
 11
0.5142622649
 21
12.6198582797
 31
0.0
 11
0.5139506969
 21
12.6198405322
 31
0.0
 11
0.5138105569
 21
12.6198016338
 31
0.0
 11
0.5136807914
 21
12.6197431022
 31
0.0
 11
0.5135613592
 21
12.6196652246
 31
0.0
 11
0.5134522193
 21
12.6195682883
 31
0.0
 11
0.5132646521
 21
12.6193183888
 31
0.0
 11
0.5131177607
 21
12.618995702
 31
0.0
 11
0.5130112164
 21
12.6186025264
 31
0.0
 11
0.5129446904
 21
12.6181411604
 31
0.0
 11
0.5129178539
 21
12.6176139022
 31
0.0
 11
0.5129303123
 21
12.6170231695
 31
0.0
  0
SPLINE
  5
34C
100
AcDbEntity
  8
0
100
AcDbSpline
 62
6
  6
CONTINUOUS
 70
0
 71
3
 72
19
 73
15
 74
13
 42
0.0000001
 43
0.0000001
 44
0.0000000001
 12
-0.0617512258
 22
-1.2547777146
 32
0.0
 13
-0.4760113948
 23
-1.1626235328
 33
0.0
 40
0.0
 40
0.0
 40
0.0
 40
0.0
 40
0.1343934675
 40
0.2656847369
 40
0.3940656842
 40
0.5197415164
 40
0.5816364134
 40
0.6429382168
 40
0.7036763739
 40
0.763881159
 40
0.8235836581
 40
0.8828157477
 40
0.9416100697
 40
1.0
 40
1.0
 40
1.0
 40
1.0
 10
32.0970881292
 20
12.5456286706
 30
0.0
 10
32.0943218088
 20
12.4894173613
 30
0.0
 10
32.0868973328
 20
12.3783768017
 30
0.0
 10
32.0697435619
 20
12.2142106634
 30
0.0
 10
32.0467060368
 20
12.0544505634
 30
0.0
 10
32.0224810156
 20
11.9243346562
 30
0.0
 10
32.0001256589
 20
11.8225343643
 30
0.0
 10
31.9819736673
 20
11.7476716272
 30
0.0
 10
31.9623518541
 20
11.673912908
 30
0.0
 10
31.9412600947
 20
11.6012578584
 30
0.0
 10
31.9186983692
 20
11.5297066702
 30
0.0
 10
31.8946665636
 20
11.4592592297
 30
0.0
 10
31.8691648528
 20
11.3899161426
 30
0.0
 10
31.8511244493
 20
11.344273724
 30
0.0
 10
31.8418596919
 20
11.3216452217
 30
0.0
 11
32.0970881292
 21
12.5456286706
 31
0.0
 11
32.0857511164
 21
12.377171713
 31
0.0
 11
32.0685379487
 21
12.2131316201
 31
0.0
 11
32.0454486263
 21
12.0535083919
 31
0.0
 11
32.016483149
 21
11.8983020284
 31
0.0
 11
31.9997968523
 21
11.822355171
 31
0.0
 11
31.9816415169
 21
11.7475125297
 31
0.0
 11
31.9620171428
 21
11.6737741046
 31
0.0
 11
31.94092373
 21
11.6011398956
 31
0.0
 11
31.9183612786
 21
11.5296099029
 31
0.0
 11
31.8943297884
 21
11.4591841263
 31
0.0
 11
31.8688292595
 21
11.3898625659
 31
0.0
 11
31.8418596919
 21
11.3216452217
 31
0.0
  0
SPLINE
  5
34D
100
AcDbEntity
  8
0
100
AcDbSpline
 62
6
  6
CONTINUOUS
 70
0
 71
3
 72
15
 73
11
 74
9
 42
0.0000001
 43
0.0000001
 44
0.0000000001
 12
-0.0313940118
 22
-1.2323719498
 32
0.0
 13
-0.2555914276
 23
-1.2059847547
 33
0.0
 40
0.0
 40
0.0
 40
0.0
 40
0.0
 40
0.1367318357
 40
0.269994057
 40
0.3998397127
 40
0.5263261502
 40
0.6495154087
 40
0.7694746429
 40
0.8862765788
 40
1.0
 40
1.0
 40
1.0
 40
1.0
 10
31.8668556671
 20
12.5456286706
 30
0.0
 10
31.8654248135
 20
12.489460511
 30
0.0
 10
31.8615887212
 20
12.3785720385
 30
0.0
 10
31.8527190369
 20
12.2144974861
 30
0.0
 10
31.8408082405
 20
12.0548356548
 30
0.0
 10
31.8258561465
 20
11.8995869079
 30
0.0
 10
31.8078625297
 20
11.7487508349
 30
0.0
 10
31.7868269949
 20
11.6023267091
 30
0.0
 10
31.7627494853
 20
11.4603156691
 30
0.0
 10
31.7444286167
 20
11.3673614591
 30
0.0
 10
31.7347397062
 20
11.3216452217
 30
0.0
 11
31.8668556671
 21
12.5456286706
 31
0.0
 11
31.8609871974
 21
12.377171713
 31
0.0
 11
31.8520770062
 21
12.2131316201
 31
0.0
 11
31.8401250934
 21
12.0535083919
 31
0.0
 11
31.8251314591
 21
11.8983020284
 31
0.0
 11
31.8070961032
 21
11.7475125297
 31
0.0
 11
31.7860190257
 21
11.6011398956
 31
0.0
 11
31.7619002267
 21
11.4591841263
 31
0.0
 11
31.7347397062
 21
11.3216452217
 31
0.0
  0
SPLINE
  5
34E
100
AcDbEntity
  8
0
100
AcDbSpline
 62
6
  6
CONTINUOUS
 70
0
 71
3
 72
14
 73
10
 74
8
 42
0.0000001
 43
0.0000001
 44
0.0000000001
 12
0.0146635801
 22
0.0358305689
 32
0.0
 13
0.0
 23
0.0387149874
 33
0.0
 40
0.0
 40
0.0
 40
0.0
 40
0.0
 40
0.2351945358
 40
0.3577089902
 40
0.4829125082
 40
0.6103558478
 40
0.7394758994
 40
0.8695895995
 40
1.0
 40
1.0
 40
1.0
 40
1.0
 10
32.2623410385
 20
12.7391991948
 30
0.0
 10
32.2634906364
 20
12.7420082462
 30
0.0
 10
32.2649856481
 20
12.7463884157
 30
0.0
 10
32.2665466597
 20
12.7524231144
 30
0.0
 10
32.2675288806
 20
12.7571660671
 30
0.0
 10
32.268298244
 20
12.7620340619
 30
0.0
 10
32.2688503849
 20
12.7669952336
 30
0.0
 10
32.2691837815
 20
12.7720140755
 30
0.0
 10
32.2692585819
 20
12.7753766064
 30
0.0
 10
32.2692585819
 20
12.7770595521
 30
0.0
 11
32.2623410385
 21
12.7391991948
 31
0.0
 11
32.2653101524
 21
12.7478070672
 31
0.0
 11
32.2665007416
 21
12.7523983554
 31
0.0
 11
32.267485611
 21
12.7571445002
 31
0.0
 11
32.2682576821
 21
12.7620176859
 31
0.0
 11
32.268812162
 21
12.7669857202
 31
0.0
 11
32.2691465831
 21
12.7720119574
 31
0.0
 11
32.2692585819
 21
12.7770595521
 31
0.0
  0
SPLINE
  5
34F
100
AcDbEntity
  8
0
100
AcDbSpline
 62
6
  6
CONTINUOUS
 70
0
 71
3
 72
57
 73
53
 74
51
 42
0.0000001
 43
0.0000001
 44
0.0000000001
 12
0.0148554621
 22
0.2628136399
 32
0.0
 13
-0.2249138557
 23
-0.1367678748
 33
0.0
 40
0.0
 40
0.0
 40
0.0
 40
0.0
 40
0.020087736
 40
0.0407524152
 40
0.0620345399
 40
0.0729159583
 40
0.0839575259
 40
0.1065164591
 40
0.1297125821
 40
0.1415508703
 40
0.1535457911
 40
0.1779769708
 40
0.2029772986
 40
0.2156913506
 40
0.2285401723
 40
0.2415186945
 40
0.2546278512
 40
0.2678751093
 40
0.281270599
 40
0.2948144409
 40
0.3085172058
 40
0.3224083792
 40
0.3365353258
 40
0.3509307342
 40
0.3656214485
 40
0.3730933061
 40
0.3806583744
 40
0.3883258784
 40
0.396103631
 40
0.4039946808
 40
0.4119999366
 40
0.4283458722
 40
0.4366836791
 40
0.4451246625
 40
0.4536632032
 40
0.4622944098
 40
0.4798273409
 40
0.4977042367
 40
0.5158862955
 40
0.5343203128
 40
0.5529601749
 40
0.5717867099
 40
0.5907797609
 40
0.6099153565
 40
0.6485261836
 40
0.6874882391
 40
0.7266797638
 40
0.7660047765
 40
0.8447056692
 40
0.9229334073
 40
0.9616645517
 40
1.0
 40
1.0
 40
1.0
 40
1.0
 10
2.1927932266
 20
12.5456286706
 30
0.0
 10
2.1928926974
 20
12.5473884476
 30
0.0
 10
2.1929206042
 20
12.55097024
 30
0.0
 10
2.1924800516
 20
12.5564016377
 30
0.0
 10
2.1917277298
 20
12.5609808745
 30
0.0
 10
2.1909027379
 20
12.5646817278
 30
0.0
 10
2.189913865
 20
12.5684582411
 30
0.0
 10
2.1883883722
 20
12.5732073742
 30
0.0
 10
2.1865062555
 20
12.5779019424
 30
0.0
 10
2.1847755956
 20
12.5816488187
 30
0.0
 10
2.1828680653
 20
12.5854306467
 30
0.0
 10
2.1801836006
 20
12.5901102229
 30
0.0
 10
2.1771174655
 20
12.5946266355
 30
0.0
 10
2.1744101557
 20
12.5981428355
 30
0.0
 10
2.1722340254
 20
12.6007329416
 30
0.0
 10
2.16991844
 20
12.603246665
 30
0.0
 10
2.1674584992
 20
12.6056696809
 30
0.0
 10
2.1648494971
 20
12.6079871151
 30
0.0
 10
2.1620885117
 20
12.6101835024
 30
0.0
 10
2.159166807
 20
12.6122324025
 30
0.0
 10
2.1560772911
 20
12.614104653
 30
0.0
 10
2.152813679
 20
12.6157707017
 30
0.0
 10
2.149372779
 20
12.6171991614
 30
0.0
 10
2.1457585958
 20
12.6183602139
 30
0.0
 10
2.1426267809
 20
12.6190749141
 30
0.0
 10
2.1400497679
 20
12.6194833282
 30
0.0
 10
2.138069198
 20
12.6197049277
 30
0.0
 10
2.1360536617
 20
12.6198355025
 30
0.0
 10
2.1340056902
 20
12.6198731542
 30
0.0
 10
2.1319284359
 20
12.6198210688
 30
0.0
 10
2.1291049467
 20
12.6196336636
 30
0.0
 10
2.1262559586
 20
12.6192753784
 30
0.0
 10
2.1233947128
 20
12.6187623576
 30
0.0
 10
2.1212220519
 20
12.6182972391
 30
0.0
 10
2.1190404518
 20
12.6177567182
 30
0.0
 10
2.1161082071
 20
12.6169344195
 30
0.0
 10
2.112433157
 20
12.6157334577
 30
0.0
 10
2.108036761
 20
12.614060895
 30
0.0
 10
2.1036383289
 20
12.6121830597
 30
0.0
 10
2.0992436305
 20
12.6101335795
 30
0.0
 10
2.0948555701
 20
12.6079407568
 30
0.0
 10
2.0904769078
 20
12.6056227324
 30
0.0
 10
2.0861069334
 20
12.603197655
 30
0.0
 10
2.0802730326
 20
12.599834913
 30
0.0
 10
2.0730048606
 20
12.5954539288
 30
0.0
 10
2.0643281397
 20
12.5900051374
 30
0.0
 10
2.0556588515
 20
12.5844281759
 30
0.0
 10
2.044103078
 20
12.5768938969
 30
0.0
 10
2.0296977191
 20
12.567458936
 30
0.0
 10
2.0152620829
 20
12.5581653701
 30
0.0
 10
2.0037214605
 20
12.5509202707
 30
0.0
 10
1.9979621871
 20
12.5473763566
 30
0.0
 10
1.9950881292
 20
12.5456286706
 30
0.0
 11
2.1927932266
 21
12.5456286706
 31
0.0
 11
2.1928431096
 21
12.5509161935
 31
0.0
 11
2.1924117579
 21
12.5563386926
 31
0.0
 11
2.1915112618
 21
12.5618680065
 31
0.0
 11
2.1908888578
 21
12.5646639169
 31
0.0
 11
2.1901531142
 21
12.5674757601
 31
0.0
 11
2.188340748
 21
12.5731306917
 31
0.0
 11
2.1860718104
 21
12.5787994675
 31
0.0
 11
2.1847653481
 21
12.5816286097
 31
0.0
 11
2.1833430688
 21
12.5844475954
 31
0.0
 11
2.180140421
 21
12.5900245166
 31
0.0
 11
2.1764415968
 21
12.5954675988
 31
0.0
 11
2.1743989129
 21
12.5981186825
 31
0.0
 11
2.1722221168
 21
12.6007073266
 31
0.0
 11
2.1699064028
 21
12.6032191194
 31
0.0
 11
2.1674469635
 21
12.6056396431
 31
0.0
 11
2.1648389911
 21
12.6079544799
 31
0.0
 11
2.1620774927
 21
12.6101471423
 31
0.0
 11
2.1591566002
 21
12.6121913914
 31
0.0
 11
2.1560701885
 21
12.6140581187
 31
0.0
 11
2.1528121323
 21
12.6157182152
 31
0.0
 11
2.1493770037
 21
12.6171424615
 31
0.0
 11
2.145768826
 21
12.6183001394
 31
0.0
 11
2.1419984263
 21
12.6191594518
 31
0.0
 11
2.1400558234
 21
12.619467277
 31
0.0
 11
2.1380767814
 21
12.619688578
 31
0.0
 11
2.1360626855
 21
12.6198194185
 31
0.0
 11
2.1340156914
 21
12.6198582483
 31
0.0
 11
2.1319391336
 21
12.61980717
 31
0.0
 11
2.1298364462
 21
12.6196685953
 31
0.0
 11
2.1255664195
 21
12.619138602
 31
0.0
 11
2.1234059485
 21
12.6187520064
 31
0.0
 11
2.1212330848
 21
12.6182875601
 31
0.0
 11
2.1190512619
 21
12.617747675
 31
0.0
 11
2.1168633592
 21
12.6171351754
 31
0.0
 11
2.1124741115
 21
12.6157086321
 31
0.0
 11
2.1080734863
 21
12.6140416069
 31
0.0
 11
2.1036693382
 21
12.6121679924
 31
0.0
 11
2.099269495
 21
12.6101216304
 31
0.0
 11
2.094878975
 21
12.6079311169
 31
0.0
 11
2.0904975776
 21
12.6056153027
 31
0.0
 11
2.0861245346
 21
12.6031919781
 31
0.0
 11
2.0817590775
 21
12.6006789332
 31
0.0
 11
2.0730475127
 21
12.5954436283
 31
0.0
 11
2.0643551951
 21
12.5900001643
 31
0.0
 11
2.0556744293
 21
12.5844256996
 31
0.0
 11
2.0469985902
 21
12.5787788938
 31
0.0
 11
2.0296480878
 21
12.5674589523
 31
0.0
 11
2.012320048
 21
12.5563335295
 31
0.0
 11
2.0036839451
 21
12.5509148299
 31
0.0
 11
1.9950881292
 21
12.5456286706
 31
0.0
  0
SPLINE
  5
350
100
AcDbEntity
  8
0
100
AcDbSpline
 62
6
  6
CONTINUOUS
 70
0
 71
3
 72
64
 73
60
 74
58
 42
0.0000001
 43
0.0000001
 44
0.0000000001
 12
-0.1029608314
 22
0.2640278604
 32
0.0
 13
-0.2337702646
 23
-0.1601970888
 33
0.0
 40
0.0
 40
0.0
 40
0.0
 40
0.0
 40
0.020284697
 40
0.0416584428
 40
0.0640736909
 40
0.0756552488
 40
0.0874759913
 40
0.1118111365
 40
0.1243169327
 40
0.1370413589
 40
0.1499800851
 40
0.1631281277
 40
0.1900235569
 40
0.2037631027
 40
0.2176925991
 40
0.2318107774
 40
0.2461124456
 40
0.2605925846
 40
0.2752506763
 40
0.2900911281
 40
0.305121111
 40
0.3203369971
 40
0.3357391439
 40
0.3513419594
 40
0.3671741735
 40
0.3832476075
 40
0.3995519449
 40
0.4077925782
 40
0.4160937137
 40
0.4244585871
 40
0.4328907922
 40
0.4413908013
 40
0.4499570806
 40
0.4672739625
 40
0.4848096723
 40
0.4936457879
 40
0.5025182336
 40
0.5203668461
 40
0.5383509856
 40
0.5564508915
 40
0.5746335211
 40
0.5928605483
 40
0.611118089
 40
0.6293991405
 40
0.6476929947
 40
0.665985753
 40
0.6842621633
 40
0.7025126184
 40
0.7207290701
 40
0.7570231556
 40
0.7750810145
 40
0.7930662532
 40
0.8287876971
 40
0.8641249392
 40
0.8816294674
 40
0.8990127661
 40
0.9333623542
 40
0.9670622295
 40
1.0
 40
1.0
 40
1.0
 40
1.0
 10
1.9950881292
 20
12.5456286706
 30
0.0
 10
1.9943919528
 20
12.5474139124
 30
0.0
 10
1.9928383272
 20
12.5510327764
 30
0.0
 10
1.990129804
 20
12.5564487341
 30
0.0
 10
1.987546922
 20
12.5609998198
 30
0.0
 10
1.9852777976
 20
12.5646858008
 30
0.0
 10
1.9828249761
 20
12.5684702676
 30
0.0
 10
1.980190343
 20
12.5722394893
 30
0.0
 10
1.9773787151
 20
12.5759838417
 30
0.0
 10
1.9751480552
 20
12.5788170263
 30
0.0
 10
1.9728145856
 20
12.5816452738
 30
0.0
 10
1.9695411747
 20
12.5854317338
 30
0.0
 10
1.9660776658
 20
12.5891523947
 30
0.0
 10
1.9624179602
 20
12.5927827755
 30
0.0
 10
1.9595385086
 20
12.5954837278
 30
0.0
 10
1.9565422279
 20
12.5981353397
 30
0.0
 10
1.9534243951
 20
12.6007253003
 30
0.0
 10
1.9501797196
 20
12.6032388606
 30
0.0
 10
1.9468035659
 20
12.6056614911
 30
0.0
 10
1.9432912391
 20
12.6079780766
 30
0.0
 10
1.9396402647
 20
12.6101738513
 30
0.0
 10
1.9358441363
 20
12.6122229337
 30
0.0
 10
1.9318974026
 20
12.614095395
 30
0.0
 10
1.9277957996
 20
12.6157614708
 30
0.0
 10
1.9235378995
 20
12.6171894865
 30
0.0
 10
1.9191305351
 20
12.6183497157
 30
0.0
 10
1.9153574643
 20
12.6190666953
 30
0.0
 10
1.9122814326
 20
12.6194778501
 30
0.0
 10
1.9099387029
 20
12.6197015186
 30
0.0
 10
1.9075709925
 20
12.6198354599
 30
0.0
 10
1.9051810591
 20
12.6198758985
 30
0.0
 10
1.9027723231
 20
12.6198255799
 30
0.0
 10
1.8995290327
 20
12.6196403395
 30
0.0
 10
1.8954486285
 20
12.6191932864
 30
0.0
 10
1.8913804368
 20
12.6184831589
 30
0.0
 10
1.8881288513
 20
12.6177660614
 30
0.0
 10
1.8848705051
 20
12.6169487218
 30
0.0
 10
1.8808176063
 20
12.615754938
 30
0.0
 10
1.8760025159
 20
12.6140855005
 30
0.0
 10
1.8712305753
 20
12.6122093657
 30
0.0
 10
1.866506173
 20
12.6101592013
 30
0.0
 10
1.8618299267
 20
12.6079666766
 30
0.0
 10
1.8572033974
 20
12.6056505308
 30
0.0
 10
1.8526252237
 20
12.6032269489
 30
0.0
 10
1.8480929135
 20
12.6007119854
 30
0.0
 10
1.8436039931
 20
12.5981214243
 30
0.0
 10
1.8391549658
 20
12.5954710474
 30
0.0
 10
1.8347448295
 20
12.5927702773
 30
0.0
 10
1.8289220996
 20
12.5891179062
 30
0.0
 10
1.8231655661
 20
12.5853950546
 30
0.0
 10
1.8174624957
 20
12.581630897
 30
0.0
 10
1.8118229079
 20
12.577868866
 30
0.0
 10
1.8048555335
 20
12.5731561151
 30
0.0
 10
1.7979531116
 20
12.5684287445
 30
0.0
 10
1.792488354
 20
12.5646679889
 30
0.0
 10
1.7871032777
 20
12.5609560234
 30
0.0
 10
1.7804617778
 20
12.5563711508
 30
0.0
 10
1.7726094695
 20
12.5509538607
 30
0.0
 10
1.7674222909
 20
12.5473875156
 30
0.0
 10
1.7648556671
 20
12.5456286706
 30
0.0
 11
1.9950881292
 21
12.5456286706
 31
0.0
 11
1.9928297776
 21
12.5509150299
 31
0.0
 11
1.9901281851
 21
12.5563363516
 31
0.0
 11
1.986999026
 21
12.5618644991
 31
0.0
 11
1.9852790038
 21
12.5646598388
 31
0.0
 11
1.9834573171
 21
12.5674711374
 31
0.0
 11
1.9795083468
 21
12.5731249973
 31
0.0
 11
1.9773804795
 21
12.5759591665
 31
0.0
 11
1.9751499681
 21
12.5787925672
 31
0.0
 11
1.97281652
 21
12.581621002
 31
0.0
 11
1.9703792451
 21
12.5844393787
 31
0.0
 11
1.965182865
 21
12.5900154162
 31
0.0
 11
1.9624181724
 21
12.5927571885
 31
0.0
 11
1.9595387532
 21
12.5954575371
 31
0.0
 11
1.9565417073
 21
12.5981081353
 31
0.0
 11
1.9534230344
 21
12.6006966946
 31
0.0
 11
1.9501780836
 21
12.6032085847
 31
0.0
 11
1.9468021954
 21
12.6056291448
 31
0.0
 11
1.9432907105
 21
12.607943714
 31
0.0
 11
1.9396390111
 21
12.6101363203
 31
0.0
 11
1.9358427805
 21
12.612181471
 31
0.0
 11
1.9318978354
 21
12.6140494722
 31
0.0
 11
1.9277999928
 21
12.6157106114
 31
0.0
 11
1.9235454078
 21
12.6171351614
 31
0.0
 11
1.9191399105
 21
12.6182929744
 31
0.0
 11
1.9146001996
 21
12.6191534295
 31
0.0
 11
1.9122854128
 21
12.6194625711
 31
0.0
 11
1.9099435513
 21
12.6196858811
 31
0.0
 11
1.9075767744
 21
12.6198195287
 31
0.0
 11
1.905187502
 21
12.6198607907
 31
0.0
 11
1.9027791674
 21
12.6198112569
 31
0.0
 11
1.900355451
 21
12.6196735669
 31
0.0
 11
1.8954765927
 21
12.6191442767
 31
0.0
 11
1.8905803684
 21
12.6182940371
 31
0.0
 11
1.8881349443
 21
12.6177551603
 31
0.0
 11
1.885695935
 21
12.6171441038
 31
0.0
 11
1.8808421499
 21
12.6157207665
 31
0.0
 11
1.876024904
 21
12.6140566515
 31
0.0
 11
1.8712492621
 21
12.6121847892
 31
0.0
 11
1.866520289
 21
12.6101382099
 31
0.0
 11
1.8618422031
 21
12.6079480022
 31
0.0
 11
1.8572143681
 21
12.6056341204
 31
0.0
 11
1.8526344202
 21
12.6032125558
 31
0.0
 11
1.8480999934
 21
12.6006992954
 31
0.0
 11
1.8436087217
 21
12.5981103259
 31
0.0
 11
1.8391583215
 21
12.5954607582
 31
0.0
 11
1.8347469752
 21
12.5927607294
 31
0.0
 11
1.8303730302
 21
12.5900186226
 31
0.0
 11
1.8217307332
 21
12.5844416997
 31
0.0
 11
1.8174590818
 21
12.5816236297
 31
0.0
 11
1.8132187369
 21
12.5787955937
 31
0.0
 11
1.8048310143
 21
12.5731276577
 31
0.0
 11
1.7965661058
 21
12.5674727398
 31
0.0
 11
1.7924792784
 21
12.5646609764
 31
0.0
 11
1.7884230831
 21
12.5618653051
 31
0.0
 11
1.7804109928
 21
12.556336684
 31
0.0
 11
1.7725487442
 21
12.5509151065
 31
0.0
 11
1.7648556671
 21
12.5456286706
 31
0.0
  0
SPLINE
  5
351
100
AcDbEntity
  8
0
100
AcDbSpline
 62
6
  6
CONTINUOUS
 70
0
 71
3
 72
11
 73
7
 74
5
 42
0.0000001
 43
0.0000001
 44
0.0000000001
 12
-0.1389485195
 22
-0.3461135142
 32
0.0
 13
-0.186885346
 23
-0.3227617128
 33
0.0
 40
0.0
 40
0.0
 40
0.0
 40
0.0
 40
0.2506351822
 40
0.5006334459
 40
0.7503146821
 40
1.0
 40
1.0
 40
1.0
 40
1.0
 10
32.0969889621
 20
11.6567014591
 30
0.0
 10
32.0853804996
 20
11.6277853845
 30
0.0
 10
32.0611678292
 20
11.5704321423
 30
0.0
 10
32.0218348697
 20
11.485829355
 30
0.0
 10
31.9795482897
 20
11.4027959463
 30
0.0
 10
31.9493998846
 20
11.3485081753
 30
0.0
 10
31.933845709
 20
11.3216452217
 30
0.0
 11
32.0969889621
 21
11.6567014591
 31
0.0
 11
32.0606278543
 21
11.5705856547
 31
0.0
 11
32.0213169428
 21
11.4860376803
 31
0.0
 11
31.9790562277
 21
11.403057536
 31
0.0
 11
31.933845709
 21
11.3216452217
 31
0.0
  0
SPLINE
  5
352
100
AcDbEntity
  8
0
100
AcDbSpline
 62
6
  6
CONTINUOUS
 70
0
 71
3
 72
52
 73
48
 74
46
 42
0.0000001
 43
0.0000001
 44
0.0000000001
 12
0.0145335159
 22
0.2128434361
 32
0.0
 13
-0.1843694014
 23
-0.1073381348
 33
0.0
 40
0.0
 40
0.0
 40
0.0
 40
0.0
 40
0.0227312273
 40
0.0454579866
 40
0.0681899584
 40
0.0908916914
 40
0.1022217669
 40
0.1135333492
 40
0.1248260765
 40
0.1360949302
 40
0.1585154255
 40
0.1696659598
 40
0.1807779509
 40
0.191860569
 40
0.2029137831
 40
0.2139393744
 40
0.2249559384
 40
0.2360013333
 40
0.2471333603
 40
0.2584124036
 40
0.2699008902
 40
0.2816773531
 40
0.2938360483
 40
0.3064775167
 40
0.3196650041
 40
0.3334256745
 40
0.3477624962
 40
0.362659755
 40
0.3780961485
 40
0.3940500356
 40
0.4104866353
 40
0.4273598641
 40
0.4446154663
 40
0.4801216374
 40
0.516794655
 40
0.5355014882
 40
0.5544238377
 40
0.5928522005
 40
0.6123262173
 40
0.6319519334
 40
0.6716098737
 40
0.7117381093
 40
0.7522546797
 40
0.7930924271
 40
0.8341892569
 40
0.9169326542
 40
1.0
 40
1.0
 40
1.0
 40
1.0
 10
32.4533704976
 20
12.5710538349
 30
0.0
 10
32.4534806191
 20
12.5726665658
 30
0.0
 10
32.4535861484
 20
12.5759007432
 30
0.0
 10
32.4533971025
 20
12.5807502147
 30
0.0
 10
32.4528605927
 20
12.5855717921
 30
0.0
 10
32.4521129522
 20
12.5895431252
 30
0.0
 10
32.4513271719
 20
12.5926712086
 30
0.0
 10
32.4506428404
 20
12.594986063
 30
0.0
 10
32.4498618154
 20
12.5972656331
 30
0.0
 10
32.4486911287
 20
12.6002432882
 30
0.0
 10
32.447313971
 20
12.6031265092
 30
0.0
 10
32.4457167989
 20
12.6058750519
 30
0.0
 10
32.4444089878
 20
12.6078547802
 30
0.0
 10
32.442987633
 20
12.6097461413
 30
0.0
 10
32.4414479181
 20
12.6115348475
 30
0.0
 10
32.439783933
 20
12.6132025319
 30
0.0
 10
32.4379907664
 20
12.614730311
 30
0.0
 10
32.436063509
 20
12.6160990335
 30
0.0
 10
32.4339984528
 20
12.6172882038
 30
0.0
 10
32.4317961758
 20
12.6182788651
 30
0.0
 10
32.4294599235
 20
12.6190524207
 30
0.0
 10
32.4269938938
 20
12.6195892618
 30
0.0
 10
32.4244029535
 20
12.6198698298
 30
0.0
 10
32.421697009
 20
12.6198753392
 30
0.0
 10
32.4188897482
 20
12.6196205902
 30
0.0
 10
32.415994111
 20
12.6191193425
 30
0.0
 10
32.4130237483
 20
12.6183852119
 30
0.0
 10
32.4099920087
 20
12.6174305503
 30
0.0
 10
32.406910081
 20
12.6162704669
 30
0.0
 10
32.4037843052
 20
12.614927418
 30
0.0
 10
32.4006201561
 20
12.6134220446
 30
0.0
 10
32.397423058
 20
12.6117751468
 30
0.0
 10
32.3930800686
 20
12.6093951419
 30
0.0
 10
32.3876015914
 20
12.6061616249
 30
0.0
 10
32.3821354062
 20
12.6027119035
 30
0.0
 10
32.3777070367
 20
12.5998293663
 30
0.0
 10
32.3731962815
 20
12.5968448346
 30
0.0
 10
32.36866771
 20
12.5937886845
 30
0.0
 10
32.3641128144
 20
12.5906824186
 30
0.0
 10
32.3594917446
 20
12.5875179985
 30
0.0
 10
32.3536645179
 20
12.5835153819
 30
0.0
 10
32.3466057125
 20
12.5786818438
 30
0.0
 10
32.3394547543
 20
12.5738345025
 30
0.0
 10
32.3322150436
 20
12.5689955827
 30
0.0
 10
32.3224243617
 20
12.5625700835
 30
0.0
 10
32.3100040612
 20
12.5546791548
 30
0.0
 10
32.2998982522
 20
12.5486007686
 30
0.0
 10
32.2947932266
 20
12.5456286706
 30
0.0
 11
32.4533704976
 21
12.5710538349
 31
0.0
 11
32.4535282588
 21
12.5759007266
 31
0.0
 11
32.4533391825
 21
12.5807455438
 31
0.0
 11
32.452800077
 21
12.5855651033
 31
0.0
 11
32.4519002005
 21
12.5903239352
 31
0.0
 11
32.4513107679
 21
12.5926681135
 31
0.0
 11
32.4506260955
 21
12.5949821508
 31
0.0
 11
32.4498444871
 21
12.5972610179
 31
0.0
 11
32.4489636896
 21
12.5994979417
 31
0.0
 11
32.4468924963
 21
12.6038094202
 31
0.0
 11
32.4456960083
 21
12.6058654643
 31
0.0
 11
32.4443881978
 21
12.6078427045
 31
0.0
 11
32.4429659535
 21
12.6097314599
 31
0.0
 11
32.4414253448
 21
12.6115166984
 31
0.0
 11
32.4397618815
 21
12.613179733
 31
0.0
 11
32.4379710626
 21
12.6147018056
 31
0.0
 11
32.4360483869
 21
12.6160641586
 31
0.0
 11
32.4339896056
 21
12.6172480297
 31
0.0
 11
32.4317948831
 21
12.6182345804
 31
0.0
 11
32.4294681434
 21
12.6190049071
 31
0.0
 11
32.4270134307
 21
12.6195401042
 31
0.0
 11
32.4244347891
 21
12.6198212661
 31
0.0
 11
32.4217379029
 21
12.6198345502
 31
0.0
 11
32.418935369
 21
12.6195874521
 31
0.0
 11
32.416041605
 21
12.619093088
 31
0.0
 11
32.4130710283
 21
12.618364574
 31
0.0
 11
32.4100380134
 21
12.6174150655
 31
0.0
 11
32.4069538448
 21
12.6162605201
 31
0.0
 11
32.4038247114
 21
12.6149215169
 31
0.0
 11
32.4006563258
 21
12.6134190669
 31
0.0
 11
32.3974544005
 21
12.6117741811
 31
0.0
 11
32.3942245896
 21
12.6100077595
 31
0.0
 11
32.3876925147
 21
12.6061723463
 31
0.0
 11
32.3810680683
 21
12.6020096128
 31
0.0
 11
32.3777225997
 21
12.5998335826
 31
0.0
 11
32.374355377
 21
12.5976068855
 31
0.0
 11
32.3675553916
 21
12.5930273835
 31
0.0
 11
32.3641224739
 21
12.5906874019
 31
0.0
 11
32.3606674998
 21
12.588322333
 31
0.0
 11
32.353690935
 21
12.5835359897
 31
0.0
 11
32.3466247297
 21
12.5787029689
 31
0.0
 11
32.3394684302
 21
12.5738550744
 31
0.0
 11
32.3322236395
 21
12.569015969
 31
0.0
 11
32.3248925573
 21
12.5642070898
 31
0.0
 11
32.3099855362
 21
12.5547525736
 31
0.0
 11
32.2947932266
 21
12.5456286706
 31
0.0
  0
SPLINE
  5
353
100
AcDbEntity
  8
0
100
AcDbSpline
 62
6
  6
CONTINUOUS
 70
0
 71
3
 72
50
 73
46
 74
44
 42
0.0000001
 43
0.0000001
 44
0.0000000001
 12
0.0093324716
 22
0.1532585018
 32
0.0
 13
-0.1306834719
 23
-0.0806045506
 33
0.0
 40
0.0
 40
0.0
 40
0.0
 40
0.0
 40
0.0230691816
 40
0.0451671495
 40
0.0661968895
 40
0.0762931036
 40
0.0860835568
 40
0.0955484206
 40
0.1046782586
 40
0.113476916
 40
0.1219649994
 40
0.1301831928
 40
0.1381884248
 40
0.1460575989
 40
0.1538940902
 40
0.1618265473
 40
0.1700039905
 40
0.1785847323
 40
0.1876975614
 40
0.1974275714
 40
0.2078270588
 40
0.2189230976
 40
0.2307238851
 40
0.2432236556
 40
0.2564048636
 40
0.2702385588
 40
0.2846870247
 40
0.2997060685
 40
0.3152466904
 40
0.3312575334
 40
0.3477025491
 40
0.3817981074
 40
0.4173332021
 40
0.4355752586
 40
0.4541040418
 40
0.4919624972
 40
0.5307909078
 40
0.5704750657
 40
0.610927245
 40
0.6520736312
 40
0.7361863819
 40
0.779056494
 40
0.8224117113
 40
0.9104393501
 40
1.0
 40
1.0
 40
1.0
 40
1.0
 10
32.5660820326
 20
12.5978454068
 30
0.0
 10
32.5661537968
 20
12.5990239228
 30
0.0
 10
32.5662200034
 20
12.6013368786
 30
0.0
 10
32.5660664902
 20
12.6047246175
 30
0.0
 10
32.5657120398
 20
12.6074299028
 30
0.0
 10
32.565283482
 20
12.6094806025
 30
0.0
 10
32.5648944388
 20
12.610932511
 30
0.0
 10
32.5644306122
 20
12.6123103896
 30
0.0
 10
32.5638891843
 20
12.6136051063
 30
0.0
 10
32.5632672034
 20
12.6148074684
 30
0.0
 10
32.5625615919
 20
12.6159082085
 30
0.0
 10
32.5617692845
 20
12.6168973894
 30
0.0
 10
32.5608885294
 20
12.6177648581
 30
0.0
 10
32.5599182851
 20
12.6184998723
 30
0.0
 10
32.5588579419
 20
12.6190910034
 30
0.0
 10
32.5577076127
 20
12.6195266336
 30
0.0
 10
32.5564681595
 20
12.6197957097
 30
0.0
 10
32.5551430545
 20
12.6198868655
 30
0.0
 10
32.5537386936
 20
12.6198067236
 30
0.0
 10
32.5522595917
 20
12.6195632642
 30
0.0
 10
32.5507104735
 20
12.6191632085
 30
0.0
 10
32.5490961508
 20
12.6186130198
 30
0.0
 10
32.54742158
 20
12.6179189676
 30
0.0
 10
32.5456921339
 20
12.6170869791
 30
0.0
 10
32.5439111695
 20
12.6161275278
 30
0.0
 10
32.5420816135
 20
12.6150514822
 30
0.0
 10
32.5402065592
 20
12.6138695666
 30
0.0
 10
32.5382891193
 20
12.612592588
 30
0.0
 10
32.5363324573
 20
12.6112312528
 30
0.0
 10
32.5343387477
 20
12.6097960101
 30
0.0
 10
32.531600792
 20
12.6077696764
 30
0.0
 10
32.5281033929
 20
12.6050904313
 30
0.0
 10
32.5245714822
 20
12.6023060625
 30
0.0
 10
32.5216776092
 20
12.5999994391
 30
0.0
 10
32.518696421
 20
12.5976115983
 30
0.0
 10
32.5148997994
 20
12.5945564589
 30
0.0
 10
32.5102581969
 20
12.590824296
 30
0.0
 10
32.5054994292
 20
12.5870260369
 30
0.0
 10
32.5006257778
 20
12.5831816474
 30
0.0
 10
32.4939275525
 20
12.5779791374
 30
0.0
 10
32.4870566093
 20
12.5727975469
 30
0.0
 10
32.4800072849
 20
12.5676677827
 30
0.0
 10
32.4727313466
 20
12.562510035
 30
0.0
 10
32.4633775612
 20
12.5561530226
 30
0.0
 10
32.455714588
 20
12.5512622235
 30
0.0
 10
32.4518132225
 20
12.5488558915
 30
0.0
 11
32.5660820326
 21
12.5978454068
 31
0.0
 11
32.5661768315
 21
12.6013862351
 31
0.0
 11
32.5660148662
 21
12.6047753418
 31
0.0
 11
32.5655850306
 21
12.6079755607
 31
0.0
 11
32.5652660267
 21
12.6094925796
 31
0.0
 11
32.5648747619
 21
12.6109440172
 31
0.0
 11
32.5644086396
 21
12.6123204939
 31
0.0
 11
32.5638650636
 21
12.6136126302
 31
0.0
 11
32.5632414374
 21
12.6148110465
 31
0.0
 11
32.5625351644
 21
12.6159063632
 31
0.0
 11
32.5617437445
 21
12.6168891639
 31
0.0
 11
32.5608659437
 21
12.6177495457
 31
0.0
 11
32.5599014228
 21
12.6184772624
 31
0.0
 11
32.5588498611
 21
12.6190620607
 31
0.0
 11
32.5577109381
 21
12.6194936871
 31
0.0
 11
32.5564843332
 21
12.6197618882
 31
0.0
 11
32.5551703482
 21
12.6198581673
 31
0.0
 11
32.5537730721
 21
12.6197847143
 31
0.0
 11
32.5522980177
 21
12.6195477383
 31
0.0
 11
32.5507507005
 21
12.6191534556
 31
0.0
 11
32.5491366363
 21
12.6186080824
 31
0.0
 11
32.5474613404
 21
12.6179178349
 31
0.0
 11
32.5457300862
 21
12.6170894276
 31
0.0
 11
32.543946664
 21
12.6161326249
 31
0.0
 11
32.5421143024
 21
12.6150583458
 31
0.0
 11
32.5402362294
 21
12.6138775111
 31
0.0
 11
32.5383156727
 21
12.6126010419
 31
0.0
 11
32.5363558602
 21
12.6112398591
 31
0.0
 11
32.5343599278
 21
12.6098046921
 31
0.0
 11
32.5323296658
 21
12.6083034606
 31
0.0
 11
32.5281691994
 21
12.6051258938
 31
0.0
 11
32.5238804268
 21
12.6017530719
 31
0.0
 11
32.5216897726
 21
12.6000077249
 31
0.0
 11
32.5194690187
 21
12.5982295199
 31
0.0
 11
32.5149382452
 21
12.5945878671
 31
0.0
 11
32.5102901163
 21
12.5908544991
 31
0.0
 11
32.5055265603
 21
12.587055075
 31
0.0
 11
32.5006489245
 21
12.5832097232
 31
0.0
 11
32.4956582701
 21
12.5793358516
 31
0.0
 11
32.4853423243
 21
12.5715657045
 31
0.0
 11
32.4800194589
 21
12.56769339
 31
0.0
 11
32.4745883383
 21
12.5638441357
 31
0.0
 11
32.4634069192
 21
12.5562508883
 31
0.0
 11
32.4518132225
 21
12.5488558915
 31
0.0
  0
SPLINE
  5
354
100
AcDbEntity
  8
0
100
AcDbSpline
 62
6
  6
CONTINUOUS
 70
0
 71
3
 72
47
 73
43
 74
41
 42
0.0000001
 43
0.0000001
 44
0.0000000001
 12
0.0045306143
 22
0.0871669144
 32
0.0
 13
-0.0682051941
 23
-0.0544669526
 33
0.0
 40
0.0
 40
0.0
 40
0.0
 40
0.0
 40
0.006809901
 40
0.0129129602
 40
0.0183098528
 40
0.0230224183
 40
0.0271087706
 40
0.0306880462
 40
0.0323538288
 40
0.0339801398
 40
0.0356076225
 40
0.0372786931
 40
0.0408923861
 40
0.0429002323
 40
0.0450674018
 40
0.0499303613
 40
0.0555580587
 40
0.0619850355
 40
0.0692241051
 40
0.0772751918
 40
0.0861302741
 40
0.0957740048
 40
0.1061792115
 40
0.1173138687
 40
0.1291438297
 40
0.1547457976
 40
0.182689759
 40
0.2126736703
 40
0.2444649191
 40
0.2779073486
 40
0.3128483449
 40
0.3491357573
 40
0.3866310511
 40
0.4252419045
 40
0.4648870796
 40
0.5054864825
 40
0.546963058
 40
0.6323216433
 40
0.7205730561
 40
0.8114006004
 40
0.904598458
 40
1.0
 40
1.0
 40
1.0
 40
1.0
 10
32.624639343
 20
12.61701781
 30
0.0
 10
32.6246496273
 20
12.617215676
 30
0.0
 10
32.6246593461
 20
12.6175915207
 30
0.0
 10
32.6246365705
 20
12.6181242691
 30
0.0
 10
32.6245749814
 20
12.6185927163
 30
0.0
 10
32.6244734615
 20
12.6189943875
 30
0.0
 10
32.6243304799
 20
12.6193269993
 30
0.0
 10
32.6241692071
 20
12.6195495865
 30
0.0
 10
32.6240184214
 20
12.6196819914
 30
0.0
 10
32.6238967679
 20
12.6197586189
 30
0.0
 10
32.6237639401
 20
12.6198141091
 30
0.0
 10
32.6235675608
 20
12.6198608805
 30
0.0
 10
32.6233525339
 20
12.6198623896
 30
0.0
 10
32.6231284792
 20
12.6198275673
 30
0.0
 10
32.6228732012
 20
12.6197628597
 30
0.0
 10
32.6225287992
 20
12.6196289121
 30
0.0
 10
32.6220923105
 20
12.6194000011
 30
0.0
 10
32.6216180621
 20
12.6190987272
 30
0.0
 10
32.6211068144
 20
12.6187268966
 30
0.0
 10
32.6205593988
 20
12.6182862637
 30
0.0
 10
32.6199768578
 20
12.6177787304
 30
0.0
 10
32.6193604412
 20
12.6172065193
 30
0.0
 10
32.6187109292
 20
12.6165729377
 30
0.0
 10
32.6180293492
 20
12.6158814372
 30
0.0
 10
32.6170532852
 20
12.6148596246
 30
0.0
 10
32.6157654663
 20
12.6134596013
 30
0.0
 10
32.6141466809
 20
12.6116468697
 30
0.0
 10
32.6124232092
 20
12.609686328
 30
0.0
 10
32.6106010155
 20
12.6075996068
 30
0.0
 10
32.6086852647
 20
12.605403108
 30
0.0
 10
32.6066790356
 20
12.6031119446
 30
0.0
 10
32.604585212
 20
12.6007407703
 30
0.0
 10
32.6024056015
 20
12.5983029744
 30
0.0
 10
32.6001428995
 20
12.595808527
 30
0.0
 10
32.5977986367
 20
12.5932662732
 30
0.0
 10
32.5953741756
 20
12.5906847345
 30
0.0
 10
32.5920033955
 20
12.5871676495
 30
0.0
 10
32.5876002232
 20
12.5827201059
 30
0.0
 10
32.5820597949
 20
12.5773806814
 30
0.0
 10
32.5762172546
 20
12.5720295267
 30
0.0
 10
32.5700788452
 20
12.5666975424
 30
0.0
 10
32.565838382
 20
12.5632135958
 30
0.0
 10
32.5636694218
 20
12.5614815187
 30
0.0
 11
32.624639343
 21
12.61701781
 31
0.0
 11
32.6246527079
 21
12.6176120591
 31
0.0
 11
32.6246274168
 21
12.6181441613
 31
0.0
 11
32.6245627227
 21
12.6186107632
 31
0.0
 11
32.6244578785
 21
12.6190085114
 31
0.0
 11
32.6243121371
 21
12.6193340523
 31
0.0
 11
32.6241247513
 21
12.6195840324
 31
0.0
 11
32.6240152083
 21
12.6196796392
 31
0.0
 11
32.6238949741
 21
12.6197550983
 31
0.0
 11
32.6237639598
 21
12.6198100038
 31
0.0
 11
32.6236221832
 21
12.6198442698
 31
0.0
 11
32.6233068548
 21
12.6198518554
 31
0.0
 11
32.623133566
 21
12.6198256834
 31
0.0
 11
32.6229500363
 21
12.6197798737
 31
0.0
 11
32.6225527802
 21
12.6196303576
 31
0.0
 11
32.6221161389
 21
12.6194053403
 31
0.0
 11
32.6216411647
 21
12.6191068549
 31
0.0
 11
32.62112891
 21
12.6187369344
 31
0.0
 11
32.6205804273
 21
12.6182976121
 31
0.0
 11
32.6199967688
 21
12.6177909209
 31
0.0
 11
32.6193789893
 21
12.6172191782
 31
0.0
 11
32.6187281514
 21
12.6165857251
 31
0.0
 11
32.6180453195
 21
12.6158941336
 31
0.0
 11
32.6173315581
 21
12.6151479755
 31
0.0
 11
32.6158155048
 21
12.6135062464
 31
0.0
 11
32.6141885074
 21
12.6116891126
 31
0.0
 11
32.6124589823
 21
12.6097249007
 31
0.0
 11
32.6106328166
 21
12.6076356163
 31
0.0
 11
32.6087132214
 21
12.6054365793
 31
0.0
 11
32.6067032796
 21
12.6031427886
 31
0.0
 11
32.604606074
 21
12.6007692433
 31
0.0
 11
32.6024243664
 21
12.5983297525
 31
0.0
 11
32.6001597714
 21
12.595833876
 31
0.0
 11
32.5978136478
 21
12.5932902256
 31
0.0
 11
32.5953873542
 21
12.5907074129
 31
0.0
 11
32.5928822174
 21
12.5880938692
 31
0.0
 11
32.5876392944
 21
12.5828003325
 31
0.0
 11
32.582091748
 21
12.5774561074
 31
0.0
 11
32.576245265
 21
12.5721017313
 31
0.0
 11
32.5701034858
 21
12.5667676455
 31
0.0
 11
32.5636694218
 21
12.5614815187
 31
0.0
  0
SPLINE
  5
355
100
AcDbEntity
  8
0
100
AcDbSpline
 62
6
  6
CONTINUOUS
 70
0
 71
3
 72
11
 73
7
 74
5
 42
0.0000001
 43
0.0000001
 44
0.0000000001
 12
-0.005227255
 22
0.0223531342
 32
0.0
 13
-0.0
 23
0.0229561931
 33
0.0
 40
0.0
 40
0.0
 40
0.0
 40
0.0
 40
0.2456719003
 40
0.4952647594
 40
0.7472549898
 40
1.0
 40
1.0
 40
1.0
 40
1.0
 10
30.9072992385
 20
12.7542948522
 30
0.0
 10
30.9068711752
 20
12.7561253645
 30
0.0
 10
30.9061207998
 20
12.7598428582
 30
0.0
 10
30.9053202286
 20
12.7655076451
 30
0.0
 10
30.9048364747
 20
12.7712624189
 30
0.0
 10
30.9047277827
 20
12.775125531
 30
0.0
 10
30.9047277827
 20
12.7770595521
 30
0.0
 11
30.9072992385
 21
12.7542948522
 31
0.0
 11
30.9061808174
 21
12.759822533
 31
0.0
 11
30.9053762086
 21
12.7654954589
 31
0.0
 11
30.9048905474
 21
12.7712597723
 31
0.0
 11
30.9047277827
 21
12.7770595521
 31
0.0
  0
SPLINE
  5
356
100
AcDbEntity
  8
0
100
AcDbSpline
 62
6
  6
CONTINUOUS
 70
0
 71
3
 72
57
 73
53
 74
51
 42
0.0000001
 43
0.0000001
 44
0.0000000001
 12
-0.1856760123
 22
0.2292654708
 32
0.0
 13
-0.2246385318
 23
-0.191247922
 33
0.0
 40
0.0
 40
0.0
 40
0.0
 40
0.0
 40
0.0233459917
 40
0.0478680612
 40
0.0734714685
 40
0.0866490943
 40
0.1000625888
 40
0.1275659532
 40
0.1416422502
 40
0.1559258439
 40
0.1704104477
 40
0.1850895022
 40
0.2150020924
 40
0.2456195142
 40
0.2611841308
 40
0.2769109323
 40
0.2927937171
 40
0.3088297467
 40
0.3250200965
 40
0.3413661692
 40
0.3578575572
 40
0.3744883006
 40
0.39126385
 40
0.408199314
 40
0.4252813752
 40
0.4424803343
 40
0.4511196244
 40
0.4597840964
 40
0.4684747444
 40
0.4771922853
 40
0.4859350748
 40
0.4947003623
 40
0.5122809913
 40
0.5210891034
 40
0.5299009426
 40
0.538710259
 40
0.547512489
 40
0.565098203
 40
0.5826631052
 40
0.6001961094
 40
0.6176730063
 40
0.6350731891
 40
0.6523959426
 40
0.6696384012
 40
0.6867932093
 40
0.7208051592
 40
0.7543821247
 40
0.7874640415
 40
0.819998463
 40
0.8831867282
 40
0.943409368
 40
1.0
 40
1.0
 40
1.0
 40
1.0
 10
1.7648556671
 20
12.5456286706
 30
0.0
 10
1.7634107369
 20
12.5474128139
 30
0.0
 10
1.760391246
 20
12.5510252326
 30
0.0
 10
1.755605096
 20
12.5564389491
 30
0.0
 10
1.7513616148
 20
12.560994825
 30
0.0
 10
1.7477948545
 20
12.564686096
 30
0.0
 10
1.7440517041
 20
12.5684661905
 30
0.0
 10
1.7401731665
 20
12.5722360772
 30
0.0
 10
1.7361585047
 20
12.575986274
 30
0.0
 10
1.7330402786
 20
12.5788200475
 30
0.0
 10
1.7298381807
 20
12.5816490576
 30
0.0
 10
1.7254285903
 20
12.585431787
 30
0.0
 10
1.7196988749
 20
12.5901110486
 30
0.0
 10
1.7137282077
 20
12.5946257028
 30
0.0
 10
1.7087580666
 20
12.5981426297
 30
0.0
 10
1.7049086995
 20
12.6007327321
 30
0.0
 10
1.700953692
 20
12.6032461677
 30
0.0
 10
1.6968890002
 20
12.6056686167
 30
0.0
 10
1.6927108319
 20
12.6079853295
 30
0.0
 10
1.6884173352
 20
12.610181224
 30
0.0
 10
1.6840031932
 20
12.6122292116
 30
0.0
 10
1.6794650638
 20
12.6141002086
 30
0.0
 10
1.6748004589
 20
12.6157649479
 30
0.0
 10
1.6700110699
 20
12.6171924442
 30
0.0
 10
1.6651070549
 20
12.6183532424
 30
0.0
 10
1.6609445967
 20
12.6190716052
 30
0.0
 10
1.6575759384
 20
12.6194820647
 30
0.0
 10
1.6550287335
 20
12.6197039927
 30
0.0
 10
1.6524675149
 20
12.6198350253
 30
0.0
 10
1.6498955497
 20
12.6198731958
 30
0.0
 10
1.6473164861
 20
12.6198216316
 30
0.0
 10
1.6438703255
 20
12.6196360546
 30
0.0
 10
1.6404287677
 20
12.6192803794
 30
0.0
 10
1.6370053271
 20
12.6187648867
 30
0.0
 10
1.6344477045
 20
12.6183002047
 30
0.0
 10
1.6319055778
 20
12.6177600703
 30
0.0
 10
1.6285417187
 20
12.6169427317
 30
0.0
 10
1.6243850582
 20
12.6157495759
 30
0.0
 10
1.619479451
 20
12.6140776199
 30
0.0
 10
1.6146607645
 20
12.6121997814
 30
0.0
 10
1.6099307223
 20
12.6101500433
 30
0.0
 10
1.6052884523
 20
12.607957057
 30
0.0
 10
1.6007335221
 20
12.6056387118
 30
0.0
 10
1.5962623344
 20
12.6032131949
 30
0.0
 10
1.5904241202
 20
12.5998696114
 30
0.0
 10
1.5833175536
 20
12.5955126666
 30
0.0
 10
1.575051315
 20
12.5900623257
 30
0.0
 10
1.5670474685
 20
12.5844846011
 30
0.0
 10
1.5568096398
 20
12.5770246844
 30
0.0
 10
1.5446357851
 20
12.5676945269
 30
0.0
 10
1.5308398711
 20
12.5566016132
 30
0.0
 10
1.5220232808
 20
12.5492362842
 30
0.0
 10
1.5177858019
 20
12.5456286706
 30
0.0
 11
1.7648556671
 21
12.5456286706
 31
0.0
 11
1.7604419366
 21
12.5509161935
 31
0.0
 11
1.7556528478
 21
12.5563386926
 31
0.0
 11
1.7505066597
 21
12.5618680065
 31
0.0
 11
1.7478053527
 21
12.5646639169
 31
0.0
 11
1.7450208209
 21
12.5674757601
 31
0.0
 11
1.7392018413
 21
12.5731306917
 31
0.0
 11
1.7361670149
 21
12.5759654352
 31
0.0
 11
1.7330483784
 21
12.5787994675
 31
0.0
 11
1.7298457384
 21
12.5816286097
 31
0.0
 11
1.7265582086
 21
12.5844475954
 31
0.0
 11
1.7197188702
 21
12.5900245166
 31
0.0
 11
1.7125102082
 21
12.5954675988
 31
0.0
 11
1.708760888
 21
12.5981186825
 31
0.0
 11
1.704910396
 21
12.6007073266
 31
0.0
 11
1.7009547151
 21
12.6032191194
 31
0.0
 11
1.6968898268
 21
12.6056396431
 31
0.0
 11
1.6927117124
 21
12.6079544799
 31
0.0
 11
1.68841656
 21
12.6101471423
 31
0.0
 11
1.6840015315
 21
12.6121913914
 31
0.0
 11
1.6794640756
 21
12.6140581187
 31
0.0
 11
1.6748016407
 21
12.6157182152
 31
0.0
 11
1.6700125955
 21
12.6171424615
 31
0.0
 11
1.6651077752
 21
12.6183001394
 31
0.0
 11
1.6601069894
 21
12.6191594518
 31
0.0
 11
1.6575768619
 21
12.619467277
 31
0.0
 11
1.6550302456
 21
12.619688578
 31
0.0
 11
1.6524696502
 21
12.6198194185
 31
0.0
 11
1.6498980731
 21
12.6198582483
 31
0.0
 11
1.6473192599
 21
12.61980717
 31
0.0
 11
1.644737019
 21
12.6196685953
 31
0.0
 11
1.6395774884
 21
12.619138602
 31
0.0
 11
1.6370078158
 21
12.6187520064
 31
0.0
 11
1.6344499496
 21
12.6182875601
 31
0.0
 11
1.6319076978
 21
12.617747675
 31
0.0
 11
1.6293841087
 21
12.6171351754
 31
0.0
 11
1.6243959039
 21
12.6157086321
 31
0.0
 11
1.6194893197
 21
12.6140416069
 31
0.0
 11
1.6146679438
 21
12.6121679924
 31
0.0
 11
1.609935341
 21
12.6101216304
 31
0.0
 11
1.6052927231
 21
12.6079311169
 31
0.0
 11
1.6007369304
 21
12.6056153027
 31
0.0
 11
1.596264328
 21
12.6031919781
 31
0.0
 11
1.5918712806
 21
12.6006789332
 31
0.0
 11
1.5833109929
 21
12.5954436283
 31
0.0
 11
1.5750347192
 21
12.5900001643
 31
0.0
 11
1.5670234059
 21
12.5844256996
 31
0.0
 11
1.5592617975
 21
12.5787788938
 31
0.0
 11
1.5444502667
 21
12.5674589523
 31
0.0
 11
1.5305977463
 21
12.5563335295
 31
0.0
 11
1.5177858019
 21
12.5456286706
 31
0.0
  0
SPLINE
  5
357
100
AcDbEntity
  8
0
100
AcDbSpline
 62
6
  6
CONTINUOUS
 70
0
 71
3
 72
15
 73
11
 74
9
 42
0.0000001
 43
0.0000001
 44
0.0000000001
 12
-0.0221712478
 22
0.0423874921
 32
0.0
 13
0.0
 23
0.0478357995
 33
0.0
 40
0.0
 40
0.0
 40
0.0
 40
0.0
 40
0.1088152433
 40
0.2237193401
 40
0.3441139714
 40
0.4692911988
 40
0.5984479242
 40
0.7307193855
 40
0.8649906598
 40
1.0
 40
1.0
 40
1.0
 40
1.0
 10
31.0489750481
 20
12.730696227
 30
0.0
 10
31.0481708582
 20
12.7322336954
 30
0.0
 10
31.0466518499
 20
12.7354661729
 30
0.0
 10
31.0446856739
 20
12.7405931663
 30
0.0
 10
31.0429877575
 20
12.7460887199
 30
0.0
 10
31.0415750264
 20
12.7518979539
 30
0.0
 10
31.0404595949
 20
12.7579639296
 30
0.0
 10
31.0396566737
 20
12.7642251865
 30
0.0
 10
31.0391715823
 20
12.7706122665
 30
0.0
 10
31.0390624273
 20
12.7749067921
 30
0.0
 10
31.0390624273
 20
12.7770595521
 30
0.0
 11
31.0489750481
 21
12.730696227
 31
0.0
 11
31.0467501444
 21
12.7354020296
 31
0.0
 11
31.0447733548
 21
12.7405307856
 31
0.0
 11
31.0430657795
 21
12.7460309915
 31
0.0
 11
31.0416445422
 21
12.7518478345
 31
0.0
 11
31.0405232068
 21
12.7579235391
 31
0.0
 11
31.0397146267
 21
12.7641989725
 31
0.0
 11
31.0392262149
 21
12.7706033496
 31
0.0
 11
31.0390624273
 21
12.7770595521
 31
0.0
  0
LINE
  5
358
100
AcDbEntity
  8
0
100
AcDbLine
 62
6
  6
CONTINUOUS
 10
1.1666454974
 20
11.2720595521
 11
1.1331425415
 21
11.3216452217
  0
SPLINE
  5
359
100
AcDbEntity
  8
0
100
AcDbSpline
 62
6
  6
CONTINUOUS
 70
0
 71
3
 72
9
 73
5
 74
3
 42
0.0000001
 43
0.0000001
 44
0.0000000001
 12
0.0357337719
 22
-0.0502371482
 32
0.0
 13
0.0376306816
 23
-0.0488324207
 33
0.0
 40
0.0
 40
0.0
 40
0.0
 40
0.0
 40
0.4994384963
 40
1.0
 40
1.0
 40
1.0
 40
1.0
 10
1.1331425415
 20
11.3216452217
 30
0.0
 10
1.1390914819
 20
11.3132817664
 30
0.0
 10
1.1511387061
 20
11.2966323311
 30
0.0
 10
1.1634915078
 20
11.2802074287
 30
0.0
 10
1.1697703313
 20
11.2720595521
 30
0.0
 11
1.1331425415
 21
11.3216452217
 31
0.0
 11
1.1512013999
 21
11.2967070357
 31
0.0
 11
1.1697703313
 21
11.2720595521
 31
0.0
  0
SPLINE
  5
35A
100
AcDbEntity
  8
0
100
AcDbSpline
 62
6
  6
CONTINUOUS
 70
0
 71
3
 72
23
 73
19
 74
17
 42
0.0000001
 43
0.0000001
 44
0.0000000001
 12
-0.0326545884
 22
0.0481659806
 32
0.0
 13
0.0
 23
0.0581917849
 33
0.0
 40
0.0
 40
0.0
 40
0.0
 40
0.0
 40
0.0444353954
 40
0.0919166352
 40
0.1424068535
 40
0.1958386548
 40
0.2520878561
 40
0.3109918375
 40
0.3723737951
 40
0.4360467656
 40
0.5018061511
 40
0.5694270584
 40
0.6386782
 40
0.7093245688
 40
0.781106519
 40
0.8537024808
 40
0.9267786281
 40
1.0
 40
1.0
 40
1.0
 40
1.0
 10
31.1971090189
 20
12.7209258932
 30
0.0
 10
31.1966253457
 20
12.721639318
 30
0.0
 10
31.195680111
 20
12.7231530078
 30
0.0
 10
31.1943670505
 20
12.7255849525
 30
0.0
 10
31.1931172054
 20
12.7282440716
 30
0.0
 10
31.1919371741
 20
12.7311193704
 30
0.0
 10
31.1908314341
 20
12.7341978745
 30
0.0
 10
31.1898042841
 20
12.7374653732
 30
0.0
 10
31.188860323
 20
12.7409073284
 30
0.0
 10
31.1880043635
 20
12.744508968
 30
0.0
 10
31.1872403415
 20
12.7482547514
 30
0.0
 10
31.1865708856
 20
12.7521283834
 30
0.0
 10
31.1859989526
 20
12.7561133647
 30
0.0
 10
31.1855275632
 20
12.7601927247
 30
0.0
 10
31.1851594661
 20
12.7643478091
 30
0.0
 10
31.1848952407
 20
12.7685579966
 30
0.0
 10
31.1847358947
 20
12.7728013604
 30
0.0
 10
31.1847001917
 20
12.775639258
 30
0.0
 10
31.1847001917
 20
12.7770595521
 30
0.0
 11
31.1971090189
 21
12.7209258932
 31
0.0
 11
31.1957342707
 21
12.7231159388
 31
0.0
 11
31.1944170103
 21
12.7255447439
 31
0.0
 11
31.1931632657
 21
12.7282019321
 31
0.0
 11
31.1919789722
 21
12.7310768487
 31
0.0
 11
31.1908691944
 21
12.7341562159
 31
0.0
 11
31.1898385192
 21
12.7374253177
 31
0.0
 11
31.1888915284
 21
12.740869423
 31
0.0
 11
31.1880327858
 21
12.7444737805
 31
0.0
 11
31.18726615
 21
12.7482228558
 31
0.0
 11
31.1865945708
 21
12.7521001047
 31
0.0
 11
31.1860209376
 21
12.7560889161
 31
0.0
 11
31.185548139
 21
12.7601726763
 31
0.0
 11
31.1851785897
 21
12.764333417
 31
0.0
 11
31.1849134476
 21
12.7685495768
 31
0.0
 11
31.1847536643
 21
12.7727990053
 31
0.0
 11
31.1847001917
 21
12.7770595521
 31
0.0
  0
LINE
  5
35B
100
AcDbEntity
  8
0
100
AcDbLine
 62
6
  6
CONTINUOUS
 10
1.2301470607
 20
11.2720595521
 11
1.2037258949
 21
11.3216452217
  0
SPLINE
  5
35C
100
AcDbEntity
  8
0
100
AcDbSpline
 62
6
  6
CONTINUOUS
 70
0
 71
3
 72
9
 73
5
 74
3
 42
0.0000001
 43
0.0000001
 44
0.0000000001
 12
0.0298501588
 22
-0.0501918805
 32
0.0
 13
0.0320071735
 23
-0.0488446281
 33
0.0
 40
0.0
 40
0.0
 40
0.0
 40
0.0
 40
0.4996007281
 40
1.0
 40
1.0
 40
1.0
 40
1.0
 10
1.2037258949
 20
11.3216452217
 30
0.0
 10
1.2086969486
 20
11.3132865883
 30
0.0
 10
1.2187906335
 20
11.2966409495
 30
0.0
 10
1.2292274544
 20
11.2802068242
 30
0.0
 10
1.2345662432
 20
11.2720595521
 30
0.0
 11
1.2037258949
 21
11.3216452217
 31
0.0
 11
1.2188682203
 21
11.2967070357
 31
0.0
 11
1.2345662432
 21
11.2720595521
 31
0.0
  0
SPLINE
  5
35D
100
AcDbEntity
  8
0
100
AcDbSpline
 62
6
  6
CONTINUOUS
 70
0
 71
3
 72
11
 73
7
 74
5
 42
0.0000001
 43
0.0000001
 44
0.0000000001
 12
0.0
 22
0.0252130089
 32
0.0
 13
-0.0058082869
 23
0.0245348654
 33
0.0
 40
0.0
 40
0.0
 40
0.0
 40
0.0
 40
0.2542942403
 40
0.5068805876
 40
0.7560088087
 40
1.0
 40
1.0
 40
1.0
 40
1.0
 10
32.2692585819
 20
12.7770595521
 30
0.0
 10
32.2692585819
 20
12.7791967264
 30
0.0
 10
32.2691395154
 20
12.7834576754
 30
0.0
 10
32.2686056065
 20
12.7897922686
 30
0.0
 10
32.2677210715
 20
12.7960001191
 30
0.0
 10
32.266893666
 20
12.8000641217
 30
0.0
 10
32.2664212757
 20
12.8020595521
 30
0.0
 11
32.2692585819
 21
12.7770595521
 31
0.0
 11
32.2690789853
 21
12.7834685591
 31
0.0
 11
32.2685421319
 21
12.7898143526
 31
0.0
 11
32.2676530882
 21
12.7960323892
 31
0.0
 11
32.2664212757
 21
12.8020595521
 31
0.0
  0
SPLINE
  5
35E
100
AcDbEntity
  8
0
100
AcDbSpline
 62
6
  6
CONTINUOUS
 70
0
 71
3
 72
11
 73
7
 74
5
 42
0.0000001
 43
0.0000001
 44
0.0000000001
 12
0.0
 22
0.0251312922
 32
0.0
 13
-0.0045857082
 23
0.0247093733
 33
0.0
 40
0.0
 40
0.0
 40
0.0
 40
0.0
 40
0.2550825191
 40
0.5081428838
 40
0.7571143221
 40
1.0
 40
1.0
 40
1.0
 40
1.0
 10
32.1289305454
 20
12.7770595521
 30
0.0
 10
32.1289305454
 20
12.7791964032
 30
0.0
 10
32.1288373352
 20
12.7834537521
 30
0.0
 10
32.1284193107
 20
12.789784422
 30
0.0
 10
32.12772679
 20
12.7959882337
 30
0.0
 10
32.1270775481
 20
12.8000590344
 30
0.0
 10
32.1267062804
 20
12.8020595521
 30
0.0
 11
32.1289305454
 21
12.7770595521
 31
0.0
 11
32.1287897532
 21
12.7834685591
 31
0.0
 11
32.1283688948
 21
12.7898143526
 31
0.0
 11
32.1276719419
 21
12.7960323892
 31
0.0
 11
32.1267062804
 21
12.8020595521
 31
0.0
  0
LINE
  5
35F
100
AcDbEntity
  8
0
100
AcDbLine
 62
6
  6
CONTINUOUS
 10
1.3132507289
 20
11.2720595521
 11
1.295711912
 21
11.3216452217
  0
SPLINE
  5
360
100
AcDbEntity
  8
0
100
AcDbSpline
 62
6
  6
CONTINUOUS
 70
0
 71
3
 72
11
 73
7
 74
5
 42
0.0000001
 43
0.0000001
 44
0.0000000001
 12
0.0
 22
0.0250653969
 32
0.0
 13
-0.0032514322
 23
0.0248536176
 33
0.0
 40
0.0
 40
0.0
 40
0.0
 40
0.0
 40
0.2557220815
 40
0.5091680786
 40
0.7580137499
 40
1.0
 40
1.0
 40
1.0
 40
1.0
 10
31.9786925855
 20
12.7770595521
 30
0.0
 10
31.9786925855
 20
12.7791961439
 30
0.0
 10
31.9786269532
 20
12.7834506021
 30
0.0
 10
31.9783325789
 20
12.7897780778
 30
0.0
 10
31.9778449263
 20
12.79597852
 30
0.0
 10
31.9773869219
 20
12.8000548075
 30
0.0
 10
31.9771246546
 20
12.8020595521
 30
0.0
 11
31.9786925855
 21
12.7770595521
 31
0.0
 11
31.9785933382
 21
12.7834685591
 31
0.0
 11
31.9782966663
 21
12.7898143526
 31
0.0
 11
31.9778053696
 21
12.7960323892
 31
0.0
 11
31.9771246546
 21
12.8020595521
 31
0.0
  0
SPLINE
  5
361
100
AcDbEntity
  8
0
100
AcDbSpline
 62
6
  6
CONTINUOUS
 70
0
 71
3
 72
9
 73
5
 74
3
 42
0.0000001
 43
0.0000001
 44
0.0000000001
 12
0.021906741
 22
-0.0500598803
 32
0.0
 13
0.0242531915
 23
-0.0489661068
 33
0.0
 40
0.0
 40
0.0
 40
0.0
 40
0.0
 40
0.5002482957
 40
1.0
 40
1.0
 40
1.0
 40
1.0
 10
1.295711912
 20
11.3216452217
 30
0.0
 10
1.2993648486
 20
11.3132977651
 30
0.0
 10
1.3068101042
 20
11.2966733582
 30
0.0
 10
1.3146229087
 20
11.2802165172
 30
0.0
 10
1.3186631
 20
11.2720595521
 30
0.0
 11
1.295711912
 21
11.3216452217
 31
0.0
 11
1.3069057799
 21
11.2967070357
 31
0.0
 11
1.3186631
 21
11.2720595521
 31
0.0
  0
SPLINE
  5
362
100
AcDbEntity
  8
0
100
AcDbSpline
 62
6
  6
CONTINUOUS
 70
0
 71
3
 72
11
 73
7
 74
5
 42
0.0000001
 43
0.0000001
 44
0.0000000001
 12
0.0
 22
0.0250206842
 32
0.0
 13
-0.0018344326
 23
0.0249533464
 33
0.0
 40
0.0
 40
0.0
 40
0.0
 40
0.0
 40
0.2561580514
 40
0.5098674566
 40
0.7586281401
 40
1.0
 40
1.0
 40
1.0
 40
1.0
 10
31.8214689134
 20
12.7770595521
 30
0.0
 10
31.8214689134
 20
12.7791959686
 30
0.0
 10
31.82143206
 20
12.7834484716
 30
0.0
 10
31.8212667548
 20
12.7897737646
 30
0.0
 10
31.8209929254
 20
12.7959718626
 30
0.0
 10
31.820735428
 20
12.8000518735
 30
0.0
 10
31.8205878345
 20
12.8020595521
 30
0.0
 11
31.8214689134
 21
12.7770595521
 31
0.0
 11
31.8214131426
 21
12.7834685591
 31
0.0
 11
31.8212464316
 21
12.7898143526
 31
0.0
 11
31.8209703537
 21
12.7960323892
 31
0.0
 11
31.8205878345
 21
12.8020595521
 31
0.0
  0
SPLINE
  5
363
100
AcDbEntity
  8
0
100
AcDbSpline
 62
6
  6
CONTINUOUS
 70
0
 71
3
 72
10
 73
6
 74
4
 42
0.0000001
 43
0.0000001
 44
0.0000000001
 12
-0.006608551
 22
0.0497078031
 32
0.0
 13
-0.0079482188
 23
0.0495112559
 33
0.0
 40
0.0
 40
0.0
 40
0.0
 40
0.0
 40
0.2473583893
 40
0.4965917761
 40
1.0
 40
1.0
 40
1.0
 40
1.0
 10
1.4102931243
 20
11.2720595521
 30
0.0
 10
1.4097482308
 20
11.2761580994
 30
0.0
 10
1.4085993003
 20
11.2843789849
 30
0.0
 10
1.4061301177
 20
11.3009107786
 30
0.0
 10
1.4041656305
 20
11.3133370972
 30
0.0
 10
1.4028318976
 20
11.3216452217
 30
0.0
 11
1.4102931243
 21
11.2720595521
 31
0.0
 11
1.4085844726
 21
11.2843451332
 31
0.0
 11
1.4067460897
 21
11.2967070365
 31
0.0
 11
1.4028318976
 21
11.3216452217
 31
0.0
  0
SPLINE
  5
364
100
AcDbEntity
  8
0
100
AcDbSpline
 62
6
  6
CONTINUOUS
 70
0
 71
3
 72
11
 73
7
 74
5
 42
0.0000001
 43
0.0000001
 44
0.0000000001
 12
0.0
 22
0.0250401182
 32
0.0
 13
0.0025512227
 23
0.024909813
 33
0.0
 40
0.0
 40
0.0
 40
0.0
 40
0.0
 40
0.2559683611
 40
0.5095631042
 40
0.7583606915
 40
1.0
 40
1.0
 40
1.0
 40
1.0
 10
31.3388064027
 20
12.7770595521
 30
0.0
 10
31.3388064027
 20
12.7791960447
 30
0.0
 10
31.3388577626
 20
12.7834493969
 30
0.0
 10
31.3390881309
 20
12.7897756401
 30
0.0
 10
31.3394697445
 20
12.7959747628
 30
0.0
 10
31.3398284058
 20
12.8000531554
 30
0.0
 10
31.3400338977
 20
12.8020595521
 30
0.0
 11
31.3388064027
 21
12.7770595521
 31
0.0
 11
31.338884101
 21
12.7834685591
 31
0.0
 11
31.3391163582
 21
12.7898143526
 31
0.0
 11
31.3395009825
 21
12.7960323892
 31
0.0
 11
31.3400338977
 21
12.8020595521
 31
0.0
  0
SPLINE
  5
365
100
AcDbEntity
  8
0
100
AcDbSpline
 62
6
  6
CONTINUOUS
 70
0
 71
3
 72
9
 73
5
 74
3
 42
0.0000001
 43
0.0000001
 44
0.0000000001
 12
0.0124965461
 22
-0.0498509584
 32
0.0
 13
0.0148387187
 23
-0.0492046151
 33
0.0
 40
0.0
 40
0.0
 40
0.0
 40
0.0
 40
0.5013673001
 40
1.0
 40
1.0
 40
1.0
 40
1.0
 10
1.4028318976
 20
11.3216452217
 30
0.0
 10
1.4049203508
 20
11.3133140082
 30
0.0
 10
1.409212555
 20
11.2967285693
 30
0.0
 10
1.413863483
 20
11.2802378954
 30
0.0
 10
1.4163298398
 20
11.2720595521
 30
0.0
 11
1.4028318976
 21
11.3216452217
 31
0.0
 11
1.4093144646
 21
11.2967070357
 31
0.0
 11
1.4163298398
 21
11.2720595521
 31
0.0
  0
SPLINE
  5
366
100
AcDbEntity
  8
0
100
AcDbSpline
 62
6
  6
CONTINUOUS
 70
0
 71
3
 72
10
 73
6
 74
4
 42
0.0000001
 43
0.0000001
 44
0.0000000001
 12
0.0043205466
 22
0.0494986997
 32
0.0
 13
0.0023159836
 23
0.0496328986
 33
0.0
 40
0.0
 40
0.0
 40
0.0
 40
0.0
 40
0.2480377943
 40
0.4973806687
 40
1.0
 40
1.0
 40
1.0
 40
1.0
 10
1.514660968
 20
11.2720595521
 30
0.0
 10
1.5150181876
 20
11.2761520682
 30
0.0
 10
1.5156643943
 20
11.2843648379
 30
0.0
 10
1.5167496491
 20
11.3008917927
 30
0.0
 10
1.5173977825
 20
11.3133297369
 30
0.0
 10
1.5177858019
 20
11.3216452217
 30
0.0
 11
1.514660968
 21
11.2720595521
 31
0.0
 11
1.5156362327
 21
11.2843451332
 31
0.0
 11
1.5164563146
 21
11.2967070366
 31
0.0
 11
1.5177858019
 21
11.3216452217
 31
0.0
  0
SPLINE
  5
367
100
AcDbEntity
  8
0
100
AcDbSpline
 62
6
  6
CONTINUOUS
 70
0
 71
3
 72
10
 73
6
 74
4
 42
0.0000001
 43
0.0000001
 44
0.0000000001
 12
0.0023159836
 22
-0.0496328984
 32
0.0
 13
0.0043205466
 23
-0.0494986996
 33
0.0
 40
0.0
 40
0.0
 40
0.0
 40
0.0
 40
0.5026193517
 40
0.7519622093
 40
1.0
 40
1.0
 40
1.0
 40
1.0
 10
1.5177858019
 20
11.3216452217
 30
0.0
 10
1.5181738213
 20
11.3133297366
 30
0.0
 10
1.5188219506
 20
11.3008917921
 30
0.0
 10
1.5199072233
 20
11.2843648386
 30
0.0
 10
1.5205534162
 20
11.2761520681
 30
0.0
 10
1.5209106358
 20
11.2720595521
 30
0.0
 11
1.5177858019
 21
11.3216452217
 31
0.0
 11
1.5191152916
 21
11.2967070357
 31
0.0
 11
1.5199353793
 21
11.2843451336
 31
0.0
 11
1.5209106358
 21
11.2720595521
 31
0.0
  0
SPLINE
  5
368
100
AcDbEntity
  8
0
100
AcDbSpline
 62
6
  6
CONTINUOUS
 70
0
 71
3
 72
15
 73
11
 74
9
 42
0.0000001
 43
0.0000001
 44
0.0000000001
 12
0.0313940118
 22
-1.2323719498
 32
0.0
 13
0.2555914276
 23
-1.2059847547
 33
0.0
 40
0.0
 40
0.0
 40
0.0
 40
0.0
 40
0.1367318357
 40
0.269994057
 40
0.3998397127
 40
0.5263261502
 40
0.6495154087
 40
0.7694746429
 40
0.8862765788
 40
1.0
 40
1.0
 40
1.0
 40
1.0
 10
1.2707159368
 20
12.5456286706
 30
0.0
 10
1.2721467904
 20
12.489460511
 30
0.0
 10
1.2759828827
 20
12.3785720385
 30
0.0
 10
1.284852567
 20
12.2144974861
 30
0.0
 10
1.2967633633
 20
12.0548356548
 30
0.0
 10
1.3117154574
 20
11.8995869079
 30
0.0
 10
1.3297090742
 20
11.7487508349
 30
0.0
 10
1.3507446089
 20
11.6023267091
 30
0.0
 10
1.3748221185
 20
11.4603156691
 30
0.0
 10
1.3931429871
 20
11.3673614591
 30
0.0
 10
1.4028318976
 20
11.3216452217
 30
0.0
 11
1.2707159368
 21
12.5456286706
 31
0.0
 11
1.2765844064
 21
12.377171713
 31
0.0
 11
1.2854945977
 21
12.2131316201
 31
0.0
 11
1.2974465105
 21
12.0535083919
 31
0.0
 11
1.3124401448
 21
11.8983020284
 31
0.0
 11
1.3304755007
 21
11.7475125297
 31
0.0
 11
1.3515525781
 21
11.6011398956
 31
0.0
 11
1.3756713771
 21
11.4591841263
 31
0.0
 11
1.4028318976
 21
11.3216452217
 31
0.0
  0
SPLINE
  5
369
100
AcDbEntity
  8
0
100
AcDbSpline
 62
6
  6
CONTINUOUS
 70
0
 71
3
 72
11
 73
7
 74
5
 42
0.0000001
 43
0.0000001
 44
0.0000000001
 12
0.0
 22
0.0229561187
 32
0.0
 13
0.00522519
 23
0.0223535405
 33
0.0
 40
0.0
 40
0.0
 40
0.0
 40
0.0
 40
0.2531517014
 40
0.5050720538
 40
0.754405229
 40
1.0
 40
1.0
 40
1.0
 40
1.0
 10
30.9047277827
 20
12.7770595521
 30
0.0
 10
30.9047277827
 20
12.7789966789
 30
0.0
 10
30.9048356639
 20
12.78286237
 30
0.0
 10
30.9053193835
 20
12.7886177746
 30
0.0
 10
30.9061216981
 20
12.7942791477
 30
0.0
 10
30.9068714834
 20
12.7979940825
 30
0.0
 10
30.9072992431
 20
12.7998240534
 30
0.0
 11
30.9047277827
 21
12.7770595521
 31
0.0
 11
30.9048901824
 21
12.782868663
 31
0.0
 11
30.905375874
 21
12.7886313451
 31
0.0
 11
30.9061810661
 21
12.7942981483
 31
0.0
 11
30.9072992431
 21
12.7998240534
 31
0.0
  0
SPLINE
  5
36A
100
AcDbEntity
  8
0
100
AcDbSpline
 62
6
  6
CONTINUOUS
 70
0
 71
3
 72
19
 73
15
 74
13
 42
0.0000001
 43
0.0000001
 44
0.0000000001
 12
0.0617512258
 22
-1.2547777146
 32
0.0
 13
0.4760113948
 23
-1.1626235328
 33
0.0
 40
0.0
 40
0.0
 40
0.0
 40
0.0
 40
0.1343934675
 40
0.2656847369
 40
0.3940656842
 40
0.5197415164
 40
0.5816364134
 40
0.6429382168
 40
0.7036763739
 40
0.763881159
 40
0.8235836581
 40
0.8828157477
 40
0.9416100697
 40
1.0
 40
1.0
 40
1.0
 40
1.0
 10
1.0404834746
 20
12.5456286706
 30
0.0
 10
1.0432497951
 20
12.4894173613
 30
0.0
 10
1.0506742711
 20
12.3783768017
 30
0.0
 10
1.0678280419
 20
12.2142106634
 30
0.0
 10
1.090865567
 20
12.0544505634
 30
0.0
 10
1.1150905882
 20
11.9243346562
 30
0.0
 10
1.137445945
 20
11.8225343643
 30
0.0
 10
1.1555979365
 20
11.7476716272
 30
0.0
 10
1.1752197498
 20
11.673912908
 30
0.0
 10
1.1963115091
 20
11.6012578584
 30
0.0
 10
1.2188732346
 20
11.5297066702
 30
0.0
 10
1.2429050402
 20
11.4592592297
 30
0.0
 10
1.268406751
 20
11.3899161426
 30
0.0
 10
1.2864471546
 20
11.344273724
 30
0.0
 10
1.295711912
 20
11.3216452217
 30
0.0
 11
1.0404834746
 21
12.5456286706
 31
0.0
 11
1.0518204875
 21
12.377171713
 31
0.0
 11
1.0690336551
 21
12.2131316201
 31
0.0
 11
1.0921229776
 21
12.0535083919
 31
0.0
 11
1.1210884549
 21
11.8983020284
 31
0.0
 11
1.1377747515
 21
11.822355171
 31
0.0
 11
1.1559300869
 21
11.7475125297
 31
0.0
 11
1.175554461
 21
11.6737741046
 31
0.0
 11
1.1966478738
 21
11.6011398956
 31
0.0
 11
1.2192103253
 21
11.5296099029
 31
0.0
 11
1.2432418155
 21
11.4591841263
 31
0.0
 11
1.2687423444
 21
11.3898625659
 31
0.0
 11
1.295711912
 21
11.3216452217
 31
0.0
  0
SPLINE
  5
36B
100
AcDbEntity
  8
0
100
AcDbSpline
 62
6
  6
CONTINUOUS
 70
0
 71
3
 72
11
 73
7
 74
5
 42
0.0000001
 43
0.0000001
 44
0.0000000001
 12
0.1389478324
 22
-0.3461107235
 32
0.0
 13
0.1868839201
 23
-0.32275925
 33
0.0
 40
0.0
 40
0.0
 40
0.0
 40
0.0
 40
0.2506351689
 40
0.5006334314
 40
0.7503146736
 40
1.0
 40
1.0
 40
1.0
 40
1.0
 10
31.1425837022
 20
11.6566988177
 30
0.0
 10
31.1541921066
 20
11.6277829779
 30
0.0
 10
31.1784046458
 20
11.5704301981
 30
0.0
 10
31.2177373622
 20
11.4858280844
 30
0.0
 10
31.2600236542
 20
11.4027953252
 30
0.0
 10
31.2901718374
 20
11.3485079712
 30
0.0
 10
31.3057258949
 20
11.3216452217
 30
0.0
 11
31.1425837022
 21
11.6566988177
 31
0.0
 11
31.1789446121
 21
11.5705837094
 31
0.0
 11
31.2182552809
 21
11.4860364073
 31
0.0
 11
31.2605157085
 21
11.4030569114
 31
0.0
 11
31.3057258949
 21
11.3216452217
 31
0.0
  0
SPLINE
  5
36C
100
AcDbEntity
  8
0
100
AcDbSpline
 62
6
  6
CONTINUOUS
 70
0
 71
3
 72
11
 73
7
 74
5
 42
0.0000001
 43
0.0000001
 44
0.0000000001
 12
0.0
 22
0.0252130089
 32
0.0
 13
-0.0058082869
 23
0.0245348654
 33
0.0
 40
0.0
 40
0.0
 40
0.0
 40
0.0
 40
0.2542942403
 40
0.5068805876
 40
0.7560088087
 40
1.0
 40
1.0
 40
1.0
 40
1.0
 10
2.1672585819
 20
12.7770595521
 30
0.0
 10
2.1672585819
 20
12.7791967264
 30
0.0
 10
2.1671395154
 20
12.7834576754
 30
0.0
 10
2.1666056065
 20
12.7897922686
 30
0.0
 10
2.1657210715
 20
12.7960001191
 30
0.0
 10
2.164893666
 20
12.8000641217
 30
0.0
 10
2.1644212757
 20
12.8020595521
 30
0.0
 11
2.1672585819
 21
12.7770595521
 31
0.0
 11
2.1670789853
 21
12.7834685591
 31
0.0
 11
2.1665421319
 21
12.7898143526
 31
0.0
 11
2.1656530882
 21
12.7960323892
 31
0.0
 11
2.1644212757
 21
12.8020595521
 31
0.0
  0
SPLINE
  5
36D
100
AcDbEntity
  8
0
100
AcDbSpline
 62
6
  6
CONTINUOUS
 70
0
 71
3
 72
9
 73
5
 74
3
 42
0.0000001
 43
0.0000001
 44
0.0000000001
 12
0.0148387187
 22
0.0492046151
 32
0.0
 13
0.0124965461
 23
0.0498509584
 33
0.0
 40
0.0
 40
0.0
 40
0.0
 40
0.0
 40
0.4986327227
 40
1.0
 40
1.0
 40
1.0
 40
1.0
 10
1.619241764
 20
11.2720595521
 30
0.0
 10
1.6217081209
 20
11.2802378958
 30
0.0
 10
1.6263590524
 20
11.2967285687
 30
0.0
 10
1.6306512531
 20
11.3133140086
 30
0.0
 10
1.6327397062
 20
11.3216452217
 30
0.0
 11
1.619241764
 21
11.2720595521
 31
0.0
 11
1.6262571413
 21
11.2967070364
 31
0.0
 11
1.6327397062
 21
11.3216452217
 31
0.0
  0
SPLINE
  5
36E
100
AcDbEntity
  8
0
100
AcDbSpline
 62
6
  6
CONTINUOUS
 70
0
 71
3
 72
10
 73
6
 74
4
 42
0.0000001
 43
0.0000001
 44
0.0000000001
 12
-0.0079482188
 22
-0.0495112558
 32
0.0
 13
-0.006608551
 23
-0.0497078031
 33
0.0
 40
0.0
 40
0.0
 40
0.0
 40
0.0
 40
0.5034082334
 40
0.752641583
 40
1.0
 40
1.0
 40
1.0
 40
1.0
 10
1.6327397062
 20
11.3216452217
 30
0.0
 10
1.6314059733
 20
11.3133370971
 30
0.0
 10
1.6294414826
 20
11.3009107794
 30
0.0
 10
1.6269723154
 20
11.2843789836
 30
0.0
 10
1.6258233731
 20
11.2761580999
 30
0.0
 10
1.6252784796
 20
11.2720595521
 30
0.0
 11
1.6327397062
 21
11.3216452217
 31
0.0
 11
1.6288255161
 21
11.2967070357
 31
0.0
 11
1.6269871384
 21
11.2843451336
 31
0.0
 11
1.6252784796
 21
11.2720595521
 31
0.0
  0
ENDSEC
  0
SECTION
  2
OBJECTS
  0
DICTIONARY
  5
C
100
AcDbDictionary
280
0
281
1
  3
ACAD_GROUP
350
D
  3
ACAD_MLINESTYLE
350
17
  3
ACAD_LAYOUT
350
1A
  3
ACAD_PLOTSETTINGS
350
19
  3
ACAD_PLOTSTYLENAME
350
E
  0
DICTIONARY
  5
D
102
{ACAD_REACTORS
330
C
102
}
100
AcDbDictionary
280
0
281
1
  0
ACDBDICTIONARYWDFLT
  5
E
102
{ACAD_REACTORS
330
C
102
}
100
AcDbDictionary
281
1
  3
Normal
350
F
100
AcDbDictionaryWithDefault
340
F
  0
DICTIONARY
  5
17
102
{ACAD_REACTORS
330
C
102
}
100
AcDbDictionary
280
0
281
1
  3
Standard
350
18
  0
DICTIONARY
  5
19
102
{ACAD_REACTORS
330
C
102
}
100
AcDbDictionary
281
1
  0
DICTIONARY
  5
1A
102
{ACAD_REACTORS
330
C
102
}
100
AcDbDictionary
281
1
  3
Model
350
36F
  3
Layout1
350
370
  0
ACDBPLACEHOLDER
  5
F
102
{ACAD_REACTORS
330
E
102
}
  0
MLINESTYLE
  5
18
102
{ACAD_REACTORS
330
17
102
}
100
AcDbMlineStyle
  2
STANDARD
 70
0
  3

 62
256
 51
90.0
 52
90.0
 71
2
 49
0.5
 62
256
  6
BYLAYER
 49
-0.5
 62
256
  6
BYLAYER
  0
LAYOUT
  5
36F
102
{ACAD_REACTORS
330
1A
102
}
100
AcDbPlotSettings
  1

  2
none_device
  4
ISO_A1_(594.00_x_841.00_MM)
  6

 40
0.0
 41
0.0
 42
0.0
 43
0.0
 44
841.0
 45
594.0
 46
0.0
 47
0.0
 48
0.0
 49
0.0
140
0.0
141
0.0
142
1.0
143
1.0
 70
1024
 72
0
 73
0
 74
0
  7

 75
0
147
1.0
148
0.0
149
0.0
100
AcDbLayout
  1
Model
 70
0
 71
0
 10
0.0
 20
0.0
 11
33.1102362205
 21
23.3858267717
 12
0.0
 22
0.0
 32
0.0
 14
0.0
 24
0.0
 34
0.0
 15
0.0
 25
0.0
 35
0.0
146
0.0
 13
0.0
 23
0.0
 33
0.0
 16
1.0
 26
0.0
 36
0.0
 17
0.0
 27
1.0
 37
0.0
 76
0
330
204
345
0
346
0
  0
LAYOUT
  5
370
102
{ACAD_REACTORS
330
1A
102
}
100
AcDbPlotSettings
  1

  2
none_device
  4
ISO_A1_(594.00_x_841.00_MM)
  6

 40
0.0
 41
0.0
 42
0.0
 43
0.0
 44
841.0
 45
594.0
 46
0.0
 47
0.0
 48
0.0
 49
0.0
140
0.0
141
0.0
142
1.0
143
1.0
 70
0
 72
0
 73
0
 74
0
  7

 75
0
147
1.0
148
0.0
149
0.0
100
AcDbLayout
  1
Layout1
 70
0
 71
1
 10
0.0
 20
0.0
 11
33.1102362205
 21
23.3858267717
 12
0.0
 22
0.0
 32
0.0
 14
0.0
 24
0.0
 34
0.0
 15
0.0
 25
0.0
 35
0.0
146
0.0
 13
0.0
 23
0.0
 33
0.0
 16
1.0
 26
0.0
 36
0.0
 17
0.0
 27
1.0
 37
0.0
 76
0
330
205
345
0
346
0
  0
ENDSEC
  0
EOF
