  0
SECTION
  2
HEADER
  9
$ACADVER
  1
AC1015
  9
$DWGCODEPAGE
  3
ANSI_1252
  9
$EXTMAX
 10
11.6929133858
 20
8.2677165354
 30
0.0
  9
$EXTMIN
 10
0.0
 20
-0.0
 30
0.0
  9
$LIMMIN
 10
0.0
 20
-0.0
  9
$LIMMAX
 10
11.6929133858
 20
8.2677165354
  9
$VIEWCTR
 10
5.8464566929
 20
4.1338582677
  9
$VIEWSIZE
 40
8.2677165354
  9
$CLAYER
  8
0
  9
$LTSCALE
 40
0.6431102362
  9
$CELTYPE
  6
BYLAYER
  9
$DIMSCALE
 40
1.0
  9
$DIMASZ
 40
0.1
  9
$DIMEXO
 40
0.0730807087
  9
$DIMDLI
 40
0.4443307087
  9
$DIMEXE
 40
0.2104724409
  9
$DIMCEN
 40
0.1052362205
  9
$DIMLFAC
 40
1.0
  9
$DIMBLK
  1
_FILLED
  9
$DIMTXT
 40
0.08
  9
$DIMTOL
 70
1
  9
$DIMLIM
 70
0
  9
$DIMTFAC
 40
1.0
  9
$DIMTP
 40
0.01
  9
$DIMTM
 40
0.01
  9
$PDMODE
 70
3
  9
$PDSIZE
 40
0.06
  9
$HANDSEED
  5
2E8
  9
$TILEMODE
 70
1
  9
$MEASUREMENT
 70
0
  9
$INSUNITS
 70
1
  0
ENDSEC
  0
SECTION
  2
CLASSES
  0
CLASS
  1
ACDBDICTIONARYWDFLT
  2
AcDbDictionaryWithDefault
  3
AutoCAD 2000
 90
0
280
0
281
0
  0
CLASS
  1
ACDBPLACEHOLDER
  2
AcDbPlaceHolder
  3
AutoCAD 2000
 90
0
280
0
281
0
  0
CLASS
  1
LAYOUT
  2
AcDbLayout
  3
AutoCAD 2000
 90
0
280
0
281
0
  0
ENDSEC
  0
SECTION
  2
TABLES
  0
TABLE
  2
VPORT
  5
8
100
AcDbSymbolTable
 70
2
  0
VPORT
  5
1F4
100
AcDbSymbolTableRecord
100
AcDbViewportTableRecord
  2
*ACTIVE
 70
0
 10
0.0
 20
0.0
 11
1.0
 21
1.0
 12
5.8464566929
 22
4.1338582677
 13
0.0
 23
0.0
 14
1.0
 24
1.0
 15
0.0
 25
0.0
 16
0.0
 26
0.0
 36
1.0
 17
0.0
 27
0.0
 37
0.0
 40
8.2677165354
 41
1.4142857143
 42
50.0
 43
0.0
 44
0.0
 50
0.0
 51
0.0
 71
0
 72
100
 73
1
 74
1
 75
0
 76
0
 77
0
 78
0
  0
ENDTAB
  0
TABLE
  2
LTYPE
  5
5
100
AcDbSymbolTable
 70
6
  0
LTYPE
  5
14
100
AcDbSymbolTableRecord
100
AcDbLinetypeTableRecord
  2
BYBLOCK
 70
0
  3

 72
65
 73
0
 40
0.0
  0
LTYPE
  5
15
100
AcDbSymbolTableRecord
100
AcDbLinetypeTableRecord
  2
BYLAYER
 70
0
  3

 72
65
 73
0
 40
0.0
  0
LTYPE
  5
16
100
AcDbSymbolTableRecord
100
AcDbLinetypeTableRecord
  2
CONTINUOUS
 70
64
  3
Solid line
 72
65
 73
0
 40
0.0
  0
LTYPE
  5
1F5
100
AcDbSymbolTableRecord
100
AcDbLinetypeTableRecord
  2
CENTER
 70
64
  3
____ _ ____ _ ____ _ ____ _ ____ _ ____ _ ____
 72
65
 73
4
 40
0.6
 49
0.375
 74
0
 49
-0.075
 74
0
 49
0.075
 74
0
 49
-0.075
 74
0
  0
LTYPE
  5
1F6
100
AcDbSymbolTableRecord
100
AcDbLinetypeTableRecord
  2
HIDDEN
 70
64
  3
- - - - - - - - - - - - - - - - - - - -
 72
65
 73
2
 40
0.2
 49
0.1
 74
0
 49
-0.1
 74
0
  0
LTYPE
  5
1F7
100
AcDbSymbolTableRecord
100
AcDbLinetypeTableRecord
  2
PHANTOM
 70
64
  3
_____ _ _ _____ _ _ _____ _ _ _____
 72
65
 73
6
 40
0.8
 49
0.45
 74
0
 49
-0.05
 74
0
 49
0.1
 74
0
 49
-0.05
 74
0
 49
0.1
 74
0
 49
-0.05
 74
0
  0
LTYPE
  5
1F8
100
AcDbSymbolTableRecord
100
AcDbLinetypeTableRecord
  2
DOT
 70
64
  3
. . . . . . . . . . . . . . . . . . . .
 72
65
 73
2
 40
0.2
 49
0.1
 74
0
 49
-0.1
 74
0
  0
LTYPE
  5
1F9
100
AcDbSymbolTableRecord
100
AcDbLinetypeTableRecord
  2
DASHED
 70
64
  3
- - - - - - - - - - - - - - - - - - - -
 72
65
 73
2
 40
0.2
 49
0.1
 74
0
 49
-0.1
 74
0
  0
ENDTAB
  0
TABLE
  2
LAYER
  5
2
100
AcDbSymbolTable
 70
36
  0
LAYER
  5
10
100
AcDbSymbolTableRecord
100
AcDbLayerTableRecord
  2
0
 70
0
 62
7
  6
CONTINUOUS
370
-3
390
F
  0
LAYER
  5
1FA
100
AcDbSymbolTableRecord
100
AcDbLayerTableRecord
  2
DEFAULT_1
 70
0
 62
7
  6
CENTER
370
-3
390
F
  0
LAYER
  5
1FB
100
AcDbSymbolTableRecord
100
AcDbLayerTableRecord
  2
DEFAULT_2
 70
0
 62
8
  6
HIDDEN
370
-3
390
F
  0
LAYER
  5
1FC
100
AcDbSymbolTableRecord
100
AcDbLayerTableRecord
  2
DEFAULT_3
 70
0
 62
7
  6
PHANTOM
370
-3
390
F
  0
LAYER
  5
1FD
100
AcDbSymbolTableRecord
100
AcDbLayerTableRecord
  2
3_ALL_SYMBOLS
 70
0
 62
7
  6
CONTINUOUS
370
-3
390
F
  0
LAYER
  5
1FE
100
AcDbSymbolTableRecord
100
AcDbLayerTableRecord
  2
DEFAULT_COORDINATE_SYSTEM
 70
0
 62
7
  6
CONTINUOUS
370
-3
390
F
  0
LAYER
  5
1FF
100
AcDbSymbolTableRecord
100
AcDbLayerTableRecord
  2
DEFAULT_DATUM_AXES
 70
0
 62
7
  6
CONTINUOUS
370
-3
390
F
  0
LAYER
  5
200
100
AcDbSymbolTableRecord
100
AcDbLayerTableRecord
  2
DEFAULT_DATUM_CURVES
 70
0
 62
7
  6
CONTINUOUS
370
-3
390
F
  0
LAYER
  5
201
100
AcDbSymbolTableRecord
100
AcDbLayerTableRecord
  2
DEFAULT_DATUM_PLANES
 70
0
 62
7
  6
CONTINUOUS
370
-3
390
F
  0
ENDTAB
  0
TABLE
  2
STYLE
  5
3
100
AcDbSymbolTable
 70
1
  0
STYLE
  5
11
100
AcDbSymbolTableRecord
100
AcDbTextStyleTableRecord
  2
STANDARD
 70
0
 40
0.0
 41
0.8
 50
0.0
 71
0
 42
0.2
  3
txt
  4

  0
STYLE
  5
202
100
AcDbSymbolTableRecord
100
AcDbTextStyleTableRecord
  2
TEXTSTYLE_1
 70
0
 40
0.0
 41
0.8
 50
0.0
 71
0
 42
0.2
  3
gdt
  4

  0
ENDTAB
  0
TABLE
  2
VIEW
  5
6
100
AcDbSymbolTable
 70
0
  0
ENDTAB
  0
TABLE
  2
UCS
  5
7
100
AcDbSymbolTable
 70
0
  0
ENDTAB
  0
TABLE
  2
APPID
  5
9
100
AcDbSymbolTable
 70
1
  0
APPID
  5
203
100
AcDbSymbolTableRecord
100
AcDbRegAppTableRecord
  2
ACAD
 70
0
  0
ENDTAB
  0
TABLE
  2
BLOCK_RECORD
  5
1
100
AcDbSymbolTable
 70
0
  0
BLOCK_RECORD
  5
204
100
AcDbSymbolTableRecord
100
AcDbBlockTableRecord
  2
*Model_Space
  0
BLOCK_RECORD
  5
205
100
AcDbSymbolTableRecord
100
AcDbBlockTableRecord
  2
*Paper_Space
  0
ENDTAB
  0
TABLE
  2
DIMSTYLE
  5
A
100
AcDbSymbolTable
 70
1
100
AcDbDimStyleTable
 71
0
  0
DIMSTYLE
105
206
100
AcDbSymbolTableRecord
100
AcDbDimStyleTableRecord
  2
STANDARD
 70
0
  3

  4

 40
1.0
 41
0.1
 42
0.0625
 43
0.38
 44
0.18
 45
0.0
 46
0.0
 47
0.01
 48
0.01
140
0.08
141
0.09
142
0.0
143
25.4
144
1.0
145
0.0
146
1.0
147
0.09
 71
1.0
 72
0.0
 73
1
 74
1
 75
0
 76
0
 77
0
 78
4
170
0
171
2
172
0
173
0
174
0
175
0
176
0
177
0
178
0
270
2
271
2
272
2
273
2
274
2
275
0
280
0
281
0
282
0
283
1
284
4
285
0
286
0
287
3
288
0
340
11
  0
ENDTAB
  0
ENDSEC
  0
SECTION
  2
BLOCKS
  0
BLOCK
  5
20
100
AcDbEntity
  8
0
100
AcDbBlockBegin
  2
*Model_Space
 70
0
 10
0.0
 20
0.0
 30
0.0
  3
*Model_Space
  1

  0
ENDBLK
  5
21
100
AcDbEntity
  8
0
100
AcDbBlockEnd
  0
BLOCK
  5
1C
100
AcDbEntity
  8
0
100
AcDbBlockBegin
  2
*Paper_Space
 70
0
 10
0.0
 20
0.0
 30
0.0
  3
*Paper_Space
  1

  0
ENDBLK
  5
1D
100
AcDbEntity
  8
0
100
AcDbBlockEnd
  0
ENDSEC
  0
SECTION
  2
ENTITIES
  0
LINE
  5
207
100
AcDbEntity
  8
0
100
AcDbLine
 62
6
  6
CONTINUOUS
 10
3.2932651577
 20
1.9517205287
 11
3.169521471
 21
2.0754642154
  0
LINE
  5
208
100
AcDbEntity
  8
0
100
AcDbLine
 62
6
  6
CONTINUOUS
 10
3.1836636066
 20
2.089606351
 11
3.1751783252
 21
2.0980916324
  0
LINE
  5
209
100
AcDbEntity
  8
0
100
AcDbLine
 62
6
  6
CONTINUOUS
 10
3.5584302006
 20
2.2168855717
 11
3.4262012325
 21
2.3491145397
  0
LINE
  5
20A
100
AcDbEntity
  8
0
100
AcDbLine
 62
6
  6
CONTINUOUS
 10
7.8021486342
 20
1.5856040052
 11
4.1771486342
 21
1.5856040052
  0
LINE
  5
20B
100
AcDbEntity
  8
0
100
AcDbLine
 62
6
  6
CONTINUOUS
 10
7.8021486342
 20
1.9606040052
 11
4.1771486342
 21
1.9606040052
  0
LINE
  5
20C
100
AcDbEntity
  8
0
100
AcDbLine
 62
9
  6
CONTINUOUS
 10
4.1771486342
 20
1.5856040052
 11
4.1771486342
 21
1.9606040052
  0
LINE
  5
20D
100
AcDbEntity
  8
0
100
AcDbLine
 62
9
  6
CONTINUOUS
 10
9.0521486342
 20
2.8356040052
 11
8.6771486342
 21
2.8356040052
  0
LINE
  5
20E
100
AcDbEntity
  8
0
100
AcDbLine
 62
6
  6
CONTINUOUS
 10
6.6558605157
 20
6.1254063325
 11
6.257831209
 21
5.8956040052
  0
LINE
  5
20F
100
AcDbEntity
  8
0
100
AcDbLine
 62
6
  6
CONTINUOUS
 10
5.0024367527
 20
5.1708016779
 11
5.4004660593
 21
5.4006040052
  0
LINE
  5
210
100
AcDbEntity
  8
0
100
AcDbLine
 62
6
  6
CONTINUOUS
 10
6.5041560588
 20
6.3231114298
 11
6.1791171286
 21
5.9980724997
  0
LINE
  5
211
100
AcDbEntity
  8
0
100
AcDbLine
 62
6
  6
CONTINUOUS
 10
5.1541412095
 20
4.9730965805
 11
5.4791801397
 21
5.2981355107
  0
LINE
  5
212
100
AcDbEntity
  8
0
100
AcDbLine
 62
6
  6
CONTINUOUS
 10
6.3064509615
 20
6.4748158867
 11
6.0766020968
 21
6.0767059751
  0
LINE
  5
213
100
AcDbEntity
  8
0
100
AcDbLine
 62
6
  6
CONTINUOUS
 10
5.3518463068
 20
4.8213921237
 11
5.5816951715
 21
5.2195020353
  0
LINE
  5
214
100
AcDbEntity
  8
0
100
AcDbLine
 62
6
  6
CONTINUOUS
 10
6.0762184993
 20
6.570181295
 11
5.9572459937
 21
6.1261698592
  0
LINE
  5
215
100
AcDbEntity
  8
0
100
AcDbLine
 62
6
  6
CONTINUOUS
 10
5.582078769
 20
4.7260267154
 11
5.7010512746
 21
5.1700381512
  0
LINE
  5
216
100
AcDbEntity
  8
0
100
AcDbLine
 62
7
  6
CONTINUOUS
 10
3.1603290828
 20
2.08324239
 11
3.4269083393
 21
2.3498216465
  0
LINE
  5
217
100
AcDbEntity
  8
0
100
AcDbLine
 62
6
  6
CONTINUOUS
 10
3.169521471
 20
2.0754642154
 11
3.1836636066
 21
2.089606351
  0
LINE
  5
218
100
AcDbEntity
  8
0
100
AcDbLine
 62
6
  6
CONTINUOUS
 10
5.8291486342
 20
6.6027086598
 11
5.8291486342
 21
6.1431040052
  0
LINE
  5
219
100
AcDbEntity
  8
0
100
AcDbLine
 62
6
  6
CONTINUOUS
 10
5.8291486342
 20
4.6934993505
 11
5.8291486342
 21
5.1623056931
  0
LINE
  5
21A
100
AcDbEntity
  8
0
100
AcDbLine
 62
9
  6
CONTINUOUS
 10
3.2932651577
 20
1.9517205287
 11
3.5584302006
 21
2.2168855717
  0
LINE
  5
21B
100
AcDbEntity
  8
0
100
AcDbLine
 62
6
  6
CONTINUOUS
 10
5.582078769
 20
6.570181295
 11
5.7010512746
 21
6.1261698592
  0
LINE
  5
21C
100
AcDbEntity
  8
0
100
AcDbLine
 62
6
  6
CONTINUOUS
 10
6.0762184993
 20
4.7260267154
 11
5.9572459937
 21
5.1700381512
  0
LINE
  5
21D
100
AcDbEntity
  8
0
100
AcDbLine
 62
7
  6
CONTINUOUS
 10
6.2806084884
 20
5.4453190125
 11
6.2806084884
 21
5.8508889978
  0
LINE
  5
21E
100
AcDbEntity
  8
0
100
AcDbLine
 62
9
  6
CONTINUOUS
 10
9.0521486342
 20
4.5856040052
 11
8.6771486342
 21
4.5856040052
  0
LINE
  5
21F
100
AcDbEntity
  8
0
100
AcDbLine
 62
6
  6
CONTINUOUS
 10
5.3518463068
 20
6.4748158867
 11
5.5816951715
 21
6.0767059751
  0
LINE
  5
220
100
AcDbEntity
  8
0
100
AcDbLine
 62
6
  6
CONTINUOUS
 10
6.3064509615
 20
4.8213921237
 11
6.0766020968
 21
5.2195020353
  0
LINE
  5
221
100
AcDbEntity
  8
0
100
AcDbLine
 62
6
  6
CONTINUOUS
 10
5.7341486342
 20
5.1623056931
 11
5.9241486342
 21
5.1623056931
  0
LINE
  5
222
100
AcDbEntity
  8
0
100
AcDbLine
 62
6
  6
CONTINUOUS
 10
5.1541412095
 20
6.3231114298
 11
5.4791801397
 21
5.9980724997
  0
LINE
  5
223
100
AcDbEntity
  8
0
100
AcDbLine
 62
6
  6
CONTINUOUS
 10
6.5041560588
 20
4.9730965805
 11
6.1791171286
 21
5.2981355107
  0
LINE
  5
224
100
AcDbEntity
  8
0
100
AcDbLine
 62
6
  6
CONTINUOUS
 10
6.751225924
 20
5.8951738704
 11
6.5289081606
 21
5.8356040052
  0
LINE
  5
225
100
AcDbEntity
  8
0
100
AcDbLine
 62
6
  6
CONTINUOUS
 10
4.9070713443
 20
5.40103414
 11
5.3510827802
 21
5.5200066457
  0
LINE
  5
226
100
AcDbEntity
  8
0
100
AcDbLine
 62
6
  6
CONTINUOUS
 10
6.2871625411
 20
5.4606040052
 11
7.8021486342
 21
5.4606040052
  0
LINE
  5
227
100
AcDbEntity
  8
0
100
AcDbLine
 62
6
  6
CONTINUOUS
 10
4.8745439795
 20
5.6481040052
 11
5.3342417088
 21
5.6481040052
  0
LINE
  5
228
100
AcDbEntity
  8
0
100
AcDbLine
 62
6
  6
CONTINUOUS
 10
6.751225924
 20
5.40103414
 11
6.5289081606
 21
5.4606040052
  0
LINE
  5
229
100
AcDbEntity
  8
0
100
AcDbLine
 62
6
  6
CONTINUOUS
 10
4.9070713443
 20
5.8951738704
 11
5.3510827802
 21
5.7762013647
  0
LINE
  5
22A
100
AcDbEntity
  8
0
100
AcDbLine
 62
6
  6
CONTINUOUS
 10
6.6558605157
 20
5.1708016779
 11
6.257831209
 21
5.4006040052
  0
LINE
  5
22B
100
AcDbEntity
  8
0
100
AcDbLine
 62
6
  6
CONTINUOUS
 10
5.0024367527
 20
6.1254063325
 11
5.4004660593
 21
5.8956040052
  0
LINE
  5
22C
100
AcDbEntity
  8
0
100
AcDbLine
 62
6
  6
CONTINUOUS
 10
6.2871625411
 20
5.8356040052
 11
7.8021486342
 21
5.8356040052
  0
LINE
  5
22D
100
AcDbEntity
  8
0
100
AcDbLine
 62
9
  6
CONTINUOUS
 10
7.8021486342
 20
5.8356040052
 11
7.8021486342
 21
5.4606040052
  0
LINE
  5
22E
100
AcDbEntity
  8
0
100
AcDbLine
 62
9
  6
CONTINUOUS
 10
7.8021486342
 20
1.5856040052
 11
7.8021486342
 21
1.9606040052
  0
LINE
  5
22F
100
AcDbEntity
  8
0
100
AcDbLine
 62
6
  6
CONTINUOUS
 10
8.6771486342
 20
4.5856040052
 11
8.6771486342
 21
2.8356040052
  0
LINE
  5
230
100
AcDbEntity
  8
0
100
AcDbLine
 62
6
  6
CONTINUOUS
 10
9.0521486342
 20
4.5856040052
 11
9.0521486342
 21
2.8356040052
  0
ARC
  5
231
100
AcDbEntity
  8
0
100
AcDbCircle
 62
6
  6
CONTINUOUS
 10
4.1771486342
 20
2.8356040052
 40
1.25
100
AcDbArc
 50
225.0
 51
270.0
  0
ARC
  5
232
100
AcDbEntity
  8
0
100
AcDbCircle
 62
6
  6
CONTINUOUS
 10
4.1771486342
 20
2.8356040052
 40
0.875
100
AcDbArc
 50
225.0
 51
270.0
  0
ARC
  5
233
100
AcDbEntity
  8
0
100
AcDbCircle
 62
6
  6
CONTINUOUS
 10
3.1173745622
 20
2.3927761671
 40
0.3125
100
AcDbArc
 50
352.0994261891
 51
277.9005738109
  0
ARC
  5
234
100
AcDbEntity
  8
0
100
AcDbCircle
 62
6
  6
CONTINUOUS
 10
4.7291486342
 20
5.6481040052
 40
0.1
100
AcDbArc
 50
125.8860583838
 51
234.1139416162
  0
ARC
  5
235
100
AcDbEntity
  8
0
100
AcDbCircle
 62
6
  6
CONTINUOUS
 10
4.7398537585
 20
5.4950135941
 40
0.1
100
AcDbArc
 50
133.8860583838
 51
242.1139416162
  0
ARC
  5
236
100
AcDbEntity
  8
0
100
AcDbCircle
 62
6
  6
CONTINUOUS
 10
4.7717607686
 20
5.3449029138
 40
0.1
100
AcDbArc
 50
141.8860583838
 51
250.1139416162
  0
ARC
  5
237
100
AcDbEntity
  8
0
100
AcDbCircle
 62
6
  6
CONTINUOUS
 10
4.8242486307
 20
5.2006936978
 40
0.1
100
AcDbArc
 50
149.8860583838
 51
258.1139416162
  0
ARC
  5
238
100
AcDbEntity
  8
0
100
AcDbCircle
 62
6
  6
CONTINUOUS
 10
4.8962957284
 20
5.0651928145
 40
0.1
100
AcDbArc
 50
157.8860583838
 51
266.1139416162
  0
ARC
  5
239
100
AcDbEntity
  8
0
100
AcDbCircle
 62
6
  6
CONTINUOUS
 10
4.9864997467
 20
4.9410376345
 40
0.1
100
AcDbArc
 50
165.8860583838
 51
274.1139416162
  0
ARC
  5
23A
100
AcDbEntity
  8
0
100
AcDbCircle
 62
6
  6
CONTINUOUS
 10
5.0931049672
 20
4.8306446972
 40
0.1
100
AcDbArc
 50
173.8860583838
 51
282.1139416162
  0
ARC
  5
23B
100
AcDbEntity
  8
0
100
AcDbCircle
 62
6
  6
CONTINUOUS
 10
5.2140364403
 20
4.7361626754
 40
0.1
100
AcDbArc
 50
181.8860583838
 51
290.1139416162
  0
ARC
  5
23C
100
AcDbEntity
  8
0
100
AcDbCircle
 62
6
  6
CONTINUOUS
 10
5.3469403727
 20
4.6594305543
 40
0.1
100
AcDbArc
 50
189.8860583838
 51
298.1139416162
  0
ARC
  5
23D
100
AcDbEntity
  8
0
100
AcDbCircle
 62
6
  6
CONTINUOUS
 10
5.3469403727
 20
6.6367774561
 40
0.1
100
AcDbArc
 50
61.8860583838
 51
170.1139416162
  0
ARC
  5
23E
100
AcDbEntity
  8
0
100
AcDbCircle
 62
6
  6
CONTINUOUS
 10
5.2140364403
 20
6.560045335
 40
0.1
100
AcDbArc
 50
69.8860583838
 51
178.1139416162
  0
ARC
  5
23F
100
AcDbEntity
  8
0
100
AcDbCircle
 62
6
  6
CONTINUOUS
 10
5.0931049672
 20
6.4655633132
 40
0.1
100
AcDbArc
 50
77.8860583838
 51
186.1139416162
  0
ARC
  5
240
100
AcDbEntity
  8
0
100
AcDbCircle
 62
6
  6
CONTINUOUS
 10
4.9864997467
 20
6.3551703758
 40
0.1
100
AcDbArc
 50
85.8860583838
 51
194.1139416162
  0
ARC
  5
241
100
AcDbEntity
  8
0
100
AcDbCircle
 62
6
  6
CONTINUOUS
 10
4.8962957284
 20
6.2310151958
 40
0.1
100
AcDbArc
 50
93.8860583838
 51
202.1139416162
  0
ARC
  5
242
100
AcDbEntity
  8
0
100
AcDbCircle
 62
6
  6
CONTINUOUS
 10
4.8242486307
 20
6.0955143126
 40
0.1
100
AcDbArc
 50
101.8860583838
 51
210.1139416162
  0
ARC
  5
243
100
AcDbEntity
  8
0
100
AcDbCircle
 62
6
  6
CONTINUOUS
 10
4.7717607686
 20
5.9513050966
 40
0.1
100
AcDbArc
 50
109.8860583838
 51
218.1139416162
  0
ARC
  5
244
100
AcDbEntity
  8
0
100
AcDbCircle
 62
6
  6
CONTINUOUS
 10
4.7398537585
 20
5.8011944162
 40
0.1
100
AcDbArc
 50
117.8860583838
 51
226.1139416162
  0
ARC
  5
245
100
AcDbEntity
  8
0
100
AcDbCircle
 62
6
  6
CONTINUOUS
 10
7.8021486342
 20
2.8356040052
 40
1.25
100
AcDbArc
 50
270.0
 51
360.0
  0
ARC
  5
246
100
AcDbEntity
  8
0
100
AcDbCircle
 62
6
  6
CONTINUOUS
 10
7.8021486342
 20
2.8356040052
 40
0.875
100
AcDbArc
 50
270.0
 51
360.0
  0
ARC
  5
247
100
AcDbEntity
  8
0
100
AcDbCircle
 62
6
  6
CONTINUOUS
 10
5.6381356387
 20
4.5648154769
 40
0.1
100
AcDbArc
 50
205.8860583838
 51
314.1139416162
  0
ARC
  5
248
100
AcDbEntity
  8
0
100
AcDbCircle
 62
6
  6
CONTINUOUS
 10
5.7907591878
 20
4.5487740955
 40
0.1
100
AcDbArc
 50
213.8860583838
 51
322.1139416162
  0
ARC
  5
249
100
AcDbEntity
  8
0
100
AcDbCircle
 62
6
  6
CONTINUOUS
 10
5.9441299437
 20
4.5541299203
 40
0.1
100
AcDbArc
 50
221.8860583838
 51
330.1139416162
  0
ARC
  5
24A
100
AcDbEntity
  8
0
100
AcDbCircle
 62
6
  6
CONTINUOUS
 10
5.4892299403
 20
4.6019418373
 40
0.1
100
AcDbArc
 50
197.8860583838
 51
306.1139416162
  0
ARC
  5
24B
100
AcDbEntity
  8
0
100
AcDbCircle
 62
6
  6
CONTINUOUS
 10
5.8291486342
 20
5.6481040052
 40
1.285
100
AcDbArc
 50
8.3930605864
 51
351.6069394136
  0
ARC
  5
24C
100
AcDbEntity
  8
0
100
AcDbCircle
 62
6
  6
CONTINUOUS
 10
5.8291486342
 20
5.6481040052
 40
1.2
100
AcDbArc
 50
212.8179980295
 51
235.7386608854
  0
ARC
  5
24D
100
AcDbEntity
  8
0
100
AcDbCircle
 62
6
  6
CONTINUOUS
 10
5.8291486342
 20
5.6481040052
 40
1.2
100
AcDbArc
 50
236.2331086838
 51
243.7893034501
  0
ARC
  5
24E
100
AcDbEntity
  8
0
100
AcDbCircle
 62
6
  6
CONTINUOUS
 10
5.8291486342
 20
5.6481040052
 40
1.2
100
AcDbArc
 50
244.2625024205
 51
251.9682891342
  0
ARC
  5
24F
100
AcDbEntity
  8
0
100
AcDbCircle
 62
6
  6
CONTINUOUS
 10
5.8291486342
 20
5.6481040052
 40
1.2
100
AcDbArc
 50
252.1094675368
 51
330.7844006505
  0
ARC
  5
250
100
AcDbEntity
  8
0
100
AcDbCircle
 62
6
  6
CONTINUOUS
 10
5.8291486342
 20
5.6481040052
 40
1.2
100
AcDbArc
 50
332.8179980295
 51
351.005936951
  0
ARC
  5
251
100
AcDbEntity
  8
0
100
AcDbCircle
 62
6
  6
CONTINUOUS
 10
5.8291486342
 20
5.6481040052
 40
1.2
100
AcDbArc
 50
149.2155993495
 51
210.7844006505
  0
ARC
  5
252
100
AcDbEntity
  8
0
100
AcDbCircle
 62
6
  6
CONTINUOUS
 10
5.8291486342
 20
5.6481040052
 40
1.2
100
AcDbArc
 50
124.266490758
 51
147.1820019705
  0
ARC
  5
253
100
AcDbEntity
  8
0
100
AcDbCircle
 62
6
  6
CONTINUOUS
 10
5.8291486342
 20
5.6481040052
 40
1.2
100
AcDbArc
 50
116.2375939224
 51
123.7582390999
  0
ARC
  5
254
100
AcDbEntity
  8
0
100
AcDbCircle
 62
6
  6
CONTINUOUS
 10
5.8291486342
 20
5.6481040052
 40
1.2
100
AcDbArc
 50
29.2155993495
 51
115.7393813175
  0
ARC
  5
255
100
AcDbEntity
  8
0
100
AcDbCircle
 62
6
  6
CONTINUOUS
 10
5.8291486342
 20
5.6481040052
 40
1.2
100
AcDbArc
 50
8.994063049
 51
27.1820019705
  0
ARC
  5
256
100
AcDbEntity
  8
0
100
AcDbCircle
 62
9
  6
CONTINUOUS
 10
5.8291486342
 20
5.6481040052
 40
1.0170079088
100
AcDbArc
 50
10.6474294116
 51
349.3525705884
  0
ARC
  5
257
100
AcDbEntity
  8
0
100
AcDbCircle
 62
6
  6
CONTINUOUS
 10
5.8291486342
 20
5.6481040052
 40
0.495
100
AcDbArc
 50
22.2630204822
 51
258.9351927244
  0
ARC
  5
258
100
AcDbEntity
  8
0
100
AcDbCircle
 62
6
  6
CONTINUOUS
 10
5.8291486342
 20
5.6481040052
 40
0.495
100
AcDbArc
 50
281.0648072756
 51
337.7369795178
  0
CIRCLE
  5
259
100
AcDbEntity
  8
0
100
AcDbCircle
 62
6
  6
CONTINUOUS
 10
5.8291486342
 20
5.6481040052
 40
0.3305
  0
CIRCLE
  5
25A
100
AcDbEntity
  8
0
100
AcDbCircle
 62
9
  6
CONTINUOUS
 10
5.8291486342
 20
5.6481040052
 40
0.2954999961
  0
CIRCLE
  5
25B
100
AcDbEntity
  8
0
100
AcDbCircle
 62
6
  6
CONTINUOUS
 10
5.8291486342
 20
5.6481040052
 40
0.2725
  0
CIRCLE
  5
25C
100
AcDbEntity
  8
0
100
AcDbCircle
 62
7
  6
CONTINUOUS
 10
5.8291486342
 20
5.6481040052
 40
0.236
  0
CIRCLE
  5
25D
100
AcDbEntity
  8
0
100
AcDbCircle
 62
6
  6
CONTINUOUS
 10
5.8291486342
 20
5.6481040052
 40
0.18
  0
CIRCLE
  5
25E
100
AcDbEntity
  8
0
100
AcDbCircle
 62
6
  6
CONTINUOUS
 10
5.8291486342
 20
5.6481040052
 40
0.17
  0
ARC
  5
25F
100
AcDbEntity
  8
0
100
AcDbCircle
 62
6
  6
CONTINUOUS
 10
6.0952627193
 20
4.5807787063
 40
0.1
100
AcDbArc
 50
229.8860583838
 51
338.1139416162
  0
ARC
  5
260
100
AcDbEntity
  8
0
100
AcDbCircle
 62
6
  6
CONTINUOUS
 10
6.2412158869
 20
4.6282017652
 40
0.1
100
AcDbArc
 50
237.8860583838
 51
346.1139416162
  0
ARC
  5
261
100
AcDbEntity
  8
0
100
AcDbCircle
 62
6
  6
CONTINUOUS
 10
6.3791486342
 20
4.695476061
 40
0.1
100
AcDbArc
 50
245.8860583838
 51
354.1139416162
  0
ARC
  5
262
100
AcDbEntity
  8
0
100
AcDbCircle
 62
6
  6
CONTINUOUS
 10
6.506376257
 20
4.7812921762
 40
0.1
100
AcDbArc
 50
253.8860583838
 51
2.1139416162
  0
ARC
  5
263
100
AcDbEntity
  8
0
100
AcDbCircle
 62
6
  6
CONTINUOUS
 10
6.6204224145
 20
4.8839797977
 40
0.1
100
AcDbArc
 50
261.8860583838
 51
10.1139416162
  0
ARC
  5
264
100
AcDbEntity
  8
0
100
AcDbCircle
 62
6
  6
CONTINUOUS
 10
6.6204224145
 20
6.4122282127
 40
0.1
100
AcDbArc
 50
349.8860583838
 51
98.1139416162
  0
ARC
  5
265
100
AcDbEntity
  8
0
100
AcDbCircle
 62
6
  6
CONTINUOUS
 10
6.506376257
 20
6.5149158342
 40
0.1
100
AcDbArc
 50
357.8860583838
 51
106.1139416162
  0
ARC
  5
266
100
AcDbEntity
  8
0
100
AcDbCircle
 62
6
  6
CONTINUOUS
 10
6.3791486342
 20
6.6007319494
 40
0.1
100
AcDbArc
 50
5.8860583838
 51
114.1139416162
  0
ARC
  5
267
100
AcDbEntity
  8
0
100
AcDbCircle
 62
6
  6
CONTINUOUS
 10
6.2412158869
 20
6.6680062452
 40
0.1
100
AcDbArc
 50
13.8860583838
 51
122.1139416162
  0
ARC
  5
268
100
AcDbEntity
  8
0
100
AcDbCircle
 62
6
  6
CONTINUOUS
 10
6.0952627193
 20
6.7154293041
 40
0.1
100
AcDbArc
 50
21.8860583838
 51
130.1139416162
  0
ARC
  5
269
100
AcDbEntity
  8
0
100
AcDbCircle
 62
6
  6
CONTINUOUS
 10
5.9441299437
 20
6.7420780901
 40
0.1
100
AcDbArc
 50
29.8860583838
 51
138.1139416162
  0
ARC
  5
26A
100
AcDbEntity
  8
0
100
AcDbCircle
 62
6
  6
CONTINUOUS
 10
5.7907591878
 20
6.7474339149
 40
0.1
100
AcDbArc
 50
37.8860583838
 51
146.1139416162
  0
ARC
  5
26B
100
AcDbEntity
  8
0
100
AcDbCircle
 62
6
  6
CONTINUOUS
 10
5.6381356387
 20
6.7313925335
 40
0.1
100
AcDbArc
 50
45.8860583838
 51
154.1139416162
  0
ARC
  5
26C
100
AcDbEntity
  8
0
100
AcDbCircle
 62
6
  6
CONTINUOUS
 10
5.4892299403
 20
6.6942661731
 40
0.1
100
AcDbArc
 50
53.8860583838
 51
162.1139416162
  0
ARC
  5
26D
100
AcDbEntity
  8
0
100
AcDbCircle
 62
6
  6
CONTINUOUS
 10
7.8021486342
 20
4.5856040052
 40
1.25
100
AcDbArc
 50
0.0
 51
90.0
  0
ARC
  5
26E
100
AcDbEntity
  8
0
100
AcDbCircle
 62
6
  6
CONTINUOUS
 10
7.8021486342
 20
4.5856040052
 40
0.875
100
AcDbArc
 50
0.0
 51
90.0
  0
ARC
  5
26F
100
AcDbEntity
  8
0
100
AcDbCircle
 62
6
  6
CONTINUOUS
 10
6.719067328
 20
5.0015402277
 40
0.1
100
AcDbArc
 50
269.8860583838
 51
18.1139416162
  0
ARC
  5
270
100
AcDbEntity
  8
0
100
AcDbCircle
 62
6
  6
CONTINUOUS
 10
6.8003909863
 20
5.1316852861
 40
0.1
100
AcDbArc
 50
277.8860583838
 51
26.1139416162
  0
ARC
  5
271
100
AcDbEntity
  8
0
100
AcDbCircle
 62
6
  6
CONTINUOUS
 10
6.862810517
 20
5.2718818475
 40
0.1
100
AcDbArc
 50
285.8860583838
 51
34.1139416162
  0
ARC
  5
272
100
AcDbEntity
  8
0
100
AcDbCircle
 62
6
  6
CONTINUOUS
 10
6.905110995
 20
5.4194011453
 40
0.1
100
AcDbArc
 50
293.8860583838
 51
24.4753492803
  0
ARC
  5
273
100
AcDbEntity
  8
0
100
AcDbCircle
 62
6
  6
CONTINUOUS
 10
6.905110995
 20
5.8768068651
 40
0.1
100
AcDbArc
 50
335.5246507197
 51
66.1139416162
  0
ARC
  5
274
100
AcDbEntity
  8
0
100
AcDbCircle
 62
6
  6
CONTINUOUS
 10
6.862810517
 20
6.0243261629
 40
0.1
100
AcDbArc
 50
325.8860583838
 51
74.1139416162
  0
ARC
  5
275
100
AcDbEntity
  8
0
100
AcDbCircle
 62
6
  6
CONTINUOUS
 10
6.8003909863
 20
6.1645227243
 40
0.1
100
AcDbArc
 50
333.8860583838
 51
82.1139416162
  0
ARC
  5
276
100
AcDbEntity
  8
0
100
AcDbCircle
 62
6
  6
CONTINUOUS
 10
6.719067328
 20
6.2946677827
 40
0.1
100
AcDbArc
 50
341.8860583838
 51
90.1139416162
  0
SPLINE
  5
277
100
AcDbEntity
  8
0
100
AcDbSpline
 62
7
  6
CONTINUOUS
 70
0
 71
3
 72
23
 73
19
 74
17
 42
0.0000001
 43
0.0000001
 44
0.0000000001
 12
0.0629070721
 22
-0.0046010602
 32
0.0
 13
0.061961813
 23
-0.0117984408
 33
0.0
 40
0.0
 40
0.0
 40
0.0
 40
0.0
 40
0.1583989002
 40
0.3134134988
 40
0.4617025471
 40
0.5323227398
 40
0.6000861936
 40
0.6646180759
 40
0.7255811033
 40
0.7826598406
 40
0.8355412535
 40
0.8839470019
 40
0.906397406
 40
0.9276406987
 40
0.9476481764
 40
0.9663916107
 40
0.9838477046
 40
1.0
 40
1.0
 40
1.0
 40
1.0
 10
5.8291486244
 20
5.3557431864
 30
0.0
 10
5.8324700947
 20
5.3555002521
 30
0.0
 10
5.8390420715
 20
5.3550195838
 30
0.0
 10
5.8487224051
 20
5.3542962694
 30
0.0
 10
5.8565603644
 20
5.3536845713
 30
0.0
 10
5.8625673895
 20
5.3531904515
 30
0.0
 10
5.8668181174
 20
5.352826074
 30
0.0
 10
5.8708650346
 20
5.352461795
 30
0.0
 10
5.8746863656
 20
5.3520976878
 30
0.0
 10
5.878261602
 20
5.351733893
 30
0.0
 10
5.8815713841
 20
5.3513703396
 30
0.0
 10
5.8841545041
 20
5.351060369
 30
0.0
 10
5.8860747557
 20
5.3508107467
 30
0.0
 10
5.8874016068
 20
5.3506283174
 30
0.0
 10
5.8886497536
 20
5.3504459637
 30
0.0
 10
5.8898173869
 20
5.3502636742
 30
0.0
 10
5.8909029219
 20
5.3500814432
 30
0.0
 10
5.8915981812
 20
5.3499550826
 30
0.0
 10
5.8919317897
 20
5.3498915587
 30
0.0
 11
5.8291486244
 21
5.3557431864
 31
0.0
 11
5.8391128427
 21
5.3550117542
 31
0.0
 11
5.8488630032
 21
5.3542802454
 31
0.0
 11
5.8581876994
 21
5.3535486993
 31
0.0
 11
5.8626270329
 21
5.3531829301
 31
0.0
 11
5.866885542
 21
5.3528171742
 31
0.0
 11
5.870939433
 21
5.3524514387
 31
0.0
 11
5.8747672514
 21
5.352085719
 31
0.0
 11
5.8783488761
 21
5.3517200041
 31
0.0
 11
5.8816642667
 21
5.3513542834
 31
0.0
 11
5.8846954817
 21
5.3509885605
 31
0.0
 11
5.8860996877
 21
5.3508057046
 31
0.0
 11
5.8874270762
 21
5.3506228562
 31
0.0
 11
5.8886757347
 21
5.3504400178
 31
0.0
 11
5.889843757
 21
5.3502571921
 31
0.0
 11
5.8909295187
 21
5.3500743761
 31
0.0
 11
5.8919317897
 21
5.3498915587
 31
0.0
  0
LINE
  5
278
100
AcDbEntity
  8
0
100
AcDbLine
 62
6
  6
CONTINUOUS
 10
4.6705311107
 20
5.7291224349
 11
4.7774893128
 21
5.7216431888
  0
LINE
  5
279
100
AcDbEntity
  8
0
100
AcDbLine
 62
6
  6
CONTINUOUS
 10
4.7774893128
 20
5.5745648216
 11
4.6705311107
 21
5.5670855755
  0
LINE
  5
27A
100
AcDbEntity
  8
0
100
AcDbLine
 62
6
  6
CONTINUOUS
 10
4.7979586652
 20
5.428917811
 11
4.6930822829
 21
5.4066256477
  0
LINE
  5
27B
100
AcDbEntity
  8
0
100
AcDbLine
 62
6
  6
CONTINUOUS
 10
4.8384989574
 20
5.2875370103
 11
4.7377456944
 21
5.2508658215
  0
SPLINE
  5
27C
100
AcDbEntity
  8
0
100
AcDbSpline
 62
6
  6
CONTINUOUS
 70
0
 71
3
 72
39
 73
35
 74
33
 42
0.0000001
 43
0.0000001
 44
0.0000000001
 12
0.0711218074
 22
0.131112425
 32
0.0
 13
-0.032227187
 23
0.145637179
 33
0.0
 40
0.0
 40
0.0
 40
0.0
 40
0.0
 40
0.0243882914
 40
0.0500090002
 40
0.076805912
 40
0.1047181143
 40
0.1336814847
 40
0.1636305358
 40
0.1944975091
 40
0.2262124355
 40
0.2587004498
 40
0.2918732489
 40
0.3256384507
 40
0.359902721
 40
0.3945708967
 40
0.4295432299
 40
0.4647186166
 40
0.4999956682
 40
0.5352728368
 40
0.570448464
 40
0.6054209963
 40
0.6400891658
 40
0.674353259
 40
0.7081182553
 40
0.7412908154
 40
0.7737785553
 40
0.805493717
 40
0.8363617402
 40
0.8663123567
 40
0.895277516
 40
0.9231914163
 40
0.94998972
 40
0.9756113666
 40
1.0
 40
1.0
 40
1.0
 40
1.0
 10
4.7774893128
 20
5.7216431888
 30
0.0
 10
4.7780674926
 20
5.7227090581
 30
0.0
 10
4.7792078907
 20
5.7249193806
 30
0.0
 10
4.7808364629
 20
5.7283742505
 30
0.0
 10
4.7824224789
 20
5.7320405488
 30
0.0
 10
4.7839619426
 20
5.7359060162
 30
0.0
 10
4.7854508855
 20
5.7399585507
 30
0.0
 10
4.7868868408
 20
5.7441855573
 30
0.0
 10
4.788267451
 20
5.7485745482
 30
0.0
 10
4.7895903021
 20
5.7531128972
 30
0.0
 10
4.7908528259
 20
5.7577872236
 30
0.0
 10
4.792052715
 20
5.7625831426
 30
0.0
 10
4.7931874253
 20
5.7674855728
 30
0.0
 10
4.7942543703
 20
5.7724792348
 30
0.0
 10
4.795250935
 20
5.777548586
 30
0.0
 10
4.7961748315
 20
5.7826777098
 30
0.0
 10
4.7970237062
 20
5.787850457
 30
0.0
 10
4.7977952034
 20
5.7930506295
 30
0.0
 10
4.7984869717
 20
5.7982620194
 30
0.0
 10
4.7990968064
 20
5.8034683898
 30
0.0
 10
4.7996225019
 20
5.8086534998
 30
0.0
 10
4.8000618615
 20
5.8138011627
 30
0.0
 10
4.800412707
 20
5.8188954478
 30
0.0
 10
4.8006732754
 20
5.8239207023
 30
0.0
 10
4.8008418325
 20
5.828861533
 30
0.0
 10
4.8009166546
 20
5.8337027686
 30
0.0
 10
4.8008960074
 20
5.8384299871
 30
0.0
 10
4.8007786778
 20
5.8430296462
 30
0.0
 10
4.8005634873
 20
5.8474889289
 30
0.0
 10
4.8002492306
 20
5.8517951338
 30
0.0
 10
4.7998348413
 20
5.855935434
 30
0.0
 10
4.7993208261
 20
5.8598970722
 30
0.0
 10
4.7987076339
 20
5.8636671363
 30
0.0
 10
4.7982206576
 20
5.8661062355
 30
0.0
 10
4.7979586652
 20
5.8672901994
 30
0.0
 11
4.7774893128
 21
5.7216431888
 31
0.0
 11
4.7791607555
 21
5.7248742262
 31
0.0
 11
4.7807932404
 21
5.7283295921
 31
0.0
 11
4.7823828038
 21
5.7319969575
 31
0.0
 11
4.7839254821
 21
5.7358639936
 31
0.0
 11
4.7854175415
 21
5.7399183424
 31
0.0
 11
4.7868563232
 21
5.7441475094
 31
0.0
 11
4.7882394832
 21
5.7485389601
 31
0.0
 11
4.7895646771
 21
5.75308016
 31
0.0
 11
4.7908295232
 21
5.7577580984
 31
0.0
 11
4.7920314958
 21
5.7625579514
 31
0.0
 11
4.7931680352
 21
5.7674644637
 31
0.0
 11
4.7942365818
 21
5.7724623803
 31
0.0
 11
4.7952346138
 21
5.7775362692
 31
0.0
 11
4.7961597467
 21
5.7826700604
 31
0.0
 11
4.797009627
 21
5.7878475398
 31
0.0
 11
4.7977819014
 21
5.7930524931
 31
0.0
 11
4.7984742419
 21
5.7982686982
 31
0.0
 11
4.7990844149
 21
5.8034799029
 31
0.0
 11
4.7996102081
 21
5.8086698484
 31
0.0
 11
4.8000494093
 21
5.8138222759
 31
0.0
 11
4.8003998886
 21
5.8189210852
 31
0.0
 11
4.8006598224
 21
5.8239507682
 31
0.0
 11
4.8008274589
 21
5.828895955
 31
0.0
 11
4.8009010462
 21
5.8337412755
 31
0.0
 11
4.8008789349
 21
5.8384718652
 31
0.0
 11
4.8007598299
 21
5.8430746064
 31
0.0
 11
4.8005425123
 21
5.847536759
 31
0.0
 11
4.8002257639
 21
5.8518455827
 31
0.0
 11
4.7998087196
 21
5.855988288
 31
0.0
 11
4.7992915844
 21
5.8599519368
 31
0.0
 11
4.7986747642
 21
5.8637235627
 31
0.0
 11
4.7979586652
 21
5.8672901994
 31
0.0
  0
LINE
  5
27D
100
AcDbEntity
  8
0
100
AcDbLine
 62
6
  6
CONTINUOUS
 10
4.8983211188
 20
5.153174236
 11
4.8036520226
 21
5.1028377847
  0
SPLINE
  5
27E
100
AcDbEntity
  8
0
100
AcDbSpline
 62
6
  6
CONTINUOUS
 70
0
 71
3
 72
39
 73
35
 74
33
 42
0.0000001
 43
0.0000001
 44
0.0000000001
 12
0.0886769776
 22
0.1199382055
 32
0.0
 13
-0.0116447764
 23
0.1487050055
 33
0.0
 40
0.0
 40
0.0
 40
0.0
 40
0.0
 40
0.0243882939
 40
0.0500090019
 40
0.0768058967
 40
0.1047180532
 40
0.1336813432
 40
0.1636303058
 40
0.1944972173
 40
0.2262121437
 40
0.258700224
 40
0.2918731203
 40
0.3256384257
 40
0.359902781
 40
0.394571005
 40
0.4295433514
 40
0.4647187213
 40
0.4999957312
 40
0.535272839
 40
0.5704483959
 40
0.6054208588
 40
0.64008897
 40
0.6743530284
 40
0.7081180137
 40
0.7412905806
 40
0.7737783395
 40
0.80549354
 40
0.8363616204
 40
0.8663122961
 40
0.8952775009
 40
0.9231914222
 40
0.949989729
 40
0.9756113704
 40
1.0
 40
1.0
 40
1.0
 40
1.0
 10
4.7979586652
 20
5.8672901994
 30
0.0
 10
4.7986795586
 20
5.8682652288
 30
0.0
 10
4.8001164758
 20
5.870295328
 30
0.0
 10
4.8022100234
 20
5.8734899213
 30
0.0
 10
4.804290853
 20
5.8768998058
 30
0.0
 10
4.8063533006
 20
5.8805133965
 30
0.0
 10
4.8083917527
 20
5.8843192614
 30
0.0
 10
4.8104020149
 20
5.8883052739
 30
0.0
 10
4.8123800159
 20
5.8924594007
 30
0.0
 10
4.8143216091
 20
5.8967694778
 30
0.0
 10
4.8162223894
 20
5.9012226122
 30
0.0
 10
4.8180780696
 20
5.9058048774
 30
0.0
 10
4.8198840293
 20
5.9105016894
 30
0.0
 10
4.821635579
 20
5.9152982741
 30
0.0
 10
4.8233279651
 20
5.9201796026
 30
0.0
 10
4.8249567068
 20
5.9251302308
 30
0.0
 10
4.8265172264
 20
5.9301344946
 30
0.0
 10
4.8280049375
 20
5.9351766822
 30
0.0
 10
4.8294152565
 20
5.9402410714
 30
0.0
 10
4.8307437407
 20
5.9453118915
 30
0.0
 10
4.8319859459
 20
5.950373368
 30
0.0
 10
4.8331374443
 20
5.9554097793
 30
0.0
 10
4.8341938622
 20
5.9604056538
 30
0.0
 10
4.8351512756
 20
5.9653457366
 30
0.0
 10
4.8360058241
 20
5.9702150255
 30
0.0
 10
4.8367536887
 20
5.9749987364
 30
0.0
 10
4.8373911449
 20
5.9796828291
 30
0.0
 10
4.8379151072
 20
5.9842540613
 30
0.0
 10
4.8383226243
 20
5.9886999033
 30
0.0
 10
4.8386107347
 20
5.9930079428
 30
0.0
 10
4.838776597
 20
5.9971656252
 30
0.0
 10
4.8388189377
 20
6.001160247
 30
0.0
 10
4.8387364044
 20
6.0049789607
 30
0.0
 10
4.8385936242
 20
6.0074620963
 30
0.0
 10
4.8384989574
 20
6.0086710001
 30
0.0
 11
4.7979586652
 21
5.8672901994
 31
0.0
 11
4.8000635152
 21
5.8702571731
 31
0.0
 11
4.8021610067
 21
5.8734517136
 31
0.0
 11
4.804245498
 21
5.8768621617
 31
0.0
 11
4.8063113475
 21
5.8804768586
 31
0.0
 11
4.8083531376
 21
5.8842840853
 31
0.0
 11
4.8103664984
 21
5.8882718424
 31
0.0
 11
4.8123473659
 21
5.8924280485
 31
0.0
 11
4.814291676
 21
5.8967406225
 31
0.0
 11
4.8161952595
 21
5.9011970121
 31
0.0
 11
4.8180535509
 21
5.9057828842
 31
0.0
 11
4.8198618904
 21
5.9104834852
 31
0.0
 11
4.8216156185
 21
5.9152840611
 31
0.0
 11
4.8233100891
 21
5.9201696789
 31
0.0
 11
4.8249407046
 21
5.9251247567
 31
0.0
 11
4.8265028787
 21
5.9301335665
 31
0.0
 11
4.8279920247
 21
5.9351803799
 31
0.0
 11
4.8294035803
 21
5.9402494573
 31
0.0
 11
4.8307330721
 21
5.945325017
 31
0.0
 11
4.8319760469
 21
5.950391268
 31
0.0
 11
4.8331280515
 21
5.9554324189
 31
0.0
 11
4.8341847365
 21
5.9604328245
 31
0.0
 11
4.8351421377
 21
5.9653773814
 31
0.0
 11
4.8359963808
 21
5.9702511123
 31
0.0
 11
4.8367435911
 21
5.9750390399
 31
0.0
 11
4.8373800668
 21
5.9797266748
 31
0.0
 11
4.8379026999
 21
5.9843012071
 31
0.0
 11
4.8383085102
 21
5.9887501878
 31
0.0
 11
4.8385945175
 21
5.9930611679
 31
0.0
 11
4.8387580854
 21
5.9972216012
 31
0.0
 11
4.8387976162
 21
6.0012186478
 31
0.0
 11
4.8387117076
 21
6.0050394125
 31
0.0
 11
4.8384989574
 21
6.0086710001
 31
0.0
  0
SPLINE
  5
27F
100
AcDbEntity
  8
0
100
AcDbSpline
 62
6
  6
CONTINUOUS
 70
0
 71
3
 72
39
 73
35
 74
33
 42
0.0000001
 43
0.0000001
 44
0.0000000001
 12
0.1045061513
 22
0.1064295251
 32
0.0
 13
0.0091642865
 23
0.1488784583
 33
0.0
 40
0.0
 40
0.0
 40
0.0
 40
0.0
 40
0.0243886349
 40
0.0500102804
 40
0.0768085731
 40
0.1047224453
 40
0.1336875564
 40
0.1636381211
 40
0.1945061119
 40
0.2262212836
 40
0.2587090829
 40
0.2918817261
 40
0.3256468064
 40
0.3599109614
 40
0.3945791554
 40
0.4295516809
 40
0.4647272791
 40
0.5000044053
 40
0.5352814088
 40
0.5704567444
 40
0.6054290248
 40
0.6400971473
 40
0.6743613685
 40
0.7081265331
 40
0.7412993119
 40
0.773787328
 40
0.8055022944
 40
0.8363693408
 40
0.8663184712
 40
0.8952819
 40
0.9231941219
 40
0.9499910261
 40
0.9756117178
 40
1.0
 40
1.0
 40
1.0
 40
1.0
 10
4.8384989574
 20
6.0086710001
 30
0.0
 10
4.8393485449
 20
6.0095362237
 30
0.0
 10
4.8410540499
 20
6.0113466391
 30
0.0
 10
4.8435718956
 20
6.014218892
 30
0.0
 10
4.8461071524
 20
6.0173061636
 30
0.0
 10
4.8486525968
 20
6.0205977408
 30
0.0
 10
4.8512010392
 20
6.0240830736
 30
0.0
 10
4.8537465878
 20
6.0277507204
 30
0.0
 10
4.8562835352
 20
6.031589274
 30
0.0
 10
4.8588060899
 20
6.0355872429
 30
0.0
 10
4.8613081047
 20
6.0397324999
 30
0.0
 10
4.8637834072
 20
6.0440118934
 30
0.0
 10
4.8662254176
 20
6.048411641
 30
0.0
 10
4.868627448
 20
6.0529177668
 30
0.0
 10
4.8709826976
 20
6.0575160611
 30
0.0
 10
4.8732845717
 20
6.0621918596
 30
0.0
 10
4.8755263564
 20
6.066930272
 30
0.0
 10
4.8777013165
 20
6.0717163574
 30
0.0
 10
4.8798027184
 20
6.0765351786
 30
0.0
 10
4.8818239671
 20
6.0813717452
 30
0.0
 10
4.8837584773
 20
6.0862110721
 30
0.0
 10
4.8855996869
 20
6.0910382173
 30
0.0
 10
4.8873411022
 20
6.0958384707
 30
0.0
 10
4.8889767047
 20
6.1005972669
 30
0.0
 10
4.8905005908
 20
6.1053002783
 30
0.0
 10
4.891906926
 20
6.1099333686
 30
0.0
 10
4.8931900444
 20
6.1144831166
 30
0.0
 10
4.894345034
 20
6.1189368132
 30
0.0
 10
4.89536725
 20
6.1232824686
 30
0.0
 10
4.8962520734
 20
6.1275082397
 30
0.0
 10
4.8969949209
 20
6.1316021368
 30
0.0
 10
4.8975927449
 20
6.1355517943
 30
0.0
 10
4.8980424388
 20
6.1393447003
 30
0.0
 10
4.8982466184
 20
6.1418234777
 30
0.0
 10
4.8983211188
 20
6.1430337744
 30
0.0
 11
4.8384989574
 21
6.0086710001
 31
0.0
 11
4.8409962734
 21
6.0113162051
 31
0.0
 11
4.8435180237
 21
6.0141878603
 31
0.0
 11
4.8460569921
 21
6.0172751838
 31
0.0
 11
4.8486059627
 21
6.020567394
 31
0.0
 11
4.8511579055
 21
6.0240536265
 31
0.0
 11
4.853706778
 21
6.027722579
 31
0.0
 11
4.8562468637
 21
6.0315628046
 31
0.0
 11
4.8587724464
 21
6.0355628563
 31
0.0
 11
4.8612776738
 21
6.0397109243
 31
0.0
 11
4.8637560659
 21
6.0439935251
 31
0.0
 11
4.8662009617
 21
6.0483966929
 31
0.0
 11
4.8686057004
 21
6.0529064621
 31
0.0
 11
4.870963609
 21
6.0575087128
 31
0.0
 11
4.8732679625
 21
6.0621886634
 31
0.0
 11
4.875512022
 21
6.0669313544
 31
0.0
 11
4.8776890484
 21
6.0717218262
 31
0.0
 11
4.8797923245
 21
6.0765451135
 31
0.0
 11
4.8818152282
 21
6.081386226
 31
0.0
 11
4.883751163
 21
6.0862301662
 31
0.0
 11
4.8855935329
 21
6.0910619369
 31
0.0
 11
4.8873358445
 21
6.0958666468
 31
0.0
 11
4.8889720588
 21
6.1006298739
 31
0.0
 11
4.8904962625
 21
6.1053373254
 31
0.0
 11
4.8919025422
 21
6.1099747087
 31
0.0
 11
4.8931851848
 21
6.1145281162
 31
0.0
 11
4.8943393159
 21
6.1189852512
 31
0.0
 11
4.8953602801
 21
6.1233342377
 31
0.0
 11
4.896243422
 21
6.1275631999
 31
0.0
 11
4.8969843744
 21
6.1316601303
 31
0.0
 11
4.8975797555
 21
6.1356125717
 31
0.0
 11
4.898026394
 21
6.1394079708
 31
0.0
 11
4.8983211188
 21
6.1430337744
 31
0.0
  0
SPLINE
  5
280
100
AcDbEntity
  8
0
100
AcDbSpline
 62
6
  6
CONTINUOUS
 70
0
 71
3
 72
39
 73
35
 74
33
 42
0.0000001
 43
0.0000001
 44
0.0000000001
 12
0.1183012317
 22
0.0908493152
 32
0.0
 13
0.029794977
 23
0.1461541612
 33
0.0
 40
0.0
 40
0.0
 40
0.0
 40
0.0
 40
0.0243886375
 40
0.0500102904
 40
0.0768085946
 40
0.1047224811
 40
0.1336876079
 40
0.1636381876
 40
0.194506191
 40
0.2262213708
 40
0.258709177
 40
0.2918818304
 40
0.3256469221
 40
0.359911088
 40
0.3945792931
 40
0.4295518325
 40
0.464727447
 40
0.5000045917
 40
0.5352816154
 40
0.5704569721
 40
0.6054292737
 40
0.6400974169
 40
0.6743616528
 40
0.7081268224
 40
0.7412996
 40
0.7737876121
 40
0.805502558
 40
0.8363695593
 40
0.8663186323
 40
0.8952820039
 40
0.9231941797
 40
0.9499910515
 40
0.9756117242
 40
1.0
 40
1.0
 40
1.0
 40
1.0
 10
4.8983211188
 20
6.1430337744
 30
0.0
 10
4.8992828541
 20
6.143772338
 30
0.0
 10
4.9012237226
 20
6.1453277745
 30
0.0
 10
4.9041168059
 20
6.1478216594
 30
0.0
 10
4.907057056
 20
6.1505260475
 30
0.0
 10
4.9100358289
 20
6.1534313353
 30
0.0
 10
4.9130445362
 20
6.156528076
 30
0.0
 10
4.9160757507
 20
6.1598057594
 30
0.0
 10
4.9191222332
 20
6.1632538831
 30
0.0
 10
4.922176649
 20
6.1668618735
 30
0.0
 10
4.9252312232
 20
6.1706185771
 30
0.0
 10
4.9282780132
 20
6.1745118297
 30
0.0
 10
4.9313085853
 20
6.1785288986
 30
0.0
 10
4.9343143716
 20
6.1826568745
 30
0.0
 10
4.9372866599
 20
6.1868826327
 30
0.0
 10
4.9402168785
 20
6.1911925696
 30
0.0
 10
4.9430963068
 20
6.1955728742
 30
0.0
 10
4.9459161959
 20
6.2000096884
 30
0.0
 10
4.9486677985
 20
6.2044891573
 30
0.0
 10
4.9513424977
 20
6.2089973542
 30
0.0
 10
4.9539316865
 20
6.2135203564
 30
0.0
 10
4.9564267873
 20
6.2180442799
 30
0.0
 10
4.9588193219
 20
6.2225554615
 30
0.0
 10
4.9611013027
 20
6.2270403149
 30
0.0
 10
4.9632648901
 20
6.2314854734
 30
0.0
 10
4.9653023393
 20
6.2358777499
 30
0.0
 10
4.9672061712
 20
6.2402046415
 30
0.0
 10
4.9689697522
 20
6.2444542462
 30
0.0
 10
4.9705868148
 20
6.2486153379
 30
0.0
 10
4.9720511381
 20
6.252676833
 30
0.0
 10
4.9733565145
 20
6.2566274978
 30
0.0
 10
4.9744982048
 20
6.2604555119
 30
0.0
 10
4.9754713916
 20
6.2641489177
 30
0.0
 10
4.9760185629
 20
6.2665751543
 30
0.0
 10
4.9762607789
 20
6.2677633036
 30
0.0
 11
4.8983211188
 21
6.1430337744
 31
0.0
 11
4.9011622727
 21
6.1453056775
 31
0.0
 11
4.9040591393
 21
6.147798427
 31
0.0
 11
4.9070030723
 21
6.15050235
 31
0.0
 11
4.9099854251
 21
6.153407774
 31
0.0
 11
4.912997724
 21
6.1565049186
 31
0.0
 11
4.9160324119
 21
6.1597834324
 31
0.0
 11
4.9190822348
 21
6.1632327752
 31
0.0
 11
4.9221399389
 21
6.1668424066
 31
0.0
 11
4.9251980856
 21
6.1706014465
 31
0.0
 11
4.9282483816
 21
6.1744974453
 31
0.0
 11
4.9312822871
 21
6.1785174996
 31
0.0
 11
4.9342912624
 21
6.1826487065
 31
0.0
 11
4.9372667343
 21
6.1868780125
 31
0.0
 11
4.9401999861
 21
6.191191716
 31
0.0
 11
4.9430822625
 21
6.195575941
 31
0.0
 11
4.9459048082
 21
6.2000168112
 31
0.0
 11
4.9486588884
 21
6.204500442
 31
0.0
 11
4.9513358591
 21
6.2090129103
 31
0.0
 11
4.9539271009
 21
6.2135402827
 31
0.0
 11
4.9564239945
 21
6.2180686255
 31
0.0
 11
4.9588180368
 21
6.2225840956
 31
0.0
 11
4.9611012402
 21
6.2270732514
 31
0.0
 11
4.9632657601
 21
6.2315227625
 31
0.0
 11
4.965303752
 21
6.2359192985
 31
0.0
 11
4.9672076221
 21
6.2402498807
 31
0.0
 11
4.9689708313
 21
6.2445030092
 31
0.0
 11
4.9705871178
 21
6.2486675732
 31
0.0
 11
4.9720502197
 21
6.2527324619
 31
0.0
 11
4.9733541416
 21
6.256686394
 31
0.0
 11
4.9744938003
 21
6.260517505
 31
0.0
 11
4.9754643085
 21
6.2642138048
 31
0.0
 11
4.9762607789
 21
6.2677633036
 31
0.0
  0
LINE
  5
281
100
AcDbEntity
  8
0
100
AcDbLine
 62
6
  6
CONTINUOUS
 10
4.9762607789
 20
5.0284447067
 11
4.8895184759
 21
4.9654227346
  0
SPLINE
  5
282
100
AcDbEntity
  8
0
100
AcDbSpline
 62
6
  6
CONTINUOUS
 70
0
 71
3
 72
39
 73
35
 74
33
 42
0.0000001
 43
0.0000001
 44
0.0000000001
 12
0.1297937067
 22
0.073500823
 32
0.0
 13
0.0498457397
 23
0.1405851327
 33
0.0
 40
0.0
 40
0.0
 40
0.0
 40
0.0
 40
0.0243901327
 40
0.0500154628
 40
0.0768182218
 40
0.1047359044
 40
0.1337027823
 40
0.1636529805
 40
0.1945191942
 40
0.226231888
 40
0.2587175683
 40
0.2918890361
 40
0.3256535997
 40
0.3599176101
 40
0.3945858724
 40
0.4295586335
 40
0.4647344904
 40
0.5000117529
 40
0.5352886507
 40
0.5704636676
 40
0.6054354948
 40
0.6401031077
 40
0.6743667451
 40
0.7081312354
 40
0.7413033594
 40
0.7737908492
 40
0.8055053299
 40
0.8363717944
 40
0.866320309
 40
0.895283149
 40
0.9231948726
 40
0.949991397
 40
0.9756118361
 40
1.0
 40
1.0
 40
1.0
 40
1.0
 10
4.9762607789
 20
6.2677633036
 30
0.0
 10
4.9773160075
 20
6.2683608686
 30
0.0
 10
4.9794546607
 20
6.2696312224
 30
0.0
 10
4.9826670215
 20
6.2716985359
 30
0.0
 10
4.9859554869
 20
6.2739677899
 30
0.0
 10
4.9893100251
 20
6.2764305098
 30
0.0
 10
4.9927206838
 20
6.2790784805
 30
0.0
 10
4.9961785244
 20
6.2819024187
 30
0.0
 10
4.9996750215
 20
6.2848929016
 30
0.0
 10
5.0032015584
 20
6.2880405318
 30
0.0
 10
5.0067489972
 20
6.2913353957
 30
0.0
 10
5.0103078138
 20
6.2947666169
 30
0.0
 10
5.0138678845
 20
6.2983227618
 30
0.0
 10
5.0174188979
 20
6.3019922195
 30
0.0
 10
5.0209503703
 20
6.3057632
 30
0.0
 10
5.0244519038
 20
6.309623416
 30
0.0
 10
5.0279129346
 20
6.3135603872
 30
0.0
 10
5.0313228599
 20
6.31756159
 30
0.0
 10
5.0346710823
 20
6.3216145126
 30
0.0
 10
5.0379471284
 20
6.3257065639
 30
0.0
 10
5.0411405459
 20
6.3298251598
 30
0.0
 10
5.0442409166
 20
6.3339577483
 30
0.0
 10
5.0472379421
 20
6.3380919832
 30
0.0
 10
5.0501218182
 20
6.3422155297
 30
0.0
 10
5.0528829315
 20
6.3463162472
 30
0.0
 10
5.055511785
 20
6.3503821577
 30
0.0
 10
5.0579992295
 20
6.3544019174
 30
0.0
 10
5.0603370307
 20
6.3583646598
 30
0.0
 10
5.0625174223
 20
6.3622601371
 30
0.0
 10
5.0645327096
 20
6.3660782437
 30
0.0
 10
5.0663751793
 20
6.369808728
 30
0.0
 10
5.0680384899
 20
6.3734405506
 30
0.0
 10
5.0695162105
 20
6.3769625408
 30
0.0
 10
5.0703957156
 20
6.3792889984
 30
0.0
 10
5.070800931
 20
6.3804318695
 30
0.0
 11
4.9762607789
 21
6.2677633036
 31
0.0
 11
4.9793906381
 21
6.2696178393
 31
0.0
 11
4.9826066523
 21
6.2716835304
 31
0.0
 11
4.9858987644
 21
6.2739518448
 31
0.0
 11
4.9892569173
 21
6.2764142501
 31
0.0
 11
4.9926711752
 21
6.2790621449
 31
0.0
 11
4.9961325507
 21
6.2818863886
 31
0.0
 11
4.9996325015
 21
6.2848775873
 31
0.0
 11
5.0031624879
 21
6.2880263456
 31
0.0
 11
5.0067137661
 21
6.2913230091
 31
0.0
 11
5.0102764474
 21
6.2947564711
 31
0.0
 11
5.0138402443
 21
6.2983151191
 31
0.0
 11
5.017394869
 21
6.30198734
 31
0.0
 11
5.0209299888
 21
6.3057613929
 31
0.0
 11
5.024435056
 21
6.3096249212
 31
0.0
 11
5.027899458
 21
6.3135653832
 31
0.0
 11
5.0313125823
 21
6.3175702375
 31
0.0
 11
5.034663836
 21
6.3216269358
 31
0.0
 11
5.0379427237
 21
6.3257228976
 31
0.0
 11
5.0411387806
 21
6.3298455319
 31
0.0
 11
5.0442415415
 21
6.333982248
 31
0.0
 11
5.0472406563
 21
6.3381205212
 31
0.0
 11
5.0501263395
 21
6.3422481533
 31
0.0
 11
5.0528889797
 21
6.3463530463
 31
0.0
 11
5.0555189655
 21
6.3504231025
 31
0.0
 11
5.058006964
 21
6.3544465174
 31
0.0
 11
5.0603448867
 21
6.3584127987
 31
0.0
 11
5.0625249927
 21
6.36231182
 31
0.0
 11
5.0645395409
 21
6.3661334553
 31
0.0
 11
5.0663810235
 21
6.3698673768
 31
0.0
 11
5.0680427537
 21
6.3735025481
 31
0.0
 11
5.069518225
 21
6.3770277765
 31
0.0
 11
5.070800931
 21
6.3804318695
 31
0.0
  0
SPLINE
  5
283
100
AcDbEntity
  8
0
100
AcDbSpline
 62
6
  6
CONTINUOUS
 70
0
 71
3
 72
39
 73
35
 74
33
 42
0.0000001
 43
0.0000001
 44
0.0000000001
 12
0.1387599076
 22
0.0547217281
 32
0.0
 13
0.0689263166
 23
0.1322797882
 33
0.0
 40
0.0
 40
0.0
 40
0.0
 40
0.0
 40
0.0243886349
 40
0.0500102804
 40
0.0768085731
 40
0.1047224453
 40
0.1336875564
 40
0.1636381211
 40
0.1945061119
 40
0.2262212836
 40
0.2587090829
 40
0.2918817261
 40
0.3256468064
 40
0.3599109614
 40
0.3945791554
 40
0.4295516809
 40
0.4647272791
 40
0.5000044053
 40
0.5352814088
 40
0.5704567444
 40
0.6054290248
 40
0.6400971473
 40
0.6743613685
 40
0.7081265331
 40
0.7412993119
 40
0.773787328
 40
0.8055022944
 40
0.8363693408
 40
0.8663184712
 40
0.8952819
 40
0.9231941219
 40
0.9499910261
 40
0.9756117178
 40
1.0
 40
1.0
 40
1.0
 40
1.0
 10
5.070800931
 20
6.3804318695
 30
0.0
 10
5.0719289859
 20
6.3808767323
 30
0.0
 10
5.0742234045
 20
6.3818369376
 30
0.0
 10
5.0776918215
 20
6.3834367712
 30
0.0
 10
5.0812636003
 20
6.3852259522
 30
0.0
 10
5.0849277846
 20
6.3871976322
 30
0.0
 10
5.0886735151
 20
6.3893450972
 30
0.0
 10
5.0924907558
 20
6.3916602913
 30
0.0
 10
5.096369653
 20
6.394135115
 30
0.0
 10
5.1003002419
 20
6.396761426
 30
0.0
 10
5.1042719741
 20
6.3995306456
 30
0.0
 10
5.1082738615
 20
6.4024332699
 30
0.0
 10
5.1122942876
 20
6.4054593842
 30
0.0
 10
5.116321458
 20
6.4085989411
 30
0.0
 10
5.1203433804
 20
6.4118417257
 30
0.0
 10
5.1243480656
 20
6.4151770236
 30
0.0
 10
5.1283233238
 20
6.4185939628
 30
0.0
 10
5.132256925
 20
6.4220816334
 30
0.0
 10
5.1361366423
 20
6.4256291285
 30
0.0
 10
5.1399503538
 20
6.429225436
 30
0.0
 10
5.1436859483
 20
6.4328595449
 30
0.0
 10
5.1473313538
 20
6.436520474
 30
0.0
 10
5.1508746549
 20
6.4401974263
 30
0.0
 10
5.1543044289
 20
6.4438795435
 30
0.0
 10
5.1576094552
 20
6.447556138
 30
0.0
 10
5.1607786539
 20
6.4512166685
 30
0.0
 10
5.1638013901
 20
6.4548511789
 30
0.0
 10
5.1666680072
 20
6.4584500565
 30
0.0
 10
5.1693693853
 20
6.4620042376
 30
0.0
 10
5.1718964877
 20
6.4655047815
 30
0.0
 10
5.1742402506
 20
6.4689425993
 30
0.0
 10
5.1763928604
 20
6.472307634
 30
0.0
 10
5.1783463901
 20
6.4755897191
 30
0.0
 10
5.179541127
 20
6.4777711476
 30
0.0
 10
5.1801014585
 20
6.4788465066
 30
0.0
 11
5.070800931
 21
6.3804318695
 31
0.0
 11
5.0741582445
 21
6.3818326346
 31
0.0
 11
5.0776299854
 21
6.3834303339
 31
0.0
 11
5.0812051761
 21
6.3852180528
 31
0.0
 11
5.0848728391
 21
6.3871888768
 31
0.0
 11
5.0886221333
 21
6.38933574
 31
0.0
 11
5.0924429416
 21
6.391650775
 31
0.0
 11
5.0963253858
 21
6.3941258498
 31
0.0
 11
5.1002595881
 21
6.3967528318
 31
0.0
 11
5.1042353984
 21
6.3995233127
 31
0.0
 11
5.1082414129
 21
6.4024276103
 31
0.0
 11
5.1122658661
 21
6.4054556756
 31
0.0
 11
5.1162969926
 21
6.4085974593
 31
0.0
 11
5.1203229533
 21
6.4118427768
 31
0.0
 11
5.1243315924
 21
6.4151808594
 31
0.0
 11
5.1283106689
 21
6.4186007819
 31
0.0
 11
5.1322479419
 21
6.4220916193
 31
0.0
 11
5.1361311879
 21
6.425642432
 31
0.0
 11
5.1399482602
 21
6.4292422193
 31
0.0
 11
5.1436870327
 21
6.4328799632
 31
0.0
 11
5.1473353796
 21
6.436544646
 31
0.0
 11
5.150881312
 21
6.440225305
 31
0.0
 11
5.1543134471
 21
6.4439112212
 31
0.0
 11
5.1576205695
 21
6.4475917426
 31
0.0
 11
5.1607914636
 21
6.4512562176
 31
0.0
 11
5.1638152536
 21
6.4548942646
 31
0.0
 11
5.166682485
 21
6.4584966326
 31
0.0
 11
5.1693840744
 21
6.462054366
 31
0.0
 11
5.1719109386
 21
6.465558509
 31
0.0
 11
5.174254204
 21
6.4689998686
 31
0.0
 11
5.1764057144
 21
6.4723684402
 31
0.0
 11
5.1783574669
 21
6.4756540456
 31
0.0
 11
5.1801014585
 21
6.4788465066
 31
0.0
  0
SPLINE
  5
284
100
AcDbEntity
  8
0
100
AcDbSpline
 62
6
  6
CONTINUOUS
 70
0
 71
3
 72
39
 73
35
 74
33
 42
0.0000001
 43
0.0000001
 44
0.0000000001
 12
0.1450252983
 22
0.0348775333
 32
0.0
 13
0.0866653188
 23
0.1213997612
 33
0.0
 40
0.0
 40
0.0
 40
0.0
 40
0.0
 40
0.0243886349
 40
0.0500102804
 40
0.0768085731
 40
0.1047224453
 40
0.1336875564
 40
0.1636381211
 40
0.1945061119
 40
0.2262212836
 40
0.2587090829
 40
0.2918817261
 40
0.3256468064
 40
0.3599109614
 40
0.3945791554
 40
0.4295516809
 40
0.4647272791
 40
0.5000044053
 40
0.5352814088
 40
0.5704567444
 40
0.6054290248
 40
0.6400971473
 40
0.6743613685
 40
0.7081265331
 40
0.7412993119
 40
0.773787328
 40
0.8055022944
 40
0.8363693408
 40
0.8663184712
 40
0.8952819
 40
0.9231941219
 40
0.9499910261
 40
0.9756117178
 40
1.0
 40
1.0
 40
1.0
 40
1.0
 10
5.1801014585
 20
6.4788465066
 30
0.0
 10
5.1812804482
 20
6.479130045
 30
0.0
 10
5.1836861724
 20
6.4797615844
 30
0.0
 10
5.1873434889
 20
6.4808631381
 30
0.0
 10
5.1911295132
 20
6.4821378114
 30
0.0
 10
5.1950324428
 20
6.4835803472
 30
0.0
 10
5.1990405894
 20
6.4851856083
 30
0.0
 10
5.2031428937
 20
6.486947014
 30
0.0
 10
5.2073284707
 20
6.4888579147
 30
0.0
 10
5.2115863192
 20
6.4909116343
 30
0.0
 10
5.2159047996
 20
6.4931011458
 30
0.0
 10
5.2202717082
 20
6.4954185669
 30
0.0
 10
5.2246741614
 20
6.4978556961
 30
0.0
 10
5.2290990816
 20
6.5004042252
 30
0.0
 10
5.2335331713
 20
6.5030557078
 30
0.0
 10
5.2379630669
 20
6.5058012024
 30
0.0
 10
5.2423751842
 20
6.5086316392
 30
0.0
 10
5.2467558938
 20
6.5115379165
 30
0.0
 10
5.2510915699
 20
6.5145109354
 30
0.0
 10
5.2553686758
 20
6.5175414777
 30
0.0
 10
5.2595736861
 20
6.5206203256
 30
0.0
 10
5.2636931176
 20
6.5237382844
 30
0.0
 10
5.2677136683
 20
6.5268863206
 30
0.0
 10
5.2716225156
 20
6.5300552714
 30
0.0
 10
5.2754070607
 20
6.5332361147
 30
0.0
 10
5.2790548643
 20
6.536419954
 30
0.0
 10
5.2825540096
 20
6.53959841
 30
0.0
 10
5.2858935959
 20
6.5427633077
 30
0.0
 10
5.2890633308
 20
6.5459069405
 30
0.0
 10
5.2920530211
 20
6.5490217126
 30
0.0
 10
5.2948524265
 20
6.5520998851
 30
0.0
 10
5.2974524096
 20
6.5551325861
 30
0.0
 10
5.2998437056
 20
6.5581108514
 30
0.0
 10
5.3013304116
 20
6.5601047752
 30
0.0
 10
5.302034951
 20
6.5610916857
 30
0.0
 11
5.1801014585
 21
6.4788465066
 31
0.0
 11
5.1836210477
 21
6.4797663918
 31
0.0
 11
5.1872813586
 21
6.4808653694
 31
0.0
 11
5.1910705581
 21
6.48213812
 31
0.0
 11
5.1949768134
 21
6.483579324
 31
0.0
 11
5.1989884054
 21
6.4851834931
 31
0.0
 11
5.2030942204
 21
6.4869442447
 31
0.0
 11
5.2072833448
 21
6.4888549004
 31
0.0
 11
5.2115448649
 21
6.4909087817
 31
0.0
 11
5.2158675594
 21
6.4930989746
 31
0.0
 11
5.2202387877
 21
6.4954174783
 31
0.0
 11
5.2246455004
 21
6.497855979
 31
0.0
 11
5.2290746481
 21
6.5004061628
 31
0.0
 11
5.2335130893
 21
6.5030595916
 31
0.0
 11
5.2379472879
 21
6.5058072935
 31
0.0
 11
5.2423636015
 21
6.5086401532
 31
0.0
 11
5.2467483879
 21
6.5115490554
 31
0.0
 11
5.2510880201
 21
6.5145248685
 31
0.0
 11
5.2553689384
 21
6.5175583891
 31
0.0
 11
5.2595776016
 21
6.5206403942
 31
0.0
 11
5.2637004682
 21
6.5237616608
 31
0.0
 11
5.2677241406
 21
6.5269130015
 31
0.0
 11
5.2716358548
 21
6.5300853857
 31
0.0
 11
5.2754230221
 21
6.5332698261
 31
0.0
 11
5.2790730536
 21
6.5364573354
 31
0.0
 11
5.2825737346
 21
6.539639147
 31
0.0
 11
5.2859144149
 21
6.5428074155
 31
0.0
 11
5.2890848534
 21
6.5459545367
 31
0.0
 11
5.2920748088
 21
6.5490729061
 31
0.0
 11
5.2948742144
 21
6.5521546551
 31
0.0
 11
5.2974736011
 21
6.5551910116
 31
0.0
 11
5.2998636271
 21
6.5581730103
 31
0.0
 11
5.302034951
 21
6.5610916857
 31
0.0
  0
LINE
  5
285
100
AcDbEntity
  8
0
100
AcDbLine
 62
6
  6
CONTINUOUS
 10
5.070800931
 20
4.9157761409
 11
4.9936737614
 21
4.8412952989
  0
SPLINE
  5
286
100
AcDbEntity
  8
0
100
AcDbSpline
 62
6
  6
CONTINUOUS
 70
0
 71
3
 72
39
 73
35
 74
33
 42
0.0000001
 43
0.0000001
 44
0.0000000001
 12
0.1484679366
 22
0.0143544871
 32
0.0
 13
0.1027174791
 23
0.1081568259
 33
0.0
 40
0.0
 40
0.0
 40
0.0
 40
0.0
 40
0.0243886349
 40
0.0500102804
 40
0.0768085731
 40
0.1047224453
 40
0.1336875564
 40
0.1636381211
 40
0.1945061119
 40
0.2262212836
 40
0.2587090829
 40
0.2918817261
 40
0.3256468064
 40
0.3599109614
 40
0.3945791554
 40
0.4295516809
 40
0.4647272791
 40
0.5000044053
 40
0.5352814088
 40
0.5704567444
 40
0.6054290248
 40
0.6400971473
 40
0.6743613685
 40
0.7081265331
 40
0.7412993119
 40
0.773787328
 40
0.8055022944
 40
0.8363693408
 40
0.8663184712
 40
0.8952819
 40
0.9231941219
 40
0.9499910261
 40
0.9756117178
 40
1.0
 40
1.0
 40
1.0
 40
1.0
 10
5.302034951
 20
6.5610916857
 30
0.0
 10
5.3032419278
 20
6.5612083812
 30
0.0
 10
5.3057121329
 20
6.5614989623
 30
0.0
 10
5.3094871633
 20
6.5620807957
 30
0.0
 10
5.3134137426
 20
6.5628161513
 30
0.0
 10
5.3174794512
 20
6.5637014656
 30
0.0
 10
5.321672
 20
6.5647332782
 30
0.0
 10
5.3259795213
 20
6.5659066116
 30
0.0
 10
5.3303903105
 20
6.5672163958
 30
0.0
 10
5.3348925444
 20
6.5686575508
 30
0.0
 10
5.3394737188
 20
6.5702247378
 30
0.0
 10
5.3441206516
 20
6.5719118497
 30
0.0
 10
5.3488194433
 20
6.5737125579
 30
0.0
 10
5.3535559872
 20
6.575620455
 30
0.0
 10
5.3583159397
 20
6.5776290276
 30
0.0
 10
5.3630848228
 20
6.5797312809
 30
0.0
 10
5.3678479223
 20
6.581920124
 30
0.0
 10
5.3725904748
 20
6.5841884407
 30
0.0
 10
5.3772977207
 20
6.5865291169
 30
0.0
 10
5.3819549721
 20
6.5889349081
 30
0.0
 10
5.3865475522
 20
6.5913985685
 30
0.0
 10
5.3910608297
 20
6.5939128694
 30
0.0
 10
5.3954803747
 20
6.5964707167
 30
0.0
 10
5.3997922141
 20
6.5990648211
 30
0.0
 10
5.403982616
 20
6.6016880018
 30
0.0
 10
5.4080380243
 20
6.60433318
 30
0.0
 10
5.4119454717
 20
6.6069937166
 30
0.0
 10
5.4156930261
 20
6.6096630331
 30
0.0
 10
5.4192694224
 20
6.6123349305
 30
0.0
 10
5.4226635098
 20
6.6150033054
 30
0.0
 10
5.4258640703
 20
6.6176619194
 30
0.0
 10
5.428860821
 20
6.6203032587
 30
0.0
 10
5.4316433394
 20
6.6229197356
 30
0.0
 10
5.4333930775
 20
6.6246873452
 30
0.0
 10
5.4342281118
 20
6.6255665982
 30
0.0
 11
5.302034951
 21
6.5610916857
 31
0.0
 11
5.3056483111
 21
6.5615127866
 31
0.0
 11
5.3094259482
 21
6.5620916522
 31
0.0
 11
5.3133554042
 21
6.5628246618
 31
0.0
 11
5.3174242208
 21
6.5637081944
 31
0.0
 11
5.3216200295
 21
6.5647384463
 31
0.0
 11
5.3259309363
 21
6.5659106433
 31
0.0
 11
5.3303452043
 21
6.5672196912
 31
0.0
 11
5.3348510966
 21
6.5686604953
 31
0.0
 11
5.3394365388
 21
6.5702277706
 31
0.0
 11
5.3440879
 21
6.5719153534
 31
0.0
 11
5.3487911006
 21
6.5737168269
 31
0.0
 11
5.3535320611
 21
6.5756257742
 31
0.0
 11
5.3582965936
 21
6.5776356684
 31
0.0
 11
5.3630700451
 21
6.5797395087
 31
0.0
 11
5.3678376373
 21
6.5819301671
 31
0.0
 11
5.3725845922
 21
6.5842005158
 31
0.0
 11
5.3772961445
 21
6.5865434084
 31
0.0
 11
5.3819575857
 21
6.5889516184
 31
0.0
 11
5.3865542227
 21
6.5914178969
 31
0.0
 11
5.3910713622
 21
6.5939349954
 31
0.0
 11
5.3954944583
 21
6.5964956805
 31
0.0
 11
5.3998096146
 21
6.5990927858
 31
0.0
 11
5.4040031138
 21
6.6017191636
 31
0.0
 11
5.408061239
 21
6.6043676662
 31
0.0
 11
5.4119706742
 21
6.607031312
 31
0.0
 11
5.4157197811
 21
6.6097038143
 31
0.0
 11
5.4192973597
 21
6.6123790681
 31
0.0
 11
5.4226922102
 21
6.6150509684
 31
0.0
 11
5.4258932687
 21
6.6177131241
 31
0.0
 11
5.4288899375
 21
6.6203581663
 31
0.0
 11
5.431671718
 21
6.622978517
 31
0.0
 11
5.4342281118
 21
6.6255665982
 31
0.0
  0
SPLINE
  5
287
100
AcDbEntity
  8
0
100
AcDbSpline
 62
6
  6
CONTINUOUS
 70
0
 71
3
 72
39
 73
35
 74
33
 42
0.0000001
 43
0.0000001
 44
0.0000000001
 12
0.1490208209
 22
-0.0064479532
 32
0.0
 13
0.1167703648
 23
0.0928087445
 33
0.0
 40
0.0
 40
0.0
 40
0.0
 40
0.0
 40
0.0243877846
 40
0.050007414
 40
0.0768033968
 40
0.1047155556
 40
0.1336803052
 40
0.1636316846
 40
0.1945011524
 40
0.2262179593
 40
0.2587069637
 40
0.2918801661
 40
0.3256452635
 40
0.3599089954
 40
0.3945764014
 40
0.4295479127
 40
0.4647224696
 40
0.4999987274
 40
0.5352751876
 40
0.5704502554
 40
0.605422442
 40
0.6400905441
 40
0.6743548833
 40
0.7081204793
 40
0.7412940631
 40
0.7737833229
 40
0.805500183
 40
0.8363694979
 40
0.8663206065
 40
0.8952850542
 40
0.9231969551
 40
0.949992746
 40
0.9756122562
 40
1.0
 40
1.0
 40
1.0
 40
1.0
 10
5.4342281118
 20
6.6255665982
 30
0.0
 10
5.435439541
 20
6.6255141811
 30
0.0
 10
5.4379260039
 20
6.6254581257
 30
0.0
 10
5.4417450151
 20
6.6255088599
 30
0.0
 10
5.4457354249
 20
6.6256905399
 30
0.0
 10
5.4498845595
 20
6.62600141
 30
0.0
 10
5.4541798409
 20
6.6264397231
 30
0.0
 10
5.4586088355
 20
6.6270021401
 30
0.0
 10
5.4631591847
 20
6.6276853065
 30
0.0
 10
5.4678183916
 20
6.6284858449
 30
0.0
 10
5.4725732621
 20
6.629400219
 30
0.0
 10
5.4774098602
 20
6.6304241955
 30
0.0
 10
5.4823135412
 20
6.6315534363
 30
0.0
 10
5.4872694592
 20
6.6327835549
 30
0.0
 10
5.4922625219
 20
6.6341100899
 30
0.0
 10
5.4972774386
 20
6.6355281357
 30
0.0
 10
5.5022986762
 20
6.6370327292
 30
0.0
 10
5.5073106499
 20
6.6386188894
 30
0.0
 10
5.5122977684
 20
6.6402816284
 30
0.0
 10
5.5172444796
 20
6.6420158145
 30
0.0
 10
5.5221352284
 20
6.643816313
 30
0.0
 10
5.5269545117
 20
6.6456780045
 30
0.0
 10
5.531687062
 20
6.6475958674
 30
0.0
 10
5.5363180415
 20
6.6495646348
 30
0.0
 10
5.5408328602
 20
6.6515791271
 30
0.0
 10
5.5452171173
 20
6.6536342415
 30
0.0
 10
5.5494570456
 20
6.6557252106
 30
0.0
 10
5.5535398921
 20
6.6578471411
 30
0.0
 10
5.5574535705
 20
6.6599954207
 30
0.0
 10
5.5611861239
 20
6.6621655011
 30
0.0
 10
5.5647255378
 20
6.6643527819
 30
0.0
 10
5.5680606109
 20
6.6665512902
 30
0.0
 10
5.5711800609
 20
6.6687549958
 30
0.0
 10
5.5731586961
 20
6.6702618479
 30
0.0
 10
5.5741079513
 20
6.6710163132
 30
0.0
 11
5.4342281118
 21
6.6255665982
 31
0.0
 11
5.4378647855
 21
6.625480695
 31
0.0
 11
5.4416859214
 21
6.6255281331
 31
0.0
 11
5.4456788086
 21
6.625707093
 31
0.0
 11
5.4498307358
 21
6.626015755
 31
0.0
 11
5.4541290383
 21
6.6264520575
 31
0.0
 11
5.4585612522
 21
6.6270128878
 31
0.0
 11
5.4631149683
 21
6.6276948473
 31
0.0
 11
5.4677777772
 21
6.6284945375
 31
0.0
 11
5.472536897
 21
6.6294084052
 31
0.0
 11
5.4773779409
 21
6.6304322305
 31
0.0
 11
5.4822860897
 21
6.6315616136
 31
0.0
 11
5.4872465242
 21
6.6327921553
 31
0.0
 11
5.4922442995
 21
6.6341193603
 31
0.0
 11
5.4972639512
 21
6.63553834
 31
0.0
 11
5.5022898808
 21
6.6370441035
 31
0.0
 11
5.5073064898
 21
6.6386316604
 31
0.0
 11
5.512298184
 21
6.640295995
 31
0.0
 11
5.5172493855
 21
6.6420319949
 31
0.0
 11
5.5221445205
 21
6.6438345239
 31
0.0
 11
5.5269680151
 21
6.6456984457
 31
0.0
 11
5.531704469
 21
6.6476186211
 31
0.0
 11
5.5363391471
 21
6.6495898995
 31
0.0
 11
5.5408574741
 21
6.6516071273
 31
0.0
 11
5.5452448747
 21
6.653665151
 31
0.0
 11
5.5494872185
 21
6.6557589241
 31
0.0
 11
5.5535720756
 21
6.6578838077
 31
0.0
 11
5.5574874224
 21
6.6600352606
 31
0.0
 11
5.5612212348
 21
6.6622087417
 31
0.0
 11
5.5647616087
 21
6.6643994504
 31
0.0
 11
5.5680970872
 21
6.6666016148
 31
0.0
 11
5.5712163187
 21
6.6688092356
 31
0.0
 11
5.5741079513
 21
6.6710163132
 31
0.0
  0
SPLINE
  5
288
100
AcDbEntity
  8
0
100
AcDbSpline
 62
6
  6
CONTINUOUS
 70
0
 71
3
 72
39
 73
35
 74
33
 42
0.0000001
 43
0.0000001
 44
0.0000000001
 12
0.1466731734
 22
-0.0271248908
 32
0.0
 13
0.1285504396
 23
0.0756542396
 33
0.0
 40
0.0
 40
0.0
 40
0.0
 40
0.0
 40
0.0243886349
 40
0.0500102804
 40
0.0768085731
 40
0.1047224453
 40
0.1336875564
 40
0.1636381211
 40
0.1945061119
 40
0.2262212836
 40
0.2587090829
 40
0.2918817261
 40
0.3256468064
 40
0.3599109614
 40
0.3945791554
 40
0.4295516809
 40
0.4647272791
 40
0.5000044053
 40
0.5352814088
 40
0.5704567444
 40
0.6054290248
 40
0.6400971473
 40
0.6743613685
 40
0.7081265331
 40
0.7412993119
 40
0.773787328
 40
0.8055022944
 40
0.8363693408
 40
0.8663184712
 40
0.8952819
 40
0.9231941219
 40
0.9499910261
 40
0.9756117178
 40
1.0
 40
1.0
 40
1.0
 40
1.0
 10
5.5741079513
 20
6.6710163132
 30
0.0
 10
5.5753003375
 20
6.6707958002
 30
0.0
 10
5.5777549461
 20
6.6703942439
 30
0.0
 10
5.5815441132
 20
6.6699129987
 30
0.0
 10
5.5855212749
 20
6.6695375559
 30
0.0
 10
5.5896735106
 20
6.6692679134
 30
0.0
 10
5.5939880533
 20
6.6691041323
 30
0.0
 10
5.598452123
 20
6.6690446989
 30
0.0
 10
5.6030530711
 20
6.6690879661
 30
0.0
 10
5.6077781323
 20
6.6692323094
 30
0.0
 10
5.612613815
 20
6.6694760434
 30
0.0
 10
5.6175457646
 20
6.6698169311
 30
0.0
 10
5.6225588755
 20
6.6702527204
 30
0.0
 10
5.6276378214
 20
6.6707811404
 30
0.0
 10
5.6327670191
 20
6.6713998836
 30
0.0
 10
5.6379306233
 20
6.6721062168
 30
0.0
 10
5.6431125354
 20
6.6728973797
 30
0.0
 10
5.6482966023
 20
6.673770601
 30
0.0
 10
5.6534666751
 20
6.6747231106
 30
0.0
 10
5.6586066385
 20
6.675751993
 30
0.0
 10
5.6637003867
 20
6.6768543288
 30
0.0
 10
5.6687318627
 20
6.6780272021
 30
0.0
 10
5.6736852403
 20
6.679267771
 30
0.0
 10
5.6785450784
 20
6.6805728802
 30
0.0
 10
5.6832961979
 20
6.681939412
 30
0.0
 10
5.6879236165
 20
6.6833642985
 30
0.0
 10
5.6924130392
 20
6.6848447319
 30
0.0
 10
5.696751183
 20
6.6863776777
 30
0.0
 10
5.7009255105
 20
6.6879602818
 30
0.0
 10
5.7049236206
 20
6.6895897512
 30
0.0
 10
5.7087330102
 20
6.691263181
 30
0.0
 10
5.7123417236
 20
6.6929761828
 30
0.0
 10
5.7157376508
 20
6.6947243358
 30
0.0
 10
5.7179068262
 20
6.695941178
 30
0.0
 10
5.7189518676
 20
6.6965562036
 30
0.0
 11
5.5741079513
 21
6.6710163132
 31
0.0
 11
5.577697407
 21
6.6704251243
 31
0.0
 11
5.5814882619
 21
6.6699403078
 31
0.0
 11
5.5854675423
 21
6.6695618169
 31
0.0
 11
5.5896222745
 21
6.6692896051
 31
0.0
 11
5.5939395205
 21
6.6691234252
 31
0.0
 11
5.5984065313
 21
6.6690619663
 31
0.0
 11
5.6030106206
 21
6.6691035667
 31
0.0
 11
5.6077391017
 21
6.6692465643
 31
0.0
 11
5.6125789113
 21
6.6694892068
 31
0.0
 11
5.6175152475
 21
6.6698293267
 31
0.0
 11
5.6225328075
 21
6.6702646363
 31
0.0
 11
5.6276162884
 21
6.6707928485
 31
0.0
 11
5.6327502529
 21
6.6714115996
 31
0.0
 11
5.6379186859
 21
6.6721181992
 31
0.0
 11
5.643105417
 21
6.6729098687
 31
0.0
 11
5.6482942758
 21
6.6737838298
 31
0.0
 11
5.6534690994
 21
6.674737283
 31
0.0
 11
5.6586137569
 21
6.6757673356
 31
0.0
 11
5.6637121264
 21
6.6768710698
 31
0.0
 11
5.668748086
 21
6.6780455678
 31
0.0
 11
5.6737056593
 21
6.6792878858
 31
0.0
 11
5.6785695129
 21
6.6805949654
 31
0.0
 11
5.683324491
 21
6.6819637167
 31
0.0
 11
5.6879554376
 21
6.6833910499
 31
0.0
 11
5.6924476281
 21
6.6848739242
 31
0.0
 11
5.6967881424
 21
6.6864095044
 31
0.0
 11
5.7009645316
 21
6.6879950091
 31
0.0
 11
5.7049643469
 21
6.6896276569
 31
0.0
 11
5.7087751914
 21
6.6913043539
 31
0.0
 11
5.7123848467
 21
6.6930209378
 31
0.0
 11
5.7157811323
 21
6.6947730179
 31
0.0
 11
5.7189518676
 21
6.6965562036
 31
0.0
  0
LINE
  5
289
100
AcDbEntity
  8
0
100
AcDbLine
 62
6
  6
CONTINUOUS
 10
5.1801014585
 20
4.8173615038
 11
5.1140906149
 21
4.732871477
  0
SPLINE
  5
28A
100
AcDbEntity
  8
0
100
AcDbSpline
 62
6
  6
CONTINUOUS
 70
0
 71
3
 72
39
 73
35
 74
33
 42
0.0000001
 43
0.0000001
 44
0.0000000001
 12
0.141470705
 22
-0.0472738736
 32
0.0
 13
0.1378284307
 23
0.0570272144
 33
0.0
 40
0.0
 40
0.0
 40
0.0
 40
0.0
 40
0.0243886349
 40
0.0500102804
 40
0.0768085731
 40
0.1047224453
 40
0.1336875564
 40
0.1636381211
 40
0.1945061119
 40
0.2262212836
 40
0.2587090829
 40
0.2918817261
 40
0.3256468064
 40
0.3599109614
 40
0.3945791554
 40
0.4295516809
 40
0.4647272791
 40
0.5000044053
 40
0.5352814088
 40
0.5704567444
 40
0.6054290248
 40
0.6400971473
 40
0.6743613685
 40
0.7081265331
 40
0.7412993119
 40
0.773787328
 40
0.8055022944
 40
0.8363693408
 40
0.8663184712
 40
0.8952819
 40
0.9231941219
 40
0.9499910261
 40
0.9756117178
 40
1.0
 40
1.0
 40
1.0
 40
1.0
 10
5.7189518676
 20
6.6965562036
 30
0.0
 10
5.7201019601
 20
6.6961718886
 30
0.0
 10
5.7224767948
 20
6.6954326247
 30
0.0
 10
5.7261621096
 20
6.6944287128
 30
0.0
 10
5.7300483143
 20
6.6935034098
 30
0.0
 10
5.7341226137
 20
6.692658512
 30
0.0
 10
5.7383723737
 20
6.6918958565
 30
0.0
 10
5.7427847278
 20
6.6912157231
 30
0.0
 10
5.7473469215
 20
6.690618241
 30
0.0
 10
5.7520460874
 20
6.6901035781
 30
0.0
 10
5.7568686308
 20
6.6896719432
 30
0.0
 10
5.7618000254
 20
6.6893231187
 30
0.0
 10
5.7668249992
 20
6.6890569767
 30
0.0
 10
5.771928059
 20
6.6888734015
 30
0.0
 10
5.7770934521
 20
6.6887722767
 30
0.0
 10
5.7823051071
 20
6.6887531012
 30
0.0
 10
5.7875466977
 20
6.6888153818
 30
0.0
 10
5.7928018425
 20
6.6889586223
 30
0.0
 10
5.7980541643
 20
6.689182327
 30
0.0
 10
5.8032872986
 20
6.6894858519
 30
0.0
 10
5.8084848903
 20
6.689868547
 30
0.0
 10
5.8136306328
 20
6.6903297599
 30
0.0
 10
5.8187084582
 20
6.6908688787
 30
0.0
 10
5.8237026369
 20
6.6914849279
 30
0.0
 10
5.8285977032
 20
6.6921769327
 30
0.0
 10
5.8333783939
 20
6.6929439401
 30
0.0
 10
5.8380301625
 20
6.6937851592
 30
0.0
 10
5.8425394326
 20
6.6946994335
 30
0.0
 10
5.8468933917
 20
6.6956856818
 30
0.0
 10
5.8510793707
 20
6.6967428639
 30
0.0
 10
5.855084584
 20
6.6978698434
 30
0.0
 10
5.8588965814
 20
6.6990639385
 30
0.0
 10
5.8625027556
 20
6.700322457
 30
0.0
 10
5.8648201724
 20
6.701225566
 30
0.0
 10
5.8659406386
 20
6.7016891646
 30
0.0
 11
5.7189518676
 21
6.6965562036
 31
0.0
 11
5.7224241134
 21
6.6954712124
 31
0.0
 11
5.7261106025
 21
6.6944635291
 31
0.0
 11
5.7299984811
 21
6.6935349129
 31
0.0
 11
5.7340748951
 21
6.6926871233
 31
0.0
 11
5.7383269982
 21
6.6919217161
 31
0.0
 11
5.742741983
 21
6.6912391676
 31
0.0
 11
5.7473070552
 21
6.6906395978
 31
0.0
 11
5.7520094205
 21
6.6901231263
 31
0.0
 11
5.7568358987
 21
6.6896898362
 31
0.0
 11
5.7617715304
 21
6.6893396407
 31
0.0
 11
5.7668008432
 21
6.6890724047
 31
0.0
 11
5.771908365
 21
6.6888879925
 31
0.0
 11
5.7770784796
 21
6.6887862122
 31
0.0
 11
5.7822949534
 21
6.6887666283
 31
0.0
 11
5.7875413867
 21
6.6888287399
 31
0.0
 11
5.7928013798
 21
6.6889720462
 31
0.0
 11
5.7980585373
 21
6.6891960241
 31
0.0
 11
5.803296483
 21
6.6895000544
 31
0.0
 11
5.8084988456
 21
6.6898834913
 31
0.0
 11
5.8136492541
 21
6.690345689
 31
0.0
 11
5.8187314779
 21
6.690885956
 31
0.0
 11
5.8237299072
 21
6.6915033976
 31
0.0
 11
5.8286291036
 21
6.6921970633
 31
0.0
 11
5.8334136284
 21
6.6929660026
 31
0.0
 11
5.8380684775
 21
6.6938092535
 31
0.0
 11
5.8425804617
 21
6.6947258067
 31
0.0
 11
5.8469368662
 21
6.6957146404
 31
0.0
 11
5.8511249761
 21
6.6967747326
 31
0.0
 11
5.8551320849
 21
6.6979047451
 31
0.0
 11
5.8589455136
 21
6.6991022564
 31
0.0
 11
5.8625525892
 21
6.7003646138
 31
0.0
 11
5.8659406386
 21
6.7016891646
 31
0.0
  0
SPLINE
  5
28B
100
AcDbEntity
  8
0
100
AcDbSpline
 62
6
  6
CONTINUOUS
 70
0
 71
3
 72
39
 73
35
 74
33
 42
0.0000001
 43
0.0000001
 44
0.0000000001
 12
0.1335146702
 22
-0.0665027243
 32
0.0
 13
0.1444237482
 23
0.0372902193
 33
0.0
 40
0.0
 40
0.0
 40
0.0
 40
0.0
 40
0.0243886349
 40
0.0500102804
 40
0.0768085731
 40
0.1047224453
 40
0.1336875564
 40
0.1636381211
 40
0.1945061119
 40
0.2262212836
 40
0.2587090829
 40
0.2918817261
 40
0.3256468064
 40
0.3599109614
 40
0.3945791554
 40
0.4295516809
 40
0.4647272791
 40
0.5000044053
 40
0.5352814088
 40
0.5704567444
 40
0.6054290248
 40
0.6400971473
 40
0.6743613685
 40
0.7081265331
 40
0.7412993119
 40
0.773787328
 40
0.8055022944
 40
0.8363693408
 40
0.8663184712
 40
0.8952819
 40
0.9231941219
 40
0.9499910261
 40
0.9756117178
 40
1.0
 40
1.0
 40
1.0
 40
1.0
 10
5.8659406386
 20
6.7016891646
 30
0.0
 10
5.8670260522
 20
6.7011485277
 30
0.0
 10
5.8692748895
 20
6.7000859452
 30
0.0
 10
5.8727846215
 20
6.6985789066
 30
0.0
 10
5.8765042287
 20
6.6971217535
 30
0.0
 10
5.8804212903
 20
6.6957180453
 30
0.0
 10
5.8845235507
 20
6.6943713596
 30
0.0
 10
5.8887983078
 20
6.6930837642
 30
0.0
 10
5.8932329491
 20
6.6918571621
 30
0.0
 10
5.8978147558
 20
6.6906935104
 30
0.0
 10
5.9025302946
 20
6.6895949078
 30
0.0
 10
5.9073651502
 20
6.6885631606
 30
0.0
 10
5.9123041815
 20
6.6876002675
 30
0.0
 10
5.91733203
 20
6.6867082702
 30
0.0
 10
5.92243308
 20
6.6858892458
 30
0.0
 10
5.9275913468
 20
6.6851449347
 30
0.0
 10
5.9327905943
 20
6.6844771207
 30
0.0
 10
5.9380145317
 20
6.6838875924
 30
0.0
 10
5.9432468719
 20
6.6833781381
 30
0.0
 10
5.9484713203
 20
6.6829503976
 30
0.0
 10
5.9536715902
 20
6.6826060034
 30
0.0
 10
5.9588314431
 20
6.6823465788
 30
0.0
 10
5.9639348823
 20
6.6821737543
 30
0.0
 10
5.9689661954
 20
6.6820887528
 30
0.0
 10
5.9739099318
 20
6.6820927615
 30
0.0
 10
5.978750844
 20
6.6821869609
 30
0.0
 10
5.9834744169
 20
6.6823725923
 30
0.0
 10
5.9880670454
 20
6.6826503998
 30
0.0
 10
5.9925158914
 20
6.683021096
 30
0.0
 10
5.9968082641
 20
6.6834854139
 30
0.0
 10
6.0009313441
 20
6.6840440078
 30
0.0
 10
6.0048724294
 20
6.6846959546
 30
0.0
 10
6.0086186604
 20
6.6854403428
 30
0.0
 10
6.0110392128
 20
6.6860121408
 30
0.0
 10
6.0122132951
 20
6.6863152889
 30
0.0
 11
5.8659406386
 21
6.7016891646
 31
0.0
 11
5.8692280912
 21
6.7001314893
 31
0.0
 11
5.8727384612
 21
6.6986205525
 31
0.0
 11
5.8764592648
 21
6.6971598855
 31
0.0
 11
5.880378018
 21
6.6957530193
 31
0.0
 11
5.8844822158
 21
6.6944032826
 31
0.0
 11
5.8887592419
 21
6.6931129295
 31
0.0
 11
5.8931964431
 21
6.6918838594
 31
0.0
 11
5.8977811664
 21
6.6907179714
 31
0.0
 11
5.9025003713
 21
6.6896171821
 31
0.0
 11
5.9073392319
 21
6.6885834876
 31
0.0
 11
5.9122824078
 21
6.6876189072
 31
0.0
 11
5.9173145583
 21
6.68672546
 31
0.0
 11
5.9224201927
 21
6.6859051294
 31
0.0
 11
5.9275831745
 21
6.6851597432
 31
0.0
 11
5.9327871942
 21
6.684491088
 31
0.0
 11
5.9380159417
 21
6.68390095
 31
0.0
 11
5.9432531087
 21
6.6833910933
 31
0.0
 11
5.9484823918
 21
6.6829631837
 31
0.0
 11
5.9536874896
 21
6.68261886
 31
0.0
 11
5.9588521001
 21
6.6823597614
 31
0.0
 11
5.9639600547
 21
6.6821874616
 31
0.0
 11
5.9689957709
 21
6.6821032474
 31
0.0
 11
5.9739438282
 21
6.6821083261
 31
0.0
 11
5.9787888061
 21
6.6822039049
 31
0.0
 11
5.9835157123
 21
6.6823911196
 31
0.0
 11
5.9881113457
 21
6.6826708062
 31
0.0
 11
5.992562973
 21
6.6830437223
 31
0.0
 11
5.9968578609
 21
6.6835106255
 31
0.0
 11
6.0009832401
 21
6.6840719591
 31
0.0
 11
6.0049262182
 21
6.6847270896
 31
0.0
 11
6.0086738761
 21
6.6854751539
 31
0.0
 11
6.0122132951
 21
6.6863152889
 31
0.0
  0
SPLINE
  5
28C
100
AcDbEntity
  8
0
100
AcDbSpline
 62
6
  6
CONTINUOUS
 70
0
 71
3
 72
39
 73
35
 74
33
 42
0.0000001
 43
0.0000001
 44
0.0000000001
 12
0.1229599181
 22
-0.0844371708
 32
0.0
 13
0.1482080143
 23
0.0168274118
 33
0.0
 40
0.0
 40
0.0
 40
0.0
 40
0.0
 40
0.0243884907
 40
0.0500098047
 40
0.0768076027
 40
0.1047208431
 40
0.1336852315
 40
0.1636350599
 40
0.1945023698
 40
0.2262169869
 40
0.2587042101
 40
0.2918761181
 40
0.3256404418
 40
0.3599039591
 40
0.3945716297
 40
0.4295437043
 40
0.464719011
 40
0.4999960931
 40
0.5352733487
 40
0.5704491143
 40
0.6054218426
 40
0.6400902729
 40
0.6743545923
 40
0.7081194622
 40
0.7412912142
 40
0.7737771303
 40
0.8054893891
 40
0.8363543216
 40
0.8663027682
 40
0.8952677963
 40
0.9231839095
 40
0.9499855027
 40
0.9756101106
 40
1.0
 40
1.0
 40
1.0
 40
1.0
 10
6.0122132951
 20
6.6863152889
 30
0.0
 10
6.0132128974
 20
6.6856288572
 30
0.0
 10
6.0152919447
 20
6.6842636485
 30
0.0
 10
6.0185577357
 20
6.6822828348
 30
0.0
 10
6.0220382809
 20
6.6803222232
 30
0.0
 10
6.0257217822
 20
6.6783870696
 30
0.0
 10
6.0295966043
 20
6.6764826126
 30
0.0
 10
6.0336504602
 20
6.6746126526
 30
0.0
 10
6.0378711387
 20
6.6727808325
 30
0.0
 10
6.0422463189
 20
6.6709908653
 30
0.0
 10
6.0467629786
 20
6.6692466985
 30
0.0
 10
6.0514070864
 20
6.6675521265
 30
0.0
 10
6.0561639359
 20
6.6659112402
 30
0.0
 10
6.0610186172
 20
6.664328201
 30
0.0
 10
6.0659559576
 20
6.6628072305
 30
0.0
 10
6.0709603703
 20
6.6613522703
 30
0.0
 10
6.076016034
 20
6.6599673506
 30
0.0
 10
6.0811070769
 20
6.6586565107
 30
0.0
 10
6.0862176199
 20
6.6574237866
 30
0.0
 10
6.091331744
 20
6.6562730722
 30
0.0
 10
6.0964335284
 20
6.6552082609
 30
0.0
 10
6.1015071009
 20
6.6542332318
 30
0.0
 10
6.1065368263
 20
6.6533518259
 30
0.0
 10
6.1115072827
 20
6.6525674254
 30
0.0
 10
6.116403292
 20
6.6518833548
 30
0.0
 10
6.1212099091
 20
6.6513029038
 30
0.0
 10
6.1259129967
 20
6.6508292908
 30
0.0
 10
6.1304993143
 20
6.6504651694
 30
0.0
 10
6.1349563941
 20
6.6502130611
 30
0.0
 10
6.1392718559
 20
6.6500755456
 30
0.0
 10
6.1434330569
 20
6.6500549145
 30
0.0
 10
6.1474271431
 20
6.650151973
 30
0.0
 10
6.1512410271
 20
6.6503676714
 30
0.0
 10
6.1537178806
 20
6.6505970053
 30
0.0
 10
6.1549228063
 20
6.6507338115
 30
0.0
 11
6.0122132951
 21
6.6863152889
 31
0.0
 11
6.0152519479
 21
6.6843152569
 31
0.0
 11
6.0185178277
 21
6.6823304955
 31
0.0
 11
6.0219990679
 21
6.6803662393
 31
0.0
 11
6.0256838023
 21
6.6784277232
 31
0.0
 11
6.0295601142
 21
6.6765199753
 31
0.0
 11
6.0336158307
 21
6.6746469714
 31
0.0
 11
6.0378386978
 21
6.6728123531
 31
0.0
 11
6.0422164614
 21
6.671019762
 31
0.0
 11
6.0467364535
 21
6.6692729166
 31
0.0
 11
6.0513842504
 21
6.6675758624
 31
0.0
 11
6.0561449631
 21
6.6659327317
 31
0.0
 11
6.0610037024
 21
6.6643476566
 31
0.0
 11
6.0659454024
 21
6.6628247529
 31
0.0
 11
6.0709543309
 21
6.6613680739
 31
0.0
 11
6.076014599
 21
6.6599816585
 31
0.0
 11
6.081110318
 21
6.6586695455
 31
0.0
 11
6.0862255904
 21
6.6574357495
 31
0.0
 11
6.0913444866
 21
6.6562841937
 31
0.0
 11
6.0964510695
 21
6.6552187801
 31
0.0
 11
6.101529402
 21
6.6542434106
 31
0.0
 11
6.1065636803
 21
6.6533618913
 31
0.0
 11
6.1115386232
 21
6.6525776543
 31
0.0
 11
6.1164390773
 21
6.6518940399
 31
0.0
 11
6.1212498893
 21
6.6513143887
 31
0.0
 11
6.1259564395
 21
6.6508418912
 31
0.0
 11
6.1305459532
 21
6.650479221
 31
0.0
 11
6.1350060539
 21
6.6502289397
 31
0.0
 11
6.1393243643
 21
6.6500936075
 31
0.0
 11
6.1434882985
 21
6.6500753567
 31
0.0
 11
6.1474847807
 21
6.6501753165
 31
0.0
 11
6.1513006652
 21
6.6503944728
 31
0.0
 11
6.1549228063
 21
6.6507338115
 31
0.0
  0
LINE
  5
28D
100
AcDbEntity
  8
0
100
AcDbLine
 62
6
  6
CONTINUOUS
 10
5.302034951
 20
4.7351163246
 11
5.2484252595
 21
4.6422616151
  0
SPLINE
  5
28E
100
AcDbEntity
  8
0
100
AcDbSpline
 62
6
  6
CONTINUOUS
 70
0
 71
3
 72
39
 73
35
 74
33
 42
0.0000001
 43
0.0000001
 44
0.0000000001
 12
0.110011895
 22
-0.1007281446
 32
0.0
 13
0.1491075834
 23
-0.0039629203
 33
0.0
 40
0.0
 40
0.0
 40
0.0
 40
0.0
 40
0.0243907922
 40
0.0500177809
 40
0.0768225885
 40
0.1047420863
 40
0.133709906
 40
0.1636600308
 40
0.1945254956
 40
0.2262371064
 40
0.2587218537
 40
0.2918928283
 40
0.3256571923
 40
0.3599211475
 40
0.39458941
 40
0.4295622198
 40
0.464738127
 40
0.5000153931
 40
0.5352922059
 40
0.5704670564
 40
0.6054386637
 40
0.6401060309
 40
0.6743693851
 40
0.7081335458
 40
0.7413053466
 40
0.7737925722
 40
0.8055068148
 40
0.8363730023
 40
0.8663212262
 40
0.8952837862
 40
0.9231952668
 40
0.9499916
 40
0.9756119059
 40
1.0
 40
1.0
 40
1.0
 40
1.0
 10
6.1549228063
 20
6.6507338115
 30
0.0
 10
6.155817232
 20
6.6499148651
 30
0.0
 10
6.1576863911
 20
6.6482733853
 30
0.0
 10
6.160645393
 20
6.6458569805
 30
0.0
 10
6.1638200098
 20
6.6434305596
 30
0.0
 10
6.1671989945
 20
6.6410010818
 30
0.0
 10
6.1707714052
 20
6.6385755145
 30
0.0
 10
6.1745256747
 20
6.6361595666
 30
0.0
 10
6.1784502056
 20
6.6337583869
 30
0.0
 10
6.1825334391
 20
6.6313772231
 30
0.0
 10
6.1867631613
 20
6.6290216572
 30
0.0
 10
6.1911261172
 20
6.626697379
 30
0.0
 10
6.1956083047
 20
6.6244104838
 30
0.0
 10
6.2001954794
 20
6.622167202
 30
0.0
 10
6.2048731813
 20
6.619973873
 30
0.0
 10
6.2096265063
 20
6.6178365952
 30
0.0
 10
6.2144403143
 20
6.6157615576
 30
0.0
 10
6.2192994112
 20
6.613754975
 30
0.0
 10
6.2241886187
 20
6.6118230606
 30
0.0
 10
6.2290927258
 20
6.6099718855
 30
0.0
 10
6.2339965365
 20
6.6082074993
 30
0.0
 10
6.2388848953
 20
6.6065359288
 30
0.0
 10
6.2437428789
 20
6.6049631546
 30
0.0
 10
6.248555729
 20
6.6034946923
 30
0.0
 10
6.2533089323
 20
6.6021359294
 30
0.0
 10
6.2579881651
 20
6.600892193
 30
0.0
 10
6.2625798097
 20
6.59976868
 30
0.0
 10
6.2670709838
 20
6.5987698672
 30
0.0
 10
6.2714495402
 20
6.5978999723
 30
0.0
 10
6.2757034934
 20
6.5971631872
 30
0.0
 10
6.2798207141
 20
6.5965636826
 30
0.0
 10
6.283788746
 20
6.5961040809
 30
0.0
 10
6.2875949792
 20
6.595787044
 30
0.0
 10
6.2900793438
 20
6.5956695015
 30
0.0
 10
6.2912914937
 20
6.5956372854
 30
0.0
 11
6.1549228063
 21
6.6507338115
 31
0.0
 11
6.1576538423
 21
6.648330173
 31
0.0
 11
6.1606124505
 21
6.645909769
 31
0.0
 11
6.1637873232
 21
6.6434795677
 31
0.0
 11
6.167167153
 21
6.6410465378
 31
0.0
 11
6.1707406173
 21
6.6386175318
 31
0.0
 11
6.174496252
 21
6.6361983207
 31
0.0
 11
6.1784225156
 21
6.6337940848
 31
0.0
 11
6.1825078656
 21
6.6314099984
 31
0.0
 11
6.1867404739
 21
6.6290513453
 31
0.0
 11
6.1911067616
 21
6.6267240803
 31
0.0
 11
6.1955924879
 21
6.6244344118
 31
0.0
 11
6.200183411
 21
6.6221885484
 31
0.0
 11
6.2048651626
 21
6.6199927002
 31
0.0
 11
6.2096227315
 21
6.6178530838
 31
0.0
 11
6.2144409033
 21
6.6157759175
 31
0.0
 11
6.2193044635
 21
6.6137674199
 31
0.0
 11
6.2241981985
 21
6.6118337898
 31
0.0
 11
6.2291069013
 21
6.6099811209
 31
0.0
 11
6.234015367
 21
6.6082154726
 31
0.0
 11
6.2389083908
 21
6.6065429045
 31
0.0
 11
6.2437708612
 21
6.6049693917
 31
0.0
 11
6.2485881527
 21
6.6035004737
 31
0.0
 11
6.2533457964
 21
6.6021415491
 31
0.0
 11
6.2580293235
 21
6.6008980165
 31
0.0
 11
6.2626246188
 21
6.5997751058
 31
0.0
 11
6.2671191949
 21
6.598777271
 31
0.0
 11
6.2715010323
 21
6.5979087427
 31
0.0
 11
6.2757581119
 21
6.5971737517
 31
0.0
 11
6.2798782958
 21
6.5965762486
 31
0.0
 11
6.2838490238
 21
6.5961191842
 31
0.0
 11
6.2876576413
 21
6.5958052871
 31
0.0
 11
6.2912914937
 21
6.5956372854
 31
0.0
  0
SPLINE
  5
28F
100
AcDbEntity
  8
0
100
AcDbSpline
 62
6
  6
CONTINUOUS
 70
0
 71
3
 72
39
 73
35
 74
33
 42
0.0000001
 43
0.0000001
 44
0.0000000001
 12
0.0949226257
 22
-0.1150585704
 32
0.0
 13
0.1471049577
 23
-0.02467612
 33
0.0
 40
0.0
 40
0.0
 40
0.0
 40
0.0
 40
0.0243886349
 40
0.0500102804
 40
0.0768085731
 40
0.1047224453
 40
0.1336875564
 40
0.1636381211
 40
0.1945061119
 40
0.2262212836
 40
0.2587090829
 40
0.2918817261
 40
0.3256468064
 40
0.3599109614
 40
0.3945791554
 40
0.4295516809
 40
0.4647272791
 40
0.5000044053
 40
0.5352814088
 40
0.5704567444
 40
0.6054290248
 40
0.6400971473
 40
0.6743613685
 40
0.7081265331
 40
0.7412993119
 40
0.773787328
 40
0.8055022944
 40
0.8363693408
 40
0.8663184712
 40
0.8952819
 40
0.9231941219
 40
0.9499910261
 40
0.9756117178
 40
1.0
 40
1.0
 40
1.0
 40
1.0
 10
6.2912914937
 20
6.5956372854
 30
0.0
 10
6.2920631714
 20
6.5947019116
 30
0.0
 10
6.2936853953
 20
6.5928165097
 30
0.0
 10
6.2962787272
 20
6.5900122247
 30
0.0
 10
6.2990840799
 20
6.5871681486
 30
0.0
 10
6.3020915542
 20
6.5842925848
 30
0.0
 10
6.3052914091
 20
6.5813937867
 30
0.0
 10
6.3086728819
 20
6.5784788094
 30
0.0
 10
6.3122252243
 20
6.5755545215
 30
0.0
 10
6.3159376132
 20
6.572627884
 30
0.0
 10
6.3197986303
 20
6.5697062782
 30
0.0
 10
6.3237958412
 20
6.5667972173
 30
0.0
 10
6.3279162269
 20
6.5639086857
 30
0.0
 10
6.3321465871
 20
6.5610487954
 30
0.0
 10
6.3364735009
 20
6.5582257954
 30
0.0
 10
6.3408830735
 20
6.5554477772
 30
0.0
 10
6.3453611981
 20
6.5527229743
 30
0.0
 10
6.3498937196
 20
6.5500596467
 30
0.0
 10
6.3544664865
 20
6.5474660526
 30
0.0
 10
6.3590652798
 20
6.5449503175
 30
0.0
 10
6.363675885
 20
6.5425205574
 30
0.0
 10
6.3682841277
 20
6.5401848601
 30
0.0
 10
6.3728760574
 20
6.5379512213
 30
0.0
 10
6.3774378174
 20
6.5358271491
 30
0.0
 10
6.3819557758
 20
6.5338200125
 30
0.0
 10
6.3864164834
 20
6.5319370916
 30
0.0
 10
6.3908071851
 20
6.5301854241
 30
0.0
 10
6.3951157546
 20
6.5285712236
 30
0.0
 10
6.3993307533
 20
6.5271003627
 30
0.0
 10
6.403440886
 20
6.525778673
 30
0.0
 10
6.4074347076
 20
6.5246119662
 30
0.0
 10
6.4113002388
 20
6.5236045655
 30
0.0
 10
6.4150253611
 20
6.5227608685
 30
0.0
 10
6.4174692169
 20
6.5222987046
 30
0.0
 10
6.418665096
 20
6.5220981018
 30
0.0
 11
6.2912914937
 21
6.5956372854
 31
0.0
 11
6.2936611674
 21
6.5928771508
 31
0.0
 11
6.2962534966
 21
6.5900690452
 31
0.0
 11
6.299058513
 21
6.5872212723
 31
0.0
 11
6.3020662482
 21
6.5843421356
 31
0.0
 11
6.305266632
 21
6.5814397621
 31
0.0
 11
6.3086490559
 21
6.5785213427
 31
0.0
 11
6.3122027331
 21
6.5755937589
 31
0.0
 11
6.3159168769
 21
6.5726638924
 31
0.0
 11
6.3197803537
 21
6.5697387977
 31
0.0
 11
6.3237804315
 21
6.5668263288
 31
0.0
 11
6.3279039171
 21
6.56393457
 31
0.0
 11
6.3321376176
 21
6.5610716055
 31
0.0
 11
6.3364681882
 21
6.5582455475
 31
0.0
 11
6.340881631
 21
6.5554646295
 31
0.0
 11
6.3453637729
 21
6.5527371171
 31
0.0
 11
6.3499004407
 21
6.550071276
 31
0.0
 11
6.3544774534
 21
6.547475351
 31
0.0
 11
6.3590805947
 21
6.544957495
 31
0.0
 11
6.3636956391
 21
6.5425258357
 31
0.0
 11
6.3683083607
 21
6.5401885009
 31
0.0
 11
6.3729046288
 21
6.537953505
 31
0.0
 11
6.3774707314
 21
6.5358283612
 31
0.0
 11
6.3819930724
 21
6.5338204446
 31
0.0
 11
6.3864580553
 21
6.5319371302
 31
0.0
 11
6.3908524461
 21
6.5301855533
 31
0.0
 11
6.3951645249
 21
6.5285718472
 31
0.0
 11
6.3993829674
 21
6.527101883
 31
0.0
 11
6.4034964494
 21
6.5257815321
 31
0.0
 11
6.4074934858
 21
6.5246163929
 31
0.0
 11
6.4113620411
 21
6.5236111307
 31
0.0
 11
6.4150899621
 21
6.5227702117
 31
0.0
 11
6.418665096
 21
6.5220981018
 31
0.0
  0
SPLINE
  5
290
100
AcDbEntity
  8
0
100
AcDbSpline
 62
6
  6
CONTINUOUS
 70
0
 71
3
 72
39
 73
35
 74
33
 42
0.0000001
 43
0.0000001
 44
0.0000000001
 12
0.0779857872
 22
-0.1271495045
 32
0.0
 13
0.1422390903
 23
-0.0449090268
 33
0.0
 40
0.0
 40
0.0
 40
0.0
 40
0.0
 40
0.0243886349
 40
0.0500102804
 40
0.0768085731
 40
0.1047224453
 40
0.1336875564
 40
0.1636381211
 40
0.1945061119
 40
0.2262212836
 40
0.2587090829
 40
0.2918817261
 40
0.3256468064
 40
0.3599109614
 40
0.3945791554
 40
0.4295516809
 40
0.4647272791
 40
0.5000044053
 40
0.5352814088
 40
0.5704567444
 40
0.6054290248
 40
0.6400971473
 40
0.6743613685
 40
0.7081265331
 40
0.7412993119
 40
0.773787328
 40
0.8055022944
 40
0.8363693408
 40
0.8663184712
 40
0.8952819
 40
0.9231941219
 40
0.9499910261
 40
0.9756117178
 40
1.0
 40
1.0
 40
1.0
 40
1.0
 10
6.418665096
 20
6.5220981018
 30
0.0
 10
6.419299085
 20
6.5210644342
 30
0.0
 10
6.4206431243
 20
6.5189716109
 30
0.0
 10
6.422820937
 20
6.5158336951
 30
0.0
 10
6.4252031693
 20
6.5126268677
 30
0.0
 10
6.4277811739
 20
6.5093607292
 30
0.0
 10
6.4305464533
 20
6.5060448082
 30
0.0
 10
6.4334893314
 20
6.5026875892
 30
0.0
 10
6.4366001204
 20
6.4992973698
 30
0.0
 10
6.4398690714
 20
6.4958825495
 30
0.0
 10
6.4432859044
 20
6.4924520268
 30
0.0
 10
6.4468393518
 20
6.4890149724
 30
0.0
 10
6.4505176323
 20
6.4855811049
 30
0.0
 10
6.4543088031
 20
6.4821602946
 30
0.0
 10
6.458200722
 20
6.4787625778
 30
0.0
 10
6.4621807555
 20
6.4753979012
 30
0.0
 10
6.46623608
 20
6.4720763814
 30
0.0
 10
6.4703538277
 20
6.468808168
 30
0.0
 10
6.4745211343
 20
6.4656034084
 30
0.0
 10
6.4787250498
 20
6.462472128
 30
0.0
 10
6.4829526277
 20
6.459424342
 30
0.0
 10
6.4871909571
 20
6.456470032
 30
0.0
 10
6.4914273359
 20
6.4536190578
 30
0.0
 10
6.4956490875
 20
6.4508807827
 30
0.0
 10
6.499843738
 20
6.4482644011
 30
0.0
 10
6.5039989824
 20
6.4457789941
 30
0.0
 10
6.5081031691
 20
6.4434333061
 30
0.0
 10
6.5121451545
 20
6.4412351779
 30
0.0
 10
6.5161144289
 20
6.4391920169
 30
0.0
 10
6.5200006184
 20
6.43731117
 30
0.0
 10
6.5237931983
 20
6.4355999849
 30
0.0
 10
6.5274809073
 20
6.4340644101
 30
0.0
 10
6.531052357
 20
6.4327104871
 30
0.0
 10
6.5334081086
 20
6.431912702
 30
0.0
 10
6.534564431
 20
6.4315476173
 30
0.0
 11
6.418665096
 21
6.5220981018
 31
0.0
 11
6.4206275717
 21
6.5190350338
 31
0.0
 11
6.4228038598
 21
6.515893474
 31
0.0
 11
6.4251852446
 21
6.5126830326
 31
0.0
 11
6.4277630103
 21
6.5094133197
 31
0.0
 11
6.430528316
 21
6.5060937845
 31
0.0
 11
6.4334716568
 21
6.5027330245
 31
0.0
 11
6.436583309
 21
6.4993393555
 31
0.0
 11
6.4398535483
 21
6.4959210933
 31
0.0
 11
6.4432723316
 21
6.4924867734
 31
0.0
 11
6.4468281435
 21
6.4890459453
 31
0.0
 11
6.4505090446
 21
6.4856084506
 31
0.0
 11
6.4543030954
 21
6.482184131
 31
0.0
 11
6.4581982099
 21
6.4787828771
 31
0.0
 11
6.4621816724
 21
6.4754147902
 31
0.0
 11
6.4662405981
 21
6.4720900282
 31
0.0
 11
6.470362102
 21
6.4688187487
 31
0.0
 11
6.4745332885
 21
6.4656110901
 31
0.0
 11
6.4787412146
 21
6.4624771042
 31
0.0
 11
6.4829729241
 21
6.4594268196
 31
0.0
 11
6.4872154609
 21
6.4564702649
 31
0.0
 11
6.4914559471
 21
6.4536173429
 31
0.0
 11
6.4956818499
 21
6.4508774022
 31
0.0
 11
6.4998807317
 21
6.4482596383
 31
0.0
 11
6.5040401551
 21
6.4457732466
 31
0.0
 11
6.5081480076
 21
6.443427135
 31
0.0
 11
6.512193537
 21
6.441229008
 31
0.0
 11
6.5161663465
 21
6.4391862557
 31
0.0
 11
6.5200560391
 21
6.4373062683
 31
0.0
 11
6.5238520205
 21
6.4355961882
 31
0.0
 11
6.5275430218
 21
6.4340623103
 31
0.0
 11
6.5311176297
 21
6.4327107487
 31
0.0
 11
6.534564431
 21
6.4315476173
 31
0.0
  0
LINE
  5
291
100
AcDbEntity
  8
0
100
AcDbLine
 62
6
  6
CONTINUOUS
 10
5.4342281118
 20
4.6706414122
 11
5.3940630239
 21
4.5712293313
  0
SPLINE
  5
292
100
AcDbEntity
  8
0
100
AcDbSpline
 62
6
  6
CONTINUOUS
 70
0
 71
3
 72
39
 73
35
 74
33
 42
0.0000001
 43
0.0000001
 44
0.0000000001
 12
0.059531044
 22
-0.1367656181
 32
0.0
 13
0.1346047007
 23
-0.0642678305
 33
0.0
 40
0.0
 40
0.0
 40
0.0
 40
0.0
 40
0.0243882939
 40
0.0500090019
 40
0.0768058967
 40
0.1047180532
 40
0.1336813432
 40
0.1636303058
 40
0.1944972173
 40
0.2262121437
 40
0.258700224
 40
0.2918731203
 40
0.3256384257
 40
0.359902781
 40
0.394571005
 40
0.4295433514
 40
0.4647187213
 40
0.4999957312
 40
0.535272839
 40
0.5704483959
 40
0.6054208588
 40
0.64008897
 40
0.6743530284
 40
0.7081180137
 40
0.7412905806
 40
0.7737783395
 40
0.80549354
 40
0.8363616204
 40
0.8663122961
 40
0.8952775009
 40
0.9231914222
 40
0.949989729
 40
0.9756113704
 40
1.0
 40
1.0
 40
1.0
 40
1.0
 10
6.534564431
 20
6.4315476173
 30
0.0
 10
6.5350483845
 20
6.4304357906
 30
0.0
 10
6.5360880434
 20
6.4281763342
 30
0.0
 10
6.5378078686
 20
6.4247659722
 30
0.0
 10
6.5397205004
 20
6.4212589786
 30
0.0
 10
6.5418187379
 20
6.4176660513
 30
0.0
 10
6.5440954875
 20
6.4139977675
 30
0.0
 10
6.5465423445
 20
6.4102638231
 30
0.0
 10
6.5491509233
 20
6.4064737606
 30
0.0
 10
6.551912763
 20
6.4026372531
 30
0.0
 10
6.5548189003
 20
6.3987645618
 30
0.0
 10
6.5578594184
 20
6.394866363
 30
0.0
 10
6.561023997
 20
6.39095395
 30
0.0
 10
6.5643021864
 20
6.3870387711
 30
0.0
 10
6.5676833478
 20
6.3831324575
 30
0.0
 10
6.5711563468
 20
6.3792466118
 30
0.0
 10
6.5747099065
 20
6.3753930302
 30
0.0
 10
6.5783327135
 20
6.3715835408
 30
0.0
 10
6.5820134437
 20
6.3678299741
 30
0.0
 10
6.5857406606
 20
6.364144063
 30
0.0
 10
6.5895029253
 20
6.3605375435
 30
0.0
 10
6.5932888362
 20
6.357022111
 30
0.0
 10
6.5970871814
 20
6.353609289
 30
0.0
 10
6.600886712
 20
6.3503101033
 30
0.0
 10
6.6046763656
 20
6.3471353981
 30
0.0
 10
6.6084452485
 20
6.344095873
 30
0.0
 10
6.6121830636
 20
6.3412017733
 30
0.0
 10
6.6158798858
 20
6.3384623926
 30
0.0
 10
6.6195263393
 20
6.3358865514
 30
0.0
 10
6.6231131557
 20
6.3334830207
 30
0.0
 10
6.6266308832
 20
6.3312605386
 30
0.0
 10
6.6300691568
 20
6.3292265595
 30
0.0
 10
6.6334175265
 20
6.3273886786
 30
0.0
 10
6.6356393751
 20
6.3262707621
 30
0.0
 10
6.6367336499
 20
6.325748294
 30
0.0
 11
6.534564431
 21
6.4315476173
 31
0.0
 11
6.5360814806
 21
6.4282412769
 31
0.0
 11
6.537799288
 21
6.4248275258
 31
0.0
 11
6.5397105771
 21
6.4213170793
 31
0.0
 11
6.5418080717
 21
6.4177206527
 31
0.0
 11
6.5440843317
 21
6.4140487972
 31
0.0
 11
6.5465311502
 21
6.4103112971
 31
0.0
 11
6.5491400965
 21
6.4065177124
 31
0.0
 11
6.5519027401
 21
6.4026776036
 31
0.0
 11
6.5548102949
 21
6.398800857
 31
0.0
 11
6.5578526311
 21
6.3948985934
 31
0.0
 11
6.5610193012
 21
6.390982225
 31
0.0
 11
6.5642998578
 21
6.387063164
 31
0.0
 11
6.5676836916
 21
6.3831529005
 31
0.0
 11
6.5711596071
 21
6.3792632071
 31
0.0
 11
6.5747162766
 21
6.3754059198
 31
0.0
 11
6.5783423722
 21
6.3715928748
 31
0.0
 11
6.5820265442
 21
6.3678358931
 31
0.0
 11
6.585757362
 21
6.3641467395
 31
0.0
 11
6.5895233766
 21
6.3605371663
 31
0.0
 11
6.5933131391
 21
6.3570189256
 31
0.0
 11
6.5971152748
 21
6.3536036068
 31
0.0
 11
6.6009186861
 21
6.3503021945
 31
0.0
 11
6.6047123393
 21
6.3471255329
 31
0.0
 11
6.6084852011
 21
6.344084466
 31
0.0
 11
6.6122265742
 21
6.3411894444
 31
0.0
 11
6.6159269188
 21
6.3384495647
 31
0.0
 11
6.619576944
 21
6.3358736323
 31
0.0
 11
6.6231673586
 21
6.3334704527
 31
0.0
 11
6.6266886156
 21
6.3312485821
 31
0.0
 11
6.6301303941
 21
6.3292158241
 31
0.0
 11
6.6334822277
 21
6.3273798408
 31
0.0
 11
6.6367336499
 21
6.325748294
 31
0.0
  0
SPLINE
  5
293
100
AcDbEntity
  8
0
100
AcDbSpline
 62
6
  6
CONTINUOUS
 70
0
 71
3
 72
39
 73
35
 74
33
 42
0.0000001
 43
0.0000001
 44
0.0000000001
 12
0.0399175983
 22
-0.1437197499
 32
0.0
 13
0.1243503884
 23
-0.0823757371
 33
0.0
 40
0.0
 40
0.0
 40
0.0
 40
0.0
 40
0.0243877654
 40
0.0500073287
 40
0.076803184
 40
0.1047151393
 40
0.1336796162
 40
0.1636307444
 40
0.1945000939
 40
0.2262170281
 40
0.2587064417
 40
0.2918802738
 40
0.3256461962
 40
0.3599109236
 40
0.3945794778
 40
0.4295521295
 40
0.4647275752
 40
0.5000042258
 40
0.5352804143
 40
0.5704547019
 40
0.6054258407
 40
0.6400928673
 40
0.6743562564
 40
0.7081210425
 40
0.7412939865
 40
0.7737828067
 40
0.8054994715
 40
0.8363688011
 40
0.866320051
 40
0.8952846837
 40
0.9231967439
 40
0.9499926514
 40
0.9756122327
 40
1.0
 40
1.0
 40
1.0
 40
1.0
 10
6.6367336499
 20
6.325748294
 30
0.0
 10
6.6370581502
 20
6.3245799595
 30
0.0
 10
6.637773196
 20
6.3221978746
 30
0.0
 10
6.6390015819
 20
6.3185814666
 30
0.0
 10
6.6404074658
 20
6.3148425215
 30
0.0
 10
6.6419852624
 20
6.3109925517
 30
0.0
 10
6.6437294214
 20
6.3070429749
 30
0.0
 10
6.645632929
 20
6.3030045742
 30
0.0
 10
6.6476887859
 20
6.2988880544
 30
0.0
 10
6.6498899266
 20
6.2947042467
 30
0.0
 10
6.6522289122
 20
6.2904646027
 30
0.0
 10
6.6546974086
 20
6.2861810701
 30
0.0
 10
6.6572867642
 20
6.2818662427
 30
0.0
 10
6.6599882189
 20
6.2775328877
 30
0.0
 10
6.6627928649
 20
6.2731939917
 30
0.0
 10
6.6656912984
 20
6.2688625977
 30
0.0
 10
6.668673977
 20
6.2645519691
 30
0.0
 10
6.6717313254
 20
6.2602754129
 30
0.0
 10
6.6748537753
 20
6.2560462269
 30
0.0
 10
6.6780316477
 20
6.2518776078
 30
0.0
 10
6.6812552681
 20
6.2477827347
 30
0.0
 10
6.6845149923
 20
6.2437747419
 30
0.0
 10
6.6878013381
 20
6.2398665811
 30
0.0
 10
6.6911047219
 20
6.2360707318
 30
0.0
 10
6.6944157115
 20
6.2323994669
 30
0.0
 10
6.6977250089
 20
6.2288649029
 30
0.0
 10
6.7010238269
 20
6.2254786585
 30
0.0
 10
6.7043035686
 20
6.2222513529
 30
0.0
 10
6.7075561072
 20
6.2191930645
 30
0.0
 10
6.710773416
 20
6.2163137701
 30
0.0
 10
6.7139474003
 20
6.2136234797
 30
0.0
 10
6.7170689128
 20
6.2111310012
 30
0.0
 10
6.720128732
 20
6.208845203
 30
0.0
 10
6.7221732689
 20
6.2074290489
 30
0.0
 10
6.723184145
 20
6.2067593955
 30
0.0
 11
6.6367336499
 21
6.325748294
 31
0.0
 11
6.6377757437
 21
6.3222630689
 31
0.0
 11
6.6390016518
 21
6.3186436208
 31
0.0
 11
6.6404057149
 21
6.3149014784
 31
0.0
 11
6.6419822738
 21
6.3110481706
 31
0.0
 11
6.6437254525
 21
6.3070951033
 31
0.0
 11
6.6456284438
 21
6.3030531558
 31
0.0
 11
6.6476841909
 21
6.298933066
 31
0.0
 11
6.6498856368
 21
6.2947455719
 31
0.0
 11
6.6522254551
 21
6.2905017271
 31
0.0
 11
6.6546951822
 21
6.2862139187
 31
0.0
 11
6.6572860544
 21
6.2818948851
 31
0.0
 11
6.6599893081
 21
6.277557365
 31
0.0
 11
6.6627960516
 21
6.2732141872
 31
0.0
 11
6.6656968426
 21
6.2688785681
 31
0.0
 11
6.6686820906
 21
6.2645638285
 31
0.0
 11
6.6717422052
 21
6.2602832891
 31
0.0
 11
6.6748675827
 21
6.2560502512
 31
0.0
 11
6.6780485602
 21
6.2518779314
 31
0.0
 11
6.6812754592
 21
6.2477795232
 31
0.0
 11
6.6845386008
 21
6.2437682201
 31
0.0
 11
6.6878283524
 21
6.2398570623
 31
0.0
 11
6.691135266
 21
6.2360584724
 31
0.0
 11
6.6944499404
 21
6.2323847174
 31
0.0
 11
6.6977629744
 21
6.2288480642
 31
0.0
 11
6.7010652065
 21
6.2254603875
 31
0.0
 11
6.7043483812
 21
6.2222320794
 31
0.0
 11
6.7076044567
 21
6.2191731825
 31
0.0
 11
6.7108253913
 21
6.2162937391
 31
0.0
 11
6.7140029327
 21
6.2136035941
 31
0.0
 11
6.717128048
 21
6.21111186
 31
0.0
 11
6.7201915234
 21
6.2088274795
 31
0.0
 11
6.723184145
 21
6.2067593955
 31
0.0
  0
SPLINE
  5
294
100
AcDbEntity
  8
0
100
AcDbSpline
 62
6
  6
CONTINUOUS
 70
0
 71
3
 72
39
 73
35
 74
33
 42
0.0000001
 43
0.0000001
 44
0.0000000001
 12
0.019527199
 22
-0.1478765295
 32
0.0
 13
0.111675728
 23
-0.0988802876
 33
0.0
 40
0.0
 40
0.0
 40
0.0
 40
0.0
 40
0.0243882939
 40
0.0500090019
 40
0.0768058967
 40
0.1047180532
 40
0.1336813432
 40
0.1636303058
 40
0.1944972173
 40
0.2262121437
 40
0.258700224
 40
0.2918731203
 40
0.3256384257
 40
0.359902781
 40
0.394571005
 40
0.4295433514
 40
0.4647187213
 40
0.4999957312
 40
0.535272839
 40
0.5704483959
 40
0.6054208588
 40
0.64008897
 40
0.6743530284
 40
0.7081180137
 40
0.7412905806
 40
0.7737783395
 40
0.80549354
 40
0.8363616204
 40
0.8663122961
 40
0.8952775009
 40
0.9231914222
 40
0.949989729
 40
0.9756113704
 40
1.0
 40
1.0
 40
1.0
 40
1.0
 10
6.723184145
 20
6.2067593955
 30
0.0
 10
6.72334289
 20
6.2055572434
 30
0.0
 10
6.7237194837
 20
6.2030987457
 30
0.0
 10
6.7244326626
 20
6.1993464472
 30
0.0
 10
6.7253045439
 20
6.1954481159
 30
0.0
 10
6.7263311542
 20
6.1914160198
 30
0.0
 10
6.7275085904
 20
6.1872622819
 30
0.0
 10
6.7288314458
 20
6.182998539
 30
0.0
 10
6.7302942898
 20
6.1786362753
 30
0.0
 10
6.7318916557
 20
6.1741871214
 30
0.0
 10
6.7336177559
 20
6.1696634115
 30
0.0
 10
6.7354660001
 20
6.165078142
 30
0.0
 10
6.7374295812
 20
6.1604450132
 30
0.0
 10
6.7395016095
 20
6.1557779102
 30
0.0
 10
6.7416750645
 20
6.1510909462
 30
0.0
 10
6.7439424412
 20
6.1463983432
 30
0.0
 10
6.746296151
 20
6.1417145491
 30
0.0
 10
6.7487285791
 20
6.1370540519
 30
0.0
 10
6.7512321008
 20
6.1324313453
 30
0.0
 10
6.7537989569
 20
6.1278608599
 30
0.0
 10
6.7564213862
 20
6.1233570302
 30
0.0
 10
6.7590916529
 20
6.1189342411
 30
0.0
 10
6.7618021554
 20
6.1146066602
 30
0.0
 10
6.7645451198
 20
6.1103879868
 30
0.0
 10
6.7673129013
 20
6.1062916942
 30
0.0
 10
6.7700979774
 20
6.1023310702
 30
0.0
 10
6.7728932739
 20
6.0985188016
 30
0.0
 10
6.7756918118
 20
6.0948665575
 30
0.0
 10
6.7784870098
 20
6.0913854012
 30
0.0
 10
6.7812723762
 20
6.0880863186
 30
0.0
 10
6.7840412338
 20
6.0849803146
 30
0.0
 10
6.7867856739
 20
6.0820774118
 30
0.0
 10
6.7894977449
 20
6.0793877916
 30
0.0
 10
6.7913253833
 20
6.0777007568
 30
0.0
 10
6.7922332559
 20
6.0768969052
 30
0.0
 11
6.723184145
 21
6.2067593955
 31
0.0
 11
6.7237310758
 21
6.2031629815
 31
0.0
 11
6.7244413809
 21
6.1994079814
 31
0.0
 11
6.7253110197
 21
6.195506701
 31
0.0
 11
6.7263359514
 21
6.191471446
 31
0.0
 11
6.7275119324
 21
6.1873144097
 31
0.0
 11
6.7288337706
 21
6.1830472594
 31
0.0
 11
6.7302959972
 21
6.1786815087
 31
0.0
 11
6.7318931432
 21
6.1742286714
 31
0.0
 11
6.7336194881
 21
6.1697006727
 31
0.0
 11
6.7354683597
 21
6.1651109947
 31
0.0
 11
6.7374328609
 21
6.1604734872
 31
0.0
 11
6.7395060948
 21
6.155802
 31
0.0
 11
6.7416810299
 21
6.1511105025
 31
0.0
 11
6.7439501495
 21
6.146413397
 31
0.0
 11
6.7463058272
 21
6.1417251836
 31
0.0
 11
6.7487404364
 21
6.1370603621
 31
0.0
 11
6.7512463252
 21
6.132433424
 31
0.0
 11
6.753815749
 21
6.1278588292
 31
0.0
 11
6.7564409413
 21
6.1233510304
 31
0.0
 11
6.7591141363
 21
6.1189244803
 31
0.0
 11
6.7618275943
 21
6.1145934545
 31
0.0
 11
6.7645736753
 21
6.1103715712
 31
0.0
 11
6.7673447623
 21
6.1062722955
 31
0.0
 11
6.7701332381
 21
6.1023090927
 31
0.0
 11
6.7729317006
 21
6.0984949571
 31
0.0
 11
6.775733487
 21
6.0948412625
 31
0.0
 11
6.7785320932
 21
6.0913590341
 31
0.0
 11
6.7813210152
 21
6.0880592972
 31
0.0
 11
6.7840934341
 21
6.0849529081
 31
0.0
 11
6.7868415799
 21
6.082050213
 31
0.0
 11
6.7895575036
 21
6.079361462
 31
0.0
 11
6.7922332559
 21
6.0768969052
 31
0.0
  0
LINE
  5
295
100
AcDbEntity
  8
0
100
AcDbLine
 62
6
  6
CONTINUOUS
 10
5.5741079513
 20
4.6251916972
 11
5.5481692349
 21
4.521157188
  0
SPLINE
  5
296
100
AcDbEntity
  8
0
100
AcDbSpline
 62
6
  6
CONTINUOUS
 70
0
 71
3
 72
39
 73
35
 74
33
 42
0.0000001
 43
0.0000001
 44
0.0000000001
 12
-0.0012432735
 22
-0.1491550661
 32
0.0
 13
0.0968274312
 23
-0.1134602488
 33
0.0
 40
0.0
 40
0.0
 40
0.0
 40
0.0
 40
0.0243882939
 40
0.0500090019
 40
0.0768058967
 40
0.1047180532
 40
0.1336813432
 40
0.1636303058
 40
0.1944972173
 40
0.2262121437
 40
0.258700224
 40
0.2918731203
 40
0.3256384257
 40
0.359902781
 40
0.394571005
 40
0.4295433514
 40
0.4647187213
 40
0.4999957312
 40
0.535272839
 40
0.5704483959
 40
0.6054208588
 40
0.64008897
 40
0.6743530284
 40
0.7081180137
 40
0.7412905806
 40
0.7737783395
 40
0.80549354
 40
0.8363616204
 40
0.8663122961
 40
0.8952775009
 40
0.9231914222
 40
0.949989729
 40
0.9756113704
 40
1.0
 40
1.0
 40
1.0
 40
1.0
 10
6.7922332559
 20
6.0768969052
 30
0.0
 10
6.7922231488
 20
6.0756843593
 30
0.0
 10
6.7922539207
 20
6.0731973758
 30
0.0
 10
6.79243794
 20
6.0693823392
 30
0.0
 10
6.7927587933
 20
6.0654006037
 30
0.0
 10
6.7932142535
 20
6.0612648712
 30
0.0
 10
6.7938021423
 20
6.0569876897
 30
0.0
 10
6.7945187254
 20
6.0525813354
 30
0.0
 10
6.7953602235
 20
6.0480579364
 30
0.0
 10
6.7963228413
 20
6.0434297709
 30
0.0
 10
6.7974025645
 20
6.0387098589
 30
0.0
 10
6.7985946756
 20
6.033911987
 30
0.0
 10
6.7998943403
 20
6.0290506698
 30
0.0
 10
6.8012966686
 20
6.0241406161
 30
0.0
 10
6.8027966724
 20
6.0191967789
 30
0.0
 10
6.8043888989
 20
6.0142342861
 30
0.0
 10
6.8060678445
 20
6.0092685012
 30
0.0
 10
6.8078279845
 20
6.0043148312
 30
0.0
 10
6.8096637857
 20
5.9993886896
 30
0.0
 10
6.8115695727
 20
5.9945054465
 30
0.0
 10
6.8135396688
 20
5.9896804761
 30
0.0
 10
6.8155684153
 20
5.9849290999
 30
0.0
 10
6.8176502566
 20
5.9802664057
 30
0.0
 10
6.8197794007
 20
5.9757070413
 30
0.0
 10
6.8219501527
 20
5.9712654129
 30
0.0
 10
6.8241569122
 20
5.9669557257
 30
0.0
 10
6.8263944399
 20
5.9627915277
 30
0.0
 10
6.8286574484
 20
5.9587853458
 30
0.0
 10
6.8309409605
 20
5.9549490516
 30
0.0
 10
6.8332400763
 20
5.9512944273
 30
0.0
 10
6.8355497154
 20
5.9478333002
 30
0.0
 10
6.8378634408
 20
5.9445766961
 30
0.0
 10
6.8401747953
 20
5.9415358036
 30
0.0
 10
6.8417498574
 20
5.9396108289
 30
0.0
 10
6.8425370201
 20
5.9386884489
 30
0.0
 11
6.7922332559
 21
6.0768969052
 31
0.0
 11
6.7922743399
 21
6.0732593732
 31
0.0
 11
6.7924551374
 21
6.0694420612
 31
0.0
 11
6.7927733596
 21
6.0654577174
 31
0.0
 11
6.7932267178
 21
6.0613190904
 31
0.0
 11
6.7938127066
 21
6.0570388451
 31
0.0
 11
6.7945278083
 21
6.0526292581
 31
0.0
 11
6.7953682095
 21
6.048102492
 31
0.0
 11
6.796330097
 21
6.0434707096
 31
0.0
 11
6.7974094656
 21
6.0387465163
 31
0.0
 11
6.7986015844
 21
6.0339441916
 31
0.0
 11
6.7999015509
 21
6.0290784102
 31
0.0
 11
6.8013044628
 21
6.0241638472
 31
0.0
 11
6.8028053014
 21
6.0192153146
 31
0.0
 11
6.8043986273
 21
6.0142481206
 31
0.0
 11
6.8060789065
 21
6.0092776856
 31
0.0
 11
6.8078406046
 21
6.0043194297
 31
0.0
 11
6.809678161
 21
5.9993887683
 31
0.0
 11
6.8115859187
 21
5.9945010985
 31
0.0
 11
6.8135581986
 21
5.9896718132
 31
0.0
 11
6.8155893214
 21
5.9849163051
 31
0.0
 11
6.81767361
 21
5.9802497882
 31
0.0
 11
6.8198053937
 21
5.9756868113
 31
0.0
 11
6.8219790038
 21
5.9712417687
 31
0.0
 11
6.8241887711
 21
5.9669290547
 31
0.0
 11
6.8264291741
 21
5.9627625673
 31
0.0
 11
6.8286951977
 21
5.9587544969
 31
0.0
 11
6.8309819356
 21
5.9549166666
 31
0.0
 11
6.8332844813
 21
5.9512608996
 31
0.0
 11
6.8355975934
 21
5.9477988955
 31
0.0
 11
6.8379150174
 21
5.9445419813
 31
0.0
 11
6.840230308
 21
5.9415014135
 31
0.0
 11
6.8425370201
 21
5.9386884489
 31
0.0
  0
SPLINE
  5
297
100
AcDbEntity
  8
0
100
AcDbSpline
 62
6
  6
CONTINUOUS
 70
0
 71
3
 72
28
 73
24
 74
22
 42
0.0000001
 43
0.0000001
 44
0.0000000001
 12
-0.0154529566
 22
-0.1036757111
 32
0.0
 13
0.0313128219
 23
-0.1000347646
 33
0.0
 40
0.0
 40
0.0
 40
0.0
 40
0.0
 40
0.0234926935
 40
0.047813393
 40
0.0729378697
 40
0.0988401692
 40
0.1254929145
 40
0.1528675516
 40
0.1809347786
 40
0.2096651346
 40
0.2390284177
 40
0.2689936537
 40
0.3306013545
 40
0.3942140565
 40
0.4595067034
 40
0.5261422709
 40
0.593773453
 40
0.6620368468
 40
0.7305657233
 40
0.7989925064
 40
0.8669495184
 40
0.9340704461
 40
1.0
 40
1.0
 40
1.0
 40
1.0
 10
6.8425370201
 20
5.9386884489
 30
0.0
 10
6.8424160096
 20
5.937876575
 30
0.0
 10
6.8421929332
 20
5.9362206832
 30
0.0
 10
6.8419169565
 20
5.9336869576
 30
0.0
 10
6.8416935594
 20
5.9310635552
 30
0.0
 10
6.8415225976
 20
5.9283545937
 30
0.0
 10
6.84140392
 20
5.9255641616
 30
0.0
 10
6.8413373848
 20
5.9226963514
 30
0.0
 10
6.8413228167
 20
5.9197552277
 30
0.0
 10
6.8413595419
 20
5.9167448237
 30
0.0
 10
6.8414469052
 20
5.9136691257
 30
0.0
 10
6.8416317635
 20
5.9094474807
 30
0.0
 10
6.8419886432
 20
5.9040362133
 30
0.0
 10
6.8426037916
 20
5.8974074053
 30
0.0
 10
6.8434027087
 20
5.8906213498
 30
0.0
 10
6.8443784126
 20
5.8837166818
 30
0.0
 10
6.8455234505
 20
5.8767328996
 30
0.0
 10
6.8468293757
 20
5.8697101352
 30
0.0
 10
6.8482878085
 20
5.8626890642
 30
0.0
 10
6.8498901808
 20
5.8557104219
 30
0.0
 10
6.8516275917
 20
5.8488148583
 30
0.0
 10
6.8534913211
 20
5.8420428239
 30
0.0
 10
6.8548263576
 20
5.8375892906
 30
0.0
 10
6.8555145044
 20
5.8353908748
 30
0.0
 11
6.8425370201
 21
5.9386884489
 31
0.0
 11
6.8422069753
 21
5.9362481383
 31
0.0
 11
6.8419297932
 21
5.9337139312
 31
0.0
 11
6.8417053172
 21
5.9310899421
 31
0.0
 11
6.8415333909
 21
5.9283802854
 31
0.0
 11
6.8414138578
 21
5.9255890756
 31
0.0
 11
6.8413465614
 21
5.9227204274
 31
0.0
 11
6.8413312438
 21
5.9197784318
 31
0.0
 11
6.8413673122
 21
5.9167671025
 31
0.0
 11
6.8414541042
 21
5.9136904371
 31
0.0
 11
6.8415909574
 21
5.9105524332
 31
0.0
 11
6.8420121972
 21
5.9041084043
 31
0.0
 11
6.8426252629
 21
5.8974686988
 31
0.0
 11
6.8434231899
 21
5.8906713299
 31
0.0
 11
6.8443988232
 21
5.8837549951
 31
0.0
 11
6.8455446038
 21
5.8767590309
 31
0.0
 11
6.8468521516
 21
5.8697240737
 31
0.0
 11
6.8483129852
 21
5.8626909173
 31
0.0
 11
6.8499184926
 21
5.8557003493
 31
0.0
 11
6.8516598411
 21
5.848793147
 31
0.0
 11
6.8535281735
 21
5.842010066
 31
0.0
 11
6.8555145044
 21
5.8353908748
 31
0.0
  0
LINE
  5
298
100
AcDbEntity
  8
0
100
AcDbLine
 62
6
  6
CONTINUOUS
 10
5.7189518676
 20
4.5996518068
 11
5.7077443903
 21
4.4930197827
  0
SPLINE
  5
299
100
AcDbEntity
  8
0
100
AcDbSpline
 62
6
  6
CONTINUOUS
 70
0
 71
3
 72
23
 73
19
 74
17
 42
0.0000001
 43
0.0000001
 44
0.0000000001
 12
0.0
 22
0.0745801246
 32
0.0
 13
-0.0260911663
 23
0.0698673459
 33
0.0
 40
0.0
 40
0.0
 40
0.0
 40
0.0
 40
0.0704643271
 40
0.140810774
 40
0.2107969387
 40
0.2801810138
 40
0.3487329979
 40
0.4162653876
 40
0.4826019526
 40
0.5475683363
 40
0.6109962694
 40
0.672734703
 40
0.7326395807
 40
0.7905712838
 40
0.8463960108
 40
0.8999870563
 40
0.9512250579
 40
1.0
 40
1.0
 40
1.0
 40
1.0
 10
4.787646161
 20
5.6481040052
 30
0.0
 10
4.787646161
 20
5.6498557513
 30
0.0
 10
4.7876192844
 20
5.6533563723
 30
0.0
 10
4.7874985914
 20
5.6585956005
 30
0.0
 10
4.7872975821
 20
5.663805506
 30
0.0
 10
4.787016326
 20
5.6689670272
 30
0.0
 10
4.7866547706
 20
5.674062407
 30
0.0
 10
4.786213385
 20
5.6790754578
 30
0.0
 10
4.7856926036
 20
5.6839912754
 30
0.0
 10
4.785092835
 20
5.688795296
 30
0.0
 10
4.7844144116
 20
5.693473396
 30
0.0
 10
4.7836580147
 20
5.6980120438
 30
0.0
 10
4.7828242899
 20
5.7023981643
 30
0.0
 10
4.7819138692
 20
5.7066187934
 30
0.0
 10
4.7809273868
 20
5.7106609666
 30
0.0
 10
4.7798670726
 20
5.7145121692
 30
0.0
 10
4.7787351801
 20
5.718159868
 30
0.0
 10
4.7779135111
 20
5.7205072635
 30
0.0
 10
4.7774893128
 20
5.7216431888
 30
0.0
 11
4.787646161
 21
5.6481040052
 31
0.0
 11
4.7876058031
 21
5.6533590885
 31
0.0
 11
4.7874847761
 21
5.6586041392
 31
0.0
 11
4.7872831505
 21
5.6638198203
 31
0.0
 11
4.7870009968
 21
5.6689867952
 31
0.0
 11
4.7866384427
 21
5.6740865395
 31
0.0
 11
4.7861958344
 21
5.6791036279
 31
0.0
 11
4.7856735705
 21
5.684023374
 31
0.0
 11
4.7850720493
 21
5.6888310912
 31
0.0
 11
4.7843917047
 21
5.6935123744
 31
0.0
 11
4.783633108
 21
5.6980539142
 31
0.0
 11
4.7827968644
 21
5.7024426678
 31
0.0
 11
4.7818835788
 21
5.7066655925
 31
0.0
 11
4.7808941345
 21
5.7107097272
 31
0.0
 11
4.7798304768
 21
5.714562422
 31
0.0
 11
4.7786948036
 21
5.7182111011
 31
0.0
 11
4.7774893128
 21
5.7216431888
 31
0.0
  0
SPLINE
  5
29A
100
AcDbEntity
  8
0
100
AcDbSpline
 62
6
  6
CONTINUOUS
 70
0
 71
3
 72
65
 73
61
 74
59
 42
0.0000001
 43
0.0000001
 44
0.0000000001
 12
-0.2000594845
 22
0.2136747114
 32
0.0
 13
-0.1379395381
 23
-0.2581731269
 33
0.0
 40
0.0
 40
0.0
 40
0.0
 40
0.0
 40
0.0304530782
 40
0.0606587557
 40
0.0756808185
 40
0.0906532551
 40
0.105579629
 40
0.1204655052
 40
0.1501531303
 40
0.1649787411
 40
0.1798056116
 40
0.1946445954
 40
0.2095077982
 40
0.2244101931
 40
0.2393676988
 40
0.2543968367
 40
0.2695146846
 40
0.2847389715
 40
0.3000890676
 40
0.3155857097
 40
0.3312505669
 40
0.3471061637
 40
0.363174138
 40
0.379469473
 40
0.3960067379
 40
0.4128024662
 40
0.4298719256
 40
0.4471887301
 40
0.4646968571
 40
0.4735058354
 40
0.4823423358
 40
0.4911999047
 40
0.5000709574
 40
0.5089458785
 40
0.5178147418
 40
0.5354933253
 40
0.5442833524
 40
0.5530266231
 40
0.5617128258
 40
0.5703342295
 40
0.5873821175
 40
0.6041764683
 40
0.6207217969
 40
0.6370204113
 40
0.653081182
 40
0.6689277187
 40
0.6845843061
 40
0.700074068
 40
0.7154185946
 40
0.7306375549
 40
0.7457498215
 40
0.7607736376
 40
0.7906210268
 40
0.8203089109
 40
0.8499483859
 40
0.8796236222
 40
0.9094085149
 40
0.939366101
 40
0.9695521371
 40
1.0
 40
1.0
 40
1.0
 40
1.0
 10
5.8291486342
 20
6.6027086598
 30
0.0
 10
5.8271178251
 20
6.6048776774
 30
0.0
 10
5.8229539483
 20
6.609088543
 30
0.0
 10
5.817481139
 20
6.6140514856
 30
0.0
 10
5.8129732192
 20
6.6178180652
 30
0.0
 10
5.8095351175
 20
6.6205373608
 30
0.0
 10
5.8060362104
 20
6.6231558639
 30
0.0
 10
5.8012966884
 20
6.6265093973
 30
0.0
 10
5.7964315134
 20
6.6296651465
 30
0.0
 10
5.7914488966
 20
6.6326151222
 30
0.0
 10
5.7876539254
 20
6.6347241724
 30
0.0
 10
5.7837994889
 20
6.6367303378
 30
0.0
 10
5.7798847774
 20
6.638633162
 30
0.0
 10
5.7759078022
 20
6.6404304792
 30
0.0
 10
5.7718664782
 20
6.642120482
 30
0.0
 10
5.7677586679
 20
6.6437013243
 30
0.0
 10
5.7635822173
 20
6.6451711324
 30
0.0
 10
5.7593348979
 20
6.6465282598
 30
0.0
 10
5.755013726
 20
6.6477693115
 30
0.0
 10
5.7506155354
 20
6.6488905794
 30
0.0
 10
5.7461371539
 20
6.6498884713
 30
0.0
 10
5.7415755642
 20
6.6507592979
 30
0.0
 10
5.7369286216
 20
6.6514994339
 30
0.0
 10
5.7321946123
 20
6.6521010584
 30
0.0
 10
5.7273728748
 20
6.6525559016
 30
0.0
 10
5.7224632969
 20
6.6528557323
 30
0.0
 10
5.7174703246
 20
6.6529920814
 30
0.0
 10
5.7124060964
 20
6.652958192
 30
0.0
 10
5.7081513626
 20
6.6527827369
 30
0.0
 10
5.7047291149
 20
6.6525504914
 30
0.0
 10
5.7021525493
 20
6.6523289223
 30
0.0
 10
5.6995744777
 20
6.6520593196
 30
0.0
 10
5.6969981326
 20
6.6517414948
 30
0.0
 10
5.6944268723
 20
6.6513768949
 30
0.0
 10
5.6910139924
 20
6.650830585
 30
0.0
 10
5.6876241743
 20
6.6501957258
 30
0.0
 10
5.684264801
 20
6.6494751604
 30
0.0
 10
5.6817730206
 20
6.6488951415
 30
0.0
 10
5.6793077068
 20
6.6482757128
 30
0.0
 10
5.6760713693
 20
6.6474018629
 30
0.0
 10
5.6720998903
 20
6.6462182507
 30
0.0
 10
5.6674376995
 20
6.644655136
 30
0.0
 10
5.6628981154
 20
6.6429646976
 30
0.0
 10
5.6584812774
 20
6.641156944
 30
0.0
 10
5.6541854342
 20
6.6392397176
 30
0.0
 10
5.6500077459
 20
6.6372170203
 30
0.0
 10
5.6459436063
 20
6.6350926904
 30
0.0
 10
5.6419883068
 20
6.6328704301
 30
0.0
 10
5.6381372528
 20
6.6305538751
 30
0.0
 10
5.6343873204
 20
6.6281444821
 30
0.0
 10
5.6307354394
 20
6.625643855
 30
0.0
 10
5.6260038163
 20
6.6221981445
 30
0.0
 10
5.6203086235
 20
6.6176649614
 30
0.0
 10
5.6138131014
 20
6.6118694214
 30
0.0
 10
5.6076552941
 20
6.6057400731
 30
0.0
 10
5.6018323651
 20
6.5992791169
 30
0.0
 10
5.5963444655
 20
6.5924913552
 30
0.0
 10
5.5911999765
 20
6.5853780241
 30
0.0
 10
5.5864100648
 20
6.5779444319
 30
0.0
 10
5.583478757
 20
6.5728015683
 30
0.0
 10
5.582078769
 20
6.570181295
 30
0.0
 11
5.8291486342
 21
6.6027086598
 31
0.0
 11
5.8228808553
 21
6.6090469839
 31
0.0
 11
5.816331345
 21
6.6149864709
 31
0.0
 11
5.8129570542
 21
6.6178058799
 31
0.0
 11
5.8095196671
 21
6.620524655
 31
0.0
 11
5.8060216221
 21
6.6231424878
 31
0.0
 11
5.8024645484
 21
6.6256590628
 31
0.0
 11
5.7951734184
 21
6.63038712
 31
0.0
 11
5.7914391474
 21
6.6325979401
 31
0.0
 11
5.7876455962
 21
6.6347061798
 31
0.0
 11
5.7837926539
 21
6.6367115055
 31
0.0
 11
5.7798796106
 21
6.6386131421
 31
0.0
 11
5.775904486
 21
6.6404093791
 31
0.0
 11
5.771865138
 21
6.6420983868
 31
0.0
 11
5.7677594243
 21
6.6436783353
 31
0.0
 11
5.7635852027
 21
6.6451473948
 31
0.0
 11
5.7593402341
 21
6.646503572
 31
0.0
 11
5.7550216088
 21
6.6477437427
 31
0.0
 11
5.750626133
 21
6.6488643044
 31
0.0
 11
5.7461506123
 21
6.6498616526
 31
0.0
 11
5.741591852
 21
6.6507321831
 31
0.0
 11
5.736947046
 21
6.6514716406
 31
0.0
 11
5.732215218
 21
6.6520727028
 31
0.0
 11
5.7273959306
 21
6.652527145
 31
0.0
 11
5.722488746
 21
6.6528267422
 31
0.0
 11
5.7174941667
 21
6.652963316
 31
0.0
 11
5.7124254335
 21
6.6529293154
 31
0.0
 11
5.707304957
 21
6.6527176415
 31
0.0
 11
5.7047323815
 21
6.6525429618
 31
0.0
 11
5.7021553498
 21
6.6523212053
 31
0.0
 11
5.6995766937
 21
6.6520514997
 31
0.0
 11
5.6969995367
 21
6.6517337699
 31
0.0
 11
5.6944274495
 21
6.6513691608
 31
0.0
 11
5.6918640405
 21
6.6509589208
 31
0.0
 11
5.6867776908
 21
6.6500065408
 31
0.0
 11
5.684261967
 21
6.6494668974
 31
0.0
 11
5.681769355
 21
6.6488866159
 31
0.0
 11
5.6793034627
 21
6.6482669447
 31
0.0
 11
5.6768671105
 21
6.6476091353
 31
0.0
 11
5.6720847654
 21
6.6461841468
 31
0.0
 11
5.6674237387
 21
6.6446217495
 31
0.0
 11
5.6628850383
 21
6.642932044
 31
0.0
 11
5.6584696537
 21
6.6411251107
 31
0.0
 11
5.6541767009
 21
6.6392089306
 31
0.0
 11
5.6500018153
 21
6.6371875845
 31
0.0
 11
5.6459402539
 21
6.6350647292
 31
0.0
 11
5.6419872735
 21
6.632844021
 31
0.0
 11
5.638138484
 21
6.630528698
 31
0.0
 11
5.6343906364
 21
6.628120645
 31
0.0
 11
5.6307407121
 21
6.6256214736
 31
0.0
 11
5.6271856925
 21
6.6230327954
 31
0.0
 11
5.6203494797
 21
6.6175925515
 31
0.0
 11
5.6138638525
 21
6.6118086894
 31
0.0
 11
5.6077145499
 21
6.6056885241
 31
0.0
 11
5.6018984657
 21
6.5992367604
 31
0.0
 11
5.5964169464
 21
6.5924571077
 31
0.0
 11
5.591277697
 21
6.5853519801
 31
0.0
 11
5.5864919754
 21
6.577924408
 31
0.0
 11
5.582078769
 21
6.570181295
 31
0.0
  0
SPLINE
  5
29B
100
AcDbEntity
  8
0
100
AcDbSpline
 62
6
  6
CONTINUOUS
 70
0
 71
3
 72
67
 73
63
 74
61
 42
0.0000001
 43
0.0000001
 44
0.0000000001
 12
-0.2485471637
 22
0.1546156232
 32
0.0
 13
-0.0664196293
 23
-0.2850791405
 33
0.0
 40
0.0
 40
0.0
 40
0.0
 40
0.0
 40
0.0304528503
 40
0.0606582306
 40
0.0756801464
 40
0.0906524495
 40
0.1055787144
 40
0.1204645632
 40
0.1501523773
 40
0.1649781708
 40
0.1798052629
 40
0.1946444925
 40
0.2095078654
 40
0.2244103284
 40
0.2393678292
 40
0.2543969229
 40
0.2695147253
 40
0.2847389761
 40
0.3000889891
 40
0.3155854941
 40
0.3312501662
 40
0.3471055481
 40
0.3631734992
 40
0.3794690225
 40
0.3960062927
 40
0.4128014584
 40
0.4298699487
 40
0.4471869447
 40
0.4646957921
 40
0.4735050469
 40
0.482341614
 40
0.4911989327
 40
0.5000695277
 40
0.5089439058
 40
0.5178122169
 40
0.5354899582
 40
0.5442798334
 40
0.5530232179
 40
0.5617098591
 40
0.5703316799
 40
0.5873796689
 40
0.604173537
 40
0.6207182782
 40
0.6370166594
 40
0.6530773849
 40
0.6689238759
 40
0.6845803982
 40
0.7000700646
 40
0.7154144809
 40
0.7306333312
 40
0.7457454896
 40
0.7607692025
 40
0.7757218537
 40
0.7906194307
 40
0.8054772185
 40
0.8203099886
 40
0.8499492796
 40
0.8796243476
 40
0.9094090637
 40
0.93936646
 40
0.9695523048
 40
1.0
 40
1.0
 40
1.0
 40
1.0
 10
5.582078769
 20
6.570181295
 30
0.0
 10
5.5795557791
 20
6.5717507905
 30
0.0
 10
5.57444394
 20
6.5747404672
 30
0.0
 10
5.5678731212
 20
6.5781178105
 30
0.0
 10
5.5625439635
 20
6.5805893044
 30
0.0
 10
5.5585192232
 20
6.5823261024
 30
0.0
 10
5.5544618327
 20
6.583949828
 30
0.0
 10
5.5490158269
 20
6.5859624704
 30
0.0
 10
5.5434996056
 20
6.587751542
 30
0.0
 10
5.5379231674
 20
6.5893114229
 30
0.0
 10
5.5337115515
 20
6.5903663949
 30
0.0
 10
5.5294691162
 20
6.591306547
 30
0.0
 10
5.5251952285
 20
6.5921313013
 30
0.0
 10
5.5208885359
 20
6.5928380545
 30
0.0
 10
5.5165474841
 20
6.5934245008
 30
0.0
 10
5.5121704748
 20
6.5938882939
 30
0.0
 10
5.5077559026
 20
6.5942270444
 30
0.0
 10
5.5033020452
 20
6.5944386021
 30
0.0
 10
5.4988069056
 20
6.5945189989
 30
0.0
 10
5.4942683867
 20
6.5944637647
 30
0.0
 10
5.489684353
 20
6.5942685848
 30
0.0
 10
5.4850528271
 20
6.5939290485
 30
0.0
 10
5.4803726518
 20
6.5934411503
 30
0.0
 10
5.4756441937
 20
6.5927970257
 30
0.0
 10
5.4708690322
 20
6.5919884515
 30
0.0
 10
5.4660492513
 20
6.5910074379
 30
0.0
 10
5.4611912274
 20
6.5898468494
 30
0.0
 10
5.4563083417
 20
6.5885032608
 30
0.0
 10
5.4522438803
 20
6.587232479
 30
0.0
 10
5.448998227
 20
6.5861223887
 30
0.0
 10
5.4465667596
 20
6.5852415527
 30
0.0
 10
5.4441463079
 20
6.5843140255
 30
0.0
 10
5.4417400813
 20
6.5833403274
 30
0.0
 10
5.4393509228
 20
6.5823227185
 30
0.0
 10
5.4361959045
 20
6.5809117263
 30
0.0
 10
5.4330860721
 20
6.5794211032
 30
0.0
 10
5.4300277683
 20
6.5778555591
 30
0.0
 10
5.4277709917
 20
6.5766503096
 30
0.0
 10
5.4255499067
 20
6.5754138628
 30
0.0
 10
5.4226498965
 20
6.57373214
 30
0.0
 10
5.4191200337
 20
6.5715609924
 30
0.0
 10
5.4150212984
 20
6.5688445472
 30
0.0
 10
5.4110739916
 20
6.5660368391
 30
0.0
 10
5.407275615
 20
6.563147509
 30
0.0
 10
5.4036223771
 20
6.5601837555
 30
0.0
 10
5.4001105328
 20
6.5571487196
 30
0.0
 10
5.3967346714
 20
6.5540449107
 30
0.0
 10
5.3934893117
 20
6.5508746607
 30
0.0
 10
5.3903690633
 20
6.5476403086
 30
0.0
 10
5.3873705052
 20
6.5443424559
 30
0.0
 10
5.3844902854
 20
6.5409818903
 30
0.0
 10
5.3817250963
 20
6.5375594092
 30
0.0
 10
5.3790716455
 20
6.5340758883
 30
0.0
 10
5.3765275382
 20
6.5305316639
 30
0.0
 10
5.3740904528
 20
6.5269271033
 30
0.0
 10
5.3709818091
 20
6.522042987
 30
0.0
 10
5.3673479926
 20
6.5157826502
 30
0.0
 10
5.3633957559
 20
6.5080348441
 30
0.0
 10
5.3598516397
 20
6.5000579747
 30
0.0
 10
5.3567235133
 20
6.4918555427
 30
0.0
 10
5.3540207703
 20
6.4834355229
 30
0.0
 10
5.352520415
 20
6.477709221
 30
0.0
 10
5.3518463068
 20
6.4748158867
 30
0.0
 11
5.582078769
 21
6.570181295
 31
0.0
 11
5.5743840878
 21
6.5746814091
 31
0.0
 11
5.5665205197
 21
6.5787233475
 31
0.0
 11
5.5625315051
 21
6.5805733517
 31
0.0
 11
5.5585075911
 21
6.5823098329
 31
0.0
 11
5.5544512109
 21
6.5839331295
 31
0.0
 11
5.550363999
 21
6.5854433529
 31
0.0
 11
5.5420975084
 21
6.5881232936
 31
0.0
 11
5.5379182001
 21
6.5892922982
 31
0.0
 11
5.5337081635
 21
6.5903468508
 31
0.0
 11
5.5294673823
 21
6.5912865931
 31
0.0
 11
5.5251954105
 21
6.5921106331
 31
0.0
 11
5.520890787
 21
6.5928168176
 31
0.0
 11
5.5165519044
 21
6.5934028116
 31
0.0
 11
5.512177155
 21
6.5938662797
 31
0.0
 11
5.5077649312
 21
6.5942048868
 31
0.0
 11
5.5033135852
 21
6.5944161491
 31
0.0
 11
5.498821132
 21
6.5944963423
 31
0.0
 11
5.4942854189
 21
6.5944411244
 31
0.0
 11
5.489704292
 21
6.5942461492
 31
0.0
 11
5.4850755975
 21
6.5939070704
 31
0.0
 11
5.4803976607
 21
6.5934190924
 31
0.0
 11
5.4756714179
 21
6.592774971
 31
0.0
 11
5.4708986904
 21
6.5919666324
 31
0.0
 11
5.4660813004
 21
6.5909860017
 31
0.0
 11
5.4612218162
 21
6.5898252492
 31
0.0
 11
5.4563345414
 21
6.5884803973
 31
0.0
 11
5.4514431135
 21
6.586950532
 31
0.0
 11
5.4490033096
 21
6.5861159603
 31
0.0
 11
5.4465714283
 21
6.5852348244
 31
0.0
 11
5.4441504571
 21
6.5843070281
 31
0.0
 11
5.4417434331
 21
6.5833332164
 31
0.0
 11
5.4393534841
 21
6.5823153905
 31
0.0
 11
5.4369837479
 21
6.581255696
 31
0.0
 11
5.4323174637
 21
6.5790192847
 31
0.0
 11
5.430027191
 21
6.5778468593
 31
0.0
 11
5.4277696814
 21
6.5766411486
 31
0.0
 11
5.4255480723
 21
6.5754042982
 31
0.0
 11
5.4233648599
 21
6.574138281
 31
0.0
 11
5.4191142038
 21
6.5715241029
 31
0.0
 11
5.4150164486
 21
6.5688086746
 31
0.0
 11
5.4110698454
 21
6.5660019258
 31
0.0
 11
5.4072726367
 21
6.5631137689
 31
0.0
 11
5.403621906
 21
6.560151761
 31
0.0
 11
5.4001124204
 21
6.5571187513
 31
0.0
 11
5.3967386711
 21
6.5540170287
 31
0.0
 11
5.3934951494
 21
6.5508488821
 31
0.0
 11
5.3903767664
 21
6.547616308
 31
0.0
 11
5.3873798803
 21
6.5443202952
 31
0.0
 11
5.3845011613
 21
6.5409616153
 31
0.0
 11
5.3817372793
 21
6.5375410399
 31
0.0
 11
5.3790850639
 21
6.534059285
 31
0.0
 11
5.3765420355
 21
6.5305168267
 31
0.0
 11
5.3741059019
 21
6.5269140756
 31
0.0
 11
5.3717743706
 21
6.5232514426
 31
0.0
 11
5.3674186219
 21
6.5157482602
 31
0.0
 11
5.3634705537
 21
6.5080110206
 31
0.0
 11
5.359930517
 21
6.5000436576
 31
0.0
 11
5.356805326
 21
6.4918505001
 31
0.0
 11
5.3541050728
 21
6.4834373843
 31
0.0
 11
5.3518463068
 21
6.4748158867
 31
0.0
  0
LINE
  5
29C
100
AcDbEntity
  8
0
100
AcDbLine
 62
6
  6
CONTINUOUS
 10
5.8659406386
 20
4.5945188458
 11
5.8696825412
 21
4.4873647778
  0
SPLINE
  5
29D
100
AcDbEntity
  8
0
100
AcDbSpline
 62
6
  6
CONTINUOUS
 70
0
 71
3
 72
65
 73
61
 74
59
 42
0.0000001
 43
0.0000001
 44
0.0000000001
 12
-0.2800939516
 22
0.085017986
 32
0.0
 13
0.0096274192
 23
-0.2925542556
 33
0.0
 40
0.0
 40
0.0
 40
0.0
 40
0.0
 40
0.0304530782
 40
0.0606587557
 40
0.0756808185
 40
0.0906532551
 40
0.105579629
 40
0.1204655052
 40
0.1501531303
 40
0.1649787411
 40
0.1798056116
 40
0.1946445954
 40
0.2095077982
 40
0.2244101931
 40
0.2393676988
 40
0.2543968367
 40
0.2695146846
 40
0.2847389715
 40
0.3000890676
 40
0.3155857097
 40
0.3312505669
 40
0.3471061637
 40
0.363174138
 40
0.379469473
 40
0.3960067379
 40
0.4128024662
 40
0.4298719256
 40
0.4471887301
 40
0.4646968571
 40
0.4735058354
 40
0.4823423358
 40
0.4911999047
 40
0.5000709574
 40
0.5089458785
 40
0.5178147418
 40
0.5354933253
 40
0.5442833524
 40
0.5530266231
 40
0.5617128258
 40
0.5703342295
 40
0.5873821175
 40
0.6041764683
 40
0.6207217969
 40
0.6370204113
 40
0.653081182
 40
0.6689277187
 40
0.6845843061
 40
0.700074068
 40
0.7154185946
 40
0.7306375549
 40
0.7457498215
 40
0.7607736376
 40
0.7906210268
 40
0.8203089109
 40
0.8499483859
 40
0.8796236222
 40
0.9094085149
 40
0.939366101
 40
0.9695521371
 40
1.0
 40
1.0
 40
1.0
 40
1.0
 10
5.3518463068
 20
6.4748158867
 30
0.0
 10
5.3490030658
 20
6.4756789065
 30
0.0
 10
5.3432916099
 20
6.4772436847
 30
0.0
 10
5.3360705468
 20
6.4788053144
 30
0.0
 10
5.3302832839
 20
6.4798133081
 30
0.0
 10
5.3259461527
 20
6.4804492363
 30
0.0
 10
5.3216067587
 20
6.480967473
 30
0.0
 10
5.3158254456
 20
6.4815019571
 30
0.0
 10
5.3100342058
 20
6.4818023286
 30
0.0
 10
5.3042441452
 20
6.481865774
 30
0.0
 10
5.2999030786
 20
6.4817947795
 30
0.0
 10
5.2955619561
 20
6.4816049515
 30
0.0
 10
5.2912203043
 20
6.4812954898
 30
0.0
 10
5.2868774841
 20
6.4808635245
 30
0.0
 10
5.2825325935
 20
6.4803064479
 30
0.0
 10
5.2781847043
 20
6.4796215924
 30
0.0
 10
5.2738328879
 20
6.4788062582
 30
0.0
 10
5.2694760377
 20
6.4778579053
 30
0.0
 10
5.2651132672
 20
6.4767721017
 30
0.0
 10
5.2607436885
 20
6.4755440528
 30
0.0
 10
5.2563663504
 20
6.4741690619
 30
0.0
 10
5.2519804846
 20
6.472642425
 30
0.0
 10
5.2475860462
 20
6.4709599302
 30
0.0
 10
5.2431854616
 20
6.4691139477
 30
0.0
 10
5.2387822928
 20
6.4670969847
 30
0.0
 10
5.2343805583
 20
6.4649018567
 30
0.0
 10
5.2299883429
 20
6.4625234524
 30
0.0
 10
5.2256195373
 20
6.4599619892
 30
0.0
 10
5.2220225574
 20
6.4576826737
 30
0.0
 10
5.2191749266
 20
6.4557704193
 30
0.0
 10
5.21705434
 20
6.4542902521
 30
0.0
 10
5.2149564658
 20
6.4527677335
 30
0.0
 10
5.2128841979
 20
6.4512043167
 30
0.0
 10
5.2108397211
 20
6.4496029337
 30
0.0
 10
5.2081572353
 20
6.4474233755
 30
0.0
 10
5.2055389964
 20
6.4451786622
 30
0.0
 10
5.2029899765
 20
6.4428749476
 30
0.0
 10
5.2011220408
 20
6.4411267463
 30
0.0
 10
5.1992967307
 20
6.4393576484
 30
0.0
 10
5.1969309052
 20
6.4369827034
 30
0.0
 10
5.1940833096
 20
6.4339719258
 30
0.0
 10
5.1908272913
 20
6.4302871333
 30
0.0
 10
5.1877411154
 20
6.4265533787
 30
0.0
 10
5.1848198982
 20
6.4227793991
 30
0.0
 10
5.1820582021
 20
6.4189711108
 30
0.0
 10
5.1794515665
 20
6.4151305594
 30
0.0
 10
5.1769940833
 20
6.4112587659
 30
0.0
 10
5.1746798236
 20
6.4073565823
 30
0.0
 10
5.1725029905
 20
6.4034248598
 30
0.0
 10
5.1704601503
 20
6.3994632981
 30
0.0
 10
5.1685478422
 20
6.3954717509
 30
0.0
 10
5.1661729916
 20
6.3901218666
 30
0.0
 10
5.1635074014
 20
6.3833484185
 30
0.0
 10
5.1607798844
 20
6.3750815725
 30
0.0
 10
5.1585117409
 20
6.3666944976
 30
0.0
 10
5.1566994146
 20
6.3581876808
 30
0.0
 10
5.155340635
 20
6.349565357
 30
0.0
 10
5.1544420424
 20
6.3408327871
 30
0.0
 10
5.1540106532
 20
6.3320001515
 30
0.0
 10
5.154043498
 20
6.3260806471
 30
0.0
 10
5.1541412095
 20
6.3231114298
 30
0.0
 11
5.3518463068
 21
6.4748158867
 31
0.0
 11
5.3432490891
 21
6.4771711469
 31
0.0
 11
5.3346073033
 21
6.4790401384
 31
0.0
 11
5.3302753773
 21
6.4797946728
 31
0.0
 11
5.3259391251
 21
6.4804305075
 31
0.0
 11
5.3216008129
 21
6.4809485948
 31
0.0
 11
5.3172620092
 21
6.4813494758
 31
0.0
 11
5.3085836768
 21
6.4817985285
 31
0.0
 11
5.3042442932
 21
6.4818460194
 31
0.0
 11
5.2999048616
 21
6.4817750329
 31
0.0
 11
5.2955654529
 21
6.4815852247
 31
0.0
 11
5.2912258397
 21
6.4812755686
 31
0.0
 11
5.2868851623
 21
6.4808435933
 31
0.0
 11
5.2825424804
 21
6.4802866428
 31
0.0
 11
5.2781968538
 21
6.4796020615
 31
0.0
 11
5.2738473422
 21
6.4787871935
 31
0.0
 11
5.2694930029
 21
6.4778391932
 31
0.0
 11
5.2651328783
 21
6.4767538998
 31
0.0
 11
5.2607660038
 21
6.4755265968
 31
0.0
 11
5.256391415
 21
6.4741525654
 31
0.0
 11
5.2520081476
 21
6.4726270867
 31
0.0
 11
5.2476158988
 21
6.4709450727
 31
0.0
 11
5.2432174845
 21
6.4690996939
 31
0.0
 11
5.2388166381
 21
6.4670836086
 31
0.0
 11
5.2344170929
 21
6.4648894752
 31
0.0
 11
5.2300233735
 21
6.4625104619
 31
0.0
 11
5.225650722
 21
6.4599466499
 31
0.0
 11
5.2213220963
 21
6.4572030967
 31
0.0
 11
5.2191815204
 21
6.4557655318
 31
0.0
 11
5.2170606238
 21
6.4542849692
 31
0.0
 11
5.2149622949
 21
6.4527620693
 31
0.0
 11
5.2128892764
 21
6.4511983287
 31
0.0
 11
5.210844088
 21
6.4495965244
 31
0.0
 11
5.2088292307
 21
6.4479595416
 31
0.0
 11
5.2049005126
 21
6.4445915815
 31
0.0
 11
5.2029916536
 21
6.4428663746
 31
0.0
 11
5.2011231291
 21
6.4411175302
 31
0.0
 11
5.1992974393
 21
6.439347933
 31
0.0
 11
5.1975164011
 21
6.4375600772
 31
0.0
 11
5.1940872629
 21
6.4339348285
 31
0.0
 11
5.1908318941
 21
6.4302512394
 31
0.0
 11
5.187746117
 21
6.4265185613
 31
0.0
 11
5.1848257484
 21
6.4227460188
 31
0.0
 11
5.1820660323
 21
6.4189400817
 31
0.0
 11
5.1794611484
 21
6.4151021019
 31
0.0
 11
5.1770051607
 21
6.4112328746
 31
0.0
 11
5.1746921334
 21
6.4073331947
 31
0.0
 11
5.1725166453
 21
6.4034036714
 31
0.0
 11
5.1704749406
 21
6.3994443125
 31
0.0
 11
5.1685635991
 21
6.3954550044
 31
0.0
 11
5.166779201
 21
6.3914356336
 31
0.0
 11
5.1635789889
 21
6.3833061378
 31
0.0
 11
5.1608542021
 21
6.3750543527
 31
0.0
 11
5.1585888325
 21
6.3666794827
 31
0.0
 11
5.1567778377
 21
6.3581840493
 31
0.0
 11
5.155420529
 21
6.3495719383
 31
0.0
 11
5.1545223723
 21
6.3408490925
 31
0.0
 11
5.1540916018
 21
6.3320237656
 31
0.0
 11
5.1541412095
 21
6.3231114298
 31
0.0
  0
SPLINE
  5
29E
100
AcDbEntity
  8
0
100
AcDbSpline
 62
6
  6
CONTINUOUS
 70
0
 71
3
 72
73
 73
69
 74
67
 42
0.0000001
 43
0.0000001
 44
0.0000000001
 12
-0.2925592652
 22
0.0096275841
 32
0.0
 13
0.0850194418
 23
-0.2800987478
 33
0.0
 40
0.0
 40
0.0
 40
0.0
 40
0.0
 40
0.0304350176
 40
0.060624884
 40
0.0756401612
 40
0.0906067133
 40
0.1055282026
 40
0.1204087493
 40
0.1352572135
 40
0.150084689
 40
0.1797193706
 40
0.1945525623
 40
0.2094111376
 40
0.224308303
 40
0.2392596484
 40
0.2542816009
 40
0.2693912228
 40
0.284606162
 40
0.2999446813
 40
0.3154275142
 40
0.3310783261
 40
0.3469220919
 40
0.3629849343
 40
0.3792938123
 40
0.395861492
 40
0.4126772809
 40
0.4297305205
 40
0.438343894
 40
0.4470138397
 40
0.455739791
 40
0.4645205787
 40
0.4733483324
 40
0.4822116264
 40
0.4999979496
 40
0.5177873569
 40
0.5266544594
 40
0.535487466
 40
0.5442748429
 40
0.5530061751
 40
0.5616784331
 40
0.5702916337
 40
0.5873394588
 40
0.6041470564
 40
0.620708505
 40
0.628894642
 40
0.6370167796
 40
0.6530800388
 40
0.6689247286
 40
0.6845765283
 40
0.7000600379
 40
0.7153986712
 40
0.7306134652
 40
0.7457227936
 40
0.7607443285
 40
0.775695166
 40
0.7905917763
 40
0.8054498809
 40
0.8202829516
 40
0.8351026694
 40
0.8499205252
 40
0.8647478557
 40
0.8795958187
 40
0.8944753691
 40
0.9093957885
 40
0.9243614957
 40
0.9393761278
 40
0.9695652138
 40
1.0
 40
1.0
 40
1.0
 40
1.0
 10
5.1541412095
 20
6.3231114298
 30
0.0
 10
5.151173194
 20
6.3232091017
 30
0.0
 10
5.1452545666
 20
6.3232423946
 30
0.0
 10
5.1378792013
 20
6.3228823205
 30
0.0
 10
5.1320308925
 20
6.3223586426
 30
0.0
 10
5.1276785402
 20
6.3218508368
 30
0.0
 10
5.1233543608
 20
6.3212287462
 30
0.0
 10
5.1190596053
 20
6.3204938954
 30
0.0
 10
5.1147950319
 20
6.3196459705
 30
0.0
 10
5.1091511452
 20
6.3183641686
 30
0.0
 10
5.1035629827
 20
6.3168522658
 30
0.0
 10
5.0980419399
 20
6.3151107892
 30
0.0
 10
5.0939298883
 20
6.3136879895
 30
0.0
 10
5.0898481447
 20
6.3121475655
 30
0.0
 10
5.0857968053
 20
6.3104862882
 30
0.0
 10
5.0817757816
 20
6.30870117
 30
0.0
 10
5.0777849636
 20
6.3067891618
 30
0.0
 10
5.0738242821
 20
6.3047471477
 30
0.0
 10
5.0698933056
 20
6.3025722388
 30
0.0
 10
5.0659921262
 20
6.3002596968
 30
0.0
 10
5.0621214336
 20
6.2978031371
 30
0.0
 10
5.0582815755
 20
6.2951964552
 30
0.0
 10
5.0544730131
 20
6.2924333965
 30
0.0
 10
5.0506971733
 20
6.2895089301
 30
0.0
 10
5.0469591797
 20
6.2864195019
 30
0.0
 10
5.043269791
 20
6.2831613316
 30
0.0
 10
5.0402564542
 20
6.2803136733
 30
0.0
 10
5.0378820263
 20
6.2779498643
 30
0.0
 10
5.0361153661
 20
6.2761277766
 30
0.0
 10
5.0343705366
 20
6.2742623436
 30
0.0
 10
5.0326498106
 20
6.2723538676
 30
0.0
 10
5.0309550348
 20
6.2704045157
 30
0.0
 10
5.028730434
 20
6.2677521597
 30
0.0
 10
5.0260317636
 20
6.2643571029
 30
0.0
 10
5.0234519017
 20
6.2608704563
 30
0.0
 10
5.0214655893
 20
6.2580338042
 30
0.0
 10
5.0200205748
 20
6.2558908983
 30
0.0
 10
5.0186211655
 20
6.2537337113
 30
0.0
 10
5.0172695148
 20
6.251564741
 30
0.0
 10
5.0159659046
 20
6.2493863415
 30
0.0
 10
5.0142968384
 20
6.2464815907
 30
0.0
 10
5.0123264405
 20
6.2428352447
 30
0.0
 10
5.0101352433
 20
6.238429939
 30
0.0
 10
5.0084492493
 20
6.2347416049
 30
0.0
 10
5.0071860495
 20
6.2317935435
 30
0.0
 10
5.0059876027
 20
6.2288710428
 30
0.0
 10
5.0045903587
 20
6.2252229383
 30
0.0
 10
5.0030661093
 20
6.2208391174
 30
0.0
 10
5.0016947003
 20
6.2164643563
 30
0.0
 10
5.0004703497
 20
6.2120974805
 30
0.0
 10
4.9993870442
 20
6.2077374528
 30
0.0
 10
4.9984397791
 20
6.2033832345
 30
0.0
 10
4.9976258833
 20
6.1990336095
 30
0.0
 10
4.9969423956
 20
6.194687682
 30
0.0
 10
4.9963864284
 20
6.1903445483
 30
0.0
 10
4.9959551478
 20
6.1860033128
 30
0.0
 10
4.9956454393
 20
6.1816632537
 30
0.0
 10
4.9954555947
 20
6.1773238157
 30
0.0
 10
4.9953852547
 20
6.1729847261
 30
0.0
 10
4.9954337947
 20
6.1686459038
 30
0.0
 10
4.995600662
 20
6.1643072677
 30
0.0
 10
4.9958852892
 20
6.159968738
 30
0.0
 10
4.996287079
 20
6.1556303733
 30
0.0
 10
4.9968054258
 20
6.1512928241
 30
0.0
 10
4.9974414039
 20
6.1469575982
 30
0.0
 10
4.9984492201
 20
6.1411732527
 30
0.0
 10
5.0000102633
 20
6.1339561612
 30
0.0
 10
5.0015742365
 20
6.1282479144
 30
0.0
 10
5.0024367527
 20
6.1254063325
 30
0.0
 11
5.1541412095
 21
6.3231114298
 31
0.0
 11
5.1452324833
 21
6.3231614049
 31
0.0
 11
5.1364058844
 21
6.3227305911
 31
0.0
 11
5.1320281608
 21
6.3223386233
 31
0.0
 11
5.1276767025
 21
6.3218309401
 31
0.0
 11
5.123353421
 21
6.3212090355
 31
0.0
 11
5.1190600532
 21
6.3204742067
 31
0.0
 11
5.1147971353
 21
6.319626393
 31
0.0
 11
5.1105646967
 21
6.3186649611
 31
0.0
 11
5.1021913676
 21
6.3163987002
 31
0.0
 11
5.0980505322
 21
6.3150926002
 31
0.0
 11
5.0939402854
 21
6.3136703255
 31
0.0
 11
5.0898606009
 21
6.3121303396
 31
0.0
 11
5.0858113689
 21
6.3104697166
 31
0.0
 11
5.0817924724
 21
6.3086854088
 31
0.0
 11
5.0778037943
 21
6.3067743688
 31
0.0
 11
5.0738452177
 21
6.3047335489
 31
0.0
 11
5.0699166361
 21
6.3025598319
 31
0.0
 11
5.066018176
 21
6.3002485719
 31
0.0
 11
5.0621501901
 21
6.2977936365
 31
0.0
 11
5.0583130406
 21
6.2951888321
 31
0.0
 11
5.0545070897
 21
6.292427965
 31
0.0
 11
5.0507327601
 21
6.2895048637
 31
0.0
 11
5.0469948948
 21
6.2864149628
 31
0.0
 11
5.0433056738
 21
6.2831563636
 31
0.0
 11
5.0396779686
 21
6.2797274188
 31
0.0
 11
5.0378912069
 21
6.277948552
 31
0.0
 11
5.036124651
 21
6.276126481
 31
0.0
 11
5.0343799099
 21
6.2742609999
 31
0.0
 11
5.0326586562
 21
6.2723521564
 31
0.0
 11
5.0309631118
 21
6.2704021852
 31
0.0
 11
5.0292957793
 21
6.2684144393
 31
0.0
 11
5.0260557691
 21
6.2643390709
 31
0.0
 11
5.0229586644
 21
6.2601529465
 31
0.0
 11
5.0214699638
 21
6.2580267556
 31
0.0
 11
5.020024504
 21
6.2558829614
 31
0.0
 11
5.01862479
 21
6.2537249258
 31
0.0
 11
5.0172730413
 21
6.2515558326
 31
0.0
 11
5.0159694407
 21
6.2493775939
 31
0.0
 11
5.014713286
 21
6.247191569
 31
0.0
 11
5.0123404897
 21
6.2428015891
 31
0.0
 11
5.0101490044
 21
6.2383967493
 31
0.0
 11
5.0081331819
 21
6.2339879062
 31
0.0
 11
5.0071893792
 21
6.2317853762
 31
0.0
 11
5.0062873698
 21
6.2295856372
 31
0.0
 11
5.0046058226
 21
6.2251946013
 31
0.0
 11
5.0030827066
 21
6.2208138082
 31
0.0
 11
5.0017121842
 21
6.216442042
 31
0.0
 11
5.000488418
 21
6.2120780866
 31
0.0
 11
4.9994055866
 21
6.207720728
 31
0.0
 11
4.9984589363
 21
6.2033688606
 31
0.0
 11
4.9976454284
 21
6.1990215544
 31
0.0
 11
4.9969621791
 21
6.1946778947
 31
0.0
 11
4.9964063045
 21
6.1903369673
 31
0.0
 11
4.995974921
 21
6.1859978576
 31
0.0
 11
4.9956651988
 21
6.1816596705
 31
0.0
 11
4.9954754483
 21
6.1773219173
 31
0.0
 11
4.9954050623
 21
6.1729844956
 31
0.0
 11
4.9954534766
 21
6.1686473182
 31
0.0
 11
4.9956201271
 21
6.1643102976
 31
0.0
 11
4.9959044496
 21
6.1599733468
 31
0.0
 11
4.9963058799
 21
6.1556363786
 31
0.0
 11
4.9968241566
 21
6.1512997691
 31
0.0
 11
4.9974600267
 21
6.1469654371
 31
0.0
 11
4.9982144464
 21
6.1426356226
 31
0.0
 11
5.0000827612
 21
6.1339985044
 31
0.0
 11
5.0024367527
 21
6.1254063325
 31
0.0
  0
SPLINE
  5
29F
100
AcDbEntity
  8
0
100
AcDbSpline
 62
6
  6
CONTINUOUS
 70
0
 71
3
 72
65
 73
61
 74
59
 42
0.0000001
 43
0.0000001
 44
0.0000000001
 12
-0.2850774705
 22
-0.0664192402
 32
0.0
 13
0.1546147174
 23
-0.2485457077
 33
0.0
 40
0.0
 40
0.0
 40
0.0
 40
0.0
 40
0.0304530782
 40
0.0606587557
 40
0.0756808185
 40
0.0906532551
 40
0.105579629
 40
0.1204655052
 40
0.1501531303
 40
0.1649787411
 40
0.1798056116
 40
0.1946445954
 40
0.2095077982
 40
0.2244101931
 40
0.2393676988
 40
0.2543968367
 40
0.2695146846
 40
0.2847389715
 40
0.3000890676
 40
0.3155857097
 40
0.3312505669
 40
0.3471061637
 40
0.363174138
 40
0.379469473
 40
0.3960067379
 40
0.4128024662
 40
0.4298719256
 40
0.4471887301
 40
0.4646968571
 40
0.4735058354
 40
0.4823423358
 40
0.4911999047
 40
0.5000709574
 40
0.5089458785
 40
0.5178147418
 40
0.5354933253
 40
0.5442833524
 40
0.5530266231
 40
0.5617128258
 40
0.5703342295
 40
0.5873821175
 40
0.6041764683
 40
0.6207217969
 40
0.6370204113
 40
0.653081182
 40
0.6689277187
 40
0.6845843061
 40
0.700074068
 40
0.7154185946
 40
0.7306375549
 40
0.7457498215
 40
0.7607736376
 40
0.7906210268
 40
0.8203089109
 40
0.8499483859
 40
0.8796236222
 40
0.9094085149
 40
0.939366101
 40
0.9695521371
 40
1.0
 40
1.0
 40
1.0
 40
1.0
 10
5.0024367527
 20
6.1254063325
 30
0.0
 10
4.9995429238
 20
6.1247321091
 30
0.0
 10
4.9938142688
 20
6.1232315188
 30
0.0
 10
4.9867798298
 20
6.1209733982
 30
0.0
 10
4.9812639163
 20
6.118952715
 30
0.0
 10
4.9771898864
 20
6.1173348793
 30
0.0
 10
4.9731727426
 20
6.1156139885
 30
0.0
 10
4.9678987366
 20
6.1131862087
 30
0.0
 10
4.96273319
 20
6.1105507182
 30
0.0
 10
4.9576871278
 20
6.1077106333
 30
0.0
 10
4.9539631511
 20
6.1054786169
 30
0.0
 10
4.9502985427
 20
6.1031436597
 30
0.0
 10
4.9466932928
 20
6.1007048321
 30
0.0
 10
4.9431482828
 20
6.0981593292
 30
0.0
 10
4.9396640355
 20
6.0955044413
 30
0.0
 10
4.9362410807
 20
6.0927373945
 30
0.0
 10
4.9328799642
 20
6.0898553861
 30
0.0
 10
4.9295809978
 20
6.0868556634
 30
0.0
 10
4.9263456295
 20
6.0837339446
 30
0.0
 10
4.9231754878
 20
6.0804856338
 30
0.0
 10
4.9200720972
 20
6.0771061876
 30
0.0
 10
4.9170371445
 20
6.0735911483
 30
0.0
 10
4.9140726966
 20
6.0699368459
 30
0.0
 10
4.9111846698
 20
6.0661378859
 30
0.0
 10
4.9083798953
 20
6.0621895603
 30
0.0
 10
4.9056654454
 20
6.0580876565
 30
0.0
 10
4.9030508774
 20
6.0538317902
 30
0.0
 10
4.9005481124
 20
6.0494290952
 30
0.0
 10
4.8985726941
 20
6.0456566601
 30
0.0
 10
4.8970627007
 20
6.0425767838
 30
0.0
 10
4.8959663024
 20
6.0402346281
 30
0.0
 10
4.8949107494
 20
6.0378671512
 30
0.0
 10
4.8938978212
 20
6.0354770586
 30
0.0
 10
4.8929279439
 20
6.0330679818
 30
0.0
 10
4.8916946221
 20
6.0298391862
 30
0.0
 10
4.8905495173
 20
6.026586088
 30
0.0
 10
4.8894938586
 20
6.0233165027
 30
0.0
 10
4.8887502795
 20
6.0208685481
 30
0.0
 10
4.8880540636
 20
6.0184238093
 30
0.0
 10
4.887192671
 20
6.0151841339
 30
0.0
 10
4.8862319698
 20
6.0111529262
 30
0.0
 10
4.8852545714
 20
6.0063337932
 30
0.0
 10
4.884448742
 20
6.0015571788
 30
0.0
 10
4.8838058834
 20
5.996828208
 30
0.0
 10
4.8833183286
 20
5.9921492855
 30
0.0
 10
4.8829811917
 20
5.9875199527
 30
0.0
 10
4.8827888455
 20
5.9829381396
 30
0.0
 10
4.8827357297
 20
5.9784016196
 30
0.0
 10
4.8828163982
 20
5.9739082315
 30
0.0
 10
4.8830280275
 20
5.9694559983
 30
0.0
 10
4.8833676937
 20
5.965043063
 30
0.0
 10
4.8839859549
 20
5.9592225019
 30
0.0
 10
4.8850642102
 20
5.9520237287
 30
0.0
 10
4.8868355341
 20
5.9435006716
 30
0.0
 10
4.8890648017
 20
5.9351031799
 30
0.0
 10
4.8917486895
 20
5.9268298973
 30
0.0
 10
4.8948831137
 20
5.918683356
 30
0.0
 10
4.8984711946
 20
5.9106714324
 30
0.0
 10
4.9025139185
 20
5.902806451
 30
0.0
 10
4.9055021151
 20
5.8976964322
 30
0.0
 10
4.9070713443
 20
5.8951738704
 30
0.0
 11
5.0024367527
 21
6.1254063325
 31
0.0
 11
4.9938137136
 21
6.1231474388
 31
0.0
 11
4.9853952118
 21
6.12044514
 31
0.0
 11
4.9812663866
 21
6.118932623
 31
0.0
 11
4.9771931647
 21
6.1173151459
 31
0.0
 11
4.9731770325
 21
6.1155946665
 31
0.0
 11
4.9692190778
 21
6.1137724379
 31
0.0
 11
4.9614788951
 21
6.1098221626
 31
0.0
 11
4.9576971333
 21
6.1076935992
 31
0.0
 11
4.9539745685
 21
6.1054624073
 31
0.0
 11
4.9503114344
 21
6.1031283242
 31
0.0
 11
4.9467080472
 21
6.1006903476
 31
0.0
 11
4.9431648979
 21
6.0981459073
 31
0.0
 11
4.9396825004
 21
6.0954922331
 31
0.0
 11
4.936261368
 21
6.092726555
 31
0.0
 11
4.9329020144
 21
6.0898461028
 31
0.0
 11
4.9296050462
 21
6.0868479408
 31
0.0
 11
4.9263717141
 21
6.0837279869
 31
0.0
 11
4.9232035414
 21
6.080481674
 31
0.0
 11
4.9201020521
 21
6.0771044335
 31
0.0
 11
4.9170687705
 21
6.0735916965
 31
0.0
 11
4.9141059785
 21
6.0699389052
 31
0.0
 11
4.9112195294
 21
6.0661415532
 31
0.0
 11
4.9084163272
 21
6.0621951489
 31
0.0
 11
4.9057032761
 21
6.058095201
 31
0.0
 11
4.90308771
 21
6.0538380553
 31
0.0
 11
4.9005827888
 21
6.0494314033
 31
0.0
 11
4.8982058655
 21
6.0448911037
 31
0.0
 11
4.8970708549
 21
6.042575848
 31
0.0
 11
4.8959743858
 21
6.0402331949
 31
0.0
 11
4.8949186296
 21
6.0378651604
 31
0.0
 11
4.8939052133
 21
6.0354744121
 31
0.0
 11
4.8929349304
 21
6.0330646147
 31
0.0
 11
4.8920085041
 21
6.0306395174
 31
0.0
 11
4.8902901145
 21
6.0257584193
 31
0.0
 11
4.8894995975
 21
6.0233099168
 31
0.0
 11
4.88875583
 21
6.0208611108
 31
0.0
 11
4.8880595349
 21
6.0184157498
 31
0.0
 11
4.8874110385
 21
6.0159769023
 31
0.0
 11
4.8862539421
 21
6.0111227756
 31
0.0
 11
4.8852765045
 21
6.0063050095
 31
0.0
 11
4.8844704822
 21
6.0015295269
 31
0.0
 11
4.8838276401
 21
5.996802225
 31
0.0
 11
4.8833406243
 21
5.9921263287
 31
0.0
 11
4.8830037186
 21
5.9875000987
 31
0.0
 11
4.8828113845
 21
5.9829212557
 31
0.0
 11
4.8827580841
 21
5.9783875202
 31
0.0
 11
4.8828388178
 21
5.9738967092
 31
0.0
 11
4.8830503291
 21
5.9694469514
 31
0.0
 11
4.8833897128
 21
5.9650364386
 31
0.0
 11
4.8838540641
 21
5.9606633622
 31
0.0
 11
4.8851473471
 21
5.9520229063
 31
0.0
 11
4.8869135051
 21
5.9435142574
 31
0.0
 11
4.8891390724
 21
5.9351287224
 31
0.0
 11
4.8918184216
 21
5.9268659639
 31
0.0
 11
4.8949490134
 21
5.9187290026
 31
0.0
 11
4.8985326097
 21
5.9107257183
 31
0.0
 11
4.9025722149
 21
5.9028673757
 31
0.0
 11
4.9070713443
 21
5.8951738704
 31
0.0
  0
LINE
  5
2A0
100
AcDbEntity
  8
0
100
AcDbLine
 62
6
  6
CONTINUOUS
 10
6.0122132951
 20
4.6098927215
 11
6.0308317456
 21
4.5043022417
  0
SPLINE
  5
2A1
100
AcDbEntity
  8
0
100
AcDbSpline
 62
6
  6
CONTINUOUS
 70
0
 71
3
 72
64
 73
60
 74
58
 42
0.0000001
 43
0.0000001
 44
0.0000000001
 12
-0.2581718867
 22
-0.1379388755
 32
0.0
 13
0.2136736849
 23
-0.2000585234
 33
0.0
 40
0.0
 40
0.0
 40
0.0
 40
0.0
 40
0.0304529966
 40
0.0606588557
 40
0.0756811489
 40
0.0906539317
 40
0.105580776
 40
0.1204670124
 40
0.1353224404
 40
0.1501576294
 40
0.1649832958
 40
0.1798102801
 40
0.1946495247
 40
0.209512972
 40
0.2244155011
 40
0.2393730738
 40
0.2544022639
 40
0.2695202116
 40
0.2847446543
 40
0.3000948384
 40
0.3155915089
 40
0.3312563812
 40
0.3471120591
 40
0.3631808775
 40
0.3794779107
 40
0.3960161961
 40
0.4128107684
 40
0.4298774601
 40
0.4471975068
 40
0.4647116463
 40
0.4735230825
 40
0.4823608075
 40
0.4912177236
 40
0.5000866033
 40
0.5089587002
 40
0.5178246321
 40
0.5354991042
 40
0.5530332286
 40
0.561723413
 40
0.5703494065
 40
0.6041874066
 40
0.6370222203
 40
0.6530835221
 40
0.6689303708
 40
0.6845869603
 40
0.7000763992
 40
0.7306357129
 40
0.7457476184
 40
0.7607711161
 40
0.790618252
 40
0.8054760267
 40
0.8203086397
 40
0.8499476271
 40
0.8647771751
 40
0.8796252633
 40
0.9094097801
 40
0.9393668675
 40
0.9695523951
 40
1.0
 40
1.0
 40
1.0
 40
1.0
 10
4.9070713443
 20
5.8951738704
 30
0.0
 10
4.9044506418
 20
5.893773653
 30
0.0
 10
4.8993055815
 20
5.890841523
 30
0.0
 10
4.8930952797
 20
5.886839702
 30
0.0
 10
4.8882902774
 20
5.8834602175
 30
0.0
 10
4.8847737267
 20
5.8808430086
 30
0.0
 10
4.8813388337
 20
5.878140988
 30
0.0
 10
4.8779860081
 20
5.8753556508
 30
0.0
 10
4.874716071
 20
5.8724869872
 30
0.0
 10
4.8715293482
 20
5.8695348383
 30
0.0
 10
4.8684261481
 20
5.8664989742
 30
0.0
 10
4.8654067834
 20
5.8633791628
 30
0.0
 10
4.8624714587
 20
5.8601751529
 30
0.0
 10
4.8596203285
 20
5.8568862177
 30
0.0
 10
4.8568549431
 20
5.8535098999
 30
0.0
 10
4.8541765509
 20
5.8500436838
 30
0.0
 10
4.85158639
 20
5.846484999
 30
0.0
 10
4.8490857459
 20
5.8428312423
 30
0.0
 10
4.8466756146
 20
5.8390798583
 30
0.0
 10
4.844358337
 20
5.8352271976
 30
0.0
 10
4.8421368281
 20
5.8312691498
 30
0.0
 10
4.8400137916
 20
5.8272016777
 30
0.0
 10
4.8379921338
 20
5.8230207677
 30
0.0
 10
4.8360746479
 20
5.8187234079
 30
0.0
 10
4.8342680342
 20
5.8143061676
 30
0.0
 10
4.8325804951
 20
5.8097663989
 30
0.0
 10
4.8310201412
 20
5.8051020499
 30
0.0
 10
4.8295964344
 20
5.8003145051
 30
0.0
 10
4.8283190657
 20
5.7954132733
 30
0.0
 10
4.8273874565
 20
5.7912569354
 30
0.0
 10
4.8267257375
 20
5.787890303
 30
0.0
 10
4.8262725184
 20
5.785343967
 30
0.0
 10
4.8258649414
 20
5.7827842523
 30
0.0
 10
4.8255046813
 20
5.7802140632
 30
0.0
 10
4.8251914147
 20
5.7776368378
 30
0.0
 10
4.8248362187
 20
5.7741997763
 30
0.0
 10
4.8245077613
 20
5.7699110213
 30
0.0
 10
4.8243292644
 20
5.7656306176
 30
0.0
 10
4.8242761583
 20
5.7622305093
 30
0.0
 10
4.8242852208
 20
5.7572392451
 30
0.0
 10
4.8246138838
 20
5.7498933371
 30
0.0
 10
4.8255075337
 20
5.7418647538
 30
0.0
 10
4.826501823
 20
5.7356256379
 30
0.0
 10
4.8273742432
 20
5.7310666907
 30
0.0
 10
4.8283741515
 20
5.7265911655
 30
0.0
 10
4.8298644107
 20
5.7207572007
 30
0.0
 10
4.8315975534
 20
5.7150426369
 30
0.0
 10
4.833565051
 20
5.7094563018
 30
0.0
 10
4.8356687398
 20
5.7039942218
 30
0.0
 10
4.8379957945
 20
5.6986472245
 30
0.0
 10
4.8405368254
 20
5.6934226842
 30
0.0
 10
4.8432122622
 20
5.6882885752
 30
0.0
 10
4.8460954338
 20
5.6832681481
 30
0.0
 10
4.8491793923
 20
5.6783700509
 30
0.0
 10
4.8524021528
 20
5.6735449889
 30
0.0
 10
4.8566867016
 20
5.6676574387
 30
0.0
 10
4.8622259922
 20
5.6608473962
 30
0.0
 10
4.8681664966
 20
5.6542968623
 30
0.0
 10
4.8723753622
 20
5.6501344395
 30
0.0
 10
4.8745439795
 20
5.6481040052
 30
0.0
 11
4.9070713443
 21
5.8951738704
 31
0.0
 11
4.8993268286
 21
5.890760177
 31
0.0
 11
4.8918945771
 21
5.8859710832
 31
0.0
 11
4.8882978719
 21
5.883441454
 31
0.0
 11
4.8847820183
 21
5.8808248062
 31
0.0
 11
4.8813479442
 21
5.8781234135
 31
0.0
 11
4.8779964002
 21
5.8753388468
 31
0.0
 11
4.8747277386
 21
5.8724710946
 31
0.0
 11
4.8715422574
 21
5.8695199296
 31
0.0
 11
4.8684402544
 21
5.8664851243
 31
0.0
 11
4.8654220276
 21
5.8633664514
 31
0.0
 11
4.8624878752
 21
5.8601636828
 31
0.0
 11
4.8596383113
 21
5.856876046
 31
0.0
 11
4.8568744582
 21
5.8535012335
 31
0.0
 11
4.8541975448
 21
5.8500366698
 31
0.0
 11
4.8516088001
 21
5.8464797791
 31
0.0
 11
4.8491094528
 21
5.8428279857
 31
0.0
 11
4.8467008129
 21
5.8390786332
 31
0.0
 11
4.8443850712
 21
5.8352281882
 31
0.0
 11
4.8421649596
 21
5.8312725786
 31
0.0
 11
4.8400432179
 21
5.8272077244
 31
0.0
 11
4.8380225859
 21
5.8230295455
 31
0.0
 11
4.8361062372
 21
5.8187341131
 31
0.0
 11
4.8343007228
 21
5.8143186728
 31
0.0
 11
4.8326141774
 21
5.8097810214
 31
0.0
 11
4.8310547444
 21
5.8051189587
 31
0.0
 11
4.8296306318
 21
5.800330635
 31
0.0
 11
4.828351976
 21
5.7954247582
 31
0.0
 11
4.8272311361
 21
5.7904221997
 31
0.0
 11
4.8267337977
 21
5.7878913976
 31
0.0
 11
4.8262805941
 21
5.7853445044
 31
0.0
 11
4.8258730855
 21
5.7827842135
 31
0.0
 11
4.825512576
 21
5.7802133468
 31
0.0
 11
4.8251990796
 21
5.777635376
 31
0.0
 11
4.8249322055
 21
5.7750539768
 31
0.0
 11
4.8245367594
 21
5.769895596
 31
0.0
 11
4.8243231087
 21
5.7647676099
 31
0.0
 11
4.8242834789
 21
5.7622242042
 31
0.0
 11
4.824288092
 21
5.7596992834
 31
0.0
 11
4.8247288033
 21
5.7498043308
 31
0.0
 11
4.8257891693
 21
5.7402518851
 31
0.0
 11
4.826529243
 21
5.7356091778
 31
0.0
 11
4.8274011376
 21
5.7310533081
 31
0.0
 11
4.8284003223
 21
5.7265806992
 31
0.0
 11
4.8295222664
 21
5.7221877748
 31
0.0
 11
4.832118696
 21
5.7136278365
 31
0.0
 11
4.8335880398
 21
5.7094555816
 31
0.0
 11
4.8351684116
 21
5.7053518226
 31
0.0
 11
4.8386538966
 21
5.6973406164
 31
0.0
 11
4.8405558564
 21
5.6934295201
 31
0.0
 11
4.8425620103
 21
5.6895791351
 31
0.0
 11
4.8468820758
 21
5.6820555601
 31
0.0
 11
4.8491947829
 21
5.678382181
 31
0.0
 11
4.8516086398
 21
5.6747679361
 31
0.0
 11
4.856738502
 21
5.6677186377
 31
0.0
 11
4.8622712794
 21
5.660915712
 31
0.0
 11
4.8682070122
 21
5.6543708166
 31
0.0
 11
4.8745439795
 21
5.6481040052
 31
0.0
  0
SPLINE
  5
2A2
100
AcDbEntity
  8
0
100
AcDbSpline
 62
6
  6
CONTINUOUS
 70
0
 71
3
 72
22
 73
18
 74
16
 42
0.0000001
 43
0.0000001
 44
0.0000000001
 12
-0.0441370254
 22
0.0753988403
 32
0.0
 13
-0.0770582216
 23
0.0411715023
 33
0.0
 40
0.0
 40
0.0
 40
0.0
 40
0.0
 40
0.0638373263
 40
0.1270569632
 40
0.1897788139
 40
0.2521167005
 40
0.3141745896
 40
0.3760505543
 40
0.4378373974
 40
0.4996099741
 40
0.6233459974
 40
0.6854439427
 40
0.747756943
 40
0.8103345373
 40
0.8732182966
 40
0.9364321318
 40
1.0
 40
1.0
 40
1.0
 40
1.0
 10
6.8136728499
 20
5.8356352082
 30
0.0
 10
6.8127336533
 20
5.8372396284
 30
0.0
 10
6.8108055462
 20
5.840398947
 30
0.0
 10
6.807754669
 20
5.8450088133
 30
0.0
 10
6.8045639732
 20
5.8494694915
 30
0.0
 10
6.8012368714
 20
5.8537866584
 30
0.0
 10
6.7977753211
 20
5.8579648271
 30
0.0
 10
6.7941811602
 20
5.8620079472
 30
0.0
 10
6.7904568552
 20
5.865920116
 30
0.0
 10
6.7853169786
 20
5.8709662288
 30
0.0
 10
6.7799177242
 20
5.8757556602
 30
0.0
 10
6.7742782434
 20
5.880276171
 30
0.0
 10
6.7699169196
 20
5.8835388243
 30
0.0
 10
6.7654302941
 20
5.8866669281
 30
0.0
 10
6.7608195082
 20
5.8896575436
 30
0.0
 10
6.7560858775
 20
5.8925058991
 30
0.0
 10
6.7528587329
 20
5.8943014755
 30
0.0
 10
6.751225924
 20
5.8951738704
 30
0.0
 11
6.8136728499
 21
5.8356352082
 31
0.0
 11
6.8107672798
 21
5.8403958751
 31
0.0
 11
6.807719037
 21
5.8450018981
 31
0.0
 11
6.8045312247
 21
5.8494590891
 31
0.0
 11
6.8012068225
 21
5.8537730805
 31
0.0
 11
6.7977480388
 21
5.8579483797
 31
0.0
 11
6.7941567847
 21
5.8619890608
 31
0.0
 11
6.7904349332
 21
5.865899036
 31
0.0
 11
6.7865838386
 21
5.8696800014
 31
0.0
 11
6.7784978115
 21
5.8768551636
 31
0.0
 11
6.7742646067
 21
5.8802484286
 31
0.0
 11
6.769905379
 21
5.8835096595
 31
0.0
 11
6.7654206305
 21
5.8866366005
 31
0.0
 11
6.7608112644
 21
5.889626195
 31
0.0
 11
6.7560790628
 21
5.8924736324
 31
0.0
 11
6.751225924
 21
5.8951738704
 31
0.0
  0
LINE
  5
2A3
100
AcDbEntity
  8
0
100
AcDbLine
 62
6
  6
CONTINUOUS
 10
6.1549228063
 20
4.6454741989
 11
6.1880554178
 21
4.5435025059
  0
SPLINE
  5
2A4
100
AcDbEntity
  8
0
100
AcDbSpline
 62
6
  6
CONTINUOUS
 70
0
 71
3
 72
65
 73
61
 74
59
 42
0.0000001
 43
0.0000001
 44
0.0000000001
 12
0.1546147174
 22
0.2485457077
 32
0.0
 13
-0.2850774705
 23
0.0664192402
 33
0.0
 40
0.0
 40
0.0
 40
0.0
 40
0.0
 40
0.0304530782
 40
0.0606587557
 40
0.0756808185
 40
0.0906532551
 40
0.105579629
 40
0.1204655052
 40
0.1501531303
 40
0.1649787411
 40
0.1798056116
 40
0.1946445954
 40
0.2095077982
 40
0.2244101931
 40
0.2393676988
 40
0.2543968367
 40
0.2695146846
 40
0.2847389715
 40
0.3000890676
 40
0.3155857097
 40
0.3312505669
 40
0.3471061637
 40
0.363174138
 40
0.379469473
 40
0.3960067379
 40
0.4128024662
 40
0.4298719256
 40
0.4471887301
 40
0.4646968571
 40
0.4735058354
 40
0.4823423358
 40
0.4911999047
 40
0.5000709574
 40
0.5089458785
 40
0.5178147418
 40
0.5354933253
 40
0.5442833524
 40
0.5530266231
 40
0.5617128258
 40
0.5703342295
 40
0.5873821175
 40
0.6041764683
 40
0.6207217969
 40
0.6370204113
 40
0.653081182
 40
0.6689277187
 40
0.6845843061
 40
0.700074068
 40
0.7154185946
 40
0.7306375549
 40
0.7457498215
 40
0.7607736376
 40
0.7906210268
 40
0.8203089109
 40
0.8499483859
 40
0.8796236222
 40
0.9094085149
 40
0.939366101
 40
0.9695521371
 40
1.0
 40
1.0
 40
1.0
 40
1.0
 10
6.751225924
 20
5.8951738704
 30
0.0
 10
6.752795422
 20
5.8976968643
 30
0.0
 10
6.7557851153
 20
5.9028087127
 30
0.0
 10
6.7591624824
 20
5.9093795446
 30
0.0
 10
6.7616339834
 20
5.9147087233
 30
0.0
 10
6.763370775
 20
5.91873348
 30
0.0
 10
6.7649944711
 20
5.9227908832
 30
0.0
 10
6.7670070569
 20
5.9282368682
 30
0.0
 10
6.7687960767
 20
5.9337530344
 30
0.0
 10
6.7703559382
 20
5.9393293825
 30
0.0
 10
6.7714109135
 20
5.9435409056
 30
0.0
 10
6.7723511189
 20
5.9477832391
 30
0.0
 10
6.773175904
 20
5.9520570473
 30
0.0
 10
6.7738826622
 20
5.9563636903
 30
0.0
 10
6.774469108
 20
5.9607047144
 30
0.0
 10
6.7749329049
 20
5.9650817065
 30
0.0
 10
6.7752716855
 20
5.9694962624
 30
0.0
 10
6.7754832827
 20
5.9739501082
 30
0.0
 10
6.775563645
 20
5.9784452476
 30
0.0
 10
6.7755083711
 20
5.9829837789
 30
0.0
 10
6.7753131703
 20
5.9875678368
 30
0.0
 10
6.7749736979
 20
5.9921993805
 30
0.0
 10
6.7744858971
 20
5.9968795438
 30
0.0
 10
6.77384177
 20
6.0016079575
 30
0.0
 10
6.7730331573
 20
6.0063831203
 30
0.0
 10
6.7720520793
 20
6.0112030103
 30
0.0
 10
6.7708915061
 20
6.016061141
 30
0.0
 10
6.7695480527
 20
6.0209440386
 30
0.0
 10
6.7682773699
 20
6.0250083847
 30
0.0
 10
6.7671672951
 20
6.0282539126
 30
0.0
 10
6.7662864116
 20
6.0306853375
 30
0.0
 10
6.7653587413
 20
6.0331057851
 30
0.0
 10
6.764384939
 20
6.0355120843
 30
0.0
 10
6.7633672713
 20
6.0379013656
 30
0.0
 10
6.7619562582
 20
6.0410565591
 30
0.0
 10
6.7604656818
 20
6.0441665583
 30
0.0
 10
6.7589001993
 20
6.0472249676
 30
0.0
 10
6.7576950238
 20
6.0494817228
 30
0.0
 10
6.7564586315
 20
6.0517027131
 30
0.0
 10
6.7547769315
 20
6.0546026061
 30
0.0
 10
6.7526057556
 20
6.0581324187
 30
0.0
 10
6.7498892389
 20
6.0622311854
 30
0.0
 10
6.74708147
 20
6.0661785692
 30
0.0
 10
6.7441921523
 20
6.0699770262
 30
0.0
 10
6.7412284078
 20
6.0736302773
 30
0.0
 10
6.738193367
 20
6.0771421017
 30
0.0
 10
6.7350895451
 20
6.0805179422
 30
0.0
 10
6.7319192997
 20
6.0837633048
 30
0.0
 10
6.7286849532
 20
6.0868835688
 30
0.0
 10
6.7253871044
 20
6.0898821285
 30
0.0
 10
6.7220265077
 20
6.0927623648
 30
0.0
 10
6.7174735727
 20
6.0964409462
 30
0.0
 10
6.7116208298
 20
6.1007688059
 30
0.0
 10
6.7043416032
 20
6.1055430023
 30
0.0
 10
6.6968273496
 20
6.1099045954
 30
0.0
 10
6.6890794601
 20
6.1138568943
 30
0.0
 10
6.6811026129
 20
6.1174009963
 30
0.0
 10
6.672900171
 20
6.1205291255
 30
0.0
 10
6.6644801519
 20
6.1232318697
 30
0.0
 10
6.6587538489
 20
6.1247322245
 30
0.0
 10
6.6558605157
 20
6.1254063325
 30
0.0
 11
6.751225924
 21
5.8951738704
 31
0.0
 11
6.7557260543
 21
5.9028685588
 31
0.0
 11
6.7597680202
 21
5.9107321523
 31
0.0
 11
6.7616180295
 21
5.9147211836
 31
0.0
 11
6.7633545033
 21
5.9187451155
 31
0.0
 11
6.7649777749
 21
5.9228015125
 31
0.0
 11
6.7664879613
 21
5.9268887193
 31
0.0
 11
6.7691678306
 21
5.9351551214
 31
0.0
 11
6.7703368184
 21
5.9393343525
 31
0.0
 11
6.7713913782
 21
5.9435442942
 31
0.0
 11
6.7723311592
 21
5.9477849671
 31
0.0
 11
6.773155229
 21
5.9520568564
 31
0.0
 11
6.7738614228
 21
5.9563614323
 31
0.0
 11
6.7744474188
 21
5.9607002903
 31
0.0
 11
6.7749108949
 21
5.9650750259
 31
0.0
 11
6.7752495293
 21
5.9694872349
 31
0.0
 11
6.7754608172
 21
5.9739385642
 31
0.0
 11
6.7755409877
 21
5.9784310158
 31
0.0
 11
6.7754857343
 21
5.982966742
 31
0.0
 11
6.7752907487
 21
5.9875478958
 31
0.0
 11
6.7749517226
 21
5.9921766299
 31
0.0
 11
6.7744638194
 21
5.9968545537
 31
0.0
 11
6.7738197137
 21
6.0015807149
 31
0.0
 11
6.7730113478
 21
6.0063534074
 31
0.0
 11
6.7720306637
 21
6.0111709252
 31
0.0
 11
6.7708698916
 21
6.0160306662
 31
0.0
 11
6.7695251649
 21
6.0209178865
 31
0.0
 11
6.7679954268
 21
6.0258091018
 31
0.0
 11
6.7671608675
 21
6.0282488085
 31
0.0
 11
6.7662796823
 21
6.0306806351
 31
0.0
 11
6.7653517614
 21
6.0331016207
 31
0.0
 11
6.7643778407
 21
6.0355087286
 31
0.0
 11
6.7633599502
 21
6.0378988063
 31
0.0
 11
6.7623002297
 21
6.0402686914
 31
0.0
 11
6.7600638571
 21
6.0449352338
 31
0.0
 11
6.7588914843
 21
6.0472255665
 31
0.0
 11
6.7576858401
 21
6.0494830568
 31
0.0
 11
6.7564490638
 21
6.0517045432
 31
0.0
 11
6.7551830943
 21
6.0538876251
 31
0.0
 11
6.7525688991
 21
6.0581382016
 31
0.0
 11
6.7498533767
 21
6.0622360294
 31
0.0
 11
6.7470465445
 21
6.0661827494
 31
0.0
 11
6.7441583953
 21
6.0699800147
 31
0.0
 11
6.7411964094
 21
6.0736307448
 31
0.0
 11
6.7381633992
 21
6.0771402117
 31
0.0
 11
6.7350616689
 21
6.0805139434
 31
0.0
 11
6.7318935229
 21
6.0837574677
 31
0.0
 11
6.7286609526
 21
6.0868758632
 31
0.0
 11
6.7253649377
 21
6.089872756
 31
0.0
 11
6.7220062536
 21
6.092751479
 31
0.0
 11
6.7185856757
 21
6.095515365
 31
0.0
 11
6.7115614616
 21
6.1007106008
 31
0.0
 11
6.704296076
 21
6.1054782619
 31
0.0
 11
6.6967928935
 21
6.1098340167
 31
0.0
 11
6.689055655
 21
6.1137820833
 31
0.0
 11
6.6810882918
 21
6.1173221212
 31
0.0
 11
6.6728951299
 21
6.1204473126
 31
0.0
 11
6.6644820103
 21
6.1231475676
 31
0.0
 11
6.6558605157
 21
6.1254063325
 31
0.0
  0
SPLINE
  5
2A5
100
AcDbEntity
  8
0
100
AcDbSpline
 62
6
  6
CONTINUOUS
 70
0
 71
3
 72
68
 73
64
 74
62
 42
0.0000001
 43
0.0000001
 44
0.0000000001
 12
0.08501873
 22
0.280096403
 32
0.0
 13
-0.292556816
 23
-0.0096275035
 33
0.0
 40
0.0
 40
0.0
 40
0.0
 40
0.0
 40
0.0304533802
 40
0.060659652
 40
0.0756821665
 40
0.0906551825
 40
0.1055822722
 40
0.1204687357
 40
0.1353243677
 40
0.1501597534
 40
0.1649856261
 40
0.1798128457
 40
0.1946523749
 40
0.209516135
 40
0.2244189704
 40
0.2393768275
 40
0.2544062649
 40
0.2695244076
 40
0.284748976
 40
0.3000992551
 40
0.3155961104
 40
0.3312613926
 40
0.347117852
 40
0.3631880515
 40
0.3794868115
 40
0.3960262349
 40
0.412820404
 40
0.4298845545
 40
0.4472022208
 40
0.4647147224
 40
0.4735256044
 40
0.4823629414
 40
0.4912196263
 40
0.5000883478
 40
0.5089601409
 40
0.5178254322
 40
0.5354968822
 40
0.5442839921
 40
0.5530251818
 40
0.5617104238
 40
0.5703313929
 40
0.587378074
 40
0.604170896
 40
0.6207145659
 40
0.6370116486
 40
0.6530716446
 40
0.6689181338
 40
0.6845751137
 40
0.7000654005
 40
0.7154103026
 40
0.7306294834
 40
0.7457418865
 40
0.7607658218
 40
0.775718691
 40
0.7906164802
 40
0.8054744988
 40
0.8203075369
 40
0.8499472963
 40
0.8796227351
 40
0.9094078286
 40
0.9393656441
 40
0.9695519239
 40
1.0
 40
1.0
 40
1.0
 40
1.0
 10
6.6558605157
 20
6.1254063325
 30
0.0
 10
6.6567235516
 20
6.1282496266
 30
0.0
 10
6.6582883661
 20
6.1339612167
 30
0.0
 10
6.6598500218
 20
6.1411824772
 30
0.0
 10
6.6608580228
 20
6.1469699487
 30
0.0
 10
6.6614939547
 20
6.1513073006
 30
0.0
 10
6.6620121678
 20
6.1556468836
 30
0.0
 10
6.6624134399
 20
6.1599873459
 30
0.0
 10
6.662697179
 20
6.1643281129
 30
0.0
 10
6.6628630351
 20
6.1686690695
 30
0.0
 10
6.6629106212
 20
6.1730101649
 30
0.0
 10
6.6628395477
 20
6.1773513472
 30
0.0
 10
6.6626494788
 20
6.1816926493
 30
0.0
 10
6.6623398158
 20
6.1860344724
 30
0.0
 10
6.6619077395
 20
6.1903774522
 30
0.0
 10
6.6613505846
 20
6.1947224785
 30
0.0
 10
6.66066566
 20
6.1990704893
 30
0.0
 10
6.6598502135
 20
6.2034224118
 30
0.0
 10
6.6589017411
 20
6.2077793503
 30
0.0
 10
6.6578160304
 20
6.2121422512
 30
0.0
 10
6.6565880532
 20
6.2165119753
 30
0.0
 10
6.6552130004
 20
6.2208894919
 30
0.0
 10
6.6536859214
 20
6.225275614
 30
0.0
 10
6.6520027001
 20
6.2296704964
 30
0.0
 10
6.6501563722
 20
6.234071803
 30
0.0
 10
6.6481393284
 20
6.2384754128
 30
0.0
 10
6.6459444924
 20
6.2428768291
 30
0.0
 10
6.6435660994
 20
6.2472684424
 30
0.0
 10
6.6410037948
 20
6.2516368018
 30
0.0
 10
6.6387236405
 20
6.2552341099
 30
0.0
 10
6.6368109977
 20
6.2580823505
 30
0.0
 10
6.6353309317
 20
6.2602032531
 30
0.0
 10
6.6338091233
 20
6.2623013823
 30
0.0
 10
6.6322465046
 20
6.2643735083
 30
0.0
 10
6.6306457863
 20
6.2664174176
 30
0.0
 10
6.6284669838
 20
6.2690988193
 30
0.0
 10
6.6262227376
 20
6.2717157534
 30
0.0
 10
6.6239193609
 20
6.2742635231
 30
0.0
 10
6.6221712422
 20
6.2761307698
 30
0.0
 10
6.6204021694
 20
6.2779556613
 30
0.0
 10
6.6180272628
 20
6.2803212062
 30
0.0
 10
6.6150166563
 20
6.2831685815
 30
0.0
 10
6.6113322595
 20
6.2864244625
 30
0.0
 10
6.6075989841
 20
6.2895105609
 30
0.0
 10
6.6038254283
 20
6.2924317633
 30
0.0
 10
6.6000173389
 20
6.2951934152
 30
0.0
 10
6.5961767902
 20
6.2978000532
 30
0.0
 10
6.5923048858
 20
6.3002575938
 30
0.0
 10
6.5884025964
 20
6.3025720001
 30
0.0
 10
6.5844707874
 20
6.3047489802
 30
0.0
 10
6.5805091396
 20
6.3067919124
 30
0.0
 10
6.5765175585
 20
6.3087042799
 30
0.0
 10
6.5724959553
 20
6.3104895124
 30
0.0
 10
6.5684443107
 20
6.3121510073
 30
0.0
 10
6.5643623196
 20
6.3136911476
 30
0.0
 10
6.5602497419
 20
6.3151122946
 30
0.0
 10
6.5547273791
 20
6.3168509866
 30
0.0
 10
6.5477397456
 20
6.3187407735
 30
0.0
 10
6.5392328892
 20
6.3205531133
 30
0.0
 10
6.5306104078
 20
6.3219119552
 30
0.0
 10
6.5218777045
 20
6.3228105755
 30
0.0
 10
6.5130449233
 20
6.3232419873
 30
0.0
 10
6.5071253229
 20
6.3232091428
 30
0.0
 10
6.5041560588
 20
6.3231114298
 30
0.0
 11
6.6558605157
 21
6.1254063325
 31
0.0
 11
6.6582158167
 21
6.1340037116
 31
0.0
 11
6.6600848409
 21
6.1426457475
 31
0.0
 11
6.6608393838
 21
6.1469778453
 31
0.0
 11
6.6614752192
 21
6.1513143075
 31
0.0
 11
6.6619932994
 21
6.1556528701
 31
0.0
 11
6.6623942094
 21
6.1599918821
 31
0.0
 11
6.6626776896
 21
6.1643311012
 31
0.0
 11
6.6628433624
 21
6.1686704823
 31
0.0
 11
6.66289085
 21
6.1730099806
 31
0.0
 11
6.6628197749
 21
6.1773495509
 31
0.0
 11
6.6626297589
 21
6.1816891484
 31
0.0
 11
6.6623199086
 21
6.1860289495
 31
0.0
 11
6.6618878124
 21
6.1903697828
 31
0.0
 11
6.6613307802
 21
6.1947125965
 31
0.0
 11
6.6606461218
 21
6.1990583387
 31
0.0
 11
6.6598311473
 21
6.2034079576
 31
0.0
 11
6.6588830619
 21
6.2077624025
 31
0.0
 11
6.657797826
 21
6.2121226372
 31
0.0
 11
6.6565705839
 21
6.2164896349
 31
0.0
 11
6.6551964656
 21
6.2208643688
 31
0.0
 11
6.6536706011
 21
6.2252478123
 31
0.0
 11
6.6519879588
 21
6.2296405621
 31
0.0
 11
6.6501420868
 21
6.2340399019
 31
0.0
 11
6.6481257954
 21
6.2384413955
 31
0.0
 11
6.6459318887
 21
6.2428405917
 31
0.0
 11
6.6435533154
 21
6.247232832
 31
0.0
 11
6.6409886816
 21
6.2516053454
 31
0.0
 11
6.6382439589
 21
6.255934799
 31
0.0
 11
6.6368060846
 21
6.2580758655
 31
0.0
 11
6.6353256126
 21
6.2601971516
 31
0.0
 11
6.6338033512
 21
6.2622956522
 31
0.0
 11
6.6322404204
 21
6.2643684552
 31
0.0
 11
6.6306393201
 21
6.2664130608
 31
0.0
 11
6.6290029315
 21
6.2684270829
 31
0.0
 11
6.6256358144
 21
6.272353833
 31
0.0
 11
6.6239108483
 21
6.2742617889
 31
0.0
 11
6.6221621189
 21
6.2761296175
 31
0.0
 11
6.6203925073
 21
6.2779549326
 31
0.0
 11
6.6186046264
 21
6.2797357966
 31
0.0
 11
6.6149795605
 21
6.2831646776
 31
0.0
 11
6.6112963667
 21
6.2864198828
 31
0.0
 11
6.6075641778
 21
6.2895055561
 31
0.0
 11
6.6037920912
 21
6.2924258494
 31
0.0
 11
6.5999863608
 21
6.2951855344
 31
0.0
 11
6.5961483671
 21
6.2977904454
 31
0.0
 11
6.592279012
 21
6.3002465211
 31
0.0
 11
6.5883791969
 21
6.3025596994
 31
0.0
 11
6.5844495801
 21
6.3047353266
 31
0.0
 11
6.5804901516
 21
6.3067771223
 31
0.0
 11
6.5765007876
 21
6.308688529
 31
0.0
 11
6.572481364
 21
6.3104729893
 31
0.0
 11
6.5684317438
 21
6.3121337448
 31
0.0
 11
6.5643517417
 21
6.3136733029
 31
0.0
 11
6.5602411614
 21
6.3150940029
 31
0.0
 11
6.5560998065
 21
6.3163981842
 31
0.0
 11
6.5477247962
 21
6.3186636446
 31
0.0
 11
6.5392292371
 21
6.3204746985
 31
0.0
 11
6.5306169968
 21
6.3218320548
 31
0.0
 11
6.5218940098
 21
6.3227302445
 31
0.0
 11
6.513068535
 21
6.323161035
 31
0.0
 11
6.5041560588
 21
6.3231114298
 31
0.0
  0
SPLINE
  5
2A6
100
AcDbEntity
  8
0
100
AcDbSpline
 62
6
  6
CONTINUOUS
 70
0
 71
3
 72
65
 73
61
 74
59
 42
0.0000001
 43
0.0000001
 44
0.0000000001
 12
0.0096274192
 22
0.2925542556
 32
0.0
 13
-0.2800939516
 23
-0.085017986
 33
0.0
 40
0.0
 40
0.0
 40
0.0
 40
0.0
 40
0.0304530782
 40
0.0606587557
 40
0.0756808185
 40
0.0906532551
 40
0.105579629
 40
0.1204655052
 40
0.1501531303
 40
0.1649787411
 40
0.1798056116
 40
0.1946445954
 40
0.2095077982
 40
0.2244101931
 40
0.2393676988
 40
0.2543968367
 40
0.2695146846
 40
0.2847389715
 40
0.3000890676
 40
0.3155857097
 40
0.3312505669
 40
0.3471061637
 40
0.363174138
 40
0.379469473
 40
0.3960067379
 40
0.4128024662
 40
0.4298719256
 40
0.4471887301
 40
0.4646968571
 40
0.4735058354
 40
0.4823423358
 40
0.4911999047
 40
0.5000709574
 40
0.5089458785
 40
0.5178147418
 40
0.5354933253
 40
0.5442833524
 40
0.5530266231
 40
0.5617128258
 40
0.5703342295
 40
0.5873821175
 40
0.6041764683
 40
0.6207217969
 40
0.6370204113
 40
0.653081182
 40
0.6689277187
 40
0.6845843061
 40
0.700074068
 40
0.7154185946
 40
0.7306375549
 40
0.7457498215
 40
0.7607736376
 40
0.7906210268
 40
0.8203089109
 40
0.8499483859
 40
0.8796236222
 40
0.9094085149
 40
0.939366101
 40
0.9695521371
 40
1.0
 40
1.0
 40
1.0
 40
1.0
 10
6.5041560588
 20
6.3231114298
 30
0.0
 10
6.504253787
 20
6.3260811557
 30
0.0
 10
6.5042870131
 20
6.3320029929
 30
0.0
 10
6.5039264829
 20
6.3393821838
 30
0.0
 10
6.5034022762
 20
6.3452331384
 30
0.0
 10
6.5028940035
 20
6.3495870758
 30
0.0
 10
6.502271464
 20
6.3539127381
 30
0.0
 10
6.501291422
 20
6.3596353924
 30
0.0
 10
6.5000826754
 20
6.3653070423
 30
0.0
 10
6.4986453811
 20
6.3709162322
 30
0.0
 10
6.4974532549
 20
6.3750910058
 30
0.0
 10
6.4961463299
 20
6.3792350771
 30
0.0
 10
6.4947237107
 20
6.3833486961
 30
0.0
 10
6.4931824597
 20
6.3874317374
 30
0.0
 10
6.4915198246
 20
6.3914843975
 30
0.0
 10
6.4897329884
 20
6.3955068823
 30
0.0
 10
6.4878191031
 20
6.3994993902
 30
0.0
 10
6.4857754288
 20
6.4034623325
 30
0.0
 10
6.4835974549
 20
6.4073954185
 30
0.0
 10
6.4812803206
 20
6.411298265
 30
0.0
 10
6.4788192428
 20
6.4151705751
 30
0.0
 10
6.4762094792
 20
6.4190118735
 30
0.0
 10
6.4734469497
 20
6.4228211133
 30
0.0
 10
6.4705249125
 20
6.4265939761
 30
0.0
 10
6.4674370519
 20
6.4303250822
 30
0.0
 10
6.4641774684
 20
6.4340086902
 30
0.0
 10
6.4607433172
 20
6.4376356682
 30
0.0
 10
6.4571384036
 20
6.4411926549
 30
0.0
 10
6.454005787
 20
6.4440771405
 30
0.0
 10
6.4514216701
 20
6.4463328127
 30
0.0
 10
6.4494430901
 20
6.4479980467
 30
0.0
 10
6.4474294803
 20
6.4496303807
 30
0.0
 10
6.4453829932
 20
6.4512273957
 30
0.0
 10
6.4433070265
 20
6.4527877402
 30
0.0
 10
6.4405074565
 20
6.4548147114
 30
0.0
 10
6.4376615799
 20
6.4567627615
 30
0.0
 10
6.4347766276
 20
6.4586286804
 30
0.0
 10
6.4326045374
 20
6.4599804999
 30
0.0
 10
6.4304232951
 20
6.4612857378
 30
0.0
 10
6.4275169537
 20
6.4629562688
 30
0.0
 10
6.4238717538
 20
6.4649275883
 30
0.0
 10
6.4194697981
 20
6.467118966
 30
0.0
 10
6.4150645069
 20
6.4691336162
 30
0.0
 10
6.4106630559
 20
6.4709785176
 30
0.0
 10
6.4062697523
 20
6.4726604536
 30
0.0
 10
6.4018854177
 20
6.4741842624
 30
0.0
 10
6.3975095089
 20
6.475555915
 30
0.0
 10
6.3931413145
 20
6.4767813588
 30
0.0
 10
6.3887801563
 20
6.4778664134
 30
0.0
 10
6.3844248556
 20
6.478814318
 30
0.0
 10
6.3800743753
 20
6.4796283773
 30
0.0
 10
6.3742921273
 20
6.4805376548
 30
0.0
 10
6.3670595734
 20
6.4813593199
 30
0.0
 10
6.35836848
 20
6.4818542819
 30
0.0
 10
6.3496801489
 20
6.4818744055
 30
0.0
 10
6.3409941304
 20
6.4814232521
 30
0.0
 10
6.332313927
 20
6.4805041108
 30
0.0
 10
6.3236463394
 20
6.4791119292
 30
0.0
 10
6.3150030168
 20
6.4772425648
 30
0.0
 10
6.3092937156
 20
6.4756787587
 30
0.0
 10
6.3064509615
 20
6.4748158867
 30
0.0
 11
6.5041560588
 21
6.3231114298
 31
0.0
 11
6.5042059418
 21
6.3320252907
 31
0.0
 11
6.5037745902
 21
6.3408563454
 31
0.0
 11
6.5033822295
 21
6.3452359525
 31
0.0
 11
6.5028740941
 21
6.3495890166
 31
0.0
 11
6.50225169
 21
6.3539135952
 31
0.0
 11
6.5015159464
 21
6.3582083134
 31
0.0
 11
6.4997035802
 21
6.3667071622
 31
0.0
 11
6.4986263378
 21
6.3709109764
 31
0.0
 11
6.4974346426
 21
6.3750841728
 31
0.0
 11
6.4961281803
 21
6.3792265937
 31
0.0
 11
6.494705901
 21
6.3833381934
 31
0.0
 11
6.4931651949
 21
6.3874191623
 31
0.0
 11
6.4915032533
 21
6.3914697215
 31
0.0
 11
6.4897172675
 21
6.3954900918
 31
0.0
 11
6.4878044291
 21
6.3994804941
 31
0.0
 11
6.4857617451
 21
6.4034411022
 31
0.0
 11
6.483584949
 21
6.4073717647
 31
0.0
 11
6.481269235
 21
6.4112721921
 31
0.0
 11
6.4788097957
 21
6.4151420949
 31
0.0
 11
6.4762018234
 21
6.4189811832
 31
0.0
 11
6.4734403249
 21
6.4227884324
 31
0.0
 11
6.4705194325
 21
6.4265593552
 31
0.0
 11
6.4674330208
 21
6.4302884452
 31
0.0
 11
6.4641749645
 21
6.4339701959
 31
0.0
 11
6.4607398359
 21
6.4375984691
 31
0.0
 11
6.4571316582
 21
6.4411585627
 31
0.0
 11
6.4533612585
 21
6.4446296103
 31
0.0
 11
6.4514186557
 21
6.4463251786
 31
0.0
 11
6.4494396136
 21
6.4479906097
 31
0.0
 11
6.4474255177
 21
6.4496232842
 31
0.0
 11
6.4453785236
 21
6.4512209405
 31
0.0
 11
6.4433019658
 21
6.4527818633
 31
0.0
 11
6.4411992784
 21
6.4543043837
 31
0.0
 11
6.4369292517
 21
6.4572275417
 31
0.0
 11
6.4347687808
 21
6.4586248416
 31
0.0
 11
6.432595917
 21
6.4599770634
 31
0.0
 11
6.4304140941
 21
6.4612825389
 31
0.0
 11
6.4282261915
 21
6.4625401585
 31
0.0
 11
6.4238369438
 21
6.4649141682
 31
0.0
 11
6.4194363185
 21
6.46710523
 31
0.0
 11
6.4150321704
 21
6.4691197736
 31
0.0
 11
6.4106323272
 21
6.4709642272
 31
0.0
 11
6.4062418072
 21
6.4726448593
 31
0.0
 11
6.4018604098
 21
6.4741676417
 31
0.0
 11
6.3974873668
 21
6.4755385139
 31
0.0
 11
6.3931219097
 21
6.4767634153
 31
0.0
 11
6.388763224
 21
6.4778477399
 31
0.0
 11
6.3844103449
 21
6.4787951178
 31
0.0
 11
6.3800622777
 21
6.479608823
 31
0.0
 11
6.3757180273
 21
6.4802921295
 31
0.0
 11
6.3670372615
 21
6.4812792286
 31
0.0
 11
6.3583614225
 21
6.4817754514
 31
0.0
 11
6.3496855985
 21
6.4817960546
 31
0.0
 11
6.34101092
 21
6.4813465613
 31
0.0
 11
6.3323409622
 21
6.4804286424
 31
0.0
 11
6.3236828802
 21
6.4790385566
 31
0.0
 11
6.3150467773
 21
6.4771704863
 31
0.0
 11
6.3064509615
 21
6.4748158867
 31
0.0
  0
LINE
  5
2A7
100
AcDbEntity
  8
0
100
AcDbLine
 62
6
  6
CONTINUOUS
 10
6.2912914937
 20
4.700570725
 11
6.3382933776
 21
4.6042025818
  0
SPLINE
  5
2A8
100
AcDbEntity
  8
0
100
AcDbSpline
 62
6
  6
CONTINUOUS
 70
0
 71
3
 72
72
 73
68
 74
66
 42
0.0000001
 43
0.0000001
 44
0.0000000001
 12
-0.066420597
 22
0.285083294
 32
0.0
 13
-0.2485507849
 23
-0.1546178759
 33
0.0
 40
0.0
 40
0.0
 40
0.0
 40
0.0
 40
0.0304458488
 40
0.0606446182
 40
0.0756633723
 40
0.0906326128
 40
0.1055559063
 40
0.1204386145
 40
0.1352905431
 40
0.1501222473
 40
0.1649444277
 40
0.1797679081
 40
0.1946036133
 40
0.209463489
 40
0.2243623956
 40
0.2393162547
 40
0.2543415981
 40
0.2694555215
 40
0.2846757276
 40
0.3000215104
 40
0.315513689
 40
0.331174049
 40
0.347025261
 40
0.3630896166
 40
0.3793819477
 40
0.395915182
 40
0.4127042352
 40
0.4297647416
 40
0.447077707
 40
0.4645846878
 40
0.473392828
 40
0.4822276158
 40
0.491082083
 40
0.4999489903
 40
0.5088193686
 40
0.5176836763
 40
0.5353545769
 40
0.5441421768
 40
0.552884403
 40
0.5615712533
 40
0.5701937684
 40
0.5872414468
 40
0.6040347055
 40
0.6205809832
 40
0.6368854701
 40
0.6529539115
 40
0.6688060734
 40
0.6844663498
 40
0.6999581866
 40
0.7153039896
 40
0.7305248165
 40
0.7456394604
 40
0.7606656909
 40
0.7756207247
 40
0.7905211763
 40
0.8053829972
 40
0.8202202759
 40
0.835044664
 40
0.8498674809
 40
0.86469991
 40
0.8795529738
 40
0.8944375107
 40
0.9093629247
 40
0.92433379
 40
0.9393537306
 40
0.9695538185
 40
1.0
 40
1.0
 40
1.0
 40
1.0
 10
6.3064509615
 20
6.4748158867
 30
0.0
 10
6.3057768843
 20
6.4777090876
 30
0.0
 10
6.3042766493
 20
6.483436532
 30
0.0
 10
6.3020191237
 20
6.490469532
 30
0.0
 10
6.299998986
 20
6.4959843755
 30
0.0
 10
6.2983815786
 20
6.5000576759
 30
0.0
 10
6.2966611626
 20
6.504074077
 30
0.0
 10
6.2948390628
 20
6.5080327957
 30
0.0
 10
6.2929150575
 20
6.5119330461
 30
0.0
 10
6.2908889135
 20
6.5157745562
 30
0.0
 10
6.288760334
 20
6.5195570878
 30
0.0
 10
6.2865290173
 20
6.5232803981
 30
0.0
 10
6.2841946765
 20
6.5269443593
 30
0.0
 10
6.2817565544
 20
6.5305490002
 30
0.0
 10
6.2792118778
 20
6.5340934562
 30
0.0
 10
6.2765579072
 20
6.5375771733
 30
0.0
 10
6.2737918509
 20
6.5409996179
 30
0.0
 10
6.2709108738
 20
6.5443602212
 30
0.0
 10
6.2679122525
 20
6.5476586857
 30
0.0
 10
6.2647918307
 20
6.5508936874
 30
0.0
 10
6.2615448815
 20
6.5540635025
 30
0.0
 10
6.2581667937
 20
6.5571665869
 30
0.0
 10
6.2546529414
 20
6.560201196
 30
0.0
 10
6.2509996985
 20
6.5631653938
 30
0.0
 10
6.2472020165
 20
6.5660535391
 30
0.0
 10
6.2432552916
 20
6.5688584262
 30
0.0
 10
6.239155493
 20
6.5715727644
 30
0.0
 10
6.2349015786
 20
6.5741870845
 30
0.0
 10
6.2305001773
 20
6.5766895853
 30
0.0
 10
6.2267284661
 20
6.578665333
 30
0.0
 10
6.2236492447
 20
6.5801759989
 30
0.0
 10
6.2213079157
 20
6.5812729812
 30
0.0
 10
6.2189417072
 20
6.5823293592
 30
0.0
 10
6.2165530394
 20
6.5833428426
 30
0.0
 10
6.2141453814
 20
6.5843129297
 30
0.0
 10
6.2109182891
 20
6.585546324
 30
0.0
 10
6.2076665911
 20
6.5866913159
 30
0.0
 10
6.204398096
 20
6.5877470346
 30
0.0
 10
6.2019504696
 20
6.5884909225
 30
0.0
 10
6.1995057854
 20
6.5891877682
 30
0.0
 10
6.1962661782
 20
6.5900502684
 30
0.0
 10
6.1922352278
 20
6.5910123357
 30
0.0
 10
6.1874163381
 20
6.5919912689
 30
0.0
 10
6.1826392905
 20
6.5927985194
 30
0.0
 10
6.1779089234
 20
6.5934423349
 30
0.0
 10
6.1732281918
 20
6.5939314139
 30
0.0
 10
6.168597256
 20
6.5942706283
 30
0.0
 10
6.1640143063
 20
6.5944647403
 30
0.0
 10
6.1594770005
 20
6.5945187026
 30
0.0
 10
6.1549830213
 20
6.5944373879
 30
0.0
 10
6.1505301541
 20
6.5942258847
 30
0.0
 10
6.1461164563
 20
6.5938868951
 30
0.0
 10
6.1417402449
 20
6.593422834
 30
0.0
 10
6.1373998769
 20
6.5928362068
 30
0.0
 10
6.1330937196
 20
6.5921294542
 30
0.0
 10
6.1288202205
 20
6.5913052203
 30
0.0
 10
6.1245782268
 20
6.5903655209
 30
0.0
 10
6.1203673436
 20
6.5893105568
 30
0.0
 10
6.1161873755
 20
6.5881408574
 30
0.0
 10
6.11203816
 20
6.5868568818
 30
0.0
 10
6.1079195307
 20
6.5854591102
 30
0.0
 10
6.1038314346
 20
6.5839480587
 30
0.0
 10
6.0997743388
 20
6.5823244724
 30
0.0
 10
6.0957499362
 20
6.5805877538
 30
0.0
 10
6.0904215069
 20
6.5781165132
 30
0.0
 10
6.0838518522
 20
6.5747396421
 30
0.0
 10
6.0787409734
 20
6.5717504697
 30
0.0
 10
6.0762184993
 20
6.570181295
 30
0.0
 11
6.3064509615
 21
6.4748158867
 31
0.0
 11
6.3041926098
 21
6.4834370684
 31
0.0
 11
6.3014910174
 21
6.4918538629
 31
0.0
 11
6.299978904
 21
6.4959819002
 31
0.0
 11
6.2983618583
 21
6.500054383
 31
0.0
 11
6.2966418361
 21
6.5040698272
 31
0.0
 11
6.2948201493
 21
6.5080271085
 31
0.0
 11
6.2928966943
 21
6.5119258927
 31
0.0
 11
6.290871179
 21
6.5157659509
 31
0.0
 11
6.2887433117
 21
6.519547054
 31
0.0
 11
6.2865128004
 21
6.5232689731
 31
0.0
 11
6.2841793523
 21
6.526931479
 31
0.0
 11
6.2817420773
 21
6.5305342725
 31
0.0
 11
6.2791984569
 21
6.534076863
 31
0.0
 11
6.2765456972
 21
6.5375587279
 31
0.0
 11
6.2737810046
 21
6.5409793443
 31
0.0
 11
6.2709015854
 21
6.5443381893
 31
0.0
 11
6.2679045395
 21
6.5476346809
 31
0.0
 11
6.2647858666
 21
6.5508676221
 31
0.0
 11
6.2615409158
 21
6.5540354523
 31
0.0
 11
6.2581650276
 21
6.5571366064
 31
0.0
 11
6.2546535428
 21
6.5601695192
 31
0.0
 11
6.2510018433
 21
6.5631321282
 31
0.0
 11
6.2472056127
 21
6.5660187606
 31
0.0
 11
6.2432606676
 21
6.5688221502
 31
0.0
 11
6.239162825
 21
6.571535024
 31
0.0
 11
6.23490824
 21
6.5741499464
 31
0.0
 11
6.2305027427
 21
6.5766548345
 31
0.0
 11
6.2259630318
 21
6.5790323846
 31
0.0
 11
6.2236482451
 21
6.5801679138
 31
0.0
 11
6.2213063835
 21
6.5812650156
 31
0.0
 11
6.2189396066
 21
6.5823214923
 31
0.0
 11
6.2165503342
 21
6.5833354168
 31
0.0
 11
6.2141419997
 21
6.5843059144
 31
0.0
 11
6.2117182832
 21
6.585232367
 31
0.0
 11
6.2068394249
 21
6.5869506646
 31
0.0
 11
6.2043916435
 21
6.5877412732
 31
0.0
 11
6.2019432006
 21
6.5884853641
 31
0.0
 11
6.1994977765
 21
6.5891823191
 31
0.0
 11
6.1970587673
 21
6.5898316737
 31
0.0
 11
6.1922049822
 21
6.5909903768
 31
0.0
 11
6.1873877363
 21
6.5919692746
 31
0.0
 11
6.1826120944
 21
6.5927766157
 31
0.0
 11
6.1778831213
 21
6.5934206487
 31
0.0
 11
6.1732050353
 21
6.5939092413
 31
0.0
 11
6.1685772003
 21
6.5942480768
 31
0.0
 11
6.1639972524
 21
6.5944420614
 31
0.0
 11
6.1594628256
 21
6.5944961002
 31
0.0
 11
6.154971554
 21
6.5944150983
 31
0.0
 11
6.1505211537
 21
6.5942036805
 31
0.0
 11
6.1461098075
 21
6.5938648792
 31
0.0
 11
6.1417358624
 21
6.5934011654
 31
0.0
 11
6.137397666
 21
6.5928150096
 31
0.0
 11
6.1330935654
 21
6.5921088819
 31
0.0
 11
6.128821914
 21
6.591285245
 31
0.0
 11
6.1245815691
 21
6.5903458805
 31
0.0
 11
6.1203722704
 21
6.5892913796
 31
0.0
 11
6.1161938465
 21
6.5881222129
 31
0.0
 11
6.1120461262
 21
6.5868388512
 31
0.0
 11
6.107928938
 21
6.5854417654
 31
0.0
 11
6.1038421107
 21
6.5839314262
 31
0.0
 11
6.0997859154
 21
6.5823081667
 31
0.0
 11
6.0957623481
 21
6.5805717831
 31
0.0
 11
6.091773825
 21
6.5787219408
 31
0.0
 11
6.0839115764
 21
6.5746805423
 31
0.0
 11
6.0762184993
 21
6.570181295
 31
0.0
  0
SPLINE
  5
2A9
100
AcDbEntity
  8
0
100
AcDbSpline
 62
6
  6
CONTINUOUS
 70
0
 71
3
 72
65
 73
61
 74
59
 42
0.0000001
 43
0.0000001
 44
0.0000000001
 12
-0.1379395381
 22
0.2581731269
 32
0.0
 13
-0.2000594845
 23
-0.2136747114
 33
0.0
 40
0.0
 40
0.0
 40
0.0
 40
0.0
 40
0.0304530782
 40
0.0606587557
 40
0.0756808185
 40
0.0906532551
 40
0.105579629
 40
0.1204655052
 40
0.1501531303
 40
0.1649787411
 40
0.1798056116
 40
0.1946445954
 40
0.2095077982
 40
0.2244101931
 40
0.2393676988
 40
0.2543968367
 40
0.2695146846
 40
0.2847389715
 40
0.3000890676
 40
0.3155857097
 40
0.3312505669
 40
0.3471061637
 40
0.363174138
 40
0.379469473
 40
0.3960067379
 40
0.4128024662
 40
0.4298719256
 40
0.4471887301
 40
0.4646968571
 40
0.4735058354
 40
0.4823423358
 40
0.4911999047
 40
0.5000709574
 40
0.5089458785
 40
0.5178147418
 40
0.5354933253
 40
0.5442833524
 40
0.5530266231
 40
0.5617128258
 40
0.5703342295
 40
0.5873821175
 40
0.6041764683
 40
0.6207217969
 40
0.6370204113
 40
0.653081182
 40
0.6689277187
 40
0.6845843061
 40
0.700074068
 40
0.7154185946
 40
0.7306375549
 40
0.7457498215
 40
0.7607736376
 40
0.7906210268
 40
0.8203089109
 40
0.8499483859
 40
0.8796236222
 40
0.9094085149
 40
0.939366101
 40
0.9695521371
 40
1.0
 40
1.0
 40
1.0
 40
1.0
 10
6.0762184993
 20
6.570181295
 30
0.0
 10
6.0748182715
 20
6.5728020172
 30
0.0
 10
6.0718861275
 20
6.5779470916
 30
0.0
 10
6.0678843038
 20
6.5841573933
 30
0.0
 10
6.0645048501
 20
6.5889623653
 30
0.0
 10
6.0618877044
 20
6.5924788494
 30
0.0
 10
6.0591857382
 20
6.595913713
 30
0.0
 10
6.0554756698
 20
6.600379656
 30
0.0
 10
6.0515930396
 20
6.6046870756
 30
0.0
 10
6.0475437112
 20
6.6088261294
 30
0.0
 10
6.0444239129
 20
6.6118455264
 30
0.0
 10
6.041220047
 20
6.6147809349
 30
0.0
 10
6.0379312131
 20
6.6176321238
 30
0.0
 10
6.0345549299
 20
6.6203975158
 30
0.0
 10
6.0310887156
 20
6.6230759048
 30
0.0
 10
6.0275300278
 20
6.6256660608
 30
0.0
 10
6.0238763005
 20
6.6281667313
 30
0.0
 10
6.0201249555
 20
6.6305769029
 30
0.0
 10
6.0162722317
 20
6.6328940684
 30
0.0
 10
6.0123141114
 20
6.6351154654
 30
0.0
 10
6.0082466004
 20
6.6372384455
 30
0.0
 10
6.0040658297
 20
6.6392602256
 30
0.0
 10
5.999768789
 20
6.6411778594
 30
0.0
 10
5.9953517991
 20
6.6429842358
 30
0.0
 10
5.9908120804
 20
6.6446715381
 30
0.0
 10
5.9861473942
 20
6.6462318445
 30
0.0
 10
5.981359843
 20
6.647655824
 30
0.0
 10
5.976459403
 20
6.648933808
 30
0.0
 10
5.9723042346
 20
6.6498655375
 30
0.0
 10
5.9689384876
 20
6.6505269485
 30
0.0
 10
5.9663923701
 20
6.6509797934
 30
0.0
 10
5.9638323658
 20
6.6513866313
 30
0.0
 10
5.9612615485
 20
6.6517464433
 30
0.0
 10
5.9586835363
 20
6.6520597579
 30
0.0
 10
5.955245552
 20
6.6524153814
 30
0.0
 10
5.9518069255
 20
6.652679504
 30
0.0
 10
5.9483755241
 20
6.652852961
 30
0.0
 10
5.9458185291
 20
6.652937626
 30
0.0
 10
5.9432768988
 20
6.652977374
 30
0.0
 10
5.9399246679
 20
6.6529709256
 30
0.0
 10
5.9357821724
 20
6.6528555384
 30
0.0
 10
5.9308742781
 20
6.6525523493
 30
0.0
 10
5.9260518589
 20
6.652094442
 30
0.0
 10
5.9213176399
 20
6.651491448
 30
0.0
 10
5.9166719593
 20
6.6507513955
 30
0.0
 10
5.9121131098
 20
6.6498788853
 30
0.0
 10
5.9076376353
 20
6.6488788169
 30
0.0
 10
5.903241946
 20
6.6477559851
 30
0.0
 10
5.898922545
 20
6.6465150909
 30
0.0
 10
5.8946767916
 20
6.6451583499
 30
0.0
 10
5.8905021355
 20
6.6436881059
 30
0.0
 10
5.8850399231
 20
6.6415844393
 30
0.0
 10
5.8783655151
 20
6.6386797451
 30
0.0
 10
5.8705913265
 20
6.6347628481
 30
0.0
 10
5.8630569493
 20
6.6304361102
 30
0.0
 10
5.8557602133
 20
6.6257023906
 30
0.0
 10
5.8487025073
 20
6.6205662892
 30
0.0
 10
5.841892247
 20
6.6150268307
 30
0.0
 10
5.8353415923
 20
6.6090862524
 30
0.0
 10
5.8311790954
 20
6.604877306
 30
0.0
 10
5.8291486342
 20
6.6027086598
 30
0.0
 11
6.0762184993
 21
6.570181295
 31
0.0
 11
6.0718047688
 21
6.5779258664
 31
0.0
 11
6.06701568
 21
6.5853581083
 31
0.0
 11
6.0644860822
 21
6.588954779
 31
0.0
 11
6.0618694919
 21
6.5924705754
 31
0.0
 11
6.0591681849
 21
6.5959045684
 31
0.0
 11
6.0563836532
 21
6.5992560316
 31
0.0
 11
6.0505646736
 21
6.6057100674
 31
0.0
 11
6.0475298472
 21
6.6088120561
 31
0.0
 11
6.0444112107
 21
6.6118303026
 31
0.0
 11
6.0412085707
 21
6.6147645133
 31
0.0
 11
6.0379210408
 21
6.6176141233
 31
0.0
 11
6.0345462657
 21
6.620377993
 31
0.0
 11
6.0310817025
 21
6.6230549094
 31
0.0
 11
6.0275248083
 21
6.6256436593
 31
0.0
 11
6.0238730404
 21
6.6281430298
 31
0.0
 11
6.0201237202
 21
6.6305516751
 31
0.0
 11
6.0162732282
 21
6.6328673306
 31
0.0
 11
6.0123175474
 21
6.6350873429
 31
0.0
 11
6.008252659
 21
6.6372090573
 31
0.0
 11
6.0040745446
 21
6.6392298192
 31
0.0
 11
5.9997793922
 21
6.6411462445
 31
0.0
 11
5.9953643637
 21
6.6429515132
 31
0.0
 11
5.9908269078
 21
6.644637794
 31
0.0
 11
5.986164473
 21
6.6461972556
 31
0.0
 11
5.9813754277
 21
6.6476218679
 31
0.0
 11
5.9764706074
 21
6.6489009106
 31
0.0
 11
5.9714698217
 21
6.6500217261
 31
0.0
 11
5.9689396941
 21
6.65051883
 31
0.0
 11
5.9663930779
 21
6.6509716145
 31
0.0
 11
5.9638324824
 21
6.6513785043
 31
0.0
 11
5.9612609054
 21
6.6517386181
 31
0.0
 11
5.9586820921
 21
6.652052138
 31
0.0
 11
5.9560998512
 21
6.6523193356
 31
0.0
 11
5.9509403206
 21
6.6527158514
 31
0.0
 11
5.948370648
 21
6.6528457131
 31
0.0
 11
5.9458127819
 21
6.6529303397
 31
0.0
 11
5.94327053
 21
6.6529700032
 31
0.0
 11
5.940746941
 21
6.6529651824
 31
0.0
 11
5.9357587361
 21
6.6528265112
 31
0.0
 11
5.9308521519
 21
6.6525237138
 31
0.0
 11
5.926030776
 21
6.6520662857
 31
0.0
 11
5.9212981732
 21
6.6514637078
 31
0.0
 11
5.9166555553
 21
6.6507239179
 31
0.0
 11
5.9120997627
 21
6.6498519874
 31
0.0
 11
5.9076271602
 21
6.6488526761
 31
0.0
 11
5.9032341128
 21
6.6477307432
 31
0.0
 11
5.8989172179
 21
6.646490453
 31
0.0
 11
5.8946738251
 21
6.6451344668
 31
0.0
 11
5.8905014358
 21
6.6436651225
 31
0.0
 11
5.8863975514
 21
6.6420847582
 31
0.0
 11
5.8783862381
 21
6.6385992282
 31
0.0
 11
5.8706246297
 21
6.6346910502
 31
0.0
 11
5.8631008442
 21
6.630370981
 31
0.0
 11
5.8558130989
 21
6.6256443692
 31
0.0
 11
5.8487636546
 21
6.6205144492
 31
0.0
 11
5.8419605786
 21
6.6149815586
 31
0.0
 11
5.8354155293
 21
6.6090457108
 31
0.0
 11
5.8291486342
 21
6.6027086598
 31
0.0
  0
LINE
  5
2AA
100
AcDbEntity
  8
0
100
AcDbLine
 62
6
  6
CONTINUOUS
 10
6.418665096
 20
4.7741099085
 11
6.4786214141
 21
4.6852210115
  0
SPLINE
  5
2AB
100
AcDbEntity
  8
0
100
AcDbSpline
 62
6
  6
CONTINUOUS
 70
0
 71
3
 72
28
 73
24
 74
22
 42
0.0000001
 43
0.0000001
 44
0.0000000001
 12
-0.0313130745
 22
-0.1000348099
 32
0.0
 13
0.0154529741
 23
-0.1036758285
 33
0.0
 40
0.0
 40
0.0
 40
0.0
 40
0.0
 40
0.0659295976
 40
0.1330502352
 40
0.2010062883
 40
0.2694319707
 40
0.3379601226
 40
0.4062229923
 40
0.4738532901
 40
0.5404873949
 40
0.605778502
 40
0.6693896719
 40
0.7309970198
 40
0.7609629876
 40
0.7903274065
 40
0.8190591474
 40
0.8471278562
 40
0.8745039041
 40
0.9011578766
 40
0.9270611625
 40
0.952186329
 40
0.9765073682
 40
1.0
 40
1.0
 40
1.0
 40
1.0
 10
6.8555145452
 20
5.4608172492
 30
0.0
 10
6.8548263924
 20
5.4586188309
 30
0.0
 10
6.8534913471
 20
5.4541653036
 30
0.0
 10
6.8516276311
 20
5.4473933009
 30
0.0
 10
6.8498902303
 20
5.4404978112
 30
0.0
 10
6.8482878742
 20
5.4335192566
 30
0.0
 10
6.8468294567
 20
5.426498258
 30
0.0
 10
6.8455235325
 20
5.4194755611
 30
0.0
 10
6.8443784986
 20
5.4124918717
 30
0.0
 10
6.8434028017
 20
5.405587332
 30
0.0
 10
6.8426038672
 20
5.3988014305
 30
0.0
 10
6.8419887072
 20
5.392172736
 30
0.0
 10
6.8416318194
 20
5.3867615035
 30
0.0
 10
6.8414469347
 20
5.3825398019
 30
0.0
 10
6.8413595526
 20
5.3794639872
 30
0.0
 10
6.8413228154
 20
5.37645344
 30
0.0
 10
6.8413373896
 20
5.3735121634
 30
0.0
 10
6.8414039384
 20
5.3706442064
 30
0.0
 10
6.8415226175
 20
5.3678536445
 30
0.0
 10
6.8416935764
 20
5.3651445781
 30
0.0
 10
6.8419169669
 20
5.3625211015
 30
0.0
 10
6.8421929359
 20
5.3599873381
 30
0.0
 10
6.8424160098
 20
5.3583314342
 30
0.0
 10
6.8425370201
 20
5.3575195615
 30
0.0
 11
6.8555145452
 21
5.4608172492
 31
0.0
 11
6.8535281995
 21
5.4541980495
 31
0.0
 11
6.8516598724
 21
5.4474149903
 31
0.0
 11
6.8499185414
 21
5.4405078789
 31
0.0
 11
6.848313054
 21
5.4335174163
 31
0.0
 11
6.8468522318
 21
5.4264843268
 31
0.0
 11
6.8455446834
 21
5.4194494173
 31
0.0
 11
6.8443989057
 21
5.4124535385
 31
0.0
 11
6.8434232778
 21
5.4055373498
 31
0.0
 11
6.8426253397
 21
5.3987401368
 31
0.0
 11
6.8420122654
 21
5.3921005859
 31
0.0
 11
6.8415910077
 21
5.3856565879
 31
0.0
 11
6.8414541347
 21
5.3825185045
 31
0.0
 11
6.8413673242
 21
5.379441717
 31
0.0
 11
6.8413312455
 21
5.3764302392
 31
0.0
 11
6.8413465676
 21
5.373488085
 31
0.0
 11
6.8414138746
 21
5.3706192859
 31
0.0
 11
6.8415334107
 21
5.3678279443
 31
0.0
 11
6.8417053346
 21
5.3651181808
 31
0.0
 11
6.841929805
 21
5.3624941156
 31
0.0
 11
6.8422069806
 21
5.359959869
 31
0.0
 11
6.8425370201
 21
5.3575195615
 31
0.0
  0
SPLINE
  5
2AC
100
AcDbEntity
  8
0
100
AcDbSpline
 62
6
  6
CONTINUOUS
 70
0
 71
3
 72
39
 73
35
 74
33
 42
0.0000001
 43
0.0000001
 44
0.0000000001
 12
-0.0968274312
 22
-0.1134602488
 32
0.0
 13
0.0012432735
 23
-0.1491550661
 33
0.0
 40
0.0
 40
0.0
 40
0.0
 40
0.0
 40
0.0243882939
 40
0.0500090019
 40
0.0768058967
 40
0.1047180532
 40
0.1336813432
 40
0.1636303058
 40
0.1944972173
 40
0.2262121437
 40
0.258700224
 40
0.2918731203
 40
0.3256384257
 40
0.359902781
 40
0.394571005
 40
0.4295433514
 40
0.4647187213
 40
0.4999957312
 40
0.535272839
 40
0.5704483959
 40
0.6054208588
 40
0.64008897
 40
0.6743530284
 40
0.7081180137
 40
0.7412905806
 40
0.7737783395
 40
0.80549354
 40
0.8363616204
 40
0.8663122961
 40
0.8952775009
 40
0.9231914222
 40
0.949989729
 40
0.9756113704
 40
1.0
 40
1.0
 40
1.0
 40
1.0
 10
6.8425370201
 20
5.3575195615
 30
0.0
 10
6.8417498682
 20
5.3565971942
 30
0.0
 10
6.8401748387
 20
5.3546722746
 30
0.0
 10
6.8378635474
 20
5.3516315016
 30
0.0
 10
6.835549925
 20
5.3483750747
 30
0.0
 10
6.8332404301
 20
5.3449141557
 30
0.0
 10
6.8309414598
 20
5.3412597569
 30
0.0
 10
6.8286580444
 20
5.3374236829
 30
0.0
 10
6.8263950844
 20
5.3334176537
 30
0.0
 10
6.8241575651
 20
5.3292535145
 30
0.0
 10
6.82195078
 20
5.3249438194
 30
0.0
 10
6.8197799775
 20
5.320502162
 30
0.0
 10
6.817650784
 20
5.3159427686
 30
0.0
 10
6.8155689081
 20
5.3112800501
 30
0.0
 10
6.8135401403
 20
5.3065286672
 30
0.0
 10
6.8115700278
 20
5.3017037137
 30
0.0
 10
6.8096642297
 20
5.2968204964
 30
0.0
 10
6.8078284174
 20
5.2918943688
 30
0.0
 10
6.8060682599
 20
5.2869406951
 30
0.0
 10
6.8043892894
 20
5.2819748976
 30
0.0
 10
6.8027970393
 20
5.2770124025
 30
0.0
 10
6.8012970236
 20
5.2720685841
 30
0.0
 10
6.7998946845
 20
5.2671585713
 30
0.0
 10
6.7985950006
 20
5.262297308
 30
0.0
 10
6.7974028693
 20
5.2574994908
 30
0.0
 10
6.7963231317
 20
5.2527796012
 30
0.0
 10
6.7953604824
 20
5.2481513854
 30
0.0
 10
6.7945189235
 20
5.2436278382
 30
0.0
 10
6.7938022728
 20
5.239221253
 30
0.0
 10
6.7932143506
 20
5.2349438052
 30
0.0
 10
6.7927588671
 20
5.2308078207
 30
0.0
 10
6.7924379788
 20
5.2268258831
 30
0.0
 10
6.7922539311
 20
5.2230107144
 30
0.0
 10
6.7922231487
 20
5.2205236678
 30
0.0
 10
6.7922332559
 20
5.2193111052
 30
0.0
 11
6.8425370201
 21
5.3575195615
 31
0.0
 11
6.8402303318
 21
5.3547066421
 31
0.0
 11
6.8379151099
 21
5.3516661971
 31
0.0
 11
6.8355977954
 21
5.3484094633
 31
0.0
 11
6.8332848298
 21
5.344947678
 31
0.0
 11
6.8309824346
 21
5.3412921536
 31
0.0
 11
6.8286958064
 21
5.3374545555
 31
0.0
 11
6.8264298419
 21
5.333446652
 31
0.0
 11
6.8241894381
 21
5.3292802114
 31
0.0
 11
6.8219796296
 21
5.3249674647
 31
0.0
 11
6.8198059707
 21
5.3205223913
 31
0.0
 11
6.8176741388
 21
5.3159593842
 31
0.0
 11
6.8155898115
 21
5.3112928361
 31
0.0
 11
6.8135586651
 21
5.3065373198
 31
0.0
 11
6.8115863728
 21
5.3017080582
 31
0.0
 11
6.8096786073
 21
5.2968204214
 31
0.0
 11
6.8078410409
 21
5.2918897794
 31
0.0
 11
6.8060793227
 21
5.2869315152
 31
0.0
 11
6.8043990163
 21
5.2819610599
 31
0.0
 11
6.8028056656
 21
5.2769938556
 31
0.0
 11
6.8013048143
 21
5.2720453444
 31
0.0
 11
6.7999018927
 21
5.2671308302
 31
0.0
 11
6.7986019088
 21
5.2622651029
 31
0.0
 11
6.7974097723
 21
5.2574628332
 31
0.0
 11
6.7963303932
 21
5.2527386915
 31
0.0
 11
6.7953684751
 21
5.2481068737
 31
0.0
 11
6.7945280118
 21
5.2435799418
 31
0.0
 11
6.7938128449
 21
5.2391701065
 31
0.0
 11
6.7932268155
 21
5.2348895785
 31
0.0
 11
6.7927734289
 21
5.2307506898
 31
0.0
 11
6.7924551745
 21
5.2267661373
 31
0.0
 11
6.7922743508
 21
5.2229486871
 31
0.0
 11
6.7922332559
 21
5.2193111052
 31
0.0
  0
SPLINE
  5
2AD
100
AcDbEntity
  8
0
100
AcDbSpline
 62
6
  6
CONTINUOUS
 70
0
 71
3
 72
39
 73
35
 74
33
 42
0.0000001
 43
0.0000001
 44
0.0000000001
 12
-0.111675728
 22
-0.0988802876
 32
0.0
 13
-0.019527199
 23
-0.1478765295
 33
0.0
 40
0.0
 40
0.0
 40
0.0
 40
0.0
 40
0.0243882939
 40
0.0500090019
 40
0.0768058967
 40
0.1047180532
 40
0.1336813432
 40
0.1636303058
 40
0.1944972173
 40
0.2262121437
 40
0.258700224
 40
0.2918731203
 40
0.3256384257
 40
0.359902781
 40
0.394571005
 40
0.4295433514
 40
0.4647187213
 40
0.4999957312
 40
0.535272839
 40
0.5704483959
 40
0.6054208588
 40
0.64008897
 40
0.6743530284
 40
0.7081180137
 40
0.7412905806
 40
0.7737783395
 40
0.80549354
 40
0.8363616204
 40
0.8663122961
 40
0.8952775009
 40
0.9231914222
 40
0.949989729
 40
0.9756113704
 40
1.0
 40
1.0
 40
1.0
 40
1.0
 10
6.7922332559
 20
5.2193111052
 30
0.0
 10
6.7913253958
 20
5.2185072647
 30
0.0
 10
6.7894977973
 20
5.2168202799
 30
0.0
 10
6.7867858055
 20
5.2141307692
 30
0.0
 10
6.7840414921
 20
5.2112280276
 30
0.0
 10
6.7812728062
 20
5.2081222095
 30
0.0
 10
6.7784876154
 20
5.20482333
 30
0.0
 10
6.7756925436
 20
5.2013423784
 30
0.0
 10
6.7728940751
 20
5.1976902788
 30
0.0
 10
6.7700987951
 20
5.1938780671
 30
0.0
 10
6.7673136926
 20
5.1899174388
 30
0.0
 10
6.764545857
 20
5.1858211247
 30
0.0
 10
6.7618028397
 20
5.1816024294
 30
0.0
 10
6.7590922995
 20
5.1772748293
 30
0.0
 10
6.7564220109
 20
5.1728520364
 30
0.0
 10
6.7537995676
 20
5.1683482257
 30
0.0
 10
6.7512327041
 20
5.1637777674
 30
0.0
 10
6.7487291734
 20
5.1591550762
 30
0.0
 10
6.7462967275
 20
5.1544945779
 30
0.0
 10
6.7439429911
 20
5.1498107748
 30
0.0
 10
6.7416755909
 20
5.1451181726
 30
0.0
 10
6.7395021267
 20
5.140431229
 30
0.0
 10
6.7374300933
 20
5.135764168
 30
0.0
 10
6.7354665008
 20
5.1311310952
 30
0.0
 10
6.7336182441
 20
5.1265458827
 30
0.0
 10
6.7318921328
 20
5.1220221971
 30
0.0
 10
6.7302947288
 20
5.1175729977
 30
0.0
 10
6.7288318038
 20
5.1132105957
 30
0.0
 10
6.7275088494
 20
5.1089466336
 30
0.0
 10
6.7263313431
 20
5.1047926366
 30
0.0
 10
6.7253046745
 20
5.1007602943
 30
0.0
 10
6.7244327305
 20
5.0968617677
 30
0.0
 10
6.723719505
 20
5.0931093424
 30
0.0
 10
6.7233428922
 20
5.0906507836
 30
0.0
 10
6.723184145
 20
5.0894486149
 30
0.0
 11
6.7922332559
 21
5.2193111052
 31
0.0
 11
6.7895575334
 21
5.2168465899
 31
0.0
 11
6.7868416949
 21
5.2141579509
 31
0.0
 11
6.7840936827
 21
5.2112554193
 31
0.0
 11
6.7813214392
 21
5.2081492264
 31
0.0
 11
6.7785327002
 21
5.2048497088
 31
0.0
 11
6.7757342348
 21
5.2013676951
 31
0.0
 11
6.7729325301
 21
5.1977141575
 31
0.0
 11
6.7701340734
 21
5.1939000684
 31
0.0
 11
6.7673455522
 21
5.1899368389
 31
0.0
 11
6.7645744126
 21
5.1858375396
 31
0.0
 11
6.7618282797
 21
5.1816156329
 31
0.0
 11
6.7591147789
 21
5.1772845817
 31
0.0
 11
6.7564415595
 21
5.1728580267
 31
0.0
 11
6.7538163582
 21
5.1683502532
 31
0.0
 11
6.7512469313
 21
5.1637756922
 31
0.0
 11
6.7487410352
 21
5.1591487746
 31
0.0
 11
6.746306405
 21
5.1544839477
 31
0.0
 11
6.7439506976
 21
5.1497957179
 31
0.0
 11
6.741681552
 21
5.1450986057
 31
0.0
 11
6.7395066072
 21
5.1404071313
 31
0.0
 11
6.7374333706
 21
5.1357356937
 31
0.0
 11
6.7354688597
 21
5.1310982422
 31
0.0
 11
6.7336199782
 21
5.1265086211
 31
0.0
 11
6.7318936301
 21
5.121980675
 31
0.0
 11
6.7302964488
 21
5.1175278068
 31
0.0
 11
6.7288341378
 21
5.1131619006
 31
0.0
 11
6.7275122003
 21
5.1088945135
 31
0.0
 11
6.7263361398
 21
5.1047372029
 31
0.0
 11
6.7253111435
 21
5.1007016927
 31
0.0
 11
6.7244414439
 21
5.0968002101
 31
0.0
 11
6.7237310935
 21
5.0930450768
 31
0.0
 11
6.723184145
 21
5.0894486149
 31
0.0
  0
LINE
  5
2AE
100
AcDbEntity
  8
0
100
AcDbLine
 62
6
  6
CONTINUOUS
 10
6.534564431
 20
4.8646603931
 11
6.6063082018
 21
4.7849808634
  0
SPLINE
  5
2AF
100
AcDbEntity
  8
0
100
AcDbSpline
 62
6
  6
CONTINUOUS
 70
0
 71
3
 72
39
 73
35
 74
33
 42
0.0000001
 43
0.0000001
 44
0.0000000001
 12
-0.1243503884
 22
-0.0823757371
 32
0.0
 13
-0.0399175983
 23
-0.1437197498
 33
0.0
 40
0.0
 40
0.0
 40
0.0
 40
0.0
 40
0.0243877778
 40
0.0500073715
 40
0.076803266
 40
0.1047152601
 40
0.1336797639
 40
0.1636308869
 40
0.194500178
 40
0.2262169791
 40
0.2587061527
 40
0.2918795782
 40
0.3256448635
 40
0.3599086593
 40
0.3945759441
 40
0.4295472294
 40
0.4647215796
 40
0.4999977743
 40
0.5352743943
 40
0.5704497534
 40
0.6054222316
 40
0.640090494
 40
0.6743547729
 40
0.7081201526
 40
0.7412934648
 40
0.7737824981
 40
0.8054992996
 40
0.8363687241
 40
0.8663200331
 40
0.8952846959
 40
0.9231967638
 40
0.9499926657
 40
0.9756122374
 40
1.0
 40
1.0
 40
1.0
 40
1.0
 10
6.723184145
 20
5.0894486149
 30
0.0
 10
6.7221732685
 20
5.0887789612
 30
0.0
 10
6.7201287308
 20
5.0873628061
 30
0.0
 10
6.7170689117
 20
5.085077007
 30
0.0
 10
6.7139474018
 20
5.0825845306
 30
0.0
 10
6.7107734247
 20
5.0798942477
 30
0.0
 10
6.7075561262
 20
5.0770149658
 30
0.0
 10
6.7043035967
 20
5.0739566891
 30
0.0
 10
6.7010238557
 20
5.0707293849
 30
0.0
 10
6.6977250234
 20
5.067343123
 30
0.0
 10
6.6944156956
 20
5.0638085213
 30
0.0
 10
6.6911046635
 20
5.0601372054
 30
0.0
 10
6.6878012356
 20
5.0563413032
 30
0.0
 10
6.684514852
 20
5.0524330984
 30
0.0
 10
6.681255103
 20
5.0484250738
 30
0.0
 10
6.6780314715
 20
5.0443301799
 30
0.0
 10
6.6748535972
 20
5.0401615488
 30
0.0
 10
6.6717311511
 20
5.0359323577
 30
0.0
 10
6.6686738109
 20
5.0316558023
 30
0.0
 10
6.6656911453
 20
5.0273451822
 30
0.0
 10
6.6627927304
 20
5.0230138089
 30
0.0
 10
6.6599881096
 20
5.0186749507
 30
0.0
 10
6.6572866876
 20
5.0143416506
 30
0.0
 10
6.6546973712
 20
5.0100268872
 30
0.0
 10
6.6522289124
 20
5.0057434158
 30
0.0
 10
6.6498899545
 20
5.0015038151
 30
0.0
 10
6.6476888254
 20
4.997320026
 30
0.0
 10
6.6456329645
 20
4.9932035013
 30
0.0
 10
6.6437294447
 20
4.9891650821
 30
0.0
 10
6.6419852736
 20
4.9852154846
 30
0.0
 10
6.6404074695
 20
4.9813654993
 30
0.0
 10
6.6390015822
 20
4.9776265466
 30
0.0
 10
6.6377731957
 20
4.974010136
 30
0.0
 10
6.6370581502
 20
4.9716280508
 30
0.0
 10
6.6367336499
 20
4.9704597164
 30
0.0
 11
6.723184145
 21
5.0894486149
 31
0.0
 11
6.7201915223
 21
5.0873805296
 31
0.0
 11
6.7171280458
 21
5.0850961476
 31
0.0
 11
6.714002932
 21
5.0826044147
 31
0.0
 11
6.7108253975
 21
5.0799142768
 31
0.0
 11
6.7076044757
 21
5.0770348479
 31
0.0
 11
6.7043484126
 21
5.0739759655
 31
0.0
 11
6.7010652417
 21
5.0707476618
 31
0.0
 11
6.6977629966
 21
5.0673599693
 31
0.0
 11
6.6944499289
 21
5.0638232755
 31
0.0
 11
6.6911352083
 21
5.0601494654
 31
0.0
 11
6.6878282467
 21
5.0563508185
 31
0.0
 11
6.6845384561
 21
5.0524396143
 31
0.0
 11
6.6812752911
 21
5.0484282806
 31
0.0
 11
6.6780483817
 21
5.0443298528
 31
0.0
 11
6.674867403
 21
5.0401575222
 31
0.0
 11
6.6717420299
 21
5.0359244799
 31
0.0
 11
6.6686819228
 21
5.0316439407
 31
0.0
 11
6.6656966868
 21
5.0273292085
 31
0.0
 11
6.6627959134
 21
5.0229936088
 31
0.0
 11
6.6599891942
 21
5.0186504671
 31
0.0
 11
6.6572859754
 21
5.0143130041
 31
0.0
 11
6.6546951453
 21
5.0099940396
 31
0.0
 11
6.6522254587
 21
5.0057062974
 31
0.0
 11
6.6498856702
 21
5.001462501
 31
0.0
 11
6.6476842347
 21
4.9972750238
 31
0.0
 11
6.6456284814
 21
4.9931549245
 31
0.0
 11
6.643725476
 21
4.9891129538
 31
0.0
 11
6.6419822838
 21
4.9851598622
 31
0.0
 11
6.6404057175
 21
4.9813065392
 31
0.0
 11
6.6390016516
 21
4.9775643905
 31
0.0
 11
6.6377757434
 21
4.9739449412
 31
0.0
 11
6.6367336499
 21
4.9704597164
 31
0.0
  0
SPLINE
  5
2B0
100
AcDbEntity
  8
0
100
AcDbSpline
 62
6
  6
CONTINUOUS
 70
0
 71
3
 72
39
 73
35
 74
33
 42
0.0000001
 43
0.0000001
 44
0.0000000001
 12
-0.1346047007
 22
-0.0642678305
 32
0.0
 13
-0.059531044
 23
-0.1367656181
 33
0.0
 40
0.0
 40
0.0
 40
0.0
 40
0.0
 40
0.0243882939
 40
0.0500090019
 40
0.0768058967
 40
0.1047180532
 40
0.1336813432
 40
0.1636303058
 40
0.1944972173
 40
0.2262121437
 40
0.258700224
 40
0.2918731203
 40
0.3256384257
 40
0.359902781
 40
0.394571005
 40
0.4295433514
 40
0.4647187213
 40
0.4999957312
 40
0.535272839
 40
0.5704483959
 40
0.6054208588
 40
0.64008897
 40
0.6743530284
 40
0.7081180137
 40
0.7412905806
 40
0.7737783395
 40
0.80549354
 40
0.8363616204
 40
0.8663122961
 40
0.8952775009
 40
0.9231914222
 40
0.949989729
 40
0.9756113704
 40
1.0
 40
1.0
 40
1.0
 40
1.0
 10
6.6367336499
 20
4.9704597164
 30
0.0
 10
6.6356393902
 20
4.9699372555
 30
0.0
 10
6.6334175938
 20
4.968819376
 30
0.0
 10
6.6300693303
 20
4.9669815786
 30
0.0
 10
6.626631223
 20
4.9649477196
 30
0.0
 10
6.6231137118
 20
4.9627253689
 30
0.0
 10
6.6195271201
 20
4.960321985
 30
0.0
 10
6.6158808444
 20
4.9577463057
 30
0.0
 10
6.6121841287
 20
4.9550070447
 30
0.0
 10
6.6084463451
 20
4.9521129953
 30
0.0
 10
6.6046774357
 20
4.9490734733
 30
0.0
 10
6.6008877241
 20
4.9458987624
 30
0.0
 10
6.5970881367
 20
4.9425995702
 30
0.0
 10
6.5932897499
 20
4.9391867401
 30
0.0
 10
6.5895038168
 20
4.93567131
 30
0.0
 10
6.5857415441
 20
4.9320648126
 30
0.0
 10
6.5820143275
 20
4.9283789295
 30
0.0
 10
6.5783335929
 20
4.9246253802
 30
0.0
 10
6.5747107684
 20
4.9208158947
 30
0.0
 10
6.5711571807
 20
4.9169623118
 30
0.0
 10
6.5676841593
 20
4.9130764733
 30
0.0
 10
6.5643029946
 20
4.9091701818
 30
0.0
 10
6.561024812
 20
4.9052550447
 30
0.0
 10
6.5578602377
 20
4.9013426887
 30
0.0
 10
6.5548197236
 20
4.8974445481
 30
0.0
 10
6.5519135821
 20
4.8935718832
 30
0.0
 10
6.5491516933
 20
4.8897353424
 30
0.0
 10
6.5465429986
 20
4.8859451693
 30
0.0
 10
6.5440959859
 20
4.8822110415
 30
0.0
 10
6.5418190975
 20
4.8785425281
 30
0.0
 10
6.5397207361
 20
4.87494938
 30
0.0
 10
6.5378079902
 20
4.871442216
 30
0.0
 10
6.5360880853
 20
4.8680317449
 30
0.0
 10
6.5350483912
 20
4.8657722351
 30
0.0
 10
6.534564431
 20
4.8646603931
 30
0.0
 11
6.6367336499
 21
4.9704597164
 31
0.0
 11
6.6334822678
 21
4.9688282013
 31
0.0
 11
6.6301305469
 21
4.9669923021
 31
0.0
 11
6.6266889419
 21
4.9649596645
 31
0.0
 11
6.6231679077
 21
4.9627379342
 31
0.0
 11
6.6195777293
 21
4.9603349149
 31
0.0
 11
6.6159278987
 21
4.9577591501
 31
0.0
 11
6.6122276759
 21
4.9550193988
 31
0.0
 11
6.6084863212
 21
4.9521244203
 31
0.0
 11
6.6047134085
 21
4.9490833402
 31
0.0
 11
6.6009196981
 21
4.9459066703
 31
0.0
 11
6.5971162306
 21
4.94260525
 31
0.0
 11
6.5933140467
 21
4.9391899185
 31
0.0
 11
6.5895242593
 21
4.9356716799
 31
0.0
 11
6.5857582431
 21
4.9320621334
 31
0.0
 11
6.5820274316
 21
4.9283730132
 31
0.0
 11
6.5783432583
 21
4.9246160531
 31
0.0
 11
6.574717141
 21
4.9208030087
 31
0.0
 11
6.5711604384
 21
4.916945714
 31
0.0
 11
6.567684496
 21
4.9130560213
 31
0.0
 11
6.5643006594
 21
4.9091457826
 31
0.0
 11
6.5610201137
 21
4.9052267701
 31
0.0
 11
6.5578534497
 21
4.9013104581
 31
0.0
 11
6.5548111198
 21
4.897408252
 31
0.0
 11
6.5519035764
 21
4.8935315568
 31
0.0
 11
6.5491408904
 21
4.8896914281
 31
0.0
 11
6.5465318199
 21
4.8858977172
 31
0.0
 11
6.5440848408
 21
4.8821600168
 31
0.0
 11
6.5418084288
 21
4.8784879195
 31
0.0
 11
6.5397108018
 21
4.8748912654
 31
0.0
 11
6.5377993984
 21
4.8713806413
 31
0.0
 11
6.5360815108
 21
4.8679667747
 31
0.0
 11
6.534564431
 21
4.8646603931
 31
0.0
  0
SPLINE
  5
2B1
100
AcDbEntity
  8
0
100
AcDbSpline
 62
6
  6
CONTINUOUS
 70
0
 71
3
 72
39
 73
35
 74
33
 42
0.0000001
 43
0.0000001
 44
0.0000000001
 12
-0.1422390902
 22
-0.0449090268
 32
0.0
 13
-0.0779857871
 23
-0.1271495045
 33
0.0
 40
0.0
 40
0.0
 40
0.0
 40
0.0
 40
0.0243882939
 40
0.0500090019
 40
0.0768058967
 40
0.1047180532
 40
0.1336813432
 40
0.1636303058
 40
0.1944972173
 40
0.2262121437
 40
0.258700224
 40
0.2918731203
 40
0.3256384257
 40
0.359902781
 40
0.394571005
 40
0.4295433514
 40
0.4647187213
 40
0.4999957312
 40
0.535272839
 40
0.5704483959
 40
0.6054208588
 40
0.64008897
 40
0.6743530284
 40
0.7081180137
 40
0.7412905806
 40
0.7737783395
 40
0.80549354
 40
0.8363616204
 40
0.8663122961
 40
0.8952775009
 40
0.9231914222
 40
0.949989729
 40
0.9756113704
 40
1.0
 40
1.0
 40
1.0
 40
1.0
 10
6.534564431
 20
4.8646603931
 30
0.0
 10
6.5334081081
 20
4.8642953082
 30
0.0
 10
6.5310523553
 20
4.8634975222
 30
0.0
 10
6.5274809049
 20
4.8621435983
 30
0.0
 10
6.5237931985
 20
4.8606080248
 30
0.0
 10
6.5200006281
 20
4.8588968448
 30
0.0
 10
6.5161144544
 20
4.8570160075
 30
0.0
 10
6.5121451988
 20
4.8549728581
 30
0.0
 10
6.5081032279
 20
4.8527747388
 30
0.0
 10
6.5039990463
 20
4.850429053
 30
0.0
 10
6.4998437959
 20
4.8479436422
 30
0.0
 10
6.4956491312
 20
4.8453272532
 30
0.0
 10
6.4914273623
 20
4.842588969
 30
0.0
 10
6.487190967
 20
4.8397379855
 30
0.0
 10
6.482952625
 20
4.8367836674
 30
0.0
 10
6.4787250391
 20
4.8337358754
 30
0.0
 10
6.4745211197
 20
4.8306045914
 30
0.0
 10
6.4703538127
 20
4.8273998305
 30
0.0
 10
6.4662360674
 20
4.8241316184
 30
0.0
 10
6.4621807478
 20
4.8208101021
 30
0.0
 10
6.4582007214
 20
4.8174454315
 30
0.0
 10
6.4543088113
 20
4.8140477229
 30
0.0
 10
6.45051765
 20
4.8106269225
 30
0.0
 10
6.4468393784
 20
4.8071930649
 30
0.0
 10
6.443285938
 20
4.8037560185
 30
0.0
 10
6.4398691081
 20
4.8003254989
 30
0.0
 10
6.4366001546
 20
4.7969106757
 30
0.0
 10
6.4334893573
 20
4.7935204484
 30
0.0
 10
6.4305464687
 20
4.7901632192
 30
0.0
 10
6.4277811803
 20
4.7868472891
 30
0.0
 10
6.4252031706
 20
4.7835811448
 30
0.0
 10
6.4228209364
 20
4.7803743151
 30
0.0
 10
6.4206431237
 20
4.7772363989
 30
0.0
 10
6.4192990848
 20
4.7751435759
 30
0.0
 10
6.418665096
 20
4.7741099085
 30
0.0
 11
6.534564431
 21
4.8646603931
 31
0.0
 11
6.5311176282
 21
4.8634972607
 31
0.0
 11
6.5275430182
 21
4.8621456978
 31
0.0
 11
6.5238520182
 21
4.8606118205
 31
0.0
 11
6.5200560453
 21
4.8589017451
 31
0.0
 11
6.5161663707
 21
4.8570217682
 31
0.0
 11
6.5121935828
 21
4.8549790288
 31
0.0
 11
6.5081480706
 21
4.852780912
 31
0.0
 11
6.5040402234
 21
4.8504348032
 31
0.0
 11
6.4998807918
 21
4.8479484066
 31
0.0
 11
6.4956818945
 21
4.8453306343
 31
0.0
 11
6.4914559732
 21
4.8425906836
 31
0.0
 11
6.4872154696
 21
4.8397377516
 31
0.0
 11
6.4829729201
 21
4.8367811886
 31
0.0
 11
6.4787412027
 21
4.8337308982
 31
0.0
 11
6.4745332729
 21
4.8305969089
 31
0.0
 11
6.4703620859
 21
4.8273892491
 31
0.0
 11
6.4662405845
 21
4.8241179709
 31
0.0
 11
6.4621816639
 21
4.8207932125
 31
0.0
 11
6.4581982085
 21
4.8174251316
 31
0.0
 11
6.4543031031
 21
4.8140238862
 31
0.0
 11
6.4505090623
 21
4.8105995769
 31
0.0
 11
6.4468281708
 21
4.8071620927
 31
0.0
 11
6.4432723665
 21
4.8037212731
 31
0.0
 11
6.4398535874
 21
4.8002869575
 31
0.0
 11
6.4365833451
 21
4.7968686922
 31
0.0
 11
6.4334716834
 21
4.7934750139
 31
0.0
 11
6.4305283308
 21
4.7901142421
 31
0.0
 11
6.4277630155
 21
4.7867946968
 31
0.0
 11
6.4251852449
 21
4.7835249784
 31
0.0
 11
6.4228038588
 21
4.7803145354
 31
0.0
 11
6.4206275711
 21
4.777172976
 31
0.0
 11
6.418665096
 21
4.7741099085
 31
0.0
  0
LINE
  5
2B2
100
AcDbEntity
  8
0
100
AcDbLine
 62
6
  6
CONTINUOUS
 10
6.6367336499
 20
4.9704597164
 11
6.7188684625
 21
4.9015404254
  0
SPLINE
  5
2B3
100
AcDbEntity
  8
0
100
AcDbSpline
 62
6
  6
CONTINUOUS
 70
0
 71
3
 72
39
 73
35
 74
33
 42
0.0000001
 43
0.0000001
 44
0.0000000001
 12
-0.1471049577
 22
-0.02467612
 32
0.0
 13
-0.0949226257
 23
-0.1150585704
 33
0.0
 40
0.0
 40
0.0
 40
0.0
 40
0.0
 40
0.0243882939
 40
0.0500090019
 40
0.0768058967
 40
0.1047180532
 40
0.1336813432
 40
0.1636303058
 40
0.1944972173
 40
0.2262121437
 40
0.258700224
 40
0.2918731203
 40
0.3256384257
 40
0.359902781
 40
0.394571005
 40
0.4295433514
 40
0.4647187213
 40
0.4999957312
 40
0.535272839
 40
0.5704483959
 40
0.6054208588
 40
0.64008897
 40
0.6743530284
 40
0.7081180137
 40
0.7412905806
 40
0.7737783395
 40
0.80549354
 40
0.8363616204
 40
0.8663122961
 40
0.8952775009
 40
0.9231914222
 40
0.949989729
 40
0.9756113704
 40
1.0
 40
1.0
 40
1.0
 40
1.0
 10
6.418665096
 20
4.7741099085
 30
0.0
 10
6.4174692164
 20
4.7739093057
 30
0.0
 10
6.4150253592
 20
4.7734471412
 30
0.0
 10
6.4113002362
 20
4.7726034434
 30
0.0
 10
6.4074347078
 20
4.7715960434
 30
0.0
 10
6.4034408961
 20
4.7704293403
 30
0.0
 10
6.3993307805
 20
4.7691076581
 30
0.0
 10
6.3951158019
 20
4.7676368061
 30
0.0
 10
6.3908072481
 20
4.7660226123
 30
0.0
 10
6.3864165518
 20
4.7642709463
 30
0.0
 10
6.3819558377
 20
4.7623880224
 30
0.0
 10
6.3774378642
 20
4.7603808804
 30
0.0
 10
6.3728760858
 20
4.7582568016
 30
0.0
 10
6.3682841386
 20
4.756023156
 30
0.0
 10
6.3636758823
 20
4.7536874524
 30
0.0
 10
6.3590652682
 20
4.7512576875
 30
0.0
 10
6.3544664706
 20
4.7487419494
 30
0.0
 10
6.349893703
 20
4.7461483541
 30
0.0
 10
6.3453611841
 20
4.7434850273
 30
0.0
 10
6.3408830649
 20
4.7407602272
 30
0.0
 10
6.3364735002
 20
4.737982214
 30
0.0
 10
6.3321465963
 20
4.7351592209
 30
0.0
 10
6.3279162468
 20
4.7322993391
 30
0.0
 10
6.3237958714
 20
4.7294108161
 30
0.0
 10
6.3197986684
 20
4.7265017621
 30
0.0
 10
6.3159376548
 20
4.7235801588
 30
0.0
 10
6.3122252629
 20
4.7206535189
 30
0.0
 10
6.3086729113
 20
4.7177292243
 30
0.0
 10
6.3052914267
 20
4.7148142384
 30
0.0
 10
6.3020915617
 20
4.7119154325
 30
0.0
 10
6.2990840815
 20
4.7090398636
 30
0.0
 10
6.2962787266
 20
4.7061957855
 30
0.0
 10
6.2936853947
 20
4.7033915003
 30
0.0
 10
6.2920631713
 20
4.7015060986
 30
0.0
 10
6.2912914937
 20
4.700570725
 30
0.0
 11
6.418665096
 21
4.7741099085
 31
0.0
 11
6.4150899605
 21
4.773437798
 31
0.0
 11
6.4113620372
 21
4.7725968779
 31
0.0
 11
6.4074934833
 21
4.7715916161
 31
0.0
 11
6.403496456
 21
4.7704264804
 31
0.0
 11
6.3993829933
 21
4.7691061373
 31
0.0
 11
6.3951645739
 21
4.7676361829
 31
0.0
 11
6.3908525136
 21
4.7660224846
 31
0.0
 11
6.3864581284
 21
4.7642709097
 31
0.0
 11
6.3819931367
 21
4.7623875916
 31
0.0
 11
6.3774707793
 21
4.7603796689
 31
0.0
 11
6.3729046569
 21
4.7582545177
 31
0.0
 11
6.3683083702
 21
4.7560195143
 31
0.0
 11
6.3636956348
 21
4.7536821731
 31
0.0
 11
6.3590805818
 21
4.7512505092
 31
0.0
 11
6.3544774363
 21
4.7487326502
 31
0.0
 11
6.3499004231
 21
4.7461367242
 31
0.0
 11
6.3453637579
 21
4.7434708841
 31
0.0
 11
6.3408816214
 21
4.7407433745
 31
0.0
 11
6.3364681866
 21
4.7379624614
 31
0.0
 11
6.3321376261
 21
4.7351364106
 31
0.0
 11
6.327903937
 21
4.7322734549
 31
0.0
 11
6.3237804623
 21
4.7293817051
 31
0.0
 11
6.3197803934
 21
4.7264692436
 31
0.0
 11
6.3159169212
 21
4.7235441526
 31
0.0
 11
6.3122027741
 21
4.7206142834
 31
0.0
 11
6.3086490861
 21
4.7176866917
 31
0.0
 11
6.305266649
 21
4.7147682623
 31
0.0
 11
6.3020662541
 21
4.7118658801
 31
0.0
 11
6.2990585134
 21
4.7089867386
 31
0.0
 11
6.2962534954
 21
4.7061389643
 31
0.0
 11
6.2936611667
 21
4.7033308591
 31
0.0
 11
6.2912914937
 21
4.700570725
 31
0.0
  0
SPLINE
  5
2B4
100
AcDbEntity
  8
0
100
AcDbSpline
 62
6
  6
CONTINUOUS
 70
0
 71
3
 72
39
 73
35
 74
33
 42
0.0000001
 43
0.0000001
 44
0.0000000001
 12
-0.1491075848
 22
-0.0039629203
 32
0.0
 13
-0.1100118961
 23
-0.1007281456
 33
0.0
 40
0.0
 40
0.0
 40
0.0
 40
0.0
 40
0.0243881089
 40
0.0500084223
 40
0.0768047351
 40
0.1047161471
 40
0.1336785826
 40
0.1636266721
 40
0.1944927746
 40
0.2262070414
 40
0.2586944052
 40
0.291866411
 40
0.3256308157
 40
0.3598944252
 40
0.3945620412
 40
0.4295338847
 40
0.4647089509
 40
0.4999859514
 40
0.5352633701
 40
0.5704393834
 40
0.6054122393
 40
0.6400804734
 40
0.6743443079
 40
0.7081085337
 40
0.7412794671
 40
0.773764384
 40
0.8054763355
 40
0.8363421216
 40
0.8662923761
 40
0.8952599638
 40
0.9231788899
 40
0.9499830148
 40
0.9756094366
 40
1.0
 40
1.0
 40
1.0
 40
1.0
 10
6.2912914937
 20
4.700570725
 30
0.0
 10
6.290079343
 20
4.7005385089
 30
0.0
 10
6.2875949773
 20
4.7004209661
 30
0.0
 10
6.283788744
 20
4.7001039291
 30
0.0
 10
6.2798207161
 20
4.6996443281
 30
0.0
 10
6.2757035058
 20
4.6990448253
 30
0.0
 10
6.2714495684
 20
4.6983080442
 30
0.0
 10
6.2670710285
 20
4.6974381543
 30
0.0
 10
6.2625798636
 20
4.6964393443
 30
0.0
 10
6.2579882154
 20
4.6953158297
 30
0.0
 10
6.2533089651
 20
4.6940720879
 30
0.0
 10
6.2485557336
 20
4.6927133172
 30
0.0
 10
6.2437428497
 20
4.6912448454
 30
0.0
 10
6.2388848305
 20
4.6896720604
 30
0.0
 10
6.233996437
 20
4.6880004773
 30
0.0
 10
6.229092594
 20
4.6862360776
 30
0.0
 10
6.2241884582
 20
4.6843848886
 30
0.0
 10
6.2192992261
 20
4.6824529608
 30
0.0
 10
6.2144401105
 20
4.6804463654
 30
0.0
 10
6.2096262904
 20
4.6783713175
 30
0.0
 10
6.2048729613
 20
4.6762340337
 30
0.0
 10
6.2001952643
 20
4.6740407062
 30
0.0
 10
6.1956081023
 20
4.6717974308
 30
0.0
 10
6.1911259292
 20
4.6695105401
 30
0.0
 10
6.1867629764
 20
4.6671862568
 30
0.0
 10
6.1825332382
 20
4.6648306717
 30
0.0
 10
6.1784499755
 20
4.6624494757
 30
0.0
 10
6.1745254161
 20
4.660048267
 30
0.0
 10
6.1707711393
 20
4.6576323106
 30
0.0
 10
6.1671987484
 20
4.6552067738
 30
0.0
 10
6.1638198221
 20
4.652777341
 30
0.0
 10
6.1606452835
 20
4.6503509669
 30
0.0
 10
6.1576863481
 20
4.6479345967
 30
0.0
 10
6.1558172236
 20
4.6462931376
 30
0.0
 10
6.1549228063
 20
4.6454741989
 30
0.0
 11
6.2912914937
 21
4.700570725
 31
0.0
 11
6.287657639
 21
4.700402723
 31
0.0
 11
6.2838490204
 21
4.7000888257
 31
0.0
 11
6.2798782954
 21
4.6996317619
 31
0.0
 11
6.2757581215
 21
4.6990342606
 31
0.0
 11
6.27150106
 21
4.6982992738
 31
0.0
 11
6.2671192419
 21
4.6974307509
 31
0.0
 11
6.262624678
 21
4.6964329195
 31
0.0
 11
6.2580293793
 21
4.6953100076
 31
0.0
 11
6.2533458323
 21
4.6940664691
 31
0.0
 11
6.2485881591
 21
4.6927075364
 31
0.0
 11
6.2437708326
 21
4.6912386084
 31
0.0
 11
6.2389083257
 21
4.6896650843
 31
0.0
 11
6.234015267
 21
4.6879925035
 31
0.0
 11
6.2291067687
 21
4.6862268416
 31
0.0
 11
6.2241980367
 21
4.6843741588
 31
0.0
 11
6.2193042769
 21
4.682440515
 31
0.0
 11
6.2144406974
 21
4.6804320046
 31
0.0
 11
6.2096225128
 21
4.6783548278
 31
0.0
 11
6.204864939
 21
4.6762152054
 31
0.0
 11
6.2001831917
 21
4.674019358
 31
0.0
 11
6.1955922849
 21
4.6717735021
 31
0.0
 11
6.1911065781
 21
4.6694838405
 31
0.0
 11
6.1867402986
 21
4.6671565732
 31
0.0
 11
6.1825076726
 21
4.6647978998
 31
0.0
 11
6.1784222846
 21
4.6624137775
 31
0.0
 11
6.174495985
 21
4.6600095086
 31
0.0
 11
6.1707403348
 21
4.6575902859
 31
0.0
 11
6.1671668939
 21
4.6551613069
 31
0.0
 11
6.1637871321
 21
4.6527283282
 31
0.0
 11
6.1606123459
 21
4.6502981816
 31
0.0
 11
6.1576538117
 21
4.6478778205
 31
0.0
 11
6.1549228063
 21
4.6454741989
 31
0.0
  0
SPLINE
  5
2B5
100
AcDbEntity
  8
0
100
AcDbSpline
 62
6
  6
CONTINUOUS
 70
0
 71
3
 72
39
 73
35
 74
33
 42
0.0000001
 43
0.0000001
 44
0.0000000001
 12
-0.148208013
 22
0.0168274116
 32
0.0
 13
-0.1229599171
 23
-0.0844371701
 33
0.0
 40
0.0
 40
0.0
 40
0.0
 40
0.0
 40
0.0243901101
 40
0.0500152546
 40
0.0768174774
 40
0.1047340859
 40
0.133699253
 40
0.1636474979
 40
0.1945120715
 40
0.2262239978
 40
0.2587097942
 40
0.2918816352
 40
0.32564668
 40
0.3599111384
 40
0.3945795957
 40
0.4295522613
 40
0.464727897
 40
0.5000049781
 40
0.5352818609
 40
0.5704569541
 40
0.6054288098
 40
0.6400962647
 40
0.6743595775
 40
0.708123719
 40
0.7412954804
 40
0.7737826065
 40
0.8054972134
 40
0.8363645967
 40
0.8663145384
 40
0.8952790372
 40
0.9231923512
 40
0.9499901874
 40
0.9756115135
 40
1.0
 40
1.0
 40
1.0
 40
1.0
 10
6.1549228063
 20
4.6454741989
 30
0.0
 10
6.1537178697
 20
4.6456110063
 30
0.0
 10
6.151240978
 20
4.6458403367
 30
0.0
 10
6.1474270244
 20
4.6460560249
 30
0.0
 10
6.1434328555
 20
4.6461530762
 30
0.0
 10
6.1392715918
 20
4.6461324486
 30
0.0
 10
6.1349561081
 20
4.6459949452
 30
0.0
 10
6.1304990493
 20
4.645742835
 30
0.0
 10
6.1259127768
 20
4.6453787079
 30
0.0
 10
6.1212097305
 20
4.6449050871
 30
0.0
 10
6.1164031324
 20
4.6443246303
 30
0.0
 10
6.1115071167
 20
4.6436405539
 30
0.0
 10
6.1065366408
 20
4.6428561488
 30
0.0
 10
6.1015068985
 20
4.6419747411
 30
0.0
 10
6.0964333211
 20
4.6409997105
 30
0.0
 10
6.0913315455
 20
4.6399348977
 30
0.0
 10
6.0862174402
 20
4.6387841831
 30
0.0
 10
6.0811069225
 20
4.6375514609
 30
0.0
 10
6.0760159087
 20
4.6362406257
 30
0.0
 10
6.0709602758
 20
4.6348557124
 30
0.0
 10
6.0659558944
 20
4.6334007601
 30
0.0
 10
6.0610185845
 20
4.6318797988
 30
0.0
 10
6.0561639316
 20
4.6302967695
 30
0.0
 10
6.0514071068
 20
4.6286558927
 30
0.0
 10
6.0467630187
 20
4.6269613286
 30
0.0
 10
6.042246371
 20
4.6252171661
 30
0.0
 10
6.0378711924
 20
4.6234271996
 30
0.0
 10
6.0336505054
 20
4.6215953771
 30
0.0
 10
6.0295966355
 20
4.6197254123
 30
0.0
 10
6.0257217999
 20
4.6178209493
 30
0.0
 10
6.0220382887
 20
4.6158857906
 30
0.0
 10
6.018557738
 20
4.6139251765
 30
0.0
 10
6.0152919449
 20
4.6119443619
 30
0.0
 10
6.0132128972
 20
4.6105791531
 30
0.0
 10
6.0122132951
 20
4.6098927215
 30
0.0
 11
6.1549228063
 21
4.6454741989
 31
0.0
 11
6.1513006318
 21
4.6458135335
 31
0.0
 11
6.1474846667
 21
4.6460326819
 31
0.0
 11
6.1434880904
 21
4.6461326359
 31
0.0
 11
6.1393240824
 21
4.6461143875
 31
0.0
 11
6.135005751
 21
4.6459790632
 31
0.0
 11
6.1305456805
 21
4.6457287822
 31
0.0
 11
6.1259562209
 21
4.6453661075
 31
0.0
 11
6.1212497211
 21
4.6448936043
 31
0.0
 11
6.1164389279
 21
4.6443139471
 31
0.0
 11
6.1115384614
 21
4.6436303262
 31
0.0
 11
6.106563493
 21
4.6428460835
 31
0.0
 11
6.1015291943
 21
4.641964561
 31
0.0
 11
6.096450858
 21
4.64098919
 31
0.0
 11
6.0913442849
 21
4.6399237754
 31
0.0
 11
6.0862254085
 21
4.6387722198
 31
0.0
 11
6.0811101624
 21
4.6375384261
 31
0.0
 11
6.076014473
 21
4.6362263178
 31
0.0
 11
6.0709542361
 21
4.6348399089
 31
0.0
 11
6.0659453393
 21
4.633383238
 31
0.0
 11
6.0610036702
 21
4.6318603435
 31
0.0
 11
6.0561449597
 21
4.6302752785
 31
0.0
 11
6.0513842725
 21
4.6286321573
 31
0.0
 11
6.046736496
 21
4.6269351112
 31
0.0
 11
6.0422165175
 21
4.625188271
 31
0.0
 11
6.0378387552
 21
4.6233956807
 31
0.0
 11
6.0336158777
 21
4.6215610591
 31
0.0
 11
6.0295601453
 21
4.6196880493
 31
0.0
 11
6.0256838184
 21
4.6177802947
 31
0.0
 11
6.0219990742
 21
4.6158417737
 31
0.0
 11
6.0185178289
 21
4.6138775151
 31
0.0
 11
6.0152519475
 21
4.611892753
 31
0.0
 11
6.0122132951
 21
4.6098927215
 31
0.0
  0
LINE
  5
2B6
100
AcDbEntity
  8
0
100
AcDbLine
 62
6
  6
CONTINUOUS
 10
6.723184145
 20
5.0894486149
 11
6.8141113387
 21
5.0326309983
  0
SPLINE
  5
2B7
100
AcDbEntity
  8
0
100
AcDbSpline
 62
6
  6
CONTINUOUS
 70
0
 71
3
 72
39
 73
35
 74
33
 42
0.0000001
 43
0.0000001
 44
0.0000000001
 12
-0.1444237481
 22
0.0372902193
 32
0.0
 13
-0.1335146702
 23
-0.0665027242
 33
0.0
 40
0.0
 40
0.0
 40
0.0
 40
0.0
 40
0.0243882939
 40
0.0500090019
 40
0.0768058967
 40
0.1047180532
 40
0.1336813432
 40
0.1636303058
 40
0.1944972173
 40
0.2262121437
 40
0.258700224
 40
0.2918731203
 40
0.3256384257
 40
0.359902781
 40
0.394571005
 40
0.4295433514
 40
0.4647187213
 40
0.4999957312
 40
0.535272839
 40
0.5704483959
 40
0.6054208588
 40
0.64008897
 40
0.6743530284
 40
0.7081180137
 40
0.7412905806
 40
0.7737783395
 40
0.80549354
 40
0.8363616204
 40
0.8663122961
 40
0.8952775009
 40
0.9231914222
 40
0.949989729
 40
0.9756113704
 40
1.0
 40
1.0
 40
1.0
 40
1.0
 10
6.0122132951
 20
4.6098927215
 30
0.0
 10
6.0110392122
 20
4.6101958697
 30
0.0
 10
6.0086186584
 20
4.6107676676
 30
0.0
 10
6.0048724263
 20
4.6115120554
 30
0.0
 10
6.000931344
 20
4.6121640018
 30
0.0
 10
5.9968082746
 20
4.6127225951
 30
0.0
 10
5.9925159205
 20
4.6131869128
 30
0.0
 10
5.9880670966
 20
4.6135576089
 30
0.0
 10
5.983474485
 20
4.6138354162
 30
0.0
 10
5.9787509176
 20
4.6140210468
 30
0.0
 10
5.9739099984
 20
4.6141152461
 30
0.0
 10
5.968966246
 20
4.6141192561
 30
0.0
 10
5.9639349133
 20
4.614034256
 30
0.0
 10
5.9588314554
 20
4.6138614323
 30
0.0
 10
5.9536715875
 20
4.6136020076
 30
0.0
 10
5.9484713075
 20
4.6132576126
 30
0.0
 10
5.9432468539
 20
4.612829871
 30
0.0
 10
5.9380145127
 20
4.6123204159
 30
0.0
 10
5.932790578
 20
4.6117308874
 30
0.0
 10
5.9275913365
 20
4.6110630738
 30
0.0
 10
5.9224330789
 20
4.610318764
 30
0.0
 10
5.9173320408
 20
4.6094997418
 30
0.0
 10
5.9123042055
 20
4.608607748
 30
0.0
 10
5.9073651871
 20
4.6076448586
 30
0.0
 10
5.9025303416
 20
4.6066131144
 30
0.0
 10
5.8978148071
 20
4.6055145127
 30
0.0
 10
5.8932329967
 20
4.6043508599
 30
0.0
 10
5.8887983442
 20
4.6031242555
 30
0.0
 10
5.8845235727
 20
4.601836657
 30
0.0
 10
5.8804213
 20
4.6004899684
 30
0.0
 10
5.8765042309
 20
4.5990862579
 30
0.0
 10
5.8727846209
 20
4.5976291039
 30
0.0
 10
5.8692748887
 20
4.596122065
 30
0.0
 10
5.8670260519
 20
4.5950594825
 30
0.0
 10
5.8659406386
 20
4.5945188458
 30
0.0
 11
6.0122132951
 21
4.6098927215
 31
0.0
 11
6.0086738743
 21
4.6107328565
 31
0.0
 11
6.0049262139
 21
4.6114809208
 31
0.0
 11
6.0009832373
 21
4.6121360511
 31
0.0
 11
5.9968578678
 21
4.6126973841
 31
0.0
 11
5.9925630007
 21
4.6131642867
 31
0.0
 11
5.9881113984
 21
4.6135372023
 31
0.0
 11
5.9835157852
 21
4.6138168884
 31
0.0
 11
5.9787888849
 21
4.6140041027
 31
0.0
 11
5.9739438974
 21
4.6140996817
 31
0.0
 11
5.9689958226
 21
4.6141047615
 31
0.0
 11
5.9639600854
 21
4.6140205485
 31
0.0
 11
5.9588521108
 21
4.6138482495
 31
0.0
 11
5.9536874851
 21
4.6135891507
 31
0.0
 11
5.9484823775
 21
4.6132448263
 31
0.0
 11
5.9432530893
 21
4.6128169157
 31
0.0
 11
5.9380159215
 21
4.6123070582
 31
0.0
 11
5.9327871767
 21
4.61171692
 31
0.0
 11
5.9275831632
 21
4.6110482652
 31
0.0
 11
5.9224201906
 21
4.6103028803
 31
0.0
 11
5.9173145683
 21
4.609482552
 31
0.0
 11
5.9122824319
 21
4.6085891084
 31
0.0
 11
5.9073392697
 21
4.6076245317
 31
0.0
 11
5.9025004201
 21
4.6065908404
 31
0.0
 11
5.897781221
 21
4.6054900525
 31
0.0
 11
5.8931964936
 21
4.6043241635
 31
0.0
 11
5.8887592793
 21
4.6030950906
 31
0.0
 11
5.884482237
 21
4.6018047337
 31
0.0
 11
5.8803780256
 21
4.6004549935
 31
0.0
 11
5.8764592654
 21
4.5990481253
 31
0.0
 11
5.8727384598
 21
4.5975874576
 31
0.0
 11
5.8692280904
 21
4.5960765209
 31
0.0
 11
5.8659406386
 21
4.5945188458
 31
0.0
  0
SPLINE
  5
2B8
100
AcDbEntity
  8
0
100
AcDbSpline
 62
6
  6
CONTINUOUS
 70
0
 71
3
 72
39
 73
35
 74
33
 42
0.0000001
 43
0.0000001
 44
0.0000000001
 12
-0.1378284307
 22
0.0570272144
 32
0.0
 13
-0.1414707049
 23
-0.0472738736
 33
0.0
 40
0.0
 40
0.0
 40
0.0
 40
0.0
 40
0.0243882939
 40
0.0500090019
 40
0.0768058967
 40
0.1047180532
 40
0.1336813432
 40
0.1636303058
 40
0.1944972173
 40
0.2262121437
 40
0.258700224
 40
0.2918731203
 40
0.3256384257
 40
0.359902781
 40
0.394571005
 40
0.4295433514
 40
0.4647187213
 40
0.4999957312
 40
0.535272839
 40
0.5704483959
 40
0.6054208588
 40
0.64008897
 40
0.6743530284
 40
0.7081180137
 40
0.7412905806
 40
0.7737783395
 40
0.80549354
 40
0.8363616204
 40
0.8663122961
 40
0.8952775009
 40
0.9231914222
 40
0.949989729
 40
0.9756113704
 40
1.0
 40
1.0
 40
1.0
 40
1.0
 10
5.8659406386
 20
4.5945188458
 30
0.0
 10
5.8648201719
 20
4.5949824446
 30
0.0
 10
5.8625027536
 20
4.5958855538
 30
0.0
 10
5.8588965784
 20
4.5971440719
 30
0.0
 10
5.8550845838
 20
4.5983381663
 30
0.0
 10
5.8510793809
 20
4.5994651437
 30
0.0
 10
5.8468934203
 20
4.600522323
 30
0.0
 10
5.8425394829
 20
4.6015085681
 30
0.0
 10
5.8380302297
 20
4.6024228398
 30
0.0
 10
5.8333784665
 20
4.6032640573
 30
0.0
 10
5.8285977688
 20
4.6040310657
 30
0.0
 10
5.8237026867
 20
4.604723074
 30
0.0
 10
5.8187084889
 20
4.6053391272
 30
0.0
 10
5.813630645
 20
4.6058782496
 30
0.0
 10
5.8084848877
 20
4.6063394644
 30
0.0
 10
5.803287286
 20
4.6067221601
 30
0.0
 10
5.7980541463
 20
4.6070256846
 30
0.0
 10
5.7928018234
 20
4.6072493887
 30
0.0
 10
5.7875466812
 20
4.6073926286
 30
0.0
 10
5.7823050967
 20
4.6074549087
 30
0.0
 10
5.777093451
 20
4.6074357332
 30
0.0
 10
5.7719280699
 20
4.607334609
 30
0.0
 10
5.7668250237
 20
4.6071510353
 30
0.0
 10
5.7618000631
 20
4.6068848952
 30
0.0
 10
5.756868679
 20
4.6065360724
 30
0.0
 10
5.7520461399
 20
4.6061044378
 30
0.0
 10
5.7473469702
 20
4.6055897743
 30
0.0
 10
5.7427847651
 20
4.6049922914
 30
0.0
 10
5.7383723963
 20
4.604312157
 30
0.0
 10
5.7341226238
 20
4.6035495003
 30
0.0
 10
5.7300483166
 20
4.6027046013
 30
0.0
 10
5.726162109
 20
4.6017792978
 30
0.0
 10
5.722476794
 20
4.6007753856
 30
0.0
 10
5.7201019598
 20
4.6000361217
 30
0.0
 10
5.7189518676
 20
4.5996518068
 30
0.0
 11
5.8659406386
 21
4.5945188458
 31
0.0
 11
5.8625525874
 21
4.5958433968
 31
0.0
 11
5.8589455094
 21
4.5971057546
 31
0.0
 11
5.855132082
 21
4.5983032655
 31
0.0
 11
5.8511249829
 21
4.599433276
 31
0.0
 11
5.8469368933
 21
4.6004933648
 31
0.0
 11
5.8425805136
 21
4.6014821945
 31
0.0
 11
5.8380685494
 21
4.6023987445
 31
0.0
 11
5.8334137061
 21
4.6032419941
 31
0.0
 11
5.8286291718
 21
4.6040109349
 31
0.0
 11
5.8237299582
 21
4.6047046041
 31
0.0
 11
5.8187315083
 21
4.6053220499
 31
0.0
 11
5.8136492648
 21
4.6058623204
 31
0.0
 11
5.8084988412
 21
4.6063245201
 31
0.0
 11
5.8032964687
 21
4.6067079576
 31
0.0
 11
5.7980585179
 21
4.6070119876
 31
0.0
 11
5.7928013594
 21
4.6072359649
 31
0.0
 11
5.7875413691
 21
4.6073792705
 31
0.0
 11
5.782294942
 21
4.6074413817
 31
0.0
 11
5.7770784775
 21
4.6074217978
 31
0.0
 11
5.7719083752
 21
4.6073200182
 31
0.0
 11
5.7668008678
 21
4.6071356075
 31
0.0
 11
5.761771569
 21
4.6068683732
 31
0.0
 11
5.7568359487
 21
4.6065181794
 31
0.0
 11
5.7520094765
 21
4.6060848899
 31
0.0
 11
5.7473071069
 21
4.605568418
 31
0.0
 11
5.7427420214
 21
4.6049688471
 31
0.0
 11
5.73832702
 21
4.6042862972
 31
0.0
 11
5.734074903
 21
4.6035208884
 31
0.0
 11
5.7299984817
 21
4.6026730978
 31
0.0
 11
5.7261106011
 21
4.6017444812
 31
0.0
 11
5.7224241126
 21
4.6007367979
 31
0.0
 11
5.7189518676
 21
4.5996518068
 31
0.0
  0
SPLINE
  5
2B9
100
AcDbEntity
  8
0
100
AcDbSpline
 62
6
  6
CONTINUOUS
 70
0
 71
3
 72
39
 73
35
 74
33
 42
0.0000001
 43
0.0000001
 44
0.0000000001
 12
-0.1285504396
 22
0.0756542395
 32
0.0
 13
-0.1466731734
 23
-0.0271248908
 33
0.0
 40
0.0
 40
0.0
 40
0.0
 40
0.0
 40
0.0243882939
 40
0.0500090019
 40
0.0768058967
 40
0.1047180532
 40
0.1336813432
 40
0.1636303058
 40
0.1944972173
 40
0.2262121437
 40
0.258700224
 40
0.2918731203
 40
0.3256384257
 40
0.359902781
 40
0.394571005
 40
0.4295433514
 40
0.4647187213
 40
0.4999957312
 40
0.535272839
 40
0.5704483959
 40
0.6054208588
 40
0.64008897
 40
0.6743530284
 40
0.7081180137
 40
0.7412905806
 40
0.7737783395
 40
0.80549354
 40
0.8363616204
 40
0.8663122961
 40
0.8952775009
 40
0.9231914222
 40
0.949989729
 40
0.9756113704
 40
1.0
 40
1.0
 40
1.0
 40
1.0
 10
5.7189518676
 20
4.5996518068
 30
0.0
 10
5.7179068257
 20
4.6002668327
 30
0.0
 10
5.7157376488
 20
4.6014836752
 30
0.0
 10
5.7123417205
 20
4.6032318281
 30
0.0
 10
5.7087330098
 20
4.6049448287
 30
0.0
 10
5.7049236303
 20
4.606618255
 30
0.0
 10
5.7009255381
 20
4.608247719
 30
0.0
 10
5.6967512317
 20
4.609830317
 30
0.0
 10
5.6924131042
 20
4.6113632578
 30
0.0
 10
5.6879236865
 20
4.612843689
 30
0.0
 10
5.6832962611
 20
4.6142685774
 30
0.0
 10
5.6785451266
 20
4.6156351148
 30
0.0
 10
5.6736852701
 20
4.6169402307
 30
0.0
 10
5.6687318747
 20
4.6181808057
 30
0.0
 10
5.6637003842
 20
4.6193536829
 30
0.0
 10
5.6586066262
 20
4.6204560206
 30
0.0
 10
5.6534666575
 20
4.6214849036
 30
0.0
 10
5.6482965834
 20
4.6224374127
 30
0.0
 10
5.643112519
 20
4.623310633
 30
0.0
 10
5.637930613
 20
4.6241017946
 30
0.0
 10
5.6327670179
 20
4.6248081265
 30
0.0
 10
5.6276378323
 20
4.6254268686
 30
0.0
 10
5.6225589
 20
4.6259552882
 30
0.0
 10
5.6175458025
 20
4.6263910775
 30
0.0
 10
5.6126138635
 20
4.6267319654
 30
0.0
 10
5.6077781851
 20
4.6269756991
 30
0.0
 10
5.60305312
 20
4.6271200424
 30
0.0
 10
5.5984521605
 20
4.6271633104
 30
0.0
 10
5.5939880761
 20
4.6271038781
 30
0.0
 10
5.5896735208
 20
4.6269400975
 30
0.0
 10
5.5855212773
 20
4.6266704549
 30
0.0
 10
5.5815441126
 20
4.626295012
 30
0.0
 10
5.5777549453
 20
4.6258137665
 30
0.0
 10
5.5753003372
 20
4.6254122102
 30
0.0
 10
5.5741079513
 20
4.6251916972
 30
0.0
 11
5.7189518676
 21
4.5996518068
 31
0.0
 11
5.7157811306
 21
4.601434993
 31
0.0
 11
5.7123848426
 21
4.6031870738
 31
0.0
 11
5.7087751886
 21
4.6049036571
 31
0.0
 11
5.7049643533
 21
4.6065803509
 31
0.0
 11
5.7009645578
 21
4.6082129923
 31
0.0
 11
5.6967881926
 21
4.6097984897
 31
0.0
 11
5.6924476975
 21
4.6113340639
 31
0.0
 11
5.6879555125
 21
4.6128169361
 31
0.0
 11
5.6833245569
 21
4.6142442721
 31
0.0
 11
5.6785695622
 21
4.6156130293
 31
0.0
 11
5.6737056887
 21
4.616920116
 31
0.0
 11
5.6687480963
 21
4.6181624401
 31
0.0
 11
5.6637121221
 21
4.6193369421
 31
0.0
 11
5.658613743
 21
4.6204406783
 31
0.0
 11
5.6534690803
 21
4.6214707314
 31
0.0
 11
5.6482942558
 21
4.6224241841
 31
0.0
 11
5.6431053996
 21
4.6232981442
 31
0.0
 11
5.6379186745
 21
4.6240898125
 31
0.0
 11
5.6327502508
 21
4.6247964107
 31
0.0
 11
5.6276162985
 21
4.6254151607
 31
0.0
 11
5.6225328321
 21
4.6259433723
 31
0.0
 11
5.6175152863
 21
4.6263786819
 31
0.0
 11
5.6125789615
 21
4.6267188017
 31
0.0
 11
5.6077391579
 21
4.626961444
 31
0.0
 11
5.6030106725
 21
4.6271044418
 31
0.0
 11
5.5984065699
 21
4.627146043
 31
0.0
 11
5.5939395425
 21
4.6270845851
 31
0.0
 11
5.5896222825
 21
4.6269184055
 31
0.0
 11
5.5854675429
 21
4.6266461937
 31
0.0
 11
5.5814882605
 21
4.6262677028
 31
0.0
 11
5.5776974062
 21
4.6257828861
 31
0.0
 11
5.5741079513
 21
4.6251916972
 31
0.0
  0
LINE
  5
2BA
100
AcDbEntity
  8
0
100
AcDbLine
 62
6
  6
CONTINUOUS
 10
6.7922332559
 20
5.2193111052
 11
6.8901830363
 21
5.1757010533
  0
SPLINE
  5
2BB
100
AcDbEntity
  8
0
100
AcDbSpline
 62
6
  6
CONTINUOUS
 70
0
 71
3
 72
39
 73
35
 74
33
 42
0.0000001
 43
0.0000001
 44
0.0000000001
 12
-0.1167703648
 22
0.0928087444
 32
0.0
 13
-0.1490208208
 23
-0.0064479531
 33
0.0
 40
0.0
 40
0.0
 40
0.0
 40
0.0
 40
0.0243877744
 40
0.0500073603
 40
0.0768032472
 40
0.1047152386
 40
0.1336797502
 40
0.1636309026
 40
0.1945002569
 40
0.226217167
 40
0.2587065225
 40
0.2918802438
 40
0.325645971
 40
0.3599103873
 40
0.3945784955
 40
0.4295506507
 40
0.4647256751
 40
0.5000021051
 40
0.5352783636
 40
0.5704529393
 40
0.6054244678
 40
0.640091869
 40
0.6743555444
 40
0.7081205403
 40
0.7412936296
 40
0.7737825425
 40
0.8054992742
 40
0.8363686615
 40
0.8663199591
 40
0.895284629
 40
0.9231967154
 40
0.9499926394
 40
0.9756122296
 40
1.0
 40
1.0
 40
1.0
 40
1.0
 10
5.5741079513
 20
4.6251916972
 30
0.0
 10
5.5731586949
 20
4.6259461634
 30
0.0
 10
5.5711800549
 20
4.627453018
 30
0.0
 10
5.5680605956
 20
4.6296567278
 30
0.0
 10
5.5647255109
 20
4.6318552422
 30
0.0
 10
5.561186087
 20
4.6340425304
 30
0.0
 10
5.5574535257
 20
4.6362126168
 30
0.0
 10
5.5535398404
 20
4.638360899
 30
0.0
 10
5.549456987
 20
4.6404828307
 30
0.0
 10
5.5452170495
 20
4.6425738019
 30
0.0
 10
5.5408327785
 20
4.64462892
 30
0.0
 10
5.5363179421
 20
4.646643417
 30
0.0
 10
5.5316869459
 20
4.6486121891
 30
0.0
 10
5.5269543855
 20
4.6505300554
 30
0.0
 10
5.5221350996
 20
4.6523917473
 30
0.0
 10
5.5172443533
 20
4.6541922427
 30
0.0
 10
5.5122976462
 20
4.6559264246
 30
0.0
 10
5.5073105302
 20
4.6575891599
 30
0.0
 10
5.5022985562
 20
4.6591753174
 30
0.0
 10
5.4972773162
 20
4.6606799091
 30
0.0
 10
5.4922623975
 20
4.6620979536
 30
0.0
 10
5.4872693368
 20
4.6634244874
 30
0.0
 10
5.4823134264
 20
4.664654603
 30
0.0
 10
5.477409758
 20
4.6657838385
 30
0.0
 10
5.4725731742
 20
4.6668078092
 30
0.0
 10
5.4678183169
 20
4.6677221786
 30
0.0
 10
5.463159122
 20
4.6685227135
 30
0.0
 10
5.4586087842
 20
4.6692058767
 30
0.0
 10
5.4541798015
 20
4.6697682911
 30
0.0
 10
5.4498845317
 20
4.6702066033
 30
0.0
 10
5.4457354075
 20
4.6705174731
 30
0.0
 10
5.4417450061
 20
4.6706991519
 30
0.0
 10
5.4379260006
 20
4.6707498851
 30
0.0
 10
5.4354395403
 20
4.6706938292
 30
0.0
 10
5.4342281118
 20
4.6706414122
 30
0.0
 11
5.5741079513
 21
4.6251916972
 31
0.0
 11
5.5712163145
 21
4.6273987768
 31
0.0
 11
5.5680970728
 21
4.6296064027
 31
0.0
 11
5.5647615817
 21
4.6318085741
 31
0.0
 11
5.5612211967
 21
4.6339992905
 31
0.0
 11
5.5574873765
 21
4.6361727771
 31
0.0
 11
5.5535720236
 21
4.6383242324
 31
0.0
 11
5.5494871603
 21
4.6404491171
 31
0.0
 11
5.5452448089
 21
4.6425428914
 31
0.0
 11
5.5408573943
 21
4.6446009189
 31
0.0
 11
5.5363390474
 21
4.6466181525
 31
0.0
 11
5.5317043505
 21
4.6485894366
 31
0.0
 11
5.5269678856
 21
4.6505096155
 31
0.0
 11
5.5221443898
 21
4.6523735368
 31
0.0
 11
5.5172492586
 21
4.6541760624
 31
0.0
 11
5.5122980623
 21
4.6559120578
 31
0.0
 11
5.5073063716
 21
4.6575763884
 31
0.0
 11
5.5022897617
 21
4.6591639429
 31
0.0
 11
5.4972638287
 21
4.660669705
 31
0.0
 11
5.4922441741
 21
4.6620886836
 31
0.0
 11
5.4872463992
 21
4.6634158876
 31
0.0
 11
5.4822859726
 21
4.664646426
 31
0.0
 11
5.4773778382
 21
4.6657758036
 31
0.0
 11
5.4725368102
 21
4.6667996228
 31
0.0
 11
5.4677777034
 21
4.667713486
 31
0.0
 11
5.4631149053
 21
4.6685131728
 31
0.0
 11
5.4585612009
 21
4.6691951291
 31
0.0
 11
5.454128999
 21
4.6697559569
 31
0.0
 11
5.4498307083
 21
4.6701922584
 31
0.0
 11
5.4456787919
 21
4.6705009198
 31
0.0
 11
5.4416859135
 21
4.6706798787
 31
0.0
 11
5.4378647834
 21
4.6707273158
 31
0.0
 11
5.4342281118
 21
4.6706414122
 31
0.0
  0
SPLINE
  5
2BC
100
AcDbEntity
  8
0
100
AcDbSpline
 62
6
  6
CONTINUOUS
 70
0
 71
3
 72
39
 73
35
 74
33
 42
0.0000001
 43
0.0000001
 44
0.0000000001
 12
-0.1027174791
 22
0.1081568259
 32
0.0
 13
-0.1484679366
 23
0.0143544871
 33
0.0
 40
0.0
 40
0.0
 40
0.0
 40
0.0
 40
0.0243882939
 40
0.0500090019
 40
0.0768058967
 40
0.1047180532
 40
0.1336813432
 40
0.1636303058
 40
0.1944972173
 40
0.2262121437
 40
0.258700224
 40
0.2918731203
 40
0.3256384257
 40
0.359902781
 40
0.394571005
 40
0.4295433514
 40
0.4647187213
 40
0.4999957312
 40
0.535272839
 40
0.5704483959
 40
0.6054208588
 40
0.64008897
 40
0.6743530284
 40
0.7081180137
 40
0.7412905806
 40
0.7737783395
 40
0.80549354
 40
0.8363616204
 40
0.8663122961
 40
0.8952775009
 40
0.9231914222
 40
0.949989729
 40
0.9756113704
 40
1.0
 40
1.0
 40
1.0
 40
1.0
 10
5.4342281118
 20
4.6706414122
 30
0.0
 10
5.4333930771
 20
4.6715206656
 30
0.0
 10
5.4316433378
 20
4.6732882759
 30
0.0
 10
5.4288608182
 20
4.675904753
 30
0.0
 10
5.4258640698
 20
4.6785460904
 30
0.0
 10
5.4226635179
 20
4.6812046982
 30
0.0
 10
5.4192694462
 20
4.6838730632
 30
0.0
 10
5.4156930685
 20
4.6865449488
 30
0.0
 10
5.4119455285
 20
4.6892142561
 30
0.0
 10
5.4080380853
 20
4.6918747891
 30
0.0
 10
5.403982671
 20
4.694519971
 30
0.0
 10
5.3997922562
 20
4.6971431612
 30
0.0
 10
5.3954804009
 20
4.6997372772
 30
0.0
 10
5.3910608405
 20
4.7022951351
 30
0.0
 10
5.3865475502
 20
4.7048094439
 30
0.0
 10
5.3819549611
 20
4.7072731089
 30
0.0
 10
5.3772977047
 20
4.709678902
 30
0.0
 10
5.3725904576
 20
4.7120195781
 30
0.0
 10
5.3678479073
 20
4.7142878931
 30
0.0
 10
5.3630848131
 20
4.7164767333
 30
0.0
 10
5.3583159385
 20
4.7185789828
 30
0.0
 10
5.3535559972
 20
4.720587551
 30
0.0
 10
5.3488194663
 20
4.7224954441
 30
0.0
 10
5.3441206875
 20
4.7242961486
 30
0.0
 10
5.3394737649
 20
4.7259832577
 30
0.0
 10
5.3348925946
 20
4.7275504432
 30
0.0
 10
5.330390357
 20
4.7289915992
 30
0.0
 10
5.3259795571
 20
4.7303013874
 30
0.0
 10
5.321672022
 20
4.7314747258
 30
0.0
 10
5.3174794612
 20
4.7325065424
 30
0.0
 10
5.313413745
 20
4.7333918588
 30
0.0
 10
5.3094871629
 20
4.7341272151
 30
0.0
 10
5.3057121322
 20
4.7347090483
 30
0.0
 10
5.3032419275
 20
4.7349996292
 30
0.0
 10
5.302034951
 20
4.7351163246
 30
0.0
 11
5.4342281118
 21
4.6706414122
 31
0.0
 11
5.4316717164
 21
4.6732294943
 31
0.0
 11
5.4288899338
 21
4.6758498463
 31
0.0
 11
5.4258932662
 21
4.6784948876
 31
0.0
 11
5.4226922156
 21
4.6811570377
 31
0.0
 11
5.4192973824
 21
4.6838289264
 31
0.0
 11
5.4157198248
 21
4.6865041666
 31
0.0
 11
5.4119707348
 21
4.6891766578
 31
0.0
 11
5.4080613044
 21
4.6918403001
 31
0.0
 11
5.4040031712
 21
4.6944888079
 31
0.0
 11
5.3998096576
 21
4.6971151959
 31
0.0
 11
5.3954944842
 21
4.6997123135
 31
0.0
 11
5.3910713715
 21
4.7022730098
 31
0.0
 11
5.386554219
 21
4.7047901161
 31
0.0
 11
5.3819575733
 21
4.7072563992
 31
0.0
 11
5.3772961273
 21
4.709664611
 31
0.0
 11
5.3725845739
 21
4.7120075035
 31
0.0
 11
5.3678376212
 21
4.7142778505
 31
0.0
 11
5.3630700344
 21
4.716468506
 31
0.0
 11
5.3582965915
 21
4.7185723425
 31
0.0
 11
5.3535320705
 21
4.7205822322
 31
0.0
 11
5.3487911238
 21
4.7224911751
 31
0.0
 11
5.3440879368
 21
4.7242926446
 31
0.0
 11
5.3394365865
 21
4.7259802242
 31
0.0
 11
5.33485115
 21
4.7275474977
 31
0.0
 11
5.3303452537
 21
4.7289883031
 31
0.0
 11
5.3259309731
 21
4.7302973555
 31
0.0
 11
5.3216200506
 21
4.7314695579
 31
0.0
 11
5.3174242286
 21
4.732499814
 31
0.0
 11
5.3133554049
 21
4.7333833486
 31
0.0
 11
5.3094259468
 21
4.7341163587
 31
0.0
 11
5.3056483103
 21
4.7346952241
 31
0.0
 11
5.302034951
 21
4.7351163246
 31
0.0
  0
SPLINE
  5
2BD
100
AcDbEntity
  8
0
100
AcDbSpline
 62
6
  6
CONTINUOUS
 70
0
 71
3
 72
39
 73
35
 74
33
 42
0.0000001
 43
0.0000001
 44
0.0000000001
 12
-0.0866653188
 22
0.1213997612
 32
0.0
 13
-0.1450252983
 23
0.0348775333
 33
0.0
 40
0.0
 40
0.0
 40
0.0
 40
0.0
 40
0.0243882939
 40
0.0500090019
 40
0.0768058967
 40
0.1047180532
 40
0.1336813432
 40
0.1636303058
 40
0.1944972173
 40
0.2262121437
 40
0.258700224
 40
0.2918731203
 40
0.3256384257
 40
0.359902781
 40
0.394571005
 40
0.4295433514
 40
0.4647187213
 40
0.4999957312
 40
0.535272839
 40
0.5704483959
 40
0.6054208588
 40
0.64008897
 40
0.6743530284
 40
0.7081180137
 40
0.7412905806
 40
0.7737783395
 40
0.80549354
 40
0.8363616204
 40
0.8663122961
 40
0.8952775009
 40
0.9231914222
 40
0.949989729
 40
0.9756113704
 40
1.0
 40
1.0
 40
1.0
 40
1.0
 10
5.302034951
 20
4.7351163246
 30
0.0
 10
5.3013304113
 20
4.7361032357
 30
0.0
 10
5.2998437041
 20
4.7380971603
 30
0.0
 10
5.297452407
 20
4.7410754259
 30
0.0
 10
5.2948524259
 20
4.7441081248
 30
0.0
 10
5.2920530283
 20
4.74718629
 30
0.0
 10
5.289063352
 20
4.75030105
 30
0.0
 10
5.285893634
 20
4.7534446686
 30
0.0
 10
5.2825540606
 20
4.7566095551
 30
0.0
 10
5.279054919
 20
4.759788007
 30
0.0
 10
5.2754071099
 20
4.7629718508
 30
0.0
 10
5.2716225534
 20
4.7661527053
 30
0.0
 10
5.267713692
 20
4.7693216698
 30
0.0
 10
5.2636931275
 20
4.7724697188
 30
0.0
 10
5.2595736843
 20
4.775587687
 30
0.0
 10
5.2553686659
 20
4.7786665407
 30
0.0
 10
5.2510915553
 20
4.7816970856
 30
0.0
 10
5.2467558779
 20
4.7846701046
 30
0.0
 10
5.2423751702
 20
4.78757638
 30
0.0
 10
5.2379630578
 20
4.7904068131
 30
0.0
 10
5.2335331701
 20
4.7931523028
 30
0.0
 10
5.2290990909
 20
4.7958037795
 30
0.0
 10
5.2246741831
 20
4.7983523027
 30
0.0
 10
5.2202717421
 20
4.8007894265
 30
0.0
 10
5.2159048432
 20
4.8031068434
 30
0.0
 10
5.2115863666
 20
4.8052963529
 30
0.0
 10
5.2073285146
 20
4.8073500741
 30
0.0
 10
5.2031429276
 20
4.8092609802
 30
0.0
 10
5.1990406103
 20
4.8110223927
 30
0.0
 10
5.1950324523
 20
4.8126276595
 30
0.0
 10
5.1911295156
 20
4.8140701984
 30
0.0
 10
5.1873434885
 20
4.8153448728
 30
0.0
 10
5.1836861717
 20
4.8164464264
 30
0.0
 10
5.1812804479
 20
4.8170779654
 30
0.0
 10
5.1801014585
 20
4.8173615038
 30
0.0
 11
5.302034951
 21
4.7351163246
 31
0.0
 11
5.2998636258
 21
4.7380350013
 31
0.0
 11
5.2974735978
 21
4.7410170015
 31
0.0
 11
5.2948742121
 21
4.7440533569
 31
0.0
 11
5.2920748136
 21
4.7471350993
 31
0.0
 11
5.2890848737
 21
4.7502534549
 31
0.0
 11
5.2859144541
 21
4.7534005595
 31
0.0
 11
5.2825737889
 21
4.7565688148
 31
0.0
 11
5.2790731121
 21
4.7597506222
 31
0.0
 11
5.2754230735
 21
4.7629381378
 31
0.0
 11
5.2716358935
 21
4.7661225904
 31
0.0
 11
5.2677241639
 21
4.769294989
 31
0.0
 11
5.2637004767
 21
4.7724463431
 31
0.0
 11
5.2595775983
 21
4.7755676193
 31
0.0
 11
5.2553689272
 21
4.7786496301
 31
0.0
 11
5.2510880043
 21
4.7816831532
 31
0.0
 11
5.246748371
 21
4.7846589664
 31
0.0
 11
5.2423635866
 21
4.7875678666
 31
0.0
 11
5.2379472779
 21
4.7904007227
 31
0.0
 11
5.2335130873
 21
4.7931484196
 31
0.0
 11
5.2290746569
 21
4.7958018424
 31
0.0
 11
5.2246455222
 21
4.7983520198
 31
0.0
 11
5.2202388224
 21
4.8007905146
 31
0.0
 11
5.2158676045
 21
4.8031090137
 31
0.0
 11
5.2115449154
 21
4.805299204
 31
0.0
 11
5.2072833915
 21
4.8073530872
 31
0.0
 11
5.2030942552
 21
4.809263749
 31
0.0
 11
5.1989884254
 21
4.8110245082
 31
0.0
 11
5.1949768208
 21
4.8126286834
 31
0.0
 11
5.1910705588
 21
4.8140698903
 31
0.0
 11
5.1872813573
 21
4.8153426417
 31
0.0
 11
5.1836210469
 21
4.816441619
 31
0.0
 11
5.1801014585
 21
4.8173615038
 31
0.0
  0
LINE
  5
2BE
100
AcDbEntity
  8
0
100
AcDbLine
 62
6
  6
CONTINUOUS
 10
6.8425370201
 20
5.3575195615
 11
6.9456029062
 21
5.3279658943
  0
SPLINE
  5
2BF
100
AcDbEntity
  8
0
100
AcDbSpline
 62
6
  6
CONTINUOUS
 70
0
 71
3
 72
39
 73
35
 74
33
 42
0.0000001
 43
0.0000001
 44
0.0000000001
 12
-0.0689263166
 22
0.1322797882
 32
0.0
 13
-0.1387599076
 23
0.0547217281
 33
0.0
 40
0.0
 40
0.0
 40
0.0
 40
0.0
 40
0.0243882939
 40
0.0500090019
 40
0.0768058967
 40
0.1047180532
 40
0.1336813432
 40
0.1636303058
 40
0.1944972173
 40
0.2262121437
 40
0.258700224
 40
0.2918731203
 40
0.3256384257
 40
0.359902781
 40
0.394571005
 40
0.4295433514
 40
0.4647187213
 40
0.4999957312
 40
0.535272839
 40
0.5704483959
 40
0.6054208588
 40
0.64008897
 40
0.6743530284
 40
0.7081180137
 40
0.7412905806
 40
0.7737783395
 40
0.80549354
 40
0.8363616204
 40
0.8663122961
 40
0.8952775009
 40
0.9231914222
 40
0.949989729
 40
0.9756113704
 40
1.0
 40
1.0
 40
1.0
 40
1.0
 10
5.1801014585
 20
4.8173615038
 30
0.0
 10
5.1795411268
 20
4.8184368633
 30
0.0
 10
5.1783463888
 20
4.8206182928
 30
0.0
 10
5.1763928581
 20
4.8239003784
 30
0.0
 10
5.1742402499
 20
4.8272654107
 30
0.0
 10
5.1718964937
 20
4.8307032202
 30
0.0
 10
5.1693694035
 20
4.8342037502
 30
0.0
 10
5.1666680401
 20
4.8377579147
 30
0.0
 10
5.1638014343
 20
4.8413567796
 30
0.0
 10
5.1607787011
 20
4.8449912854
 30
0.0
 10
5.1576094977
 20
4.8486518211
 30
0.0
 10
5.1543044616
 20
4.8523284283
 30
0.0
 10
5.1508746756
 20
4.8560105609
 30
0.0
 10
5.1473313626
 20
4.8596875278
 30
0.0
 10
5.1436859469
 20
4.8633484679
 30
0.0
 10
5.1399503451
 20
4.8669825838
 30
0.0
 10
5.1361366293
 20
4.8705788944
 30
0.0
 10
5.1322569108
 20
4.8741263898
 30
0.0
 10
5.1283233111
 20
4.8776140582
 30
0.0
 10
5.1243480573
 20
4.8810309931
 30
0.0
 10
5.1203433793
 20
4.8843662851
 30
0.0
 10
5.1163214665
 20
4.8876090624
 30
0.0
 10
5.1122943074
 20
4.8907486117
 30
0.0
 10
5.1082738927
 20
4.8937747189
 30
0.0
 10
5.1042720143
 20
4.8966773377
 30
0.0
 10
5.1003002857
 20
4.8994465548
 30
0.0
 10
5.0963696935
 20
4.9020728678
 30
0.0
 10
5.0924907871
 20
4.9045476983
 30
0.0
 10
5.0886735345
 20
4.9068629011
 30
0.0
 10
5.0849277936
 20
4.9090103732
 30
0.0
 10
5.0812636026
 20
4.9109820572
 30
0.0
 10
5.0776918212
 20
4.9127712398
 30
0.0
 10
5.0742234039
 20
4.9143710732
 30
0.0
 10
5.0719289857
 20
4.9153312782
 30
0.0
 10
5.070800931
 20
4.9157761409
 30
0.0
 11
5.1801014585
 21
4.8173615038
 31
0.0
 11
5.1783574657
 21
4.8205539662
 31
0.0
 11
5.1764057116
 21
4.8238395734
 31
0.0
 11
5.1742542019
 21
4.8272081438
 31
0.0
 11
5.1719109426
 21
4.8306494958
 31
0.0
 11
5.1693840918
 21
4.8341536229
 31
0.0
 11
5.1666825188
 21
4.8377113373
 31
0.0
 11
5.1638153006
 21
4.8413136901
 31
0.0
 11
5.1607915142
 21
4.8449517324
 31
0.0
 11
5.1576206139
 21
4.8486162146
 31
0.0
 11
5.1543134806
 21
4.8522967498
 31
0.0
 11
5.1508813323
 21
4.8559826824
 31
0.0
 11
5.1473353871
 21
4.8596633568
 31
0.0
 11
5.14368703
 21
4.8633280507
 31
0.0
 11
5.1399482503
 21
4.8669658014
 31
0.0
 11
5.1361311739
 21
4.8705655918
 31
0.0
 11
5.1322479267
 21
4.8741164047
 31
0.0
 11
5.1283106554
 21
4.8776072398
 31
0.0
 11
5.1243315834
 21
4.8810271581
 31
0.0
 11
5.1203229515
 21
4.8843652347
 31
0.0
 11
5.1162970006
 21
4.8876105447
 31
0.0
 11
5.1122658861
 21
4.8907523203
 31
0.0
 11
5.1082414448
 21
4.893780378
 31
0.0
 11
5.10423544
 21
4.8966846695
 31
0.0
 11
5.1002596347
 21
4.8994551471
 31
0.0
 11
5.0963254289
 21
4.9020821315
 31
0.0
 11
5.0924429738
 21
4.904557214
 31
0.0
 11
5.0886221519
 21
4.9068722586
 31
0.0
 11
5.084872846
 21
4.9090191296
 31
0.0
 11
5.0812051767
 21
4.9109899574
 31
0.0
 11
5.0776299842
 21
4.9127776773
 31
0.0
 11
5.0741582438
 21
4.9143753762
 31
0.0
 11
5.070800931
 21
4.9157761409
 31
0.0
  0
SPLINE
  5
2C0
100
AcDbEntity
  8
0
100
AcDbSpline
 62
6
  6
CONTINUOUS
 70
0
 71
3
 72
39
 73
35
 74
33
 42
0.0000001
 43
0.0000001
 44
0.0000000001
 12
-0.04984574
 22
0.1405851337
 32
0.0
 13
-0.1297937077
 23
0.0735008235
 33
0.0
 40
0.0
 40
0.0
 40
0.0
 40
0.0
 40
0.0243881729
 40
0.0500086105
 40
0.0768051025
 40
0.1047167423
 40
0.1336794404
 40
0.1636278031
 40
0.1944941682
 40
0.2262086648
 40
0.2586962901
 40
0.291868617
 40
0.3256333479
 40
0.3598972339
 40
0.3945650827
 40
0.4295371276
 40
0.4647123375
 40
0.4999893975
 40
0.5352667861
 40
0.5704427271
 40
0.6054155228
 40
0.640083762
 40
0.6743476772
 40
0.7081121314
 40
0.7412835698
 40
0.7737693942
 40
0.8054823713
 40
0.8363488485
 40
0.8662991528
 40
0.8952658418
 40
0.9231830433
 40
0.9499852209
 40
0.9756100654
 40
1.0
 40
1.0
 40
1.0
 40
1.0
 10
5.070800931
 20
4.9157761409
 30
0.0
 10
5.0703957155
 20
4.9169190124
 30
0.0
 10
5.0695162101
 20
4.9192454703
 30
0.0
 10
5.0680384899
 20
4.9227674595
 30
0.0
 10
5.0663751821
 20
4.9263992769
 30
0.0
 10
5.0645327185
 20
4.9301297499
 30
0.0
 10
5.0625174411
 20
4.9339478405
 30
0.0
 10
5.0603370608
 20
4.9378433017
 30
0.0
 10
5.0579992664
 20
4.9418060346
 30
0.0
 10
5.0555118201
 20
4.9458257964
 30
0.0
 10
5.0528829565
 20
4.9498917213
 30
0.0
 10
5.0501218277
 20
4.9539924631
 30
0.0
 10
5.0472379327
 20
4.9581160385
 30
0.0
 10
5.0442408867
 20
4.9622503032
 30
0.0
 10
5.0411404947
 20
4.9663829193
 30
0.0
 10
5.0379470563
 20
4.9705015397
 30
0.0
 10
5.0346709904
 20
4.9745936118
 30
0.0
 10
5.0313227505
 20
4.978646551
 30
0.0
 10
5.0279128103
 20
4.9826477654
 30
0.0
 10
5.0244517684
 20
4.9865847431
 30
0.0
 10
5.0209502292
 20
4.9904449605
 30
0.0
 10
5.0174187591
 20
4.9942159375
 30
0.0
 10
5.0138677537
 20
4.9978853871
 30
0.0
 10
5.0103076895
 20
5.0014415223
 30
0.0
 10
5.0067488692
 20
5.0048727401
 30
0.0
 10
5.0032014108
 20
5.0081676121
 30
0.0
 10
4.9996748409
 20
5.011315257
 30
0.0
 10
4.9961783134
 20
5.0143057542
 30
0.0
 10
4.9927204638
 20
5.0171296954
 30
0.0
 10
4.9893098343
 20
5.0197776581
 30
0.0
 10
4.9859553479
 20
5.0222403436
 30
0.0
 10
4.9826669409
 20
5.0245095469
 30
0.0
 10
4.979454626
 20
5.0265768156
 30
0.0
 10
4.9773159989
 20
5.0278471466
 30
0.0
 10
4.9762607789
 20
5.0284447067
 30
0.0
 11
5.070800931
 21
4.9157761409
 31
0.0
 11
5.0695182244
 21
4.9191802352
 31
0.0
 11
5.0680427532
 21
4.9227054634
 31
0.0
 11
5.0663810253
 21
4.9263406304
 31
0.0
 11
5.0645395486
 21
4.930074541
 31
0.0
 11
5.0625250114
 21
4.9338961581
 31
0.0
 11
5.060344918
 21
4.9377951605
 31
0.0
 11
5.0580070037
 21
4.9417614296
 31
0.0
 11
5.0555190037
 21
4.9457848465
 31
0.0
 11
5.0528890067
 21
4.9498549195
 31
0.0
 11
5.05012635
 21
4.953959838
 31
0.0
 11
5.047240647
 21
4.9580875
 31
0.0
 11
5.0442415111
 21
4.9622258037
 31
0.0
 11
5.0411387286
 21
4.9663625478
 31
0.0
 11
5.0379426507
 21
4.9704852069
 31
0.0
 11
5.0346637431
 21
4.9745811896
 31
0.0
 11
5.0313124716
 21
4.9786379048
 31
0.0
 11
5.0278993323
 21
4.9826427709
 31
0.0
 11
5.024434919
 21
4.9865832399
 31
0.0
 11
5.0209298461
 21
4.9904467699
 31
0.0
 11
5.0173947278
 21
4.9942208196
 31
0.0
 11
5.0138401127
 21
4.9978930301
 31
0.0
 11
5.0102763257
 21
5.0014516649
 31
0.0
 11
5.0067136441
 21
5.0048851204
 31
0.0
 11
5.003162345
 21
5.008181793
 31
0.0
 11
4.9996323203
 21
5.0113305719
 31
0.0
 11
4.9961323342
 21
5.0143217898
 31
0.0
 11
4.9926709453
 21
5.0171460422
 31
0.0
 11
4.9892567142
 21
5.0197939257
 31
0.0
 11
4.9858986204
 21
5.0222562903
 31
0.0
 11
4.9826065754
 21
5.0245245492
 31
0.0
 11
4.979390616
 21
5.0265901917
 31
0.0
 11
4.9762607789
 21
5.0284447067
 31
0.0
  0
SPLINE
  5
2C1
100
AcDbEntity
  8
0
100
AcDbSpline
 62
6
  6
CONTINUOUS
 70
0
 71
3
 72
39
 73
35
 74
33
 42
0.0000001
 43
0.0000001
 44
0.0000000001
 12
-0.0297949742
 22
0.1461541479
 32
0.0
 13
-0.1183012209
 23
0.0908493069
 33
0.0
 40
0.0
 40
0.0
 40
0.0
 40
0.0
 40
0.0243909696
 40
0.0500182789
 40
0.076823183
 40
0.104742181
 40
0.1337086001
 40
0.1636567555
 40
0.1945203598
 40
0.2262309013
 40
0.2587155807
 40
0.291886906
 40
0.325651812
 40
0.3599162824
 40
0.3945847758
 40
0.4295574983
 40
0.4647331592
 40
0.5000101799
 40
0.5352868752
 40
0.5704616778
 40
0.6054331841
 40
0.6401002747
 40
0.6743631893
 40
0.708126886
 40
0.7412982216
 40
0.7737850054
 40
0.8054992881
 40
0.8363662892
 40
0.8663158266
 40
0.8952799335
 40
0.923192906
 40
0.9499904719
 40
0.97561161
 40
1.0
 40
1.0
 40
1.0
 40
1.0
 10
4.9762607789
 20
5.0284447067
 30
0.0
 10
4.9760185361
 20
5.0296329872
 30
0.0
 10
4.975471181
 20
5.0320596593
 30
0.0
 10
4.9744976086
 20
5.0357538556
 30
0.0
 10
4.9733555031
 20
5.0395828595
 30
0.0
 10
4.9720498939
 20
5.0435343828
 30
0.0
 10
4.9705855478
 20
5.0475963433
 30
0.0
 10
4.9689684481
 20
5.0517573539
 30
0.0
 10
4.9672049145
 20
5.0560065085
 30
0.0
 10
4.9653011798
 20
5.0603328374
 30
0.0
 10
4.9632638486
 20
5.064724664
 30
0.0
 10
4.9611003205
 20
5.0691695716
 30
0.0
 10
4.9588183497
 20
5.0736543467
 30
0.0
 10
4.9564258046
 20
5.0781655402
 30
0.0
 10
4.953930666
 20
5.0826894996
 30
0.0
 10
4.9513414194
 20
5.0872125299
 30
0.0
 10
4.9486666662
 20
5.0917207359
 30
0.0
 10
4.9459150354
 20
5.0962001783
 30
0.0
 10
4.9430951516
 20
5.1006369207
 30
0.0
 10
4.9402157568
 20
5.1050171103
 30
0.0
 10
4.937285595
 20
5.1093269072
 30
0.0
 10
4.9343133881
 20
5.1135525154
 30
0.0
 10
4.9313076975
 20
5.1176803292
 30
0.0
 10
4.9282772208
 20
5.1216972226
 30
0.0
 10
4.925230521
 20
5.1255903093
 30
0.0
 10
4.9221760311
 20
5.1293468734
 30
0.0
 10
4.9191216965
 20
5.1329547417
 30
0.0
 10
4.9160752973
 20
5.1364027432
 30
0.0
 10
4.9130441763
 20
5.1396803048
 30
0.0
 10
4.9100355738
 20
5.1427769403
 30
0.0
 10
4.9070568967
 20
5.1456821356
 30
0.0
 10
4.9041167195
 20
5.1483864434
 30
0.0
 10
4.9012236859
 20
5.150880271
 30
0.0
 10
4.8992828442
 20
5.1524356799
 30
0.0
 10
4.8983211188
 20
5.153174236
 30
0.0
 11
4.9762607789
 21
5.0284447067
 31
0.0
 11
4.9754641361
 21
5.0319945783
 31
0.0
 11
4.9744932295
 21
5.0356917967
 31
0.0
 11
4.9733531337
 21
5.0395240272
 31
0.0
 11
4.9720489233
 21
5.0434789353
 31
0.0
 11
4.9705857491
 21
5.0475442807
 31
0.0
 11
4.9689694739
 21
5.0517087018
 31
0.0
 11
4.9672063481
 21
5.0559613159
 31
0.0
 11
4.9653026259
 21
5.060291245
 31
0.0
 11
4.9632647643
 21
5.064687293
 31
0.0
 11
4.9611002895
 21
5.0691365846
 31
0.0
 11
4.9588170796
 21
5.0736256924
 31
0.0
 11
4.9564230127
 21
5.0781411886
 31
0.0
 11
4.9539260791
 21
5.0826695685
 31
0.0
 11
4.9513347771
 21
5.0871969782
 31
0.0
 11
4.9486577488
 21
5.0917094645
 31
0.0
 11
4.9459036366
 21
5.0961930745
 31
0.0
 11
4.9430810976
 21
5.100633869
 31
0.0
 11
4.9401988591
 21
5.1050179734
 31
0.0
 11
4.9372656691
 21
5.109331532
 31
0.0
 11
4.9342902755
 21
5.1135606893
 31
0.0
 11
4.9312813939
 21
5.1176917329
 31
0.0
 11
4.9282475916
 21
5.121711604
 31
0.0
 11
4.9251973939
 21
5.1256074294
 31
0.0
 11
4.922139326
 21
5.1293663363
 31
0.0
 11
4.9190816947
 21
5.1329758535
 31
0.0
 11
4.9160319579
 21
5.1364250723
 31
0.0
 11
4.9129973672
 21
5.1397034636
 31
0.0
 11
4.909985174
 21
5.1428004982
 31
0.0
 11
4.9070029185
 21
5.1457058261
 31
0.0
 11
4.9040590614
 21
5.1484096684
 31
0.0
 11
4.9011622468
 21
5.1509023601
 31
0.0
 11
4.8983211188
 21
5.153174236
 31
0.0
  0
SPLINE
  5
2C2
100
AcDbEntity
  8
0
100
AcDbSpline
 62
6
  6
CONTINUOUS
 70
0
 71
3
 72
39
 73
35
 74
33
 42
0.0000001
 43
0.0000001
 44
0.0000000001
 12
-0.0091642865
 22
0.1488784583
 32
0.0
 13
-0.1045061513
 23
0.1064295251
 33
0.0
 40
0.0
 40
0.0
 40
0.0
 40
0.0
 40
0.0243882939
 40
0.0500090019
 40
0.0768058967
 40
0.1047180532
 40
0.1336813432
 40
0.1636303058
 40
0.1944972173
 40
0.2262121437
 40
0.258700224
 40
0.2918731203
 40
0.3256384257
 40
0.359902781
 40
0.394571005
 40
0.4295433514
 40
0.4647187213
 40
0.4999957312
 40
0.535272839
 40
0.5704483959
 40
0.6054208588
 40
0.64008897
 40
0.6743530284
 40
0.7081180137
 40
0.7412905806
 40
0.7737783395
 40
0.80549354
 40
0.8363616204
 40
0.8663122961
 40
0.8952775009
 40
0.9231914222
 40
0.949989729
 40
0.9756113704
 40
1.0
 40
1.0
 40
1.0
 40
1.0
 10
4.8983211188
 20
5.153174236
 30
0.0
 10
4.8982466184
 20
5.1543845332
 30
0.0
 10
4.8980424382
 20
5.156863312
 30
0.0
 10
4.8975927437
 20
5.1606562189
 30
0.0
 10
4.8969949201
 20
5.1646058734
 30
0.0
 10
4.8962520753
 20
5.1686997603
 30
0.0
 10
4.8953672574
 20
5.1729255137
 30
0.0
 10
4.8943450482
 20
5.177271148
 30
0.0
 10
4.8931900636
 20
5.1817248283
 30
0.0
 10
4.8919069461
 20
5.1862745709
 30
0.0
 10
4.8905006087
 20
5.1909076679
 30
0.0
 10
4.8889767189
 20
5.195610695
 30
0.0
 10
4.8873411117
 20
5.2003695102
 30
0.0
 10
4.8855996914
 20
5.2051697817
 30
0.0
 10
4.883758477
 20
5.2099969411
 30
0.0
 10
4.881823963
 20
5.2148362773
 30
0.0
 10
4.8798027116
 20
5.2196728485
 30
0.0
 10
4.8777013087
 20
5.2244916705
 30
0.0
 10
4.8755263491
 20
5.2292777532
 30
0.0
 10
4.8732845667
 20
5.23401616
 30
0.0
 10
4.8709826967
 20
5.2386919501
 30
0.0
 10
4.8686274529
 20
5.2432902339
 30
0.0
 10
4.8662254298
 20
5.2477963481
 30
0.0
 10
4.8637834269
 20
5.2521960846
 30
0.0
 10
4.8613081305
 20
5.2564754694
 30
0.0
 10
4.8588061179
 20
5.2606207226
 30
0.0
 10
4.856283561
 20
5.2646186948
 30
0.0
 10
4.8537466079
 20
5.2684572583
 30
0.0
 10
4.851201052
 20
5.2721249178
 30
0.0
 10
4.848652603
 20
5.2756102614
 30
0.0
 10
4.8461071541
 20
5.2789018451
 30
0.0
 10
4.8435718955
 20
5.281989119
 30
0.0
 10
4.8410540495
 20
5.284861372
 30
0.0
 10
4.8393485447
 20
5.2866717869
 30
0.0
 10
4.8384989574
 20
5.2875370103
 30
0.0
 11
4.8983211188
 21
5.153174236
 31
0.0
 11
4.8980263935
 21
5.1568000413
 31
0.0
 11
4.8975797542
 21
5.1605954427
 31
0.0
 11
4.8969843733
 21
5.1645478828
 31
0.0
 11
4.8962434235
 21
5.1686448037
 31
0.0
 11
4.8953602873
 21
5.1728737459
 31
0.0
 11
4.8943393304
 21
5.1772227085
 31
0.0
 11
4.8931852051
 21
5.1816798242
 31
0.0
 11
4.8919025638
 21
5.1862332259
 31
0.0
 11
4.8904962815
 21
5.1908706183
 31
0.0
 11
4.8889720734
 21
5.1955780868
 31
0.0
 11
4.8873358538
 21
5.2003413343
 31
0.0
 11
4.8855935367
 21
5.2051460635
 31
0.0
 11
4.883751162
 21
5.2099778485
 31
0.0
 11
4.8818152233
 21
5.2148217979
 31
0.0
 11
4.8797923172
 21
5.2196629149
 31
0.0
 11
4.8776890401
 21
5.2244862028
 31
0.0
 11
4.8755120143
 21
5.2292766719
 31
0.0
 11
4.8732679572
 21
5.2340193571
 31
0.0
 11
4.8709636078
 21
5.2386992993
 31
0.0
 11
4.8686057051
 21
5.2433015392
 31
0.0
 11
4.8662009741
 21
5.2478112961
 31
0.0
 11
4.863756086
 21
5.2522144521
 31
0.0
 11
4.8612777003
 21
5.2564970434
 31
0.0
 11
4.8587724761
 21
5.2606451063
 31
0.0
 11
4.8562468912
 21
5.2646451617
 31
0.0
 11
4.8537067987
 21
5.2684853988
 31
0.0
 11
4.8511579177
 21
5.2721543656
 31
0.0
 11
4.8486059674
 21
5.2756406099
 31
0.0
 11
4.8460569927
 21
5.2789328261
 31
0.0
 11
4.843518023
 21
5.2820201514
 31
0.0
 11
4.840996273
 21
5.284891806
 31
0.0
 11
4.8384989574
 21
5.2875370103
 31
0.0
  0
SPLINE
  5
2C3
100
AcDbEntity
  8
0
100
AcDbSpline
 62
6
  6
CONTINUOUS
 70
0
 71
3
 72
39
 73
35
 74
33
 42
0.0000001
 43
0.0000001
 44
0.0000000001
 12
0.0116447764
 22
0.1487050055
 32
0.0
 13
-0.0886769776
 23
0.1199382055
 33
0.0
 40
0.0
 40
0.0
 40
0.0
 40
0.0
 40
0.0243882939
 40
0.0500090019
 40
0.0768058967
 40
0.1047180532
 40
0.1336813432
 40
0.1636303058
 40
0.1944972173
 40
0.2262121437
 40
0.258700224
 40
0.2918731203
 40
0.3256384257
 40
0.359902781
 40
0.394571005
 40
0.4295433514
 40
0.4647187213
 40
0.4999957312
 40
0.535272839
 40
0.5704483959
 40
0.6054208588
 40
0.64008897
 40
0.6743530284
 40
0.7081180137
 40
0.7412905806
 40
0.7737783395
 40
0.80549354
 40
0.8363616204
 40
0.8663122961
 40
0.8952775009
 40
0.9231914222
 40
0.949989729
 40
0.9756113704
 40
1.0
 40
1.0
 40
1.0
 40
1.0
 10
4.8384989574
 20
5.2875370103
 30
0.0
 10
4.8385936229
 20
5.2887458974
 30
0.0
 10
4.8387364091
 20
5.2912289693
 30
0.0
 10
4.8388189616
 20
5.2950475492
 30
0.0
 10
4.8387766417
 20
5.299041967
 30
0.0
 10
4.8386107851
 20
5.3031993964
 30
0.0
 10
4.8383226894
 20
5.3075071679
 30
0.0
 10
4.8379152236
 20
5.3119527749
 30
0.0
 10
4.8373913118
 20
5.3165238551
 30
0.0
 10
4.8367538833
 20
5.3212078953
 30
0.0
 10
4.8360060348
 20
5.3259916276
 30
0.0
 10
4.8351515102
 20
5.3308609696
 30
0.0
 10
4.8341941197
 20
5.3358011049
 30
0.0
 10
4.8331377155
 20
5.3407970194
 30
0.0
 10
4.8319862303
 20
5.3458334487
 30
0.0
 10
4.8307440483
 20
5.3508949211
 30
0.0
 10
4.8294155882
 20
5.355965727
 30
0.0
 10
4.8280052864
 20
5.3610301113
 30
0.0
 10
4.8265175874
 20
5.3660723121
 30
0.0
 10
4.8249570806
 20
5.3710766008
 30
0.0
 10
4.8233283565
 20
5.3760272448
 30
0.0
 10
4.8216359911
 20
5.380908565
 30
0.0
 10
4.8198844742
 20
5.385705123
 30
0.0
 10
4.8180785617
 20
5.3904019027
 30
0.0
 10
4.81622293
 20
5.3949841355
 30
0.0
 10
4.8143221746
 20
5.3994372603
 30
0.0
 10
4.8123805772
 20
5.4037473965
 30
0.0
 10
4.8104025383
 20
5.407901679
 30
0.0
 10
4.8083921951
 20
5.4118879181
 30
0.0
 10
4.8063536135
 20
5.415694018
 30
0.0
 10
4.8042910367
 20
5.4193078263
 30
0.0
 10
4.8022101166
 20
5.4227178948
 30
0.0
 10
4.8001165144
 20
5.4259126117
 30
0.0
 10
4.7986795685
 20
5.4279427681
 30
0.0
 10
4.7979586652
 20
5.428917811
 30
0.0
 11
4.8384989574
 21
5.2875370103
 31
0.0
 11
4.838711715
 21
5.2911685473
 31
0.0
 11
4.8387976401
 21
5.2949891723
 31
0.0
 11
4.8387581268
 21
5.2989860085
 31
0.0
 11
4.838594569
 21
5.3031461787
 31
0.0
 11
4.8383085824
 21
5.307456874
 31
0.0
 11
4.83790282
 21
5.3119056025
 31
0.0
 11
4.8373802372
 21
5.316479965
 31
0.0
 11
4.8367437896
 21
5.3211675625
 31
0.0
 11
4.8359965933
 21
5.3259555408
 31
0.0
 11
4.8351423717
 21
5.3308293254
 31
0.0
 11
4.8341849916
 21
5.335773935
 31
0.0
 11
4.8331283197
 21
5.3407743886
 31
0.0
 11
4.8319763293
 21
5.34581556
 31
0.0
 11
4.8307333786
 21
5.350881799
 31
0.0
 11
4.8294039125
 21
5.3559573367
 31
0.0
 11
4.8279923763
 21
5.3610264043
 31
0.0
 11
4.8265032416
 21
5.3660732363
 31
0.0
 11
4.8249410777
 21
5.3710820784
 31
0.0
 11
4.8233104761
 21
5.3760371792
 31
0.0
 11
4.8216160284
 21
5.380922787
 31
0.0
 11
4.8198623369
 21
5.3857233291
 31
0.0
 11
4.8180540432
 21
5.3904238966
 31
0.0
 11
4.8161957985
 21
5.3950097346
 31
0.0
 11
4.8142922538
 21
5.3994660887
 31
0.0
 11
4.8123479477
 21
5.4037787093
 31
0.0
 11
4.8103670329
 21
5.4079350861
 31
0.0
 11
4.808353579
 21
5.4119230824
 31
0.0
 11
4.8063116555
 21
5.4157305616
 31
0.0
 11
4.8042456752
 21
5.4193454869
 31
0.0
 11
4.8021610872
 21
5.4227561228
 31
0.0
 11
4.8000635358
 21
5.4259507904
 31
0.0
 11
4.7979586652
 21
5.428917811
 31
0.0
  0
SPLINE
  5
2C4
100
AcDbEntity
  8
0
100
AcDbSpline
 62
6
  6
CONTINUOUS
 70
0
 71
3
 72
39
 73
35
 74
33
 42
0.0000001
 43
0.0000001
 44
0.0000000001
 12
0.032227187
 22
0.145637179
 32
0.0
 13
-0.0711218074
 23
0.131112425
 33
0.0
 40
0.0
 40
0.0
 40
0.0
 40
0.0
 40
0.0243882939
 40
0.0500090019
 40
0.0768058967
 40
0.1047180532
 40
0.1336813432
 40
0.1636303058
 40
0.1944972173
 40
0.2262121437
 40
0.258700224
 40
0.2918731203
 40
0.3256384257
 40
0.359902781
 40
0.394571005
 40
0.4295433514
 40
0.4647187213
 40
0.4999957312
 40
0.535272839
 40
0.5704483959
 40
0.6054208588
 40
0.64008897
 40
0.6743530284
 40
0.7081180137
 40
0.7412905806
 40
0.7737783395
 40
0.80549354
 40
0.8363616204
 40
0.8663122961
 40
0.8952775009
 40
0.9231914222
 40
0.949989729
 40
0.9756113704
 40
1.0
 40
1.0
 40
1.0
 40
1.0
 10
4.7979586652
 20
5.428917811
 30
0.0
 10
4.7982206539
 20
5.4301017584
 30
0.0
 10
4.7987076274
 20
5.4325407932
 30
0.0
 10
4.7993208201
 20
5.4363107219
 30
0.0
 10
4.7998348275
 20
5.440272156
 30
0.0
 10
4.8002491875
 20
5.4444122084
 30
0.0
 10
4.8005634214
 20
5.4487181521
 30
0.0
 10
4.8007786299
 20
5.4531772031
 30
0.0
 10
4.8008959882
 20
5.4577767122
 30
0.0
 10
4.8009166555
 20
5.4625038806
 30
0.0
 10
4.8008418518
 20
5.4673451384
 30
0.0
 10
4.8006733249
 20
5.4722860191
 30
0.0
 10
4.8004127856
 20
5.4773113204
 30
0.0
 10
4.8000619591
 20
5.482405638
 30
0.0
 10
4.7996226156
 20
5.4875533089
 30
0.0
 10
4.7990969432
 20
5.4927384017
 30
0.0
 10
4.7984871314
 20
5.4979447447
 30
0.0
 10
4.7977953806
 20
5.5031561189
 30
0.0
 10
4.7970238985
 20
5.508356297
 30
0.0
 10
4.7961750409
 20
5.5135290649
 30
0.0
 10
4.7952511639
 20
5.5186582042
 30
0.0
 10
4.7942546169
 20
5.5237275515
 30
0.0
 10
4.7931876975
 20
5.5287211937
 30
0.0
 10
4.7920530254
 20
5.5336235991
 30
0.0
 10
4.7908531761
 20
5.538419492
 30
0.0
 10
4.7895906739
 20
5.5430938133
 30
0.0
 10
4.7882678271
 20
5.5476322217
 30
0.0
 10
4.7868872027
 20
5.5520213648
 30
0.0
 10
4.7854512013
 20
5.5562485957
 30
0.0
 10
4.7839621658
 20
5.5603013707
 30
0.0
 10
4.7824226067
 20
5.5641670648
 30
0.0
 10
4.7808365278
 20
5.5678335549
 30
0.0
 10
4.779207919
 20
5.5712885542
 30
0.0
 10
4.7780675006
 20
5.5734989375
 30
0.0
 10
4.7774893128
 20
5.5745648216
 30
0.0
 11
4.7979586652
 21
5.428917811
 31
0.0
 11
4.7986747645
 21
5.432484396
 31
0.0
 11
4.7992915816
 21
5.4362558805
 31
0.0
 11
4.7998087049
 21
5.4402193189
 31
0.0
 11
4.8002257226
 21
5.4443617655
 31
0.0
 11
4.8005424521
 21
5.448670311
 31
0.0
 11
4.8007597819
 21
5.453132216
 31
0.0
 11
4.800878913
 21
5.4577347906
 31
0.0
 11
4.8009010468
 21
5.4624653451
 31
0.0
 11
4.80082748
 21
5.4673107168
 31
0.0
 11
4.8006598713
 21
5.4722559547
 31
0.0
 11
4.800399965
 21
5.4772856853
 31
0.0
 11
4.8000495052
 21
5.4823845351
 31
0.0
 11
4.7996103214
 21
5.4875369722
 31
0.0
 11
4.7990845511
 21
5.4927268922
 31
0.0
 11
4.7984744016
 21
5.497938061
 31
0.0
 11
4.7977820802
 21
5.5031542447
 31
0.0
 11
4.7970098209
 21
5.5083592088
 31
0.0
 11
4.796159956
 21
5.5135367164
 31
0.0
 11
4.7952348401
 21
5.5186705303
 31
0.0
 11
4.7942368278
 21
5.5237444133
 31
0.0
 11
4.7931683094
 21
5.5287423036
 31
0.0
 11
4.7920318065
 21
5.5336487913
 31
0.0
 11
4.7908298714
 21
5.538448618
 31
0.0
 11
4.7895650564
 21
5.5431265253
 31
0.0
 11
4.788239873
 21
5.5476677709
 31
0.0
 11
4.7868566922
 21
5.5520593881
 31
0.0
 11
4.7854178548
 21
5.5562887921
 31
0.0
 11
4.7839257019
 21
5.5603433981
 31
0.0
 11
4.782382928
 21
5.5642106721
 31
0.0
 11
4.7807932958
 21
5.5678782345
 31
0.0
 11
4.7791607694
 21
5.5713337346
 31
0.0
 11
4.7774893128
 21
5.5745648216
 31
0.0
  0
SPLINE
  5
2C5
100
AcDbEntity
  8
0
100
AcDbSpline
 62
6
  6
CONTINUOUS
 70
0
 71
3
 72
23
 73
19
 74
17
 42
0.0000001
 43
0.0000001
 44
0.0000000001
 12
0.0260911663
 22
0.0698673458
 32
0.0
 13
0.0
 23
0.0745801245
 33
0.0
 40
0.0
 40
0.0
 40
0.0
 40
0.0
 40
0.0487750417
 40
0.100013247
 40
0.1536044498
 40
0.2094291349
 40
0.2673605015
 40
0.3272648973
 40
0.389002916
 40
0.4524307139
 40
0.5173973501
 40
0.5837343816
 40
0.6512672435
 40
0.7198194974
 40
0.7892035477
 40
0.859189531
 40
0.929535772
 40
1.0
 40
1.0
 40
1.0
 40
1.0
 10
4.7774893128
 20
5.5745648216
 30
0.0
 10
4.777913512
 20
5.5757007492
 30
0.0
 10
4.7787351819
 20
5.5780481523
 30
0.0
 10
4.779867075
 20
5.581695863
 30
0.0
 10
4.7809273902
 20
5.5855470735
 30
0.0
 10
4.7819138737
 20
5.5895892407
 30
0.0
 10
4.7828242941
 20
5.593809848
 30
0.0
 10
4.7836580149
 20
5.5981959381
 30
0.0
 10
4.7844144071
 20
5.6027345606
 30
0.0
 10
4.7850928268
 20
5.6074126537
 30
0.0
 10
4.7856925948
 20
5.612216689
 30
0.0
 10
4.7862133792
 20
5.617132536
 30
0.0
 10
4.7866547691
 20
5.6221456166
 30
0.0
 10
4.7870163284
 20
5.627241014
 30
0.0
 10
4.7872975859
 20
5.6324025367
 30
0.0
 10
4.7874985941
 20
5.637612432
 30
0.0
 10
4.7876192853
 20
5.6428516482
 30
0.0
 10
4.787646161
 20
5.6463522616
 30
0.0
 10
4.787646161
 20
5.6481040052
 30
0.0
 11
4.7774893128
 21
5.5745648216
 31
0.0
 11
4.7786948045
 21
5.5779969168
 31
0.0
 11
4.7798304799
 21
5.5816456112
 31
0.0
 11
4.7808941398
 21
5.5854983175
 31
0.0
 11
4.7818835852
 21
5.5895424487
 31
0.0
 11
4.782796869
 21
5.5937653481
 31
0.0
 11
4.7836331077
 21
5.5981540661
 31
0.0
 11
4.7843916988
 21
5.6026955754
 31
0.0
 11
4.7850720399
 21
5.607376849
 31
0.0
 11
4.7856735614
 21
5.6121845851
 31
0.0
 11
4.7861958288
 21
5.6171043658
 31
0.0
 11
4.7866384416
 21
5.6221214891
 31
0.0
 11
4.7870009994
 21
5.6272212533
 31
0.0
 11
4.7872831542
 21
5.6323882263
 31
0.0
 11
4.7874847787
 21
5.6376038939
 31
0.0
 11
4.787605804
 21
5.6428489293
 31
0.0
 11
4.787646161
 21
5.6481040052
 31
0.0
  0
SPLINE
  5
2C6
100
AcDbEntity
  8
0
100
AcDbSpline
 62
6
  6
CONTINUOUS
 70
0
 71
3
 72
65
 73
61
 74
59
 42
0.0000001
 43
0.0000001
 44
0.0000000001
 12
-0.2136747114
 22
-0.2000594845
 32
0.0
 13
0.2581731269
 23
-0.1379395381
 33
0.0
 40
0.0
 40
0.0
 40
0.0
 40
0.0
 40
0.0304530782
 40
0.0606587557
 40
0.0756808185
 40
0.0906532551
 40
0.105579629
 40
0.1204655052
 40
0.1501531303
 40
0.1649787411
 40
0.1798056116
 40
0.1946445954
 40
0.2095077982
 40
0.2244101931
 40
0.2393676988
 40
0.2543968367
 40
0.2695146846
 40
0.2847389715
 40
0.3000890676
 40
0.3155857097
 40
0.3312505669
 40
0.3471061637
 40
0.363174138
 40
0.379469473
 40
0.3960067379
 40
0.4128024662
 40
0.4298719256
 40
0.4471887301
 40
0.4646968571
 40
0.4735058354
 40
0.4823423358
 40
0.4911999047
 40
0.5000709574
 40
0.5089458785
 40
0.5178147418
 40
0.5354933253
 40
0.5442833524
 40
0.5530266231
 40
0.5617128258
 40
0.5703342295
 40
0.5873821175
 40
0.6041764683
 40
0.6207217969
 40
0.6370204113
 40
0.653081182
 40
0.6689277187
 40
0.6845843061
 40
0.700074068
 40
0.7154185946
 40
0.7306375549
 40
0.7457498215
 40
0.7607736376
 40
0.7906210268
 40
0.8203089109
 40
0.8499483859
 40
0.8796236222
 40
0.9094085149
 40
0.939366101
 40
0.9695521371
 40
1.0
 40
1.0
 40
1.0
 40
1.0
 10
4.8745439795
 20
5.6481040052
 30
0.0
 10
4.8723749619
 20
5.6460731961
 30
0.0
 10
4.8681640963
 20
5.6419093193
 30
0.0
 10
4.8632011537
 20
5.6364365101
 30
0.0
 10
4.8594345741
 20
5.6319285903
 30
0.0
 10
4.8567152785
 20
5.6284904885
 30
0.0
 10
4.8540967754
 20
5.6249915815
 30
0.0
 10
4.8507432421
 20
5.6202520595
 30
0.0
 10
4.8475874928
 20
5.6153868845
 30
0.0
 10
4.8446375172
 20
5.6104042677
 30
0.0
 10
4.8425284669
 20
5.6066092965
 30
0.0
 10
4.8405223016
 20
5.60275486
 30
0.0
 10
4.8386194773
 20
5.5988401484
 30
0.0
 10
4.8368221602
 20
5.5948631732
 30
0.0
 10
4.8351321573
 20
5.5908218492
 30
0.0
 10
4.833551315
 20
5.586714039
 30
0.0
 10
4.8320815069
 20
5.5825375883
 30
0.0
 10
4.8307243795
 20
5.5782902689
 30
0.0
 10
4.8294833278
 20
5.573969097
 30
0.0
 10
4.82836206
 20
5.5695709065
 30
0.0
 10
4.827364168
 20
5.5650925249
 30
0.0
 10
4.8264933414
 20
5.5605309353
 30
0.0
 10
4.8257532054
 20
5.5558839926
 30
0.0
 10
4.8251515809
 20
5.5511499834
 30
0.0
 10
4.8246967377
 20
5.5463282458
 30
0.0
 10
4.8243969071
 20
5.541418668
 30
0.0
 10
4.8242605579
 20
5.5364256956
 30
0.0
 10
4.8242944473
 20
5.5313614674
 30
0.0
 10
4.8244699025
 20
5.5271067336
 30
0.0
 10
4.824702148
 20
5.5236844859
 30
0.0
 10
4.8249237171
 20
5.5211079204
 30
0.0
 10
4.8251933198
 20
5.5185298487
 30
0.0
 10
4.8255111445
 20
5.5159535037
 30
0.0
 10
4.8258757445
 20
5.5133822434
 30
0.0
 10
4.8264220544
 20
5.5099693634
 30
0.0
 10
4.8270569136
 20
5.5065795453
 30
0.0
 10
4.827777479
 20
5.5032201721
 30
0.0
 10
4.8283574979
 20
5.5007283916
 30
0.0
 10
4.8289769266
 20
5.4982630778
 30
0.0
 10
4.8298507765
 20
5.4950267403
 30
0.0
 10
4.8310343886
 20
5.4910552614
 30
0.0
 10
4.8325975033
 20
5.4863930706
 30
0.0
 10
4.8342879418
 20
5.4818534865
 30
0.0
 10
4.8360956953
 20
5.4774366484
 30
0.0
 10
4.8380129217
 20
5.4731408053
 30
0.0
 10
4.840035619
 20
5.468963117
 30
0.0
 10
4.8421599489
 20
5.4648989773
 30
0.0
 10
4.8443822092
 20
5.4609436778
 30
0.0
 10
4.8466987642
 20
5.4570926238
 30
0.0
 10
4.8491081572
 20
5.4533426914
 30
0.0
 10
4.8516087844
 20
5.4496908104
 30
0.0
 10
4.8550544949
 20
5.4449591874
 30
0.0
 10
4.8595876779
 20
5.4392639945
 30
0.0
 10
4.865383218
 20
5.4327684725
 30
0.0
 10
4.8715125662
 20
5.4266106651
 30
0.0
 10
4.8779735225
 20
5.4207877361
 30
0.0
 10
4.8847612842
 20
5.4152998365
 30
0.0
 10
4.8918746152
 20
5.4101553476
 30
0.0
 10
4.8993082075
 20
5.4053654358
 30
0.0
 10
4.904451071
 20
5.4024341281
 30
0.0
 10
4.9070713443
 20
5.40103414
 30
0.0
 11
4.8745439795
 21
5.6481040052
 31
0.0
 11
4.8682056555
 21
5.6418362263
 31
0.0
 11
4.8622661685
 21
5.635286716
 31
0.0
 11
4.8594467594
 21
5.6319124253
 31
0.0
 11
4.8567279844
 21
5.6284750381
 31
0.0
 11
4.8541101515
 21
5.6249769931
 31
0.0
 11
4.8515935765
 21
5.6214199195
 31
0.0
 11
4.8468655193
 21
5.6141287894
 31
0.0
 11
4.8446546992
 21
5.6103945185
 31
0.0
 11
4.8425464595
 21
5.6066009672
 31
0.0
 11
4.8405411339
 21
5.602748025
 31
0.0
 11
4.8386394973
 21
5.5988349816
 31
0.0
 11
4.8368432602
 21
5.5948598571
 31
0.0
 11
4.8351542525
 21
5.590820509
 31
0.0
 11
4.833574304
 21
5.5867147953
 31
0.0
 11
4.8321052446
 21
5.5825405737
 31
0.0
 11
4.8307490674
 21
5.5782956052
 31
0.0
 11
4.8295088966
 21
5.5739769798
 31
0.0
 11
4.8283883349
 21
5.569581504
 31
0.0
 11
4.8273909867
 21
5.5651059833
 31
0.0
 11
4.8265204562
 21
5.560547223
 31
0.0
 11
4.8257809988
 21
5.555902417
 31
0.0
 11
4.8251799366
 21
5.5511705891
 31
0.0
 11
4.8247254944
 21
5.5463513016
 31
0.0
 11
4.8244258971
 21
5.5414441171
 31
0.0
 11
4.8242893233
 21
5.5364495377
 31
0.0
 11
4.8243233239
 21
5.5313808045
 31
0.0
 11
4.8245349978
 21
5.526260328
 31
0.0
 11
4.8247096776
 21
5.5236877525
 31
0.0
 11
4.8249314341
 21
5.5211107209
 31
0.0
 11
4.8252011396
 21
5.5185320648
 31
0.0
 11
4.8255188695
 21
5.5159549078
 31
0.0
 11
4.8258834785
 21
5.5133828206
 31
0.0
 11
4.8262937186
 21
5.5108194116
 31
0.0
 11
4.8272460985
 21
5.5057330619
 31
0.0
 11
4.827785742
 21
5.503217338
 31
0.0
 11
4.8283660234
 21
5.5007247261
 31
0.0
 11
4.8289856946
 21
5.4982588337
 31
0.0
 11
4.8296435041
 21
5.4958224816
 31
0.0
 11
4.8310684925
 21
5.4910401364
 31
0.0
 11
4.8326308898
 21
5.4863791098
 31
0.0
 11
4.8343205953
 21
5.4818404094
 31
0.0
 11
4.8361275286
 21
5.4774250247
 31
0.0
 11
4.8380437088
 21
5.4731320719
 31
0.0
 11
4.8400650548
 21
5.4689571863
 31
0.0
 11
4.8421879102
 21
5.4648956249
 31
0.0
 11
4.8444086184
 21
5.4609426446
 31
0.0
 11
4.8467239414
 21
5.457093855
 31
0.0
 11
4.8491319944
 21
5.4533460074
 31
0.0
 11
4.8516311658
 21
5.4496960831
 31
0.0
 11
4.8542198439
 21
5.4461410636
 31
0.0
 11
4.8596600878
 21
5.4393048507
 31
0.0
 11
4.8654439499
 21
5.4328192236
 31
0.0
 11
4.8715641153
 21
5.426669921
 31
0.0
 11
4.878015879
 21
5.4208538368
 31
0.0
 11
4.8847955316
 21
5.4153723175
 31
0.0
 11
4.8919006593
 21
5.4102330681
 31
0.0
 11
4.8993282313
 21
5.4054473464
 31
0.0
 11
4.9070713443
 21
5.40103414
 31
0.0
  0
SPLINE
  5
2C7
100
AcDbEntity
  8
0
100
AcDbSpline
 62
6
  6
CONTINUOUS
 70
0
 71
3
 72
65
 73
61
 74
59
 42
0.0000001
 43
0.0000001
 44
0.0000000001
 12
-0.1546147174
 22
-0.2485457077
 32
0.0
 13
0.2850774705
 23
-0.0664192402
 33
0.0
 40
0.0
 40
0.0
 40
0.0
 40
0.0
 40
0.0304530782
 40
0.0606587557
 40
0.0756808185
 40
0.0906532551
 40
0.105579629
 40
0.1204655052
 40
0.1501531303
 40
0.1649787411
 40
0.1798056116
 40
0.1946445954
 40
0.2095077982
 40
0.2244101931
 40
0.2393676988
 40
0.2543968367
 40
0.2695146846
 40
0.2847389715
 40
0.3000890676
 40
0.3155857097
 40
0.3312505669
 40
0.3471061637
 40
0.363174138
 40
0.379469473
 40
0.3960067379
 40
0.4128024662
 40
0.4298719256
 40
0.4471887301
 40
0.4646968571
 40
0.4735058354
 40
0.4823423358
 40
0.4911999047
 40
0.5000709574
 40
0.5089458785
 40
0.5178147418
 40
0.5354933253
 40
0.5442833524
 40
0.5530266231
 40
0.5617128258
 40
0.5703342295
 40
0.5873821175
 40
0.6041764683
 40
0.6207217969
 40
0.6370204113
 40
0.653081182
 40
0.6689277187
 40
0.6845843061
 40
0.700074068
 40
0.7154185946
 40
0.7306375549
 40
0.7457498215
 40
0.7607736376
 40
0.7906210268
 40
0.8203089109
 40
0.8499483859
 40
0.8796236222
 40
0.9094085149
 40
0.939366101
 40
0.9695521371
 40
1.0
 40
1.0
 40
1.0
 40
1.0
 10
4.9070713443
 20
5.40103414
 30
0.0
 10
4.9055018463
 20
5.3985111461
 30
0.0
 10
4.9025121531
 20
5.3933992977
 30
0.0
 10
4.8991347859
 20
5.3868284658
 30
0.0
 10
4.8966632849
 20
5.3814992871
 30
0.0
 10
4.8949264933
 20
5.3774745304
 30
0.0
 10
4.8933027972
 20
5.3734171272
 30
0.0
 10
4.8912902114
 20
5.3679711422
 30
0.0
 10
4.8895011916
 20
5.362454976
 30
0.0
 10
4.8879413301
 20
5.3568786279
 30
0.0
 10
4.8868863548
 20
5.3526671048
 30
0.0
 10
4.8859461494
 20
5.3484247713
 30
0.0
 10
4.8851213643
 20
5.3441509631
 30
0.0
 10
4.8844146061
 20
5.3398443201
 30
0.0
 10
4.8838281603
 20
5.335503296
 30
0.0
 10
4.8833643634
 20
5.3311263039
 30
0.0
 10
4.8830255828
 20
5.326711748
 30
0.0
 10
4.8828139856
 20
5.3222579021
 30
0.0
 10
4.8827336233
 20
5.3177627628
 30
0.0
 10
4.8827888972
 20
5.3132242314
 30
0.0
 10
4.882984098
 20
5.3086401736
 30
0.0
 10
4.8833235704
 20
5.3040086298
 30
0.0
 10
4.8838113712
 20
5.2993284666
 30
0.0
 10
4.8844554983
 20
5.2946000529
 30
0.0
 10
4.885264111
 20
5.28982489
 30
0.0
 10
4.886245189
 20
5.2850050001
 30
0.0
 10
4.8874057622
 20
5.2801468694
 30
0.0
 10
4.8887492156
 20
5.2752639718
 30
0.0
 10
4.8900198984
 20
5.2711996257
 30
0.0
 10
4.8911299732
 20
5.2679540978
 30
0.0
 10
4.8920108568
 20
5.2655226729
 30
0.0
 10
4.892938527
 20
5.2631022253
 30
0.0
 10
4.8939123293
 20
5.2606959261
 30
0.0
 10
4.894929997
 20
5.2583066448
 30
0.0
 10
4.8963410101
 20
5.2551514513
 30
0.0
 10
4.8978315865
 20
5.2520414521
 30
0.0
 10
4.899397069
 20
5.2489830428
 30
0.0
 10
4.9006022445
 20
5.2467262876
 30
0.0
 10
4.9018386368
 20
5.2445052973
 30
0.0
 10
4.9035203368
 20
5.2416054043
 30
0.0
 10
4.9056915127
 20
5.2380755916
 30
0.0
 10
4.9084080294
 20
5.233976825
 30
0.0
 10
4.9112157983
 20
5.2300294411
 30
0.0
 10
4.914105116
 20
5.2262309842
 30
0.0
 10
4.9170688605
 20
5.2225777331
 30
0.0
 10
4.9201039013
 20
5.2190659086
 30
0.0
 10
4.9232077232
 20
5.2156900682
 30
0.0
 10
4.9263779687
 20
5.2124447056
 30
0.0
 10
4.9296123151
 20
5.2093244416
 30
0.0
 10
4.9329101639
 20
5.2063258819
 30
0.0
 10
4.9362707606
 20
5.2034456456
 30
0.0
 10
4.9408236956
 20
5.1997670642
 30
0.0
 10
4.9466764385
 20
5.1954392044
 30
0.0
 10
4.9539556651
 20
5.1906650081
 30
0.0
 10
4.9614699187
 20
5.186303415
 30
0.0
 10
4.9692178082
 20
5.182351116
 30
0.0
 10
4.9771946554
 20
5.1788070141
 30
0.0
 10
4.9853970973
 20
5.1756788849
 30
0.0
 10
4.9938171164
 20
5.1729761406
 30
0.0
 10
4.9995434194
 20
5.1714757858
 30
0.0
 10
5.0024367527
 20
5.1708016779
 30
0.0
 11
4.9070713443
 21
5.40103414
 31
0.0
 11
4.902571214
 21
5.3933394516
 31
0.0
 11
4.8985292481
 21
5.3854758581
 31
0.0
 11
4.8966792388
 21
5.3814868267
 31
0.0
 11
4.894942765
 21
5.3774628949
 31
0.0
 11
4.8933194934
 21
5.3734064979
 31
0.0
 11
4.891809307
 21
5.3693192911
 31
0.0
 11
4.8891294377
 21
5.361052889
 31
0.0
 11
4.8879604499
 21
5.3568736579
 31
0.0
 11
4.8869058901
 21
5.3526637162
 31
0.0
 11
4.8859661091
 21
5.3484230433
 31
0.0
 11
4.8851420393
 21
5.3441511539
 31
0.0
 11
4.8844358455
 21
5.3398465781
 31
0.0
 11
4.8838498495
 21
5.3355077201
 31
0.0
 11
4.8833863734
 21
5.3311329845
 31
0.0
 11
4.883047739
 21
5.3267207755
 31
0.0
 11
4.8828364511
 21
5.3222694462
 31
0.0
 11
4.8827562806
 21
5.3177769946
 31
0.0
 11
4.882811534
 21
5.3132412684
 31
0.0
 11
4.8830065196
 21
5.3086601146
 31
0.0
 11
4.8833455457
 21
5.3040313804
 31
0.0
 11
4.8838334489
 21
5.2993534567
 31
0.0
 11
4.8844775546
 21
5.2946272955
 31
0.0
 11
4.8852859205
 21
5.289854603
 31
0.0
 11
4.8862666046
 21
5.2850370852
 31
0.0
 11
4.8874273767
 21
5.2801773442
 31
0.0
 11
4.8887721034
 21
5.2752901238
 31
0.0
 11
4.8903018415
 21
5.2703989086
 31
0.0
 11
4.8911364008
 21
5.2679592019
 31
0.0
 11
4.892017586
 21
5.2655273753
 31
0.0
 11
4.8929455069
 21
5.2631063897
 31
0.0
 11
4.8939194276
 21
5.2606992818
 31
0.0
 11
4.8949373181
 21
5.2583092041
 31
0.0
 11
4.8959970386
 21
5.255939319
 31
0.0
 11
4.8982334112
 21
5.2512727765
 31
0.0
 11
4.899405784
 21
5.2489824439
 31
0.0
 11
4.9006114282
 21
5.2467249536
 31
0.0
 11
4.9018482045
 21
5.2445034672
 31
0.0
 11
4.903114174
 21
5.2423203853
 31
0.0
 11
4.9057283692
 21
5.2380698088
 31
0.0
 11
4.9084438916
 21
5.2339719809
 31
0.0
 11
4.9112507238
 21
5.230025261
 31
0.0
 11
4.914138873
 21
5.2262279957
 31
0.0
 11
4.9171008589
 21
5.2225772656
 31
0.0
 11
4.9201338691
 21
5.2190677986
 31
0.0
 11
4.9232355994
 21
5.215694067
 31
0.0
 11
4.9264037454
 21
5.2124505427
 31
0.0
 11
4.9296363157
 21
5.2093321472
 31
0.0
 11
4.9329323306
 21
5.2063352544
 31
0.0
 11
4.9362910147
 21
5.2034565314
 31
0.0
 11
4.9397115926
 21
5.2006926454
 31
0.0
 11
4.9467358067
 21
5.1954974096
 31
0.0
 11
4.9540011923
 21
5.1907297485
 31
0.0
 11
4.9615043748
 21
5.1863739937
 31
0.0
 11
4.9692416133
 21
5.182425927
 31
0.0
 11
4.9772089765
 21
5.1788858892
 31
0.0
 11
4.9854021384
 21
5.1757606978
 31
0.0
 11
4.993815258
 21
5.1730604428
 31
0.0
 11
5.0024367527
 21
5.1708016779
 31
0.0
  0
SPLINE
  5
2C8
100
AcDbEntity
  8
0
100
AcDbSpline
 62
6
  6
CONTINUOUS
 70
0
 71
3
 72
68
 73
64
 74
62
 42
0.0000001
 43
0.0000001
 44
0.0000000001
 12
-0.08501873
 22
-0.280096403
 32
0.0
 13
0.292556816
 23
0.0096275035
 33
0.0
 40
0.0
 40
0.0
 40
0.0
 40
0.0
 40
0.0304533802
 40
0.060659652
 40
0.0756821665
 40
0.0906551825
 40
0.1055822722
 40
0.1204687357
 40
0.1353243677
 40
0.1501597534
 40
0.1649856261
 40
0.1798128457
 40
0.1946523749
 40
0.209516135
 40
0.2244189704
 40
0.2393768275
 40
0.2544062649
 40
0.2695244076
 40
0.284748976
 40
0.3000992551
 40
0.3155961104
 40
0.3312613926
 40
0.347117852
 40
0.3631880515
 40
0.3794868115
 40
0.3960262349
 40
0.412820404
 40
0.4298845545
 40
0.4472022208
 40
0.4647147224
 40
0.4735256044
 40
0.4823629414
 40
0.4912196263
 40
0.5000883478
 40
0.5089601409
 40
0.5178254322
 40
0.5354968822
 40
0.5442839921
 40
0.5530251818
 40
0.5617104238
 40
0.5703313929
 40
0.587378074
 40
0.604170896
 40
0.6207145659
 40
0.6370116486
 40
0.6530716446
 40
0.6689181338
 40
0.6845751137
 40
0.7000654005
 40
0.7154103026
 40
0.7306294834
 40
0.7457418865
 40
0.7607658218
 40
0.775718691
 40
0.7906164802
 40
0.8054744988
 40
0.8203075369
 40
0.8499472963
 40
0.8796227351
 40
0.9094078286
 40
0.9393656441
 40
0.9695519239
 40
1.0
 40
1.0
 40
1.0
 40
1.0
 10
5.0024367527
 20
5.1708016779
 30
0.0
 10
5.0015737167
 20
5.1679583838
 30
0.0
 10
5.0000089022
 20
5.1622467937
 30
0.0
 10
4.9984472465
 20
5.1550255332
 30
0.0
 10
4.9974392455
 20
5.1492380617
 30
0.0
 10
4.9968033136
 20
5.1449007098
 30
0.0
 10
4.9962851005
 20
5.1405611268
 30
0.0
 10
4.9958838284
 20
5.1362206645
 30
0.0
 10
4.9956000893
 20
5.1318798975
 30
0.0
 10
4.9954342332
 20
5.1275389409
 30
0.0
 10
4.9953866471
 20
5.1231978455
 30
0.0
 10
4.9954577206
 20
5.1188566631
 30
0.0
 10
4.9956477895
 20
5.1145153611
 30
0.0
 10
4.9959574525
 20
5.110173538
 30
0.0
 10
4.9963895288
 20
5.1058305582
 30
0.0
 10
4.9969466837
 20
5.1014855319
 30
0.0
 10
4.9976316083
 20
5.0971375211
 30
0.0
 10
4.9984470548
 20
5.0927855986
 30
0.0
 10
4.9993955272
 20
5.0884286601
 30
0.0
 10
5.0004812379
 20
5.0840657592
 30
0.0
 10
5.0017092151
 20
5.0796960351
 30
0.0
 10
5.0030842679
 20
5.0753185184
 30
0.0
 10
5.0046113469
 20
5.0709323964
 30
0.0
 10
5.0062945682
 20
5.066537514
 30
0.0
 10
5.0081408961
 20
5.0621362073
 30
0.0
 10
5.0101579399
 20
5.0577325976
 30
0.0
 10
5.0123527759
 20
5.0533311813
 30
0.0
 10
5.0147311689
 20
5.048939568
 30
0.0
 10
5.0172934735
 20
5.0445712086
 30
0.0
 10
5.0195736279
 20
5.0409739005
 30
0.0
 10
5.0214862706
 20
5.0381256599
 30
0.0
 10
5.0229663366
 20
5.0360047573
 30
0.0
 10
5.024488145
 20
5.0339066281
 30
0.0
 10
5.0260507638
 20
5.0318345021
 30
0.0
 10
5.027651482
 20
5.0297905928
 30
0.0
 10
5.0298302845
 20
5.0271091911
 30
0.0
 10
5.0320745307
 20
5.024492257
 30
0.0
 10
5.0343779074
 20
5.0219444873
 30
0.0
 10
5.0361260261
 20
5.0200772406
 30
0.0
 10
5.0378950989
 20
5.0182523491
 30
0.0
 10
5.0402700055
 20
5.0158868042
 30
0.0
 10
5.043280612
 20
5.0130394289
 30
0.0
 10
5.0469650088
 20
5.0097835479
 30
0.0
 10
5.0506982842
 20
5.0066974495
 30
0.0
 10
5.05447184
 20
5.0037762471
 30
0.0
 10
5.0582799294
 20
5.0010145952
 30
0.0
 10
5.0621204781
 20
4.9984079572
 30
0.0
 10
5.0659923825
 20
4.9959504166
 30
0.0
 10
5.0698946719
 20
4.9936360103
 30
0.0
 10
5.0738264809
 20
4.9914590302
 30
0.0
 10
5.0777881287
 20
4.989416098
 30
0.0
 10
5.0817797098
 20
4.9875037305
 30
0.0
 10
5.085801313
 20
4.985718498
 30
0.0
 10
5.0898529577
 20
4.9840570031
 30
0.0
 10
5.0939349487
 20
4.9825168628
 30
0.0
 10
5.0980475264
 20
4.9810957158
 30
0.0
 10
5.1035698892
 20
4.9793570238
 30
0.0
 10
5.1105575227
 20
4.9774672369
 30
0.0
 10
5.1190643791
 20
4.9756548971
 30
0.0
 10
5.1276868605
 20
4.9742960552
 30
0.0
 10
5.1364195638
 20
4.9733974349
 30
0.0
 10
5.145252345
 20
4.9729660231
 30
0.0
 10
5.1511719454
 20
4.9729988676
 30
0.0
 10
5.1541412095
 20
4.9730965805
 30
0.0
 11
5.0024367527
 21
5.1708016779
 31
0.0
 11
5.0000814516
 21
5.1622042988
 31
0.0
 11
4.9982124274
 21
5.1535622629
 31
0.0
 11
4.9974578845
 21
5.1492301651
 31
0.0
 11
4.9968220491
 21
5.1448937028
 31
0.0
 11
4.9963039689
 21
5.1405551402
 31
0.0
 11
4.9959030589
 21
5.1362161283
 31
0.0
 11
4.9956195787
 21
5.1318769092
 31
0.0
 11
4.9954539059
 21
5.127537528
 31
0.0
 11
4.9954064183
 21
5.1231980298
 31
0.0
 11
4.9954774934
 21
5.1188584595
 31
0.0
 11
4.9956675095
 21
5.114518862
 31
0.0
 11
4.9959773597
 21
5.1101790609
 31
0.0
 11
4.9964094559
 21
5.1058382276
 31
0.0
 11
4.9969664881
 21
5.1014954139
 31
0.0
 11
4.9976511465
 21
5.0971496717
 31
0.0
 11
4.998466121
 21
5.0928000528
 31
0.0
 11
4.9994142064
 21
5.0884456079
 31
0.0
 11
5.0004994423
 21
5.0840853731
 31
0.0
 11
5.0017266844
 21
5.0797183755
 31
0.0
 11
5.0031008027
 21
5.0753436416
 31
0.0
 11
5.0046266672
 21
5.0709601981
 31
0.0
 11
5.0063093095
 21
5.0665674483
 31
0.0
 11
5.0081551815
 21
5.0621681085
 31
0.0
 11
5.0101714729
 21
5.0577666149
 31
0.0
 11
5.0123653796
 21
5.0533674186
 31
0.0
 11
5.0147439529
 21
5.0489751784
 31
0.0
 11
5.0173085867
 21
5.044602665
 31
0.0
 11
5.0200533095
 21
5.0402732114
 31
0.0
 11
5.0214911837
 21
5.0381321449
 31
0.0
 11
5.0229716557
 21
5.0360108588
 31
0.0
 11
5.0244939171
 21
5.0339123582
 31
0.0
 11
5.0260568479
 21
5.0318395552
 31
0.0
 11
5.0276579482
 21
5.0297949496
 31
0.0
 11
5.0292943368
 21
5.0277809275
 31
0.0
 11
5.0326614539
 21
5.0238541774
 31
0.0
 11
5.03438642
 21
5.0219462215
 31
0.0
 11
5.0361351494
 21
5.0200783929
 31
0.0
 11
5.037904761
 21
5.0182530778
 31
0.0
 11
5.0396926419
 21
5.0164722138
 31
0.0
 11
5.0433177078
 21
5.0130433328
 31
0.0
 11
5.0470009016
 21
5.0097881276
 31
0.0
 11
5.0507330905
 21
5.0067024543
 31
0.0
 11
5.0545051771
 21
5.003782161
 31
0.0
 11
5.0583109075
 21
5.001022476
 31
0.0
 11
5.0621489012
 21
4.998417565
 31
0.0
 11
5.0660182563
 21
4.9959614893
 31
0.0
 11
5.0699180714
 21
4.993648311
 31
0.0
 11
5.0738476882
 21
4.9914726838
 31
0.0
 11
5.0778071167
 21
4.9894308881
 31
0.0
 11
5.0817964807
 21
4.9875194814
 31
0.0
 11
5.0858159043
 21
4.9857350211
 31
0.0
 11
5.0898655245
 21
4.9840742656
 31
0.0
 11
5.0939455266
 21
4.9825347075
 31
0.0
 11
5.0980561069
 21
4.9811140075
 31
0.0
 11
5.1021974618
 21
4.9798098262
 31
0.0
 11
5.1105724721
 21
4.9775443658
 31
0.0
 11
5.1190680312
 21
4.9757333119
 31
0.0
 11
5.1276802715
 21
4.9743759556
 31
0.0
 11
5.1364032585
 21
4.9734777659
 31
0.0
 11
5.1452287333
 21
4.9730469753
 31
0.0
 11
5.1541412095
 21
4.9730965805
 31
0.0
  0
LINE
  5
2C9
100
AcDbEntity
  8
0
100
AcDbLine
 62
6
  6
CONTINUOUS
 10
6.8425370201
 20
5.9386884489
 11
6.9456029062
 21
5.9682421161
  0
SPLINE
  5
2CA
100
AcDbEntity
  8
0
100
AcDbSpline
 62
6
  6
CONTINUOUS
 70
0
 71
3
 72
65
 73
61
 74
59
 42
0.0000001
 43
0.0000001
 44
0.0000000001
 12
-0.0096274192
 22
-0.2925542556
 32
0.0
 13
0.2800939516
 23
0.085017986
 33
0.0
 40
0.0
 40
0.0
 40
0.0
 40
0.0
 40
0.0304530782
 40
0.0606587557
 40
0.0756808185
 40
0.0906532551
 40
0.105579629
 40
0.1204655052
 40
0.1501531303
 40
0.1649787411
 40
0.1798056116
 40
0.1946445954
 40
0.2095077982
 40
0.2244101931
 40
0.2393676988
 40
0.2543968367
 40
0.2695146846
 40
0.2847389715
 40
0.3000890676
 40
0.3155857097
 40
0.3312505669
 40
0.3471061637
 40
0.363174138
 40
0.379469473
 40
0.3960067379
 40
0.4128024662
 40
0.4298719256
 40
0.4471887301
 40
0.4646968571
 40
0.4735058354
 40
0.4823423358
 40
0.4911999047
 40
0.5000709574
 40
0.5089458785
 40
0.5178147418
 40
0.5354933253
 40
0.5442833524
 40
0.5530266231
 40
0.5617128258
 40
0.5703342295
 40
0.5873821175
 40
0.6041764683
 40
0.6207217969
 40
0.6370204113
 40
0.653081182
 40
0.6689277187
 40
0.6845843061
 40
0.700074068
 40
0.7154185946
 40
0.7306375549
 40
0.7457498215
 40
0.7607736376
 40
0.7906210268
 40
0.8203089109
 40
0.8499483859
 40
0.8796236222
 40
0.9094085149
 40
0.939366101
 40
0.9695521371
 40
1.0
 40
1.0
 40
1.0
 40
1.0
 10
5.1541412095
 20
4.9730965805
 30
0.0
 10
5.1540434813
 20
4.9701268547
 30
0.0
 10
5.1540102552
 20
4.9642050175
 30
0.0
 10
5.1543707854
 20
4.9568258266
 30
0.0
 10
5.1548949921
 20
4.9509748719
 30
0.0
 10
5.1554032648
 20
4.9466209345
 30
0.0
 10
5.1560258043
 20
4.9422952723
 30
0.0
 10
5.1570058463
 20
4.936572618
 30
0.0
 10
5.1582145929
 20
4.9309009681
 30
0.0
 10
5.1596518872
 20
4.9252917782
 30
0.0
 10
5.1608440134
 20
4.9211170046
 30
0.0
 10
5.1621509384
 20
4.9169729333
 30
0.0
 10
5.1635735576
 20
4.9128593142
 30
0.0
 10
5.1651148086
 20
4.908776273
 30
0.0
 10
5.1667774437
 20
4.9047236129
 30
0.0
 10
5.1685642799
 20
4.9007011281
 30
0.0
 10
5.1704781652
 20
4.8967086202
 30
0.0
 10
5.1725218395
 20
4.8927456779
 30
0.0
 10
5.1746998134
 20
4.8888125919
 30
0.0
 10
5.1770169477
 20
4.8849097454
 30
0.0
 10
5.1794780255
 20
4.8810374353
 30
0.0
 10
5.1820877891
 20
4.8771961369
 30
0.0
 10
5.1848503186
 20
4.8733868971
 30
0.0
 10
5.1877723558
 20
4.8696140343
 30
0.0
 10
5.1908602164
 20
4.8658829282
 30
0.0
 10
5.1941197999
 20
4.8621993201
 30
0.0
 10
5.1975539511
 20
4.8585723421
 30
0.0
 10
5.2011588647
 20
4.8550153555
 30
0.0
 10
5.2042914813
 20
4.8521308699
 30
0.0
 10
5.2068755982
 20
4.8498751977
 30
0.0
 10
5.2088541782
 20
4.8482099637
 30
0.0
 10
5.210867788
 20
4.8465776297
 30
0.0
 10
5.2129142751
 20
4.8449806147
 30
0.0
 10
5.2149902419
 20
4.8434202702
 30
0.0
 10
5.2177898118
 20
4.841393299
 30
0.0
 10
5.2206356884
 20
4.8394452489
 30
0.0
 10
5.2235206407
 20
4.83757933
 30
0.0
 10
5.2256927309
 20
4.8362275104
 30
0.0
 10
5.2278739732
 20
4.8349222726
 30
0.0
 10
5.2307803146
 20
4.8332517416
 30
0.0
 10
5.2344255145
 20
4.8312804221
 30
0.0
 10
5.2388274702
 20
4.8290890443
 30
0.0
 10
5.2432327614
 20
4.8270743941
 30
0.0
 10
5.2476342124
 20
4.8252294928
 30
0.0
 10
5.252027516
 20
4.8235475567
 30
0.0
 10
5.2564118506
 20
4.822023748
 30
0.0
 10
5.2607877594
 20
4.8206520953
 30
0.0
 10
5.2651559539
 20
4.8194266516
 30
0.0
 10
5.269517112
 20
4.8183415969
 30
0.0
 10
5.2738724127
 20
4.8173936924
 30
0.0
 10
5.278222893
 20
4.816579633
 30
0.0
 10
5.284005141
 20
4.8156703555
 30
0.0
 10
5.2912376949
 20
4.8148486905
 30
0.0
 10
5.2999287883
 20
4.8143537285
 30
0.0
 10
5.3086171194
 20
4.8143336049
 30
0.0
 10
5.3173031379
 20
4.8147847583
 30
0.0
 10
5.3259833413
 20
4.8157038996
 30
0.0
 10
5.3346509289
 20
4.8170960812
 30
0.0
 10
5.3432942515
 20
4.8189654456
 30
0.0
 10
5.3490035527
 20
4.8205292517
 30
0.0
 10
5.3518463068
 20
4.8213921237
 30
0.0
 11
5.1541412095
 21
4.9730965805
 31
0.0
 11
5.1540913265
 21
4.9641827197
 31
0.0
 11
5.1545226781
 21
4.955351665
 31
0.0
 11
5.1549150388
 21
4.9509720579
 31
0.0
 11
5.1554231743
 21
4.9466189938
 31
0.0
 11
5.1560455783
 21
4.9422944151
 31
0.0
 11
5.1567813219
 21
4.937999697
 31
0.0
 11
5.1585936881
 21
4.9295008482
 31
0.0
 11
5.1596709305
 21
4.925297034
 31
0.0
 11
5.1608626257
 21
4.9211238376
 31
0.0
 11
5.162169088
 21
4.9169814166
 31
0.0
 11
5.1635913673
 21
4.912869817
 31
0.0
 11
5.1651320734
 21
4.9087888481
 31
0.0
 11
5.166794015
 21
4.9047382889
 31
0.0
 11
5.1685800008
 21
4.9007179186
 31
0.0
 11
5.1704928392
 21
4.8967275163
 31
0.0
 11
5.1725355232
 21
4.8927669081
 31
0.0
 11
5.1747123193
 21
4.8888362457
 31
0.0
 11
5.1770280333
 21
4.8849358182
 31
0.0
 11
5.1794874726
 21
4.8810659155
 31
0.0
 11
5.1820954449
 21
4.8772268272
 31
0.0
 11
5.1848569434
 21
4.873419578
 31
0.0
 11
5.1877778358
 21
4.8696486552
 31
0.0
 11
5.1908642475
 21
4.8659195652
 31
0.0
 11
5.1941223038
 21
4.8622378144
 31
0.0
 11
5.1975574324
 21
4.8586095413
 31
0.0
 11
5.2011656101
 21
4.8550494477
 31
0.0
 11
5.2049360098
 21
4.8515784001
 31
0.0
 11
5.2068786126
 21
4.8498828318
 31
0.0
 11
5.2088576547
 21
4.8482174007
 31
0.0
 11
5.2108717506
 21
4.8465847261
 31
0.0
 11
5.2129187447
 21
4.8449870699
 31
0.0
 11
5.2149953025
 21
4.8434261471
 31
0.0
 11
5.2170979899
 21
4.8419036267
 31
0.0
 11
5.2213680166
 21
4.8389804687
 31
0.0
 11
5.2235284875
 21
4.8375831688
 31
0.0
 11
5.2257013513
 21
4.836230947
 31
0.0
 11
5.2278831742
 21
4.8349254715
 31
0.0
 11
5.2300710768
 21
4.8336678519
 31
0.0
 11
5.2344603245
 21
4.8312938422
 31
0.0
 11
5.2388609498
 21
4.8291027804
 31
0.0
 11
5.2432650979
 21
4.8270882368
 31
0.0
 11
5.2476649411
 21
4.8252437831
 31
0.0
 11
5.2520554611
 21
4.823563151
 31
0.0
 11
5.2564368585
 21
4.8220403686
 31
0.0
 11
5.2608099015
 21
4.8206694964
 31
0.0
 11
5.2651753586
 21
4.8194445951
 31
0.0
 11
5.2695340443
 21
4.8183602705
 31
0.0
 11
5.2738869234
 21
4.8174128926
 31
0.0
 11
5.2782349907
 21
4.8165991874
 31
0.0
 11
5.282579241
 21
4.8159158809
 31
0.0
 11
5.2912600068
 21
4.8149287817
 31
0.0
 11
5.2999358458
 21
4.814432559
 31
0.0
 11
5.3086116698
 21
4.8144119558
 31
0.0
 11
5.3172863483
 21
4.8148614491
 31
0.0
 11
5.3259563061
 21
4.815779368
 31
0.0
 11
5.3346143881
 21
4.8171694538
 31
0.0
 11
5.343250491
 21
4.8190375241
 31
0.0
 11
5.3518463068
 21
4.8213921237
 31
0.0
  0
SPLINE
  5
2CB
100
AcDbEntity
  8
0
100
AcDbSpline
 62
6
  6
CONTINUOUS
 70
0
 71
3
 72
72
 73
68
 74
66
 42
0.0000001
 43
0.0000001
 44
0.0000000001
 12
0.066420597
 22
-0.285083294
 32
0.0
 13
0.2485507849
 23
0.1546178759
 33
0.0
 40
0.0
 40
0.0
 40
0.0
 40
0.0
 40
0.0304458488
 40
0.0606446182
 40
0.0756633723
 40
0.0906326128
 40
0.1055559063
 40
0.1204386145
 40
0.1352905431
 40
0.1501222473
 40
0.1649444277
 40
0.1797679081
 40
0.1946036133
 40
0.209463489
 40
0.2243623956
 40
0.2393162547
 40
0.2543415981
 40
0.2694555215
 40
0.2846757276
 40
0.3000215104
 40
0.315513689
 40
0.331174049
 40
0.347025261
 40
0.3630896166
 40
0.3793819477
 40
0.395915182
 40
0.4127042352
 40
0.4297647416
 40
0.447077707
 40
0.4645846878
 40
0.473392828
 40
0.4822276158
 40
0.491082083
 40
0.4999489903
 40
0.5088193686
 40
0.5176836763
 40
0.5353545769
 40
0.5441421768
 40
0.552884403
 40
0.5615712533
 40
0.5701937684
 40
0.5872414468
 40
0.6040347055
 40
0.6205809832
 40
0.6368854701
 40
0.6529539115
 40
0.6688060734
 40
0.6844663498
 40
0.6999581866
 40
0.7153039896
 40
0.7305248165
 40
0.7456394604
 40
0.7606656909
 40
0.7756207247
 40
0.7905211763
 40
0.8053829972
 40
0.8202202759
 40
0.835044664
 40
0.8498674809
 40
0.86469991
 40
0.8795529738
 40
0.8944375107
 40
0.9093629247
 40
0.92433379
 40
0.9393537306
 40
0.9695538185
 40
1.0
 40
1.0
 40
1.0
 40
1.0
 10
5.3518463068
 20
4.8213921237
 30
0.0
 10
5.352520384
 20
4.8184989227
 30
0.0
 10
5.354020619
 20
4.8127714784
 30
0.0
 10
5.3562781446
 20
4.8057384784
 30
0.0
 10
5.3582982823
 20
4.8002236349
 30
0.0
 10
5.3599156897
 20
4.7961503345
 30
0.0
 10
5.3616361057
 20
4.7921339334
 30
0.0
 10
5.3634582055
 20
4.7881752147
 30
0.0
 10
5.3653822108
 20
4.7842749643
 30
0.0
 10
5.3674083548
 20
4.7804334542
 30
0.0
 10
5.3695369343
 20
4.7766509226
 30
0.0
 10
5.371768251
 20
4.7729276123
 30
0.0
 10
5.3741025918
 20
4.7692636511
 30
0.0
 10
5.3765407139
 20
4.7656590102
 30
0.0
 10
5.3790853905
 20
4.7621145542
 30
0.0
 10
5.3817393611
 20
4.7586308371
 30
0.0
 10
5.3845054174
 20
4.7552083925
 30
0.0
 10
5.3873863945
 20
4.7518477892
 30
0.0
 10
5.3903850158
 20
4.7485493247
 30
0.0
 10
5.3935054376
 20
4.745314323
 30
0.0
 10
5.3967523868
 20
4.7421445079
 30
0.0
 10
5.4001304746
 20
4.7390414235
 30
0.0
 10
5.4036443269
 20
4.7360068144
 30
0.0
 10
5.4072975698
 20
4.7330426166
 30
0.0
 10
5.4110952518
 20
4.7301544713
 30
0.0
 10
5.4150419767
 20
4.7273495842
 30
0.0
 10
5.4191417753
 20
4.724635246
 30
0.0
 10
5.4233956897
 20
4.7220209259
 30
0.0
 10
5.427797091
 20
4.7195184251
 30
0.0
 10
5.4315688022
 20
4.7175426774
 30
0.0
 10
5.4346480236
 20
4.7160320115
 30
0.0
 10
5.4369893526
 20
4.7149350292
 30
0.0
 10
5.4393555611
 20
4.7138786512
 30
0.0
 10
5.4417442289
 20
4.7128651678
 30
0.0
 10
5.4441518869
 20
4.7118950806
 30
0.0
 10
5.4473789792
 20
4.7106616864
 30
0.0
 10
5.4506306772
 20
4.7095166945
 30
0.0
 10
5.4538991723
 20
4.7084609758
 30
0.0
 10
5.4563467987
 20
4.7077170879
 30
0.0
 10
5.4587914829
 20
4.7070202422
 30
0.0
 10
5.4620310901
 20
4.706157742
 30
0.0
 10
5.4660620405
 20
4.7051956747
 30
0.0
 10
5.4708809302
 20
4.7042167415
 30
0.0
 10
5.4756579778
 20
4.703409491
 30
0.0
 10
5.4803883449
 20
4.7027656755
 30
0.0
 10
5.4850690766
 20
4.7022765965
 30
0.0
 10
5.4897000124
 20
4.7019373821
 30
0.0
 10
5.494282962
 20
4.7017432701
 30
0.0
 10
5.4988202678
 20
4.7016893078
 30
0.0
 10
5.503314247
 20
4.7017706225
 30
0.0
 10
5.5077671142
 20
4.7019821257
 30
0.0
 10
5.512180812
 20
4.7023211152
 30
0.0
 10
5.5165570234
 20
4.7027851764
 30
0.0
 10
5.5208973914
 20
4.7033718036
 30
0.0
 10
5.5252035487
 20
4.7040785562
 30
0.0
 10
5.5294770478
 20
4.7049027901
 30
0.0
 10
5.5337190415
 20
4.7058424895
 30
0.0
 10
5.5379299247
 20
4.7068974536
 30
0.0
 10
5.5421098928
 20
4.708067153
 30
0.0
 10
5.5462591083
 20
4.7093511286
 30
0.0
 10
5.5503777376
 20
4.7107489002
 30
0.0
 10
5.5544658337
 20
4.7122599517
 30
0.0
 10
5.5585229295
 20
4.7138835379
 30
0.0
 10
5.5625473321
 20
4.7156202566
 30
0.0
 10
5.5678757614
 20
4.7180914972
 30
0.0
 10
5.5744454161
 20
4.7214683683
 30
0.0
 10
5.5795562949
 20
4.7244575407
 30
0.0
 10
5.582078769
 20
4.7260267154
 30
0.0
 11
5.3518463068
 21
4.8213921237
 31
0.0
 11
5.3541046585
 21
4.812770942
 31
0.0
 11
5.3568062509
 21
4.8043541475
 31
0.0
 11
5.3583183643
 21
4.8002261102
 31
0.0
 11
5.3599354101
 21
4.7961536274
 31
0.0
 11
5.3616554322
 21
4.7921381832
 31
0.0
 11
5.363477119
 21
4.7881809019
 31
0.0
 11
5.3654005741
 21
4.7842821176
 31
0.0
 11
5.3674260893
 21
4.7804420595
 31
0.0
 11
5.3695539566
 21
4.7766609564
 31
0.0
 11
5.3717844679
 21
4.7729390373
 31
0.0
 11
5.374117916
 21
4.7692765314
 31
0.0
 11
5.376555191
 21
4.7656737379
 31
0.0
 11
5.3790988114
 21
4.7621311474
 31
0.0
 11
5.3817515711
 21
4.7586492825
 31
0.0
 11
5.3845162637
 21
4.7552286661
 31
0.0
 11
5.3873956829
 21
4.751869821
 31
0.0
 11
5.3903927288
 21
4.7485733295
 31
0.0
 11
5.3935114017
 21
4.7453403883
 31
0.0
 11
5.3967563525
 21
4.7421725581
 31
0.0
 11
5.4001322407
 21
4.739071404
 31
0.0
 11
5.4036437255
 21
4.7360384912
 31
0.0
 11
5.407295425
 21
4.7330758822
 31
0.0
 11
5.4110916556
 21
4.7301892498
 31
0.0
 11
5.4150366007
 21
4.7273858601
 31
0.0
 11
5.4191344433
 21
4.7246729864
 31
0.0
 11
5.4233890283
 21
4.722058064
 31
0.0
 11
5.4277945256
 21
4.7195531759
 31
0.0
 11
5.4323342365
 21
4.7171756258
 31
0.0
 11
5.4346490232
 21
4.7160400966
 31
0.0
 11
5.4369908848
 21
4.7149429948
 31
0.0
 11
5.4393576617
 21
4.713886518
 31
0.0
 11
5.4417469341
 21
4.7128725936
 31
0.0
 11
5.4441552686
 21
4.711902096
 31
0.0
 11
5.4465789851
 21
4.7109756434
 31
0.0
 11
5.4514578434
 21
4.7092573458
 31
0.0
 11
5.4539056248
 21
4.7084667372
 31
0.0
 11
5.4563540677
 21
4.7077226463
 31
0.0
 11
5.4587994918
 21
4.7070256913
 31
0.0
 11
5.461238501
 21
4.7063763367
 31
0.0
 11
5.4660922861
 21
4.7052176336
 31
0.0
 11
5.470909532
 21
4.7042387358
 31
0.0
 11
5.4756851739
 21
4.7034313947
 31
0.0
 11
5.480414147
 21
4.7027873617
 31
0.0
 11
5.485092233
 21
4.7022987691
 31
0.0
 11
5.489720068
 21
4.7019599336
 31
0.0
 11
5.4943000159
 21
4.701765949
 31
0.0
 11
5.4988344427
 21
4.7017119102
 31
0.0
 11
5.5033257144
 21
4.7017929121
 31
0.0
 11
5.5077761146
 21
4.7020043299
 31
0.0
 11
5.5121874608
 21
4.7023431312
 31
0.0
 11
5.5165614059
 21
4.702806845
 31
0.0
 11
5.5208996023
 21
4.7033930008
 31
0.0
 11
5.5252037029
 21
4.7040991284
 31
0.0
 11
5.5294753543
 21
4.7049227654
 31
0.0
 11
5.5337156992
 21
4.7058621299
 31
0.0
 11
5.5379249979
 21
4.7069166308
 31
0.0
 11
5.5421034218
 21
4.7080857975
 31
0.0
 11
5.5462511421
 21
4.7093691591
 31
0.0
 11
5.5503683303
 21
4.710766245
 31
0.0
 11
5.5544551576
 21
4.7122765842
 31
0.0
 11
5.5585113529
 21
4.7138998437
 31
0.0
 11
5.5625349202
 21
4.7156362273
 31
0.0
 11
5.5665234433
 21
4.7174860696
 31
0.0
 11
5.5743856919
 21
4.721527468
 31
0.0
 11
5.582078769
 21
4.7260267154
 31
0.0
  0
SPLINE
  5
2CC
100
AcDbEntity
  8
0
100
AcDbSpline
 62
6
  6
CONTINUOUS
 70
0
 71
3
 72
65
 73
61
 74
59
 42
0.0000001
 43
0.0000001
 44
0.0000000001
 12
0.1379395381
 22
-0.2581731269
 32
0.0
 13
0.2000594845
 23
0.2136747114
 33
0.0
 40
0.0
 40
0.0
 40
0.0
 40
0.0
 40
0.0304530782
 40
0.0606587557
 40
0.0756808185
 40
0.0906532551
 40
0.105579629
 40
0.1204655052
 40
0.1501531303
 40
0.1649787411
 40
0.1798056116
 40
0.1946445954
 40
0.2095077982
 40
0.2244101931
 40
0.2393676988
 40
0.2543968367
 40
0.2695146846
 40
0.2847389715
 40
0.3000890676
 40
0.3155857097
 40
0.3312505669
 40
0.3471061637
 40
0.363174138
 40
0.379469473
 40
0.3960067379
 40
0.4128024662
 40
0.4298719256
 40
0.4471887301
 40
0.4646968571
 40
0.4735058354
 40
0.4823423358
 40
0.4911999047
 40
0.5000709574
 40
0.5089458785
 40
0.5178147418
 40
0.5354933253
 40
0.5442833524
 40
0.5530266231
 40
0.5617128258
 40
0.5703342295
 40
0.5873821175
 40
0.6041764683
 40
0.6207217969
 40
0.6370204113
 40
0.653081182
 40
0.6689277187
 40
0.6845843061
 40
0.700074068
 40
0.7154185946
 40
0.7306375549
 40
0.7457498215
 40
0.7607736376
 40
0.7906210268
 40
0.8203089109
 40
0.8499483859
 40
0.8796236222
 40
0.9094085149
 40
0.939366101
 40
0.9695521371
 40
1.0
 40
1.0
 40
1.0
 40
1.0
 10
5.582078769
 20
4.7260267154
 30
0.0
 10
5.5834789968
 20
4.7234059932
 30
0.0
 10
5.5864111408
 20
4.7182609187
 30
0.0
 10
5.5904129645
 20
4.7120506171
 30
0.0
 10
5.5937924182
 20
4.707245645
 30
0.0
 10
5.5964095639
 20
4.703729161
 30
0.0
 10
5.5991115301
 20
4.7002942974
 30
0.0
 10
5.6028215985
 20
4.6958283544
 30
0.0
 10
5.6067042287
 20
4.6915209348
 30
0.0
 10
5.6107535571
 20
4.687381881
 30
0.0
 10
5.6138733554
 20
4.684362484
 30
0.0
 10
5.6170772213
 20
4.6814270755
 30
0.0
 10
5.6203660552
 20
4.6785758866
 30
0.0
 10
5.6237423384
 20
4.6758104946
 30
0.0
 10
5.6272085527
 20
4.6731321056
 30
0.0
 10
5.6307672405
 20
4.6705419496
 30
0.0
 10
5.6344209678
 20
4.668041279
 30
0.0
 10
5.6381723128
 20
4.6656311075
 30
0.0
 10
5.6420250366
 20
4.663313942
 30
0.0
 10
5.6459831569
 20
4.661092545
 30
0.0
 10
5.6500506679
 20
4.6589695649
 30
0.0
 10
5.6542314386
 20
4.6569477848
 30
0.0
 10
5.6585284793
 20
4.655030151
 30
0.0
 10
5.6629454692
 20
4.6532237746
 30
0.0
 10
5.6674851879
 20
4.6515364723
 30
0.0
 10
5.6721498741
 20
4.6499761659
 30
0.0
 10
5.6769374253
 20
4.6485521864
 30
0.0
 10
5.6818378653
 20
4.6472742023
 30
0.0
 10
5.6859930337
 20
4.6463424729
 30
0.0
 10
5.6893587807
 20
4.6456810619
 30
0.0
 10
5.6919048982
 20
4.645228217
 30
0.0
 10
5.6944649025
 20
4.6448213791
 30
0.0
 10
5.6970357198
 20
4.6444615671
 30
0.0
 10
5.699613732
 20
4.6441482525
 30
0.0
 10
5.7030517163
 20
4.643792629
 30
0.0
 10
5.7064903428
 20
4.6435285064
 30
0.0
 10
5.7099217442
 20
4.6433550493
 30
0.0
 10
5.7124787392
 20
4.6432703844
 30
0.0
 10
5.7150203695
 20
4.6432306364
 30
0.0
 10
5.7183726004
 20
4.6432370848
 30
0.0
 10
5.7225150959
 20
4.643352472
 30
0.0
 10
5.7274229902
 20
4.6436556611
 30
0.0
 10
5.7322454094
 20
4.6441135684
 30
0.0
 10
5.7369796284
 20
4.6447165624
 30
0.0
 10
5.741625309
 20
4.6454566149
 30
0.0
 10
5.7461841585
 20
4.6463291251
 30
0.0
 10
5.750659633
 20
4.6473291935
 30
0.0
 10
5.7550553223
 20
4.6484520253
 30
0.0
 10
5.7593747233
 20
4.6496929195
 30
0.0
 10
5.7636204767
 20
4.6510496604
 30
0.0
 10
5.7677951328
 20
4.6525199045
 30
0.0
 10
5.7732573452
 20
4.6546235711
 30
0.0
 10
5.7799317532
 20
4.6575282652
 30
0.0
 10
5.7877059418
 20
4.6614451622
 30
0.0
 10
5.795240319
 20
4.6657719002
 30
0.0
 10
5.802537055
 20
4.6705056198
 30
0.0
 10
5.809594761
 20
4.6756417212
 30
0.0
 10
5.8164050213
 20
4.6811811796
 30
0.0
 10
5.822955676
 20
4.687121758
 30
0.0
 10
5.8271181729
 20
4.6913307044
 30
0.0
 10
5.8291486342
 20
4.6934993505
 30
0.0
 11
5.582078769
 21
4.7260267154
 31
0.0
 11
5.5864924995
 21
4.718282144
 31
0.0
 11
5.5912815883
 21
4.7108499021
 31
0.0
 11
5.5938111861
 21
4.7072532313
 31
0.0
 11
5.5964277764
 21
4.703737435
 31
0.0
 11
5.5991290834
 21
4.700303442
 31
0.0
 11
5.6019136151
 21
4.6969519788
 31
0.0
 11
5.6077325947
 21
4.6904979429
 31
0.0
 11
5.6107674211
 21
4.6873959543
 31
0.0
 11
5.6138860576
 21
4.6843777078
 31
0.0
 11
5.6170886976
 21
4.6814434971
 31
0.0
 11
5.6203762275
 21
4.6785938871
 31
0.0
 11
5.6237510026
 21
4.6758300174
 31
0.0
 11
5.6272155658
 21
4.673153101
 31
0.0
 11
5.63077246
 21
4.6705643511
 31
0.0
 11
5.6344242279
 21
4.6680649805
 31
0.0
 11
5.6381735481
 21
4.6656563352
 31
0.0
 11
5.6420240401
 21
4.6633406798
 31
0.0
 11
5.6459797209
 21
4.6611206675
 31
0.0
 11
5.6500446093
 21
4.6589989531
 31
0.0
 11
5.6542227237
 21
4.6569781912
 31
0.0
 11
5.6585178761
 21
4.6550617659
 31
0.0
 11
5.6629329046
 21
4.6532564972
 31
0.0
 11
5.6674703605
 21
4.6515702164
 31
0.0
 11
5.6721327953
 21
4.6500107548
 31
0.0
 11
5.6769218406
 21
4.6485861425
 31
0.0
 11
5.6818266609
 21
4.6473070998
 31
0.0
 11
5.6868274466
 21
4.6461862842
 31
0.0
 11
5.6893575742
 21
4.6456891804
 31
0.0
 11
5.6919041904
 21
4.6452363958
 31
0.0
 11
5.6944647859
 21
4.6448295061
 31
0.0
 11
5.6970363629
 21
4.6444693923
 31
0.0
 11
5.6996151762
 21
4.6441558724
 31
0.0
 11
5.7021974171
 21
4.6438886748
 31
0.0
 11
5.7073569477
 21
4.643492159
 31
0.0
 11
5.7099266203
 21
4.6433622973
 31
0.0
 11
5.7124844865
 21
4.6432776707
 31
0.0
 11
5.7150267383
 21
4.6432380072
 31
0.0
 11
5.7175503273
 21
4.643242828
 31
0.0
 11
5.7225385322
 21
4.6433814991
 31
0.0
 11
5.7274451164
 21
4.6436842966
 31
0.0
 11
5.7322664923
 21
4.6441417247
 31
0.0
 11
5.7369990951
 21
4.6447443026
 31
0.0
 11
5.741641713
 21
4.6454840925
 31
0.0
 11
5.7461975056
 21
4.646356023
 31
0.0
 11
5.7506701081
 21
4.6473553343
 31
0.0
 11
5.7550631555
 21
4.6484772671
 31
0.0
 11
5.7593800504
 21
4.6497175574
 31
0.0
 11
5.7636234432
 21
4.6510735436
 31
0.0
 11
5.7677958325
 21
4.6525428879
 31
0.0
 11
5.7718997169
 21
4.6541232522
 31
0.0
 11
5.7799110302
 21
4.6576087822
 31
0.0
 11
5.7876726386
 21
4.6615169602
 31
0.0
 11
5.7951964241
 21
4.6658370293
 31
0.0
 11
5.8024841694
 21
4.6705636412
 31
0.0
 11
5.8095336137
 21
4.6756935611
 31
0.0
 11
5.8163366897
 21
4.6812264518
 31
0.0
 11
5.822881739
 21
4.6871622996
 31
0.0
 11
5.8291486342
 21
4.6934993505
 31
0.0
  0
LINE
  5
2CD
100
AcDbEntity
  8
0
100
AcDbLine
 62
6
  6
CONTINUOUS
 10
6.7922332559
 20
6.0768969052
 11
6.8901830363
 21
6.1205069571
  0
SPLINE
  5
2CE
100
AcDbEntity
  8
0
100
AcDbSpline
 62
6
  6
CONTINUOUS
 70
0
 71
3
 72
65
 73
61
 74
59
 42
0.0000001
 43
0.0000001
 44
0.0000000001
 12
0.2000594845
 22
-0.2136747114
 32
0.0
 13
0.1379395381
 23
0.2581731269
 33
0.0
 40
0.0
 40
0.0
 40
0.0
 40
0.0
 40
0.0304530782
 40
0.0606587557
 40
0.0756808185
 40
0.0906532551
 40
0.105579629
 40
0.1204655052
 40
0.1501531303
 40
0.1649787411
 40
0.1798056116
 40
0.1946445954
 40
0.2095077982
 40
0.2244101931
 40
0.2393676988
 40
0.2543968367
 40
0.2695146846
 40
0.2847389715
 40
0.3000890676
 40
0.3155857097
 40
0.3312505669
 40
0.3471061637
 40
0.363174138
 40
0.379469473
 40
0.3960067379
 40
0.4128024662
 40
0.4298719256
 40
0.4471887301
 40
0.4646968571
 40
0.4735058354
 40
0.4823423358
 40
0.4911999047
 40
0.5000709574
 40
0.5089458785
 40
0.5178147418
 40
0.5354933253
 40
0.5442833524
 40
0.5530266231
 40
0.5617128258
 40
0.5703342295
 40
0.5873821175
 40
0.6041764683
 40
0.6207217969
 40
0.6370204113
 40
0.653081182
 40
0.6689277187
 40
0.6845843061
 40
0.700074068
 40
0.7154185946
 40
0.7306375549
 40
0.7457498215
 40
0.7607736376
 40
0.7906210268
 40
0.8203089109
 40
0.8499483859
 40
0.8796236222
 40
0.9094085149
 40
0.939366101
 40
0.9695521371
 40
1.0
 40
1.0
 40
1.0
 40
1.0
 10
5.8291486342
 20
4.6934993505
 30
0.0
 10
5.8311794432
 20
4.691330333
 30
0.0
 10
5.83534332
 20
4.6871194673
 30
0.0
 10
5.8408161293
 20
4.6821565248
 30
0.0
 10
5.8453240491
 20
4.6783899452
 30
0.0
 10
5.8487621508
 20
4.6756706496
 30
0.0
 10
5.8522610579
 20
4.6730521464
 30
0.0
 10
5.8570005799
 20
4.6696986131
 30
0.0
 10
5.8618657549
 20
4.6665428639
 30
0.0
 10
5.8668483717
 20
4.6635928882
 30
0.0
 10
5.8706433429
 20
4.661483838
 30
0.0
 10
5.8744977794
 20
4.6594776726
 30
0.0
 10
5.8784124909
 20
4.6575748484
 30
0.0
 10
5.8823894661
 20
4.6557775312
 30
0.0
 10
5.8864307901
 20
4.6540875284
 30
0.0
 10
5.8905386004
 20
4.6525066861
 30
0.0
 10
5.894715051
 20
4.651036878
 30
0.0
 10
5.8989623704
 20
4.6496797506
 30
0.0
 10
5.9032835423
 20
4.6484386989
 30
0.0
 10
5.9076817329
 20
4.647317431
 30
0.0
 10
5.9121601144
 20
4.646319539
 30
0.0
 10
5.9167217041
 20
4.6454487125
 30
0.0
 10
5.9213686467
 20
4.6447085765
 30
0.0
 10
5.926102656
 20
4.644106952
 30
0.0
 10
5.9309243935
 20
4.6436521087
 30
0.0
 10
5.9358339714
 20
4.6433522781
 30
0.0
 10
5.9408269437
 20
4.643215929
 30
0.0
 10
5.9458911719
 20
4.6432498184
 30
0.0
 10
5.9501459057
 20
4.6434252735
 30
0.0
 10
5.9535681535
 20
4.643657519
 30
0.0
 10
5.956144719
 20
4.6438790881
 30
0.0
 10
5.9587227906
 20
4.6441486908
 30
0.0
 10
5.9612991357
 20
4.6444665156
 30
0.0
 10
5.963870396
 20
4.6448311155
 30
0.0
 10
5.9672832759
 20
4.6453774254
 30
0.0
 10
5.970673094
 20
4.6460122846
 30
0.0
 10
5.9740324673
 20
4.64673285
 30
0.0
 10
5.9765242477
 20
4.6473128689
 30
0.0
 10
5.9789895615
 20
4.6479322976
 30
0.0
 10
5.982225899
 20
4.6488061475
 30
0.0
 10
5.986197378
 20
4.6499897597
 30
0.0
 10
5.9908595688
 20
4.6515528744
 30
0.0
 10
5.9953991529
 20
4.6532433128
 30
0.0
 10
5.9998159909
 20
4.6550510664
 30
0.0
 10
6.0041118341
 20
4.6569682928
 30
0.0
 10
6.0082895224
 20
4.65899099
 30
0.0
 10
6.012353662
 20
4.6611153199
 30
0.0
 10
6.0163089615
 20
4.6633375803
 30
0.0
 10
6.0201600155
 20
4.6656541353
 30
0.0
 10
6.0239099479
 20
4.6680635282
 30
0.0
 10
6.0275618289
 20
4.6705641554
 30
0.0
 10
6.032293452
 20
4.6740098659
 30
0.0
 10
6.0379886448
 20
4.6785430489
 30
0.0
 10
6.0444841669
 20
4.684338589
 30
0.0
 10
6.0506419742
 20
4.6904679373
 30
0.0
 10
6.0564649032
 20
4.6969288935
 30
0.0
 10
6.0619528028
 20
4.7037166552
 30
0.0
 10
6.0670972918
 20
4.7108299863
 30
0.0
 10
6.0718872035
 20
4.7182635785
 30
0.0
 10
6.0748185113
 20
4.723406442
 30
0.0
 10
6.0762184993
 20
4.7260267154
 30
0.0
 11
5.8291486342
 21
4.6934993505
 31
0.0
 11
5.835416413
 21
4.6871610265
 31
0.0
 11
5.8419659233
 21
4.6812215395
 31
0.0
 11
5.8453402141
 21
4.6784021305
 31
0.0
 11
5.8487776012
 21
4.6756833554
 31
0.0
 11
5.8522756462
 21
4.6730655226
 31
0.0
 11
5.8558327199
 21
4.6705489476
 31
0.0
 11
5.8631238499
 21
4.6658208904
 31
0.0
 11
5.8668581209
 21
4.6636100703
 31
0.0
 11
5.8706516721
 21
4.6615018306
 31
0.0
 11
5.8745046144
 21
4.6594965049
 31
0.0
 11
5.8784176577
 21
4.6575948683
 31
0.0
 11
5.8823927823
 21
4.6557986313
 31
0.0
 11
5.8864321303
 21
4.6541096236
 31
0.0
 11
5.890537844
 21
4.6525296751
 31
0.0
 11
5.8947120656
 21
4.6510606156
 31
0.0
 11
5.8989570342
 21
4.6497044384
 31
0.0
 11
5.9032756595
 21
4.6484642676
 31
0.0
 11
5.9076711353
 21
4.647343706
 31
0.0
 11
5.912146656
 21
4.6463463577
 31
0.0
 11
5.9167054163
 21
4.6454758273
 31
0.0
 11
5.9213502223
 21
4.6447363698
 31
0.0
 11
5.9260820503
 21
4.6441353076
 31
0.0
 11
5.9309013377
 21
4.6436808654
 31
0.0
 11
5.9358085223
 21
4.6433812682
 31
0.0
 11
5.9408031016
 21
4.6432446944
 31
0.0
 11
5.9458718348
 21
4.643278695
 31
0.0
 11
5.9509923113
 21
4.6434903689
 31
0.0
 11
5.9535648868
 21
4.6436650486
 31
0.0
 11
5.9561419185
 21
4.6438868051
 31
0.0
 11
5.9587205746
 21
4.6441565107
 31
0.0
 11
5.9612977316
 21
4.6444742405
 31
0.0
 11
5.9638698188
 21
4.6448388496
 31
0.0
 11
5.9664332278
 21
4.6452490896
 31
0.0
 11
5.9715195775
 21
4.6462014696
 31
0.0
 11
5.9740353013
 21
4.646741113
 31
0.0
 11
5.9765279133
 21
4.6473213945
 31
0.0
 11
5.9789938056
 21
4.6479410657
 31
0.0
 11
5.9814301578
 21
4.6485988751
 31
0.0
 11
5.9862125029
 21
4.6500238636
 31
0.0
 11
5.9908735296
 21
4.6515862609
 31
0.0
 11
5.99541223
 21
4.6532759664
 31
0.0
 11
5.9998276146
 21
4.6550828997
 31
0.0
 11
6.0041205674
 21
4.6569990798
 31
0.0
 11
6.008295453
 21
4.6590204259
 31
0.0
 11
6.0123570144
 21
4.6611432812
 31
0.0
 11
6.0163099948
 21
4.6633639894
 31
0.0
 11
6.0201587843
 21
4.6656793124
 31
0.0
 11
6.0239066319
 21
4.6680873654
 31
0.0
 11
6.0275565562
 21
4.6705865368
 31
0.0
 11
6.0311115758
 21
4.673175215
 31
0.0
 11
6.0379477886
 21
4.6786154588
 31
0.0
 11
6.0444334158
 21
4.684399321
 31
0.0
 11
6.0505827184
 21
4.6905194863
 31
0.0
 11
6.0563988026
 21
4.69697125
 31
0.0
 11
6.0618803219
 21
4.7037509027
 31
0.0
 11
6.0670195713
 21
4.7108560303
 31
0.0
 11
6.0718052929
 21
4.7182836024
 31
0.0
 11
6.0762184993
 21
4.7260267154
 31
0.0
  0
SPLINE
  5
2CF
100
AcDbEntity
  8
0
100
AcDbSpline
 62
6
  6
CONTINUOUS
 70
0
 71
3
 72
67
 73
63
 74
61
 42
0.0000001
 43
0.0000001
 44
0.0000000001
 12
0.2485471637
 22
-0.1546156232
 32
0.0
 13
0.0664196293
 23
0.2850791405
 33
0.0
 40
0.0
 40
0.0
 40
0.0
 40
0.0
 40
0.0304528503
 40
0.0606582306
 40
0.0756801464
 40
0.0906524495
 40
0.1055787144
 40
0.1204645632
 40
0.1501523773
 40
0.1649781708
 40
0.1798052629
 40
0.1946444925
 40
0.2095078654
 40
0.2244103284
 40
0.2393678292
 40
0.2543969229
 40
0.2695147253
 40
0.2847389761
 40
0.3000889891
 40
0.3155854941
 40
0.3312501662
 40
0.3471055481
 40
0.3631734992
 40
0.3794690225
 40
0.3960062927
 40
0.4128014584
 40
0.4298699487
 40
0.4471869447
 40
0.4646957921
 40
0.4735050469
 40
0.482341614
 40
0.4911989327
 40
0.5000695277
 40
0.5089439058
 40
0.5178122169
 40
0.5354899582
 40
0.5442798334
 40
0.5530232179
 40
0.5617098591
 40
0.5703316799
 40
0.5873796689
 40
0.604173537
 40
0.6207182782
 40
0.6370166594
 40
0.6530773849
 40
0.6689238759
 40
0.6845803982
 40
0.7000700646
 40
0.7154144809
 40
0.7306333312
 40
0.7457454896
 40
0.7607692025
 40
0.7757218537
 40
0.7906194307
 40
0.8054772185
 40
0.8203099886
 40
0.8499492796
 40
0.8796243476
 40
0.9094090637
 40
0.93936646
 40
0.9695523048
 40
1.0
 40
1.0
 40
1.0
 40
1.0
 10
6.0762184993
 20
4.7260267154
 30
0.0
 10
6.0787414892
 20
4.7244572199
 30
0.0
 10
6.0838533283
 20
4.7214675431
 30
0.0
 10
6.0904241471
 20
4.7180901999
 30
0.0
 10
6.0957533048
 20
4.715618706
 30
0.0
 10
6.0997780451
 20
4.713881908
 30
0.0
 10
6.1038354356
 20
4.7122581823
 30
0.0
 10
6.1092814414
 20
4.71024554
 30
0.0
 10
6.1147976627
 20
4.7084564684
 30
0.0
 10
6.1203741009
 20
4.7068965875
 30
0.0
 10
6.1245857168
 20
4.7058416155
 30
0.0
 10
6.1288281521
 20
4.7049014634
 30
0.0
 10
6.1331020399
 20
4.7040767091
 30
0.0
 10
6.1374087324
 20
4.7033699559
 30
0.0
 10
6.1417497842
 20
4.7027835096
 30
0.0
 10
6.1461267935
 20
4.7023197165
 30
0.0
 10
6.1505413657
 20
4.701980966
 30
0.0
 10
6.1549952231
 20
4.7017694083
 30
0.0
 10
6.1594903627
 20
4.7016890115
 30
0.0
 10
6.1640288816
 20
4.7017442457
 30
0.0
 10
6.1686129153
 20
4.7019394256
 30
0.0
 10
6.1732444412
 20
4.7022789619
 30
0.0
 10
6.1779246165
 20
4.7027668601
 30
0.0
 10
6.1826530746
 20
4.7034109847
 30
0.0
 10
6.1874282362
 20
4.7042195589
 30
0.0
 10
6.192248017
 20
4.7052005725
 30
0.0
 10
6.1971060409
 20
4.706361161
 30
0.0
 10
6.2019889266
 20
4.7077047496
 30
0.0
 10
6.206053388
 20
4.7089755314
 30
0.0
 10
6.2092990413
 20
4.7100856217
 30
0.0
 10
6.2117305087
 20
4.7109664577
 30
0.0
 10
6.2141509604
 20
4.7118939849
 30
0.0
 10
6.216557187
 20
4.712867683
 30
0.0
 10
6.2189463455
 20
4.7138852919
 30
0.0
 10
6.2221013638
 20
4.7152962841
 30
0.0
 10
6.2252111962
 20
4.7167869072
 30
0.0
 10
6.2282695
 20
4.7183524513
 30
0.0
 10
6.2305262766
 20
4.7195577008
 30
0.0
 10
6.2327473616
 20
4.7207941476
 30
0.0
 10
6.2356473718
 20
4.7224758703
 30
0.0
 10
6.2391772346
 20
4.724647018
 30
0.0
 10
6.2432759699
 20
4.7273634632
 30
0.0
 10
6.2472232767
 20
4.7301711713
 30
0.0
 10
6.2510216534
 20
4.7330605014
 30
0.0
 10
6.2546748912
 20
4.7360242549
 30
0.0
 10
6.2581867355
 20
4.7390592908
 30
0.0
 10
6.2615625969
 20
4.7421630997
 30
0.0
 10
6.2648079566
 20
4.7453333497
 30
0.0
 10
6.267928205
 20
4.7485677018
 30
0.0
 10
6.2709267631
 20
4.7518655545
 30
0.0
 10
6.2738069829
 20
4.7552261201
 30
0.0
 10
6.276572172
 20
4.7586486012
 30
0.0
 10
6.2792256229
 20
4.7621321221
 30
0.0
 10
6.2817697301
 20
4.7656763465
 30
0.0
 10
6.2842068156
 20
4.7692809071
 30
0.0
 10
6.2873154592
 20
4.7741650234
 30
0.0
 10
6.2909492757
 20
4.7804253602
 30
0.0
 10
6.2949015125
 20
4.7881731663
 30
0.0
 10
6.2984456287
 20
4.7961500357
 30
0.0
 10
6.301573755
 20
4.8043524677
 30
0.0
 10
6.304276498
 20
4.8127724874
 30
0.0
 10
6.3057768533
 20
4.8184987894
 30
0.0
 10
6.3064509615
 20
4.8213921237
 30
0.0
 11
6.0762184993
 21
4.7260267154
 31
0.0
 11
6.0839131805
 21
4.7215266013
 31
0.0
 11
6.0917767486
 21
4.7174846629
 31
0.0
 11
6.0957657632
 21
4.7156346587
 31
0.0
 11
6.0997896772
 21
4.7138981775
 31
0.0
 11
6.1038460574
 21
4.7122748809
 31
0.0
 11
6.1079332693
 21
4.7107646575
 31
0.0
 11
6.1161997599
 21
4.7080847168
 31
0.0
 11
6.1203790682
 21
4.7069157121
 31
0.0
 11
6.1245891048
 21
4.7058611596
 31
0.0
 11
6.128829886
 21
4.7049214173
 31
0.0
 11
6.1331018578
 21
4.7040973773
 31
0.0
 11
6.1374064813
 21
4.7033911927
 31
0.0
 11
6.1417453639
 21
4.7028051988
 31
0.0
 11
6.1461201133
 21
4.7023417307
 31
0.0
 11
6.1505323371
 21
4.7020031236
 31
0.0
 11
6.1549836831
 21
4.7017918612
 31
0.0
 11
6.1594761363
 21
4.7017116681
 31
0.0
 11
6.1640118494
 21
4.701766886
 31
0.0
 11
6.1685929763
 21
4.7019618612
 31
0.0
 11
6.1732216708
 21
4.70230094
 31
0.0
 11
6.1778996076
 21
4.702788918
 31
0.0
 11
6.1826258504
 21
4.7034330393
 31
0.0
 11
6.1873985779
 21
4.704241378
 31
0.0
 11
6.1922159679
 21
4.7052220087
 31
0.0
 11
6.1970754521
 21
4.7063827612
 31
0.0
 11
6.2019627269
 21
4.7077276131
 31
0.0
 11
6.2068541548
 21
4.7092574784
 31
0.0
 11
6.2092939587
 21
4.7100920501
 31
0.0
 11
6.21172584
 21
4.710973186
 31
0.0
 11
6.2141468112
 21
4.7119009823
 31
0.0
 11
6.2165538352
 21
4.712874794
 31
0.0
 11
6.2189437842
 21
4.7138926199
 31
0.0
 11
6.2213135204
 21
4.7149523143
 31
0.0
 11
6.2259798046
 21
4.7171887257
 31
0.0
 11
6.2282700773
 21
4.7183611511
 31
0.0
 11
6.2305275869
 21
4.7195668618
 31
0.0
 11
6.232749196
 21
4.7208037122
 31
0.0
 11
6.2349324084
 21
4.7220697294
 31
0.0
 11
6.2391830645
 21
4.7246839075
 31
0.0
 11
6.2432808197
 21
4.7273993358
 31
0.0
 11
6.2472274229
 21
4.7302060845
 31
0.0
 11
6.2510246316
 21
4.7330942415
 31
0.0
 11
6.2546753623
 21
4.7360562493
 31
0.0
 11
6.2581848479
 21
4.739089259
 31
0.0
 11
6.2615585972
 21
4.7421909816
 31
0.0
 11
6.2648021189
 21
4.7453591283
 31
0.0
 11
6.2679205019
 21
4.7485917024
 31
0.0
 11
6.270917388
 21
4.7518877151
 31
0.0
 11
6.273796107
 21
4.7552463951
 31
0.0
 11
6.276559989
 21
4.7586669705
 31
0.0
 11
6.2792122044
 21
4.7621487253
 31
0.0
 11
6.2817552328
 21
4.7656911837
 31
0.0
 11
6.2841913664
 21
4.7692939347
 31
0.0
 11
6.2865228977
 21
4.7729565678
 31
0.0
 11
6.2908786464
 21
4.7804597502
 31
0.0
 11
6.2948267146
 21
4.7881969898
 31
0.0
 11
6.2983667513
 21
4.7961643528
 31
0.0
 11
6.3014919423
 21
4.8043575103
 31
0.0
 11
6.3041921955
 21
4.8127706261
 31
0.0
 11
6.3064509615
 21
4.8213921237
 31
0.0
  0
SPLINE
  5
2D0
100
AcDbEntity
  8
0
100
AcDbSpline
 62
6
  6
CONTINUOUS
 70
0
 71
3
 72
65
 73
61
 74
59
 42
0.0000001
 43
0.0000001
 44
0.0000000001
 12
0.2800939516
 22
-0.085017986
 32
0.0
 13
-0.0096274192
 23
0.2925542556
 33
0.0
 40
0.0
 40
0.0
 40
0.0
 40
0.0
 40
0.0304530782
 40
0.0606587557
 40
0.0756808185
 40
0.0906532551
 40
0.105579629
 40
0.1204655052
 40
0.1501531303
 40
0.1649787411
 40
0.1798056116
 40
0.1946445954
 40
0.2095077982
 40
0.2244101931
 40
0.2393676988
 40
0.2543968367
 40
0.2695146846
 40
0.2847389715
 40
0.3000890676
 40
0.3155857097
 40
0.3312505669
 40
0.3471061637
 40
0.363174138
 40
0.379469473
 40
0.3960067379
 40
0.4128024662
 40
0.4298719256
 40
0.4471887301
 40
0.4646968571
 40
0.4735058354
 40
0.4823423358
 40
0.4911999047
 40
0.5000709574
 40
0.5089458785
 40
0.5178147418
 40
0.5354933253
 40
0.5442833524
 40
0.5530266231
 40
0.5617128258
 40
0.5703342295
 40
0.5873821175
 40
0.6041764683
 40
0.6207217969
 40
0.6370204113
 40
0.653081182
 40
0.6689277187
 40
0.6845843061
 40
0.700074068
 40
0.7154185946
 40
0.7306375549
 40
0.7457498215
 40
0.7607736376
 40
0.7906210268
 40
0.8203089109
 40
0.8499483859
 40
0.8796236222
 40
0.9094085149
 40
0.939366101
 40
0.9695521371
 40
1.0
 40
1.0
 40
1.0
 40
1.0
 10
6.3064509615
 20
4.8213921237
 30
0.0
 10
6.3092942025
 20
4.8205291039
 30
0.0
 10
6.3150056584
 20
4.8189643257
 30
0.0
 10
6.3222267215
 20
4.817402696
 30
0.0
 10
6.3280139844
 20
4.8163947023
 30
0.0
 10
6.3323511156
 20
4.8157587741
 30
0.0
 10
6.3366905096
 20
4.8152405374
 30
0.0
 10
6.3424718227
 20
4.8147060533
 30
0.0
 10
6.3482630625
 20
4.8144056818
 30
0.0
 10
6.3540531231
 20
4.8143422363
 30
0.0
 10
6.3583941897
 20
4.8144132309
 30
0.0
 10
6.3627353122
 20
4.8146030589
 30
0.0
 10
6.367076964
 20
4.8149125206
 30
0.0
 10
6.3714197842
 20
4.8153444859
 30
0.0
 10
6.3757646748
 20
4.8159015625
 30
0.0
 10
6.380112564
 20
4.816586418
 30
0.0
 10
6.3844643804
 20
4.8174017522
 30
0.0
 10
6.3888212306
 20
4.8183501051
 30
0.0
 10
6.3931840011
 20
4.8194359087
 30
0.0
 10
6.3975535798
 20
4.8206639575
 30
0.0
 10
6.4019309179
 20
4.8220389485
 30
0.0
 10
6.4063167838
 20
4.8235655854
 30
0.0
 10
6.4107112221
 20
4.8252480802
 30
0.0
 10
6.4151118067
 20
4.8270940627
 30
0.0
 10
6.4195149755
 20
4.8291110257
 30
0.0
 10
6.42391671
 20
4.8313061536
 30
0.0
 10
6.4283089254
 20
4.833684558
 30
0.0
 10
6.432677731
 20
4.8362460212
 30
0.0
 10
6.4362747109
 20
4.8385253367
 30
0.0
 10
6.4391223417
 20
4.8404375911
 30
0.0
 10
6.4412429283
 20
4.8419177583
 30
0.0
 10
6.4433408025
 20
4.8434402769
 30
0.0
 10
6.4454130704
 20
4.8450036937
 30
0.0
 10
6.4474575472
 20
4.8466050767
 30
0.0
 10
6.450140033
 20
4.8487846349
 30
0.0
 10
6.4527582719
 20
4.8510293482
 30
0.0
 10
6.4553072918
 20
4.8533330628
 30
0.0
 10
6.4571752276
 20
4.8550812641
 30
0.0
 10
6.4590005376
 20
4.856850362
 30
0.0
 10
6.4613663631
 20
4.859225307
 30
0.0
 10
6.4642139587
 20
4.8622360846
 30
0.0
 10
6.467469977
 20
4.865920877
 30
0.0
 10
6.4705561529
 20
4.8696546317
 30
0.0
 10
6.4734773701
 20
4.8734286113
 30
0.0
 10
6.4762390662
 20
4.8772368996
 30
0.0
 10
6.4788457018
 20
4.881077451
 30
0.0
 10
6.481303185
 20
4.8849492444
 30
0.0
 10
6.4836174447
 20
4.8888514281
 30
0.0
 10
6.4857942778
 20
4.8927831506
 30
0.0
 10
6.487837118
 20
4.8967447123
 30
0.0
 10
6.4897494261
 20
4.9007362595
 30
0.0
 10
6.4921242767
 20
4.9060861438
 30
0.0
 10
6.4947898669
 20
4.9128595919
 30
0.0
 10
6.4975173839
 20
4.9211264378
 30
0.0
 10
6.4997855274
 20
4.9295135128
 30
0.0
 10
6.5015978537
 20
4.9380203296
 30
0.0
 10
6.5029566333
 20
4.9466426534
 30
0.0
 10
6.5038552259
 20
4.9553752233
 30
0.0
 10
6.5042866151
 20
4.9642078589
 30
0.0
 10
6.5042537703
 20
4.9701273632
 30
0.0
 10
6.5041560588
 20
4.9730965805
 30
0.0
 11
6.3064509615
 21
4.8213921237
 31
0.0
 11
6.3150481792
 21
4.8190368635
 31
0.0
 11
6.323689965
 21
4.817167872
 31
0.0
 11
6.328021891
 21
4.8164133375
 31
0.0
 11
6.3323581432
 21
4.8157775028
 31
0.0
 11
6.3366964554
 21
4.8152594156
 31
0.0
 11
6.3410352591
 21
4.8148585346
 31
0.0
 11
6.3497135915
 21
4.8144094819
 31
0.0
 11
6.3540529751
 21
4.814361991
 31
0.0
 11
6.3583924067
 21
4.8144329775
 31
0.0
 11
6.3627318154
 21
4.8146227857
 31
0.0
 11
6.3670714286
 21
4.8149324418
 31
0.0
 11
6.371412106
 21
4.8153644171
 31
0.0
 11
6.3757547879
 21
4.8159213676
 31
0.0
 11
6.3801004145
 21
4.8166059489
 31
0.0
 11
6.3844499262
 21
4.8174208169
 31
0.0
 11
6.3888042654
 21
4.8183688172
 31
0.0
 11
6.39316439
 21
4.8194541105
 31
0.0
 11
6.3975312645
 21
4.8206814135
 31
0.0
 11
6.4019058533
 21
4.822055445
 31
0.0
 11
6.4062891207
 21
4.8235809236
 31
0.0
 11
6.4106813695
 21
4.8252629377
 31
0.0
 11
6.4150797838
 21
4.8271083165
 31
0.0
 11
6.4194806302
 21
4.8291244018
 31
0.0
 11
6.4238801754
 21
4.8313185352
 31
0.0
 11
6.4282738948
 21
4.8336975485
 31
0.0
 11
6.4326465463
 21
4.8362613605
 31
0.0
 11
6.436975172
 21
4.8390049137
 31
0.0
 11
6.4391157479
 21
4.8404424786
 31
0.0
 11
6.4412366445
 21
4.8419230411
 31
0.0
 11
6.4433349734
 21
4.8434459411
 31
0.0
 11
6.4454079919
 21
4.8450096817
 31
0.0
 11
6.4474531803
 21
4.846611486
 31
0.0
 11
6.4494680376
 21
4.8482484688
 31
0.0
 11
6.4533967557
 21
4.8516164289
 31
0.0
 11
6.4553056147
 21
4.8533416357
 31
0.0
 11
6.4571741392
 21
4.8550904802
 31
0.0
 11
6.458999829
 21
4.8568600774
 31
0.0
 11
6.4607808672
 21
4.8586479331
 31
0.0
 11
6.4642100054
 21
4.8622731819
 31
0.0
 11
6.4674653742
 21
4.865956771
 31
0.0
 11
6.4705511513
 21
4.8696894491
 31
0.0
 11
6.4734715199
 21
4.8734619916
 31
0.0
 11
6.476231236
 21
4.8772679286
 31
0.0
 11
6.47883612
 21
4.8811059084
 31
0.0
 11
6.4812921076
 21
4.8849751358
 31
0.0
 11
6.483605135
 21
4.8888748157
 31
0.0
 11
6.485780623
 21
4.892804339
 31
0.0
 11
6.4878223277
 21
4.8967636979
 31
0.0
 11
6.4897336692
 21
4.900753006
 31
0.0
 11
6.4915180673
 21
4.9047723768
 31
0.0
 11
6.4947182794
 21
4.9129018726
 31
0.0
 11
6.4974430662
 21
4.9211536577
 31
0.0
 11
6.4997084358
 21
4.9295285277
 31
0.0
 11
6.5015194306
 21
4.9380239611
 31
0.0
 11
6.5028767393
 21
4.9466360721
 31
0.0
 11
6.503774896
 21
4.9553589178
 31
0.0
 11
6.5042056665
 21
4.9641842448
 31
0.0
 11
6.5041560588
 21
4.9730965805
 31
0.0
  0
LINE
  5
2D1
100
AcDbEntity
  8
0
100
AcDbLine
 62
6
  6
CONTINUOUS
 10
6.723184145
 20
6.2067593955
 11
6.8141113387
 21
6.263577012
  0
SPLINE
  5
2D2
100
AcDbEntity
  8
0
100
AcDbSpline
 62
6
  6
CONTINUOUS
 70
0
 71
3
 72
73
 73
69
 74
67
 42
0.0000001
 43
0.0000001
 44
0.0000000001
 12
0.2925592652
 22
-0.0096275841
 32
0.0
 13
-0.0850194418
 23
0.2800987478
 33
0.0
 40
0.0
 40
0.0
 40
0.0
 40
0.0
 40
0.0304350176
 40
0.060624884
 40
0.0756401612
 40
0.0906067133
 40
0.1055282026
 40
0.1204087493
 40
0.1352572135
 40
0.150084689
 40
0.1797193706
 40
0.1945525623
 40
0.2094111376
 40
0.224308303
 40
0.2392596484
 40
0.2542816009
 40
0.2693912228
 40
0.284606162
 40
0.2999446813
 40
0.3154275142
 40
0.3310783261
 40
0.3469220919
 40
0.3629849343
 40
0.3792938123
 40
0.395861492
 40
0.4126772809
 40
0.4297305205
 40
0.438343894
 40
0.4470138397
 40
0.455739791
 40
0.4645205787
 40
0.4733483324
 40
0.4822116264
 40
0.4999979496
 40
0.5177873569
 40
0.5266544594
 40
0.535487466
 40
0.5442748429
 40
0.5530061751
 40
0.5616784331
 40
0.5702916337
 40
0.5873394588
 40
0.6041470564
 40
0.620708505
 40
0.628894642
 40
0.6370167796
 40
0.6530800388
 40
0.6689247286
 40
0.6845765283
 40
0.7000600379
 40
0.7153986712
 40
0.7306134652
 40
0.7457227936
 40
0.7607443285
 40
0.775695166
 40
0.7905917763
 40
0.8054498809
 40
0.8202829516
 40
0.8351026694
 40
0.8499205252
 40
0.8647478557
 40
0.8795958187
 40
0.8944753691
 40
0.9093957885
 40
0.9243614957
 40
0.9393761278
 40
0.9695652138
 40
1.0
 40
1.0
 40
1.0
 40
1.0
 10
6.5041560588
 20
4.9730965805
 30
0.0
 10
6.5071240743
 20
4.9729989086
 30
0.0
 10
6.5130427018
 20
4.9729656158
 30
0.0
 10
6.520418067
 20
4.9733256899
 30
0.0
 10
6.5262663758
 20
4.9738493678
 30
0.0
 10
6.5306187281
 20
4.9743571736
 30
0.0
 10
6.5349429075
 20
4.9749792642
 30
0.0
 10
6.539237663
 20
4.975714115
 30
0.0
 10
6.5435022364
 20
4.9765620399
 30
0.0
 10
6.5491461231
 20
4.9778438417
 30
0.0
 10
6.5547342856
 20
4.9793557445
 30
0.0
 10
6.5602553284
 20
4.9810972212
 30
0.0
 10
6.56436738
 20
4.9825200209
 30
0.0
 10
6.5684491236
 20
4.9840604449
 30
0.0
 10
6.572500463
 20
4.9857217222
 30
0.0
 10
6.5765214867
 20
4.9875068404
 30
0.0
 10
6.5805123047
 20
4.9894188486
 30
0.0
 10
6.5844729862
 20
4.9914608627
 30
0.0
 10
6.5884039627
 20
4.9936357715
 30
0.0
 10
6.5923051421
 20
4.9959483136
 30
0.0
 10
6.5961758347
 20
4.9984048733
 30
0.0
 10
6.6000156928
 20
5.0010115552
 30
0.0
 10
6.6038242552
 20
5.0037746139
 30
0.0
 10
6.607600095
 20
5.0066990803
 30
0.0
 10
6.6113380887
 20
5.0097885085
 30
0.0
 10
6.6150274773
 20
5.0130466788
 30
0.0
 10
6.6180408141
 20
5.0158943371
 30
0.0
 10
6.620415242
 20
5.0182581461
 30
0.0
 10
6.6221819022
 20
5.0200802338
 30
0.0
 10
6.6239267317
 20
5.0219456667
 30
0.0
 10
6.6256474577
 20
5.0238541428
 30
0.0
 10
6.6273422335
 20
5.0258034947
 30
0.0
 10
6.6295668343
 20
5.0284558507
 30
0.0
 10
6.6322655047
 20
5.0318509075
 30
0.0
 10
6.6348453666
 20
5.0353375541
 30
0.0
 10
6.636831679
 20
5.0381742061
 30
0.0
 10
6.6382766935
 20
5.0403171121
 30
0.0
 10
6.6396761028
 20
5.042474299
 30
0.0
 10
6.6410277535
 20
5.0446432694
 30
0.0
 10
6.6423313637
 20
5.0468216689
 30
0.0
 10
6.6440004299
 20
5.0497264196
 30
0.0
 10
6.6459708278
 20
5.0533727657
 30
0.0
 10
6.648162025
 20
5.0577780714
 30
0.0
 10
6.649848019
 20
5.0614664055
 30
0.0
 10
6.6511112188
 20
5.0644144669
 30
0.0
 10
6.6523096656
 20
5.0673369676
 30
0.0
 10
6.6537069096
 20
5.0709850721
 30
0.0
 10
6.655231159
 20
5.075368893
 30
0.0
 10
6.656602568
 20
5.0797436541
 30
0.0
 10
6.6578269186
 20
5.0841105299
 30
0.0
 10
6.6589102241
 20
5.0884705576
 30
0.0
 10
6.6598574892
 20
5.0928247759
 30
0.0
 10
6.660671385
 20
5.0971744009
 30
0.0
 10
6.6613548727
 20
5.1015203284
 30
0.0
 10
6.6619108399
 20
5.1058634621
 30
0.0
 10
6.6623421205
 20
5.1102046976
 30
0.0
 10
6.662651829
 20
5.1145447567
 30
0.0
 10
6.6628416736
 20
5.1188841947
 30
0.0
 10
6.6629120136
 20
5.1232232843
 30
0.0
 10
6.6628634736
 20
5.1275621065
 30
0.0
 10
6.6626966063
 20
5.1319007427
 30
0.0
 10
6.6624119791
 20
5.1362392724
 30
0.0
 10
6.6620101893
 20
5.1405776371
 30
0.0
 10
6.6614918425
 20
5.1449151862
 30
0.0
 10
6.6608558644
 20
5.1492504121
 30
0.0
 10
6.6598480482
 20
5.1550347577
 30
0.0
 10
6.658287005
 20
5.1622518492
 30
0.0
 10
6.6567230318
 20
5.167960096
 30
0.0
 10
6.6558605157
 20
5.1708016779
 30
0.0
 11
6.5041560588
 21
4.9730965805
 31
0.0
 11
6.513064785
 21
4.9730466055
 31
0.0
 11
6.5218913839
 21
4.9734774193
 31
0.0
 11
6.5262691075
 21
4.9738693871
 31
0.0
 11
6.5306205658
 21
4.9743770703
 31
0.0
 11
6.5349438473
 21
4.9749989749
 31
0.0
 11
6.5392372151
 21
4.9757338037
 31
0.0
 11
6.543500133
 21
4.9765816173
 31
0.0
 11
6.5477325716
 21
4.9775430493
 31
0.0
 11
6.5561059007
 21
4.9798093102
 31
0.0
 11
6.5602467361
 21
4.9811154102
 31
0.0
 11
6.5643569829
 21
4.9825376849
 31
0.0
 11
6.5684366674
 21
4.9840776708
 31
0.0
 11
6.5724858994
 21
4.9857382938
 31
0.0
 11
6.5765047959
 21
4.9875226016
 31
0.0
 11
6.580493474
 21
4.9894336416
 31
0.0
 11
6.5844520506
 21
4.9914744614
 31
0.0
 11
6.5883806322
 21
4.9936481784
 31
0.0
 11
6.5922790923
 21
4.9959594385
 31
0.0
 11
6.5961470782
 21
4.9984143739
 31
0.0
 11
6.5999842277
 21
5.0010191783
 31
0.0
 11
6.6037901786
 21
5.0037800454
 31
0.0
 11
6.6075645082
 21
5.0067031467
 31
0.0
 11
6.6113023735
 21
5.0097930476
 31
0.0
 11
6.6149915945
 21
5.0130516468
 31
0.0
 11
6.6186192997
 21
5.0164805916
 31
0.0
 11
6.6204060614
 21
5.0182594584
 31
0.0
 11
6.6221726173
 21
5.0200815294
 31
0.0
 11
6.6239173584
 21
5.0219470104
 31
0.0
 11
6.6256386121
 21
5.023855854
 31
0.0
 11
6.6273341565
 21
5.0258058252
 31
0.0
 11
6.629001489
 21
5.0277935711
 31
0.0
 11
6.6322414992
 21
5.0318689395
 31
0.0
 11
6.6353386039
 21
5.0360550639
 31
0.0
 11
6.6368273045
 21
5.0381812548
 31
0.0
 11
6.6382727643
 21
5.040325049
 31
0.0
 11
6.6396724783
 21
5.0424830846
 31
0.0
 11
6.641024227
 21
5.0446521778
 31
0.0
 11
6.6423278276
 21
5.0468304165
 31
0.0
 11
6.6435839823
 21
5.0490164413
 31
0.0
 11
6.6459567786
 21
5.0534064213
 31
0.0
 11
6.6481482639
 21
5.0578112611
 31
0.0
 11
6.6501640864
 21
5.0622201041
 31
0.0
 11
6.6511078891
 21
5.0644226342
 31
0.0
 11
6.6520098985
 21
5.0666223732
 31
0.0
 11
6.6536914457
 21
5.071013409
 31
0.0
 11
6.6552145617
 21
5.0753942022
 31
0.0
 11
6.6565850841
 21
5.0797659684
 31
0.0
 11
6.6578088503
 21
5.0841299237
 31
0.0
 11
6.6588916817
 21
5.0884872824
 31
0.0
 11
6.659838332
 21
5.0928391498
 31
0.0
 11
6.6606518399
 21
5.097186456
 31
0.0
 11
6.6613350892
 21
5.1015301157
 31
0.0
 11
6.6618909638
 21
5.1058710431
 31
0.0
 11
6.6623223473
 21
5.1102101528
 31
0.0
 11
6.6626320695
 21
5.1145483399
 31
0.0
 11
6.66282182
 21
5.1188860931
 31
0.0
 11
6.662892206
 21
5.1232235147
 31
0.0
 11
6.6628437917
 21
5.1275606922
 31
0.0
 11
6.6626771412
 21
5.1318977128
 31
0.0
 11
6.6623928187
 21
5.1362346635
 31
0.0
 11
6.6619913884
 21
5.1405716318
 31
0.0
 11
6.6614731117
 21
5.1449082413
 31
0.0
 11
6.6608372416
 21
5.1492425732
 31
0.0
 11
6.6600828219
 21
5.1535723878
 31
0.0
 11
6.6582145071
 21
5.162209506
 31
0.0
 11
6.6558605157
 21
5.1708016779
 31
0.0
  0
SPLINE
  5
2D3
100
AcDbEntity
  8
0
100
AcDbSpline
 62
6
  6
CONTINUOUS
 70
0
 71
3
 72
65
 73
61
 74
59
 42
0.0000001
 43
0.0000001
 44
0.0000000001
 12
0.2850774705
 22
0.0664192402
 32
0.0
 13
-0.1546147174
 23
0.2485457077
 33
0.0
 40
0.0
 40
0.0
 40
0.0
 40
0.0
 40
0.0304530782
 40
0.0606587557
 40
0.0756808185
 40
0.0906532551
 40
0.105579629
 40
0.1204655052
 40
0.1501531303
 40
0.1649787411
 40
0.1798056116
 40
0.1946445954
 40
0.2095077982
 40
0.2244101931
 40
0.2393676988
 40
0.2543968367
 40
0.2695146846
 40
0.2847389715
 40
0.3000890676
 40
0.3155857097
 40
0.3312505669
 40
0.3471061637
 40
0.363174138
 40
0.379469473
 40
0.3960067379
 40
0.4128024662
 40
0.4298719256
 40
0.4471887301
 40
0.4646968571
 40
0.4735058354
 40
0.4823423358
 40
0.4911999047
 40
0.5000709574
 40
0.5089458785
 40
0.5178147418
 40
0.5354933253
 40
0.5442833524
 40
0.5530266231
 40
0.5617128258
 40
0.5703342295
 40
0.5873821175
 40
0.6041764683
 40
0.6207217969
 40
0.6370204113
 40
0.653081182
 40
0.6689277187
 40
0.6845843061
 40
0.700074068
 40
0.7154185946
 40
0.7306375549
 40
0.7457498215
 40
0.7607736376
 40
0.7906210268
 40
0.8203089109
 40
0.8499483859
 40
0.8796236222
 40
0.9094085149
 40
0.939366101
 40
0.9695521371
 40
1.0
 40
1.0
 40
1.0
 40
1.0
 10
6.6558605157
 20
5.1708016779
 30
0.0
 10
6.6587543445
 20
5.1714759013
 30
0.0
 10
6.6644829995
 20
5.1729764916
 30
0.0
 10
6.6715174385
 20
5.1752346122
 30
0.0
 10
6.677033352
 20
5.1772552954
 30
0.0
 10
6.6811073819
 20
5.1788731311
 30
0.0
 10
6.6851245257
 20
5.1805940219
 30
0.0
 10
6.6903985317
 20
5.1830218017
 30
0.0
 10
6.6955640783
 20
5.1856572922
 30
0.0
 10
6.7006101405
 20
5.1884973771
 30
0.0
 10
6.7043341172
 20
5.1907293935
 30
0.0
 10
6.7079987256
 20
5.1930643507
 30
0.0
 10
6.7116039755
 20
5.1955031783
 30
0.0
 10
6.7151489855
 20
5.1980486812
 30
0.0
 10
6.7186332328
 20
5.200703569
 30
0.0
 10
6.7220561876
 20
5.2034706159
 30
0.0
 10
6.7254173041
 20
5.2063526242
 30
0.0
 10
6.7287162705
 20
5.209352347
 30
0.0
 10
6.7319516388
 20
5.2124740658
 30
0.0
 10
6.7351217805
 20
5.2157223766
 30
0.0
 10
6.7382251711
 20
5.2191018228
 30
0.0
 10
6.7412601238
 20
5.2226168621
 30
0.0
 10
6.7442245717
 20
5.2262711645
 30
0.0
 10
6.7471125985
 20
5.2300701245
 30
0.0
 10
6.749917373
 20
5.2340184501
 30
0.0
 10
6.7526318229
 20
5.2381203539
 30
0.0
 10
6.7552463909
 20
5.2423762202
 30
0.0
 10
6.7577491559
 20
5.2467789152
 30
0.0
 10
6.7597245742
 20
5.2505513503
 30
0.0
 10
6.7612345676
 20
5.2536312265
 30
0.0
 10
6.7623309659
 20
5.2559733823
 30
0.0
 10
6.7633865189
 20
5.2583408592
 30
0.0
 10
6.7643994471
 20
5.2607309518
 30
0.0
 10
6.7653693244
 20
5.2631400285
 30
0.0
 10
6.7666026462
 20
5.2663688242
 30
0.0
 10
6.767747751
 20
5.2696219224
 30
0.0
 10
6.7688034097
 20
5.2728915077
 30
0.0
 10
6.7695469888
 20
5.2753394623
 30
0.0
 10
6.7702432047
 20
5.2777842011
 30
0.0
 10
6.7711045973
 20
5.2810238765
 30
0.0
 10
6.7720652985
 20
5.2850550842
 30
0.0
 10
6.7730426969
 20
5.2898742172
 30
0.0
 10
6.7738485263
 20
5.2946508316
 30
0.0
 10
6.7744913849
 20
5.2993798024
 30
0.0
 10
6.7749789397
 20
5.3040587249
 30
0.0
 10
6.7753160766
 20
5.3086880577
 30
0.0
 10
6.7755084228
 20
5.3132698708
 30
0.0
 10
6.7755615386
 20
5.3178063908
 30
0.0
 10
6.7754808701
 20
5.3222997789
 30
0.0
 10
6.7752692408
 20
5.3267520121
 30
0.0
 10
6.7749295746
 20
5.3311649474
 30
0.0
 10
6.7743113134
 20
5.3369855085
 30
0.0
 10
6.7732330581
 20
5.3441842816
 30
0.0
 10
6.7714617342
 20
5.3527073388
 30
0.0
 10
6.7692324666
 20
5.3611048305
 30
0.0
 10
6.7665485788
 20
5.3693781131
 30
0.0
 10
6.7634141546
 20
5.3775246544
 30
0.0
 10
6.7598260737
 20
5.385536578
 30
0.0
 10
6.7557833498
 20
5.3934015594
 30
0.0
 10
6.7527951532
 20
5.3985115781
 30
0.0
 10
6.751225924
 20
5.40103414
 30
0.0
 11
6.6558605157
 21
5.1708016779
 31
0.0
 11
6.6644835547
 21
5.1730605716
 31
0.0
 11
6.6729020565
 21
5.1757628704
 31
0.0
 11
6.6770308817
 21
5.1772753874
 31
0.0
 11
6.6811041036
 21
5.1788928644
 31
0.0
 11
6.6851202358
 21
5.1806133439
 31
0.0
 11
6.6890781905
 21
5.1824355725
 31
0.0
 11
6.6968183732
 21
5.1863858477
 31
0.0
 11
6.700600135
 21
5.1885144112
 31
0.0
 11
6.7043226998
 21
5.1907456031
 31
0.0
 11
6.7079858339
 21
5.1930796861
 31
0.0
 11
6.7115892211
 21
5.1955176628
 31
0.0
 11
6.7151323704
 21
5.1980621031
 31
0.0
 11
6.7186147679
 21
5.2007157773
 31
0.0
 11
6.7220359003
 21
5.2034814554
 31
0.0
 11
6.7253952539
 21
5.2063619076
 31
0.0
 11
6.7286922221
 21
5.2093600696
 31
0.0
 11
6.7319255542
 21
5.2124800235
 31
0.0
 11
6.7350937269
 21
5.2157263363
 31
0.0
 11
6.7381952162
 21
5.2191035769
 31
0.0
 11
6.7412284979
 21
5.2226163139
 31
0.0
 11
6.7441912898
 21
5.2262691051
 31
0.0
 11
6.7470777389
 21
5.2300664572
 31
0.0
 11
6.7498809411
 21
5.2340128615
 31
0.0
 11
6.7525939922
 21
5.2381128094
 31
0.0
 11
6.7552095583
 21
5.242369955
 31
0.0
 11
6.7577144795
 21
5.2467766071
 31
0.0
 11
6.7600914028
 21
5.2513169067
 31
0.0
 11
6.7612264134
 21
5.2536321624
 31
0.0
 11
6.7623228825
 21
5.2559748155
 31
0.0
 11
6.7633786387
 21
5.25834285
 31
0.0
 11
6.7643920551
 21
5.2607335983
 31
0.0
 11
6.765362338
 21
5.2631433957
 31
0.0
 11
6.7662887642
 21
5.265568493
 31
0.0
 11
6.7680071538
 21
5.2704495911
 31
0.0
 11
6.7687976708
 21
5.2728980936
 31
0.0
 11
6.7695414383
 21
5.2753468995
 31
0.0
 11
6.7702377335
 21
5.2777922605
 31
0.0
 11
6.7708862298
 21
5.2802311081
 31
0.0
 11
6.7720433262
 21
5.2850852348
 31
0.0
 11
6.7730207638
 21
5.2899030009
 31
0.0
 11
6.7738267861
 21
5.2946784835
 31
0.0
 11
6.7744696282
 21
5.2994057854
 31
0.0
 11
6.774956644
 21
5.3040816817
 31
0.0
 11
6.7752935498
 21
5.3087079117
 31
0.0
 11
6.7754858838
 21
5.3132867547
 31
0.0
 11
6.7755391842
 21
5.3178204902
 31
0.0
 11
6.7754584505
 21
5.3223113012
 31
0.0
 11
6.7752469392
 21
5.326761059
 31
0.0
 11
6.7749075555
 21
5.3311715718
 31
0.0
 11
6.7744432042
 21
5.3355446482
 31
0.0
 11
6.7731499212
 21
5.3441851041
 31
0.0
 11
6.7713837632
 21
5.352693753
 31
0.0
 11
6.7691581959
 21
5.361079288
 31
0.0
 11
6.7664788467
 21
5.3693420465
 31
0.0
 11
6.7633482549
 21
5.3774790078
 31
0.0
 11
6.7597646586
 21
5.3854822921
 31
0.0
 11
6.7557250534
 21
5.3933406347
 31
0.0
 11
6.751225924
 21
5.40103414
 31
0.0
  0
SPLINE
  5
2D4
100
AcDbEntity
  8
0
100
AcDbSpline
 62
6
  6
CONTINUOUS
 70
0
 71
3
 72
24
 73
20
 74
18
 42
0.0000001
 43
0.0000001
 44
0.0000000001
 12
0.0768041792
 22
0.0410357698
 32
0.0
 13
0.0441427337
 23
0.0750615442
 33
0.0
 40
0.0
 40
0.0
 40
0.0
 40
0.0
 40
0.0635473169
 40
0.1267578318
 40
0.1896604167
 40
0.2522818134
 40
0.3146466977
 40
0.3767787562
 40
0.43872225
 40
0.5005434864
 40
0.5623108658
 40
0.6240937891
 40
0.6550141041
 40
0.6859655972
 40
0.7480079805
 40
0.8103240751
 40
0.8730199191
 40
0.9362060122
 40
1.0
 40
1.0
 40
1.0
 40
1.0
 10
6.751225924
 20
5.40103414
 30
0.0
 10
6.7528528238
 20
5.4019033777
 30
0.0
 10
6.7560688994
 20
5.4036923635
 30
0.0
 10
6.7607874479
 20
5.4065301664
 30
0.0
 10
6.7653853323
 20
5.4095105318
 30
0.0
 10
6.7698607289
 20
5.4126290597
 30
0.0
 10
6.7742118665
 20
5.4158814962
 30
0.0
 10
6.7784377185
 20
5.4192637133
 30
0.0
 10
6.7825371123
 20
5.4227739478
 30
0.0
 10
6.7865087704
 20
5.4264124679
 30
0.0
 10
6.7903521154
 20
5.4301795868
 30
0.0
 10
6.793446638
 20
5.433425537
 30
0.0
 10
6.7958564831
 20
5.4360857052
 30
0.0
 10
6.7982257007
 20
5.4387921382
 30
0.0
 10
6.8011070224
 20
5.4422605425
 30
0.0
 10
6.8044284272
 20
5.4465570534
 30
0.0
 10
6.8076140006
 20
5.4509962518
 30
0.0
 10
6.810661489
 20
5.4555828779
 30
0.0
 10
6.8125888383
 20
5.4587257365
 30
0.0
 10
6.8135275186
 20
5.4603218949
 30
0.0
 11
6.751225924
 21
5.40103414
 31
0.0
 11
6.7560617425
 21
5.4037241687
 31
0.0
 11
6.7607787202
 21
5.4065610312
 31
0.0
 11
6.7653750891
 21
5.4095403917
 31
0.0
 11
6.7698490812
 21
5.4126579146
 31
0.0
 11
6.7741989285
 21
5.4159092642
 31
0.0
 11
6.7784228898
 21
5.4192902108
 31
0.0
 11
6.7825198076
 21
5.4227988435
 31
0.0
 11
6.7864890913
 21
5.4264355026
 31
0.0
 11
6.7903301737
 21
5.430200621
 31
0.0
 11
6.7940424875
 21
5.4340946316
 31
0.0
 11
6.7958501786
 21
5.4360901078
 31
0.0
 11
6.7976253995
 21
5.4381181339
 31
0.0
 11
6.801077315
 21
5.4422741525
 31
0.0
 11
6.8043959123
 21
5.4465675463
 31
0.0
 11
6.8075788514
 21
5.4510032195
 31
0.0
 11
6.8106237873
 21
5.4555860817
 31
0.0
 11
6.8135275186
 21
5.4603218949
 31
0.0
  0
LINE
  5
2D5
100
AcDbEntity
  8
0
100
AcDbLine
 62
6
  6
CONTINUOUS
 10
6.6367336499
 20
6.325748294
 11
6.7188684625
 21
6.394667585
  0
LINE
  5
2D6
100
AcDbEntity
  8
0
100
AcDbLine
 62
6
  6
CONTINUOUS
 10
6.534564431
 20
6.4315476173
 11
6.6063082018
 21
6.511227147
  0
LINE
  5
2D7
100
AcDbEntity
  8
0
100
AcDbLine
 62
6
  6
CONTINUOUS
 10
6.418665096
 20
6.5220981018
 11
6.4786214141
 21
6.6109869989
  0
LINE
  5
2D8
100
AcDbEntity
  8
0
100
AcDbLine
 62
6
  6
CONTINUOUS
 10
6.2912914937
 20
6.5956372854
 11
6.3382933776
 21
6.6920054286
  0
LINE
  5
2D9
100
AcDbEntity
  8
0
100
AcDbLine
 62
6
  6
CONTINUOUS
 10
6.1549228063
 20
6.6507338115
 11
6.1880554178
 21
6.7527055045
  0
LINE
  5
2DA
100
AcDbEntity
  8
0
100
AcDbLine
 62
6
  6
CONTINUOUS
 10
6.0122132951
 20
6.6863152889
 11
6.0308317456
 21
6.7919057687
  0
LINE
  5
2DB
100
AcDbEntity
  8
0
100
AcDbLine
 62
6
  6
CONTINUOUS
 10
5.8659406386
 20
6.7016891646
 11
5.8696825412
 21
6.8088432326
  0
LINE
  5
2DC
100
AcDbEntity
  8
0
100
AcDbLine
 62
6
  6
CONTINUOUS
 10
5.7189518676
 20
6.6965562036
 11
5.7077443903
 21
6.8031882277
  0
LINE
  5
2DD
100
AcDbEntity
  8
0
100
AcDbLine
 62
6
  6
CONTINUOUS
 10
5.5741079513
 20
6.6710163132
 11
5.5481692349
 21
6.7750508224
  0
LINE
  5
2DE
100
AcDbEntity
  8
0
100
AcDbLine
 62
6
  6
CONTINUOUS
 10
5.4342281118
 20
6.6255665982
 11
5.3940630239
 21
6.7249786791
  0
LINE
  5
2DF
100
AcDbEntity
  8
0
100
AcDbLine
 62
6
  6
CONTINUOUS
 10
5.302034951
 20
6.5610916857
 11
5.2484252595
 21
6.6539463953
  0
LINE
  5
2E0
100
AcDbEntity
  8
0
100
AcDbLine
 62
6
  6
CONTINUOUS
 10
5.1801014585
 20
6.4788465066
 11
5.1140906149
 21
6.5633365334
  0
LINE
  5
2E1
100
AcDbEntity
  8
0
100
AcDbLine
 62
6
  6
CONTINUOUS
 10
5.070800931
 20
6.3804318695
 11
4.9936737614
 21
6.4549127115
  0
LINE
  5
2E2
100
AcDbEntity
  8
0
100
AcDbLine
 62
6
  6
CONTINUOUS
 10
4.9762607789
 20
6.2677633036
 11
4.8895184759
 21
6.3307852758
  0
LINE
  5
2E3
100
AcDbEntity
  8
0
100
AcDbLine
 62
6
  6
CONTINUOUS
 10
4.8983211188
 20
6.1430337744
 11
4.8036520226
 21
6.1933702257
  0
LINE
  5
2E4
100
AcDbEntity
  8
0
100
AcDbLine
 62
6
  6
CONTINUOUS
 10
4.8384989574
 20
6.0086710001
 11
4.7377456944
 21
6.0453421889
  0
LINE
  5
2E5
100
AcDbEntity
  8
0
100
AcDbLine
 62
6
  6
CONTINUOUS
 10
4.7979586652
 20
5.8672901994
 11
4.6930822829
 21
5.8895823626
  0
ENDSEC
  0
SECTION
  2
OBJECTS
  0
DICTIONARY
  5
C
100
AcDbDictionary
280
0
281
1
  3
ACAD_GROUP
350
D
  3
ACAD_MLINESTYLE
350
17
  3
ACAD_LAYOUT
350
1A
  3
ACAD_PLOTSETTINGS
350
19
  3
ACAD_PLOTSTYLENAME
350
E
  0
DICTIONARY
  5
D
102
{ACAD_REACTORS
330
C
102
}
100
AcDbDictionary
280
0
281
1
  0
ACDBDICTIONARYWDFLT
  5
E
102
{ACAD_REACTORS
330
C
102
}
100
AcDbDictionary
281
1
  3
Normal
350
F
100
AcDbDictionaryWithDefault
340
F
  0
DICTIONARY
  5
17
102
{ACAD_REACTORS
330
C
102
}
100
AcDbDictionary
280
0
281
1
  3
Standard
350
18
  0
DICTIONARY
  5
19
102
{ACAD_REACTORS
330
C
102
}
100
AcDbDictionary
281
1
  0
DICTIONARY
  5
1A
102
{ACAD_REACTORS
330
C
102
}
100
AcDbDictionary
281
1
  3
Model
350
2E6
  3
Layout1
350
2E7
  0
ACDBPLACEHOLDER
  5
F
102
{ACAD_REACTORS
330
E
102
}
  0
MLINESTYLE
  5
18
102
{ACAD_REACTORS
330
17
102
}
100
AcDbMlineStyle
  2
STANDARD
 70
0
  3

 62
256
 51
90.0
 52
90.0
 71
2
 49
0.5
 62
256
  6
BYLAYER
 49
-0.5
 62
256
  6
BYLAYER
  0
LAYOUT
  5
2E6
102
{ACAD_REACTORS
330
1A
102
}
100
AcDbPlotSettings
  1

  2
none_device
  4
ISO_A4_(297.00_x_210.00_MM)
  6

 40
0.0
 41
0.0
 42
0.0
 43
0.0
 44
297.0
 45
210.0
 46
0.0
 47
0.0
 48
0.0
 49
0.0
140
0.0
141
0.0
142
1.0
143
1.0
 70
1024
 72
0
 73
0
 74
0
  7

 75
0
147
1.0
148
0.0
149
0.0
100
AcDbLayout
  1
Model
 70
0
 71
0
 10
0.0
 20
0.0
 11
11.6929133858
 21
8.2677165354
 12
0.0
 22
0.0
 32
0.0
 14
0.0
 24
0.0
 34
0.0
 15
0.0
 25
0.0
 35
0.0
146
0.0
 13
0.0
 23
0.0
 33
0.0
 16
1.0
 26
0.0
 36
0.0
 17
0.0
 27
1.0
 37
0.0
 76
0
330
204
345
0
346
0
  0
LAYOUT
  5
2E7
102
{ACAD_REACTORS
330
1A
102
}
100
AcDbPlotSettings
  1

  2
none_device
  4
ISO_A4_(297.00_x_210.00_MM)
  6

 40
0.0
 41
0.0
 42
0.0
 43
0.0
 44
297.0
 45
210.0
 46
0.0
 47
0.0
 48
0.0
 49
0.0
140
0.0
141
0.0
142
1.0
143
1.0
 70
0
 72
0
 73
0
 74
0
  7

 75
0
147
1.0
148
0.0
149
0.0
100
AcDbLayout
  1
Layout1
 70
0
 71
1
 10
0.0
 20
0.0
 11
11.6929133858
 21
8.2677165354
 12
0.0
 22
0.0
 32
0.0
 14
0.0
 24
0.0
 34
0.0
 15
0.0
 25
0.0
 35
0.0
146
0.0
 13
0.0
 23
0.0
 33
0.0
 16
1.0
 26
0.0
 36
0.0
 17
0.0
 27
1.0
 37
0.0
 76
0
330
205
345
0
346
0
  0
ENDSEC
  0
EOF
