  0
SECTION
  2
HEADER
  9
$ACADVER
  1
AC1015
  9
$DWGCODEPAGE
  3
ANSI_1252
  9
$EXTMAX
 10
11.6929133858
 20
8.2677165354
 30
0.0
  9
$EXTMIN
 10
0.0
 20
0.0
 30
0.0
  9
$LIMMIN
 10
0.0
 20
0.0
  9
$LIMMAX
 10
11.6929133858
 20
8.2677165354
  9
$VIEWCTR
 10
5.8464566929
 20
4.1338582677
  9
$VIEWSIZE
 40
8.2677165354
  9
$CLAYER
  8
0
  9
$LTSCALE
 40
0.6431102362
  9
$CELTYPE
  6
BYLAYER
  9
$DIMSCALE
 40
1.0
  9
$DIMASZ
 40
0.1
  9
$DIMEXO
 40
0.0730807087
  9
$DIMDLI
 40
0.4443307087
  9
$DIMEXE
 40
0.2104724409
  9
$DIMCEN
 40
0.1052362205
  9
$DIMLFAC
 40
1.0
  9
$DIMBLK
  1
_FILLED
  9
$DIMTXT
 40
0.08
  9
$DIMTOL
 70
1
  9
$DIMLIM
 70
0
  9
$DIMTFAC
 40
1.0
  9
$DIMTP
 40
0.01
  9
$DIMTM
 40
0.01
  9
$PDMODE
 70
3
  9
$PDSIZE
 40
0.06
  9
$HANDSEED
  5
2D6
  9
$TILEMODE
 70
1
  9
$MEASUREMENT
 70
0
  9
$INSUNITS
 70
1
  0
ENDSEC
  0
SECTION
  2
CLASSES
  0
CLASS
  1
ACDBDICTIONARYWDFLT
  2
AcDbDictionaryWithDefault
  3
AutoCAD 2000
 90
0
280
0
281
0
  0
CLASS
  1
ACDBPLACEHOLDER
  2
AcDbPlaceHolder
  3
AutoCAD 2000
 90
0
280
0
281
0
  0
CLASS
  1
LAYOUT
  2
AcDbLayout
  3
AutoCAD 2000
 90
0
280
0
281
0
  0
ENDSEC
  0
SECTION
  2
TABLES
  0
TABLE
  2
VPORT
  5
8
100
AcDbSymbolTable
 70
2
  0
VPORT
  5
1F4
100
AcDbSymbolTableRecord
100
AcDbViewportTableRecord
  2
*ACTIVE
 70
0
 10
0.0
 20
0.0
 11
1.0
 21
1.0
 12
5.8464566929
 22
4.1338582677
 13
0.0
 23
0.0
 14
1.0
 24
1.0
 15
0.0
 25
0.0
 16
0.0
 26
0.0
 36
1.0
 17
0.0
 27
0.0
 37
0.0
 40
8.2677165354
 41
1.4142857143
 42
50.0
 43
0.0
 44
0.0
 50
0.0
 51
0.0
 71
0
 72
100
 73
1
 74
1
 75
0
 76
0
 77
0
 78
0
  0
ENDTAB
  0
TABLE
  2
LTYPE
  5
5
100
AcDbSymbolTable
 70
6
  0
LTYPE
  5
14
100
AcDbSymbolTableRecord
100
AcDbLinetypeTableRecord
  2
BYBLOCK
 70
0
  3

 72
65
 73
0
 40
0.0
  0
LTYPE
  5
15
100
AcDbSymbolTableRecord
100
AcDbLinetypeTableRecord
  2
BYLAYER
 70
0
  3

 72
65
 73
0
 40
0.0
  0
LTYPE
  5
16
100
AcDbSymbolTableRecord
100
AcDbLinetypeTableRecord
  2
CONTINUOUS
 70
64
  3
Solid line
 72
65
 73
0
 40
0.0
  0
LTYPE
  5
1F5
100
AcDbSymbolTableRecord
100
AcDbLinetypeTableRecord
  2
CENTER
 70
64
  3
____ _ ____ _ ____ _ ____ _ ____ _ ____ _ ____
 72
65
 73
4
 40
0.6
 49
0.375
 74
0
 49
-0.075
 74
0
 49
0.075
 74
0
 49
-0.075
 74
0
  0
LTYPE
  5
1F6
100
AcDbSymbolTableRecord
100
AcDbLinetypeTableRecord
  2
HIDDEN
 70
64
  3
- - - - - - - - - - - - - - - - - - - -
 72
65
 73
2
 40
0.2
 49
0.1
 74
0
 49
-0.1
 74
0
  0
LTYPE
  5
1F7
100
AcDbSymbolTableRecord
100
AcDbLinetypeTableRecord
  2
PHANTOM
 70
64
  3
_____ _ _ _____ _ _ _____ _ _ _____
 72
65
 73
6
 40
0.8
 49
0.45
 74
0
 49
-0.05
 74
0
 49
0.1
 74
0
 49
-0.05
 74
0
 49
0.1
 74
0
 49
-0.05
 74
0
  0
LTYPE
  5
1F8
100
AcDbSymbolTableRecord
100
AcDbLinetypeTableRecord
  2
DOT
 70
64
  3
. . . . . . . . . . . . . . . . . . . .
 72
65
 73
2
 40
0.2
 49
0.1
 74
0
 49
-0.1
 74
0
  0
LTYPE
  5
1F9
100
AcDbSymbolTableRecord
100
AcDbLinetypeTableRecord
  2
DASHED
 70
64
  3
- - - - - - - - - - - - - - - - - - - -
 72
65
 73
2
 40
0.2
 49
0.1
 74
0
 49
-0.1
 74
0
  0
ENDTAB
  0
TABLE
  2
LAYER
  5
2
100
AcDbSymbolTable
 70
36
  0
LAYER
  5
10
100
AcDbSymbolTableRecord
100
AcDbLayerTableRecord
  2
0
 70
0
 62
7
  6
CONTINUOUS
370
-3
390
F
  0
LAYER
  5
1FA
100
AcDbSymbolTableRecord
100
AcDbLayerTableRecord
  2
DEFAULT_1
 70
0
 62
7
  6
CENTER
370
-3
390
F
  0
LAYER
  5
1FB
100
AcDbSymbolTableRecord
100
AcDbLayerTableRecord
  2
DEFAULT_2
 70
0
 62
8
  6
HIDDEN
370
-3
390
F
  0
LAYER
  5
1FC
100
AcDbSymbolTableRecord
100
AcDbLayerTableRecord
  2
DEFAULT_3
 70
0
 62
7
  6
PHANTOM
370
-3
390
F
  0
LAYER
  5
1FD
100
AcDbSymbolTableRecord
100
AcDbLayerTableRecord
  2
3_ALL_SYMBOLS
 70
0
 62
7
  6
CONTINUOUS
370
-3
390
F
  0
LAYER
  5
1FE
100
AcDbSymbolTableRecord
100
AcDbLayerTableRecord
  2
DEFAULT_COORDINATE_SYSTEM
 70
0
 62
7
  6
CONTINUOUS
370
-3
390
F
  0
LAYER
  5
1FF
100
AcDbSymbolTableRecord
100
AcDbLayerTableRecord
  2
DEFAULT_DATUM_AXES
 70
0
 62
7
  6
CONTINUOUS
370
-3
390
F
  0
LAYER
  5
200
100
AcDbSymbolTableRecord
100
AcDbLayerTableRecord
  2
DEFAULT_DATUM_CURVES
 70
0
 62
7
  6
CONTINUOUS
370
-3
390
F
  0
LAYER
  5
201
100
AcDbSymbolTableRecord
100
AcDbLayerTableRecord
  2
DEFAULT_DATUM_PLANES
 70
0
 62
7
  6
CONTINUOUS
370
-3
390
F
  0
ENDTAB
  0
TABLE
  2
STYLE
  5
3
100
AcDbSymbolTable
 70
1
  0
STYLE
  5
11
100
AcDbSymbolTableRecord
100
AcDbTextStyleTableRecord
  2
STANDARD
 70
0
 40
0.0
 41
0.8
 50
0.0
 71
0
 42
0.2
  3
txt
  4

  0
STYLE
  5
202
100
AcDbSymbolTableRecord
100
AcDbTextStyleTableRecord
  2
TEXTSTYLE_1
 70
0
 40
0.0
 41
0.8
 50
0.0
 71
0
 42
0.2
  3
gdt
  4

  0
ENDTAB
  0
TABLE
  2
VIEW
  5
6
100
AcDbSymbolTable
 70
0
  0
ENDTAB
  0
TABLE
  2
UCS
  5
7
100
AcDbSymbolTable
 70
0
  0
ENDTAB
  0
TABLE
  2
APPID
  5
9
100
AcDbSymbolTable
 70
1
  0
APPID
  5
203
100
AcDbSymbolTableRecord
100
AcDbRegAppTableRecord
  2
ACAD
 70
0
  0
ENDTAB
  0
TABLE
  2
BLOCK_RECORD
  5
1
100
AcDbSymbolTable
 70
0
  0
BLOCK_RECORD
  5
204
100
AcDbSymbolTableRecord
100
AcDbBlockTableRecord
  2
*Model_Space
  0
BLOCK_RECORD
  5
205
100
AcDbSymbolTableRecord
100
AcDbBlockTableRecord
  2
*Paper_Space
  0
ENDTAB
  0
TABLE
  2
DIMSTYLE
  5
A
100
AcDbSymbolTable
 70
1
100
AcDbDimStyleTable
 71
0
  0
DIMSTYLE
105
206
100
AcDbSymbolTableRecord
100
AcDbDimStyleTableRecord
  2
STANDARD
 70
0
  3

  4

 40
1.0
 41
0.1
 42
0.0625
 43
0.38
 44
0.18
 45
0.0
 46
0.0
 47
0.01
 48
0.01
140
0.08
141
0.09
142
0.0
143
25.4
144
1.0
145
0.0
146
1.0
147
0.09
 71
1.0
 72
0.0
 73
1
 74
1
 75
0
 76
0
 77
0
 78
4
170
0
171
2
172
0
173
0
174
0
175
0
176
0
177
0
178
0
270
2
271
2
272
2
273
2
274
2
275
0
280
0
281
0
282
0
283
1
284
4
285
0
286
0
287
3
288
0
340
11
  0
ENDTAB
  0
ENDSEC
  0
SECTION
  2
BLOCKS
  0
BLOCK
  5
20
100
AcDbEntity
  8
0
100
AcDbBlockBegin
  2
*Model_Space
 70
0
 10
0.0
 20
0.0
 30
0.0
  3
*Model_Space
  1

  0
ENDBLK
  5
21
100
AcDbEntity
  8
0
100
AcDbBlockEnd
  0
BLOCK
  5
1C
100
AcDbEntity
  8
0
100
AcDbBlockBegin
  2
*Paper_Space
 70
0
 10
0.0
 20
0.0
 30
0.0
  3
*Paper_Space
  1

  0
ENDBLK
  5
1D
100
AcDbEntity
  8
0
100
AcDbBlockEnd
  0
ENDSEC
  0
SECTION
  2
ENTITIES
  0
LINE
  5
207
100
AcDbEntity
  8
0
100
AcDbLine
 62
6
  6
CONTINUOUS
 10
4.4578932626
 20
5.7798364139
 11
4.4478932626
 21
5.7698364139
  0
LINE
  5
208
100
AcDbEntity
  8
0
100
AcDbLine
 62
6
  6
CONTINUOUS
 10
7.2120786236
 20
6.6168443226
 11
7.2590385041
 21
6.6346200951
  0
LINE
  5
209
100
AcDbEntity
  8
0
100
AcDbLine
 62
6
  6
CONTINUOUS
 10
4.4478932626
 20
5.4298364139
 11
4.4478932626
 21
5.7698364139
  0
LINE
  5
20A
100
AcDbEntity
  8
0
100
AcDbLine
 62
6
  6
CONTINUOUS
 10
4.4578932626
 20
5.4198364139
 11
4.4578932626
 21
5.7798364139
  0
LINE
  5
20B
100
AcDbEntity
  8
0
100
AcDbLine
 62
6
  6
CONTINUOUS
 10
4.5138932626
 20
5.3273364139
 11
4.5138932626
 21
5.8723364139
  0
LINE
  5
20C
100
AcDbEntity
  8
0
100
AcDbLine
 62
9
  6
CONTINUOUS
 10
4.5378932626
 20
5.3043364139
 11
4.5378932626
 21
5.8953364139
  0
LINE
  5
20D
100
AcDbEntity
  8
0
100
AcDbLine
 62
9
  6
CONTINUOUS
 10
4.5728932626
 20
5.2693364139
 11
4.5728932626
 21
5.9303364139
  0
LINE
  5
20E
100
AcDbEntity
  8
0
100
AcDbLine
 62
6
  6
CONTINUOUS
 10
5.9247075134
 20
6.0000645082
 11
5.9024789322
 21
5.9844796743
  0
LINE
  5
20F
100
AcDbEntity
  8
0
100
AcDbLine
 62
9
  6
CONTINUOUS
 10
5.2118997353
 20
2.7873364139
 11
4.8368997353
 21
2.7873364139
  0
LINE
  5
210
100
AcDbEntity
  8
0
100
AcDbLine
 62
6
  6
CONTINUOUS
 10
4.6558963432
 20
5.2693364139
 11
4.6558963432
 21
5.9303364139
  0
LINE
  5
211
100
AcDbEntity
  8
0
100
AcDbLine
 62
6
  6
CONTINUOUS
 10
4.8368997353
 20
5.5998364139
 11
4.8368997353
 21
1.7248364139
  0
LINE
  5
212
100
AcDbEntity
  8
0
100
AcDbLine
 62
6
  6
CONTINUOUS
 10
5.6158932626
 20
5.2748364139
 11
5.6307590129
 21
5.2897021642
  0
LINE
  5
213
100
AcDbEntity
  8
0
100
AcDbLine
 62
6
  6
CONTINUOUS
 10
5.4893659175
 20
5.2828358348
 11
5.4862471637
 21
5.2810202296
  0
LINE
  5
214
100
AcDbEntity
  8
0
100
AcDbLine
 62
6
  6
CONTINUOUS
 10
5.2118997353
 20
5.5998364139
 11
5.2118997353
 21
1.7248364139
  0
LINE
  5
215
100
AcDbEntity
  8
0
100
AcDbLine
 62
6
  6
CONTINUOUS
 10
5.4862471637
 20
5.2810202296
 11
5.4861057197
 21
5.2806239567
  0
LINE
  5
216
100
AcDbEntity
  8
0
100
AcDbLine
 62
9
  6
CONTINUOUS
 10
5.3435989221
 20
5.2215020655
 11
5.3435989221
 21
5.9781707622
  0
LINE
  5
217
100
AcDbEntity
  8
0
100
AcDbLine
 62
6
  6
CONTINUOUS
 10
5.4888032627
 20
5.2899914058
 11
5.4888032627
 21
5.2825082812
  0
LINE
  5
218
100
AcDbEntity
  8
0
100
AcDbLine
 62
7
  6
CONTINUOUS
 10
5.5538932626
 20
5.3075669027
 11
5.5538932626
 21
5.3095542456
  0
LINE
  5
219
100
AcDbEntity
  8
0
100
AcDbLine
 62
6
  6
CONTINUOUS
 10
5.7288932626
 20
5.2473364139
 11
5.7288932626
 21
5.9523364139
  0
LINE
  5
21A
100
AcDbEntity
  8
0
100
AcDbLine
 62
7
  6
CONTINUOUS
 10
5.7728932626
 20
5.2473364139
 11
5.7728932626
 21
5.9523364139
  0
LINE
  5
21B
100
AcDbEntity
  8
0
100
AcDbLine
 62
9
  6
CONTINUOUS
 10
5.8228932626
 20
5.2123364139
 11
5.8228932626
 21
5.9873364139
  0
LINE
  5
21C
100
AcDbEntity
  8
0
100
AcDbLine
 62
6
  6
CONTINUOUS
 10
5.8338163664
 20
5.9873364139
 11
5.8338163664
 21
5.2123364139
  0
LINE
  5
21D
100
AcDbEntity
  8
0
100
AcDbLine
 62
6
  6
CONTINUOUS
 10
4.4478932626
 20
5.4298364139
 11
4.4578932626
 21
5.4198364139
  0
LINE
  5
21E
100
AcDbEntity
  8
0
100
AcDbLine
 62
6
  6
CONTINUOUS
 10
5.8528932626
 20
5.189935243
 11
5.8528932626
 21
5.2091241775
  0
LINE
  5
21F
100
AcDbEntity
  8
0
100
AcDbLine
 62
6
  6
CONTINUOUS
 10
5.8528932626
 20
5.2104348439
 11
5.8528932626
 21
5.2486961094
  0
LINE
  5
220
100
AcDbEntity
  8
0
100
AcDbLine
 62
6
  6
CONTINUOUS
 10
5.8528932626
 20
5.2518209433
 11
5.8528932626
 21
5.3121976727
  0
LINE
  5
221
100
AcDbEntity
  8
0
100
AcDbLine
 62
6
  6
CONTINUOUS
 10
5.8528932626
 20
5.3166168551
 11
5.8528932626
 21
5.3953013408
  0
LINE
  5
222
100
AcDbEntity
  8
0
100
AcDbLine
 62
6
  6
CONTINUOUS
 10
5.8528932626
 20
5.4007137119
 11
5.8528932626
 21
5.4923437362
  0
LINE
  5
223
100
AcDbEntity
  8
0
100
AcDbLine
 62
6
  6
CONTINUOUS
 10
5.8528932626
 20
5.4983804518
 11
5.8528932626
 21
5.59671158
  0
LINE
  5
224
100
AcDbEntity
  8
0
100
AcDbLine
 62
6
  6
CONTINUOUS
 10
5.8528932626
 20
5.6029612478
 11
5.8528932626
 21
5.7012923759
  0
LINE
  5
225
100
AcDbEntity
  8
0
100
AcDbLine
 62
6
  6
CONTINUOUS
 10
5.8528932626
 20
5.7073290915
 11
5.8528932626
 21
5.7989591158
  0
LINE
  5
226
100
AcDbEntity
  8
0
100
AcDbLine
 62
6
  6
CONTINUOUS
 10
5.8528932626
 20
5.8043714869
 11
5.8528932626
 21
5.8830559726
  0
LINE
  5
227
100
AcDbEntity
  8
0
100
AcDbLine
 62
6
  6
CONTINUOUS
 10
5.8528932626
 20
5.8874751551
 11
5.8528932626
 21
5.9478518845
  0
LINE
  5
228
100
AcDbEntity
  8
0
100
AcDbLine
 62
6
  6
CONTINUOUS
 10
5.8528932626
 20
5.9509767184
 11
5.8528932626
 21
5.9892379838
  0
LINE
  5
229
100
AcDbEntity
  8
0
100
AcDbLine
 62
6
  6
CONTINUOUS
 10
5.8528932626
 20
5.9905486502
 11
5.8528932626
 21
6.0097375847
  0
LINE
  5
22A
100
AcDbEntity
  8
0
100
AcDbLine
 62
6
  6
CONTINUOUS
 10
7.3828932626
 20
6.7998364139
 11
7.4328932626
 21
6.8848364139
  0
LINE
  5
22B
100
AcDbEntity
  8
0
100
AcDbLine
 62
6
  6
CONTINUOUS
 10
7.4328932626
 20
4.3148364139
 11
7.5828932626
 21
4.3148364139
  0
LINE
  5
22C
100
AcDbEntity
  8
0
100
AcDbLine
 62
9
  6
CONTINUOUS
 10
5.2118997353
 20
4.5373364139
 11
4.8368997353
 21
4.5373364139
  0
LINE
  5
22D
100
AcDbEntity
  8
0
100
AcDbLine
 62
6
  6
CONTINUOUS
 10
5.4918932626
 20
5.2748364139
 11
5.4861057059
 21
5.2806239706
  0
LINE
  5
22E
100
AcDbEntity
  8
0
100
AcDbLine
 62
6
  6
CONTINUOUS
 10
7.1442868674
 20
4.5984722535
 11
7.1978536683
 21
4.59498209
  0
LWPOLYLINE
  5
22F
100
AcDbEntity
  8
0
100
AcDbPolyline
 62
6
  6
CONTINUOUS
 90
27
 70
0
 10
5.8528932626
 20
5.1899308029
 10
5.8957088237
 20
5.1504382055
 10
5.9406557207
 20
5.1108062378
 10
5.987043387
 20
5.0718292889
 10
6.0344730933
 20
5.0339451475
 10
6.0825052256
 20
4.9975484782
 10
6.1306705727
 20
4.9629798625
 10
6.1786677205
 20
4.9303951709
 10
6.2265877226
 20
4.8996626253
 10
6.2745838554
 20
4.8706306127
 10
6.3227712568
 20
4.8431928811
 10
6.3711626545
 20
4.8173137928
 10
6.4197605458
 20
4.7929655565
 10
6.4685811824
 20
4.7701155756
 10
6.5176666258
 20
4.7487235079
 10
6.5670660233
 20
4.7287524035
 10
6.616827583
 20
4.7101723389
 10
6.6669920279
 20
4.6929620575
 10
6.717600842
 20
4.6771051259
 10
6.7686976789
 20
4.662589461
 10
6.820330447
 20
4.6494069269
 10
6.8725484139
 20
4.6375543479
 10
6.9254018412
 20
4.6270335648
 10
6.9789463799
 20
4.6178506893
 10
7.0332383095
 20
4.6100172818
 10
7.0883327194
 20
4.6035504472
 10
7.1442868674
 20
4.5984722535
  0
LINE
  5
230
100
AcDbEntity
  8
0
100
AcDbLine
 62
6
  6
CONTINUOUS
 10
7.1264623812
 20
4.9248289892
 11
7.0904731415
 21
4.9275264094
  0
LINE
  5
231
100
AcDbEntity
  8
0
100
AcDbLine
 62
6
  6
CONTINUOUS
 10
7.2120786236
 20
4.5828285051
 11
7.2590285656
 21
4.5650564946
  0
LINE
  5
232
100
AcDbEntity
  8
0
100
AcDbLine
 62
6
  6
CONTINUOUS
 10
5.4855483077
 20
5.2915589455
 11
5.4888032627
 21
5.2896644595
  0
LWPOLYLINE
  5
233
100
AcDbEntity
  8
0
100
AcDbPolyline
 62
6
  6
CONTINUOUS
 90
27
 70
0
 10
5.9247099662
 20
5.1996066195
 10
5.9543562073
 20
5.1792694066
 10
5.9878428524
 20
5.156870034
 10
6.024004788
 20
5.1334320651
 10
6.063231577
 20
5.1089285825
 10
6.1059292085
 20
5.0833627994
 10
6.1519196182
 20
5.0571126171
 10
6.2002343467
 20
5.0309560849
 10
6.2497824848
 20
5.0056148365
 10
6.2994817899
 20
4.9816705086
 10
6.34905922
 20
4.9592193283
 10
6.3987377058
 20
4.9381221219
 10
6.4487392088
 20
4.9182650147
 10
6.4991208375
 20
4.8996168193
 10
6.54986511
 20
4.8821766458
 10
6.6009627069
 20
4.8659389577
 10
6.652458911
 20
4.8508820416
 10
6.7044244055
 20
4.8369824137
 10
6.7569289357
 20
4.8242234645
 10
6.8100201523
 20
4.8125994245
 10
6.8637364481
 20
4.8021101455
 10
6.9181152679
 20
4.7927585079
 10
6.9731924282
 20
4.784550237
 10
7.0290021277
 20
4.7774935311
 10
7.0855767568
 20
4.7715986882
 10
7.1429506065
 20
4.7668773921
 10
7.1518855093
 20
4.7662536286
  0
LINE
  5
234
100
AcDbEntity
  8
0
100
AcDbLine
 62
6
  6
CONTINUOUS
 10
5.9247099662
 20
5.1996066195
 11
5.9024789322
 21
5.2151931534
  0
LWPOLYLINE
  5
235
100
AcDbEntity
  8
0
100
AcDbPolyline
 62
6
  6
CONTINUOUS
 90
35
 70
0
 10
5.8528932626
 20
5.2104112708
 10
5.8706397138
 20
5.195221387
 10
5.8899743849
 20
5.1788850707
 10
5.9105443787
 20
5.1617854008
 10
5.9323494778
 20
5.1439987153
 10
5.9553740179
 20
5.1256119034
 10
5.9796121284
 20
5.106702405
 10
6.0050637404
 20
5.0873425492
 10
6.031736054
 20
5.0675993368
 10
6.0596404697
 20
5.0475375447
 10
6.0887897183
 20
5.0272222403
 10
6.1191966127
 20
5.0067198376
 10
6.1508843408
 20
4.9860915465
 10
6.183919154
 20
4.965374486
 10
6.218379798
 20
4.9446050382
 10
6.2543473143
 20
4.9238263736
 10
6.291929863
 20
4.9030755744
 10
6.3314686817
 20
4.8822818034
 10
6.3734428957
 20
4.8613446487
 10
6.4183496744
 20
4.8402107422
 10
6.4662047553
 20
4.8190934675
 10
6.5159452382
 20
4.7986392381
 10
6.5663133029
 20
4.7794378186
 10
6.6164286477
 20
4.7618007992
 10
6.6664967894
 20
4.7456034454
 10
6.7169110419
 20
4.7306931861
 10
6.7679860219
 20
4.7169814537
 10
6.8197377373
 20
4.7044815335
 10
6.8721178039
 20
4.6932207347
 10
6.9250942164
 20
4.6832177632
 10
6.9787180567
 20
4.6744749766
 10
7.033062767
 20
4.66699657
 10
7.0882009625
 20
4.6607934879
 10
7.14420766
 20
4.655882816
 10
7.1786776539
 20
4.6535409136
  0
LINE
  5
236
100
AcDbEntity
  8
0
100
AcDbLine
 62
6
  6
CONTINUOUS
 10
5.8228932626
 20
5.2123364139
 11
5.8338163664
 21
5.2123364139
  0
LINE
  5
237
100
AcDbEntity
  8
0
100
AcDbLine
 62
6
  6
CONTINUOUS
 10
5.7728932626
 20
5.2473364139
 11
5.7288932626
 21
5.2473364139
  0
LINE
  5
238
100
AcDbEntity
  8
0
100
AcDbLine
 62
6
  6
CONTINUOUS
 10
4.6558963432
 20
5.2693364139
 11
4.5728932626
 21
5.2693364139
  0
LWPOLYLINE
  5
239
100
AcDbEntity
  8
0
100
AcDbPolyline
 62
6
  6
CONTINUOUS
 90
18
 70
0
 10
6.2375976031
 20
5.1226081905
 10
6.2754836979
 20
5.1077297479
 10
6.324308453
 20
5.0895185639
 10
6.3735729355
 20
5.0722218972
 10
6.4231819246
 20
5.0558741582
 10
6.4730882676
 20
5.0404852559
 10
6.5233337797
 20
5.0260352272
 10
6.5739727126
 20
5.0125035021
 10
6.6250467992
 20
4.9998762094
 10
6.6765739663
 20
4.9881476396
 10
6.7285704656
 20
4.9773133279
 10
6.781051111
 20
4.9673696742
 10
6.8340291166
 20
4.958313752
 10
6.887517142
 20
4.9501429
 10
6.9415268987
 20
4.9428545739
 10
6.9960714876
 20
4.9364458101
 10
7.051165087
 20
4.930913104
 10
7.0904731415
 20
4.9275264094
  0
LINE
  5
23A
100
AcDbEntity
  8
0
100
AcDbLine
 62
9
  6
CONTINUOUS
 10
7.2120786236
 20
4.5828285051
 11
7.2120786236
 21
6.6168443226
  0
LINE
  5
23B
100
AcDbEntity
  8
0
100
AcDbLine
 62
6
  6
CONTINUOUS
 10
5.4918932626
 20
5.2748364139
 11
5.6158932626
 21
5.2748364139
  0
LINE
  5
23C
100
AcDbEntity
  8
0
100
AcDbLine
 62
6
  6
CONTINUOUS
 10
4.5378932626
 20
5.3273364139
 11
4.5138932626
 21
5.3273364139
  0
LINE
  5
23D
100
AcDbEntity
  8
0
100
AcDbLine
 62
7
  6
CONTINUOUS
 10
7.3828932626
 20
6.34230328
 11
7.3828752168
 21
6.3432294304
  0
LINE
  5
23E
100
AcDbEntity
  8
0
100
AcDbLine
 62
6
  6
CONTINUOUS
 10
7.3828932626
 20
4.3998504745
 11
7.3828932626
 21
6.7998223532
  0
LINE
  5
23F
100
AcDbEntity
  8
0
100
AcDbLine
 62
6
  6
CONTINUOUS
 10
7.4328932626
 20
4.3148364139
 11
7.4328932626
 21
6.8848364139
  0
LINE
  5
240
100
AcDbEntity
  8
0
100
AcDbLine
 62
7
  6
CONTINUOUS
 10
7.3828747809
 20
4.8564432851
 11
7.3828932626
 21
4.8574053852
  0
LINE
  5
241
100
AcDbEntity
  8
0
100
AcDbLine
 62
6
  6
CONTINUOUS
 10
7.1264623812
 20
5.5998364139
 11
5.9024789322
 21
5.5998364139
  0
LINE
  5
242
100
AcDbEntity
  8
0
100
AcDbLine
 62
6
  6
CONTINUOUS
 10
7.3828932626
 20
4.3998364139
 11
7.4328932626
 21
4.3148364139
  0
LINE
  5
243
100
AcDbEntity
  8
0
100
AcDbLine
 62
6
  6
CONTINUOUS
 10
7.5828932626
 20
4.3148364139
 11
7.5828932626
 21
6.8848364139
  0
LINE
  5
244
100
AcDbEntity
  8
0
100
AcDbLine
 62
6
  6
CONTINUOUS
 10
4.5378932626
 20
5.8723364139
 11
4.5138932626
 21
5.8723364139
  0
LINE
  5
245
100
AcDbEntity
  8
0
100
AcDbLine
 62
6
  6
CONTINUOUS
 10
4.6558963432
 20
5.9303364139
 11
4.5728932626
 21
5.9303364139
  0
LINE
  5
246
100
AcDbEntity
  8
0
100
AcDbLine
 62
6
  6
CONTINUOUS
 10
5.7728932626
 20
5.9523364139
 11
5.7288932626
 21
5.9523364139
  0
LINE
  5
247
100
AcDbEntity
  8
0
100
AcDbLine
 62
6
  6
CONTINUOUS
 10
5.8228932626
 20
5.9873364139
 11
5.8338163664
 21
5.9873364139
  0
LWPOLYLINE
  5
248
100
AcDbEntity
  8
0
100
AcDbPolyline
 62
6
  6
CONTINUOUS
 90
18
 70
0
 10
7.0904759973
 20
6.2721466477
 10
7.0499891308
 20
6.2686512911
 10
6.9950384129
 20
6.263114339
 10
6.9406346185
 20
6.2567055444
 10
6.8867633958
 20
6.24942144
 10
6.8334114714
 20
6.2412590733
 10
6.7805669416
 20
6.2322158843
 10
6.7282169724
 20
6.2222891765
 10
6.6763482258
 20
6.2114759791
 10
6.6249461079
 20
6.1997727142
 10
6.5739947979
 20
6.1871750053
 10
6.5234767892
 20
6.1736772604
 10
6.4733505951
 20
6.1592657091
 10
6.423562015
 20
6.1439198441
 10
6.3740689421
 20
6.1276196512
 10
6.3249177889
 20
6.1103747689
 10
6.2762040094
 20
6.0922195921
 10
6.2375903176
 20
6.0770617127
  0
LINE
  5
249
100
AcDbEntity
  8
0
100
AcDbLine
 62
6
  6
CONTINUOUS
 10
7.1264623812
 20
6.2748438385
 11
7.0904759973
 21
6.2721466477
  0
LWPOLYLINE
  5
24A
100
AcDbEntity
  8
0
100
AcDbPolyline
 62
6
  6
CONTINUOUS
 90
27
 70
0
 10
7.1442868674
 20
6.6012005742
 10
7.0883327194
 20
6.5961223805
 10
7.0332383095
 20
6.5896555459
 10
6.9789463799
 20
6.5818221384
 10
6.9254018412
 20
6.5726392629
 10
6.8725484139
 20
6.5621184798
 10
6.820330447
 20
6.5502659008
 10
6.7686976789
 20
6.5370833667
 10
6.717600842
 20
6.5225677018
 10
6.6669920279
 20
6.5067107702
 10
6.616827583
 20
6.4895004888
 10
6.5670660233
 20
6.4709204242
 10
6.5176666258
 20
6.4509493198
 10
6.4685811824
 20
6.4295572521
 10
6.4197605458
 20
6.4067072712
 10
6.3711626545
 20
6.3823590349
 10
6.3227712568
 20
6.3564799466
 10
6.2745838554
 20
6.329042215
 10
6.2265877226
 20
6.3000102024
 10
6.1786677205
 20
6.2692776568
 10
6.1306705727
 20
6.2366929652
 10
6.0825052256
 20
6.2021243495
 10
6.0344730933
 20
6.1657276802
 10
5.987043387
 20
6.1278435389
 10
5.9406557207
 20
6.0888665899
 10
5.8957088237
 20
6.0492346222
 10
5.8528932626
 20
6.0097420248
  0
LWPOLYLINE
  5
24B
100
AcDbEntity
  8
0
100
AcDbPolyline
 62
6
  6
CONTINUOUS
 90
27
 70
0
 10
7.1518855113
 20
6.4334191992
 10
7.142979082
 20
6.4327974708
 10
7.0856330167
 20
6.428079383
 10
7.0290854707
 20
6.4221889037
 10
6.9733021397
 20
6.4151376961
 10
6.9182506219
 20
6.4069360359
 10
6.8638967153
 20
6.3975920993
 10
6.810204697
 20
6.3871116089
 10
6.7571374378
 20
6.375497503
 10
6.7046568833
 20
6.3627497281
 10
6.6527154639
 20
6.3488625732
 10
6.6012426461
 20
6.3338192367
 10
6.5501668051
 20
6.3175959165
 10
6.4994427109
 20
6.3001708381
 10
6.4490829263
 20
6.2815396183
 10
6.39910864
 20
6.2617030559
 10
6.3494626211
 20
6.240630406
 10
6.2999109324
 20
6.2182027499
 10
6.2502167535
 20
6.1942735566
 10
6.2006410498
 20
6.1689308188
 10
6.1522762786
 20
6.1427586022
 10
6.1062276678
 20
6.1164846742
 10
6.0634775466
 20
6.0908948294
 10
6.0242115867
 20
6.0663724761
 10
5.9880192886
 20
6.042919081
 10
5.9545061119
 20
6.0205051047
 10
5.9247075134
 20
6.0000645082
  0
LWPOLYLINE
  5
24C
100
AcDbEntity
  8
0
100
AcDbPolyline
 62
6
  6
CONTINUOUS
 90
35
 70
0
 10
7.1786776539
 20
6.5461319141
 10
7.1442138412
 20
6.5437904778
 10
7.0882068404
 20
6.5388799281
 10
7.0330683543
 20
6.5326769563
 10
6.9787233648
 20
6.5251986489
 10
6.9250992555
 20
6.5164559509
 10
6.8721225827
 20
6.5064530577
 10
6.8197422638
 20
6.4951923272
 10
6.7679903059
 20
6.4826924663
 10
6.7169150954
 20
6.468980785
 10
6.6665006248
 20
6.4540705696
 10
6.616432269
 20
6.437873251
 10
6.5663167028
 20
6.4202362549
 10
6.5159484001
 20
6.4010348423
 10
6.4662076687
 20
6.3805806025
 10
6.4183523425
 20
6.3594633029
 10
6.3734453347
 20
6.338329362
 10
6.3314709107
 20
6.3173921671
 10
6.2919318974
 20
6.2965983504
 10
6.2543491657
 20
6.2758475003
 10
6.2183814748
 20
6.2550687795
 10
6.1839206644
 20
6.2342992707
 10
6.1508856926
 20
6.2135821454
 10
6.1191978138
 20
6.1929537862
 10
6.0887907762
 20
6.1724513129
 10
6.0596413917
 20
6.1521359359
 10
6.0317368473
 20
6.1320740698
 10
6.0050644119
 20
6.1123307826
 10
5.9796126847
 20
6.0929708515
 10
5.9553744656
 20
6.0740612779
 10
5.9323498233
 20
6.0556743914
 10
5.9105446283
 20
6.0378876326
 10
5.8899745451
 20
6.0207878913
 10
5.8706397908
 20
6.0044515062
 10
5.8528932626
 20
5.9892615569
  0
LINE
  5
24D
100
AcDbEntity
  8
0
100
AcDbLine
 62
6
  6
CONTINUOUS
 10
7.1978536683
 20
6.6046907377
 11
7.1442868674
 21
6.6012005742
  0
LINE
  5
24E
100
AcDbEntity
  8
0
100
AcDbLine
 62
6
  6
CONTINUOUS
 10
7.4328932626
 20
6.8848364139
 11
7.5828932626
 21
6.8848364139
  0
ARC
  5
24F
100
AcDbEntity
  8
0
100
AcDbCircle
 62
6
  6
CONTINUOUS
 10
5.0243997268
 20
2.3445085802
 40
0.3125000085
100
AcDbArc
 50
306.8723399341
 51
53.1206498641
  0
ARC
  5
250
100
AcDbEntity
  8
0
100
AcDbCircle
 62
6
  6
CONTINUOUS
 10
5.0243997438
 20
2.3445085713
 40
0.3125000085
100
AcDbArc
 50
126.8723399341
 51
233.1206498641
  0
ARC
  5
251
100
AcDbEntity
  8
0
100
AcDbCircle
 62
9
  6
CONTINUOUS
 10
5.0243997353
 20
1.7248364139
 40
0.1875
100
AcDbArc
 50
180.0
 51
360.0
  0
ARC
  5
252
100
AcDbEntity
  8
0
100
AcDbCircle
 62
7
  6
CONTINUOUS
 10
5.1184456982
 20
2.168254684
 40
0.0944540376
100
AcDbArc
 50
0.0059100755
 51
5.755261587
  0
ARC
  5
253
100
AcDbEntity
  8
0
100
AcDbCircle
 62
7
  6
CONTINUOUS
 10
4.9303537725
 20
2.168254684
 40
0.0944540376
100
AcDbArc
 50
174.2447384129
 51
179.9940899245
  0
ARC
  5
254
100
AcDbEntity
  8
0
100
AcDbCircle
 62
7
  6
CONTINUOUS
 10
5.1184456982
 20
2.1682741699
 40
0.0944540376
100
AcDbArc
 50
354.244738413
 51
359.9940899245
  0
ARC
  5
255
100
AcDbEntity
  8
0
100
AcDbCircle
 62
7
  6
CONTINUOUS
 10
4.9303537725
 20
2.1682741699
 40
0.0944540376
100
AcDbArc
 50
180.0059100755
 51
185.755261587
  0
ARC
  5
256
100
AcDbEntity
  8
0
100
AcDbCircle
 62
6
  6
CONTINUOUS
 10
4.4578932626
 20
5.3638364139
 40
0.056
100
AcDbArc
 50
0.0
 51
90.0
  0
ARC
  5
257
100
AcDbEntity
  8
0
100
AcDbCircle
 62
6
  6
CONTINUOUS
 10
4.5728932626
 20
5.3043364139
 40
0.035
100
AcDbArc
 50
180.0
 51
270.0
  0
ARC
  5
258
100
AcDbEntity
  8
0
100
AcDbCircle
 62
6
  6
CONTINUOUS
 10
4.4578932626
 20
5.8358364139
 40
0.056
100
AcDbArc
 50
270.0
 51
360.0
  0
ARC
  5
259
100
AcDbEntity
  8
0
100
AcDbCircle
 62
6
  6
CONTINUOUS
 10
4.5728932626
 20
5.8953364139
 40
0.035
100
AcDbArc
 50
90.0
 51
180.0
  0
ARC
  5
25A
100
AcDbEntity
  8
0
100
AcDbCircle
 62
6
  6
CONTINUOUS
 10
5.0243997353
 20
5.5998364139
 40
0.495
100
AcDbArc
 50
221.8880088583
 51
247.7377825585
  0
ARC
  5
25B
100
AcDbEntity
  8
0
100
AcDbCircle
 62
6
  6
CONTINUOUS
 10
5.0243997353
 20
5.5998364139
 40
0.495
100
AcDbArc
 50
292.2602698734
 51
310.1541931822
  0
ARC
  5
25C
100
AcDbEntity
  8
0
100
AcDbCircle
 62
6
  6
CONTINUOUS
 10
5.0243997353
 20
5.5998364139
 40
0.495
100
AcDbArc
 50
49.8458068178
 51
138.1119911417
  0
ARC
  5
25D
100
AcDbEntity
  8
0
100
AcDbCircle
 62
7
  6
CONTINUOUS
 10
5.0243997353
 20
5.5998364139
 40
0.203
100
AcDbArc
 50
337.8256202268
 51
202.1743797732
  0
ARC
  5
25E
100
AcDbEntity
  8
0
100
AcDbCircle
 62
9
  6
CONTINUOUS
 10
5.0243997353
 20
5.5998364139
 40
0.1875
100
AcDbArc
 50
0.0
 51
180.0
  0
ARC
  5
25F
100
AcDbEntity
  8
0
100
AcDbCircle
 62
6
  6
CONTINUOUS
 10
5.5538189926
 20
4.9723364139
 40
0.326
100
AcDbArc
 50
57.5177951966
 51
75.4164071695
  0
ARC
  5
260
100
AcDbEntity
  8
0
100
AcDbCircle
 62
6
  6
CONTINUOUS
 10
5.5538189926
 20
4.9723364139
 40
0.326
100
AcDbArc
 50
102.517499102
 51
130.1541931822
  0
ARC
  5
261
100
AcDbEntity
  8
0
100
AcDbCircle
 62
7
  6
CONTINUOUS
 10
5.5465491812
 20
5.1201388486
 40
0.1868433109
100
AcDbArc
 50
69.1879873802
 51
74.5027202226
  0
ARC
  5
262
100
AcDbEntity
  8
0
100
AcDbCircle
 62
7
  6
CONTINUOUS
 10
5.5530254043
 20
5.1510404753
 40
0.1587108931
100
AcDbArc
 50
78.8604482516
 51
83.5150532776
  0
ARC
  5
263
100
AcDbEntity
  8
0
100
AcDbCircle
 62
7
  6
CONTINUOUS
 10
5.5538172336
 20
5.1575740531
 40
0.1521297299
100
AcDbArc
 50
83.5334500039
 51
89.9713256401
  0
ARC
  5
264
100
AcDbEntity
  8
0
100
AcDbCircle
 62
6
  6
CONTINUOUS
 10
5.8228932626
 20
5.2623364139
 40
0.05
100
AcDbArc
 50
179.9999913325
 51
270.0
  0
ARC
  5
265
100
AcDbEntity
  8
0
100
AcDbCircle
 62
6
  6
CONTINUOUS
 10
5.5538189926
 20
6.2273364139
 40
0.326
100
AcDbArc
 50
229.8458068178
 51
302.4822048034
  0
ARC
  5
266
100
AcDbEntity
  8
0
100
AcDbCircle
 62
6
  6
CONTINUOUS
 10
5.8228932626
 20
5.9373364139
 40
0.05
100
AcDbArc
 50
90.0
 51
180.0000086675
  0
ARC
  5
267
100
AcDbEntity
  8
0
100
AcDbCircle
 62
6
  6
CONTINUOUS
 10
7.9818665053
 20
3.2898456883
 40
3.4389422148
100
AcDbArc
 50
127.8863178004
 51
128.2488315784
  0
ARC
  5
268
100
AcDbEntity
  8
0
100
AcDbCircle
 62
6
  6
CONTINUOUS
 10
7.3995632626
 20
4.1594370699
 40
2.4068193439
100
AcDbArc
 50
129.9876415914
 51
130.5827868366
  0
ARC
  5
269
100
AcDbEntity
  8
0
100
AcDbCircle
 62
6
  6
CONTINUOUS
 10
7.2829032626
 20
4.7699324177
 40
0.20006
100
AcDbArc
 50
240.4843815094
 51
249.26679
  0
ARC
  5
26A
100
AcDbEntity
  8
0
100
AcDbCircle
 62
6
  6
CONTINUOUS
 10
7.3578932696
 20
4.5005065084
 40
0.1000000042
100
AcDbArc
 50
178.5302540075
 51
284.4775114196
  0
ARC
  5
26B
100
AcDbEntity
  8
0
100
AcDbCircle
 62
6
  6
CONTINUOUS
 10
7.3578932676
 20
4.7330245871
 40
0.1000000022
100
AcDbArc
 50
149.0872204887
 51
284.4774965973
  0
ARC
  5
26C
100
AcDbEntity
  8
0
100
AcDbCircle
 62
6
  6
CONTINUOUS
 10
7.3578932652
 20
4.647208471
 40
0.1000000013
100
AcDbArc
 50
154.5951673975
 51
284.4775121909
  0
ARC
  5
26D
100
AcDbEntity
  8
0
100
AcDbCircle
 62
6
  6
CONTINUOUS
 10
7.3578932626
 20
4.5325111148
 40
0.0999999999
100
AcDbArc
 50
166.2837665485
 51
284.4775122042
  0
ARC
  5
26E
100
AcDbEntity
  8
0
100
AcDbCircle
 62
6
  6
CONTINUOUS
 10
7.3578932632
 20
4.5799341726
 40
0.0999999988
100
AcDbArc
 50
160.3387635792
 51
284.4775120077
  0
ARC
  5
26F
100
AcDbEntity
  8
0
100
AcDbCircle
 62
6
  6
CONTINUOUS
 10
7.35789326
 20
4.5058623234
 40
0.0999999945
100
AcDbArc
 50
172.3841880715
 51
284.4775125178
  0
ARC
  5
270
100
AcDbEntity
  8
0
100
AcDbCircle
 62
6
  6
CONTINUOUS
 10
7.3578932498
 20
4.5536742474
 40
0.0999999871
100
AcDbArc
 50
173.3635795506
 51
186.1312461985
  0
ARC
  5
271
100
AcDbEntity
  8
0
100
AcDbCircle
 62
6
  6
CONTINUOUS
 10
7.3578931751
 20
4.5165479058
 40
0.0999999111
100
AcDbArc
 50
175.3547986568
 51
182.9657951724
  0
ARC
  5
272
100
AcDbEntity
  8
0
100
AcDbCircle
 62
6
  6
CONTINUOUS
 10
7.3578932687
 20
5.3711335542
 40
0.1000000032
100
AcDbArc
 50
130.5335391052
 51
232.9627309841
  0
ARC
  5
273
100
AcDbEntity
  8
0
100
AcDbCircle
 62
6
  6
CONTINUOUS
 10
7.3578932681
 20
5.8285392741
 40
0.1000000027
100
AcDbArc
 50
127.0372709391
 51
229.4665635878
  0
ARC
  5
274
100
AcDbEntity
  8
0
100
AcDbCircle
 62
6
  6
CONTINUOUS
 10
7.3578932658
 20
5.9760585711
 40
0.1000000007
100
AcDbArc
 50
122.8665181945
 51
227.5490250449
  0
ARC
  5
275
100
AcDbEntity
  8
0
100
AcDbCircle
 62
6
  6
CONTINUOUS
 10
7.3578932643
 20
6.1162551311
 40
0.0999999992
100
AcDbArc
 50
115.2024954202
 51
224.5300571713
  0
ARC
  5
276
100
AcDbEntity
  8
0
100
AcDbCircle
 62
6
  6
CONTINUOUS
 10
7.3578932616
 20
5.676568534
 40
0.0999999985
100
AcDbArc
 50
129.2074677964
 51
230.1139416925
  0
ARC
  5
277
100
AcDbEntity
  8
0
100
AcDbCircle
 62
6
  6
CONTINUOUS
 10
7.3578932613
 20
5.5231042937
 40
0.0999999984
100
AcDbArc
 50
129.8860581793
 51
230.7925322902
  0
ARC
  5
278
100
AcDbEntity
  8
0
100
AcDbCircle
 62
6
  6
CONTINUOUS
 10
7.3578932625
 20
5.2236142545
 40
0.0999999982
100
AcDbArc
 50
132.4533908956
 51
237.1334957938
  0
ARC
  5
279
100
AcDbEntity
  8
0
100
AcDbCircle
 62
6
  6
CONTINUOUS
 10
7.3578932632
 20
4.8357122045
 40
0.0999999981
100
AcDbArc
 50
143.9869519673
 51
284.4775178136
  0
ARC
  5
27A
100
AcDbEntity
  8
0
100
AcDbCircle
 62
6
  6
CONTINUOUS
 10
7.3578932615
 20
6.2464001934
 40
0.0999999979
100
AcDbArc
 50
75.5224900326
 51
220.6185591113
  0
ARC
  5
27B
100
AcDbEntity
  8
0
100
AcDbCircle
 62
6
  6
CONTINUOUS
 10
7.3578932616
 20
5.0834176942
 40
0.0999999966
100
AcDbArc
 50
135.4764546158
 51
244.7975264316
  0
ARC
  5
27C
100
AcDbEntity
  8
0
100
AcDbCircle
 62
6
  6
CONTINUOUS
 10
7.3578933091
 20
4.9532722712
 40
0.0999996321
100
AcDbArc
 50
139.4039154896
 51
284.4775386584
  0
ARC
  5
27D
100
AcDbEntity
  8
0
100
AcDbCircle
 62
6
  6
CONTINUOUS
 10
7.3578952107
 20
4.9527685705
 40
0.0994957365
100
AcDbArc
 50
269.9988781334
 51
274.3859475918
  0
ARC
  5
27E
100
AcDbEntity
  8
0
100
AcDbCircle
 62
6
  6
CONTINUOUS
 10
7.357895313
 20
6.2469085857
 40
0.099491408
100
AcDbArc
 50
85.5860057624
 51
90.0011808123
  0
ARC
  5
27F
100
AcDbEntity
  8
0
100
AcDbCircle
 62
6
  6
CONTINUOUS
 10
7.3578626654
 20
6.2478069448
 40
0.0985928109
100
AcDbArc
 50
89.9822189346
 51
98.7987662234
  0
ARC
  5
280
100
AcDbEntity
  8
0
100
AcDbCircle
 62
6
  6
CONTINUOUS
 10
7.3578620772
 20
4.9518549437
 40
0.098581867
100
AcDbArc
 50
261.1692348082
 51
270.0181248863
  0
ARC
  5
281
100
AcDbEntity
  8
0
100
AcDbCircle
 62
6
  6
CONTINUOUS
 10
7.3579851202
 20
6.2481970383
 40
0.0981998656
100
AcDbArc
 50
84.6999686775
 51
85.5803918055
  0
ARC
  5
282
100
AcDbEntity
  8
0
100
AcDbCircle
 62
6
  6
CONTINUOUS
 10
7.3579885857
 20
4.9514318293
 40
0.0981557694
100
AcDbArc
 50
274.3912741286
 51
275.496265148
  0
ARC
  5
283
100
AcDbEntity
  8
0
100
AcDbCircle
 62
6
  6
CONTINUOUS
 10
7.3995632626
 20
7.0402357578
 40
2.4068193439
100
AcDbArc
 50
229.4172131634
 51
230.0123584086
  0
ARC
  5
284
100
AcDbEntity
  8
0
100
AcDbCircle
 62
6
  6
CONTINUOUS
 10
7.2829032626
 20
6.42974041
 40
0.20006
100
AcDbArc
 50
110.73321
 51
119.5156184906
  0
ARC
  5
285
100
AcDbEntity
  8
0
100
AcDbCircle
 62
6
  6
CONTINUOUS
 10
7.3578932697
 20
6.6991663192
 40
0.1000000044
100
AcDbArc
 50
75.5224885804
 51
181.4388204757
  0
ARC
  5
286
100
AcDbEntity
  8
0
100
AcDbCircle
 62
6
  6
CONTINUOUS
 10
7.3578932639
 20
6.4666482422
 40
0.1000000006
100
AcDbArc
 50
75.5225049201
 51
210.89456737
  0
ARC
  5
287
100
AcDbEntity
  8
0
100
AcDbCircle
 62
6
  6
CONTINUOUS
 10
7.3578932624
 20
6.3639606225
 40
0.0999999989
100
AcDbArc
 50
75.5225035415
 51
216.0196551104
  0
ARC
  5
288
100
AcDbEntity
  8
0
100
AcDbCircle
 62
6
  6
CONTINUOUS
 10
7.3578932626
 20
6.6671617158
 40
0.099999997
100
AcDbArc
 50
75.5224873781
 51
193.7104143921
  0
ARC
  5
289
100
AcDbEntity
  8
0
100
AcDbCircle
 62
6
  6
CONTINUOUS
 10
7.3578932612
 20
6.6197386592
 40
0.0999999947
100
AcDbArc
 50
75.5224875411
 51
199.6517383115
  0
ARC
  5
28A
100
AcDbEntity
  8
0
100
AcDbCircle
 62
6
  6
CONTINUOUS
 10
7.3578932607
 20
6.5524643685
 40
0.0999999895
100
AcDbArc
 50
75.5224852732
 51
205.4008261708
  0
ARC
  5
28B
100
AcDbEntity
  8
0
100
AcDbCircle
 62
6
  6
CONTINUOUS
 10
7.3578932632
 20
6.6938105096
 40
0.0999999891
100
AcDbArc
 50
75.5224865891
 51
187.6735430804
  0
ARC
  5
28C
100
AcDbEntity
  8
0
100
AcDbCircle
 62
6
  6
CONTINUOUS
 10
7.3578932482
 20
6.64599858
 40
0.0999999854
100
AcDbArc
 50
173.9007832595
 51
186.6364203962
  0
ARC
  5
28D
100
AcDbEntity
  8
0
100
AcDbCircle
 62
6
  6
CONTINUOUS
 10
7.3578932149
 20
6.6831249225
 40
0.0999999506
100
AcDbArc
 50
176.9487251388
 51
184.5528162957
  0
ARC
  5
28E
100
AcDbEntity
  8
0
100
AcDbCircle
 62
6
  6
CONTINUOUS
 10
7.9252609207
 20
7.8375508319
 40
3.3471382385
100
AcDbArc
 50
231.7461934893
 51
232.1187159998
  0
SPLINE
  5
28F
100
AcDbEntity
  8
0
100
AcDbSpline
 62
6
  6
CONTINUOUS
 70
0
 71
3
 72
15
 73
11
 74
9
 42
0.0000001
 43
0.0000001
 44
0.0000000001
 12
-0.0007773816
 22
0.0004527938
 32
0.0
 13
0.0000002956
 23
0.0008996357
 33
0.0
 40
0.0
 40
0.0
 40
0.0
 40
0.0
 40
0.1723510772
 40
0.3285370875
 40
0.4693559766
 40
0.5959137921
 40
0.7097520953
 40
0.8130052105
 40
0.9085486435
 40
1.0
 40
1.0
 40
1.0
 40
1.0
 10
5.4893659913
 20
5.2893369779
 30
0.0
 10
5.4893213305
 20
5.2893629911
 30
0.0
 10
5.4892374327
 20
5.2894147651
 30
0.0
 10
5.4891226018
 20
5.2894963558
 30
0.0
 10
5.4890251025
 20
5.2895780197
 30
0.0
 10
5.4889449418
 20
5.2896598419
 30
0.0
 10
5.4888821576
 20
5.2897419569
 30
0.0
 10
5.4888368983
 20
5.2898245654
 30
0.0
 10
5.4888094766
 20
5.2899077342
 30
0.0
 10
5.4888033064
 20
5.2899639818
 30
0.0
 10
5.4888033154
 20
5.2899914061
 30
0.0
 11
5.4893659913
 21
5.2893369779
 31
0.0
 11
5.4892342731
 21
5.2894187815
 31
0.0
 11
5.4891200305
 21
5.289500585
 31
0.0
 11
5.4890232965
 21
5.2895823885
 31
0.0
 11
5.4889441046
 21
5.289664192
 31
0.0
 11
5.488882488
 21
5.2897459955
 31
0.0
 11
5.4888384792
 21
5.289827799
 31
0.0
 11
5.4888120913
 21
5.2899096026
 31
0.0
 11
5.4888033154
 21
5.2899914061
 31
0.0
  0
SPLINE
  5
290
100
AcDbEntity
  8
0
100
AcDbSpline
 62
6
  6
CONTINUOUS
 70
0
 71
3
 72
8
 73
4
 74
2
 42
0.0000001
 43
0.0000001
 44
0.0000000001
 12
0.0000359109
 22
0.000009764
 32
0.0
 13
0.0000359109
 23
0.000009764
 33
0.0
 40
0.0
 40
0.0
 40
0.0
 40
0.0
 40
1.0
 40
1.0
 40
1.0
 40
1.0
 10
7.3828573517
 20
4.85652453
 30
0.0
 10
7.382869322
 20
4.8565277847
 30
0.0
 10
7.3828812923
 20
4.8565310394
 30
0.0
 10
7.3828932626
 20
4.856534294
 30
0.0
 11
7.3828573517
 21
4.85652453
 31
0.0
 11
7.3828932626
 21
4.856534294
 31
0.0
  0
SPLINE
  5
291
100
AcDbEntity
  8
0
100
AcDbSpline
 62
6
  6
CONTINUOUS
 70
0
 71
3
 72
8
 73
4
 74
2
 42
0.0000001
 43
0.0000001
 44
0.0000000001
 12
0.0000354837
 22
-0.0000096479
 32
0.0
 13
0.0000354837
 23
-0.0000096479
 33
0.0
 40
0.0
 40
0.0
 40
0.0
 40
0.0
 40
1.0
 40
1.0
 40
1.0
 40
1.0
 10
7.3828577789
 20
6.3431481816
 30
0.0
 10
7.3828696068
 20
6.3431449657
 30
0.0
 10
7.3828814347
 20
6.3431417497
 30
0.0
 10
7.3828932626
 20
6.3431385337
 30
0.0
 11
7.3828577789
 21
6.3431481816
 31
0.0
 11
7.3828932626
 21
6.3431385337
 31
0.0
  0
SPLINE
  5
292
100
AcDbEntity
  8
0
100
AcDbSpline
 62
7
  6
CONTINUOUS
 70
0
 71
3
 72
11
 73
7
 74
5
 42
0.0000001
 43
0.0000001
 44
0.0000000001
 12
0.0130409562
 22
-0.0060546768
 32
0.0
 13
0.0125238164
 23
-0.0070625542
 33
0.0
 40
0.0
 40
0.0
 40
0.0
 40
0.0
 40
0.2829481758
 40
0.5443410014
 40
0.7837465898
 40
1.0
 40
1.0
 40
1.0
 40
1.0
 10
5.5836882402
 20
5.3067611807
 30
0.0
 10
5.5849182118
 20
5.3061901275
 30
0.0
 10
5.5872710254
 20
5.3050623467
 30
0.0
 10
5.5906213637
 20
5.303363462
 30
0.0
 10
5.5936577818
 20
5.3017536762
 30
0.0
 10
5.5955693803
 20
5.3006975635
 30
0.0
 10
5.596472153
 20
5.3001884631
 30
0.0
 11
5.5836882402
 21
5.3067611807
 31
0.0
 11
5.5873572019
 21
5.3050035952
 31
0.0
 11
5.5907098714
 21
5.3033052468
 31
0.0
 11
5.5937508724
 21
5.3016925469
 31
0.0
 11
5.596472153
 21
5.3001884631
 31
0.0
  0
SPLINE
  5
293
100
AcDbEntity
  8
0
100
AcDbSpline
 62
7
  6
CONTINUOUS
 70
0
 71
3
 72
20
 73
16
 74
14
 42
0.0000001
 43
0.0000001
 44
0.0000000001
 12
0.0477837875
 22
0.0153912386
 32
0.0
 13
0.0502013948
 23
-0.0000230937
 33
0.0
 40
0.0
 40
0.0
 40
0.0
 40
0.0
 40
0.1113395306
 40
0.2279509681
 40
0.2880202142
 40
0.3491536774
 40
0.4112666306
 40
0.4742755877
 40
0.6026560204
 40
0.6678759059
 40
0.7336458415
 40
0.7998532089
 40
0.8663870041
 40
0.93313821
 40
1.0
 40
1.0
 40
1.0
 40
1.0
 10
5.5045406371
 20
5.3017002718
 30
0.0
 10
5.5063140452
 20
5.3022714895
 30
0.0
 10
5.5099630143
 20
5.3033853214
 30
0.0
 10
5.5146167486
 20
5.3046428411
 30
0.0
 10
5.5184844471
 20
5.3055804386
 30
0.0
 10
5.521478581
 20
5.3062484413
 30
0.0
 10
5.5245329575
 20
5.3068699213
 30
0.0
 10
5.5287055725
 20
5.3076354014
 30
0.0
 10
5.5329518935
 20
5.3082835325
 30
0.0
 10
5.5372612526
 20
5.30880257
 30
0.0
 10
5.5405453397
 20
5.3091275072
 30
0.0
 10
5.5438575439
 20
5.309383703
 30
0.0
 10
5.5471909449
 20
5.3095688085
 30
0.0
 10
5.5505385671
 20
5.3096804824
 30
0.0
 10
5.5527745171
 20
5.3097043805
 30
0.0
 10
5.5538933688
 20
5.3097038658
 30
0.0
 11
5.5045406371
 21
5.3017002718
 31
0.0
 11
5.5098867791
 21
5.3033312719
 31
0.0
 11
5.5155384866
 21
5.3048571129
 31
0.0
 11
5.5184692136
 21
5.3055673544
 31
0.0
 11
5.5214645736
 21
5.3062355537
 31
0.0
 11
5.524520145
 21
5.3068571544
 31
0.0
 11
5.5276313909
 21
5.3074277599
 31
0.0
 11
5.5340027568
 21
5.3083983997
 31
0.0
 11
5.5372533841
 21
5.3087899944
 31
0.0
 11
5.5405390843
 21
5.3091150791
 31
0.0
 11
5.5438528959
 21
5.3093713044
 31
0.0
 11
5.5471878574
 21
5.3095563207
 31
0.0
 11
5.5505370073
 21
5.3096677785
 31
0.0
 11
5.5538933688
 21
5.3097038658
 31
0.0
  0
SPLINE
  5
294
100
AcDbEntity
  8
0
100
AcDbSpline
 62
7
  6
CONTINUOUS
 70
0
 71
3
 72
26
 73
22
 74
20
 42
0.0000001
 43
0.0000001
 44
0.0000000001
 12
0.023538612
 22
0.0052259276
 32
0.0
 13
0.0214212217
 23
0.0110683258
 33
0.0
 40
0.0
 40
0.0
 40
0.0
 40
0.0
 40
0.0089356553
 40
0.0193612087
 40
0.031296675
 40
0.0447533971
 40
0.0597375404
 40
0.0762520098
 40
0.0942975662
 40
0.1138734034
 40
0.1575797506
 40
0.2072546637
 40
0.2627641504
 40
0.3239700721
 40
0.3907247575
 40
0.4628645481
 40
0.5402233819
 40
0.6226351825
 40
0.7099449361
 40
0.8020241526
 40
1.0
 40
1.0
 40
1.0
 40
1.0
 10
5.483162476
 20
5.2905873473
 30
0.0
 10
5.4832325869
 20
5.290602913
 30
0.0
 10
5.4833831326
 20
5.2906428083
 30
0.0
 10
5.4836226029
 20
5.2907200112
 30
0.0
 10
5.4838929713
 20
5.2908190483
 30
0.0
 10
5.4841942395
 20
5.2909397557
 30
0.0
 10
5.4845264211
 20
5.2910819693
 30
0.0
 10
5.4848895094
 20
5.2912455046
 30
0.0
 10
5.4852834998
 20
5.2914301622
 30
0.0
 10
5.4858718883
 20
5.2917149016
 30
0.0
 10
5.4866828742
 20
5.2921230801
 30
0.0
 10
5.4877445602
 20
5.2926752508
 30
0.0
 10
5.4889253723
 20
5.2933030605
 30
0.0
 10
5.490223192
 20
5.2940031386
 30
0.0
 10
5.4916358143
 20
5.2947719003
 30
0.0
 10
5.4931611125
 20
5.2956052038
 30
0.0
 10
5.4947968142
 20
5.2964988964
 30
0.0
 10
5.4965406925
 20
5.2974488855
 30
0.0
 10
5.4983909146
 20
5.2984509741
 30
0.0
 10
5.5010636215
 20
5.2998847089
 30
0.0
 10
5.5031270089
 20
5.3009698514
 30
0.0
 10
5.5045406371
 20
5.3017002718
 30
0.0
 11
5.483162476
 21
5.2905873473
 31
0.0
 11
5.4833710363
 21
5.2906414135
 31
0.0
 11
5.4836105482
 21
5.2907177361
 31
0.0
 11
5.4838810004
 21
5.2908161016
 31
0.0
 11
5.484182382
 21
5.2909362965
 31
0.0
 11
5.4845146815
 21
5.2910781073
 31
0.0
 11
5.484877888
 21
5.2912413205
 31
0.0
 11
5.4852719903
 21
5.2914257225
 31
0.0
 11
5.4856969751
 21
5.2916310983
 31
0.0
 11
5.4866390209
 21
5.2921034555
 31
0.0
 11
5.4877021583
 21
5.2926551273
 31
0.0
 11
5.4888843422
 21
5.2932826931
 31
0.0
 11
5.4901835266
 21
5.2939827305
 31
0.0
 11
5.4915975965
 21
5.29475158
 31
0.0
 11
5.4931242964
 21
5.2955851014
 31
0.0
 11
5.4947613537
 21
5.2964790964
 31
0.0
 11
5.4965064972
 21
5.297429366
 31
0.0
 11
5.4983578561
 21
5.2984315137
 31
0.0
 11
5.5003145156
 21
5.2994806718
 31
0.0
 11
5.5045406371
 21
5.3017002718
 31
0.0
  0
LINE
  5
295
100
AcDbEntity
  8
0
100
AcDbLine
 62
7
  6
CONTINUOUS
 10
5.6347306804
 20
5.2884423307
 11
5.6359032614
 21
5.2878331219
  0
SPLINE
  5
296
100
AcDbEntity
  8
0
100
AcDbSpline
 62
7
  6
CONTINUOUS
 70
0
 71
3
 72
14
 73
10
 74
8
 42
0.0000001
 43
0.0000001
 44
0.0000000001
 12
0.0220136555
 22
-0.0055614496
 32
0.0
 13
0.0216056448
 23
-0.0069804632
 33
0.0
 40
0.0
 40
0.0
 40
0.0
 40
0.0
 40
0.2814561424
 40
0.4161488426
 40
0.5460727171
 40
0.6704448683
 40
0.7884241792
 40
0.8988325305
 40
1.0
 40
1.0
 40
1.0
 40
1.0
 10
5.6129353162
 20
5.2947912674
 30
0.0
 10
5.6150006091
 20
5.2942694993
 30
0.0
 10
5.61804557
 20
5.2934631151
 30
0.0
 10
5.622023987
 20
5.2923435198
 30
0.0
 10
5.6248503188
 20
5.291519227
 30
0.0
 10
5.6275484492
 20
5.290707567
 30
0.0
 10
5.6300992733
 20
5.2899192409
 30
0.0
 10
5.6324775469
 20
5.2891675804
 30
0.0
 10
5.6340020843
 20
5.2886777293
 30
0.0
 10
5.6347306804
 20
5.2884423307
 30
0.0
 11
5.6129353162
 21
5.2947912674
 31
0.0
 11
5.6191134433
 21
5.2931573046
 31
0.0
 11
5.6220573822
 21
5.2923290256
 31
0.0
 11
5.6248894506
 21
5.2915033999
 31
0.0
 11
5.6275937214
 21
5.2906901522
 31
0.0
 11
5.6301531397
 21
5.2898995125
 31
0.0
 11
5.6325436018
 21
5.2891445206
 31
0.0
 11
5.6347306804
 21
5.2884423307
 31
0.0
  0
LINE
  5
297
100
AcDbEntity
  8
0
100
AcDbLine
 62
7
  6
CONTINUOUS
 10
5.5538932626
 20
5.3075669027
 11
5.5709233579
 21
5.3086074134
  0
SPLINE
  5
298
100
AcDbEntity
  8
0
100
AcDbSpline
 62
6
  6
CONTINUOUS
 70
0
 71
3
 72
23
 73
19
 74
17
 42
0.0000001
 43
0.0000001
 44
0.0000000001
 12
-0.8754159082
 22
0.0703251525
 32
0.0
 13
-0.8150209215
 23
0.3271689732
 33
0.0
 40
0.0
 40
0.0
 40
0.0
 40
0.0
 40
0.0652564638
 40
0.1300467812
 40
0.194390818
 40
0.2583088562
 40
0.3218215857
 40
0.3849500951
 40
0.4477158602
 40
0.5101407313
 40
0.5722469183
 40
0.6340569749
 40
0.69559378
 40
0.756880519
 40
0.8179406618
 40
0.8787979407
 40
0.9394763258
 40
1.0
 40
1.0
 40
1.0
 40
1.0
 10
7.0904731415
 20
4.9275264094
 30
0.0
 10
7.0714309594
 20
4.929056133
 30
0.0
 10
7.0335078005
 20
4.9324286671
 30
0.0
 10
6.976917951
 20
4.9384546418
 30
0.0
 10
6.9208317513
 20
4.9454292365
 30
0.0
 10
6.8652494302
 20
4.9533524508
 30
0.0
 10
6.8101709434
 20
4.962224306
 30
0.0
 10
6.7555963209
 20
4.9720448167
 30
0.0
 10
6.7015255749
 20
4.9828139986
 30
0.0
 10
6.6479587242
 20
4.994531866
 30
0.0
 10
6.5948957878
 20
5.0071984319
 30
0.0
 10
6.542336786
 20
5.0208137087
 30
0.0
 10
6.490281742
 20
5.0353777063
 30
0.0
 10
6.4387306736
 20
5.0508904358
 30
0.0
 10
6.3876836239
 20
5.0673518969
 30
0.0
 10
6.3371405469
 20
5.0847621235
 30
0.0
 10
6.2871017316
 20
5.1031210134
 30
0.0
 10
6.25404029
 20
5.116007701
 30
0.0
 10
6.2375976031
 20
5.1226081905
 30
0.0
 11
7.0904731415
 21
4.9275264094
 31
0.0
 11
7.0333881696
 21
4.9326066442
 31
0.0
 11
6.9768072311
 21
4.9386351958
 31
0.0
 11
6.920730326
 21
4.9456120643
 31
0.0
 11
6.8651574544
 21
4.9535372497
 31
0.0
 11
6.8100886162
 21
4.9624107519
 31
0.0
 11
6.7555238115
 21
4.972232571
 31
0.0
 11
6.7014630401
 21
4.983002707
 31
0.0
 11
6.6479063023
 21
4.9947211599
 31
0.0
 11
6.5948535978
 21
5.0073879297
 31
0.0
 11
6.5423049269
 21
5.0210030163
 31
0.0
 11
6.4902602893
 21
5.0355664198
 31
0.0
 11
6.4387196852
 21
5.0510781402
 31
0.0
 11
6.3876831145
 21
5.0675381774
 31
0.0
 11
6.3371505773
 21
5.0849465316
 31
0.0
 11
6.2871220735
 21
5.1033032026
 31
0.0
 11
6.2375976031
 21
5.1226081905
 31
0.0
  0
SPLINE
  5
299
100
AcDbEntity
  8
0
100
AcDbSpline
 62
6
  6
CONTINUOUS
 70
0
 71
3
 72
49
 73
45
 74
43
 42
0.0000001
 43
0.0000001
 44
0.0000000001
 12
0.1061400774
 22
0.0618209855
 32
0.0
 13
0.1212242856
 23
0.0198046172
 33
0.0
 40
0.0
 40
0.0
 40
0.0
 40
0.0
 40
0.00167481
 40
0.0035310523
 40
0.0055724482
 40
0.0078016022
 40
0.0102200108
 40
0.0128284888
 40
0.0186167669
 40
0.0217968454
 40
0.0251671561
 40
0.0287272894
 40
0.0324765514
 40
0.0405377728
 40
0.049340895
 40
0.0588750463
 40
0.0691284141
 40
0.0800860865
 40
0.0917317263
 40
0.1170196544
 40
0.1448423018
 40
0.1750321939
 40
0.2074053102
 40
0.2417644331
 40
0.2778979829
 40
0.3155846462
 40
0.3545914184
 40
0.3946785938
 40
0.4355980548
 40
0.5189207887
 40
0.6025039188
 40
0.684285146
 40
0.7238666139
 40
0.7622478063
 40
0.7991920986
 40
0.8344720403
 40
0.8678711928
 40
0.8991844777
 40
0.9282217431
 40
0.954806
 40
0.9671283137
 40
0.9787796247
 40
0.9897420087
 40
1.0
 40
1.0
 40
1.0
 40
1.0
 10
5.4893659981
 20
5.2828358346
 30
0.0
 10
5.4894252529
 20
5.2828703474
 30
0.0
 10
5.4895526506
 20
5.2829389036
 30
0.0
 10
5.4897589286
 20
5.2830365677
 30
0.0
 10
5.4899900435
 20
5.2831342707
 30
0.0
 10
5.490245934
 20
5.2832319984
 30
0.0
 10
5.4905265161
 20
5.2833297647
 30
0.0
 10
5.4909482473
 20
5.283464892
 30
0.0
 10
5.4914043278
 20
5.2835944944
 30
0.0
 10
5.4918934066
 20
5.283721094
 30
0.0
 10
5.4922956482
 20
5.2838189735
 30
0.0
 10
5.4927218258
 20
5.2839168744
 30
0.0
 10
5.4933367816
 20
5.284050674
 30
0.0
 10
5.494164274
 20
5.2842170616
 30
0.0
 10
5.4952273779
 20
5.2844123574
 30
0.0
 10
5.4963815956
 20
5.2846077662
 30
0.0
 10
5.4976251751
 20
5.2848032434
 30
0.0
 10
5.4989561826
 20
5.2849987999
 30
0.0
 10
5.5008986152
 20
5.2852670592
 30
0.0
 10
5.5035291213
 20
5.2855996816
 30
0.0
 10
5.5069174927
 20
5.2859892116
 30
0.0
 10
5.5105976697
 20
5.2863790956
 30
0.0
 10
5.5145468259
 20
5.2867692877
 30
0.0
 10
5.5187404276
 20
5.2871596815
 30
0.0
 10
5.5231524581
 20
5.2875502575
 30
0.0
 10
5.5277554808
 20
5.2879409453
 30
0.0
 10
5.5325209301
 20
5.2883317438
 30
0.0
 10
5.5374191677
 20
5.2887226046
 30
0.0
 10
5.5441269736
 20
5.2892469736
 30
0.0
 10
5.5526113207
 20
5.2898963356
 30
0.0
 10
5.5627639952
 20
5.2906710797
 30
0.0
 10
5.5711298902
 20
5.2913231982
 30
0.0
 10
5.5776491637
 20
5.2918500367
 30
0.0
 10
5.5823376419
 20
5.2922407879
 30
0.0
 10
5.5868493784
 20
5.2926314224
 30
0.0
 10
5.5911563496
 20
5.2930219163
 30
0.0
 10
5.5952317921
 20
5.2934122131
 30
0.0
 10
5.5990504243
 20
5.2938022681
 30
0.0
 10
5.6025885082
 20
5.2941919888
 30
0.0
 10
5.6053505452
 20
5.2945242402
 30
0.0
 10
5.6074032079
 20
5.2947919554
 30
0.0
 10
5.6088201987
 20
5.2949875662
 30
0.0
 10
5.6101518248
 20
5.2951831256
 30
0.0
 10
5.6110101578
 20
5.2953179901
 30
0.0
 10
5.6114246637
 20
5.2953857086
 30
0.0
 11
5.4893659981
 21
5.2828358346
 31
0.0
 11
5.48954685
 21
5.2829338805
 31
0.0
 11
5.4897526975
 21
5.2830319264
 31
0.0
 11
5.4899834816
 21
5.2831299723
 31
0.0
 11
5.4902391356
 21
5.2832280182
 31
0.0
 11
5.4905195453
 21
5.2833260641
 31
0.0
 11
5.4908245782
 21
5.2834241099
 31
0.0
 11
5.4915079842
 21
5.2836202017
 31
0.0
 11
5.4918860925
 21
5.2837182476
 31
0.0
 11
5.4922882944
 21
5.2838162935
 31
0.0
 11
5.4927144574
 21
5.2839143393
 31
0.0
 11
5.4931644265
 21
5.2840123852
 31
0.0
 11
5.4941349865
 21
5.284208477
 31
0.0
 11
5.4951983571
 21
5.2844045688
 31
0.0
 11
5.4963529163
 21
5.2846006605
 31
0.0
 11
5.4975969925
 21
5.2847967523
 31
0.0
 11
5.4989285777
 21
5.2849928441
 31
0.0
 11
5.5003455235
 21
5.2851889358
 31
0.0
 11
5.5034268168
 21
5.2855811194
 31
0.0
 11
5.5068217336
 21
5.2859733029
 31
0.0
 11
5.5105092032
 21
5.2863654865
 31
0.0
 11
5.5144662509
 21
5.28675767
 31
0.0
 11
5.5186683681
 21
5.2871498536
 31
0.0
 11
5.5230893411
 21
5.2875420371
 31
0.0
 11
5.5277018032
 21
5.2879342207
 31
0.0
 11
5.5324769814
 21
5.2883264042
 31
0.0
 11
5.5373853017
 21
5.2887185878
 31
0.0
 11
5.542396172
 21
5.2891107714
 31
0.0
 11
5.5526007186
 21
5.2898951385
 31
0.0
 11
5.562837344
 21
5.2906795056
 31
0.0
 11
5.5728519761
 21
5.2914638728
 31
0.0
 11
5.5776979792
 21
5.2918560564
 31
0.0
 11
5.5823960535
 21
5.2922482399
 31
0.0
 11
5.5869169936
 21
5.2926404235
 31
0.0
 11
5.5912326949
 21
5.2930326071
 31
0.0
 11
5.5953163704
 21
5.2934247907
 31
0.0
 11
5.5991425779
 21
5.2938169743
 31
0.0
 11
5.6026876383
 21
5.2942091579
 31
0.0
 11
5.6059293826
 21
5.2946013414
 31
0.0
 11
5.6074301934
 21
5.2947974332
 31
0.0
 11
5.6088478424
 21
5.294993525
 31
0.0
 11
5.6101800126
 21
5.2951896168
 31
0.0
 11
5.6114246637
 21
5.2953857086
 31
0.0
  0
SPLINE
  5
29A
100
AcDbEntity
  8
0
100
AcDbSpline
 62
6
  6
CONTINUOUS
 70
0
 71
3
 72
61
 73
57
 74
55
 42
0.0000001
 43
0.0000001
 44
0.0000000001
 12
0.087075736
 22
-0.0045259893
 32
0.0
 13
-0.0544313428
 23
0.0681167916
 33
0.0
 40
0.0
 40
0.0
 40
0.0
 40
0.0
 40
0.0068125479
 40
0.0099547152
 40
0.0129196887
 40
0.0157080102
 40
0.0183215028
 40
0.0207636645
 40
0.0230401924
 40
0.025159668
 40
0.0271344204
 40
0.0307165682
 40
0.0323834458
 40
0.0340105149
 40
0.035638341
 40
0.0373093057
 40
0.0390621366
 40
0.0409291036
 40
0.0429357069
 40
0.045101357
 40
0.0474404447
 40
0.0499634208
 40
0.0526777191
 40
0.0555884852
 40
0.0586991303
 40
0.0620117445
 40
0.0692456787
 40
0.0772913942
 40
0.0861409411
 40
0.0957791043
 40
0.1061788433
 40
0.1173081971
 40
0.1291330769
 40
0.1416179102
 40
0.1547260734
 40
0.1684201942
 40
0.1826623674
 40
0.1974143148
 40
0.2126402328
 40
0.2444263468
 40
0.2778645587
 40
0.3128024118
 40
0.3490879056
 40
0.3865822113
 40
0.4251927153
 40
0.4648382506
 40
0.5054387904
 40
0.5469172345
 40
0.5892145086
 40
0.6322823558
 40
0.676073663
 40
0.7205426953
 40
0.7656534436
 40
0.8113807313
 40
0.9045881953
 40
1.0
 40
1.0
 40
1.0
 40
1.0
 10
7.1978515059
 20
4.5949828736
 30
0.0
 10
7.1980492418
 20
4.5949725957
 30
0.0
 10
7.1983387263
 20
4.5949650791
 30
0.0
 10
7.1987141621
 20
4.5949752651
 30
0.0
 10
7.1989722116
 20
4.5949924192
 30
0.0
 10
7.1992139817
 20
4.5950193714
 30
0.0
 10
7.1994390793
 20
4.5950562223
 30
0.0
 10
7.1996471217
 20
4.5951030814
 30
0.0
 10
7.1998377038
 20
4.5951600491
 30
0.0
 10
7.2000105222
 20
4.5952273265
 30
0.0
 10
7.2002100218
 20
4.5953275236
 30
0.0
 10
7.2003823619
 20
4.5954522082
 30
0.0
 10
7.2005149049
 20
4.5956027398
 30
0.0
 10
7.2005916753
 20
4.5957242072
 30
0.0
 10
7.2006473442
 20
4.5958568176
 30
0.0
 10
7.2006817265
 20
4.5960001663
 30
0.0
 10
7.2006952952
 20
4.5961538313
 30
0.0
 10
7.2006884969
 20
4.5963176109
 30
0.0
 10
7.2006617594
 20
4.5964913977
 30
0.0
 10
7.2006154369
 20
4.5966751323
 30
0.0
 10
7.2005498326
 20
4.5968687583
 30
0.0
 10
7.2004652162
 20
4.5970722069
 30
0.0
 10
7.2003618409
 20
4.5972853937
 30
0.0
 10
7.2002399507
 20
4.5975082193
 30
0.0
 10
7.2000997928
 20
4.5977405792
 30
0.0
 10
7.1998824072
 20
4.5980727862
 30
0.0
 10
7.1995645709
 20
4.5985102055
 30
0.0
 10
7.1991249584
 20
4.5990568711
 30
0.0
 10
7.1986184847
 20
4.5996386386
 30
0.0
 10
7.198047401
 20
4.6002542416
 30
0.0
 10
7.1974149893
 20
4.6009029071
 30
0.0
 10
7.1967246888
 20
4.6015836011
 30
0.0
 10
7.1959800114
 20
4.602295259
 30
0.0
 10
7.1951844808
 20
4.6030368104
 30
0.0
 10
7.1943416327
 20
4.6038071854
 30
0.0
 10
7.1934550093
 20
4.6046053145
 30
0.0
 10
7.1925281587
 20
4.6054301292
 30
0.0
 10
7.1915645717
 20
4.6062806128
 30
0.0
 10
7.1902155532
 20
4.6074649534
 30
0.0
 10
7.1884542723
 20
4.609002896
 30
0.0
 10
7.1862603526
 20
4.6109164121
 30
0.0
 10
7.183971717
 20
4.6129202836
 30
0.0
 10
7.1816030296
 20
4.6150116587
 30
0.0
 10
7.1791676743
 20
4.6171887253
 30
0.0
 10
7.1766756346
 20
4.6194487957
 30
0.0
 10
7.1741357389
 20
4.6217903304
 30
0.0
 10
7.1715565016
 20
4.6242119681
 30
0.0
 10
7.1689462076
 20
4.6267128724
 30
0.0
 10
7.1663116169
 20
4.6292917788
 30
0.0
 10
7.1636585464
 20
4.6319475797
 30
0.0
 10
7.1609926641
 20
4.6346794467
 30
0.0
 10
7.1583195344
 20
4.6374868074
 30
0.0
 10
7.1556439111
 20
4.6403690704
 30
0.0
 10
7.1520553692
 20
4.6443361126
 30
0.0
 10
7.147586868
 20
4.6494776856
 30
0.0
 10
7.1441049319
 20
4.6537130903
 30
0.0
 10
7.142373801
 20
4.6558794723
 30
0.0
 11
7.1978515059
 21
4.5949828736
 31
0.0
 11
7.1984453638
 21
4.5949695037
 31
0.0
 11
7.1987192302
 21
4.5949772478
 31
0.0
 11
7.1989771639
 21
4.5949947355
 31
0.0
 11
7.1992187464
 21
4.5950220599
 31
0.0
 11
7.1994435595
 21
4.5950593143
 31
0.0
 11
7.1996511849
 21
4.5951065919
 31
0.0
 11
7.1998412043
 21
4.5951639859
 31
0.0
 11
7.2000131994
 21
4.5952315894
 31
0.0
 11
7.2001667518
 21
4.5953094956
 31
0.0
 11
7.2004168554
 21
4.5954965891
 31
0.0
 11
7.20051257
 21
4.5956059627
 31
0.0
 11
7.2005881687
 21
4.5957260118
 31
0.0
 11
7.2006432458
 21
4.5958568254
 31
0.0
 11
7.2006777103
 21
4.5959983874
 31
0.0
 11
7.2006918001
 21
4.5961505716
 31
0.0
 11
7.200685769
 21
4.5963132468
 31
0.0
 11
7.2006598706
 21
4.5964862817
 31
0.0
 11
7.2006143584
 21
4.5966695451
 31
0.0
 11
7.2005494861
 21
4.5968629056
 31
0.0
 11
7.2004655072
 21
4.5970662321
 31
0.0
 11
7.2003626754
 21
4.5972793931
 31
0.0
 11
7.2002412443
 21
4.5975022575
 31
0.0
 11
7.2001014675
 21
4.597734694
 31
0.0
 11
7.1999435986
 21
4.5979765713
 31
0.0
 11
7.1995745988
 21
4.5984881232
 31
0.0
 11
7.1991362739
 21
4.599035863
 31
0.0
 11
7.1986306527
 21
4.5996187405
 31
0.0
 11
7.1980600386
 21
4.6002357034
 31
0.0
 11
7.1974277577
 21
4.6008856914
 31
0.0
 11
7.1967373746
 21
4.6015676421
 31
0.0
 11
7.1959924535
 21
4.6022804932
 31
0.0
 11
7.1951965588
 21
4.6030231827
 31
0.0
 11
7.1943532548
 21
4.6037946481
 31
0.0
 11
7.193466106
 21
4.6045938273
 31
0.0
 11
7.1925386767
 21
4.605419658
 31
0.0
 11
7.1915745313
 21
4.6062710779
 31
0.0
 11
7.1905769999
 21
4.6071471184
 31
0.0
 11
7.1884902729
 21
4.6089711195
 31
0.0
 11
7.1862937998
 21
4.6108884499
 31
0.0
 11
7.1840025484
 21
4.6128960334
 31
0.0
 11
7.1816314863
 21
4.6149907934
 31
0.0
 11
7.179194434
 21
4.6171699633
 31
0.0
 11
7.1767009666
 21
4.6194319223
 31
0.0
 11
7.1741596779
 21
4.6217753143
 31
0.0
 11
7.1715791616
 21
4.6241987836
 31
0.0
 11
7.1689678423
 21
4.6267010043
 31
0.0
 11
7.1663324185
 21
4.629280959
 31
0.0
 11
7.1636785781
 21
4.6319378107
 31
0.0
 11
7.1610119967
 21
4.6346707244
 31
0.0
 11
7.1583383199
 21
4.6374788716
 31
0.0
 11
7.1556622933
 21
4.6403616057
 31
0.0
 11
7.1529876182
 21
4.6433184922
 31
0.0
 11
7.1476568944
 21
4.6494530308
 31
0.0
 11
7.142373801
 21
4.6558794723
 31
0.0
  0
SPLINE
  5
29B
100
AcDbEntity
  8
0
100
AcDbSpline
 62
6
  6
CONTINUOUS
 70
0
 71
3
 72
64
 73
60
 74
58
 42
0.0000001
 43
0.0000001
 44
0.0000000001
 12
0.1533513992
 22
-0.0093397734
 32
0.0
 13
-0.0806283802
 23
0.1307782371
 33
0.0
 40
0.0
 40
0.0
 40
0.0
 40
0.0
 40
0.0116478622
 40
0.0230683458
 40
0.0342457042
 40
0.0451662587
 40
0.0558188253
 40
0.0661952239
 40
0.0762877748
 40
0.0860752767
 40
0.0955375543
 40
0.1046648446
 40
0.1134607157
 40
0.1219455737
 40
0.1301601585
 40
0.1381621992
 40
0.1421088136
 40
0.1460334874
 40
0.149949991
 40
0.1538736794
 40
0.1578213654
 40
0.1618111355
 40
0.1658621165
 40
0.1699942076
 40
0.1742276536
 40
0.1785804233
 40
0.1830668764
 40
0.1876987846
 40
0.1974317695
 40
0.2078352728
 40
0.218935918
 40
0.2307413161
 40
0.2432450917
 40
0.2564295862
 40
0.2702659985
 40
0.2847167907
 40
0.2997379663
 40
0.3152807349
 40
0.3232315286
 40
0.3312938996
 40
0.347740669
 40
0.3645971665
 40
0.3818387809
 40
0.4173749391
 40
0.4356173009
 40
0.4541461592
 40
0.4920040851
 40
0.530831224
 40
0.5505717553
 40
0.5705135418
 40
0.6109632678
 40
0.6521067021
 40
0.6938742914
 40
0.7362135076
 40
0.779079543
 40
0.8224303733
 40
0.8662312166
 40
0.9104504583
 40
1.0
 40
1.0
 40
1.0
 40
1.0
 10
7.1786786586
 20
4.6535402597
 30
0.0
 10
7.1792740639
 20
4.6535039969
 30
0.0
 10
7.1804545319
 20
4.6534514236
 30
0.0
 10
7.1822085986
 20
4.6534345401
 30
0.0
 10
7.1839249136
 20
4.653481767
 30
0.0
 10
7.1855988054
 20
4.6535945191
 30
0.0
 10
7.187225646
 20
4.6537741981
 30
0.0
 10
7.1888006301
 20
4.6540222605
 30
0.0
 10
7.1903179861
 20
4.6543396804
 30
0.0
 10
7.1917702379
 20
4.6547290732
 30
0.0
 10
7.1931484787
 20
4.6551933061
 30
0.0
 10
7.194443492
 20
4.6557351847
 30
0.0
 10
7.1956460214
 20
4.6563576675
 30
0.0
 10
7.1967467682
 20
4.65706388
 30
0.0
 10
7.1977356702
 20
4.6578568116
 30
0.0
 10
7.1984616916
 20
4.6585951841
 30
0.0
 10
7.1989728288
 20
4.6592279424
 30
0.0
 10
7.1993200372
 20
4.6597223686
 30
0.0
 10
7.1996314197
 20
4.6602387466
 30
0.0
 10
7.1999056825
 20
4.6607771177
 30
0.0
 10
7.2001415059
 20
4.6613374927
 30
0.0
 10
7.2003375873
 20
4.6619198761
 30
0.0
 10
7.200492613
 20
4.6625242633
 30
0.0
 10
7.2006053512
 20
4.6631506331
 30
0.0
 10
7.200674296
 20
4.6637988462
 30
0.0
 10
7.2006996287
 20
4.6644683183
 30
0.0
 10
7.200682381
 20
4.6651584105
 30
0.0
 10
7.2006023216
 20
4.6661209526
 30
0.0
 10
7.2003947905
 20
4.6673746111
 30
0.0
 10
7.1999930463
 20
4.6689248025
 30
0.0
 10
7.1994411017
 20
4.6705403612
 30
0.0
 10
7.1987454066
 20
4.6722161584
 30
0.0
 10
7.1979119357
 20
4.6739468591
 30
0.0
 10
7.1969510191
 20
4.6757290088
 30
0.0
 10
7.1958735485
 20
4.6775597142
 30
0.0
 10
7.1946902221
 20
4.6794359034
 30
0.0
 10
7.1934118164
 20
4.6813544754
 30
0.0
 10
7.1922849637
 20
4.6829734424
 30
0.0
 10
7.1913458577
 20
4.68428862
 30
0.0
 10
7.1903701108
 20
4.6856344706
 30
0.0
 10
7.1891095861
 20
4.6873371113
 30
0.0
 10
7.1875467146
 20
4.6894005925
 30
0.0
 10
7.1853683969
 20
4.6922241129
 30
0.0
 10
7.1831164035
 20
4.6950802347
 30
0.0
 10
7.1808082076
 20
4.6979758127
 30
0.0
 10
7.1784188288
 20
4.7009587307
 30
0.0
 10
7.1753618513
 20
4.7047575539
 30
0.0
 10
7.1722675928
 20
4.708606029
 30
0.0
 10
7.1697566023
 20
4.7117461402
 30
0.0
 10
7.1672013956
 20
4.7149572741
 30
0.0
 10
7.1639812068
 20
4.7190399977
 30
0.0
 10
7.1601063563
 20
4.7240297581
 30
0.0
 10
7.1562199426
 20
4.729132735
 30
0.0
 10
7.1523345397
 20
4.7343469477
 30
0.0
 10
7.1484613035
 20
4.7396708422
 30
0.0
 10
7.1446112815
 20
4.7451035758
 30
0.0
 10
7.1407934471
 20
4.7506434104
 30
0.0
 10
7.1357367168
 20
4.7582016924
 30
0.0
 10
7.1320514261
 20
4.763978128
 30
0.0
 10
7.1296446812
 20
4.7678818384
 30
0.0
 11
7.1786786586
 21
4.6535402597
 31
0.0
 11
7.1804664463
 21
4.6534614095
 31
0.0
 11
7.1822209656
 21
4.6534453979
 31
0.0
 11
7.1839375278
 21
4.653493627
 31
0.0
 11
7.1856114445
 21
4.653607499
 31
0.0
 11
7.1872380272
 21
4.6537884158
 31
0.0
 11
7.1888125872
 21
4.6540377797
 31
0.0
 11
7.1903299209
 21
4.654357123
 31
0.0
 11
7.1917817332
 21
4.6547487601
 31
0.0
 11
7.1931585816
 21
4.6552152953
 31
0.0
 11
7.1944510216
 21
4.6557593336
 31
0.0
 11
7.1956496087
 21
4.6563834799
 31
0.0
 11
7.1967448987
 21
4.657090339
 31
0.0
 11
7.1977274226
 21
4.6578824392
 31
0.0
 11
7.1985873189
 21
4.6587610733
 31
0.0
 11
7.1989681013
 21
4.6592329348
 31
0.0
 11
7.1993144087
 21
4.6597265371
 31
0.0
 11
7.1996249676
 21
4.6602419138
 31
0.0
 11
7.1998985045
 21
4.6607790983
 31
0.0
 11
7.200133746
 21
4.6613381239
 31
0.0
 11
7.2003294186
 21
4.6619190242
 31
0.0
 11
7.2004842489
 21
4.6625218325
 31
0.0
 11
7.2005969633
 21
4.6631465823
 31
0.0
 11
7.2006663789
 21
4.6637932753
 31
0.0
 11
7.2006924716
 21
4.6644615062
 31
0.0
 11
7.2006760188
 21
4.6651505886
 31
0.0
 11
7.200617814
 21
4.66585983
 31
0.0
 11
7.2003793222
 21
4.6673360214
 31
0.0
 11
7.1999833442
 21
4.6688845425
 31
0.0
 11
7.1994362278
 21
4.6704998555
 31
0.0
 11
7.1987443207
 21
4.6721764225
 31
0.0
 11
7.1979143953
 21
4.6739089233
 31
0.0
 11
7.1969561311
 21
4.675693528
 31
0.0
 11
7.1958804253
 21
4.677527031
 31
0.0
 11
7.1946981796
 21
4.679406229
 31
0.0
 11
7.1934202955
 21
4.6813279187
 31
0.0
 11
7.1920576745
 21
4.6832888967
 31
0.0
 11
7.191347994
 21
4.6842831179
 31
0.0
 11
7.1906210516
 21
4.6852860388
 31
0.0
 11
7.1891184352
 21
4.6873175174
 31
0.0
 11
7.1875556077
 21
4.689382563
 31
0.0
 11
7.1859382868
 21
4.6914804372
 31
0.0
 11
7.1825630343
 21
4.6957717181
 31
0.0
 11
7.1808164961
 21
4.6979636563
 31
0.0
 11
7.1790371355
 21
4.7001857112
 31
0.0
 11
7.1753932835
 21
4.7047191382
 31
0.0
 11
7.1716578477
 21
4.7093699957
 31
0.0
 11
7.1697639802
 21
4.7117388413
 31
0.0
 11
7.1678564766
 21
4.714136361
 31
0.0
 11
7.164009311
 21
4.7190168862
 31
0.0
 11
7.1601337512
 21
4.7240105089
 31
0.0
 11
7.1562465764
 21
4.7291161519
 31
0.0
 11
7.1523605803
 21
4.7343326232
 31
0.0
 11
7.1484869336
 21
4.7396586841
 31
0.0
 11
7.1446364677
 21
4.7450930709
 31
0.0
 11
7.1408183363
 21
4.7506343929
 31
0.0
 11
7.1370411693
 21
4.7562812202
 31
0.0
 11
7.1296446812
 21
4.7678818384
 31
0.0
  0
SPLINE
  5
29C
100
AcDbEntity
  8
0
100
AcDbSpline
 62
6
  6
CONTINUOUS
 70
0
 71
3
 72
73
 73
69
 74
67
 42
0.0000001
 43
0.0000001
 44
0.0000000001
 12
0.2128524806
 22
-0.014530077
 32
0.0
 13
-0.107342557
 23
0.1843769972
 33
0.0
 40
0.0
 40
0.0
 40
0.0
 40
0.0
 40
0.0227291152
 40
0.0454550293
 40
0.0568234204
 40
0.0681897974
 40
0.0908891956
 40
0.1022183658
 40
0.1135295802
 40
0.1248223639
 40
0.1360900001
 40
0.1585066978
 40
0.1696562213
 40
0.1807685863
 40
0.1918513653
 40
0.1973814654
 40
0.2029032945
 40
0.213925109
 40
0.2249394266
 40
0.2359860145
 40
0.2415407768
 40
0.2471249404
 40
0.2527446985
 40
0.2584073639
 40
0.2641214127
 40
0.2698964818
 40
0.2757433478
 40
0.2816738873
 40
0.2877010199
 40
0.2907553871
 40
0.2938391266
 40
0.3000992906
 40
0.3064900289
 40
0.3196815958
 40
0.3334435876
 40
0.3405412941
 40
0.3477812188
 40
0.3551610435
 40
0.3626778461
 40
0.3703297558
 40
0.3781147084
 40
0.3940695093
 40
0.4105081627
 40
0.4273839437
 40
0.4359688671
 40
0.4446420737
 40
0.4622381867
 40
0.4801495286
 40
0.4983521868
 40
0.5168200952
 40
0.5261449206
 40
0.5355257788
 40
0.5544469993
 40
0.5735680865
 40
0.5928732056
 40
0.6123461594
 40
0.6319708344
 40
0.6517344769
 40
0.6716263609
 40
0.7117520596
 40
0.7522661948
 40
0.7931015401
 40
0.8136201568
 40
0.8341960746
 40
0.8754921385
 40
0.916935785
 40
0.9584642279
 40
1.0
 40
1.0
 40
1.0
 40
1.0
 10
7.151886817
 20
4.7662518695
 30
0.0
 10
7.1534994665
 20
4.7661417842
 30
0.0
 10
7.1567334908
 20
4.7660363334
 30
0.0
 10
7.1607750554
 20
4.7661936652
 30
0.0
 10
7.1639947749
 20
4.7664933841
 30
0.0
 10
7.1671993372
 20
4.7669108639
 30
0.0
 10
7.1703757234
 20
4.767508873
 30
0.0
 10
7.1735036452
 20
4.7682945698
 30
0.0
 10
7.175818539
 20
4.7689788435
 30
0.0
 10
7.1780981682
 20
4.769759661
 30
0.0
 10
7.1810755694
 20
4.7709304169
 30
0.0
 10
7.1839583226
 20
4.7723078366
 30
0.0
 10
7.1867067015
 20
4.7739049343
 30
0.0
 10
7.1886867193
 20
4.7752123154
 30
0.0
 10
7.1902645974
 20
4.7763970513
 30
0.0
 10
7.1914747688
 20
4.7774041673
 30
0.0
 10
7.1926455962
 20
4.7784502333
 30
0.0
 10
7.1940342219
 20
4.7798361805
 30
0.0
 10
7.1955613926
 20
4.7816293702
 30
0.0
 10
7.1967000985
 20
4.7832331754
 30
0.0
 10
7.1975205503
 20
4.7845814129
 30
0.0
 10
7.1980903326
 20
4.7856287618
 30
0.0
 10
7.1986108772
 20
4.7867099574
 30
0.0
 10
7.1990796931
 20
4.7878246273
 30
0.0
 10
7.1994942663
 20
4.7889723612
 30
0.0
 10
7.1998520874
 20
4.7901527518
 30
0.0
 10
7.2001506456
 20
4.7913653918
 30
0.0
 10
7.2003874335
 20
4.7926098426
 30
0.0
 10
7.2005305469
 20
4.7936683631
 30
0.0
 10
7.2006120543
 20
4.7945297465
 30
0.0
 10
7.2006715405
 20
4.7954095448
 30
0.0
 10
7.2007030389
 20
4.7965286227
 30
0.0
 10
7.2006647338
 20
4.7983666332
 30
0.0
 10
7.2004505398
 20
4.8007315053
 30
0.0
 10
7.2000385917
 20
4.8031201661
 30
0.0
 10
7.1995957097
 20
4.8050691131
 30
0.0
 10
7.1992031962
 20
4.8065631606
 30
0.0
 10
7.1987553383
 20
4.8080726265
 30
0.0
 10
7.198253457
 20
4.8095958575
 30
0.0
 10
7.1977000481
 20
4.8111317624
 30
0.0
 10
7.1968904929
 20
4.8132124635
 30
0.0
 10
7.1957619597
 20
4.8158385226
 30
0.0
 10
7.1942560414
 20
4.8190029527
 30
0.0
 10
7.1928910585
 20
4.8216521234
 30
0.0
 10
7.1917379467
 20
4.8237882688
 30
0.0
 10
7.1905354103
 20
4.825955772
 30
0.0
 10
7.1889674162
 20
4.8286787552
 30
0.0
 10
7.1870021803
 20
4.8319542378
 30
0.0
 10
7.1849555136
 20
4.8352526069
 30
0.0
 10
7.1831971209
 20
4.8380108616
 30
0.0
 10
7.1817600836
 20
4.8402298168
 30
0.0
 10
7.1802961784
 20
4.8424697532
 30
0.0
 10
7.178435154
 20
4.8452823735
 30
0.0
 10
7.1761641079
 20
4.8486698745
 30
0.0
 10
7.1738553684
 20
4.852079282
 30
0.0
 10
7.1715152597
 20
4.855510664
 30
0.0
 10
7.1691501384
 20
4.8589644442
 30
0.0
 10
7.1667649169
 20
4.8624405655
 30
0.0
 10
7.1635542494
 20
4.8671184571
 30
0.0
 10
7.1595149294
 20
4.8730174491
 30
0.0
 10
7.1546676583
 20
4.8801682508
 30
0.0
 10
7.1506420121
 20
4.8861913117
 30
0.0
 10
7.1474347449
 20
4.891055672
 30
0.0
 10
7.1442319945
 20
4.8959621795
 30
0.0
 10
7.1402610934
 20
4.9021442617
 30
0.0
 10
7.1355675574
 20
4.9096325713
 30
0.0
 10
7.1309573037
 20
4.9171924411
 30
0.0
 10
7.1279485665
 20
4.9222762422
 30
0.0
 10
7.1264623812
 20
4.9248289892
 30
0.0
 11
7.151886817
 21
4.7662518695
 31
0.0
 11
7.1567334594
 21
4.7660941606
 31
0.0
 11
7.1615783038
 21
4.7662830406
 31
0.0
 11
7.1639932561
 21
4.7665081534
 31
0.0
 11
7.1663978738
 21
4.7668218408
 31
0.0
 11
7.1711564273
 21
4.7677215829
 31
0.0
 11
7.173500523
 21
4.7683109599
 31
0.0
 11
7.1758146048
 21
4.7689955558
 31
0.0
 11
7.1780936208
 21
4.7697770732
 31
0.0
 11
7.1803303627
 21
4.7706578938
 31
0.0
 11
7.1846411057
 21
4.7727292022
 31
0.0
 11
7.1866970702
 21
4.773925593
 31
0.0
 11
7.188674739
 21
4.775233077
 31
0.0
 11
7.1905640589
 21
4.7766547905
 31
0.0
 11
7.1914707067
 21
4.777409774
 31
0.0
 11
7.1923489796
 21
4.7781949405
 31
0.0
 11
7.1940112966
 21
4.7798581188
 31
0.0
 11
7.1955328026
 21
4.7816489175
 31
0.0
 11
7.19689529
 21
4.7835719288
 31
0.0
 11
7.1975112022
 21
4.784584404
 31
0.0
 11
7.1980803921
 21
4.7856310097
 31
0.0
 11
7.1986003734
 21
4.7867113487
 31
0.0
 11
7.1990686581
 21
4.787825017
 31
0.0
 11
7.1994827583
 21
4.7889716107
 31
0.0
 11
7.1998401859
 21
4.7901507258
 31
0.0
 11
7.200138453
 21
4.7913619582
 31
0.0
 11
7.2003750717
 21
4.792604904
 31
0.0
 11
7.200547554
 21
4.7938791591
 31
0.0
 11
7.2006089666
 21
4.7945279015
 31
0.0
 11
7.2006534546
 21
4.7951843048
 31
0.0
 11
7.2006919846
 21
4.7965193414
 31
0.0
 11
7.2006645083
 21
4.7978825147
 31
0.0
 11
7.2004175705
 21
4.8006860528
 31
0.0
 11
7.199924708
 21
4.8035804817
 31
0.0
 11
7.1995898259
 21
4.8050572684
 31
0.0
 11
7.1991979877
 21
4.8065513638
 31
0.0
 11
7.1987507018
 21
4.808060963
 31
0.0
 11
7.1982495656
 21
4.809584346
 31
0.0
 11
7.1976968872
 21
4.8111204655
 31
0.0
 11
7.1970953143
 21
4.8126685961
 31
0.0
 11
7.195756085
 21
4.8157979973
 31
0.0
 11
7.1942530773
 21
4.8189667633
 31
0.0
 11
7.1926074906
 21
4.8221691072
 31
0.0
 11
7.1917378549
 21
4.8237810627
 31
0.0
 11
7.1908404362
 21
4.825399289
 31
0.0
 11
7.1889690191
 21
4.8286536723
 31
0.0
 11
7.1870047779
 21
4.831931544
 31
0.0
 11
7.1849588403
 21
4.8352324067
 31
0.0
 11
7.1828423342
 21
4.8385557632
 31
0.0
 11
7.1817610954
 21
4.8402257212
 31
0.0
 11
7.1806663057
 21
4.8419011259
 31
0.0
 11
7.1784396226
 21
4.8452682686
 31
0.0
 11
7.1761687921
 21
4.848657248
 31
0.0
 11
7.1738602032
 21
4.8520681352
 31
0.0
 11
7.1715202448
 21
4.8555010014
 31
0.0
 11
7.1691551834
 21
4.8589559206
 31
0.0
 11
7.1667700079
 21
4.8624329979
 31
0.0
 11
7.1643689477
 21
4.8659323574
 31
0.0
 11
7.1595360507
 21
4.8729984189
 31
0.0
 11
7.1546882472
 21
4.8801545826
 31
0.0
 11
7.1498492344
 21
4.8873992505
 31
0.0
 11
7.1474397923
 21
4.8910541094
 31
0.0
 11
7.1450404417
 21
4.8947302083
 31
0.0
 11
7.1402804771
 21
4.9021441375
 31
0.0
 11
7.1355861118
 21
4.9096369575
 31
0.0
 11
7.1309743093
 21
4.9172020711
 31
0.0
 11
7.1264623812
 21
4.9248289892
 31
0.0
  0
SPLINE
  5
29D
100
AcDbEntity
  8
0
100
AcDbSpline
 62
6
  6
CONTINUOUS
 70
0
 71
3
 72
15
 73
11
 74
9
 42
0.0000001
 43
0.0000001
 44
0.0000000001
 12
-0.3461933304
 22
0.1389703178
 32
0.0
 13
-0.3228328412
 23
0.1869265308
 33
0.0
 40
0.0
 40
0.0
 40
0.0
 40
0.0
 40
0.1254172516
 40
0.2506353952
 40
0.3756942252
 40
0.5006336879
 40
0.6254938443
 40
0.7503148319
 40
0.8751368257
 40
1.0
 40
1.0
 40
1.0
 40
1.0
 10
6.2375976031
 20
5.1226081905
 30
0.0
 10
6.2231247311
 20
5.1284179489
 30
0.0
 10
6.1943041941
 20
5.1402848337
 30
0.0
 10
6.1514271758
 20
5.15883894
 30
0.0
 10
6.1089421878
 20
5.1781310753
 30
0.0
 10
6.0668494197
 20
5.1981611664
 30
0.0
 10
6.0251488497
 20
5.2189292209
 30
0.0
 10
5.9838404583
 20
5.2404352547
 30
0.0
 10
5.9429244251
 20
5.2626791644
 30
0.0
 10
5.9159155766
 20
5.2779964268
 30
0.0
 10
5.9024789322
 20
5.2857765068
 30
0.0
 11
6.2375976031
 21
5.1226081905
 31
0.0
 11
6.1943354251
 21
5.1404222246
 31
0.0
 11
6.1514653455
 21
5.1589739745
 31
0.0
 11
6.1089873641
 21
5.1782634403
 31
0.0
 11
6.0669014811
 21
5.1982906219
 31
0.0
 11
6.0252076964
 21
5.2190555194
 31
0.0
 11
5.98390601
 21
5.2405581327
 31
0.0
 11
5.9429964219
 21
5.2627984618
 31
0.0
 11
5.9024789322
 21
5.2857765068
 31
0.0
  0
SPLINE
  5
29E
100
AcDbEntity
  8
0
100
AcDbSpline
 62
6
  6
CONTINUOUS
 70
0
 71
3
 72
87
 73
83
 74
81
 42
0.0000001
 43
0.0000001
 44
0.0000000001
 12
0.2628202467
 22
-0.0148558356
 32
0.0
 13
-0.136771313
 23
0.2249195098
 33
0.0
 40
0.0
 40
0.0
 40
0.0
 40
0.0
 40
0.0200755535
 40
0.0303292608
 40
0.0407333825
 40
0.0512923057
 40
0.0620091414
 40
0.072885852
 40
0.0839232489
 40
0.095120655
 40
0.1064770618
 40
0.1296602635
 40
0.1414897971
 40
0.14746381
 40
0.1534771666
 40
0.1656181421
 40
0.1779053516
 40
0.1903327669
 40
0.2028968886
 40
0.2155969315
 40
0.2219988242
 40
0.228435362
 40
0.2414078472
 40
0.2545108882
 40
0.2677481403
 40
0.2744213594
 40
0.2811336687
 40
0.2878881696
 40
0.294688328
 40
0.3015345373
 40
0.3084255755
 40
0.3223417485
 40
0.3293742748
 40
0.3364616726
 40
0.3436106843
 40
0.3508298757
 40
0.3581296684
 40
0.3618137895
 40
0.3655221636
 40
0.3730130175
 40
0.3806056504
 40
0.3883020323
 40
0.3961033253
 40
0.4120187818
 40
0.4201352304
 40
0.4283551532
 40
0.4366771138
 40
0.445099754
 40
0.4536234557
 40
0.4622479151
 40
0.4797878364
 40
0.488696192
 40
0.4976884228
 40
0.5067572287
 40
0.5158943605
 40
0.5250907376
 40
0.5343382691
 40
0.5436345003
 40
0.5529780173
 40
0.5717994749
 40
0.5907860351
 40
0.6099170038
 40
0.6195293786
 40
0.6291688345
 40
0.6485208355
 40
0.6679599463
 40
0.6874729687
 40
0.7070460275
 40
0.7266647192
 40
0.7364865692
 40
0.7463144076
 40
0.7659833412
 40
0.7856626561
 40
0.805343564
 40
0.8250172678
 40
0.8446749917
 40
0.8643080116
 40
0.8839065633
 40
0.9034572281
 40
0.9229458731
 40
0.961680844
 40
1.0
 40
1.0
 40
1.0
 40
1.0
 10
7.1264623812
 20
4.9248289892
 30
0.0
 10
7.1282211351
 20
4.9247295762
 30
0.0
 10
7.1308873206
 20
4.924708736
 30
0.0
 10
7.1344561243
 20
4.9249168601
 30
0.0
 10
7.1371822569
 20
4.9251927608
 30
0.0
 10
7.1399348524
 20
4.9255858587
 30
0.0
 10
7.1427105923
 20
4.9260946273
 30
0.0
 10
7.1455059299
 20
4.9267176039
 30
0.0
 10
7.1483173663
 20
4.9274530889
 30
0.0
 10
7.1511408422
 20
4.9283014786
 30
0.0
 10
7.15494134
 20
4.9295928951
 30
0.0
 10
7.1587221345
 20
4.9311070715
 30
0.0
 10
7.1619873081
 20
4.9326160917
 30
0.0
 10
7.163861038
 20
4.9335418796
 30
0.0
 10
7.1657427112
 20
4.9345125075
 30
0.0
 10
7.1680840392
 20
4.9357995497
 30
0.0
 10
7.1708601034
 20
4.9374598494
 30
0.0
 10
7.1736027614
 20
4.9392439865
 30
0.0
 10
7.176303105
 20
4.9411550233
 30
0.0
 10
7.1785048716
 20
4.9428513645
 30
0.0
 10
7.1802362798
 20
4.9442742445
 30
0.0
 10
7.1819550121
 20
4.9457493796
 30
0.0
 10
7.1840570204
 20
4.9476798054
 30
0.0
 10
7.1864825229
 20
4.9501346
 30
0.0
 10
7.1884088912
 20
4.9523002009
 30
0.0
 10
7.189886997
 20
4.9541095159
 30
0.0
 10
7.1909650802
 20
4.9555101363
 30
0.0
 10
7.1920073268
 20
4.9569513994
 30
0.0
 10
7.1930115085
 20
4.9584336665
 30
0.0
 10
7.1939740561
 20
4.9599575806
 30
0.0
 10
7.1951996235
 20
4.9620522073
 30
0.0
 10
7.196319227
 20
4.9642264832
 30
0.0
 10
7.1973149273
 20
4.9664766322
 30
0.0
 10
7.1979995155
 20
4.9682134306
 30
0.0
 10
7.1986144665
 20
4.9699934497
 30
0.0
 10
7.1991550996
 20
4.9718169157
 30
0.0
 10
7.1995386395
 20
4.9733680917
 30
0.0
 10
7.1998037643
 20
4.9746298402
 30
0.0
 10
7.2000421871
 20
4.9759139613
 30
0.0
 10
7.200286873
 20
4.9775452541
 30
0.0
 10
7.2004950778
 20
4.9795338541
 30
0.0
 10
7.2006190747
 20
4.9815567963
 30
0.0
 10
7.2006727317
 20
4.9843132859
 30
0.0
 10
7.2005561911
 20
4.9871075892
 30
0.0
 10
7.2002768599
 20
4.9899242278
 30
0.0
 10
7.1999827002
 20
4.9920683649
 30
0.0
 10
7.1996055638
 20
4.9942266913
 30
0.0
 10
7.1991452009
 20
4.9963960458
 30
0.0
 10
7.1986056491
 20
4.9985743712
 30
0.0
 10
7.1977825353
 20
5.001505123
 30
0.0
 10
7.1968234354
 20
5.0044311526
 30
0.0
 10
7.1957500699
 20
5.0073499859
 30
0.0
 10
7.1948849238
 20
5.009552856
 30
0.0
 10
7.1939685468
 20
5.0117566034
 30
0.0
 10
7.1930055351
 20
5.0139599203
 30
0.0
 10
7.1920004633
 20
5.0161615953
 30
0.0
 10
7.1909575304
 20
5.0183610341
 30
0.0
 10
7.1898791178
 20
5.0205576805
 30
0.0
 10
7.1883932807
 20
5.0234898715
 30
0.0
 10
7.1864581833
 20
5.0271472452
 30
0.0
 10
7.1840340093
 20
5.0315162258
 30
0.0
 10
7.181941635
 20
5.0351444272
 30
0.0
 10
7.1802300416
 20
5.0380450649
 30
0.0
 10
7.1784915604
 20
5.0409522923
 30
0.0
 10
7.1762814817
 20
5.0445820915
 30
0.0
 10
7.1735815849
 20
5.0489277167
 30
0.0
 10
7.1708392875
 20
5.0532696496
 30
0.0
 10
7.168063282
 20
5.0576088078
 30
0.0
 10
7.1657300955
 20
5.0612217006
 30
0.0
 10
7.1638548617
 20
5.0641123956
 30
0.0
 10
7.1619743391
 20
5.0670049129
 30
0.0
 10
7.1596178935
 20
5.0706197011
 30
0.0
 10
7.1567852917
 20
5.0749561397
 30
0.0
 10
7.1539515496
 20
5.0792923331
 30
0.0
 10
7.1511210338
 20
5.0836283716
 30
0.0
 10
7.1482981037
 20
5.087964341
 30
0.0
 10
7.1454871964
 20
5.0923002605
 30
0.0
 10
7.1426928911
 20
5.0966357285
 30
0.0
 10
7.1399183725
 20
5.1009688531
 30
0.0
 10
7.1362576414
 20
5.1067283683
 30
0.0
 10
7.1317531916
 20
5.1139029326
 30
0.0
 10
7.1282093683
 20
5.1196611779
 30
0.0
 10
7.1264623812
 20
5.1225340865
 30
0.0
 11
7.1264623812
 21
4.9248289892
 31
0.0
 11
7.131746829
 21
4.9247790142
 31
0.0
 11
7.1344414976
 21
4.9249350694
 31
0.0
 11
7.1371664593
 21
4.925209828
 31
0.0
 11
7.1399182115
 21
4.9256017958
 31
0.0
 11
7.1426932517
 21
4.926109479
 31
0.0
 11
7.1454880774
 21
4.9267313836
 31
0.0
 11
7.1482991006
 21
4.9274662124
 31
0.0
 11
7.1511221439
 21
4.928314026
 31
0.0
 11
7.1539527811
 21
4.9292754579
 31
0.0
 11
7.1596191297
 21
4.9315417189
 31
0.0
 11
7.162445987
 21
4.9328478189
 31
0.0
 11
7.1638558995
 21
4.9335443893
 31
0.0
 11
7.165262704
 21
4.9342700936
 31
0.0
 11
7.1680632004
 21
4.9358100794
 31
0.0
 11
7.1708388457
 21
4.9374707024
 31
0.0
 11
7.1735807863
 21
4.9392550102
 31
0.0
 11
7.1762801687
 21
4.9411660503
 31
0.0
 11
7.1789281395
 21
4.9432068701
 31
0.0
 11
7.1802300788
 21
4.9442768998
 31
0.0
 11
7.1815156547
 21
4.9453805871
 31
0.0
 11
7.1840295047
 21
4.9476918472
 31
0.0
 11
7.1864524284
 21
4.9501467826
 31
0.0
 11
7.1887669977
 21
4.952751587
 31
0.0
 11
7.1898782031
 21
4.9541121256
 31
0.0
 11
7.1909557842
 21
4.955512454
 31
0.0
 11
7.1919975625
 21
4.9569533466
 31
0.0
 11
7.1930012634
 21
4.9584355554
 31
0.0
 11
7.1939632574
 21
4.9599595215
 31
0.0
 11
7.1948789142
 21
4.9615254563
 31
0.0
 11
7.1965526008
 21
4.9647840554
 31
0.0
 11
7.1973013229
 21
4.9664771317
 31
0.0
 11
7.1979850924
 21
4.9682130002
 31
0.0
 11
7.1985992555
 21
4.969991867
 31
0.0
 11
7.1991391584
 21
4.971813938
 31
0.0
 11
7.1996001471
 21
4.9736794191
 31
0.0
 11
7.1997996074
 21
4.9746284932
 31
0.0
 11
7.1999779118
 21
4.9755882627
 31
0.0
 11
7.2002711099
 21
4.9775382339
 31
0.0
 11
7.2004799154
 21
4.9795259798
 31
0.0
 11
7.2006045147
 21
4.9815481385
 31
0.0
 11
7.2006450941
 21
4.9836013482
 31
0.0
 11
7.2004749383
 21
4.9877874726
 31
0.0
 11
7.2002645758
 21
4.9899136635
 31
0.0
 11
7.1999709387
 21
4.9920574577
 31
0.0
 11
7.1995942132
 21
4.9942154932
 31
0.0
 11
7.1991349804
 21
4.9963845864
 31
0.0
 11
7.1985966378
 21
4.9985628251
 31
0.0
 11
7.1979838078
 21
5.00074885
 31
0.0
 11
7.1965531936
 21
5.00513883
 31
0.0
 11
7.1957446639
 21
5.007340071
 31
0.0
 11
7.1948801553
 21
5.0095436698
 31
0.0
 11
7.1939642948
 21
5.0117482694
 31
0.0
 11
7.1930017098
 21
5.0139525128
 31
0.0
 11
7.1919970273
 21
5.0161550429
 31
0.0
 11
7.190954409
 21
5.0183547818
 31
0.0
 11
7.1898763427
 21
5.0205516561
 31
0.0
 11
7.1887649406
 21
5.0227458177
 31
0.0
 11
7.186450577
 21
5.0271266108
 31
0.0
 11
7.1840282141
 21
5.0314983771
 31
0.0
 11
7.1815147483
 21
5.0358623324
 31
0.0
 11
7.1802291318
 21
5.0380417609
 31
0.0
 11
7.178927031
 21
5.0402196911
 31
0.0
 11
7.176278958
 21
5.0445715584
 31
0.0
 11
7.1735796761
 21
5.0489188647
 31
0.0
 11
7.1708379034
 21
5.0532625243
 31
0.0
 11
7.168062358
 21
5.0576034518
 31
0.0
 11
7.165261758
 21
5.0619425615
 31
0.0
 11
7.1638547869
 21
5.0641117205
 31
0.0
 11
7.1624447198
 21
5.0662807486
 31
0.0
 11
7.1596177228
 21
5.0706185017
 31
0.0
 11
7.1567852163
 21
5.0749559234
 31
0.0
 11
7.153951569
 21
5.0792931009
 31
0.0
 11
7.15112115
 21
5.0836301214
 31
0.0
 11
7.148298328
 21
5.0879670722
 31
0.0
 11
7.1454874719
 21
5.0923040404
 31
0.0
 11
7.1426927771
 21
5.09664065
 31
0.0
 11
7.1399178612
 21
5.1009749819
 31
0.0
 11
7.1371662219
 21
5.1053047965
 31
0.0
 11
7.131746763
 21
5.1139419147
 31
0.0
 11
7.1264623812
 21
5.1225340865
 31
0.0
  0
SPLINE
  5
29F
100
AcDbEntity
  8
0
100
AcDbSpline
 62
6
  6
CONTINUOUS
 70
0
 71
3
 72
73
 73
69
 74
67
 42
0.0000001
 43
0.0000001
 44
0.0000000001
 12
0.2640327288
 22
0.1029627299
 32
0.0
 13
-0.1602000427
 23
0.2337745751
 33
0.0
 40
0.0
 40
0.0
 40
0.0
 40
0.0
 40
0.0100070054
 40
0.0202912866
 40
0.0308480039
 40
0.0416715221
 40
0.0527555335
 40
0.064093164
 40
0.0756770689
 40
0.0875002461
 40
0.1118406793
 40
0.1243493404
 40
0.1370767684
 40
0.1500186073
 40
0.1631696528
 40
0.1765230802
 40
0.1900732331
 40
0.2038160673
 40
0.2177492441
 40
0.2318712475
 40
0.2461763213
 40
0.2606597839
 40
0.275321409
 40
0.2901657956
 40
0.3051989064
 40
0.3204164877
 40
0.3358210817
 40
0.3514291131
 40
0.3593196296
 40
0.3672712948
 40
0.3833482521
 40
0.3914735697
 40
0.3996562123
 40
0.4078977202
 40
0.4162008133
 40
0.4203768405
 40
0.4245698173
 40
0.4330069304
 40
0.4415120574
 40
0.4500832209
 40
0.4587173283
 40
0.4674102863
 40
0.4761571079
 40
0.4849520114
 40
0.493788513
 40
0.5026614807
 40
0.5115706304
 40
0.5205155398
 40
0.538504438
 40
0.5566057441
 40
0.5656876627
 40
0.5747828937
 40
0.583888371
 40
0.5930034826
 40
0.6112586724
 40
0.6295388446
 40
0.6478298594
 40
0.6661165661
 40
0.6843892686
 40
0.7208523414
 40
0.7571355961
 40
0.7931694389
 40
0.8288844572
 40
0.8642083496
 40
0.8990665258
 40
0.9333800016
 40
0.9670621441
 40
1.0
 40
1.0
 40
1.0
 40
1.0
 10
7.1264623812
 20
5.1225340865
 30
0.0
 10
7.1273431068
 20
5.1228775361
 30
0.0
 10
7.1291174546
 20
5.1236037934
 30
0.0
 10
7.1317793051
 20
5.1247907553
 30
0.0
 10
7.1344748441
 20
5.1260884228
 30
0.0
 10
7.1372005314
 20
5.1274948295
 30
0.0
 10
7.1399528816
 20
5.1290080211
 30
0.0
 10
7.1427283635
 20
5.1306260681
 30
0.0
 10
7.1455236191
 20
5.1323469623
 30
0.0
 10
7.1493088138
 20
5.1348005116
 30
0.0
 10
7.1530787367
 20
5.1374360607
 30
0.0
 10
7.1568238268
 20
5.1402485968
 30
0.0
 10
7.159657633
 20
5.1424799569
 30
0.0
 10
7.1624865855
 20
5.1448139857
 30
0.0
 10
7.1653057279
 20
5.1472513283
 30
0.0
 10
7.1681072186
 20
5.1497953024
 30
0.0
 10
7.1708832802
 20
5.1524486383
 30
0.0
 10
7.1736260518
 20
5.1552141278
 30
0.0
 10
7.1763275046
 20
5.1580945685
 30
0.0
 10
7.1789796456
 20
5.1610918703
 30
0.0
 10
7.1815696559
 20
5.1642110582
 30
0.0
 10
7.1840831164
 20
5.1674571342
 30
0.0
 10
7.186505659
 20
5.1708346953
 30
0.0
 10
7.1888225046
 20
5.1743481351
 30
0.0
 10
7.1910184867
 20
5.1780000491
 30
0.0
 10
7.1930666579
 20
5.1817975763
 30
0.0
 10
7.1949378683
 20
5.1857459017
 30
0.0
 10
7.1963203021
 20
5.1891535794
 30
0.0
 10
7.197308598
 20
5.1919558467
 30
0.0
 10
7.1982199632
 20
5.1948305103
 30
0.0
 10
7.198993902
 20
5.1977706006
 30
0.0
 10
7.1996173925
 20
5.2007661791
 30
0.0
 10
7.2000081774
 20
5.2030526629
 30
0.0
 10
7.200316401
 20
5.2053686548
 30
0.0
 10
7.2005007627
 20
5.2073178821
 30
0.0
 10
7.2006032476
 20
5.2088895805
 30
0.0
 10
7.2006751512
 20
5.2104756516
 30
0.0
 10
7.2007069074
 20
5.2124724944
 30
0.0
 10
7.2006550904
 20
5.2148826122
 30
0.0
 10
7.2005158152
 20
5.2173078814
 30
0.0
 10
7.2002915158
 20
5.2197445477
 30
0.0
 10
7.1999846106
 20
5.2221888881
 30
0.0
 10
7.1995975146
 20
5.2246371693
 30
0.0
 10
7.1991326563
 20
5.2270856615
 30
0.0
 10
7.19859236
 20
5.2295308071
 30
0.0
 10
7.1979789925
 20
5.2319697472
 30
0.0
 10
7.1972970844
 20
5.234401022
 30
0.0
 10
7.1963003251
 20
5.237637244
 30
0.0
 10
7.1949041129
 20
5.2416575029
 30
0.0
 10
7.1933410274
 20
5.2456292414
 30
0.0
 10
7.1920037401
 20
5.2487847729
 30
0.0
 10
7.1909606889
 20
5.2511416731
 30
0.0
 10
7.1898818734
 20
5.2534858516
 30
0.0
 10
7.1883980451
 20
5.2565958203
 30
0.0
 10
7.1864652831
 20
5.260451402
 30
0.0
 10
7.1840398773
 20
5.2650280421
 30
0.0
 10
7.1815250136
 20
5.2695594419
 30
0.0
 10
7.1789374966
 20
5.2740488535
 30
0.0
 10
7.1754071675
 20
5.2799754026
 30
0.0
 10
7.1708686673
 20
5.2872791025
 30
0.0
 10
7.1652908256
 20
5.2959099642
 30
0.0
 10
7.1596408024
 20
5.3044088336
 30
0.0
 10
7.1539727717
 20
5.3127863537
 30
0.0
 10
7.1483214654
 20
5.3210408705
 30
0.0
 10
7.1427217429
 20
5.329170169
 30
0.0
 10
7.1372004302
 20
5.3371651427
 30
0.0
 10
7.1317862864
 20
5.3450136662
 30
0.0
 10
7.1282212631
 20
5.3501998709
 30
0.0
 10
7.1264623812
 20
5.3527665487
 30
0.0
 11
7.1264623812
 21
5.1225340865
 31
0.0
 11
7.1290875105
 21
5.1236071259
 31
0.0
 11
7.131749904
 21
5.1247929802
 31
0.0
 11
7.1344460416
 21
5.1260896859
 31
0.0
 11
7.1371724031
 21
5.127495279
 31
0.0
 11
7.1399254683
 21
5.129007796
 31
0.0
 11
7.1427017171
 21
5.1306252731
 31
0.0
 11
7.1454976274
 21
5.1323457525
 31
0.0
 11
7.1483094706
 21
5.1341679812
 31
0.0
 11
7.1539644022
 21
5.1381182564
 31
0.0
 11
7.1567991458
 21
5.1402468199
 31
0.0
 11
7.159633178
 21
5.1424780117
 31
0.0
 11
7.1624623202
 21
5.1448120948
 31
0.0
 11
7.1652813059
 21
5.1472500714
 31
0.0
 11
7.1680825635
 21
5.1497945118
 31
0.0
 11
7.1708582271
 21
5.152448186
 31
0.0
 11
7.173600431
 21
5.1552138641
 31
0.0
 11
7.1763013093
 21
5.1580943163
 31
0.0
 11
7.1789523931
 21
5.1610924783
 31
0.0
 11
7.1815410371
 21
5.1642124322
 31
0.0
 11
7.1840528299
 21
5.167458745
 31
0.0
 11
7.1864733537
 21
5.1708359855
 31
0.0
 11
7.1887881904
 21
5.1743487225
 31
0.0
 11
7.1909808528
 21
5.1780015138
 31
0.0
 11
7.193025102
 21
5.1817988659
 31
0.0
 11
7.1948918292
 21
5.1857452702
 31
0.0
 11
7.1965519258
 21
5.189845218
 31
0.0
 11
7.1972953901
 21
5.1919541676
 31
0.0
 11
7.1979761721
 21
5.1941023637
 31
0.0
 11
7.1991338499
 21
5.1985090157
 31
0.0
 11
7.1996027906
 21
5.200763462
 31
0.0
 11
7.1999931623
 21
5.2030493154
 31
0.0
 11
7.2003009875
 21
5.205364571
 31
0.0
 11
7.2005222885
 21
5.2077072241
 31
0.0
 11
7.2005992495
 21
5.2088881982
 31
0.0
 11
7.200653129
 21
5.2100752586
 31
0.0
 11
7.2006919588
 21
5.212466007
 31
0.0
 11
7.2006408806
 21
5.2148758044
 31
0.0
 11
7.2005023058
 21
5.2173009017
 31
0.0
 11
7.200278646
 21
5.2197375499
 31
0.0
 11
7.1999723125
 21
5.2221819997
 31
0.0
 11
7.1995857169
 21
5.2246305022
 31
0.0
 11
7.1991212706
 21
5.2270793082
 31
0.0
 11
7.1985813855
 21
5.2295246692
 31
0.0
 11
7.197968886
 21
5.2319635168
 31
0.0
 11
7.1972877928
 21
5.234394755
 31
0.0
 11
7.1965423427
 21
5.2368176434
 31
0.0
 11
7.1948753175
 21
5.2416354095
 31
0.0
 11
7.193001703
 21
5.2464108921
 31
0.0
 11
7.1919980161
 21
5.2487809262
 31
0.0
 11
7.1909553409
 21
5.2511381941
 31
0.0
 11
7.1898768587
 21
5.253482493
 31
0.0
 11
7.1887648275
 21
5.2558140904
 31
0.0
 11
7.1864490132
 21
5.2604403203
 31
0.0
 11
7.1840256887
 21
5.2650191634
 31
0.0
 11
7.1815126437
 21
5.2695528989
 31
0.0
 11
7.1789261184
 21
5.2740437099
 31
0.0
 11
7.1762773389
 21
5.2784934676
 31
0.0
 11
7.1708338749
 21
5.2872770568
 31
0.0
 11
7.1652594101
 21
5.2959175128
 31
0.0
 11
7.1596126043
 21
5.3044261617
 31
0.0
 11
7.1539443501
 21
5.3128116966
 31
0.0
 11
7.1482926628
 21
5.3210744551
 31
0.0
 11
7.1426909192
 21
5.3292114164
 31
0.0
 11
7.1371672401
 21
5.3372147008
 31
0.0
 11
7.1317485405
 21
5.3450730434
 31
0.0
 11
7.1264623812
 21
5.3527665487
 31
0.0
  0
SPLINE
  5
2A0
100
AcDbEntity
  8
0
100
AcDbSpline
 62
6
  6
CONTINUOUS
 70
0
 71
3
 72
15
 73
11
 74
9
 42
0.0000001
 43
0.0000001
 44
0.0000000001
 12
-0.3461856319
 22
-0.1389684228
 32
0.0
 13
-0.3228260476
 23
-0.1869225971
 33
0.0
 40
0.0
 40
0.0
 40
0.0
 40
0.0
 40
0.1254172282
 40
0.2506353585
 40
0.3756941835
 40
0.5006336478
 40
0.6254938109
 40
0.7503148085
 40
0.875136814
 40
1.0
 40
1.0
 40
1.0
 40
1.0
 10
6.2375903176
 20
6.0770617127
 30
0.0
 10
6.2231177701
 20
6.0712520345
 30
0.0
 10
6.194297877
 20
6.0593853207
 30
0.0
 10
6.151421811
 20
6.0408315028
 30
0.0
 10
6.1089377588
 20
6.0215396868
 30
0.0
 10
6.0668459101
 20
6.001509946
 30
0.0
 10
6.0251462429
 20
5.9807422727
 30
0.0
 10
5.983838738
 20
5.9592366511
 30
0.0
 10
5.9429235748
 20
5.9369931845
 30
0.0
 10
5.9159152951
 20
5.9216762379
 30
0.0
 10
5.9024789322
 20
5.9138963209
 30
0.0
 11
6.2375903176
 21
6.0770617127
 31
0.0
 11
6.1943291078
 21
6.0592479359
 31
0.0
 11
6.1514599799
 21
6.0406964743
 31
0.0
 11
6.1089829339
 21
6.0214073277
 31
0.0
 11
6.0668979698
 21
6.0013804962
 31
0.0
 11
6.0252050876
 21
5.9806159797
 31
0.0
 11
5.9839042872
 21
5.9591137784
 31
0.0
 11
5.9429955688
 21
5.9368738921
 31
0.0
 11
5.9024789322
 21
5.9138963209
 31
0.0
  0
SPLINE
  5
2A1
100
AcDbEntity
  8
0
100
AcDbSpline
 62
6
  6
CONTINUOUS
 70
0
 71
3
 72
78
 73
74
 74
72
 42
0.0000001
 43
0.0000001
 44
0.0000000001
 12
0.2292703331
 22
0.1856799501
 32
0.0
 13
-0.191251978
 23
0.2246432959
 33
0.0
 40
0.0
 40
0.0
 40
0.0
 40
0.0
 40
0.0233453287
 40
0.0354652629
 40
0.0478674738
 40
0.0605400961
 40
0.0734712162
 40
0.0866488954
 40
0.1000623943
 40
0.1275654495
 40
0.1416414695
 40
0.1559247404
 40
0.1704090144
 40
0.1850878744
 40
0.1999541115
 40
0.2150013508
 40
0.2302244286
 40
0.2456194883
 40
0.2533807899
 40
0.2611838271
 40
0.2769105981
 40
0.2927934351
 40
0.3088292306
 40
0.316904831
 40
0.3250193157
 40
0.3331733398
 40
0.3413659927
 40
0.3578590619
 40
0.3744909903
 40
0.3912651805
 40
0.3997110039
 40
0.4081985835
 40
0.4167246228
 40
0.4252844127
 40
0.4338740836
 40
0.4424906763
 40
0.4511322131
 40
0.4597977712
 40
0.4684875565
 40
0.4772025841
 40
0.4859423144
 40
0.4947046824
 40
0.503486641
 40
0.5122842494
 40
0.5210927569
 40
0.5299066824
 40
0.5387198885
 40
0.547526069
 40
0.5563237967
 40
0.5651145861
 40
0.5826755637
 40
0.6002040939
 40
0.6176806328
 40
0.6350818676
 40
0.6524042417
 40
0.6696456495
 40
0.6867996702
 40
0.7038570547
 40
0.720811616
 40
0.7376576108
 40
0.7543877535
 40
0.7709937771
 40
0.7874690973
 40
0.8038075724
 40
0.8200024265
 40
0.8360462817
 40
0.8519311156
 40
0.8676485692
 40
0.8831900722
 40
0.9137089707
 40
0.9434110051
 40
0.9722111337
 40
1.0
 40
1.0
 40
1.0
 40
1.0
 10
7.1264623812
 20
5.3527665487
 30
0.0
 10
7.1282465116
 20
5.3542114685
 30
0.0
 10
7.1309230558
 20
5.3564486623
 30
0.0
 10
7.1344721695
 20
5.3595413026
 30
0.0
 10
7.1371974718
 20
5.361981263
 30
0.0
 10
7.1399495171
 20
5.3645104446
 30
0.0
 10
7.1427247775
 20
5.367126614
 30
0.0
 10
7.1455198926
 20
5.3698275149
 30
0.0
 10
7.1493000835
 20
5.3735706808
 30
0.0
 10
7.1530701298
 20
5.377449149
 30
0.0
 10
7.1568203844
 20
5.3814637925
 30
0.0
 10
7.1596541313
 20
5.384582045
 30
0.0
 10
7.1624829435
 20
5.387784314
 30
0.0
 10
7.1653021894
 20
5.3910709524
 30
0.0
 10
7.1681038684
 20
5.3944449085
 30
0.0
 10
7.1708800995
 20
5.3979087448
 30
0.0
 10
7.1736229137
 20
5.4014650473
 30
0.0
 10
7.1758678983
 20
5.4044995061
 30
0.0
 10
7.1776396022
 20
5.4069756336
 30
0.0
 10
7.1794025093
 20
5.409497934
 30
0.0
 10
7.1815666617
 20
5.4127139556
 30
0.0
 10
7.184080452
 20
5.4166688019
 30
0.0
 10
7.1860944605
 20
5.4200479402
 30
0.0
 10
7.1876529642
 20
5.4228075671
 30
0.0
 10
7.1887962389
 20
5.4249111411
 30
0.0
 10
7.1899093154
 20
5.4270438614
 30
0.0
 10
7.1913524351
 20
5.4299332054
 30
0.0
 10
7.1930633313
 20
5.4336200872
 30
0.0
 10
7.1949350592
 20
5.4381580944
 30
0.0
 10
7.1963193984
 20
5.4420362346
 30
0.0
 10
7.1973086522
 20
5.4452004542
 30
0.0
 10
7.1979890848
 20
5.4476103373
 30
0.0
 10
7.1986027272
 20
5.4500496535
 30
0.0
 10
7.1991458537
 20
5.4525159454
 30
0.0
 10
7.1996146522
 20
5.4550065291
 30
0.0
 10
7.2000053138
 20
5.4575187257
 30
0.0
 10
7.2003140319
 20
5.4600498559
 30
0.0
 10
7.2005369738
 20
5.4625972365
 30
0.0
 10
7.2006703921
 20
5.4651581577
 30
0.0
 10
7.2007102006
 20
5.4677295435
 30
0.0
 10
7.2006588138
 20
5.470307817
 30
0.0
 10
7.2005190735
 20
5.4728893739
 30
0.0
 10
7.2002937005
 20
5.4754705508
 30
0.0
 10
7.1999854431
 20
5.4780476881
 30
0.0
 10
7.1995970447
 20
5.4806171258
 30
0.0
 10
7.1991312281
 20
5.4831751979
 30
0.0
 10
7.1985907843
 20
5.4857182997
 30
0.0
 10
7.1979780693
 20
5.4882432993
 30
0.0
 10
7.197296757
 20
5.4907483516
 30
0.0
 10
7.1963031903
 20
5.4940595198
 30
0.0
 10
7.194911301
 20
5.4981460014
 30
0.0
 10
7.1930339309
 20
5.5029640033
 30
0.0
 10
7.1909829271
 20
5.5076932415
 30
0.0
 10
7.1887892286
 20
5.5123353072
 30
0.0
 10
7.1864711353
 20
5.5168904436
 30
0.0
 10
7.1840461349
 20
5.521361776
 30
0.0
 10
7.1815311658
 20
5.5257529783
 30
0.0
 10
7.1789432938
 20
5.5300686523
 30
0.0
 10
7.1762935955
 20
5.5343109124
 30
0.0
 10
7.1735920438
 20
5.5384819921
 30
0.0
 10
7.1708486064
 20
5.5425844165
 30
0.0
 10
7.1680732874
 20
5.5466211389
 30
0.0
 10
7.1652733613
 20
5.5505937751
 30
0.0
 10
7.1624554249
 20
5.5545038971
 30
0.0
 10
7.1596260765
 20
5.5583532095
 30
0.0
 10
7.1567921236
 20
5.5621435586
 30
0.0
 10
7.1539581294
 20
5.565875082
 30
0.0
 10
7.151128306
 20
5.5695475895
 30
0.0
 10
7.1473892732
 20
5.5743361874
 30
0.0
 10
7.1427530364
 20
5.5801689146
 30
0.0
 10
7.1372337524
 20
5.5869647048
 30
0.0
 10
7.1318220136
 20
5.593501454
 30
0.0
 10
7.1282339397
 20
5.597755553
 30
0.0
 10
7.1264623812
 20
5.5998364139
 30
0.0
 11
7.1264623812
 21
5.3527665487
 31
0.0
 11
7.1317498704
 21
5.3571802421
 31
0.0
 11
7.134446008
 21
5.3595290025
 31
0.0
 11
7.1371723817
 21
5.3619693358
 31
0.0
 11
7.1399254719
 21
5.364498965
 31
0.0
 11
7.1427017593
 21
5.3671156129
 31
0.0
 11
7.1454977235
 21
5.3698170055
 31
0.0
 11
7.148309652
 21
5.3726015722
 31
0.0
 11
7.1539647637
 21
5.3784204894
 31
0.0
 11
7.1567995392
 21
5.3814552947
 31
0.0
 11
7.1596335227
 21
5.3845739676
 31
0.0
 11
7.1624625093
 21
5.3877767362
 31
0.0
 11
7.1652814231
 21
5.3910643731
 31
0.0
 11
7.1680827341
 21
5.3944391855
 31
0.0
 11
7.1708584827
 21
5.3979037492
 31
0.0
 11
7.1736007095
 21
5.4014606399
 31
0.0
 11
7.1763014551
 21
5.4051124334
 31
0.0
 11
7.1776337779
 21
5.4069747251
 31
0.0
 11
7.1789523975
 21
5.4088617858
 31
0.0
 11
7.1815412716
 21
5.4127122308
 31
0.0
 11
7.1840533907
 21
5.4166678404
 31
0.0
 11
7.1864740328
 21
5.4207326947
 31
0.0
 11
7.1876454493
 21
5.4228073635
 31
0.0
 11
7.1887884758
 21
5.4249108735
 31
0.0
 11
7.1899012145
 21
5.4270437275
 31
0.0
 11
7.190980784
 21
5.429206306
 31
0.0
 11
7.1930255697
 21
5.4336217462
 31
0.0
 11
7.1948930142
 21
5.4381593977
 31
0.0
 11
7.1965532732
 21
5.4428214604
 31
0.0
 11
7.1972963817
 21
5.4451998335
 31
0.0
 11
7.1979764941
 21
5.447609784
 31
0.0
 11
7.1985898264
 21
5.4500492906
 31
0.0
 11
7.1991325792
 21
5.4525156608
 31
0.0
 11
7.1996009528
 21
5.4550062014
 31
0.0
 11
7.1999911478
 21
5.4575182194
 31
0.0
 11
7.2002993646
 21
5.4600490215
 31
0.0
 11
7.2005218038
 21
5.4625959146
 31
0.0
 11
7.2006546657
 21
5.4651562056
 31
0.0
 11
7.2006950086
 21
5.4677270723
 31
0.0
 11
7.2006442097
 21
5.470305043
 31
0.0
 11
7.2005050023
 21
5.4728864422
 31
0.0
 11
7.2002801203
 21
5.4754675941
 31
0.0
 11
7.1999722977
 21
5.478044823
 31
0.0
 11
7.1995842684
 21
5.4806144533
 31
0.0
 11
7.1991187662
 21
5.4831728091
 31
0.0
 11
7.1985785252
 21
5.4857162148
 31
0.0
 11
7.1979663378
 21
5.4882411357
 31
0.0
 11
7.197285777
 21
5.4907459078
 31
0.0
 11
7.1965409693
 21
5.4932301956
 31
0.0
 11
7.1948751669
 21
5.4981360883
 31
0.0
 11
7.1930020374
 21
5.5029563543
 31
0.0
 11
7.1909546878
 21
5.507688534
 31
0.0
 11
7.1887633813
 21
5.5123312412
 31
0.0
 11
7.1864477266
 21
5.516887111
 31
0.0
 11
7.1840248382
 21
5.5213597198
 31
0.0
 11
7.18151183
 21
5.5257526443
 31
0.0
 11
7.1789250733
 21
5.5300693467
 31
0.0
 11
7.1762763426
 21
5.5343125825
 31
0.0
 11
7.1735756567
 21
5.5384848374
 31
0.0
 11
7.1708330311
 21
5.5425885965
 31
0.0
 11
7.1680581736
 21
5.5466262753
 31
0.0
 11
7.1652586364
 21
5.5505998026
 31
0.0
 11
7.1624410487
 21
5.554510899
 31
0.0
 11
7.1596120366
 21
5.5583612839
 31
0.0
 11
7.1567779951
 21
5.5621524924
 31
0.0
 11
7.1539438194
 21
5.5658848589
 31
0.0
 11
7.1511138052
 21
5.569558238
 31
0.0
 11
7.1482922463
 21
5.5731724829
 31
0.0
 11
7.1426905929
 21
5.5802217814
 31
0.0
 11
7.1371670492
 21
5.5870247071
 31
0.0
 11
7.1317484656
 21
5.5935696024
 31
0.0
 11
7.1264623812
 21
5.5998364139
 31
0.0
  0
SPLINE
  5
2A2
100
AcDbEntity
  8
0
100
AcDbSpline
 62
6
  6
CONTINUOUS
 70
0
 71
3
 72
48
 73
44
 74
42
 42
0.0000001
 43
0.0000001
 44
0.0000000001
 12
0.0000351382
 22
0.1069272209
 32
0.0
 13
0.1064158748
 23
0.0104447785
 33
0.0
 40
0.0
 40
0.0
 40
0.0
 40
0.0
 40
0.0008227783
 40
0.0016874248
 40
0.0026301293
 40
0.0036789724
 40
0.0048543986
 40
0.0061709205
 40
0.0076387918
 40
0.0092650823
 40
0.011054721
 40
0.0130112308
 40
0.0151371476
 40
0.0174343006
 40
0.0225468541
 40
0.0283556087
 40
0.0348609673
 40
0.0420596778
 40
0.0499469864
 40
0.0585171095
 40
0.0677620476
 40
0.0776714383
 40
0.0882344382
 40
0.0994399275
 40
0.1237270431
 40
0.1504174076
 40
0.1793867726
 40
0.2104938876
 40
0.2435902817
 40
0.2785136291
 40
0.3150949326
 40
0.3531547076
 40
0.3925072131
 40
0.4329595509
 40
0.5163658873
 40
0.6017388889
 40
0.6874041459
 40
0.7716813847
 40
0.8529182251
 40
0.8918963597
 40
0.9295235945
 40
0.9656173565
 40
1.0
 40
1.0
 40
1.0
 40
1.0
 10
5.4888033154
 20
5.2899914061
 30
0.0
 10
5.488803325
 20
5.2900207319
 30
0.0
 10
5.4888104623
 20
5.2900810768
 30
0.0
 10
5.4888419311
 20
5.2901700561
 30
0.0
 10
5.4888936753
 20
5.2902583177
 30
0.0
 10
5.4889653241
 20
5.2903459969
 30
0.0
 10
5.4890567536
 20
5.2904333516
 30
0.0
 10
5.489167962
 20
5.2905205431
 30
0.0
 10
5.4892989756
 20
5.2906076618
 30
0.0
 10
5.4894497935
 20
5.2906947646
 30
0.0
 10
5.4896203956
 20
5.2907818783
 30
0.0
 10
5.4898107486
 20
5.2908690111
 30
0.0
 10
5.490020809
 20
5.2909561715
 30
0.0
 10
5.4903386162
 20
5.2910767588
 30
0.0
 10
5.4907856756
 20
5.2912260442
 30
0.0
 10
5.4913821719
 20
5.2913996168
 30
0.0
 10
5.4920556917
 20
5.2915733813
 30
0.0
 10
5.4928054066
 20
5.2917473264
 30
0.0
 10
5.4936304502
 20
5.2919214064
 30
0.0
 10
5.4945298709
 20
5.2920955784
 30
0.0
 10
5.4955025815
 20
5.2922698216
 30
0.0
 10
5.4965473577
 20
5.2924441393
 30
0.0
 10
5.4976629034
 20
5.2926185223
 30
0.0
 10
5.499286958
 20
5.2928575516
 30
0.0
 10
5.5014834579
 20
5.2931541193
 30
0.0
 10
5.5043117387
 20
5.293501602
 30
0.0
 10
5.507384746
 20
5.2938493294
 30
0.0
 10
5.5106873927
 20
5.2941973401
 30
0.0
 10
5.514203336
 20
5.2945454974
 30
0.0
 10
5.5179152752
 20
5.2948938213
 30
0.0
 10
5.5218048508
 20
5.2952422386
 30
0.0
 10
5.5258528884
 20
5.2955907532
 30
0.0
 10
5.5300393848
 20
5.2959393344
 30
0.0
 10
5.5358376409
 20
5.2964089591
 30
0.0
 10
5.5432723949
 20
5.2969913719
 30
0.0
 10
5.5523149491
 20
5.2976836914
 30
0.0
 10
5.5613886333
 20
5.2983760378
 30
0.0
 10
5.5703144777
 20
5.2990681869
 30
0.0
 10
5.577579652
 20
5.2996522804
 30
0.0
 10
5.5831857641
 20
5.3001235222
 30
0.0
 10
5.5871874938
 20
5.3004720233
 30
0.0
 10
5.5910247954
 20
5.3008204054
 30
0.0
 10
5.5935254235
 20
5.3010587532
 30
0.0
 10
5.5947450432
 20
5.3011784596
 30
0.0
 11
5.4888033154
 21
5.2899914061
 31
0.0
 11
5.4888133884
 21
5.2900788049
 31
0.0
 11
5.4888435418
 21
5.2901662038
 31
0.0
 11
5.4888937637
 21
5.2902536026
 31
0.0
 11
5.488964042
 21
5.2903410015
 31
0.0
 11
5.4890543646
 21
5.2904284003
 31
0.0
 11
5.4891647196
 21
5.2905157992
 31
0.0
 11
5.48929509
 21
5.290603198
 31
0.0
 11
5.4894454256
 21
5.2906905969
 31
0.0
 11
5.4896156623
 21
5.2907779957
 31
0.0
 11
5.4898057355
 21
5.2908653946
 31
0.0
 11
5.4900155809
 21
5.2909527934
 31
0.0
 11
5.4902451341
 21
5.2910401923
 31
0.0
 11
5.4907631062
 21
5.29121499
 31
0.0
 11
5.4913591166
 21
5.2913897876
 31
0.0
 11
5.4920323959
 21
5.2915645853
 31
0.0
 11
5.4927820242
 21
5.291739383
 31
0.0
 11
5.493607079
 21
5.2919141807
 31
0.0
 11
5.4945066329
 21
5.2920889784
 31
0.0
 11
5.4954795914
 21
5.2922637762
 31
0.0
 11
5.4965246576
 21
5.2924385739
 31
0.0
 11
5.497640522
 21
5.2926133716
 31
0.0
 11
5.498825875
 21
5.2927881693
 31
0.0
 11
5.5013991905
 21
5.2931377647
 31
0.0
 11
5.5042316242
 21
5.2934873601
 31
0.0
 11
5.5073094472
 21
5.2938369555
 31
0.0
 11
5.5106172218
 21
5.2941865509
 31
0.0
 11
5.5141388175
 21
5.2945361463
 31
0.0
 11
5.5178566739
 21
5.2948857417
 31
0.0
 11
5.5217525573
 21
5.2952353372
 31
0.0
 11
5.5258071399
 21
5.2955849326
 31
0.0
 11
5.5300004466
 21
5.295934528
 31
0.0
 11
5.5343117521
 21
5.2962841234
 31
0.0
 11
5.5432027103
 21
5.2969833143
 31
0.0
 11
5.5523045927
 21
5.2976825052
 31
0.0
 11
5.5614378171
 21
5.2983816961
 31
0.0
 11
5.5704221829
 21
5.2990808869
 31
0.0
 11
5.5790804275
 21
5.2997800778
 31
0.0
 11
5.5832335635
 21
5.3001296733
 31
0.0
 11
5.5872417222
 21
5.3004792687
 31
0.0
 11
5.5910852618
 21
5.3008288642
 31
0.0
 11
5.5947450432
 21
5.3011784596
 31
0.0
  0
SPLINE
  5
2A3
100
AcDbEntity
  8
0
100
AcDbSpline
 62
6
  6
CONTINUOUS
 70
0
 71
3
 72
22
 73
18
 74
16
 42
0.0000001
 43
0.0000001
 44
0.0000000001
 12
-1.2548018599
 22
0.0617524141
 32
0.0
 13
-1.1626459048
 23
0.4760205546
 33
0.0
 40
0.0
 40
0.0
 40
0.0
 40
0.0
 40
0.1343908814
 40
0.2004142832
 40
0.2656856196
 40
0.3302292852
 40
0.3940705087
 40
0.4572353606
 40
0.5197507577
 40
0.5816444637
 40
0.6429450875
 40
0.7036820759
 40
0.7638857025
 40
0.8235870528
 40
0.8828180026
 40
0.9416111933
 40
1.0
 40
1.0
 40
1.0
 40
1.0
 10
7.1264623812
 20
5.1225340865
 30
0.0
 10
7.0702510718
 20
5.125300407
 30
0.0
 10
6.986485163
 20
5.1309012689
 30
0.0
 10
6.8757194291
 20
5.141448978
 30
0.0
 10
6.7942348706
 20
5.1507829275
 30
0.0
 10
6.7138543562
 20
5.1615863665
 30
0.0
 10
6.6345773004
 20
5.1738594023
 30
0.0
 10
6.5564038746
 20
5.1876020778
 30
0.0
 10
6.4793340574
 20
5.2028144542
 30
0.0
 10
6.4033678857
 20
5.2194965888
 30
0.0
 10
6.3285053877
 20
5.23764854
 30
0.0
 10
6.2547466053
 20
5.2572703639
 30
0.0
 10
6.1820915725
 20
5.2783621204
 30
0.0
 10
6.1105403798
 20
5.3009238467
 30
0.0
 10
6.0400929405
 20
5.3249556521
 30
0.0
 10
5.970749853
 20
5.3504573629
 30
0.0
 10
5.9251074345
 20
5.3684977665
 30
0.0
 10
5.9024789322
 20
5.3777625239
 30
0.0
 11
7.1264623812
 21
5.1225340865
 31
0.0
 11
6.9580054236
 21
5.1338710994
 31
0.0
 11
6.875433269
 21
5.1417431639
 31
0.0
 11
6.7939653306
 21
5.1510842671
 31
0.0
 11
6.7136016085
 21
5.1618944089
 31
0.0
 11
6.6343421024
 21
5.1741735895
 31
0.0
 11
6.5561868126
 21
5.1879218088
 31
0.0
 11
6.479135739
 21
5.2031390668
 31
0.0
 11
6.4031888815
 21
5.2198253635
 31
0.0
 11
6.3283462402
 21
5.2379806989
 31
0.0
 11
6.2546078151
 21
5.2576050729
 31
0.0
 11
6.1819736062
 21
5.2786984857
 31
0.0
 11
6.1104436134
 21
5.3012609372
 31
0.0
 11
6.0400178368
 21
5.3252924274
 31
0.0
 11
5.9706962764
 21
5.3507929563
 31
0.0
 11
5.9024789322
 21
5.3777625239
 31
0.0
  0
SPLINE
  5
2A4
100
AcDbEntity
  8
0
100
AcDbSpline
 62
6
  6
CONTINUOUS
 70
0
 71
3
 72
23
 73
19
 74
17
 42
0.0000001
 43
0.0000001
 44
0.0000000001
 12
-1.2323921796
 22
0.0313945272
 32
0.0
 13
-1.2060045514
 23
0.2555956232
 33
0.0
 40
0.0
 40
0.0
 40
0.0
 40
0.0
 40
0.0688024002
 40
0.1367311251
 40
0.20379243
 40
0.2699928158
 40
0.3353390407
 40
0.3998381312
 40
0.4634973943
 40
0.5263244301
 40
0.5883271447
 40
0.6495137638
 40
0.7098928466
 40
0.7694733003
 40
0.8282643951
 40
0.8862757796
 40
0.9435174967
 40
1.0
 40
1.0
 40
1.0
 40
1.0
 10
7.1264623812
 20
5.3527665487
 30
0.0
 10
7.0981985345
 20
5.353486555
 30
0.0
 10
7.0420359346
 20
5.3551751059
 30
0.0
 10
6.9583555666
 20
5.3584845622
 30
0.0
 10
6.8757791368
 20
5.3625544026
 30
0.0
 10
6.7943067288
 20
5.3673846291
 30
0.0
 10
6.7139383083
 20
5.3729752475
 30
0.0
 10
6.6346738717
 20
5.3793262631
 30
0.0
 10
6.556513407
 20
5.3864376825
 30
0.0
 10
6.4794569041
 20
5.394309513
 30
0.0
 10
6.4035043521
 20
5.4029417627
 30
0.0
 10
6.3286557397
 20
5.4123344407
 30
0.0
 10
6.254911057
 20
5.4224875569
 30
0.0
 10
6.182270289
 20
5.4334011234
 30
0.0
 10
6.1107334379
 20
5.4450751495
 30
0.0
 10
6.0403004431
 20
5.4575096597
 30
0.0
 10
5.9709714754
 20
5.4707046301
 30
0.0
 10
5.9251849842
 20
5.4800702827
 30
0.0
 10
5.9024789322
 20
5.4848825096
 30
0.0
 11
7.1264623812
 21
5.3527665487
 31
0.0
 11
7.0416817943
 21
5.3553205683
 31
0.0
 11
6.9580054236
 21
5.3586350184
 31
0.0
 11
6.875433269
 21
5.3627098988
 31
0.0
 11
6.7939653306
 21
5.3675452096
 31
0.0
 11
6.7136016085
 21
5.3731409508
 31
0.0
 11
6.6343421024
 21
5.3794971224
 31
0.0
 11
6.5561868126
 21
5.3866137244
 31
0.0
 11
6.479135739
 21
5.3944907567
 31
0.0
 11
6.4031888815
 21
5.4031282195
 31
0.0
 11
6.3283462402
 21
5.4125261126
 31
0.0
 11
6.2546078151
 21
5.4226844361
 31
0.0
 11
6.1819736062
 21
5.4336031901
 31
0.0
 11
6.1104436134
 21
5.4452823743
 31
0.0
 11
6.0400178368
 21
5.457721989
 31
0.0
 11
5.9706962764
 21
5.4709220341
 31
0.0
 11
5.9024789322
 21
5.4848825096
 31
0.0
  0
SPLINE
  5
2A5
100
AcDbEntity
  8
0
100
AcDbSpline
 62
6
  6
CONTINUOUS
 70
0
 71
3
 72
23
 73
19
 74
17
 42
0.0000001
 43
0.0000001
 44
0.0000000001
 12
-1.2323921796
 22
-0.0313945272
 32
0.0
 13
-1.2060045514
 23
-0.2555956232
 33
0.0
 40
0.0
 40
0.0
 40
0.0
 40
0.0
 40
0.0688024002
 40
0.1367311251
 40
0.20379243
 40
0.2699928158
 40
0.3353390407
 40
0.3998381312
 40
0.4634973943
 40
0.5263244301
 40
0.5883271447
 40
0.6495137638
 40
0.7098928466
 40
0.7694733003
 40
0.8282643951
 40
0.8862757796
 40
0.9435174967
 40
1.0
 40
1.0
 40
1.0
 40
1.0
 10
7.1264623812
 20
5.846906279
 30
0.0
 10
7.0981985345
 20
5.8461862727
 30
0.0
 10
7.0420359346
 20
5.8444977218
 30
0.0
 10
6.9583555666
 20
5.8411882655
 30
0.0
 10
6.8757791368
 20
5.8371184251
 30
0.0
 10
6.7943067288
 20
5.8322881986
 30
0.0
 10
6.7139383083
 20
5.8266975803
 30
0.0
 10
6.6346738717
 20
5.8203465646
 30
0.0
 10
6.556513407
 20
5.8132351452
 30
0.0
 10
6.4794569041
 20
5.8053633147
 30
0.0
 10
6.4035043521
 20
5.796731065
 30
0.0
 10
6.3286557397
 20
5.787338387
 30
0.0
 10
6.254911057
 20
5.7771852708
 30
0.0
 10
6.182270289
 20
5.7662717044
 30
0.0
 10
6.1107334379
 20
5.7545976782
 30
0.0
 10
6.0403004431
 20
5.742163168
 30
0.0
 10
5.9709714754
 20
5.7289681976
 30
0.0
 10
5.9251849842
 20
5.719602545
 30
0.0
 10
5.9024789322
 20
5.7147903181
 30
0.0
 11
7.1264623812
 21
5.846906279
 31
0.0
 11
7.0416817943
 21
5.8443522594
 31
0.0
 11
6.9580054236
 21
5.8410378093
 31
0.0
 11
6.875433269
 21
5.8369629289
 31
0.0
 11
6.7939653306
 21
5.8321276181
 31
0.0
 11
6.7136016085
 21
5.8265318769
 31
0.0
 11
6.6343421024
 21
5.8201757053
 31
0.0
 11
6.5561868126
 21
5.8130591033
 31
0.0
 11
6.479135739
 21
5.805182071
 31
0.0
 11
6.4031888815
 21
5.7965446082
 31
0.0
 11
6.3283462402
 21
5.7871467151
 31
0.0
 11
6.2546078151
 21
5.7769883916
 31
0.0
 11
6.1819736062
 21
5.7660696377
 31
0.0
 11
6.1104436134
 21
5.7543904534
 31
0.0
 11
6.0400178368
 21
5.7419508387
 31
0.0
 11
5.9706962764
 21
5.7287507936
 31
0.0
 11
5.9024789322
 21
5.7147903181
 31
0.0
  0
SPLINE
  5
2A6
100
AcDbEntity
  8
0
100
AcDbSpline
 62
6
  6
CONTINUOUS
 70
0
 71
3
 72
22
 73
18
 74
16
 42
0.0000001
 43
0.0000001
 44
0.0000000001
 12
-1.2548018599
 22
-0.0617524141
 32
0.0
 13
-1.1626459048
 23
-0.4760205546
 33
0.0
 40
0.0
 40
0.0
 40
0.0
 40
0.0
 40
0.1343908814
 40
0.2004142832
 40
0.2656856196
 40
0.3302292852
 40
0.3940705087
 40
0.4572353606
 40
0.5197507577
 40
0.5816444637
 40
0.6429450875
 40
0.7036820759
 40
0.7638857025
 40
0.8235870528
 40
0.8828180026
 40
0.9416111933
 40
1.0
 40
1.0
 40
1.0
 40
1.0
 10
7.1264623812
 20
6.0771387412
 30
0.0
 10
7.0702510718
 20
6.0743724207
 30
0.0
 10
6.986485163
 20
6.0687715589
 30
0.0
 10
6.8757194291
 20
6.0582238497
 30
0.0
 10
6.7942348706
 20
6.0488899002
 30
0.0
 10
6.7138543562
 20
6.0380864612
 30
0.0
 10
6.6345773004
 20
6.0258134254
 30
0.0
 10
6.5564038746
 20
6.0120707499
 30
0.0
 10
6.4793340574
 20
5.9968583735
 30
0.0
 10
6.4033678857
 20
5.9801762389
 30
0.0
 10
6.3285053877
 20
5.9620242877
 30
0.0
 10
6.2547466053
 20
5.9424024638
 30
0.0
 10
6.1820915725
 20
5.9213107073
 30
0.0
 10
6.1105403798
 20
5.898748981
 30
0.0
 10
6.0400929405
 20
5.8747171756
 30
0.0
 10
5.970749853
 20
5.8492154648
 30
0.0
 10
5.9251074345
 20
5.8311750612
 30
0.0
 10
5.9024789322
 20
5.8219103038
 30
0.0
 11
7.1264623812
 21
6.0771387412
 31
0.0
 11
6.9580054236
 21
6.0658017283
 31
0.0
 11
6.875433269
 21
6.0579296638
 31
0.0
 11
6.7939653306
 21
6.0485885607
 31
0.0
 11
6.7136016085
 21
6.0377784188
 31
0.0
 11
6.6343421024
 21
6.0254992382
 31
0.0
 11
6.5561868126
 21
6.0117510189
 31
0.0
 11
6.479135739
 21
5.9965337609
 31
0.0
 11
6.4031888815
 21
5.9798474642
 31
0.0
 11
6.3283462402
 21
5.9616921289
 31
0.0
 11
6.2546078151
 21
5.9420677548
 31
0.0
 11
6.1819736062
 21
5.920974342
 31
0.0
 11
6.1104436134
 21
5.8984118905
 31
0.0
 11
6.0400178368
 21
5.8743804003
 31
0.0
 11
5.9706962764
 21
5.8488798714
 31
0.0
 11
5.9024789322
 21
5.8219103038
 31
0.0
  0
SPLINE
  5
2A7
100
AcDbEntity
  8
0
100
AcDbSpline
 62
6
  6
CONTINUOUS
 70
0
 71
3
 72
27
 73
23
 74
21
 42
0.0000001
 43
0.0000001
 44
0.0000000001
 12
-0.0747793053
 22
-0.0144792771
 32
0.0
 13
-0.076096735
 23
-0.0032986183
 33
0.0
 40
0.0
 40
0.0
 40
0.0
 40
0.0
 40
0.0048450676
 40
0.0101294159
 40
0.0220107994
 40
0.0356324713
 40
0.0509787832
 40
0.0680256238
 40
0.0867460355
 40
0.1071120306
 40
0.1290893272
 40
0.1526395895
 40
0.1777241084
 40
0.2323178648
 40
0.2924837999
 40
0.3577876664
 40
0.427752938
 40
0.5018564628
 40
0.5795423224
 40
0.6602206063
 40
0.8280195089
 40
1.0
 40
1.0
 40
1.0
 40
1.0
 10
5.6299119784
 20
5.2899886615
 30
0.0
 10
5.6297912081
 20
5.2899652772
 30
0.0
 10
5.629538253
 20
5.2899187745
 30
0.0
 10
5.6289871496
 20
5.2898260091
 30
0.0
 10
5.628213868
 20
5.2897112854
 30
0.0
 10
5.6271853053
 20
5.2895778733
 30
0.0
 10
5.6260246749
 20
5.2894440425
 30
0.0
 10
5.6247338739
 20
5.2893097935
 30
0.0
 10
5.6233150403
 20
5.2891751771
 30
0.0
 10
5.6217705409
 20
5.289040242
 30
0.0
 10
5.6201030097
 20
5.2889049969
 30
0.0
 10
5.6183153368
 20
5.2887694381
 30
0.0
 10
5.6157010576
 20
5.2885830166
 30
0.0
 10
5.6121580322
 20
5.2883513559
 30
0.0
 10
5.6075944154
 20
5.2880792376
 30
0.0
 10
5.6026399603
 20
5.2878058526
 30
0.0
 10
5.5973312029
 20
5.2875312673
 30
0.0
 10
5.5917077375
 20
5.2872555098
 30
0.0
 10
5.5858120188
 20
5.2869786148
 30
0.0
 10
5.5775394547
 20
5.2866030232
 30
0.0
 10
5.5668744711
 20
5.2861367346
 30
0.0
 10
5.5582556472
 20
5.2857659988
 30
0.0
 10
5.5538932626
 20
5.2855768995
 30
0.0
 11
5.6299119784
 21
5.2899886615
 31
0.0
 11
5.629549071
 21
5.2899216633
 31
0.0
 11
5.6291521968
 21
5.2898546068
 31
0.0
 11
5.6282572321
 21
5.2897203186
 31
0.0
 11
5.6272284517
 21
5.289585796
 31
0.0
 11
5.6260673446
 21
5.2894510382
 31
0.0
 11
5.6247759541
 21
5.2893160441
 31
0.0
 11
5.6233564812
 21
5.2891808128
 31
0.0
 11
5.6218111667
 21
5.289045343
 31
0.0
 11
5.6201427058
 21
5.2889096333
 31
0.0
 11
5.6183540842
 21
5.2887736819
 31
0.0
 11
5.616448302
 21
5.2886374871
 31
0.0
 11
5.6122989735
 21
5.288364361
 31
0.0
 11
5.6077244483
 21
5.2880902446
 31
0.0
 11
5.6027579848
 21
5.2878151282
 31
0.0
 11
5.5974360148
 21
5.287539003
 31
0.0
 11
5.5917984911
 21
5.2872618607
 31
0.0
 11
5.5858878416
 21
5.2869836869
 31
0.0
 11
5.5797490695
 21
5.286704461
 31
0.0
 11
5.5669804746
 21
5.2861428549
 31
0.0
 11
5.5538932626
 21
5.2855768995
 31
0.0
  0
SPLINE
  5
2A8
100
AcDbEntity
  8
0
100
AcDbSpline
 62
6
  6
CONTINUOUS
 70
0
 71
3
 72
22
 73
18
 74
16
 42
0.0000001
 43
0.0000001
 44
0.0000000001
 12
0.03960493
 22
-0.0186347683
 32
0.0
 13
0.0437699106
 23
0.0
 33
0.0
 40
0.0
 40
0.0
 40
0.0
 40
0.0
 40
0.0556038324
 40
0.1124602548
 40
0.170510621
 40
0.2296924022
 40
0.2899400102
 40
0.3511846765
 40
0.4133514777
 40
0.4763618582
 40
0.540135261
 40
0.6045896597
 40
0.6696417369
 40
0.7351936998
 40
0.8011274564
 40
0.8673223156
 40
1.0
 40
1.0
 40
1.0
 40
1.0
 10
7.3153114839
 20
4.9929368656
 30
0.0
 10
7.3160455458
 20
4.9925914774
 30
0.0
 10
7.3175427902
 20
4.9919193738
 30
0.0
 10
7.3198456528
 20
4.9909771488
 30
0.0
 10
7.3222264843
 20
4.9900910718
 30
0.0
 10
7.3246803481
 20
4.9892629968
 30
0.0
 10
7.3272023413
 20
4.9884947548
 30
0.0
 10
7.329787472
 20
4.9877882267
 30
0.0
 10
7.332430455
 20
4.9871445677
 30
0.0
 10
7.3351259465
 20
4.9865649231
 30
0.0
 10
7.337868588
 20
4.9860504576
 30
0.0
 10
7.3406530105
 20
4.9856023089
 30
0.0
 10
7.3434736548
 20
4.985221742
 30
0.0
 10
7.3463243874
 20
4.9849096263
 30
0.0
 10
7.3491985596
 20
4.9846661724
 30
0.0
 10
7.3530553141
 20
4.9844335233
 30
0.0
 10
7.3559574991
 20
4.984363407
 30
0.0
 10
7.3578932626
 20
4.984363407
 30
0.0
 11
7.3153114839
 21
4.9929368656
 31
0.0
 11
7.3175313962
 21
4.991939244
 31
0.0
 11
7.3198343186
 21
4.990996015
 31
0.0
 11
7.3222153281
 21
4.9901090202
 31
0.0
 11
7.3246695017
 21
4.9892801008
 31
0.0
 11
7.3271919162
 21
4.9885110984
 31
0.0
 11
7.3297775842
 21
4.9878037569
 31
0.0
 11
7.332421217
 21
4.9871593667
 31
0.0
 11
7.3351174386
 21
4.9865790862
 31
0.0
 11
7.3378608728
 21
4.9860640736
 31
0.0
 11
7.3406461434
 21
4.9856154871
 31
0.0
 11
7.3434678599
 21
4.9852344781
 31
0.0
 11
7.3463199843
 21
4.9849218839
 31
0.0
 11
7.3491955845
 21
4.9846781079
 31
0.0
 11
7.3520876628
 21
4.9845035219
 31
0.0
 11
7.3578932626
 21
4.984363407
 31
0.0
  0
SPLINE
  5
2A9
100
AcDbEntity
  8
0
100
AcDbSpline
 62
6
  6
CONTINUOUS
 70
0
 71
3
 72
23
 73
19
 74
17
 42
0.0000001
 43
0.0000001
 44
0.0000000001
 12
0.0472696309
 22
-0.0305394868
 32
0.0
 13
0.0562768004
 23
0.0
 33
0.0
 40
0.0
 40
0.0
 40
0.0
 40
0.0
 40
0.0469266796
 40
0.0965236447
 40
0.1487303669
 40
0.2034656747
 40
0.2606284238
 40
0.3200785002
 40
0.3816553615
 40
0.4451898455
 40
0.5105048442
 40
0.5774077567
 40
0.6456974534
 40
0.7151693752
 40
0.7856087139
 40
0.8567504555
 40
0.9283096017
 40
1.0
 40
1.0
 40
1.0
 40
1.0
 10
7.303624906
 20
5.1396205356
 30
0.0
 10
7.3043643082
 20
5.13914283
 30
0.0
 10
7.3059177569
 20
5.1382100283
 30
0.0
 10
7.3083881246
 20
5.1369106566
 30
0.0
 10
7.3110540946
 20
5.1356767552
 30
0.0
 10
7.3139053293
 20
5.1345134395
 30
0.0
 10
7.3169310546
 20
5.13342604
 30
0.0
 10
7.3201189388
 20
5.1324181466
 30
0.0
 10
7.3234560698
 20
5.1314934711
 30
0.0
 10
7.32692932
 20
5.1306558115
 30
0.0
 10
7.3305253073
 20
5.1299091052
 30
0.0
 10
7.334229997
 20
5.1292557994
 30
0.0
 10
7.3380291029
 20
5.1286982533
 30
0.0
 10
7.3419081161
 20
5.1282388644
 30
0.0
 10
7.3458514419
 20
5.1278802265
 30
0.0
 10
7.3498419058
 20
5.1276230814
 30
0.0
 10
7.353861092
 20
5.1274681289
 30
0.0
 10
7.3565484272
 20
5.1274334619
 30
0.0
 10
7.3578932626
 20
5.1274334619
 30
0.0
 11
7.303624906
 21
5.1396205356
 31
0.0
 11
7.3058865475
 21
5.1382569951
 31
0.0
 11
7.3083549499
 21
5.1369540924
 31
0.0
 11
7.3110197924
 21
5.1357169105
 31
0.0
 11
7.3138707542
 21
5.1345505328
 31
0.0
 11
7.3168971663
 21
5.1334598857
 31
0.0
 11
7.3200864679
 21
5.1324490463
 31
0.0
 11
7.3234254594
 21
5.1315218043
 31
0.0
 11
7.3269009406
 21
5.1306819495
 31
0.0
 11
7.3304995726
 21
5.1299331111
 31
0.0
 11
7.3342072228
 21
5.1292779999
 31
0.0
 11
7.3380094766
 21
5.1287189999
 31
0.0
 11
7.3418919187
 21
5.1282584949
 31
0.0
 11
7.3458396566
 21
5.1278986909
 31
0.0
 11
7.3498349678
 21
5.1276407404
 31
0.0
 11
7.3538590908
 21
5.1274854091
 31
0.0
 11
7.3578932626
 21
5.1274334619
 31
0.0
  0
SPLINE
  5
2AA
100
AcDbEntity
  8
0
100
AcDbSpline
 62
6
  6
CONTINUOUS
 70
0
 71
3
 72
29
 73
25
 74
23
 42
0.0000001
 43
0.0000001
 44
0.0000000001
 12
0.049554809
 22
-0.0373746672
 32
0.0
 13
0.0620688718
 23
0.0
 33
0.0
 40
0.0
 40
0.0
 40
0.0
 40
0.0
 40
0.0174677841
 40
0.035999681
 40
0.0556097747
 40
0.0763056246
 40
0.0980896574
 40
0.1209599037
 40
0.1449052503
 40
0.1699066717
 40
0.1959424669
 40
0.2229889143
 40
0.2510206677
 40
0.2800110686
 40
0.340746451
 40
0.4049107201
 40
0.472185009
 40
0.5422411541
 40
0.6147302385
 40
0.6892839589
 40
0.7655296769
 40
0.8430582771
 40
0.9213817285
 40
1.0
 40
1.0
 40
1.0
 40
1.0
 10
7.2976602122
 20
5.2913092013
 30
0.0
 10
7.2979487498
 20
5.2910915838
 30
0.0
 10
7.2985565843
 20
5.2906603909
 30
0.0
 10
7.299527479
 20
5.2900423086
 30
0.0
 10
7.3005828271
 20
5.2894348227
 30
0.0
 10
7.3017211697
 20
5.2888388332
 30
0.0
 10
7.3029410834
 20
5.2882552032
 30
0.0
 10
7.3042410234
 20
5.2876849175
 30
0.0
 10
7.3056190942
 20
5.2871287553
 30
0.0
 10
7.307073121
 20
5.2865873971
 30
0.0
 10
7.308600853
 20
5.2860616167
 30
0.0
 10
7.310200024
 20
5.2855521775
 30
0.0
 10
7.3118683699
 20
5.2850598405
 30
0.0
 10
7.3142186003
 20
5.2844172429
 30
0.0
 10
7.3173133427
 20
5.2836657682
 30
0.0
 10
7.3212066916
 20
5.282856195
 30
0.0
 10
7.3253123757
 20
5.2821299072
 30
0.0
 10
7.3296068197
 20
5.281491788
 30
0.0
 10
7.3340656364
 20
5.2809455303
 30
0.0
 10
7.3386636748
 20
5.280493789
 30
0.0
 10
7.3433748059
 20
5.2801396908
 30
0.0
 10
7.3481704862
 20
5.2798857818
 30
0.0
 10
7.3530195121
 20
5.2797326084
 30
0.0
 10
7.3562666801
 20
5.2796983029
 30
0.0
 10
7.3578932626
 20
5.2796983029
 30
0.0
 11
7.2976602122
 21
5.2913092013
 31
0.0
 11
7.2985434877
 21
5.2906804515
 31
0.0
 11
7.299512954
 21
5.2900614045
 31
0.0
 11
7.3005671421
 21
5.2894529591
 31
0.0
 11
7.3017045827
 21
5.2888560136
 31
0.0
 11
7.3029238069
 21
5.2882714669
 31
0.0
 11
7.3042233206
 21
5.2877002133
 31
0.0
 11
7.3056012063
 21
5.2871430763
 31
0.0
 11
7.3070551914
 21
5.2866008202
 31
0.0
 11
7.308582992
 21
5.286074207
 31
0.0
 11
7.3101823244
 21
5.2855639991
 31
0.0
 11
7.3118509049
 21
5.2850709588
 31
0.0
 11
7.3135864497
 21
5.2845958482
 31
0.0
 11
7.3172488004
 21
5.2837023141
 31
0.0
 11
7.3211473375
 21
5.2828883476
 31
0.0
 11
7.3252586973
 21
5.2821584959
 31
0.0
 11
7.3295594634
 21
5.2815172668
 31
0.0
 11
7.3340251689
 21
5.2809683444
 31
0.0
 11
7.3386303367
 21
5.2805146203
 31
0.0
 11
7.3433494383
 21
5.2801589517
 31
0.0
 11
7.3481547738
 21
5.2799036476
 31
0.0
 11
7.3530137868
 21
5.2797497921
 31
0.0
 11
7.3578932626
 21
5.2796983029
 31
0.0
  0
SPLINE
  5
2AB
100
AcDbEntity
  8
0
100
AcDbSpline
 62
6
  6
CONTINUOUS
 70
0
 71
3
 72
10
 73
6
 74
4
 42
0.0000001
 43
0.0000001
 44
0.0000000001
 12
0.0494096065
 22
0.0337626958
 32
0.0
 13
0.0498392745
 23
0.03312515
 33
0.0
 40
0.0
 40
0.0
 40
0.0
 40
0.0
 40
0.2485224615
 40
0.4981944769
 40
1.0
 40
1.0
 40
1.0
 40
1.0
 10
5.8528932626
 20
5.9509767184
 30
0.0
 10
5.8569863949
 20
5.9537736478
 30
0.0
 10
5.8651945486
 20
5.9593761305
 30
0.0
 10
5.881696445
 20
5.9705833592
 30
0.0
 10
5.8941423911
 20
5.9789388799
 30
0.0
 10
5.9024789322
 20
5.9844796743
 30
0.0
 11
5.8528932626
 21
5.9509767184
 31
0.0
 11
5.8651788438
 21
5.9593584493
 31
0.0
 11
5.8775407469
 21
5.9677503052
 31
0.0
 11
5.9024789322
 21
5.9844796743
 31
0.0
  0
SPLINE
  5
2AC
100
AcDbEntity
  8
0
100
AcDbSpline
 62
6
  6
CONTINUOUS
 70
0
 71
3
 72
36
 73
32
 74
30
 42
0.0000001
 43
0.0000001
 44
0.0000000001
 12
0.0496642688
 22
-0.0405164458
 32
0.0
 13
0.064094633
 23
-0.0
 33
0.0
 40
0.0
 40
0.0
 40
0.0
 40
0.0
 40
0.0049376344
 40
0.0102492832
 40
0.015946999
 40
0.0220401484
 40
0.0285360189
 40
0.0354402733
 40
0.0427565944
 40
0.0504861713
 40
0.067184042
 40
0.0855285716
 40
0.1055057199
 40
0.1270964068
 40
0.1502780389
 40
0.1750210731
 40
0.2012819744
 40
0.2290136147
 40
0.2581676811
 40
0.2886949653
 40
0.3536645695
 40
0.387990047
 40
0.4234550229
 40
0.4599931908
 40
0.4975379819
 40
0.5753770992
 40
0.6564060082
 40
0.7400374043
 40
0.8256676911
 40
0.9125790567
 40
1.0
 40
1.0
 40
1.0
 40
1.0
 10
7.2946808112
 20
5.4456180993
 30
0.0
 10
7.2947625526
 20
5.4455514142
 30
0.0
 10
7.2949368687
 20
5.4454186258
 30
0.0
 10
7.2952190166
 20
5.4452274017
 30
0.0
 10
7.295531083
 20
5.4450370905
 30
0.0
 10
7.2958729612
 20
5.4448477805
 30
0.0
 10
7.2962445616
 20
5.4446595491
 30
0.0
 10
7.2966457731
 20
5.4444724956
 30
0.0
 10
7.2970764302
 20
5.4442867115
 30
0.0
 10
7.2977059547
 20
5.4440342409
 30
0.0
 10
7.2985659126
 20
5.4437242578
 30
0.0
 10
7.2996861471
 20
5.443367407
 30
0.0
 10
7.3009175963
 20
5.4430174712
 30
0.0
 10
7.3022580856
 20
5.4426751612
 30
0.0
 10
7.3037053661
 20
5.4423412335
 30
0.0
 10
7.305256794
 20
5.4420164396
 30
0.0
 10
7.306909264
 20
5.4417012779
 30
0.0
 10
7.3086593839
 20
5.4413963571
 30
0.0
 10
7.3105037121
 20
5.4411022694
 30
0.0
 10
7.313138965
 20
5.4407173746
 30
0.0
 10
7.31589065
 20
5.4403668908
 30
0.0
 10
7.3187518869
 20
5.4400461529
 30
0.0
 10
7.3210118025
 20
5.4398147212
 30
0.0
 10
7.3233421803
 20
5.4395972023
 30
0.0
 10
7.3265764092
 20
5.4393230239
 30
0.0
 10
7.3307619687
 20
5.4390199004
 30
0.0
 10
7.3359345213
 20
5.4387217829
 30
0.0
 10
7.3412769637
 20
5.4384872341
 30
0.0
 10
7.3467476254
 20
5.4383187296
 30
0.0
 10
7.3523008969
 20
5.4382170681
 30
0.0
 10
7.3560255248
 20
5.4381942682
 30
0.0
 10
7.3578932626
 20
5.4381942682
 30
0.0
 11
7.2946808112
 21
5.4456180993
 31
0.0
 11
7.2949321375
 21
5.4454257661
 31
0.0
 11
7.2952136056
 21
5.4452342442
 31
0.0
 11
7.2955251028
 21
5.4450436255
 31
0.0
 11
7.2958665162
 21
5.4448540024
 31
0.0
 11
7.2962377332
 21
5.4446654669
 31
0.0
 11
7.2966386407
 21
5.4444781112
 31
0.0
 11
7.2970690753
 21
5.4442920255
 31
0.0
 11
7.2975287713
 21
5.4441072962
 31
0.0
 11
7.2985348346
 21
5.4437422503
 31
0.0
 11
7.2996546052
 21
5.4433836609
 31
0.0
 11
7.3008858574
 21
5.4430322155
 31
0.0
 11
7.3022263655
 21
5.4426886012
 31
0.0
 11
7.3036739037
 21
5.4423535054
 31
0.0
 11
7.3052259489
 21
5.4420275904
 31
0.0
 11
7.3068791761
 21
5.4417114505
 31
0.0
 11
7.3086301254
 21
5.4414056687
 31
0.0
 11
7.3104753372
 21
5.4411108282
 31
0.0
 11
7.3124113519
 21
5.4408275119
 31
0.0
 11
7.3165417196
 21
5.4402977487
 31
0.0
 11
7.3187280641
 21
5.4400523005
 31
0.0
 11
7.3209893179
 21
5.4398203929
 31
0.0
 11
7.3233210561
 21
5.4396024606
 31
0.0
 11
7.3257188539
 21
5.4393989382
 31
0.0
 11
7.3306947628
 21
5.4390367965
 31
0.0
 11
7.3358795998
 21
5.4387366354
 31
0.0
 11
7.3412347263
 21
5.4385006497
 31
0.0
 11
7.3467205426
 21
5.4383309069
 31
0.0
 11
7.3522901542
 21
5.4382285448
 31
0.0
 11
7.3578932626
 21
5.4381942682
 31
0.0
  0
LINE
  5
2AD
100
AcDbEntity
  8
0
100
AcDbLine
 62
6
  6
CONTINUOUS
 10
7.2937672708
 20
5.5998364139
 11
7.3578932626
 21
5.5998364139
  0
SPLINE
  5
2AE
100
AcDbEntity
  8
0
100
AcDbSpline
 62
6
  6
CONTINUOUS
 70
0
 71
3
 72
36
 73
32
 74
30
 42
0.0000001
 43
0.0000001
 44
0.0000000001
 12
0.0496642689
 22
0.0405164457
 32
0.0
 13
0.064094633
 23
0.0
 33
0.0
 40
0.0
 40
0.0
 40
0.0
 40
0.0
 40
0.0049376344
 40
0.0102492832
 40
0.015946999
 40
0.0220401484
 40
0.028536019
 40
0.0354402734
 40
0.0427565944
 40
0.0504861713
 40
0.0671840421
 40
0.0855285717
 40
0.10550572
 40
0.1270964069
 40
0.150278039
 40
0.1750210731
 40
0.2012819745
 40
0.2290136148
 40
0.2581676811
 40
0.2886949653
 40
0.3536645694
 40
0.387990047
 40
0.4234550229
 40
0.4599931908
 40
0.4975379819
 40
0.5753770991
 40
0.6564060081
 40
0.7400374042
 40
0.825667691
 40
0.9125790567
 40
1.0
 40
1.0
 40
1.0
 40
1.0
 10
7.2946808112
 20
5.7540547284
 30
0.0
 10
7.2947625526
 20
5.7541214135
 30
0.0
 10
7.2949368687
 20
5.7542542019
 30
0.0
 10
7.2952190166
 20
5.754445426
 30
0.0
 10
7.295531083
 20
5.7546357373
 30
0.0
 10
7.2958729612
 20
5.7548250472
 30
0.0
 10
7.2962445616
 20
5.7550132786
 30
0.0
 10
7.2966457732
 20
5.7552003321
 30
0.0
 10
7.2970764302
 20
5.7553861162
 30
0.0
 10
7.2977059547
 20
5.7556385868
 30
0.0
 10
7.2985659126
 20
5.7559485699
 30
0.0
 10
7.2996861471
 20
5.7563054207
 30
0.0
 10
7.3009175963
 20
5.7566553565
 30
0.0
 10
7.3022580856
 20
5.7569976665
 30
0.0
 10
7.3037053661
 20
5.7573315942
 30
0.0
 10
7.3052567941
 20
5.7576563881
 30
0.0
 10
7.3069092641
 20
5.7579715498
 30
0.0
 10
7.3086593839
 20
5.7582764706
 30
0.0
 10
7.3105037121
 20
5.7585705583
 30
0.0
 10
7.313138965
 20
5.7589554531
 30
0.0
 10
7.31589065
 20
5.7593059369
 30
0.0
 10
7.3187518869
 20
5.7596266748
 30
0.0
 10
7.3210118025
 20
5.7598581065
 30
0.0
 10
7.3233421803
 20
5.7600756254
 30
0.0
 10
7.3265764092
 20
5.7603498038
 30
0.0
 10
7.3307619687
 20
5.7606529273
 30
0.0
 10
7.3359345213
 20
5.7609510449
 30
0.0
 10
7.3412769637
 20
5.7611855936
 30
0.0
 10
7.3467476254
 20
5.7613540981
 30
0.0
 10
7.3523008969
 20
5.7614557596
 30
0.0
 10
7.3560255248
 20
5.7614785596
 30
0.0
 10
7.3578932626
 20
5.7614785596
 30
0.0
 11
7.2946808112
 21
5.7540547284
 31
0.0
 11
7.2949321375
 21
5.7542470616
 31
0.0
 11
7.2952136056
 21
5.7544385836
 31
0.0
 11
7.2955251028
 21
5.7546292022
 31
0.0
 11
7.2958665162
 21
5.7548188253
 31
0.0
 11
7.2962377332
 21
5.7550073608
 31
0.0
 11
7.2966386407
 21
5.7551947165
 31
0.0
 11
7.2970690753
 21
5.7553808022
 31
0.0
 11
7.2975287713
 21
5.7555655316
 31
0.0
 11
7.2985348346
 21
5.7559305774
 31
0.0
 11
7.2996546052
 21
5.7562891668
 31
0.0
 11
7.3008858574
 21
5.7566406123
 31
0.0
 11
7.3022263656
 21
5.7569842265
 31
0.0
 11
7.3036739037
 21
5.7573193223
 31
0.0
 11
7.3052259489
 21
5.7576452373
 31
0.0
 11
7.3068791761
 21
5.7579613773
 31
0.0
 11
7.3086301254
 21
5.758267159
 31
0.0
 11
7.3104753372
 21
5.7585619995
 31
0.0
 11
7.3124113519
 21
5.7588453158
 31
0.0
 11
7.3165417196
 21
5.759375079
 31
0.0
 11
7.3187280641
 21
5.7596205272
 31
0.0
 11
7.3209893179
 21
5.7598524348
 31
0.0
 11
7.3233210561
 21
5.7600703672
 31
0.0
 11
7.3257188539
 21
5.7602738895
 31
0.0
 11
7.3306947628
 21
5.7606360312
 31
0.0
 11
7.3358795997
 21
5.7609361923
 31
0.0
 11
7.3412347263
 21
5.761172178
 31
0.0
 11
7.3467205426
 21
5.7613419209
 31
0.0
 11
7.3522901542
 21
5.7614442829
 31
0.0
 11
7.3578932626
 21
5.7614785596
 31
0.0
  0
SPLINE
  5
2AF
100
AcDbEntity
  8
0
100
AcDbSpline
 62
6
  6
CONTINUOUS
 70
0
 71
3
 72
9
 73
5
 74
3
 42
0.0000001
 43
0.0000001
 44
0.0000000001
 12
-0.0502371482
 22
-0.0357337719
 32
0.0
 13
-0.0488324207
 23
-0.0376306816
 33
0.0
 40
0.0
 40
0.0
 40
0.0
 40
0.0
 40
0.4994384963
 40
1.0
 40
1.0
 40
1.0
 40
1.0
 10
5.9024789322
 20
5.9844796743
 30
0.0
 10
5.8941154769
 20
5.9785307339
 30
0.0
 10
5.8774660416
 20
5.9664835097
 30
0.0
 10
5.8610411392
 20
5.954130708
 30
0.0
 10
5.8528932626
 20
5.9478518845
 30
0.0
 11
5.9024789322
 21
5.9844796743
 31
0.0
 11
5.8775407463
 21
5.9664208159
 31
0.0
 11
5.8528932626
 21
5.9478518845
 31
0.0
  0
SPLINE
  5
2B0
100
AcDbEntity
  8
0
100
AcDbSpline
 62
6
  6
CONTINUOUS
 70
0
 71
3
 72
29
 73
25
 74
23
 42
0.0000001
 43
0.0000001
 44
0.0000000001
 12
0.0495548047
 22
0.0373746786
 32
0.0
 13
0.0620688752
 23
0.0
 33
0.0
 40
0.0
 40
0.0
 40
0.0
 40
0.0
 40
0.0174677815
 40
0.0359996758
 40
0.0556097672
 40
0.0763056149
 40
0.0980896457
 40
0.12095989
 40
0.144905235
 40
0.169906655
 40
0.1959424488
 40
0.2229888952
 40
0.2510206477
 40
0.280011048
 40
0.3407464298
 40
0.4049106991
 40
0.4721849888
 40
0.5422411355
 40
0.6147302221
 40
0.6892839451
 40
0.7655296662
 40
0.8430582698
 40
0.9213817248
 40
1.0
 40
1.0
 40
1.0
 40
1.0
 10
7.2976602095
 20
5.9083636243
 30
0.0
 10
7.297948747
 20
5.9085812419
 30
0.0
 10
7.2985565813
 20
5.9090124348
 30
0.0
 10
7.2995274759
 20
5.9096305172
 30
0.0
 10
7.3005828238
 20
5.9102380032
 30
0.0
 10
7.3017211662
 20
5.9108339929
 30
0.0
 10
7.3029410799
 20
5.9114176229
 30
0.0
 10
7.3042410198
 20
5.9119879087
 30
0.0
 10
7.3056190905
 20
5.912544071
 30
0.0
 10
7.3070731173
 20
5.9130854293
 30
0.0
 10
7.3086008493
 20
5.9136112098
 30
0.0
 10
7.3102000202
 20
5.9141206491
 30
0.0
 10
7.3118683662
 20
5.9146129861
 30
0.0
 10
7.3142185967
 20
5.9152555839
 30
0.0
 10
7.3173133392
 20
5.9160070587
 30
0.0
 10
7.3212066883
 20
5.9168166321
 30
0.0
 10
7.3253123727
 20
5.9175429201
 30
0.0
 10
7.3296068169
 20
5.9181810393
 30
0.0
 10
7.3340656341
 20
5.9187272972
 30
0.0
 10
7.3386636729
 20
5.9191790385
 30
0.0
 10
7.3433748045
 20
5.9195331368
 30
0.0
 10
7.3481704852
 20
5.9197870459
 30
0.0
 10
7.3530195116
 20
5.9199402193
 30
0.0
 10
7.35626668
 20
5.9199745248
 30
0.0
 10
7.3578932626
 20
5.9199745248
 30
0.0
 11
7.2976602095
 21
5.9083636243
 31
0.0
 11
7.2985434847
 21
5.9089923742
 31
0.0
 11
7.2995129509
 21
5.9096114213
 31
0.0
 11
7.3005671388
 21
5.9102198669
 31
0.0
 11
7.3017045793
 21
5.9108168124
 31
0.0
 11
7.3029238034
 21
5.9114013592
 31
0.0
 11
7.304223317
 21
5.9119726129
 31
0.0
 11
7.3056012027
 21
5.9125297499
 31
0.0
 11
7.3070551877
 21
5.9130720062
 31
0.0
 11
7.3085829883
 21
5.9135986195
 31
0.0
 11
7.3101823207
 21
5.9141088274
 31
0.0
 11
7.3118509012
 21
5.9146018679
 31
0.0
 11
7.313586446
 21
5.9150769786
 31
0.0
 11
7.3172487969
 21
5.9159705128
 31
0.0
 11
7.3211473342
 21
5.9167844795
 31
0.0
 11
7.3252586942
 21
5.9175143314
 31
0.0
 11
7.3295594607
 21
5.9181555605
 31
0.0
 11
7.3340251666
 21
5.918704483
 31
0.0
 11
7.3386303347
 21
5.9191582072
 31
0.0
 11
7.3433494369
 21
5.9195138759
 31
0.0
 11
7.3481547728
 21
5.9197691801
 31
0.0
 11
7.3530137863
 21
5.9199230356
 31
0.0
 11
7.3578932626
 21
5.9199745248
 31
0.0
  0
SPLINE
  5
2B1
100
AcDbEntity
  8
0
100
AcDbSpline
 62
6
  6
CONTINUOUS
 70
0
 71
3
 72
23
 73
19
 74
17
 42
0.0000001
 43
0.0000001
 44
0.0000000001
 12
0.0472696327
 22
0.030539526
 32
0.0
 13
0.0562768231
 23
0.0
 33
0.0
 40
0.0
 40
0.0
 40
0.0
 40
0.0
 40
0.0469266635
 40
0.0965236148
 40
0.1487303256
 40
0.2034656244
 40
0.260628367
 40
0.3200784395
 40
0.3816552992
 40
0.445189784
 40
0.5105047854
 40
0.5774077026
 40
0.6456974056
 40
0.7151693351
 40
0.7856086827
 40
0.8567504342
 40
0.9283095909
 40
1.0
 40
1.0
 40
1.0
 40
1.0
 10
7.3036248869
 20
6.0600522798
 30
0.0
 10
7.3043642889
 20
6.0605299858
 30
0.0
 10
7.3059177372
 20
6.0614627884
 30
0.0
 10
7.3083881047
 20
6.0627621614
 30
0.0
 10
7.3110540748
 20
6.0639960639
 30
0.0
 10
7.3139053098
 20
6.0651593808
 30
0.0
 10
7.3169310357
 20
6.0662467814
 30
0.0
 10
7.3201189208
 20
6.0672546758
 30
0.0
 10
7.3234560529
 20
6.0681793522
 30
0.0
 10
7.3269293043
 20
6.0690170127
 30
0.0
 10
7.3305252931
 20
6.0697637198
 30
0.0
 10
7.3342299846
 20
6.0704170264
 30
0.0
 10
7.3380290922
 20
6.0709745731
 30
0.0
 10
7.3419081074
 20
6.0714339624
 30
0.0
 10
7.3458514353
 20
6.0717926007
 30
0.0
 10
7.3498419014
 20
6.0720497461
 30
0.0
 10
7.3538610898
 20
6.0722046988
 30
0.0
 10
7.3565484264
 20
6.0722393658
 30
0.0
 10
7.3578932626
 20
6.0722393658
 30
0.0
 11
7.3036248869
 21
6.0600522798
 31
0.0
 11
7.3058865278
 21
6.0614158215
 31
0.0
 11
7.3083549299
 21
6.0627187255
 31
0.0
 11
7.3110197725
 21
6.0639559085
 31
0.0
 11
7.3138707346
 21
6.0651222874
 31
0.0
 11
7.3168971473
 21
6.0662129356
 31
0.0
 11
7.3200864498
 21
6.0672237761
 31
0.0
 11
7.3234254424
 21
6.068151019
 31
0.0
 11
7.3269009249
 21
6.0689908747
 31
0.0
 11
7.3304995584
 21
6.0697397139
 31
0.0
 11
7.3342072103
 21
6.0703948258
 31
0.0
 11
7.3380094659
 21
6.0709538264
 31
0.0
 11
7.34189191
 21
6.0714143319
 31
0.0
 11
7.34583965
 21
6.0717741363
 31
0.0
 11
7.3498349634
 21
6.0720320871
 31
0.0
 11
7.3538590886
 21
6.0721874186
 31
0.0
 11
7.3578932626
 21
6.0722393658
 31
0.0
  0
LINE
  5
2B2
100
AcDbEntity
  8
0
100
AcDbLine
 62
6
  6
CONTINUOUS
 10
5.8528932626
 20
5.8874751551
 11
5.9024789322
 21
5.9138963209
  0
SPLINE
  5
2B3
100
AcDbEntity
  8
0
100
AcDbSpline
 62
6
  6
CONTINUOUS
 70
0
 71
3
 72
22
 73
18
 74
16
 42
0.0000001
 43
0.0000001
 44
0.0000000001
 12
0.0396049532
 22
0.0186348054
 32
0.0
 13
0.0437699473
 23
0.0
 33
0.0
 40
0.0
 40
0.0
 40
0.0
 40
0.0
 40
0.0556038195
 40
0.1124602314
 40
0.170510589
 40
0.2296923637
 40
0.289939967
 40
0.3511846305
 40
0.4133514306
 40
0.4763618117
 40
0.5401352165
 40
0.6045896188
 40
0.6696417007
 40
0.7351936696
 40
0.8011274331
 40
0.8673222999
 40
1.0
 40
1.0
 40
1.0
 40
1.0
 10
7.3153114506
 20
6.2067359465
 30
0.0
 10
7.3160455128
 20
6.2070813352
 30
0.0
 10
7.3175427578
 20
6.2077534401
 30
0.0
 10
7.3198456215
 20
6.2086956667
 30
0.0
 10
7.3222264543
 20
6.2095817453
 30
0.0
 10
7.3246803195
 20
6.2104098218
 30
0.0
 10
7.3272023145
 20
6.2111780652
 30
0.0
 10
7.329787447
 20
6.2118845945
 30
0.0
 10
7.332430432
 20
6.2125282547
 30
0.0
 10
7.3351259257
 20
6.2131079004
 30
0.0
 10
7.3378685695
 20
6.2136223669
 30
0.0
 10
7.3406529943
 20
6.2140705164
 30
0.0
 10
7.3434736412
 20
6.214451084
 30
0.0
 10
7.3463243764
 20
6.2147632004
 30
0.0
 10
7.3491985513
 20
6.2150066547
 30
0.0
 10
7.3530553094
 20
6.2152393043
 30
0.0
 10
7.3559574973
 20
6.2153094207
 30
0.0
 10
7.3578932626
 20
6.2153094207
 30
0.0
 11
7.3153114506
 21
6.2067359465
 31
0.0
 11
7.3175313638
 21
6.2077335698
 31
0.0
 11
7.3198342873
 21
6.2086768004
 31
0.0
 11
7.3222152981
 21
6.2095637968
 31
0.0
 11
7.3246694731
 21
6.2103927177
 31
0.0
 11
7.3271918893
 21
6.2111617216
 31
0.0
 11
7.3297775591
 21
6.2118690644
 31
0.0
 11
7.332421194
 21
6.2125134557
 31
0.0
 11
7.3351174177
 21
6.2130937373
 31
0.0
 11
7.3378608542
 21
6.2136087509
 31
0.0
 11
7.3406461272
 21
6.2140573382
 31
0.0
 11
7.3434678462
 21
6.2144383479
 31
0.0
 11
7.3463199733
 21
6.2147509428
 31
0.0
 11
7.3491955762
 21
6.2149947192
 31
0.0
 11
7.3520876572
 21
6.2151693055
 31
0.0
 11
7.3578932626
 21
6.2153094207
 31
0.0
  0
SPLINE
  5
2B4
100
AcDbEntity
  8
0
100
AcDbSpline
 62
6
  6
CONTINUOUS
 70
0
 71
3
 72
9
 73
5
 74
3
 42
0.0000001
 43
0.0000001
 44
0.0000000001
 12
-0.0501918805
 22
-0.0298501588
 32
0.0
 13
-0.0488446281
 23
-0.0320071735
 33
0.0
 40
0.0
 40
0.0
 40
0.0
 40
0.0
 40
0.4996007281
 40
1.0
 40
1.0
 40
1.0
 40
1.0
 10
5.9024789322
 20
5.9138963209
 30
0.0
 10
5.8941202989
 20
5.9089252672
 30
0.0
 10
5.8774746601
 20
5.8988315823
 30
0.0
 10
5.8610405347
 20
5.8883947613
 30
0.0
 10
5.8528932626
 20
5.8830559726
 30
0.0
 11
5.9024789322
 21
5.9138963209
 31
0.0
 11
5.8775407463
 21
5.8987539955
 31
0.0
 11
5.8528932626
 21
5.8830559726
 31
0.0
  0
LINE
  5
2B5
100
AcDbEntity
  8
0
100
AcDbLine
 62
6
  6
CONTINUOUS
 10
5.8528932626
 20
5.8043714869
 11
5.9024789322
 21
5.8219103038
  0
SPLINE
  5
2B6
100
AcDbEntity
  8
0
100
AcDbSpline
 62
6
  6
CONTINUOUS
 70
0
 71
3
 72
10
 73
6
 74
4
 42
0.0000001
 43
0.0000001
 44
0.0000000001
 12
-0.0500601829
 22
-0.0219068734
 32
0.0
 13
-0.0489664028
 23
-0.0242533381
 33
0.0
 40
0.0
 40
0.0
 40
0.0
 40
0.0
 40
0.2502760319
 40
0.5002513172
 40
1.0
 40
1.0
 40
1.0
 40
1.0
 10
5.9024789322
 20
5.8219103038
 30
0.0
 10
5.8983026442
 20
5.8200827154
 30
0.0
 10
5.8899706057
 20
5.8163939861
 30
0.0
 10
5.8733886032
 20
5.8088568441
 30
0.0
 10
5.8610502277
 20
5.8029993071
 30
0.0
 10
5.8528932626
 20
5.7989591158
 30
0.0
 11
5.9024789322
 21
5.8219103038
 31
0.0
 11
5.8899748251
 21
5.8163713099
 31
0.0
 11
5.8775407463
 21
5.8107164358
 31
0.0
 11
5.8528932626
 21
5.7989591158
 31
0.0
  0
SPLINE
  5
2B7
100
AcDbEntity
  8
0
100
AcDbSpline
 62
6
  6
CONTINUOUS
 70
0
 71
3
 72
11
 73
7
 74
5
 42
0.0000001
 43
0.0000001
 44
0.0000000001
 12
0.0497078543
 22
0.0066085578
 32
0.0
 13
0.0495113068
 23
0.007948227
 33
0.0
 40
0.0
 40
0.0
 40
0.0
 40
0.0
 40
0.2473581375
 40
0.496591264
 40
0.7475089548
 40
1.0
 40
1.0
 40
1.0
 40
1.0
 10
5.8528932626
 20
5.7073290915
 30
0.0
 10
5.85699181
 20
5.707873985
 30
0.0
 10
5.8652126946
 20
5.7090229175
 30
0.0
 10
5.8775703746
 20
5.7108686506
 30
0.0
 10
5.8900021316
 20
5.7127975679
 30
0.0
 10
5.8983118783
 20
5.7141213661
 30
0.0
 10
5.9024789322
 20
5.7147903181
 30
0.0
 11
5.8528932626
 21
5.7073290915
 31
0.0
 11
5.8651788438
 21
5.7090377439
 31
0.0
 11
5.8775407469
 21
5.7108761263
 31
0.0
 11
5.8899748261
 21
5.7128018909
 31
0.0
 11
5.9024789322
 21
5.7147903181
 31
0.0
  0
SPLINE
  5
2B8
100
AcDbEntity
  8
0
100
AcDbSpline
 62
6
  6
CONTINUOUS
 70
0
 71
3
 72
11
 73
7
 74
5
 42
0.0000001
 43
0.0000001
 44
0.0000000001
 12
-0.0498518693
 22
-0.0124967745
 32
0.0
 13
-0.0492055142
 23
-0.0148389898
 33
0.0
 40
0.0
 40
0.0
 40
0.0
 40
0.0
 40
0.2510844128
 40
0.5013634967
 40
0.7509430006
 40
1.0
 40
1.0
 40
1.0
 40
1.0
 10
5.9024789322
 20
5.7147903181
 30
0.0
 10
5.8983065898
 20
5.713744403
 30
0.0
 10
5.8899831898
 20
5.7116241765
 30
0.0
 10
5.8775462787
 20
5.7083332594
 30
0.0
 10
5.8651791244
 20
5.7049171055
 30
0.0
 10
5.8569782552
 20
5.702524294
 30
0.0
 10
5.8528932626
 20
5.7012923759
 30
0.0
 11
5.9024789322
 21
5.7147903181
 31
0.0
 11
5.8899748251
 21
5.7116014743
 31
0.0
 11
5.8775407463
 21
5.7083077512
 31
0.0
 11
5.8651788442
 21
5.7048850858
 31
0.0
 11
5.8528932626
 21
5.7012923759
 31
0.0
  0
SPLINE
  5
2B9
100
AcDbEntity
  8
0
100
AcDbSpline
 62
6
  6
CONTINUOUS
 70
0
 71
3
 72
11
 73
7
 74
5
 42
0.0000001
 43
0.0000001
 44
0.0000000001
 12
0.0494988625
 22
-0.0043205608
 32
0.0
 13
0.0496330617
 23
-0.0023159912
 33
0.0
 40
0.0
 40
0.0
 40
0.0
 40
0.0
 40
0.2480369782
 40
0.4973790297
 40
0.7480322955
 40
1.0
 40
1.0
 40
1.0
 40
1.0
 10
5.8528932626
 20
5.6029612478
 30
0.0
 10
5.8569857787
 20
5.6026040281
 30
0.0
 10
5.8651985442
 20
5.6019578239
 30
0.0
 10
5.8775613006
 20
5.6011460137
 30
0.0
 10
5.8899957743
 20
5.6004416029
 30
0.0
 10
5.8983102893
 20
5.6000309322
 30
0.0
 10
5.9024789322
 20
5.5998364139
 30
0.0
 11
5.8528932626
 21
5.6029612478
 31
0.0
 11
5.8651788438
 21
5.6019859846
 31
0.0
 11
5.8775407469
 21
5.6011659016
 31
0.0
 11
5.8899748261
 21
5.6004577971
 31
0.0
 11
5.9024789322
 21
5.5998364139
 31
0.0
  0
SPLINE
  5
2BA
100
AcDbEntity
  8
0
100
AcDbSpline
 62
6
  6
CONTINUOUS
 70
0
 71
3
 72
10
 73
6
 74
4
 42
0.0000001
 43
0.0000001
 44
0.0000000001
 12
0.0492052506
 22
-0.0148389103
 32
0.0
 13
0.0498516023
 23
-0.0124967076
 33
0.0
 40
0.0
 40
0.0
 40
0.0
 40
0.0
 40
0.2490583613
 40
0.4986391985
 40
1.0
 40
1.0
 40
1.0
 40
1.0
 10
5.8528932626
 20
5.4983804518
 30
0.0
 10
5.8569782556
 20
5.4971485335
 30
0.0
 10
5.8651791324
 20
5.494755713
 30
0.0
 10
5.8816924027
 20
5.4901942765
 30
0.0
 10
5.8941477191
 20
5.4869709627
 30
0.0
 10
5.9024789322
 20
5.4848825096
 30
0.0
 11
5.8528932626
 21
5.4983804518
 31
0.0
 11
5.8651788438
 21
5.4947877356
 31
0.0
 11
5.8775407469
 21
5.4913650745
 31
0.0
 11
5.9024789322
 21
5.4848825096
 31
0.0
  0
SPLINE
  5
2BB
100
AcDbEntity
  8
0
100
AcDbSpline
 62
6
  6
CONTINUOUS
 70
0
 71
3
 72
11
 73
7
 74
5
 42
0.0000001
 43
0.0000001
 44
0.0000000001
 12
-0.0495113068
 22
0.007948227
 32
0.0
 13
-0.0497078542
 23
0.0066085578
 33
0.0
 40
0.0
 40
0.0
 40
0.0
 40
0.0
 40
0.2524910767
 40
0.5034087447
 40
0.7526418377
 40
1.0
 40
1.0
 40
1.0
 40
1.0
 10
5.9024789322
 20
5.4848825096
 30
0.0
 10
5.8983118778
 20
5.4855514617
 30
0.0
 10
5.8900021321
 20
5.486875267
 30
0.0
 10
5.877570374
 20
5.4888041753
 30
0.0
 10
5.8652126934
 20
5.4906499
 30
0.0
 10
5.8569918104
 20
5.4917988427
 30
0.0
 10
5.8528932626
 20
5.4923437362
 30
0.0
 11
5.9024789322
 21
5.4848825096
 31
0.0
 11
5.8899748251
 21
5.4868709409
 31
0.0
 11
5.8775407463
 21
5.4887966997
 31
0.0
 11
5.8651788442
 21
5.4906350774
 31
0.0
 11
5.8528932626
 21
5.4923437362
 31
0.0
  0
SPLINE
  5
2BC
100
AcDbEntity
  8
0
100
AcDbSpline
 62
6
  6
CONTINUOUS
 70
0
 71
3
 72
9
 73
5
 74
3
 42
0.0000001
 43
0.0000001
 44
0.0000000001
 12
0.0489661068
 22
-0.0242531915
 32
0.0
 13
0.0500598803
 23
-0.021906741
 33
0.0
 40
0.0
 40
0.0
 40
0.0
 40
0.0
 40
0.4997517306
 40
1.0
 40
1.0
 40
1.0
 40
1.0
 10
5.8528932626
 20
5.4007137119
 30
0.0
 10
5.8610502281
 20
5.3966735204
 30
0.0
 10
5.8775070679
 20
5.3888607131
 30
0.0
 10
5.894131476
 20
5.3814154603
 30
0.0
 10
5.9024789322
 20
5.3777625239
 30
0.0
 11
5.8528932626
 21
5.4007137119
 31
0.0
 11
5.8775407469
 21
5.3889563899
 31
0.0
 11
5.9024789322
 21
5.3777625239
 31
0.0
  0
LINE
  5
2BD
100
AcDbEntity
  8
0
100
AcDbLine
 62
6
  6
CONTINUOUS
 10
5.9024789322
 20
5.3777625239
 11
5.8528932626
 21
5.3953013408
  0
SPLINE
  5
2BE
100
AcDbEntity
  8
0
100
AcDbSpline
 62
6
  6
CONTINUOUS
 70
0
 71
3
 72
9
 73
5
 74
3
 42
0.0000001
 43
0.0000001
 44
0.0000000001
 12
0.0488446281
 22
-0.0320071735
 32
0.0
 13
0.0501918805
 23
-0.0298501588
 33
0.0
 40
0.0
 40
0.0
 40
0.0
 40
0.0
 40
0.5003992978
 40
1.0
 40
1.0
 40
1.0
 40
1.0
 10
5.8528932626
 20
5.3166168551
 30
0.0
 10
5.8610405351
 20
5.3112780661
 30
0.0
 10
5.8774746592
 20
5.3008412431
 30
0.0
 10
5.8941202993
 20
5.2907475603
 30
0.0
 10
5.9024789322
 20
5.2857765068
 30
0.0
 11
5.8528932626
 21
5.3166168551
 31
0.0
 11
5.8775407469
 21
5.3009188304
 31
0.0
 11
5.9024789322
 21
5.2857765068
 31
0.0
  0
LINE
  5
2BF
100
AcDbEntity
  8
0
100
AcDbLine
 62
6
  6
CONTINUOUS
 10
5.9024789322
 20
5.2857765068
 11
5.8528932626
 21
5.3121976727
  0
SPLINE
  5
2C0
100
AcDbEntity
  8
0
100
AcDbSpline
 62
6
  6
CONTINUOUS
 70
0
 71
3
 72
9
 73
5
 74
3
 42
0.0000001
 43
0.0000001
 44
0.0000000001
 12
0.0488324207
 22
-0.0376306816
 32
0.0
 13
0.0502371482
 23
-0.0357337719
 33
0.0
 40
0.0
 40
0.0
 40
0.0
 40
0.0
 40
0.5005615381
 40
1.0
 40
1.0
 40
1.0
 40
1.0
 10
5.8528932626
 20
5.2518209433
 30
0.0
 10
5.8610411398
 20
5.2455421193
 30
0.0
 10
5.8774660407
 20
5.2331893156
 30
0.0
 10
5.8941154775
 20
5.2211420934
 30
0.0
 10
5.9024789322
 20
5.2151931534
 30
0.0
 11
5.8528932626
 21
5.2518209433
 31
0.0
 11
5.8775407473
 21
5.2332520096
 31
0.0
 11
5.9024789322
 21
5.2151931534
 31
0.0
  0
SPLINE
  5
2C1
100
AcDbEntity
  8
0
100
AcDbSpline
 62
6
  6
CONTINUOUS
 70
0
 71
3
 72
10
 73
6
 74
4
 42
0.0000001
 43
0.0000001
 44
0.0000000001
 12
-0.0498392745
 22
0.03312515
 32
0.0
 13
-0.0494096065
 23
0.0337626958
 33
0.0
 40
0.0
 40
0.0
 40
0.0
 40
0.0
 40
0.5018055281
 40
0.7514775018
 40
1.0
 40
1.0
 40
1.0
 40
1.0
 10
5.9024789322
 20
5.2151931534
 30
0.0
 10
5.894142391
 20
5.2207339479
 30
0.0
 10
5.8816964463
 20
5.2290894693
 30
0.0
 10
5.8651945467
 20
5.2402966932
 30
0.0
 10
5.8569863955
 20
5.2458991795
 30
0.0
 10
5.8528932626
 20
5.2486961094
 30
0.0
 11
5.9024789322
 21
5.2151931534
 31
0.0
 11
5.8775407463
 21
5.2319225221
 31
0.0
 11
5.8651788442
 21
5.240314375
 31
0.0
 11
5.8528932626
 21
5.2486961094
 31
0.0
  0
SPLINE
  5
2C2
100
AcDbEntity
  8
0
100
AcDbSpline
 62
6
  6
CONTINUOUS
 70
0
 71
3
 72
72
 73
68
 74
66
 42
0.0000001
 43
0.0000001
 44
0.0000000001
 12
0.1912508855
 22
0.2246420127
 32
0.0
 13
-0.2292690234
 23
0.1856788895
 33
0.0
 40
0.0
 40
0.0
 40
0.0
 40
0.0
 40
0.0277946752
 40
0.0566154809
 40
0.0713765227
 40
0.0863531351
 40
0.1015317659
 40
0.1169006276
 40
0.1481759692
 40
0.164067199
 40
0.1801174879
 40
0.1963196815
 40
0.2126663745
 40
0.229149573
 40
0.245761902
 40
0.262496855
 40
0.2793488969
 40
0.2963127608
 40
0.3133791223
 40
0.3305387035
 40
0.3477850742
 40
0.3651150265
 40
0.3825247557
 40
0.3999961295
 40
0.4175138187
 40
0.4350728356
 40
0.4438701462
 40
0.4526783405
 40
0.461491291
 40
0.4703030337
 40
0.4791085275
 40
0.4879037397
 40
0.4966857381
 40
0.5054527871
 40
0.5098306862
 40
0.5142047869
 40
0.522941104
 40
0.5316609645
 40
0.5403623776
 40
0.5490426265
 40
0.5576983342
 40
0.5663255271
 40
0.5749196986
 40
0.5834758715
 40
0.5919909018
 40
0.6004674436
 40
0.6089082392
 40
0.6256869264
 40
0.6423302067
 40
0.6505980246
 40
0.6588262601
 40
0.6670141381
 40
0.6751627951
 40
0.6913449286
 40
0.707375884
 40
0.7232529729
 40
0.7389707354
 40
0.7545265264
 40
0.7851341971
 40
0.8150328517
 40
0.8441807103
 40
0.8725279281
 40
0.9000161647
 40
0.926581568
 40
0.9521545748
 40
0.9766590564
 40
1.0
 40
1.0
 40
1.0
 40
1.0
 10
7.1264623812
 20
5.5998364139
 30
0.0
 10
7.1282342999
 20
5.6019176978
 30
0.0
 10
7.1318244631
 20
5.6061733946
 30
0.0
 10
7.1363010348
 20
5.6115801397
 30
0.0
 10
7.1399416481
 20
5.6160421642
 30
0.0
 10
7.1427170917
 20
5.6194785124
 30
0.0
 10
7.1455123953
 20
5.6229755866
 30
0.0
 10
7.1492831788
 20
5.6277448014
 30
0.0
 10
7.1530539787
 20
5.6326032678
 30
0.0
 10
7.1568133841
 20
5.637554756
 30
0.0
 10
7.1596473096
 20
5.6413475735
 30
0.0
 10
7.1624764675
 20
5.645199671
 30
0.0
 10
7.1652959584
 20
5.6491114731
 30
0.0
 10
7.1680977087
 20
5.6530854862
 30
0.0
 10
7.1708739468
 20
5.6571238172
 30
0.0
 10
7.1736168213
 20
5.6612286203
 30
0.0
 10
7.1763183232
 20
5.6654020465
 30
0.0
 10
7.1789706598
 20
5.6696454309
 30
0.0
 10
7.1815607943
 20
5.6739624717
 30
0.0
 10
7.1840742515
 20
5.6783567404
 30
0.0
 10
7.186496702
 20
5.6828314492
 30
0.0
 10
7.1888134162
 20
5.6873895293
 30
0.0
 10
7.1910092802
 20
5.6920317263
 30
0.0
 10
7.1930572529
 20
5.6967615099
 30
0.0
 10
7.194928309
 20
5.7015800646
 30
0.0
 10
7.1963149447
 20
5.7056676305
 30
0.0
 10
7.1973062813
 20
5.7089809776
 30
0.0
 10
7.1979874448
 20
5.7114884599
 30
0.0
 10
7.1986020408
 20
5.714014559
 30
0.0
 10
7.1991460958
 20
5.7165565475
 30
0.0
 10
7.1996156288
 20
5.7191116083
 30
0.0
 10
7.2000066524
 20
5.7216769389
 30
0.0
 10
7.200315181
 20
5.724249709
 30
0.0
 10
7.2005002866
 20
5.7263985581
 30
0.0
 10
7.2006030863
 20
5.7281184328
 30
0.0
 10
7.2006748875
 20
5.7298368559
 30
0.0
 10
7.2007069432
 20
5.7319839452
 30
0.0
 10
7.2006555629
 20
5.7345563278
 30
0.0
 10
7.200516704
 20
5.7371199463
 30
0.0
 10
7.2002927965
 20
5.7396711819
 30
0.0
 10
7.1999862576
 20
5.7422064435
 30
0.0
 10
7.1995995017
 20
5.7447221327
 30
0.0
 10
7.1991349582
 20
5.7472146545
 30
0.0
 10
7.1985949452
 20
5.7496806231
 30
0.0
 10
7.1979817838
 20
5.752117472
 30
0.0
 10
7.1973000258
 20
5.7545242095
 30
0.0
 10
7.1963072963
 20
5.7576861418
 30
0.0
 10
7.1949169052
 20
5.7615631918
 30
0.0
 10
7.1933486867
 20
5.7653528375
 30
0.0
 10
7.1920069468
 20
5.7683230186
 30
0.0
 10
7.1909638958
 20
5.770515152
 30
0.0
 10
7.1898850831
 20
5.7726767985
 30
0.0
 10
7.1884054368
 20
5.7755120287
 30
0.0
 10
7.1864780514
 20
5.778982856
 30
0.0
 10
7.1840525342
 20
5.7830435952
 30
0.0
 10
7.1815375847
 20
5.7869953848
 30
0.0
 10
7.1789500547
 20
5.7908437425
 30
0.0
 10
7.1754362649
 20
5.7958129309
 30
0.0
 10
7.1709196968
 20
5.8017783421
 30
0.0
 10
7.1653428708
 20
5.808609443
 30
0.0
 10
7.1596944623
 20
5.8150888946
 30
0.0
 10
7.1540286708
 20
5.8212340143
 30
0.0
 10
7.1483801564
 20
5.8270456566
 30
0.0
 10
7.1427837684
 20
5.832524011
 30
0.0
 10
7.1372662827
 20
5.8376601275
 30
0.0
 10
7.1318565675
 20
5.8424430866
 30
0.0
 10
7.1282461663
 20
5.8454616389
 30
0.0
 10
7.1264623812
 20
5.846906279
 30
0.0
 11
7.1264623812
 21
5.5998364139
 31
0.0
 11
7.131749904
 21
5.6061041927
 31
0.0
 11
7.1371724031
 21
5.612653703
 31
0.0
 11
7.1399254683
 21
5.6160279938
 31
0.0
 11
7.1427017171
 21
5.6194653809
 31
0.0
 11
7.1454976274
 21
5.6229634259
 31
0.0
 11
7.1483094706
 21
5.6265204996
 31
0.0
 11
7.1539644022
 21
5.6338116296
 31
0.0
 11
7.1567991458
 21
5.6375459006
 31
0.0
 11
7.159633178
 21
5.6413394518
 31
0.0
 11
7.1624623202
 21
5.6451923941
 31
0.0
 11
7.1652813059
 21
5.6491054374
 31
0.0
 11
7.1680825635
 21
5.653080562
 31
0.0
 11
7.1708582271
 21
5.65711991
 31
0.0
 11
7.173600431
 21
5.6612256237
 31
0.0
 11
7.1763013093
 21
5.6653998453
 31
0.0
 11
7.1789523931
 21
5.6696448139
 31
0.0
 11
7.1815410371
 21
5.6739634392
 31
0.0
 11
7.1840528299
 21
5.678358915
 31
0.0
 11
7.1864733537
 21
5.6828344357
 31
0.0
 11
7.1887881904
 21
5.687393196
 31
0.0
 11
7.1909808528
 21
5.692038002
 31
0.0
 11
7.193025102
 21
5.69676983
 31
0.0
 11
7.1948918292
 21
5.7015891174
 31
0.0
 11
7.1965519258
 21
5.706496302
 31
0.0
 11
7.1972953901
 21
5.7089829848
 31
0.0
 11
7.1979761721
 21
5.7114908813
 31
0.0
 11
7.1985903179
 21
5.7140173667
 31
0.0
 11
7.1991338499
 21
5.7165596145
 31
0.0
 11
7.1996027906
 21
5.7191147982
 31
0.0
 11
7.1999931623
 21
5.721680091
 31
0.0
 11
7.2003009875
 21
5.7242526665
 31
0.0
 11
7.2005222885
 21
5.7268296982
 31
0.0
 11
7.2005992495
 21
5.7281190017
 31
0.0
 11
7.200653129
 21
5.7294083543
 31
0.0
 11
7.2006919588
 21
5.7319855113
 31
0.0
 11
7.2006408806
 21
5.7345575985
 31
0.0
 11
7.2005023058
 21
5.7371210075
 31
0.0
 11
7.200278646
 21
5.7396721299
 31
0.0
 11
7.1999723125
 21
5.7422073572
 31
0.0
 11
7.1995857169
 21
5.744723081
 31
0.0
 11
7.1991212706
 21
5.747215693
 31
0.0
 11
7.1985813855
 21
5.7496815853
 31
0.0
 11
7.197968886
 21
5.7521179375
 31
0.0
 11
7.1972877928
 21
5.7545242119
 31
0.0
 11
7.1965423427
 21
5.7569002827
 31
0.0
 11
7.1948753175
 21
5.7615613093
 31
0.0
 11
7.193001703
 21
5.7661000097
 31
0.0
 11
7.1919980161
 21
5.7683231727
 31
0.0
 11
7.1909553409
 21
5.7705153943
 31
0.0
 11
7.1898768587
 21
5.7726769256
 31
0.0
 11
7.1887648275
 21
5.7748083472
 31
0.0
 11
7.1864490132
 21
5.7789832327
 31
0.0
 11
7.1840256887
 21
5.7830447941
 31
0.0
 11
7.1815126437
 21
5.7869977745
 31
0.0
 11
7.1789261184
 21
5.790846564
 31
0.0
 11
7.1762773389
 21
5.7945944116
 31
0.0
 11
7.1708338749
 21
5.8017993555
 31
0.0
 11
7.1652594101
 21
5.8086355683
 31
0.0
 11
7.1596126043
 21
5.8151211955
 31
0.0
 11
7.1539443501
 21
5.8212704981
 31
0.0
 11
7.1482926628
 21
5.8270865823
 31
0.0
 11
7.1426909192
 21
5.8325681016
 31
0.0
 11
7.1371672401
 21
5.837707351
 31
0.0
 11
7.1317485405
 21
5.8424930726
 31
0.0
 11
7.1264623812
 21
5.846906279
 31
0.0
  0
LINE
  5
2C3
100
AcDbEntity
  8
0
100
AcDbLine
 62
6
  6
CONTINUOUS
 10
5.5173177168
 20
5.3052674114
 11
5.5538932626
 21
5.3075669027
  0
SPLINE
  5
2C4
100
AcDbEntity
  8
0
100
AcDbSpline
 62
6
  6
CONTINUOUS
 70
0
 71
3
 72
11
 73
7
 74
5
 42
0.0000001
 43
0.0000001
 44
0.0000000001
 12
-0.0496330616
 22
-0.0023159912
 32
0.0
 13
-0.0494988624
 23
-0.0043205608
 33
0.0
 40
0.0
 40
0.0
 40
0.0
 40
0.0
 40
0.2519677198
 40
0.5026209872
 40
0.7519630249
 40
1.0
 40
1.0
 40
1.0
 40
1.0
 10
5.9024789322
 20
5.5998364139
 30
0.0
 10
5.8983102891
 20
5.5996418955
 30
0.0
 10
5.8899957735
 20
5.5992312323
 30
0.0
 10
5.8775613001
 20
5.598526812
 30
0.0
 10
5.8651985447
 20
5.597714993
 30
0.0
 10
5.8569857786
 20
5.5970687996
 30
0.0
 10
5.8528932626
 20
5.59671158
 30
0.0
 11
5.9024789322
 21
5.5998364139
 31
0.0
 11
5.8899748251
 21
5.5992150346
 31
0.0
 11
5.8775407463
 21
5.5985069242
 31
0.0
 11
5.8651788442
 21
5.5976868365
 31
0.0
 11
5.8528932626
 21
5.59671158
 31
0.0
  0
SPLINE
  5
2C5
100
AcDbEntity
  8
0
100
AcDbSpline
 62
6
  6
CONTINUOUS
 70
0
 71
3
 72
75
 73
71
 74
69
 42
0.0000001
 43
0.0000001
 44
0.0000000001
 12
0.160198967
 22
0.2337730053
 32
0.0
 13
-0.2640309559
 23
0.1029620385
 33
0.0
 40
0.0
 40
0.0
 40
0.0
 40
0.0
 40
0.0329442426
 40
0.0666494758
 40
0.0837521189
 40
0.1010025846
 40
0.1183867443
 40
0.1358923302
 40
0.1712335347
 40
0.1890528326
 40
0.2069605141
 40
0.224948671
 40
0.2430087987
 40
0.2611311086
 40
0.2793061014
 40
0.2975248854
 40
0.3157792881
 40
0.3340610377
 40
0.3523566154
 40
0.3706517563
 40
0.388934639
 40
0.4071963104
 40
0.4254262804
 40
0.4435963253
 40
0.4616797218
 40
0.4796599326
 40
0.4975294058
 40
0.5064133745
 40
0.5152535051
 40
0.5240437502
 40
0.5327792149
 40
0.5414562818
 40
0.5500727467
 40
0.5543581727
 40
0.5586283475
 40
0.5671232367
 40
0.5755588531
 40
0.5839355753
 40
0.5922531292
 40
0.6005106409
 40
0.6087066906
 40
0.6168393687
 40
0.6249063342
 40
0.6329070629
 40
0.6408466296
 40
0.6487300259
 40
0.6643404247
 40
0.6797565357
 40
0.6873926256
 40
0.6949785887
 40
0.7025146068
 40
0.710002589
 40
0.7248393412
 40
0.7394967665
 40
0.7539752509
 40
0.7682714152
 40
0.7823847728
 40
0.8100502679
 40
0.8369385689
 40
0.863016288
 40
0.8882408334
 40
0.9125675823
 40
0.9243805959
 40
0.9359518881
 40
0.9472760818
 40
0.9583480321
 40
0.9691625046
 40
0.9797131741
 40
0.9899940443
 40
1.0
 40
1.0
 40
1.0
 40
1.0
 10
7.1264623812
 20
5.846906279
 30
0.0
 10
7.1282215924
 20
5.8494734372
 30
0.0
 10
7.1317885982
 20
5.8546616074
 30
0.0
 10
7.1362813756
 20
5.8611738793
 30
0.0
 10
7.1399335048
 20
5.8664650128
 30
0.0
 10
7.1427091843
 20
5.8704877158
 30
0.0
 10
7.1455046936
 20
5.8745429826
 30
0.0
 10
7.1492656349
 20
5.8800083799
 30
0.0
 10
7.1530371059
 20
5.8855164405
 30
0.0
 10
7.156806282
 20
5.8910720144
 30
0.0
 10
7.1596403211
 20
5.895281066
 30
0.0
 10
7.162469569
 20
5.8995207224
 30
0.0
 10
7.1652891002
 20
5.9037911756
 30
0.0
 10
7.1680908731
 20
5.9080943967
 30
0.0
 10
7.1708671177
 20
5.9124319585
 30
0.0
 10
7.1736099873
 20
5.916805466
 30
0.0
 10
7.1763114739
 20
5.9212165127
 30
0.0
 10
7.1789637512
 20
5.9256658137
 30
0.0
 10
7.1815538073
 20
5.9301561406
 30
0.0
 10
7.1840671914
 20
5.9346900379
 30
0.0
 10
7.1864895895
 20
5.9392696769
 30
0.0
 10
7.1888062708
 20
5.9438969082
 30
0.0
 10
7.1910020156
 20
5.9485711445
 30
0.0
 10
7.1930499451
 20
5.9532939504
 30
0.0
 10
7.1949211413
 20
5.9580645586
 30
0.0
 10
7.1965864459
 20
5.9628811779
 30
0.0
 10
7.1977794972
 20
5.9669370681
 30
0.0
 10
7.1986006407
 20
5.9701979871
 30
0.0
 10
7.1991448395
 20
5.9726432007
 30
0.0
 10
7.1996145317
 20
5.9750895536
 30
0.0
 10
7.2000057391
 20
5.9775341303
 30
0.0
 10
7.2003144739
 20
5.9799739689
 30
0.0
 10
7.2005000189
 20
5.9820044515
 30
0.0
 10
7.2006029978
 20
5.9836234316
 30
0.0
 10
7.2006747472
 20
5.9852325992
 30
0.0
 10
7.2007069628
 20
5.9872355909
 30
0.0
 10
7.2006557983
 20
5.9896262418
 30
0.0
 10
7.200517129
 20
5.9919966363
 30
0.0
 10
7.2002933847
 20
5.9943435978
 30
0.0
 10
7.1999869835
 20
5.9966639783
 30
0.0
 10
7.1996003404
 20
5.998954623
 30
0.0
 10
7.1991358857
 20
6.0012123812
 30
0.0
 10
7.1985959363
 20
6.0034342972
 30
0.0
 10
7.1979828051
 20
6.0056181706
 30
0.0
 10
7.1973010523
 20
6.0077633911
 30
0.0
 10
7.1963096001
 20
6.0105628148
 30
0.0
 10
7.1949208515
 20
6.0139685879
 30
0.0
 10
7.1933509185
 20
6.0172682631
 30
0.0
 10
7.192007863
 20
6.0198322888
 30
0.0
 10
7.1909647927
 20
6.0217123831
 30
0.0
 10
7.1898859547
 20
6.0235559665
 30
0.0
 10
7.1884073961
 20
6.0259584477
 30
0.0
 10
7.1864813368
 20
6.0288743944
 30
0.0
 10
7.1840557912
 20
6.0322477664
 30
0.0
 10
7.181540895
 20
6.03549048
 30
0.0
 10
7.1789533352
 20
6.038608882
 30
0.0
 10
7.1754439885
 20
6.0425777549
 30
0.0
 10
7.1709336574
 20
6.0472449033
 30
0.0
 10
7.1653573815
 20
6.0524381501
 30
0.0
 10
7.1597098226
 20
6.0572029597
 30
0.0
 10
7.1540441953
 20
6.0615590362
 30
0.0
 10
7.1492914516
 20
6.0648816861
 30
0.0
 10
7.1455099725
 20
6.0673346293
 30
0.0
 10
7.1427177021
 20
6.0690538139
 30
0.0
 10
7.139944949
 20
6.0706693612
 30
0.0
 10
7.1371950613
 20
6.0721802064
 30
0.0
 10
7.13447157
 20
6.0735852174
 30
0.0
 10
7.1317777028
 20
6.074882275
 30
0.0
 10
7.1291169065
 20
6.076069114
 30
0.0
 10
7.1273430085
 20
6.07679533
 30
0.0
 10
7.1264623812
 20
6.0771387412
 30
0.0
 11
7.1264623812
 21
5.846906279
 31
0.0
 11
7.131749904
 21
5.8546009675
 31
0.0
 11
7.1371724031
 21
5.862464561
 31
0.0
 11
7.1399254683
 21
5.8664535923
 31
0.0
 11
7.1427017171
 21
5.8704775241
 31
0.0
 11
7.1454976274
 21
5.8745339211
 31
0.0
 11
7.1483094706
 21
5.8786211279
 31
0.0
 11
7.1539644022
 21
5.88688753
 31
0.0
 11
7.1567991458
 21
5.8910667611
 31
0.0
 11
7.159633178
 21
5.8952767028
 31
0.0
 11
7.1624623202
 21
5.8995173757
 31
0.0
 11
7.1652813059
 21
5.9037892651
 31
0.0
 11
7.1680825635
 21
5.908093841
 31
0.0
 11
7.1708582271
 21
5.9124326989
 31
0.0
 11
7.173600431
 21
5.9168074346
 31
0.0
 11
7.1763013093
 21
5.9212196436
 31
0.0
 11
7.1789523931
 21
5.9256709728
 31
0.0
 11
7.1815410371
 21
5.9301634244
 31
0.0
 11
7.1840528299
 21
5.9346991507
 31
0.0
 11
7.1864733537
 21
5.9392803044
 31
0.0
 11
7.1887881904
 21
5.9439090386
 31
0.0
 11
7.1909808528
 21
5.9485869624
 31
0.0
 11
7.193025102
 21
5.9533131235
 31
0.0
 11
7.1948918292
 21
5.958085816
 31
0.0
 11
7.1965519258
 21
5.9629033338
 31
0.0
 11
7.1979761721
 21
5.9677630749
 31
0.0
 11
7.1985903179
 21
5.9702047059
 31
0.0
 11
7.1991338499
 21
5.9726502952
 31
0.0
 11
7.1996027906
 21
5.9750968833
 31
0.0
 11
7.1999931623
 21
5.9775415104
 31
0.0
 11
7.2003009875
 21
5.9799812171
 31
0.0
 11
7.2005222885
 21
5.9824130437
 31
0.0
 11
7.2005992495
 21
5.9836250771
 31
0.0
 11
7.200653129
 21
5.9848340293
 31
0.0
 11
7.2006919588
 21
5.9872411373
 31
0.0
 11
7.2006408806
 21
5.989631215
 31
0.0
 11
7.2005023058
 21
5.9920011
 31
0.0
 11
7.200278646
 21
5.99434763
 31
0.0
 11
7.1999723125
 21
5.9966676425
 31
0.0
 11
7.1995857169
 21
5.9989579751
 31
0.0
 11
7.1991212706
 21
6.0012154655
 31
0.0
 11
7.1985813855
 21
6.0034369519
 31
0.0
 11
7.197968886
 21
6.0056200337
 31
0.0
 11
7.1972877928
 21
6.0077645182
 31
0.0
 11
7.1965423427
 21
6.0098706103
 31
0.0
 11
7.1948753175
 21
6.0139684381
 31
0.0
 11
7.193001703
 21
6.0179151581
 31
0.0
 11
7.1919980161
 21
6.0198323654
 31
0.0
 11
7.1909553409
 21
6.0217124234
 31
0.0
 11
7.1898768587
 21
6.0235557918
 31
0.0
 11
7.1887648275
 21
6.0253631535
 31
0.0
 11
7.1864490132
 21
6.0288726204
 31
0.0
 11
7.1840256887
 21
6.0322463521
 31
0.0
 11
7.1815126437
 21
6.0354898763
 31
0.0
 11
7.1789261184
 21
6.0386082718
 31
0.0
 11
7.1762773389
 21
6.0416051647
 31
0.0
 11
7.1708338749
 21
6.0472477737
 31
0.0
 11
7.1652594101
 21
6.0524430095
 31
0.0
 11
7.1596126043
 21
6.0572106705
 31
0.0
 11
7.1539443501
 21
6.0615664254
 31
0.0
 11
7.1482926628
 21
6.065514492
 31
0.0
 11
7.1454837052
 21
6.0673358355
 31
0.0
 11
7.1426909192
 21
6.0690545299
 31
0.0
 11
7.1399176493
 21
6.0706695126
 31
0.0
 11
7.1371672401
 21
6.0721797212
 31
0.0
 11
7.1344430555
 21
6.0735838978
 31
0.0
 11
7.1317485405
 21
6.0748799763
 31
0.0
 11
7.1290871605
 21
6.0760656822
 31
0.0
 11
7.1264623812
 21
6.0771387412
 31
0.0
  0
SPLINE
  5
2C6
100
AcDbEntity
  8
0
100
AcDbSpline
 62
6
  6
CONTINUOUS
 70
0
 71
3
 72
76
 73
72
 74
70
 42
0.0000001
 43
0.0000001
 44
0.0000000001
 12
0.1367703481
 22
0.2249179229
 32
0.0
 13
-0.2628183925
 23
-0.0148557308
 33
0.0
 40
0.0
 40
0.0
 40
0.0
 40
0.0
 40
0.0383427391
 40
0.0771002793
 40
0.0965995045
 40
0.1161601064
 40
0.1357678282
 40
0.1554099134
 40
0.1947606194
 40
0.2144515664
 40
0.2341410658
 40
0.2538202359
 40
0.2734791974
 40
0.2931051423
 40
0.3126849478
 40
0.3322058545
 40
0.3516555881
 40
0.3613501091
 40
0.3710219004
 40
0.3902856362
 40
0.4094244173
 40
0.4284178803
 40
0.4378545892
 40
0.4472485859
 40
0.4565980532
 40
0.4658988046
 40
0.4843282647
 40
0.5024916772
 40
0.5203540914
 40
0.5291658006
 40
0.5378948198
 40
0.5465346971
 40
0.5550775411
 40
0.5635166639
 40
0.5718467569
 40
0.5800640742
 40
0.5881666374
 40
0.5961544606
 40
0.6040302186
 40
0.6117997174
 40
0.6194687842
 40
0.6270425731
 40
0.6345255919
 40
0.6419217341
 40
0.6492343179
 40
0.6564661294
 40
0.6636207792
 40
0.6777290819
 40
0.6916215045
 40
0.6984998805
 40
0.7053356811
 40
0.7121297912
 40
0.7188819862
 40
0.725593625
 40
0.7322674422
 40
0.745508401
 40
0.7586161949
 40
0.7715916477
 40
0.7844312158
 40
0.7971361654
 40
0.8097057756
 40
0.8221358813
 40
0.8465543724
 40
0.8703731386
 40
0.8820494527
 40
0.8935659132
 40
0.9161115177
 40
0.938007818
 40
0.9592673871
 40
0.9799174923
 40
1.0
 40
1.0
 40
1.0
 40
1.0
 10
7.1264623812
 20
6.0771387412
 30
0.0
 10
7.1282104311
 20
6.0800133976
 30
0.0
 10
7.1317563767
 20
6.0857750363
 30
0.0
 10
7.1362635127
 20
6.0929537216
 30
0.0
 10
7.1399263273
 20
6.0987163351
 30
0.0
 10
7.1427022846
 20
6.1030515888
 30
0.0
 10
7.1454980284
 20
6.1073890271
 30
0.0
 10
7.1492496228
 20
6.1131763024
 30
0.0
 10
7.1530215892
 20
6.1189590445
 30
0.0
 10
7.1568004901
 20
6.1247422162
 30
0.0
 10
7.159634595
 20
6.129080822
 30
0.0
 10
7.1624636869
 20
6.1334193487
 30
0.0
 10
7.1652830861
 20
6.1377575348
 30
0.0
 10
7.1680848693
 20
6.1420967527
 30
0.0
 10
7.1708611477
 20
6.1464379739
 30
0.0
 10
7.1736039577
 20
6.1507821573
 30
0.0
 10
7.1758574332
 20
6.1544093666
 30
0.0
 10
7.1776358513
 20
6.1573141585
 30
0.0
 10
7.1793918049
 20
6.1602135193
 30
0.0
 10
7.1815472406
 20
6.1638397223
 30
0.0
 10
7.1840608301
 20
6.1682040852
 30
0.0
 10
7.1860837136
 20
6.1718554169
 30
0.0
 10
7.1876491925
 20
6.1747819915
 30
0.0
 10
7.1887923753
 20
6.1769746162
 30
0.0
 10
7.1899052832
 20
6.1791694099
 30
0.0
 10
7.1913406296
 20
6.1820893495
 30
0.0
 10
7.1930421563
 20
6.1857399421
 30
0.0
 10
7.1949141334
 20
6.190137313
 30
0.0
 10
7.1963086934
 20
6.1938176918
 30
0.0
 10
7.197304966
 20
6.1967603834
 30
0.0
 10
7.1979855852
 20
6.1989547749
 30
0.0
 10
7.1985994032
 20
6.2011443158
 30
0.0
 10
7.1991427365
 20
6.2033262409
 30
0.0
 10
7.1996117987
 20
6.2054975727
 30
0.0
 10
7.2000028069
 20
6.2076553375
 30
0.0
 10
7.2003119746
 20
6.2097965658
 30
0.0
 10
7.2005354934
 20
6.2119182866
 30
0.0
 10
7.200669605
 20
6.2140175864
 30
0.0
 10
7.2007103255
 20
6.2160915789
 30
0.0
 10
7.2006600619
 20
6.2181373618
 30
0.0
 10
7.2005214935
 20
6.220152498
 30
0.0
 10
7.2002972392
 20
6.2221345985
 30
0.0
 10
7.1999899335
 20
6.2240812791
 30
0.0
 10
7.1996022055
 20
6.2259901602
 30
0.0
 10
7.1991366863
 20
6.227858849
 30
0.0
 10
7.1985959654
 20
6.2296851189
 30
0.0
 10
7.1977818052
 20
6.2320498568
 30
0.0
 10
7.1965932303
 20
6.2349004916
 30
0.0
 10
7.1951945657
 20
6.2376261243
 30
0.0
 10
7.1939727407
 20
6.2397182418
 30
0.0
 10
7.1930120297
 20
6.2412402793
 30
0.0
 10
7.1920081988
 20
6.2427207971
 30
0.0
 10
7.190965405
 20
6.2441606705
 30
0.0
 10
7.1898866684
 20
6.245560505
 30
0.0
 10
7.1884074948
 20
6.2473693373
 30
0.0
 10
7.1864800283
 20
6.2495349652
 30
0.0
 10
7.1840540495
 20
6.2519906685
 30
0.0
 10
7.1815390328
 20
6.2543031092
 30
0.0
 10
7.1789511715
 20
6.2564789592
 30
0.0
 10
7.1763011621
 20
6.258520689
 30
0.0
 10
7.1735994242
 20
6.260431807
 30
0.0
 10
7.1699635439
 20
6.2627963597
 30
0.0
 10
7.1653418969
 20
6.2654482182
 30
0.0
 10
7.1606026556
 20
6.2677340363
 30
0.0
 10
7.1567986478
 20
6.2693314307
 30
0.0
 10
7.1530460546
 20
6.2707564057
 30
0.0
 10
7.1483669121
 20
6.2722592002
 30
0.0
 10
7.1427605463
 20
6.2736242415
 30
0.0
 10
7.1372296763
 20
6.2745306017
 30
0.0
 10
7.1318018431
 20
6.2749708403
 30
0.0
 10
7.128221732
 20
6.2749432853
 30
0.0
 10
7.1264623812
 20
6.2748438385
 30
0.0
 11
7.1264623812
 21
6.0771387412
 31
0.0
 11
7.1317500106
 21
6.0857361203
 31
0.0
 11
7.1371726746
 21
6.0943781562
 31
0.0
 11
7.1399258463
 21
6.098710254
 31
0.0
 11
7.1427022188
 21
6.1030467162
 31
0.0
 11
7.1454982721
 21
6.1073852788
 31
0.0
 11
7.1483102955
 21
6.1117242907
 31
0.0
 11
7.1539655979
 21
6.120402891
 31
0.0
 11
7.1568004578
 21
6.1247423893
 31
0.0
 11
7.1596345105
 21
6.1290819596
 31
0.0
 11
7.1624635457
 21
6.133421557
 31
0.0
 11
7.1652825148
 21
6.1377613581
 31
0.0
 11
7.1680838979
 21
6.1421021914
 31
0.0
 11
7.1708597226
 21
6.1464450051
 31
0.0
 11
7.1736020162
 21
6.1507907474
 31
0.0
 11
7.1763028062
 21
6.1551403663
 31
0.0
 11
7.1776351411
 21
6.1573169258
 31
0.0
 11
7.1789537921
 21
6.1594948112
 31
0.0
 11
7.1815427771
 21
6.1638550459
 31
0.0
 11
7.1840550088
 21
6.1682220436
 31
0.0
 11
7.1864756903
 21
6.1725967775
 31
0.0
 11
7.1876470758
 21
6.1747873497
 31
0.0
 11
7.188790025
 21
6.176980221
 31
0.0
 11
7.1899026501
 21
6.1791754994
 31
0.0
 11
7.1909821609
 21
6.1813729707
 31
0.0
 11
7.1930269684
 21
6.1857723106
 31
0.0
 11
7.1948944997
 21
6.1901738042
 31
0.0
 11
7.1965547661
 21
6.1945730004
 31
0.0
 11
7.1972978035
 21
6.1967703461
 31
0.0
 11
7.1979777764
 21
6.1989652407
 31
0.0
 11
7.1985909151
 21
6.2011553773
 31
0.0
 11
7.1991334415
 21
6.2033377541
 31
0.0
 11
7.1996015775
 21
6.2055093659
 31
0.0
 11
7.199991545
 21
6.2076672077
 31
0.0
 11
7.2002995658
 21
6.2098082742
 31
0.0
 11
7.2005218619
 21
6.2119295603
 31
0.0
 11
7.200654655
 21
6.2140280608
 31
0.0
 11
7.2006951301
 21
6.2161008639
 31
0.0
 11
7.2006447309
 21
6.2181454694
 31
0.0
 11
7.2005060788
 21
6.2201594916
 31
0.0
 11
7.2002817947
 21
6.2221405443
 31
0.0
 11
7.1999744999
 21
6.2240862416
 31
0.0
 11
7.1995868154
 21
6.2259941976
 31
0.0
 11
7.1991213625
 21
6.2278620261
 31
0.0
 11
7.1985807623
 21
6.2296873413
 31
0.0
 11
7.1979678793
 21
6.2314682052
 31
0.0
 11
7.1965412105
 21
6.2348970862
 31
0.0
 11
7.1948746636
 21
6.2381522914
 31
0.0
 11
7.193961933
 21
6.2397160606
 31
0.0
 11
7.1930018295
 21
6.2412379648
 31
0.0
 11
7.191998552
 21
6.242718522
 31
0.0
 11
7.1909562321
 21
6.2441582581
 31
0.0
 11
7.1898779631
 21
6.2455578185
 31
0.0
 11
7.1887660219
 21
6.246917943
 31
0.0
 11
7.1864501408
 21
6.249522854
 31
0.0
 11
7.184026626
 21
6.2519789297
 31
0.0
 11
7.181513512
 21
6.2542921081
 31
0.0
 11
7.1789269877
 21
6.2564677353
 31
0.0
 11
7.1762781681
 21
6.258509531
 31
0.0
 11
7.1735773037
 21
6.2604209377
 31
0.0
 11
7.1708346449
 21
6.2622053979
 31
0.0
 11
7.165260101
 21
6.2654057115
 31
0.0
 11
7.1596131592
 21
6.2681305928
 31
0.0
 11
7.1567790806
 21
6.2693202625
 31
0.0
 11
7.1539448108
 21
6.2703960533
 31
0.0
 11
7.1482930303
 21
6.2722071072
 31
0.0
 11
7.1426911961
 21
6.2735644635
 31
0.0
 11
7.1371674197
 21
6.2744626531
 31
0.0
 11
7.1317486259
 21
6.2748934437
 31
0.0
 11
7.1264623812
 21
6.2748438385
 31
0.0
  0
SPLINE
  5
2C7
100
AcDbEntity
  8
0
100
AcDbSpline
 62
6
  6
CONTINUOUS
 70
0
 71
3
 72
74
 73
70
 74
68
 42
0.0000001
 43
0.0000001
 44
0.0000000001
 12
0.107344326
 22
0.1843800357
 32
0.0
 13
-0.2128573235
 23
-0.014510746
 33
0.0
 40
0.0
 40
0.0
 40
0.0
 40
0.0
 40
0.041537017
 40
0.0830827589
 40
0.1245619941
 40
0.1658978343
 40
0.2070171504
 40
0.247862848
 40
0.2681659249
 40
0.2883797649
 40
0.3084972415
 40
0.3285101515
 40
0.3681746009
 40
0.3878011402
 40
0.4072739617
 40
0.4265807634
 40
0.445708628
 40
0.4646377099
 40
0.4833449501
 40
0.5018081322
 40
0.5200061752
 40
0.5379194224
 40
0.5555234736
 40
0.572773717
 40
0.5896251882
 40
0.6060392313
 40
0.6140726981
 40
0.6219861663
 40
0.6374367652
 40
0.6523468386
 40
0.6595877322
 40
0.6666811147
 40
0.673625582
 40
0.6804214001
 40
0.6870707415
 40
0.6935781912
 40
0.6999524178
 40
0.7062035807
 40
0.7123417076
 40
0.7183766558
 40
0.7243180877
 40
0.730175448
 40
0.7359579422
 40
0.7416745179
 40
0.7473338488
 40
0.7529452462
 40
0.7585199497
 40
0.7640682006
 40
0.7751155506
 40
0.7861416453
 40
0.7971743059
 40
0.8026969196
 40
0.8082232039
 40
0.819293792
 40
0.8304016434
 40
0.8415526252
 40
0.8527448666
 40
0.8583544079
 40
0.8639711911
 40
0.8752259833
 40
0.8865093877
 40
0.8978180974
 40
0.9091463039
 40
0.9318329108
 40
0.9545500269
 40
0.9659140892
 40
0.9772763022
 40
0.9886377287
 40
1.0
 40
1.0
 40
1.0
 40
1.0
 10
7.1264623812
 20
6.2748438385
 30
0.0
 10
7.1279486355
 20
6.2773967041
 30
0.0
 10
7.1309583459
 20
6.2824815778
 30
0.0
 10
7.1355711433
 20
6.290044572
 30
0.0
 10
7.1402677559
 20
6.2975389014
 30
0.0
 10
7.1450308545
 20
6.304955093
 30
0.0
 10
7.1498437249
 20
6.3122851903
 30
0.0
 10
7.1538854904
 20
6.3183318261
 30
0.0
 10
7.1571241354
 20
6.3231268463
 30
0.0
 10
7.1595474673
 20
6.3266936497
 30
0.0
 10
7.1619672863
 20
6.3302378758
 30
0.0
 10
7.1651754677
 20
6.334918763
 30
0.0
 10
7.1683697142
 20
6.3395668679
 30
0.0
 10
7.1715344154
 20
6.3441886634
 30
0.0
 10
7.1738738238
 20
6.3476209003
 30
0.0
 10
7.1761823721
 20
6.351031232
 30
0.0
 10
7.1784550705
 20
6.3544191014
 30
0.0
 10
7.1806841525
 20
6.3577848189
 30
0.0
 10
7.1828606356
 20
6.3611285495
 30
0.0
 10
7.1849755754
 20
6.3644501027
 30
0.0
 10
7.1870199706
 20
6.3677493305
 30
0.0
 10
7.1889846225
 20
6.3710256611
 30
0.0
 10
7.1908592417
 20
6.3742768256
 30
0.0
 10
7.1926269622
 20
6.3775016268
 30
0.0
 10
7.1942698874
 20
6.3806970233
 30
0.0
 10
7.1955288284
 20
6.3833513376
 30
0.0
 10
7.1964546083
 20
6.3854585041
 30
0.0
 10
7.1973099044
 20
6.3875212534
 30
0.0
 10
7.1982675553
 20
6.390070333
 30
0.0
 10
7.1990753199
 20
6.3926212316
 30
0.0
 10
7.199609766
 20
6.394631501
 30
0.0
 10
7.199949323
 20
6.3961065186
 30
0.0
 10
7.2002290361
 20
6.397561866
 30
0.0
 10
7.2004463684
 20
6.3989959482
 30
0.0
 10
7.2005989324
 20
6.4004071719
 30
0.0
 10
7.2006837911
 20
6.4017940955
 30
0.0
 10
7.2007013602
 20
6.4031551889
 30
0.0
 10
7.2006533765
 20
6.4044892728
 30
0.0
 10
7.2005412836
 20
6.4057952965
 30
0.0
 10
7.2003666046
 20
6.4070722062
 30
0.0
 10
7.2001308437
 20
6.4083189492
 30
0.0
 10
7.1998355121
 20
6.4095344727
 30
0.0
 10
7.1994821183
 20
6.410717724
 30
0.0
 10
7.1990721825
 20
6.4118676527
 30
0.0
 10
7.198607163
 20
6.4129832639
 30
0.0
 10
7.1980885473
 20
6.4140637824
 30
0.0
 10
7.1975191859
 20
6.4151094406
 30
0.0
 10
7.1966973258
 20
6.4164556079
 30
0.0
 10
7.1955546189
 20
6.4180571826
 30
0.0
 10
7.1940222353
 20
6.419848117
 30
0.0
 10
7.1926305046
 20
6.4212332595
 30
0.0
 10
7.1914589283
 20
6.4222793411
 30
0.0
 10
7.1902500865
 20
6.4232863783
 30
0.0
 10
7.1886741092
 20
6.4244713485
 30
0.0
 10
7.1866938596
 20
6.4257764945
 30
0.0
 10
7.1846343997
 20
6.426969711
 30
0.0
 10
7.1828626733
 20
6.4278733444
 30
0.0
 10
7.1814163343
 20
6.4285444964
 30
0.0
 10
7.1799502317
 20
6.4291825477
 30
0.0
 10
7.1780865148
 20
6.429916623
 30
0.0
 10
7.1758087928
 20
6.4306974478
 30
0.0
 10
7.1734945504
 20
6.4313809344
 30
0.0
 10
7.1703674438
 20
6.4321655217
 30
0.0
 10
7.1663983118
 20
6.4329133293
 30
0.0
 10
7.1623819874
 20
6.4333594941
 30
0.0
 10
7.1591547467
 20
6.4335414664
 30
0.0
 10
7.1567305039
 20
6.4335916384
 30
0.0
 10
7.1543062019
 20
6.4335555744
 30
0.0
 10
7.1526918049
 20
6.4334742161
 30
0.0
 10
7.151885624
 20
6.4334192578
 30
0.0
 11
7.1264623812
 21
6.2748438385
 31
0.0
 11
7.1309747818
 21
6.2824709554
 31
0.0
 11
7.1355888631
 21
6.2900391733
 31
0.0
 11
7.1402870163
 21
6.297538752
 31
0.0
 11
7.1450516328
 21
6.3049599519
 31
0.0
 11
7.1498644661
 21
6.3122947826
 31
0.0
 11
7.1547051041
 21
6.3195411937
 31
0.0
 11
7.1571293277
 21
6.3231309945
 31
0.0
 11
7.1595526758
 21
6.3266983935
 31
0.0
 11
7.1619725396
 21
6.3302432918
 31
0.0
 11
7.1643858613
 21
6.3337656366
 31
0.0
 11
7.1691741874
 21
6.3407431169
 31
0.0
 11
7.1715393553
 21
6.3441985288
 31
0.0
 11
7.1738786354
 21
6.3476319059
 31
0.0
 11
7.1761871094
 21
6.3510433864
 31
0.0
 11
7.1784595821
 21
6.3544330868
 31
0.0
 11
7.1806883673
 21
6.3578009295
 31
0.0
 11
7.182864462
 21
6.3611467343
 31
0.0
 11
7.1849788511
 21
6.36447032
 31
0.0
 11
7.1870225194
 21
6.3677715055
 31
0.0
 11
7.1889864518
 21
6.3710501095
 31
0.0
 11
7.1908599151
 21
6.3743053408
 31
0.0
 11
7.1926260663
 21
6.3775342386
 31
0.0
 11
7.1942667041
 21
6.3807333598
 31
0.0
 11
7.1957636277
 21
6.3838992613
 31
0.0
 11
7.1964525089
 21
6.3854686787
 31
0.0
 11
7.197098636
 21
6.3870285001
 31
0.0
 11
7.198253256
 21
6.3901160795
 31
0.0
 11
7.1992078847
 21
6.3931505452
 31
0.0
 11
7.1996039846
 21
6.3946437566
 31
0.0
 11
7.1999426254
 21
6.396118765
 31
0.0
 11
7.2002213201
 21
6.3975739289
 31
0.0
 11
7.2004375815
 21
6.3990076068
 31
0.0
 11
7.2005889226
 21
6.4004181572
 31
0.0
 11
7.2006731056
 21
6.4018039759
 31
0.0
 11
7.2006902882
 21
6.4031638173
 31
0.0
 11
7.2006419639
 21
6.4044966356
 31
0.0
 11
7.2005296403
 21
6.4058013874
 31
0.0
 11
7.2003548254
 21
6.4070770291
 31
0.0
 11
7.2001190269
 21
6.4083225172
 31
0.0
 11
7.1998237527
 21
6.4095368082
 31
0.0
 11
7.1994705107
 21
6.4107188586
 31
0.0
 11
7.1990608086
 21
6.4118676249
 31
0.0
 11
7.1985961544
 21
6.4129820637
 31
0.0
 11
7.1980783064
 21
6.4140614707
 31
0.0
 11
7.1975097731
 21
6.4151061584
 31
0.0
 11
7.1968932038
 21
6.4161166293
 31
0.0
 11
7.1955265528
 21
6.4180369311
 31
0.0
 11
7.1939995454
 21
6.4198263964
 31
0.0
 11
7.1923333737
 21
6.4214890456
 31
0.0
 11
7.1914547237
 21
6.4222740704
 31
0.0
 11
7.1905489744
 21
6.4230288911
 31
0.0
 11
7.1886622499
 21
6.4244497924
 31
0.0
 11
7.186684494
 21
6.4257554684
 31
0.0
 11
7.1846268305
 21
6.4269496329
 31
0.0
 11
7.1825003834
 21
6.4280359998
 31
0.0
 11
7.1814148405
 21
6.4285399191
 31
0.0
 11
7.1803160809
 21
6.4290182141
 31
0.0
 11
7.1780822271
 21
6.4298989974
 31
0.0
 11
7.1758052492
 21
6.4306804113
 31
0.0
 11
7.173491534
 21
6.4313645029
 31
0.0
 11
7.1711474683
 21
6.4319533194
 31
0.0
 11
7.1663915236
 21
6.4328525992
 31
0.0
 11
7.1615747203
 21
6.433390348
 31
0.0
 11
7.1591540409
 21
6.4335270827
 31
0.0
 11
7.1567304168
 21
6.4335772665
 31
0.0
 11
7.1543067087
 21
6.4335412474
 31
0.0
 11
7.151885624
 21
6.4334192578
 31
0.0
  0
SPLINE
  5
2C8
100
AcDbEntity
  8
0
100
AcDbSpline
 62
6
  6
CONTINUOUS
 70
0
 71
3
 72
69
 73
65
 74
63
 42
0.0000001
 43
0.0000001
 44
0.0000000001
 12
0.0806089955
 22
0.1306614495
 32
0.0
 13
-0.153241864
 23
-0.0093357195
 33
0.0
 40
0.0
 40
0.0
 40
0.0
 40
0.0
 40
0.0895836488
 40
0.1338406436
 40
0.1776809888
 40
0.221060189
 40
0.2639393845
 40
0.3062800552
 40
0.3480420369
 40
0.3686931102
 40
0.3891828317
 40
0.4296374695
 40
0.4693192662
 40
0.488842529
 40
0.5081390493
 40
0.5271975419
 40
0.5460043816
 40
0.5827797983
 40
0.6007051924
 40
0.6182939657
 40
0.6355252863
 40
0.6523788437
 40
0.668830805
 40
0.6848395456
 40
0.7003600068
 40
0.7153497121
 40
0.7297696127
 40
0.7435851961
 40
0.7567671884
 40
0.7692831438
 40
0.7811021898
 40
0.7867449133
 40
0.7922080803
 40
0.7974923392
 40
0.8025998951
 40
0.8075347822
 40
0.8123031751
 40
0.8169139787
 40
0.8213808532
 40
0.8257198087
 40
0.8299473655
 40
0.834080417
 40
0.83813608
 40
0.8421315187
 40
0.8460837484
 40
0.8500094315
 40
0.853924677
 40
0.8578448556
 40
0.861784443
 40
0.8657569282
 40
0.8697747216
 40
0.8779835357
 40
0.8864773303
 40
0.8952915744
 40
0.9044395409
 40
0.9139168789
 40
0.923705633
 40
0.9337882735
 40
0.9441604866
 40
0.9548153616
 40
0.9657420772
 40
0.9769265874
 40
0.9883521902
 40
1.0
 40
1.0
 40
1.0
 40
1.0
 10
7.129703102
 20
6.4318854198
 30
0.0
 10
7.1321101847
 20
6.4357871296
 30
0.0
 10
7.1357965712
 20
6.4415614197
 30
0.0
 10
7.140853924
 20
6.4491183336
 30
0.0
 10
7.1446729999
 20
6.4546580558
 30
0.0
 10
7.1485245943
 20
6.4600889385
 30
0.0
 10
7.1523977025
 20
6.4654098352
 30
0.0
 10
7.1562814227
 20
6.4706200874
 30
0.0
 10
7.1595296049
 20
6.4748848908
 30
0.0
 10
7.1621238859
 20
6.4782418625
 30
0.0
 10
7.1646918193
 20
6.4815345912
 30
0.0
 10
7.1678821422
 20
6.4855769196
 30
0.0
 10
7.1710639561
 20
6.4895628202
 30
0.0
 10
7.1735779025
 20
6.4926963691
 30
0.0
 10
7.1754337314
 20
6.4950048288
 30
0.0
 10
7.177267502
 20
6.49728398
 30
0.0
 10
7.1796611445
 20
6.5002607327
 30
0.0
 10
7.1820120705
 20
6.5031974489
 30
0.0
 10
7.1843064135
 20
6.5060995124
 30
0.0
 10
7.1859688718
 20
6.5082260985
 30
0.0
 10
7.1875830207
 20
6.5103207583
 30
0.0
 10
7.1891439972
 20
6.5123828391
 30
0.0
 10
7.1906463636
 20
6.5144106727
 30
0.0
 10
7.1920816275
 20
6.5164030863
 30
0.0
 10
7.1934404296
 20
6.518357995
 30
0.0
 10
7.1947132919
 20
6.5202730868
 30
0.0
 10
7.1958907324
 20
6.5221460855
 30
0.0
 10
7.196963309
 20
6.5239746832
 30
0.0
 10
7.1979211657
 20
6.5257561883
 30
0.0
 10
7.1987548361
 20
6.5274864659
 30
0.0
 10
7.1993471798
 20
6.5289026809
 30
0.0
 10
7.1997468562
 20
6.5300059069
 30
0.0
 10
7.2000046684
 20
6.5308042774
 30
0.0
 10
7.2002239604
 20
6.5315856963
 30
0.0
 10
7.2004034934
 20
6.5323494926
 30
0.0
 10
7.2005420042
 20
6.5330949911
 30
0.0
 10
7.2006383025
 20
6.5338215316
 30
0.0
 10
7.2006908945
 20
6.5345285753
 30
0.0
 10
7.200699957
 20
6.5352155598
 30
0.0
 10
7.2006664441
 20
6.5358821697
 30
0.0
 10
7.2005911526
 20
6.5365281851
 30
0.0
 10
7.2004749268
 20
6.537153379
 30
0.0
 10
7.2003186068
 20
6.5377575204
 30
0.0
 10
7.2001230436
 20
6.5383403761
 30
0.0
 10
7.1998890968
 20
6.5389017132
 30
0.0
 10
7.1996176337
 20
6.5394413023
 30
0.0
 10
7.1993095305
 20
6.5399589202
 30
0.0
 10
7.1989656621
 20
6.5404543482
 30
0.0
 10
7.1985869257
 20
6.5409273898
 30
0.0
 10
7.1981741359
 20
6.5413778095
 30
0.0
 10
7.1975759672
 20
6.5419524411
 30
0.0
 10
7.1967458114
 20
6.542616219
 30
0.0
 10
7.1956435011
 20
6.543320111
 30
0.0
 10
7.1944383527
 20
6.5439408147
 30
0.0
 10
7.1931409303
 20
6.5444814311
 30
0.0
 10
7.1917615795
 20
6.5449449677
 30
0.0
 10
7.1903101816
 20
6.5453345649
 30
0.0
 10
7.188794782
 20
6.5456527565
 30
0.0
 10
7.1872215046
 20
6.545900579
 30
0.0
 10
7.1855955546
 20
6.5460797128
 30
0.0
 10
7.18392201
 20
6.5461917413
 30
0.0
 10
7.1822059587
 20
6.5462382637
 30
0.0
 10
7.1804525255
 20
6.5462208648
 30
0.0
 10
7.1792726499
 20
6.5461681767
 30
0.0
 10
7.1786776725
 20
6.5461319298
 30
0.0
 11
7.129703102
 21
6.4318854198
 31
0.0
 11
7.1371001723
 21
6.4434802388
 31
0.0
 11
7.1408787779
 21
6.4491272472
 31
0.0
 11
7.1446986819
 21
6.4546688838
 31
0.0
 11
7.1485505782
 21
6.4601017728
 31
0.0
 11
7.1524240003
 21
6.465424687
 31
0.0
 11
7.1563081374
 21
6.4706370361
 31
0.0
 11
7.1601921788
 21
6.4757382303
 31
0.0
 11
7.1621307852
 21
6.4782469599
 31
0.0
 11
7.164065099
 21
6.4807276627
 31
0.0
 11
7.1679111803
 21
6.4856043586
 31
0.0
 11
7.1717101429
 21
6.490366986
 31
0.0
 11
7.1735855584
 21
6.492705103
 31
0.0
 11
7.1754415187
 21
6.4950141978
 31
0.0
 11
7.177275465
 21
6.4972941019
 31
0.0
 11
7.1790843608
 21
6.4995445727
 31
0.0
 11
7.1826089044
 21
6.5039553211
 31
0.0
 11
7.1843151092
 21
6.5061145904
 31
0.0
 11
7.1859776405
 21
6.508242451
 31
0.0
 11
7.1875917767
 21
6.510338399
 31
0.0
 11
7.1891527964
 21
6.5124019301
 31
0.0
 11
7.190655263
 21
6.5144322692
 31
0.0
 11
7.192090516
 21
6.5164274185
 31
0.0
 11
7.1934489864
 21
6.5183850356
 31
0.0
 11
7.1947211054
 21
6.5203027783
 31
0.0
 11
7.1958973038
 21
6.5221783041
 31
0.0
 11
7.1969680128
 21
6.5240092709
 31
0.0
 11
7.1979236518
 21
6.5257932082
 31
0.0
 11
7.1987544759
 21
6.5275258324
 31
0.0
 11
7.1994506185
 21
6.5292015133
 31
0.0
 11
7.1997451
 21
6.5300162307
 31
0.0
 11
7.2000022101
 21
6.5308145889
 31
0.0
 11
7.2002207149
 21
6.5315958803
 31
0.0
 11
7.2003993809
 21
6.5323593971
 31
0.0
 11
7.2005369744
 21
6.5331044316
 31
0.0
 11
7.2006322616
 21
6.5338302759
 31
0.0
 11
7.2006841276
 21
6.5345362514
 31
0.0
 11
7.2006926865
 21
6.5352219792
 31
0.0
 11
7.2006587792
 21
6.535887258
 31
0.0
 11
7.2005832556
 21
6.5365318888
 31
0.0
 11
7.2004669658
 21
6.5371556724
 31
0.0
 11
7.20031076
 21
6.5377584097
 31
0.0
 11
7.2001154882
 21
6.5383399017
 31
0.0
 11
7.1998820005
 21
6.5388999492
 31
0.0
 11
7.1996111471
 21
6.5394383532
 31
0.0
 11
7.199303778
 21
6.5399549146
 31
0.0
 11
7.1989607433
 21
6.5404494343
 31
0.0
 11
7.1985828931
 21
6.5409217132
 31
0.0
 11
7.1981711124
 21
6.5413715908
 31
0.0
 11
7.1977265812
 21
6.5417992335
 31
0.0
 11
7.1967445827
 21
6.5425891383
 31
0.0
 11
7.1956475337
 21
6.5432940828
 31
0.0
 11
7.194446072
 21
6.5439167236
 31
0.0
 11
7.1931508349
 21
6.5444597172
 31
0.0
 11
7.19177246
 21
6.5449257199
 31
0.0
 11
7.1903215669
 21
6.5453173848
 31
0.0
 11
7.1888069783
 21
6.5456370123
 31
0.0
 11
7.1872342004
 21
6.5458862523
 31
0.0
 11
7.1856083818
 21
6.5460666846
 31
0.0
 11
7.1839346711
 21
6.5461798887
 31
0.0
 11
7.182218217
 21
6.5462274445
 31
0.0
 11
7.1804641679
 21
6.5462109316
 31
0.0
 11
7.1786776725
 21
6.5461319298
 31
0.0
  0
SPLINE
  5
2C9
100
AcDbEntity
  8
0
100
AcDbSpline
 62
6
  6
CONTINUOUS
 70
0
 71
3
 72
63
 73
59
 74
57
 42
0.0000001
 43
0.0000001
 44
0.0000000001
 12
0.0543898658
 22
0.0680375788
 32
0.0
 13
-0.0869895062
 23
-0.004493935
 33
0.0
 40
0.0
 40
0.0
 40
0.0
 40
0.0
 40
0.0480306771
 40
0.0955183117
 40
0.1887857861
 40
0.2345274415
 40
0.2796454784
 40
0.3241177869
 40
0.3679197232
 40
0.4533231997
 40
0.4948126741
 40
0.5354159023
 40
0.5750733474
 40
0.6137156948
 40
0.6512350925
 40
0.6875124282
 40
0.7224274862
 40
0.7558592691
 40
0.7719802829
 40
0.7876738788
 40
0.8176490389
 40
0.8318658606
 40
0.8455260117
 40
0.8585978046
 40
0.8710500583
 40
0.8828522894
 40
0.8939748671
 40
0.9043865265
 40
0.9140545676
 40
0.9186002732
 40
0.9229489999
 40
0.9270975707
 40
0.9310431671
 40
0.934783421
 40
0.9383165369
 40
0.9416414543
 40
0.944758069
 40
0.947667533
 40
0.9503726687
 40
0.952878538
 40
0.9551932262
 40
0.9573298749
 40
0.9593084612
 40
0.9611534936
 40
0.9628939016
 40
0.9645627965
 40
0.9661963652
 40
0.9678318811
 40
0.9695052733
 40
0.9730838627
 40
0.9750460355
 40
0.977146434
 40
0.9793986837
 40
0.9818130635
 40
0.9843972016
 40
0.9871566568
 40
0.9932146828
 40
1.0
 40
1.0
 40
1.0
 40
1.0
 10
7.1424178858
 20
6.5438484863
 30
0.0
 10
7.1432886798
 20
6.5449377833
 30
0.0
 10
7.145035645
 20
6.5470919527
 30
0.0
 10
7.1485474735
 20
6.5513008091
 30
0.0
 10
7.1521011484
 20
6.5553875804
 30
0.0
 10
7.155688414
 20
6.5593516889
 30
0.0
 10
7.1583622876
 20
6.562231163
 30
0.0
 10
7.1610333581
 20
6.5650359519
 30
0.0
 10
7.1645560876
 20
6.5686443928
 30
0.0
 10
7.168080465
 20
6.5721296681
 30
0.0
 10
7.1715924751
 20
6.5754938652
 30
0.0
 10
7.1741693438
 20
6.577913916
 30
0.0
 10
7.176707669
 20
6.5802540169
 30
0.0
 10
7.1791996936
 20
6.5825120423
 30
0.0
 10
7.1816345683
 20
6.5846868326
 30
0.0
 10
7.1840004206
 20
6.5867763519
 30
0.0
 10
7.1862851885
 20
6.5887783444
 30
0.0
 10
7.1881331645
 20
6.5903907742
 30
0.0
 10
7.1895607106
 20
6.5916361726
 30
0.0
 10
7.1909116616
 20
6.5928166966
 30
0.0
 10
7.1922178249
 20
6.5939644648
 30
0.0
 10
7.1934721187
 20
6.5950817476
 30
0.0
 10
7.1943551445
 20
6.595877926
 30
0.0
 10
7.195194161
 20
6.5966463598
 30
0.0
 10
7.1959861282
 20
6.597386227
 30
0.0
 10
7.1967280176
 20
6.5980966932
 30
0.0
 10
7.1974167351
 20
6.5987768775
 30
0.0
 10
7.1980491186
 20
6.5994257017
 30
0.0
 10
7.1985360427
 20
6.5999494108
 30
0.0
 10
7.1988940022
 20
6.6003523626
 30
0.0
 10
7.1991407416
 20
6.6006396832
 30
0.0
 10
7.1993709026
 20
6.6009181931
 30
0.0
 10
7.1995840726
 20
6.6011877298
 30
0.0
 10
7.1997798421
 20
6.6014481296
 30
0.0
 10
7.1999578029
 20
6.6016992312
 30
0.0
 10
7.2001175491
 20
6.6019408761
 30
0.0
 10
7.2002586765
 20
6.6021729107
 30
0.0
 10
7.2003807831
 20
6.6023951879
 30
0.0
 10
7.2004834657
 20
6.6026075723
 30
0.0
 10
7.2005663226
 20
6.6028099405
 30
0.0
 10
7.200628933
 20
6.6030022279
 30
0.0
 10
7.2006709081
 20
6.6031844301
 30
0.0
 10
7.2006924109
 20
6.6033564931
 30
0.0
 10
7.2006935739
 20
6.603518459
 30
0.0
 10
7.2006745083
 20
6.6036703169
 30
0.0
 10
7.2006353342
 20
6.6038119677
 30
0.0
 10
7.2005762607
 20
6.6039432325
 30
0.0
 10
7.2004976038
 20
6.6040639379
 30
0.0
 10
7.2003643671
 20
6.6042139197
 30
0.0
 10
7.2001933884
 20
6.6043392986
 30
0.0
 10
7.1999958972
 20
6.6044407329
 30
0.0
 10
7.1998254236
 20
6.6045089949
 30
0.0
 10
7.1996375346
 20
6.6045670461
 30
0.0
 10
7.1994323898
 20
6.6046150169
 30
0.0
 10
7.1992102321
 20
6.6046529517
 30
0.0
 10
7.1988812939
 20
6.6046913889
 30
0.0
 10
7.1984281725
 20
6.6047120042
 30
0.0
 10
7.1980551297
 20
6.6047026152
 30
0.0
 10
7.1978583793
 20
6.6046924509
 30
0.0
 11
7.1424178858
 21
6.5438484863
 31
0.0
 11
7.1450531332
 21
6.5470979667
 31
0.0
 11
7.1477031212
 21
6.5502740734
 31
0.0
 11
7.1530335091
 21
6.5564049903
 31
0.0
 11
7.1557069041
 21
6.5593593101
 31
0.0
 11
7.1583810964
 21
6.5622392107
 31
0.0
 11
7.1610525838
 21
6.5650444469
 31
0.0
 11
7.1637176843
 21
6.5677747289
 31
0.0
 11
7.1690055881
 21
6.5730071738
 31
0.0
 11
7.1716151993
 21
6.5755073036
 31
0.0
 11
7.1741931131
 21
6.5779286805
 31
0.0
 11
7.1767327266
 21
6.5802702864
 31
0.0
 11
7.1792265719
 21
6.5825309126
 31
0.0
 11
7.1816635168
 21
6.5847085442
 31
0.0
 11
7.1840314583
 21
6.5868009527
 31
0.0
 11
7.1863182936
 21
6.5888059098
 31
0.0
 11
7.1885119198
 21
6.590721187
 31
0.0
 11
7.1895699344
 21
6.591644477
 31
0.0
 11
7.1905991301
 21
6.5925441667
 31
0.0
 11
7.1925588876
 21
6.5942694724
 31
0.0
 11
7.1934833406
 21
6.595093445
 31
0.0
 11
7.1943667706
 21
6.595890535
 31
0.0
 11
7.1952061232
 21
6.5966599208
 31
0.0
 11
7.1959983441
 21
6.5974007805
 31
0.0
 11
7.1967403788
 21
6.5981122925
 31
0.0
 11
7.1974291683
 21
6.5987936263
 31
0.0
 11
7.1980615229
 21
6.5994437176
 31
0.0
 11
7.1986341108
 21
6.6000612467
 31
0.0
 11
7.1988969489
 21
6.6003573839
 31
0.0
 11
7.1991435933
 21
6.6006448809
 31
0.0
 11
7.1993736266
 21
6.6009235711
 31
0.0
 11
7.1995866313
 21
6.6011932878
 31
0.0
 11
7.1997821902
 21
6.6014538645
 31
0.0
 11
7.199959886
 21
6.6017051346
 31
0.0
 11
7.2001193011
 21
6.6019469315
 31
0.0
 11
7.2002600183
 21
6.6021790887
 31
0.0
 11
7.2003816202
 21
6.6024014396
 31
0.0
 11
7.2004836894
 21
6.6026138176
 31
0.0
 11
7.2005658085
 21
6.6028160562
 31
0.0
 11
7.2006275607
 21
6.6030079888
 31
0.0
 11
7.2006687002
 21
6.6031894989
 31
0.0
 11
7.200689413
 21
6.6033605955
 31
0.0
 11
7.2006899522
 21
6.6035213071
 31
0.0
 11
7.2006705709
 21
6.6036716622
 31
0.0
 11
7.200631522
 21
6.6038116893
 31
0.0
 11
7.2005730585
 21
6.603941417
 31
0.0
 11
7.2004954336
 21
6.6040608738
 31
0.0
 11
7.2003989002
 21
6.6041700882
 31
0.0
 11
7.2001501203
 21
6.6043579037
 31
0.0
 11
7.1999983798
 21
6.604436562
 31
0.0
 11
7.199828743
 21
6.6045050919
 31
0.0
 11
7.1996414629
 21
6.6045635219
 31
0.0
 11
7.1994367925
 21
6.6046118807
 31
0.0
 11
7.199214985
 21
6.6046501967
 31
0.0
 11
7.1989762932
 21
6.6046784984
 31
0.0
 11
7.1984492807
 21
6.6047051788
 31
0.0
 11
7.1978583793
 21
6.6046924509
 31
0.0
  0
SPLINE
  5
2CA
100
AcDbEntity
  8
0
100
AcDbSpline
 62
6
  6
CONTINUOUS
 70
0
 71
3
 72
13
 73
9
 74
7
 42
0.0000001
 43
0.0000001
 44
0.0000000001
 12
0.0251926484
 22
0.0
 32
0.0
 13
0.0245816477
 23
0.0055147195
 33
0.0
 40
0.0
 40
0.0
 40
0.0
 40
0.0
 40
0.1273392045
 40
0.2545127093
 40
0.5072119639
 40
0.7562859277
 40
0.8789456906
 40
1.0
 40
1.0
 40
1.0
 40
1.0
 10
7.3578932626
 20
4.984363407
 30
0.0
 10
7.3589625999
 20
4.984363407
 30
0.0
 10
7.3611000054
 20
4.9843918107
 30
0.0
 10
7.3653563596
 20
4.9845612953
 30
0.0
 10
7.3706238992
 20
4.9849820089
 30
0.0
 10
7.375823352
 20
4.9856838937
 30
0.0
 10
7.3798975339
 20
4.9864116264
 30
0.0
 10
7.3819013578
 20
4.9868296539
 30
0.0
 10
7.3828932626
 20
4.9870521808
 30
0.0
 11
7.3578932626
 21
4.984363407
 31
0.0
 11
7.3611009915
 21
4.984406008
 31
0.0
 11
7.3643022871
 21
4.9845336037
 31
0.0
 11
7.3706480898
 21
4.9850423533
 31
0.0
 11
7.3768661054
 21
4.9858848542
 31
0.0
 11
7.3799079929
 21
4.986428719
 31
0.0
 11
7.3828932626
 21
4.9870521808
 31
0.0
  0
SPLINE
  5
2CB
100
AcDbEntity
  8
0
100
AcDbSpline
 62
6
  6
CONTINUOUS
 70
0
 71
3
 72
13
 73
9
 74
7
 42
0.0000001
 43
0.0000001
 44
0.0000000001
 12
0.0251138224
 22
0.0
 32
0.0
 13
0.0247495838
 23
0.0042617103
 33
0.0
 40
0.0
 40
0.0
 40
0.0
 40
0.0
 40
0.1277342628
 40
0.255265358
 40
0.5084249733
 40
0.757353649
 40
0.8796128822
 40
1.0
 40
1.0
 40
1.0
 40
1.0
 10
7.3578932626
 20
5.1274334619
 30
0.0
 10
7.3589625611
 20
5.1274334619
 30
0.0
 10
7.3610995296
 20
5.1274552547
 30
0.0
 10
7.3653539377
 20
5.1275852676
 30
0.0
 10
7.3706163792
 20
5.1279076929
 30
0.0
 10
7.3758168942
 20
5.1284461733
 30
0.0
 10
7.3798941507
 20
5.1290050614
 30
0.0
 10
7.3819000856
 20
5.1293261972
 30
0.0
 10
7.3828932626
 20
5.1294972156
 30
0.0
 11
7.3578932626
 21
5.1274334619
 31
0.0
 11
7.3611009915
 21
5.1274661601
 31
0.0
 11
7.3643022871
 21
5.1275640955
 31
0.0
 11
7.3706480898
 21
5.1279545835
 31
0.0
 11
7.3768661054
 21
5.1286012404
 31
0.0
 11
7.3799079929
 21
5.1290186809
 31
0.0
 11
7.3828932626
 21
5.1294972156
 31
0.0
  0
SPLINE
  5
2CC
100
AcDbEntity
  8
0
100
AcDbSpline
 62
6
  6
CONTINUOUS
 70
0
 71
3
 72
12
 73
8
 74
6
 42
0.0000001
 43
0.0000001
 44
0.0000000001
 12
0.0250522383
 22
0.0
 32
0.0
 13
0.0248833925
 23
0.002903691
 33
0.0
 40
0.0
 40
0.0
 40
0.0
 40
0.0
 40
0.2558508274
 40
0.509373796
 40
0.7581914426
 40
0.8801371666
 40
1.0
 40
1.0
 40
1.0
 40
1.0
 10
7.3578932626
 20
5.2796983029
 30
0.0
 10
7.3600298079
 20
5.2796983029
 30
0.0
 10
7.3642837013
 20
5.2797568304
 30
0.0
 10
7.3706104837
 20
5.2800193667
 30
0.0
 10
7.3758117966
 20
5.2803841596
 30
0.0
 10
7.3798914568
 20
5.2807630748
 30
0.0
 10
7.3818990646
 20
5.280980853
 30
0.0
 10
7.3828932626
 20
5.2810968679
 30
0.0
 11
7.3578932626
 21
5.2796983029
 31
0.0
 11
7.3643022871
 21
5.2797868307
 31
0.0
 11
7.3706480898
 21
5.2800514567
 31
0.0
 11
7.3768661054
 21
5.2804896833
 31
0.0
 11
7.3799079929
 21
5.2807725744
 31
0.0
 11
7.3828932626
 21
5.2810968679
 31
0.0
  0
SPLINE
  5
2CD
100
AcDbEntity
  8
0
100
AcDbSpline
 62
6
  6
CONTINUOUS
 70
0
 71
3
 72
11
 73
7
 74
5
 42
0.0000001
 43
0.0000001
 44
0.0000000001
 12
0.02501329
 22
0.0
 32
0.0
 13
0.024969986
 23
0.0014712156
 33
0.0
 40
0.0
 40
0.0
 40
0.0
 40
0.0
 40
0.2562310026
 40
0.5099844721
 40
0.7587302902
 40
1.0
 40
1.0
 40
1.0
 40
1.0
 10
7.3578932626
 20
5.4381942682
 30
0.0
 10
7.3600296561
 20
5.4381942682
 30
0.0
 10
7.364281845
 20
5.4382238019
 30
0.0
 10
7.3706067778
 20
5.4383562727
 30
0.0
 10
7.3768044777
 20
5.4385757112
 30
0.0
 10
7.3808850955
 20
5.4387821029
 30
0.0
 10
7.3828932626
 20
5.4389004229
 30
0.0
 11
7.3578932626
 21
5.4381942682
 31
0.0
 11
7.3643022871
 21
5.438238967
 31
0.0
 11
7.3706480898
 21
5.4383725803
 31
0.0
 11
7.3768661054
 21
5.438593847
 31
0.0
 11
7.3828932626
 21
5.4389004229
 31
0.0
  0
SPLINE
  5
2CE
100
AcDbEntity
  8
0
100
AcDbSpline
 62
6
  6
CONTINUOUS
 70
0
 71
3
 72
34
 73
30
 74
28
 42
0.0000001
 43
0.0000001
 44
0.0000000001
 12
-0.0678059122
 22
-0.0029392302
 32
0.0
 13
-0.0586546889
 23
-0.034145399
 33
0.0
 40
0.0
 40
0.0
 40
0.0
 40
0.0
 40
0.1860667202
 40
0.276754087
 40
0.3649234827
 40
0.4498736664
 40
0.5309101945
 40
0.6073720332
 40
0.6786270684
 40
0.7440737936
 40
0.7744443534
 40
0.8031565675
 40
0.8301499635
 40
0.8553662573
 40
0.878748428
 40
0.9002467443
 40
0.9198149107
 40
0.9374081829
 40
0.9529903121
 40
0.9600177071
 40
0.9665311615
 40
0.9725274146
 40
0.9780040942
 40
0.9829603807
 40
0.9873963399
 40
0.9913132123
 40
0.9947141359
 40
0.9976055023
 40
1.0
 40
1.0
 40
1.0
 40
1.0
 10
5.5538932626
 20
5.2855768995
 30
0.0
 10
5.549687788
 20
5.2853946018
 30
0.0
 10
5.5434326817
 20
5.2851215151
 30
0.0
 10
5.5351853741
 20
5.284748531
 30
0.0
 10
5.5292237097
 20
5.284470182
 30
0.0
 10
5.5234806698
 20
5.2841908699
 30
0.0
 10
5.5180028665
 20
5.2839106075
 30
0.0
 10
5.5128353649
 20
5.2836294447
 30
0.0
 10
5.50802116
 20
5.2833474359
 30
0.0
 10
5.5042491296
 20
5.2831061807
 30
0.0
 10
5.5014386334
 20
5.2829110529
 30
0.0
 10
5.4994965615
 20
5.2827681209
 30
0.0
 10
5.4976714475
 20
5.2826249577
 30
0.0
 10
5.4959673285
 20
5.2824815771
 30
0.0
 10
5.4943880162
 20
5.2823379749
 30
0.0
 10
5.4929370704
 20
5.2821941852
 30
0.0
 10
5.4916177985
 20
5.2820502639
 30
0.0
 10
5.4904332639
 20
5.28190621
 30
0.0
 10
5.4895321747
 20
5.2817822624
 30
0.0
 10
5.4888809875
 20
5.2816819496
 30
0.0
 10
5.4884449959
 20
5.2816092889
 30
0.0
 10
5.4880446154
 20
5.2815365952
 30
0.0
 10
5.4876800956
 20
5.2814638691
 30
0.0
 10
5.4873516406
 20
5.281391133
 30
0.0
 10
5.4870594163
 20
5.2813184067
 30
0.0
 10
5.4868035777
 20
5.2812457187
 30
0.0
 10
5.4865842162
 20
5.2811731002
 30
0.0
 10
5.4864014371
 20
5.2811005973
 30
0.0
 10
5.4862940034
 20
5.2810474833
 30
0.0
 10
5.4862471872
 20
5.2810202297
 30
0.0
 11
5.5538932626
 21
5.2855768995
 31
0.0
 11
5.5412771455
 21
5.2850229788
 31
0.0
 11
5.5351285373
 21
5.2847444384
 31
0.0
 11
5.5291510535
 21
5.2844648161
 31
0.0
 11
5.523392358
 21
5.2841840912
 31
0.0
 11
5.5178996675
 21
5.2839022697
 31
0.0
 11
5.5127179531
 21
5.2836193301
 31
0.0
 11
5.5078902539
 21
5.2833352558
 31
0.0
 11
5.5034575784
 21
5.283050036
 31
0.0
 11
5.5014013105
 21
5.282906993
 31
0.0
 11
5.4994579029
 21
5.2827636592
 31
0.0
 11
5.4976315109
 21
5.2826200327
 31
0.0
 11
5.4959261537
 21
5.2824761113
 31
0.0
 11
5.4943457822
 21
5.2823318931
 31
0.0
 11
5.492893875
 21
5.2821873757
 31
0.0
 11
5.491573711
 21
5.2820425569
 31
0.0
 11
5.4903885147
 21
5.2818974345
 31
0.0
 11
5.4893410089
 21
5.2817520066
 31
0.0
 11
5.4888696557
 21
5.2816791776
 31
0.0
 11
5.4884336436
 21
5.2816062717
 31
0.0
 11
5.4880332781
 21
5.2815332886
 31
0.0
 11
5.4876688291
 21
5.2814602282
 31
0.0
 11
5.4873404953
 21
5.2813870901
 31
0.0
 11
5.4870484668
 21
5.2813138744
 31
0.0
 11
5.4867929339
 21
5.2812405806
 31
0.0
 11
5.4865740867
 21
5.2811672088
 31
0.0
 11
5.4863921154
 21
5.2810937585
 31
0.0
 11
5.4862471872
 21
5.2810202297
 31
0.0
  0
LINE
  5
2CF
100
AcDbEntity
  8
0
100
AcDbLine
 62
6
  6
CONTINUOUS
 10
7.3578932626
 20
5.5998364139
 11
7.3828932626
 21
5.5998364139
  0
SPLINE
  5
2D0
100
AcDbEntity
  8
0
100
AcDbSpline
 62
6
  6
CONTINUOUS
 70
0
 71
3
 72
11
 73
7
 74
5
 42
0.0000001
 43
0.0000001
 44
0.0000000001
 12
0.02501329
 22
0.0
 32
0.0
 13
0.024969986
 23
-0.0014712156
 33
0.0
 40
0.0
 40
0.0
 40
0.0
 40
0.0
 40
0.2562310026
 40
0.5099844721
 40
0.7587302902
 40
1.0
 40
1.0
 40
1.0
 40
1.0
 10
7.3578932626
 20
5.7614785596
 30
0.0
 10
7.3600296561
 20
5.7614785596
 30
0.0
 10
7.364281845
 20
5.7614490259
 30
0.0
 10
7.3706067778
 20
5.7613165551
 30
0.0
 10
7.3768044777
 20
5.7610971165
 30
0.0
 10
7.3808850955
 20
5.7608907248
 30
0.0
 10
7.3828932626
 20
5.7607724049
 30
0.0
 11
7.3578932626
 21
5.7614785596
 31
0.0
 11
7.3643022871
 21
5.7614338607
 31
0.0
 11
7.3706480898
 21
5.7613002474
 31
0.0
 11
7.3768661054
 21
5.7610789807
 31
0.0
 11
7.3828932626
 21
5.7607724049
 31
0.0
  0
SPLINE
  5
2D1
100
AcDbEntity
  8
0
100
AcDbSpline
 62
6
  6
CONTINUOUS
 70
0
 71
3
 72
12
 73
8
 74
6
 42
0.0000001
 43
0.0000001
 44
0.0000000001
 12
0.0250522383
 22
0.0
 32
0.0
 13
0.0248833925
 23
-0.002903691
 33
0.0
 40
0.0
 40
0.0
 40
0.0
 40
0.0
 40
0.2558508274
 40
0.509373796
 40
0.7581914426
 40
0.8801371666
 40
1.0
 40
1.0
 40
1.0
 40
1.0
 10
7.3578932626
 20
5.9199745248
 30
0.0
 10
7.3600298079
 20
5.9199745248
 30
0.0
 10
7.3642837013
 20
5.9199159973
 30
0.0
 10
7.3706104837
 20
5.919653461
 30
0.0
 10
7.3758117966
 20
5.9192886681
 30
0.0
 10
7.3798914568
 20
5.9189097529
 30
0.0
 10
7.3818990646
 20
5.9186919747
 30
0.0
 10
7.3828932626
 20
5.9185759599
 30
0.0
 11
7.3578932626
 21
5.9199745248
 31
0.0
 11
7.3643022871
 21
5.919885997
 31
0.0
 11
7.3706480898
 21
5.919621371
 31
0.0
 11
7.3768661054
 21
5.9191831444
 31
0.0
 11
7.3799079929
 21
5.9189002533
 31
0.0
 11
7.3828932626
 21
5.9185759599
 31
0.0
  0
SPLINE
  5
2D2
100
AcDbEntity
  8
0
100
AcDbSpline
 62
6
  6
CONTINUOUS
 70
0
 71
3
 72
13
 73
9
 74
7
 42
0.0000001
 43
0.0000001
 44
0.0000000001
 12
0.0251138224
 22
0.0
 32
0.0
 13
0.0247495838
 23
-0.0042617103
 33
0.0
 40
0.0
 40
0.0
 40
0.0
 40
0.0
 40
0.1277342628
 40
0.255265358
 40
0.5084249733
 40
0.757353649
 40
0.8796128822
 40
1.0
 40
1.0
 40
1.0
 40
1.0
 10
7.3578932626
 20
6.0722393658
 30
0.0
 10
7.3589625611
 20
6.0722393658
 30
0.0
 10
7.3610995296
 20
6.072217573
 30
0.0
 10
7.3653539377
 20
6.0720875602
 30
0.0
 10
7.3706163792
 20
6.0717651348
 30
0.0
 10
7.3758168942
 20
6.0712266544
 30
0.0
 10
7.3798941507
 20
6.0706677663
 30
0.0
 10
7.3819000856
 20
6.0703466305
 30
0.0
 10
7.3828932626
 20
6.0701756122
 30
0.0
 11
7.3578932626
 21
6.0722393658
 31
0.0
 11
7.3611009915
 21
6.0722066676
 31
0.0
 11
7.3643022871
 21
6.0721087323
 31
0.0
 11
7.3706480898
 21
6.0717182442
 31
0.0
 11
7.3768661054
 21
6.0710715873
 31
0.0
 11
7.3799079929
 21
6.0706541468
 31
0.0
 11
7.3828932626
 21
6.0701756122
 31
0.0
  0
SPLINE
  5
2D3
100
AcDbEntity
  8
0
100
AcDbSpline
 62
6
  6
CONTINUOUS
 70
0
 71
3
 72
13
 73
9
 74
7
 42
0.0000001
 43
0.0000001
 44
0.0000000001
 12
0.0251926484
 22
0.0
 32
0.0
 13
0.0245816477
 23
-0.0055147195
 33
0.0
 40
0.0
 40
0.0
 40
0.0
 40
0.0
 40
0.1273392045
 40
0.2545127093
 40
0.5072119639
 40
0.7562859277
 40
0.8789456906
 40
1.0
 40
1.0
 40
1.0
 40
1.0
 10
7.3578932626
 20
6.2153094207
 30
0.0
 10
7.3589625999
 20
6.2153094207
 30
0.0
 10
7.3611000054
 20
6.215281017
 30
0.0
 10
7.3653563596
 20
6.2151115325
 30
0.0
 10
7.3706238992
 20
6.2146908188
 30
0.0
 10
7.375823352
 20
6.213988934
 30
0.0
 10
7.3798975339
 20
6.2132612013
 30
0.0
 10
7.3819013578
 20
6.2128431738
 30
0.0
 10
7.3828932626
 20
6.212620647
 30
0.0
 11
7.3578932626
 21
6.2153094207
 31
0.0
 11
7.3611009915
 21
6.2152668197
 31
0.0
 11
7.3643022871
 21
6.215139224
 31
0.0
 11
7.3706480898
 21
6.2146304744
 31
0.0
 11
7.3768661054
 21
6.2137879735
 31
0.0
 11
7.3799079929
 21
6.2132441087
 31
0.0
 11
7.3828932626
 21
6.212620647
 31
0.0
  0
ENDSEC
  0
SECTION
  2
OBJECTS
  0
DICTIONARY
  5
C
100
AcDbDictionary
280
0
281
1
  3
ACAD_GROUP
350
D
  3
ACAD_MLINESTYLE
350
17
  3
ACAD_LAYOUT
350
1A
  3
ACAD_PLOTSETTINGS
350
19
  3
ACAD_PLOTSTYLENAME
350
E
  0
DICTIONARY
  5
D
102
{ACAD_REACTORS
330
C
102
}
100
AcDbDictionary
280
0
281
1
  0
ACDBDICTIONARYWDFLT
  5
E
102
{ACAD_REACTORS
330
C
102
}
100
AcDbDictionary
281
1
  3
Normal
350
F
100
AcDbDictionaryWithDefault
340
F
  0
DICTIONARY
  5
17
102
{ACAD_REACTORS
330
C
102
}
100
AcDbDictionary
280
0
281
1
  3
Standard
350
18
  0
DICTIONARY
  5
19
102
{ACAD_REACTORS
330
C
102
}
100
AcDbDictionary
281
1
  0
DICTIONARY
  5
1A
102
{ACAD_REACTORS
330
C
102
}
100
AcDbDictionary
281
1
  3
Model
350
2D4
  3
Layout1
350
2D5
  0
ACDBPLACEHOLDER
  5
F
102
{ACAD_REACTORS
330
E
102
}
  0
MLINESTYLE
  5
18
102
{ACAD_REACTORS
330
17
102
}
100
AcDbMlineStyle
  2
STANDARD
 70
0
  3

 62
256
 51
90.0
 52
90.0
 71
2
 49
0.5
 62
256
  6
BYLAYER
 49
-0.5
 62
256
  6
BYLAYER
  0
LAYOUT
  5
2D4
102
{ACAD_REACTORS
330
1A
102
}
100
AcDbPlotSettings
  1

  2
none_device
  4
ISO_A4_(297.00_x_210.00_MM)
  6

 40
0.0
 41
0.0
 42
0.0
 43
0.0
 44
297.0
 45
210.0
 46
0.0
 47
0.0
 48
0.0
 49
0.0
140
0.0
141
0.0
142
1.0
143
1.0
 70
1024
 72
0
 73
0
 74
0
  7

 75
0
147
1.0
148
0.0
149
0.0
100
AcDbLayout
  1
Model
 70
0
 71
0
 10
0.0
 20
0.0
 11
11.6929133858
 21
8.2677165354
 12
0.0
 22
0.0
 32
0.0
 14
0.0
 24
0.0
 34
0.0
 15
0.0
 25
0.0
 35
0.0
146
0.0
 13
0.0
 23
0.0
 33
0.0
 16
1.0
 26
0.0
 36
0.0
 17
0.0
 27
1.0
 37
0.0
 76
0
330
204
345
0
346
0
  0
LAYOUT
  5
2D5
102
{ACAD_REACTORS
330
1A
102
}
100
AcDbPlotSettings
  1

  2
none_device
  4
ISO_A4_(297.00_x_210.00_MM)
  6

 40
0.0
 41
0.0
 42
0.0
 43
0.0
 44
297.0
 45
210.0
 46
0.0
 47
0.0
 48
0.0
 49
0.0
140
0.0
141
0.0
142
1.0
143
1.0
 70
0
 72
0
 73
0
 74
0
  7

 75
0
147
1.0
148
0.0
149
0.0
100
AcDbLayout
  1
Layout1
 70
0
 71
1
 10
0.0
 20
0.0
 11
11.6929133858
 21
8.2677165354
 12
0.0
 22
0.0
 32
0.0
 14
0.0
 24
0.0
 34
0.0
 15
0.0
 25
0.0
 35
0.0
146
0.0
 13
0.0
 23
0.0
 33
0.0
 16
1.0
 26
0.0
 36
0.0
 17
0.0
 27
1.0
 37
0.0
 76
0
330
205
345
0
346
0
  0
ENDSEC
  0
EOF
