  0
SECTION
  2
HEADER
  9
$ACADVER
  1
AC1015
  9
$DWGCODEPAGE
  3
ANSI_1252
  9
$EXTMAX
 10
11.6929133858
 20
8.2677165354
 30
0.0
  9
$EXTMIN
 10
0.0
 20
0.0
 30
0.0
  9
$LIMMIN
 10
0.0
 20
0.0
  9
$LIMMAX
 10
11.6929133858
 20
8.2677165354
  9
$VIEWCTR
 10
5.8464566929
 20
4.1338582677
  9
$VIEWSIZE
 40
8.2677165354
  9
$CLAYER
  8
0
  9
$LTSCALE
 40
0.6431102362
  9
$CELTYPE
  6
BYLAYER
  9
$DIMSCALE
 40
1.0
  9
$DIMASZ
 40
0.1
  9
$DIMEXO
 40
0.0730807087
  9
$DIMDLI
 40
0.4443307087
  9
$DIMEXE
 40
0.2104724409
  9
$DIMCEN
 40
0.1052362205
  9
$DIMLFAC
 40
1.0
  9
$DIMBLK
  1
_FILLED
  9
$DIMTXT
 40
0.08
  9
$DIMTOL
 70
1
  9
$DIMLIM
 70
0
  9
$DIMTFAC
 40
1.0
  9
$DIMTP
 40
0.01
  9
$DIMTM
 40
0.01
  9
$PDMODE
 70
3
  9
$PDSIZE
 40
0.06
  9
$HANDSEED
  5
2B3
  9
$TILEMODE
 70
1
  9
$MEASUREMENT
 70
0
  9
$INSUNITS
 70
1
  0
ENDSEC
  0
SECTION
  2
CLASSES
  0
CLASS
  1
ACDBDICTIONARYWDFLT
  2
AcDbDictionaryWithDefault
  3
AutoCAD 2000
 90
0
280
0
281
0
  0
CLASS
  1
ACDBPLACEHOLDER
  2
AcDbPlaceHolder
  3
AutoCAD 2000
 90
0
280
0
281
0
  0
CLASS
  1
LAYOUT
  2
AcDbLayout
  3
AutoCAD 2000
 90
0
280
0
281
0
  0
ENDSEC
  0
SECTION
  2
TABLES
  0
TABLE
  2
VPORT
  5
8
100
AcDbSymbolTable
 70
2
  0
VPORT
  5
1F4
100
AcDbSymbolTableRecord
100
AcDbViewportTableRecord
  2
*ACTIVE
 70
0
 10
0.0
 20
0.0
 11
1.0
 21
1.0
 12
5.8464566929
 22
4.1338582677
 13
0.0
 23
0.0
 14
1.0
 24
1.0
 15
0.0
 25
0.0
 16
0.0
 26
0.0
 36
1.0
 17
0.0
 27
0.0
 37
0.0
 40
8.2677165354
 41
1.4142857143
 42
50.0
 43
0.0
 44
0.0
 50
0.0
 51
0.0
 71
0
 72
100
 73
1
 74
1
 75
0
 76
0
 77
0
 78
0
  0
ENDTAB
  0
TABLE
  2
LTYPE
  5
5
100
AcDbSymbolTable
 70
6
  0
LTYPE
  5
14
100
AcDbSymbolTableRecord
100
AcDbLinetypeTableRecord
  2
BYBLOCK
 70
0
  3

 72
65
 73
0
 40
0.0
  0
LTYPE
  5
15
100
AcDbSymbolTableRecord
100
AcDbLinetypeTableRecord
  2
BYLAYER
 70
0
  3

 72
65
 73
0
 40
0.0
  0
LTYPE
  5
16
100
AcDbSymbolTableRecord
100
AcDbLinetypeTableRecord
  2
CONTINUOUS
 70
64
  3
Solid line
 72
65
 73
0
 40
0.0
  0
LTYPE
  5
1F5
100
AcDbSymbolTableRecord
100
AcDbLinetypeTableRecord
  2
CENTER
 70
64
  3
____ _ ____ _ ____ _ ____ _ ____ _ ____ _ ____
 72
65
 73
4
 40
0.6
 49
0.375
 74
0
 49
-0.075
 74
0
 49
0.075
 74
0
 49
-0.075
 74
0
  0
LTYPE
  5
1F6
100
AcDbSymbolTableRecord
100
AcDbLinetypeTableRecord
  2
HIDDEN
 70
64
  3
- - - - - - - - - - - - - - - - - - - -
 72
65
 73
2
 40
0.2
 49
0.1
 74
0
 49
-0.1
 74
0
  0
LTYPE
  5
1F7
100
AcDbSymbolTableRecord
100
AcDbLinetypeTableRecord
  2
PHANTOM
 70
64
  3
_____ _ _ _____ _ _ _____ _ _ _____
 72
65
 73
6
 40
0.8
 49
0.45
 74
0
 49
-0.05
 74
0
 49
0.1
 74
0
 49
-0.05
 74
0
 49
0.1
 74
0
 49
-0.05
 74
0
  0
LTYPE
  5
1F8
100
AcDbSymbolTableRecord
100
AcDbLinetypeTableRecord
  2
DOT
 70
64
  3
. . . . . . . . . . . . . . . . . . . .
 72
65
 73
2
 40
0.2
 49
0.1
 74
0
 49
-0.1
 74
0
  0
LTYPE
  5
1F9
100
AcDbSymbolTableRecord
100
AcDbLinetypeTableRecord
  2
DASHED
 70
64
  3
- - - - - - - - - - - - - - - - - - - -
 72
65
 73
2
 40
0.2
 49
0.1
 74
0
 49
-0.1
 74
0
  0
ENDTAB
  0
TABLE
  2
LAYER
  5
2
100
AcDbSymbolTable
 70
36
  0
LAYER
  5
10
100
AcDbSymbolTableRecord
100
AcDbLayerTableRecord
  2
0
 70
0
 62
7
  6
CONTINUOUS
370
-3
390
F
  0
LAYER
  5
1FA
100
AcDbSymbolTableRecord
100
AcDbLayerTableRecord
  2
DEFAULT_1
 70
0
 62
7
  6
CENTER
370
-3
390
F
  0
LAYER
  5
1FB
100
AcDbSymbolTableRecord
100
AcDbLayerTableRecord
  2
DEFAULT_2
 70
0
 62
8
  6
HIDDEN
370
-3
390
F
  0
LAYER
  5
1FC
100
AcDbSymbolTableRecord
100
AcDbLayerTableRecord
  2
DEFAULT_3
 70
0
 62
7
  6
PHANTOM
370
-3
390
F
  0
LAYER
  5
1FD
100
AcDbSymbolTableRecord
100
AcDbLayerTableRecord
  2
3_ALL_SYMBOLS
 70
0
 62
7
  6
CONTINUOUS
370
-3
390
F
  0
LAYER
  5
1FE
100
AcDbSymbolTableRecord
100
AcDbLayerTableRecord
  2
DEFAULT_COORDINATE_SYSTEM
 70
0
 62
7
  6
CONTINUOUS
370
-3
390
F
  0
LAYER
  5
1FF
100
AcDbSymbolTableRecord
100
AcDbLayerTableRecord
  2
DEFAULT_DATUM_AXES
 70
0
 62
7
  6
CONTINUOUS
370
-3
390
F
  0
LAYER
  5
200
100
AcDbSymbolTableRecord
100
AcDbLayerTableRecord
  2
DEFAULT_DATUM_CURVES
 70
0
 62
7
  6
CONTINUOUS
370
-3
390
F
  0
LAYER
  5
201
100
AcDbSymbolTableRecord
100
AcDbLayerTableRecord
  2
DEFAULT_DATUM_PLANES
 70
0
 62
7
  6
CONTINUOUS
370
-3
390
F
  0
ENDTAB
  0
TABLE
  2
STYLE
  5
3
100
AcDbSymbolTable
 70
1
  0
STYLE
  5
11
100
AcDbSymbolTableRecord
100
AcDbTextStyleTableRecord
  2
STANDARD
 70
0
 40
0.0
 41
0.8
 50
0.0
 71
0
 42
0.2
  3
txt
  4

  0
STYLE
  5
202
100
AcDbSymbolTableRecord
100
AcDbTextStyleTableRecord
  2
TEXTSTYLE_1
 70
0
 40
0.0
 41
0.8
 50
0.0
 71
0
 42
0.2
  3
gdt
  4

  0
ENDTAB
  0
TABLE
  2
VIEW
  5
6
100
AcDbSymbolTable
 70
0
  0
ENDTAB
  0
TABLE
  2
UCS
  5
7
100
AcDbSymbolTable
 70
0
  0
ENDTAB
  0
TABLE
  2
APPID
  5
9
100
AcDbSymbolTable
 70
1
  0
APPID
  5
203
100
AcDbSymbolTableRecord
100
AcDbRegAppTableRecord
  2
ACAD
 70
0
  0
ENDTAB
  0
TABLE
  2
BLOCK_RECORD
  5
1
100
AcDbSymbolTable
 70
0
  0
BLOCK_RECORD
  5
204
100
AcDbSymbolTableRecord
100
AcDbBlockTableRecord
  2
*Model_Space
  0
BLOCK_RECORD
  5
205
100
AcDbSymbolTableRecord
100
AcDbBlockTableRecord
  2
*Paper_Space
  0
ENDTAB
  0
TABLE
  2
DIMSTYLE
  5
A
100
AcDbSymbolTable
 70
1
100
AcDbDimStyleTable
 71
0
  0
DIMSTYLE
105
206
100
AcDbSymbolTableRecord
100
AcDbDimStyleTableRecord
  2
STANDARD
 70
0
  3

  4

 40
1.0
 41
0.1
 42
0.0625
 43
0.38
 44
0.18
 45
0.0
 46
0.0
 47
0.01
 48
0.01
140
0.08
141
0.09
142
0.0
143
25.4
144
1.0
145
0.0
146
1.0
147
0.09
 71
1.0
 72
0.0
 73
1
 74
1
 75
0
 76
0
 77
0
 78
4
170
0
171
2
172
0
173
0
174
0
175
0
176
0
177
0
178
0
270
2
271
2
272
2
273
2
274
2
275
0
280
0
281
0
282
0
283
1
284
4
285
0
286
0
287
3
288
0
340
11
  0
ENDTAB
  0
ENDSEC
  0
SECTION
  2
BLOCKS
  0
BLOCK
  5
20
100
AcDbEntity
  8
0
100
AcDbBlockBegin
  2
*Model_Space
 70
0
 10
0.0
 20
0.0
 30
0.0
  3
*Model_Space
  1

  0
ENDBLK
  5
21
100
AcDbEntity
  8
0
100
AcDbBlockEnd
  0
BLOCK
  5
1C
100
AcDbEntity
  8
0
100
AcDbBlockBegin
  2
*Paper_Space
 70
0
 10
0.0
 20
0.0
 30
0.0
  3
*Paper_Space
  1

  0
ENDBLK
  5
1D
100
AcDbEntity
  8
0
100
AcDbBlockEnd
  0
ENDSEC
  0
SECTION
  2
ENTITIES
  0
LINE
  5
207
100
AcDbEntity
  8
0
100
AcDbLine
 62
9
  6
CONTINUOUS
 10
4.1674951159
 20
3.0229393683
 11
4.1674951159
 21
3.3979393683
  0
LINE
  5
208
100
AcDbEntity
  8
0
100
AcDbLine
 62
6
  6
CONTINUOUS
 10
4.5344951159
 20
5.7689328956
 11
4.5344951159
 21
5.6189328956
  0
LINE
  5
209
100
AcDbEntity
  8
0
100
AcDbLine
 62
6
  6
CONTINUOUS
 10
5.6494997496
 20
2.6339328956
 11
5.9894904822
 21
2.6339328956
  0
LINE
  5
20A
100
AcDbEntity
  8
0
100
AcDbLine
 62
6
  6
CONTINUOUS
 10
5.6394951159
 20
2.6439328956
 11
5.9994951159
 21
2.6439328956
  0
LINE
  5
20B
100
AcDbEntity
  8
0
100
AcDbLine
 62
6
  6
CONTINUOUS
 10
5.5469998788
 20
2.6999328956
 11
6.091990353
 21
2.6999328956
  0
LINE
  5
20C
100
AcDbEntity
  8
0
100
AcDbLine
 62
9
  6
CONTINUOUS
 10
6.1149951148
 20
2.7239328956
 11
5.523995117
 21
2.7239328956
  0
LINE
  5
20D
100
AcDbEntity
  8
0
100
AcDbLine
 62
9
  6
CONTINUOUS
 10
6.1499951159
 20
2.7589328956
 11
5.4889951159
 21
2.7589328956
  0
LINE
  5
20E
100
AcDbEntity
  8
0
100
AcDbLine
 62
6
  6
CONTINUOUS
 10
5.4889951159
 20
2.8419359762
 11
6.1499951159
 21
2.8419359762
  0
LINE
  5
20F
100
AcDbEntity
  8
0
100
AcDbLine
 62
6
  6
CONTINUOUS
 10
5.3614616944
 20
3.0229393683
 11
3.3576988511
 21
3.0229393683
  0
LINE
  5
210
100
AcDbEntity
  8
0
100
AcDbLine
 62
6
  6
CONTINUOUS
 10
6.2775285373
 20
3.0229393683
 11
8.8549951159
 21
3.0229393683
  0
LINE
  5
211
100
AcDbEntity
  8
0
100
AcDbLine
 62
6
  6
CONTINUOUS
 10
5.6494951159
 20
2.6339328956
 11
5.6394951159
 21
2.6439328956
  0
LWPOLYLINE
  5
212
100
AcDbEntity
  8
0
100
AcDbPolyline
 62
6
  6
CONTINUOUS
 90
35
 70
0
 10
4.8731996156
 20
5.3647172869
 10
4.875541516
 20
5.3302473198
 10
4.8804521873
 20
5.2742406211
 10
4.886655269
 20
5.2191024243
 10
4.8941336752
 20
5.1647577127
 10
4.9028764614
 20
5.1111338713
 10
4.9128794325
 20
5.0581574577
 10
4.9241402311
 20
5.0057773899
 10
4.936640151
 20
4.9540256735
 10
4.9503518832
 20
4.9029506925
 10
4.9652621423
 20
4.852536439
 10
4.9814594959
 20
4.8024682964
 10
4.9990965152
 20
4.7523529506
 10
5.0182979347
 20
4.7019848849
 10
5.0387521641
 20
4.6522444009
 10
5.0598694389
 20
4.604389319
 10
5.0810033456
 20
4.5594825393
 10
5.1019405004
 20
4.5175083244
 10
5.1227342717
 20
4.4779695048
 10
5.1434850711
 20
4.4403869554
 10
5.1642637359
 20
4.4044194383
 10
5.185033184
 20
4.3699587936
 10
5.2057502447
 20
4.3369239796
 10
5.2263785361
 20
4.3052362509
 10
5.2468809392
 20
4.2748293559
 10
5.2671962439
 20
4.2456801067
 10
5.2872580364
 20
4.2177756905
 10
5.307001249
 20
4.1911033763
 10
5.3263611051
 20
4.1656517638
 10
5.3452706039
 20
4.1414136528
 10
5.3636574161
 20
4.1183891123
 10
5.3814441019
 20
4.0965840128
 10
5.3985437722
 20
4.0760140186
 10
5.4148800887
 20
4.0566793472
 10
5.4300699728
 20
4.0389328956
  0
LWPOLYLINE
  5
213
100
AcDbEntity
  8
0
100
AcDbPolyline
 62
6
  6
CONTINUOUS
 90
28
 70
0
 10
4.814640792
 20
5.3838933013
 10
4.8181308126
 20
5.3303283423
 10
4.8232089679
 20
5.2743740956
 10
4.8296757681
 20
5.219279591
 10
4.8375091455
 20
5.1649875705
 10
4.8466919944
 20
5.1114429445
 10
4.8572127547
 20
5.058589433
 10
4.8690653143
 20
5.0063713848
 10
4.8822478324
 20
4.9547385382
 10
4.8967634844
 20
4.9036416253
 10
4.9126204063
 20
4.8530327375
 10
4.929830681
 20
4.8028682209
 10
4.948410742
 20
4.7531065914
 10
4.9683818458
 20
4.7037071259
 10
4.989773916
 20
4.6546216159
 10
5.0126239024
 20
4.605800914
 10
5.0369721473
 20
4.5572029586
 10
5.0628512475
 20
4.5088114979
 10
5.0902889943
 20
4.4606240343
 10
5.1193210255
 20
4.4126278401
 10
5.1500535934
 20
4.3647077771
 10
5.1826383112
 20
4.3167105686
 10
5.2172069572
 20
4.268545161
 10
5.2536036611
 20
4.2205129683
 10
5.291487842
 20
4.1730832016
 10
5.3304648355
 20
4.126695475
 10
5.3700968527
 20
4.0817485175
 10
5.4095895049
 20
4.0389328956
  0
LINE
  5
214
100
AcDbEntity
  8
0
100
AcDbLine
 62
6
  6
CONTINUOUS
 10
5.1075583384
 20
5.5689328956
 11
5.1070085024
 21
5.5666973943
  0
LWPOLYLINE
  5
215
100
AcDbEntity
  8
0
100
AcDbPolyline
 62
6
  6
CONTINUOUS
 90
18
 70
0
 10
5.1471848821
 20
5.2765156302
 10
5.1506802364
 20
5.2360287878
 10
5.1562171888
 20
5.1810780641
 10
5.1626259837
 20
5.1266742645
 10
5.1699100885
 20
5.0728030373
 10
5.1780724557
 20
5.0194511084
 10
5.1871156455
 20
4.9666065741
 10
5.1970423542
 20
4.9142566006
 10
5.2078555526
 20
4.8623878494
 10
5.2195588187
 20
4.8109857276
 10
5.2321565284
 20
4.7600344151
 10
5.2456542736
 20
4.7095164067
 10
5.260065824
 20
4.6593902167
 10
5.2754116875
 20
4.609601642
 10
5.2917118799
 20
4.5601085711
 10
5.3089567642
 20
4.5109574127
 10
5.3271119439
 20
4.4622436263
 10
5.3422698171
 20
4.4236299507
  0
LINE
  5
216
100
AcDbEntity
  8
0
100
AcDbLine
 62
6
  6
CONTINUOUS
 10
5.1444876912
 20
5.3125020142
 11
5.1471848821
 21
5.2765156302
  0
LWPOLYLINE
  5
217
100
AcDbEntity
  8
0
100
AcDbPolyline
 62
6
  6
CONTINUOUS
 90
27
 70
0
 10
4.9859123302
 20
5.3379251492
 10
4.9865272205
 20
5.3291144263
 10
4.991243704
 20
5.2717632637
 10
4.9971327566
 20
5.2152107485
 10
5.0041827107
 20
5.1594225825
 10
5.0123832852
 20
5.1043663709
 10
5.0217262975
 20
5.050007917
 10
5.0322060187
 20
4.9963114992
 10
5.0438195055
 20
4.9432399817
 10
5.0565668072
 20
4.8907553017
 10
5.0704536322
 20
4.8388098778
 10
5.085496781
 20
4.7873331608
 10
5.1017200562
 20
4.7362535105
 10
5.1191452294
 20
4.6855256967
 10
5.137776673
 20
4.6351623083
 10
5.157613574
 20
4.5851845604
 10
5.1786866897
 20
4.5355351775
 10
5.2011150148
 20
4.4859800461
 10
5.2250451783
 20
4.4362821695
 10
5.2503892198
 20
4.3867025192
 10
5.2765629929
 20
4.3383337755
 10
5.3028386165
 20
4.2922813832
 10
5.3284301659
 20
4.2495278546
 10
5.3529541811
 20
4.2102588707
 10
5.3764092049
 20
4.1740638437
 10
5.398824792
 20
4.1405481524
 10
5.419267018
 20
4.1107471516
  0
LINE
  5
218
100
AcDbEntity
  8
0
100
AcDbLine
 62
6
  6
CONTINUOUS
 10
5.361419318
 20
3.3979393683
 11
3.3576351546
 21
3.3979393683
  0
LINE
  5
219
100
AcDbEntity
  8
0
100
AcDbLine
 62
6
  6
CONTINUOUS
 10
6.2775709138
 20
3.3979393683
 11
8.8549951159
 21
3.3979393683
  0
LINE
  5
21A
100
AcDbEntity
  8
0
100
AcDbLine
 62
9
  6
CONTINUOUS
 10
5.4411607675
 20
3.5296385551
 11
6.1978294642
 21
3.5296385551
  0
LINE
  5
21B
100
AcDbEntity
  8
0
100
AcDbLine
 62
6
  6
CONTINUOUS
 10
5.4319951159
 20
4.0198559994
 11
5.4319951159
 21
4.0089328956
  0
LINE
  5
21C
100
AcDbEntity
  8
0
100
AcDbLine
 62
6
  6
CONTINUOUS
 10
5.4669951159
 20
3.9149328956
 11
5.4669951159
 21
3.9589328956
  0
LINE
  5
21D
100
AcDbEntity
  8
0
100
AcDbLine
 62
6
  6
CONTINUOUS
 10
7.1044951159
 20
5.6189328956
 11
7.0194951159
 21
5.5689328956
  0
LINE
  5
21E
100
AcDbEntity
  8
0
100
AcDbLine
 62
6
  6
CONTINUOUS
 10
5.419267018
 20
4.1107471516
 11
5.4348518554
 21
4.0885185652
  0
LINE
  5
21F
100
AcDbEntity
  8
0
100
AcDbLine
 62
6
  6
CONTINUOUS
 10
4.7842055705
 20
5.4464145245
 11
4.8024872071
 21
5.3981182566
  0
LINE
  5
220
100
AcDbEntity
  8
0
100
AcDbLine
 62
6
  6
CONTINUOUS
 10
5.4889951159
 20
2.7589328956
 11
5.4889951159
 21
2.8419359762
  0
LINE
  5
221
100
AcDbEntity
  8
0
100
AcDbLine
 62
6
  6
CONTINUOUS
 10
5.5469951159
 20
2.6999328956
 11
5.5469951159
 21
2.7239328956
  0
LINE
  5
222
100
AcDbEntity
  8
0
100
AcDbLine
 62
6
  6
CONTINUOUS
 10
5.4669951159
 20
3.9149328956
 11
6.1719951159
 21
3.9149328956
  0
LINE
  5
223
100
AcDbEntity
  8
0
100
AcDbLine
 62
7
  6
CONTINUOUS
 10
5.4669951159
 20
3.9589328956
 11
6.1719951159
 21
3.9589328956
  0
LINE
  5
224
100
AcDbEntity
  8
0
100
AcDbLine
 62
6
  6
CONTINUOUS
 10
5.8194951159
 20
5.3125020142
 11
5.8194951159
 21
4.0885185652
  0
LINE
  5
225
100
AcDbEntity
  8
0
100
AcDbLine
 62
9
  6
CONTINUOUS
 10
6.2069951159
 20
4.0089328956
 11
5.4319951159
 21
4.0089328956
  0
LINE
  5
226
100
AcDbEntity
  8
0
100
AcDbLine
 62
6
  6
CONTINUOUS
 10
5.4319951159
 20
4.0198559994
 11
6.2069951159
 21
4.0198559994
  0
LINE
  5
227
100
AcDbEntity
  8
0
100
AcDbLine
 62
6
  6
CONTINUOUS
 10
6.2293962868
 20
4.0389328956
 11
6.2102073522
 21
4.0389328956
  0
LINE
  5
228
100
AcDbEntity
  8
0
100
AcDbLine
 62
6
  6
CONTINUOUS
 10
6.2088966858
 20
4.0389328956
 11
6.1706354204
 21
4.0389328956
  0
LINE
  5
229
100
AcDbEntity
  8
0
100
AcDbLine
 62
6
  6
CONTINUOUS
 10
6.1675105865
 20
4.0389328956
 11
6.1071338571
 21
4.0389328956
  0
LINE
  5
22A
100
AcDbEntity
  8
0
100
AcDbLine
 62
6
  6
CONTINUOUS
 10
6.1027146746
 20
4.0389328956
 11
6.0240301889
 21
4.0389328956
  0
LINE
  5
22B
100
AcDbEntity
  8
0
100
AcDbLine
 62
6
  6
CONTINUOUS
 10
6.0186178178
 20
4.0389328956
 11
5.9269877935
 21
4.0389328956
  0
LINE
  5
22C
100
AcDbEntity
  8
0
100
AcDbLine
 62
6
  6
CONTINUOUS
 10
5.920951078
 20
4.0389328956
 11
5.8226199498
 21
4.0389328956
  0
LINE
  5
22D
100
AcDbEntity
  8
0
100
AcDbLine
 62
6
  6
CONTINUOUS
 10
5.816370282
 20
4.0389328956
 11
5.7180391538
 21
4.0389328956
  0
LINE
  5
22E
100
AcDbEntity
  8
0
100
AcDbLine
 62
6
  6
CONTINUOUS
 10
5.7120024383
 20
4.0389328956
 11
5.6203724139
 21
4.0389328956
  0
LINE
  5
22F
100
AcDbEntity
  8
0
100
AcDbLine
 62
6
  6
CONTINUOUS
 10
5.6149600429
 20
4.0389328956
 11
5.5362755572
 21
4.0389328956
  0
LINE
  5
230
100
AcDbEntity
  8
0
100
AcDbLine
 62
6
  6
CONTINUOUS
 10
5.5318563747
 20
4.0389328956
 11
5.4714796453
 21
4.0389328956
  0
LINE
  5
231
100
AcDbEntity
  8
0
100
AcDbLine
 62
6
  6
CONTINUOUS
 10
5.4683548114
 20
4.0389328956
 11
5.430093546
 21
4.0389328956
  0
LINE
  5
232
100
AcDbEntity
  8
0
100
AcDbLine
 62
6
  6
CONTINUOUS
 10
5.4287828795
 20
4.0389328956
 11
5.409593945
 21
4.0389328956
  0
LINE
  5
233
100
AcDbEntity
  8
0
100
AcDbLine
 62
6
  6
CONTINUOUS
 10
6.0919951159
 20
2.6999328956
 11
6.0919951159
 21
2.7239328956
  0
LINE
  5
234
100
AcDbEntity
  8
0
100
AcDbLine
 62
6
  6
CONTINUOUS
 10
6.1499951159
 20
2.7589328956
 11
6.1499951159
 21
2.8419359762
  0
LINE
  5
235
100
AcDbEntity
  8
0
100
AcDbLine
 62
6
  6
CONTINUOUS
 10
6.1719951159
 20
3.9149328956
 11
6.1719951159
 21
3.9589328956
  0
LINE
  5
236
100
AcDbEntity
  8
0
100
AcDbLine
 62
6
  6
CONTINUOUS
 10
6.2069951159
 20
4.0089328956
 11
6.2069951159
 21
4.0198559994
  0
LINE
  5
237
100
AcDbEntity
  8
0
100
AcDbLine
 62
7
  6
CONTINUOUS
 10
6.2709549701
 20
3.0074393683
 11
6.2709549701
 21
3.4134393683
  0
LINE
  5
238
100
AcDbEntity
  8
0
100
AcDbLine
 62
6
  6
CONTINUOUS
 10
6.4945025405
 20
5.3125020142
 11
6.4918051202
 21
5.2765127735
  0
LINE
  5
239
100
AcDbEntity
  8
0
100
AcDbLine
 62
6
  6
CONTINUOUS
 10
6.8538534374
 20
5.4439544252
 11
6.8365030247
 21
5.3981182566
  0
LWPOLYLINE
  5
23A
100
AcDbEntity
  8
0
100
AcDbPolyline
 62
6
  6
CONTINUOUS
 90
18
 70
0
 10
6.2967233395
 20
4.4236372368
 10
6.3116017021
 20
4.4615231235
 10
6.3298129209
 20
4.5103479619
 10
6.3471096121
 20
4.5596125084
 10
6.3634573458
 20
4.6092214769
 10
6.3788462318
 20
4.6591277594
 10
6.3932962508
 20
4.7093732259
 10
6.4068279794
 20
4.7600121583
 10
6.4194552835
 20
4.811086277
 10
6.4311838669
 20
4.8626134928
 10
6.4420181919
 20
4.9146100484
 10
6.4519618565
 20
4.9670907492
 10
6.4610177874
 20
5.0200688098
 10
6.4691886464
 20
5.0735568908
 10
6.4764769777
 20
5.127566705
 10
6.4828857454
 20
5.182111357
 10
6.488418454
 20
5.2372050269
 10
6.4918051202
 20
5.2765127735
  0
LWPOLYLINE
  5
23B
100
AcDbEntity
  8
0
100
AcDbPolyline
 62
6
  6
CONTINUOUS
 90
27
 70
0
 10
6.2197249106
 20
4.1107495997
 10
6.2400622628
 20
4.1403960461
 10
6.2624617729
 20
4.1738829059
 10
6.2858998809
 20
4.2100450745
 10
6.3104035055
 20
4.2492721216
 10
6.3359694341
 20
4.2919700439
 10
6.3622197613
 20
4.3379607764
 10
6.3883764265
 20
4.3862758441
 10
6.4137177863
 20
4.4358243193
 10
6.4376621972
 20
4.4855239404
 10
6.4601134348
 20
4.5351016647
 10
6.481210681
 20
4.584780438
 10
6.5010678172
 20
4.6347822367
 10
6.5197160317
 20
4.6851641733
 10
6.5371562133
 20
4.7359087635
 10
6.5533938976
 20
4.7870066859
 10
6.5684507977
 20
4.8385032231
 10
6.5823503974
 20
4.8904690598
 10
6.5951093062
 20
4.9429739424
 10
6.6067332933
 20
4.9960655229
 10
6.6172225066
 20
5.0497821945
 10
6.6265740652
 20
5.1041614029
 10
6.6347822433
 20
5.1592389642
 10
6.6418388421
 20
5.2150490768
 10
6.6477335631
 20
5.2716241305
 10
6.6524547221
 20
5.3289984158
 10
6.6530779012
 20
5.3379251427
  0
LINE
  5
23C
100
AcDbEntity
  8
0
100
AcDbLine
 62
6
  6
CONTINUOUS
 10
6.2197249106
 20
4.1107495997
 11
6.2041383763
 21
4.0885185652
  0
LWPOLYLINE
  5
23D
100
AcDbEntity
  8
0
100
AcDbPolyline
 62
6
  6
CONTINUOUS
 90
26
 70
0
 10
6.3085252919
 20
4.1266953537
 10
6.3475022409
 20
4.17308302
 10
6.3853863823
 20
4.2205127263
 10
6.4217830515
 20
4.2685448586
 10
6.4563516672
 20
4.3167102057
 10
6.4889363588
 20
4.3647073535
 10
6.5196689044
 20
4.4126273555
 10
6.548700917
 20
4.4606234884
 10
6.5761386486
 20
4.5088108898
 10
6.602017737
 20
4.5572022875
 10
6.6263659732
 20
4.6058001788
 10
6.6492159541
 20
4.6546208154
 10
6.6706080218
 20
4.7037062588
 10
6.6905791263
 20
4.7531056563
 10
6.7091591908
 20
4.802867216
 10
6.7263694722
 20
4.8530316609
 10
6.7422264039
 20
4.903640475
 10
6.7567420687
 20
4.9547373119
 10
6.7699246028
 20
5.00637008
 10
6.7817771818
 20
5.0585880469
 10
6.792297965
 20
5.1114414742
 10
6.8014808404
 20
5.1649860129
 10
6.809314248
 20
5.2192779425
 10
6.8157810825
 20
5.2743723523
 10
6.8208592763
 20
5.3303265004
 10
6.8243494398
 20
5.3838933013
  0
LWPOLYLINE
  5
23E
100
AcDbEntity
  8
0
100
AcDbPolyline
 62
6
  6
CONTINUOUS
 90
35
 70
0
 10
6.208920259
 20
4.0389328956
 10
6.2241101431
 20
4.0566793472
 10
6.2404464596
 20
4.0760140186
 10
6.2575461298
 20
4.0965840128
 10
6.2753328157
 20
4.1183891123
 10
6.2937196279
 20
4.1414136528
 10
6.3126291266
 20
4.1656517638
 10
6.3319889827
 20
4.1911033763
 10
6.3517321954
 20
4.2177756905
 10
6.3717939879
 20
4.2456801067
 10
6.3921092926
 20
4.2748293559
 10
6.4126116956
 20
4.3052362509
 10
6.433239987
 20
4.3369239796
 10
6.4539570478
 20
4.3699587936
 10
6.4747264959
 20
4.4044194383
 10
6.4955051607
 20
4.4403869554
 10
6.5162559601
 20
4.4779695048
 10
6.5370497313
 20
4.5175083244
 10
6.5579868861
 20
4.5594825393
 10
6.5791207928
 20
4.604389319
 10
6.6002380676
 20
4.6522444009
 10
6.6206922971
 20
4.7019848849
 10
6.6398937165
 20
4.7523529506
 10
6.6575307359
 20
4.8024682964
 10
6.6737280895
 20
4.852536439
 10
6.6886383486
 20
4.9029506925
 10
6.7023500808
 20
4.9540256735
 10
6.7148500007
 20
5.0057773899
 10
6.7261107993
 20
5.0581574577
 10
6.7361137704
 20
5.1111338713
 10
6.7448565566
 20
5.1647577127
 10
6.7523349627
 20
5.2191024243
 10
6.7585380444
 20
5.2742406211
 10
6.7634487158
 20
5.3302473198
 10
6.7657906162
 20
5.3647172869
  0
LINE
  5
23F
100
AcDbEntity
  8
0
100
AcDbLine
 62
6
  6
CONTINUOUS
 10
6.2688933791
 20
4.0817485175
 11
6.3085253963
 21
4.126695475
  0
LINE
  5
240
100
AcDbEntity
  8
0
100
AcDbLine
 62
6
  6
CONTINUOUS
 10
6.2294007269
 20
4.0389328956
 11
6.2688933243
 21
4.0817484567
  0
LINE
  5
241
100
AcDbEntity
  8
0
100
AcDbLine
 62
6
  6
CONTINUOUS
 10
4.6194951159
 20
5.5689328956
 11
4.5344951159
 21
5.6189328956
  0
LINE
  5
242
100
AcDbEntity
  8
0
100
AcDbLine
 62
6
  6
CONTINUOUS
 10
7.1044951159
 20
5.7689328956
 11
7.1044951159
 21
5.6189328956
  0
LINE
  5
243
100
AcDbEntity
  8
0
100
AcDbLine
 62
6
  6
CONTINUOUS
 10
5.9894951159
 20
2.6339328956
 11
5.9994951159
 21
2.6439328956
  0
LINE
  5
244
100
AcDbEntity
  8
0
100
AcDbLine
 62
9
  6
CONTINUOUS
 10
4.8024872071
 20
5.3981182566
 11
6.8365030247
 21
5.3981182566
  0
LINE
  5
245
100
AcDbEntity
  8
0
100
AcDbLine
 62
7
  6
CONTINUOUS
 10
4.7901405995
 20
5.5689328956
 11
4.7898149106
 21
5.5689328956
  0
LINE
  5
246
100
AcDbEntity
  8
0
100
AcDbLine
 62
6
  6
CONTINUOUS
 10
4.6194951159
 20
5.5689328956
 11
4.7898149106
 21
5.5689328956
  0
LINE
  5
247
100
AcDbEntity
  8
0
100
AcDbLine
 62
6
  6
CONTINUOUS
 10
4.7901405995
 20
5.5689328956
 11
7.0194951159
 21
5.5689328956
  0
LINE
  5
248
100
AcDbEntity
  8
0
100
AcDbLine
 62
6
  6
CONTINUOUS
 10
4.5344951159
 20
5.6189328956
 11
7.1044951159
 21
5.6189328956
  0
LINE
  5
249
100
AcDbEntity
  8
0
100
AcDbLine
 62
7
  6
CONTINUOUS
 10
6.593259561
 20
5.5689328956
 11
6.5935531692
 21
5.5689102246
  0
LINE
  5
24A
100
AcDbEntity
  8
0
100
AcDbLine
 62
6
  6
CONTINUOUS
 10
4.5344951159
 20
5.7689328956
 11
7.1044951159
 21
5.7689328956
  0
LINE
  5
24B
100
AcDbEntity
  8
0
100
AcDbLine
 62
9
  6
CONTINUOUS
 10
7.7924951159
 20
3.3979393683
 11
7.7924951159
 21
3.0229393683
  0
ARC
  5
24C
100
AcDbEntity
  8
0
100
AcDbCircle
 62
6
  6
CONTINUOUS
 10
5.8194951159
 20
3.2104393683
 40
0.495
100
AcDbArc
 50
311.8880088583
 51
337.7377825585
  0
ARC
  5
24D
100
AcDbEntity
  8
0
100
AcDbCircle
 62
6
  6
CONTINUOUS
 10
5.8194951159
 20
3.2104393683
 40
0.495
100
AcDbArc
 50
22.2602698734
 51
40.1541931822
  0
ARC
  5
24E
100
AcDbEntity
  8
0
100
AcDbCircle
 62
6
  6
CONTINUOUS
 10
5.8194951159
 20
3.2104393683
 40
0.495
100
AcDbArc
 50
139.8458068178
 51
228.1119911417
  0
ARC
  5
24F
100
AcDbEntity
  8
0
100
AcDbCircle
 62
6
  6
CONTINUOUS
 10
5.1919951159
 20
3.7398586256
 40
0.326
100
AcDbArc
 50
319.8458068178
 51
32.4822048034
  0
CIRCLE
  5
250
100
AcDbEntity
  8
0
100
AcDbCircle
 62
6
  6
CONTINUOUS
 10
3.1077210435
 20
3.2104393683
 40
0.3125
  0
ARC
  5
251
100
AcDbEntity
  8
0
100
AcDbCircle
 62
6
  6
CONTINUOUS
 10
5.5834951159
 20
2.6439328956
 40
0.056
100
AcDbArc
 50
0.0
 51
90.0
  0
ARC
  5
252
100
AcDbEntity
  8
0
100
AcDbCircle
 62
6
  6
CONTINUOUS
 10
5.4819951159
 20
4.0089328956
 40
0.05
100
AcDbArc
 50
180.0
 51
270.0
  0
ARC
  5
253
100
AcDbEntity
  8
0
100
AcDbCircle
 62
6
  6
CONTINUOUS
 10
5.5239951159
 20
2.7589328956
 40
0.035
100
AcDbArc
 50
180.0
 51
270.0000017894
  0
ARC
  5
254
100
AcDbEntity
  8
0
100
AcDbCircle
 62
6
  6
CONTINUOUS
 10
3.5817806981
 20
6.1113005535
 40
3.3471382382
100
AcDbArc
 50
321.7461934893
 51
322.1187160003
  0
ARC
  5
255
100
AcDbEntity
  8
0
100
AcDbCircle
 62
6
  6
CONTINUOUS
 10
4.3790957719
 20
5.5856028956
 40
2.4068193439
100
AcDbArc
 50
319.4172131634
 51
320.0123584086
  0
ARC
  5
256
100
AcDbEntity
  8
0
100
AcDbCircle
 62
6
  6
CONTINUOUS
 10
4.1484310219
 20
5.5443485747
 40
1.7115977987
100
AcDbArc
 50
359.9860851346
 51
0.8229892121
  0
ARC
  5
257
100
AcDbEntity
  8
0
100
AcDbCircle
 62
6
  6
CONTINUOUS
 10
4.9895911197
 20
5.4689428956
 40
0.20006
100
AcDbArc
 50
200.73321
 51
209.5156148349
  0
ARC
  5
258
100
AcDbEntity
  8
0
100
AcDbCircle
 62
6
  6
CONTINUOUS
 10
4.9768462302
 20
5.5439328987
 40
0.1000000017
100
AcDbArc
 50
165.522503031
 51
302.2141718636
  0
ARC
  5
259
100
AcDbEntity
  8
0
100
AcDbCircle
 62
6
  6
CONTINUOUS
 10
5.628482122
 20
5.5439328984
 40
0.1000000005
100
AcDbArc
 50
217.7385651969
 51
319.7476444762
  0
ARC
  5
25A
100
AcDbEntity
  8
0
100
AcDbCircle
 62
6
  6
CONTINUOUS
 10
5.2043829219
 20
5.5439328975
 40
0.1000000003
100
AcDbArc
 50
193.158354299
 51
311.6638795016
  0
ARC
  5
25B
100
AcDbEntity
  8
0
100
AcDbCircle
 62
6
  6
CONTINUOUS
 10
4.7621072504
 20
5.5439328963
 40
0.1000000001
100
AcDbArc
 50
165.522488289
 51
285.2265893209
  0
ARC
  5
25C
100
AcDbEntity
  8
0
100
AcDbCircle
 62
6
  6
CONTINUOUS
 10
4.7194951159
 20
5.5439328956
 40
0.1
100
AcDbArc
 50
165.5222821653
 51
273.0347953612
  0
ARC
  5
25D
100
AcDbEntity
  8
0
100
AcDbCircle
 62
6
  6
CONTINUOUS
 10
4.88664221
 20
5.5439328964
 40
0.0999999998
100
AcDbArc
 50
165.522487685
 51
296.7998352951
  0
ARC
  5
25E
100
AcDbEntity
  8
0
100
AcDbCircle
 62
6
  6
CONTINUOUS
 10
5.0834514487
 20
5.5439328958
 40
0.0999999998
100
AcDbArc
 50
165.5224874931
 51
307.2167958357
  0
ARC
  5
25F
100
AcDbEntity
  8
0
100
AcDbCircle
 62
6
  6
CONTINUOUS
 10
5.7811056699
 20
5.5439328947
 40
0.099999999
100
AcDbArc
 50
219.5069131732
 51
320.155749877
  0
ARC
  5
260
100
AcDbEntity
  8
0
100
AcDbCircle
 62
6
  6
CONTINUOUS
 10
5.9344764238
 20
5.543932895
 40
0.0999999983
100
AcDbArc
 50
219.9153336082
 51
321.1835801643
  0
ARC
  5
261
100
AcDbEntity
  8
0
100
AcDbCircle
 62
6
  6
CONTINUOUS
 10
4.7302002377
 20
5.5439328957
 40
0.0999999974
100
AcDbArc
 50
165.522487509
 51
279.1857394826
  0
ARC
  5
262
100
AcDbEntity
  8
0
100
AcDbCircle
 62
6
  6
CONTINUOUS
 10
4.8145951096
 20
5.5439328949
 40
0.0999999971
100
AcDbArc
 50
165.5224874922
 51
291.1189884678
  0
ARC
  5
263
100
AcDbEntity
  8
0
100
AcDbCircle
 62
6
  6
CONTINUOUS
 10
5.337286855
 20
5.5439328937
 40
0.099999997
100
AcDbArc
 50
207.6220707681
 51
315.3764655213
  0
ARC
  5
264
100
AcDbEntity
  8
0
100
AcDbCircle
 62
6
  6
CONTINUOUS
 10
5.4795764206
 20
5.5439328889
 40
0.0999999932
100
AcDbArc
 50
214.1487311188
 51
318.1451061647
  0
ARC
  5
265
100
AcDbEntity
  8
0
100
AcDbCircle
 62
6
  6
CONTINUOUS
 10
6.4469951159
 20
3.7398586256
 40
0.326
100
AcDbArc
 50
147.5177951966
 51
220.1541931822
  0
ARC
  5
266
100
AcDbEntity
  8
0
100
AcDbCircle
 62
9
  6
CONTINUOUS
 10
8.8549951159
 20
3.2104393683
 40
0.1875
100
AcDbArc
 50
270.0
 51
90.0
  0
ARC
  5
267
100
AcDbEntity
  8
0
100
AcDbCircle
 62
6
  6
CONTINUOUS
 10
6.0554951159
 20
2.6439328956
 40
0.056
100
AcDbArc
 50
90.0
 51
180.0
  0
ARC
  5
268
100
AcDbEntity
  8
0
100
AcDbCircle
 62
6
  6
CONTINUOUS
 10
6.1569951159
 20
4.0089328956
 40
0.05
100
AcDbArc
 50
270.0
 51
360.0
  0
ARC
  5
269
100
AcDbEntity
  8
0
100
AcDbCircle
 62
6
  6
CONTINUOUS
 10
6.1149951159
 20
2.7589328956
 40
0.035
100
AcDbArc
 50
269.9999982106
 51
360.0
  0
ARC
  5
26A
100
AcDbEntity
  8
0
100
AcDbCircle
 62
6
  6
CONTINUOUS
 10
8.1294858937
 20
6.1679061794
 40
3.4389422813
100
AcDbArc
 50
217.8863179088
 51
218.248831577
  0
ARC
  5
26B
100
AcDbEntity
  8
0
100
AcDbCircle
 62
6
  6
CONTINUOUS
 10
7.2598944598
 20
5.5856028956
 40
2.4068193439
100
AcDbArc
 50
219.9876415914
 51
220.5827868366
  0
ARC
  5
26C
100
AcDbEntity
  8
0
100
AcDbCircle
 62
6
  6
CONTINUOUS
 10
6.26996043
 20
5.5443445251
 40
0.5718689571
100
AcDbArc
 50
177.53571769
 51
180.0412412743
  0
ARC
  5
26D
100
AcDbEntity
  8
0
100
AcDbCircle
 62
6
  6
CONTINUOUS
 10
6.6493991121
 20
5.4689428956
 40
0.20006
100
AcDbArc
 50
330.4843815094
 51
339.26679
  0
ARC
  5
26E
100
AcDbEntity
  8
0
100
AcDbCircle
 62
6
  6
CONTINUOUS
 10
6.7907374656
 20
5.5439328995
 40
0.1000000024
100
AcDbArc
 50
245.9985703145
 51
14.4775091239
  0
ARC
  5
26F
100
AcDbEntity
  8
0
100
AcDbCircle
 62
6
  6
CONTINUOUS
 10
6.6107688962
 20
5.5439328978
 40
0.1
100
AcDbArc
 50
235.2219888524
 51
14.4775021771
  0
ARC
  5
270
100
AcDbEntity
  8
0
100
AcDbCircle
 62
6
  6
CONTINUOUS
 10
6.7094138098
 20
5.543932896
 40
0.0999999999
100
AcDbArc
 50
240.4576055746
 51
14.4775115299
  0
ARC
  5
271
100
AcDbEntity
  8
0
100
AcDbCircle
 62
6
  6
CONTINUOUS
 10
6.4967227391
 20
5.5439328954
 40
0.0999999996
100
AcDbArc
 50
230.4832181392
 51
14.4775130039
  0
ARC
  5
272
100
AcDbEntity
  8
0
100
AcDbCircle
 62
6
  6
CONTINUOUS
 10
6.8531570007
 20
5.5439328977
 40
0.0999999981
100
AcDbArc
 50
251.8153771221
 51
14.4775114367
  0
ARC
  5
273
100
AcDbEntity
  8
0
100
AcDbCircle
 62
6
  6
CONTINUOUS
 10
6.0856092019
 20
5.5439328947
 40
0.0999999978
100
AcDbArc
 50
220.8947285944
 51
323.7853419588
  0
ARC
  5
274
100
AcDbEntity
  8
0
100
AcDbCircle
 62
6
  6
CONTINUOUS
 10
6.8954574795
 20
5.5439328958
 40
0.0999999972
100
AcDbArc
 50
257.7589660737
 51
14.4775124945
  0
ARC
  5
275
100
AcDbEntity
  8
0
100
AcDbCircle
 62
6
  6
CONTINUOUS
 10
6.2315623674
 20
5.5439328923
 40
0.0999999969
100
AcDbArc
 50
223.1231233361
 51
328.6190038634
  0
ARC
  5
276
100
AcDbEntity
  8
0
100
AcDbCircle
 62
6
  6
CONTINUOUS
 10
6.3694951154
 20
5.5439328924
 40
0.0999999966
100
AcDbArc
 50
226.3801473007
 51
337.7529021116
  0
ARC
  5
277
100
AcDbEntity
  8
0
100
AcDbCircle
 62
6
  6
CONTINUOUS
 10
6.9168155761
 20
5.5439328931
 40
0.0999999951
100
AcDbArc
 50
263.8722926207
 51
14.4775121346
  0
SPLINE
  5
278
100
AcDbEntity
  8
0
100
AcDbSpline
 62
6
  6
CONTINUOUS
 70
0
 71
3
 72
23
 73
19
 74
17
 42
0.0000001
 43
0.0000001
 44
0.0000000001
 12
-0.0703251527
 22
-0.8754159064
 32
0.0
 13
-0.3271689723
 23
-0.8150209199
 33
0.0
 40
0.0
 40
0.0
 40
0.0
 40
0.0
 40
0.0652564638
 40
0.1300467812
 40
0.194390818
 40
0.2583088562
 40
0.3218215857
 40
0.3849500951
 40
0.4477158602
 40
0.5101407313
 40
0.5722469183
 40
0.6340569748
 40
0.69559378
 40
0.756880519
 40
0.8179406618
 40
0.8787979407
 40
0.9394763258
 40
1.0
 40
1.0
 40
1.0
 40
1.0
 10
6.4918051202
 20
5.2765127735
 30
0.0
 10
6.4902753966
 20
5.2574705913
 30
0.0
 10
6.4869028625
 20
5.2195474325
 30
0.0
 10
6.4808768879
 20
5.1629575832
 30
0.0
 10
6.4739022931
 20
5.1068713836
 30
0.0
 10
6.4659790788
 20
5.0512890626
 30
0.0
 10
6.4571072237
 20
4.9962105759
 30
0.0
 10
6.447286713
 20
4.9416359535
 30
0.0
 10
6.4365175311
 20
4.8875652076
 30
0.0
 10
6.4247996638
 20
4.833998357
 30
0.0
 10
6.4121330978
 20
4.7809354208
 30
0.0
 10
6.3985178211
 20
4.7283764191
 30
0.0
 10
6.3839538235
 20
4.6763213752
 30
0.0
 10
6.368441094
 20
4.6247703069
 30
0.0
 10
6.351979633
 20
4.5737232573
 30
0.0
 10
6.3345694064
 20
4.5231801804
 30
0.0
 10
6.3162105165
 20
4.4731413651
 30
0.0
 10
6.303323829
 20
4.4400799237
 30
0.0
 10
6.2967233395
 20
4.4236372368
 30
0.0
 11
6.4918051202
 21
5.2765127735
 31
0.0
 11
6.4867248855
 21
5.2194278016
 31
0.0
 11
6.4806963338
 21
5.1628468633
 31
0.0
 11
6.4737194654
 21
5.1067699583
 31
0.0
 11
6.46579428
 21
5.0511970868
 31
0.0
 11
6.4569207777
 21
4.9961282487
 31
0.0
 11
6.4470989586
 21
4.9415634441
 31
0.0
 11
6.4363288226
 21
4.8875026729
 31
0.0
 11
6.4246103698
 21
4.8339459351
 31
0.0
 11
6.4119436001
 21
4.7808932308
 31
0.0
 11
6.3983285135
 21
4.7283445599
 31
0.0
 11
6.38376511
 21
4.6762999225
 31
0.0
 11
6.3682533896
 21
4.6247593185
 31
0.0
 11
6.3517933524
 21
4.5737227479
 31
0.0
 11
6.3343849983
 21
4.5231902108
 31
0.0
 11
6.3160283274
 21
4.4731617071
 31
0.0
 11
6.2967233395
 21
4.4236372368
 31
0.0
  0
SPLINE
  5
279
100
AcDbEntity
  8
0
100
AcDbSpline
 62
9
  6
CONTINUOUS
 70
0
 71
3
 72
45
 73
41
 74
39
 42
0.0000001
 43
0.0000001
 44
0.0000000001
 12
0.0
 22
0.2532223526
 32
0.0
 13
-0.2532223526
 23
0.0
 33
0.0
 40
0.0
 40
0.0
 40
0.0
 40
0.0
 40
0.0362483776
 40
0.0725106111
 40
0.1087273534
 40
0.1448392486
 40
0.1807875273
 40
0.2165146422
 40
0.251971004
 40
0.2871226707
 40
0.3219383669
 40
0.3563878419
 40
0.3904423949
 40
0.407314029
 40
0.4240771931
 40
0.4572651562
 40
0.4899869375
 40
0.522223411
 40
0.5539580206
 40
0.5851775142
 40
0.6005921863
 40
0.6158752789
 40
0.6460464156
 40
0.6756998056
 40
0.7048454366
 40
0.7334973144
 40
0.761674255
 40
0.7755935778
 40
0.7894041935
 40
0.8167145244
 40
0.8302272036
 40
0.8436506653
 40
0.8702484132
 40
0.8965575523
 40
0.9096214423
 40
0.9226326343
 40
0.9355982498
 40
0.9485258031
 40
0.9742933487
 40
1.0
 40
1.0
 40
1.0
 40
1.0
 10
3.5487766823
 20
3.2104393683
 30
0.0
 10
3.5487766823
 20
3.2134990015
 30
0.0
 10
3.5486693484
 20
3.2196199669
 30
0.0
 10
3.5481895827
 20
3.228786568
 30
0.0
 10
3.5473931751
 20
3.2379196571
 30
0.0
 10
3.546282343
 20
3.2469931494
 30
0.0
 10
3.5448593653
 20
3.2559811627
 30
0.0
 10
3.5431261624
 20
3.2648582402
 30
0.0
 10
3.5410851572
 20
3.2736006517
 30
0.0
 10
3.5387435819
 20
3.2821877018
 30
0.0
 10
3.536107875
 20
3.2906001351
 30
0.0
 10
3.5331846074
 20
3.2988187838
 30
0.0
 10
3.5305060098
 20
3.3055110197
 30
0.0
 10
3.5282238726
 20
3.3107493122
 30
0.0
 10
3.5258661518
 20
3.3158735987
 30
0.0
 10
3.5227547333
 20
3.3221221929
 30
0.0
 10
3.5187520953
 20
3.329378135
 30
0.0
 10
3.5145031948
 20
3.3363496412
 30
0.0
 10
3.5100183641
 20
3.3430195142
 30
0.0
 10
3.5060761792
 20
3.3483347398
 30
0.0
 10
3.5028127875
 20
3.3524175162
 30
0.0
 10
3.499507278
 20
3.3563513367
 30
0.0
 10
3.495249724
 20
3.3610525201
 30
0.0
 10
3.4899281374
 20
3.3663559784
 30
0.0
 10
3.484428998
 20
3.3712854127
 30
0.0
 10
3.478765602
 20
3.3758286788
 30
0.0
 10
3.4739000793
 20
3.3792972611
 30
0.0
 10
3.4699391884
 20
3.3818635629
 30
0.0
 10
3.4659657863
 20
3.3842720074
 30
0.0
 10
3.4619148449
 20
3.3864827958
 30
0.0
 10
3.4577967556
 20
3.3884859015
 30
0.0
 10
3.4536724638
 20
3.3903337311
 30
0.0
 10
3.4484558971
 20
3.3923781362
 30
0.0
 10
3.4431455161
 20
3.3940680697
 30
0.0
 10
3.4388693178
 20
3.3951955002
 30
0.0
 10
3.4356556538
 20
3.3959275191
 30
0.0
 10
3.4324301215
 20
3.3965470057
 30
0.0
 10
3.4281213933
 20
3.3972220066
 30
0.0
 10
3.4227101979
 20
3.3977856501
 30
0.0
 10
3.4183639938
 20
3.3979361317
 30
0.0
 10
3.4161941609
 20
3.3979361317
 30
0.0
 11
3.5487766823
 21
3.2104393683
 31
0.0
 11
3.5486162334
 21
3.2196168654
 31
0.0
 11
3.5481363793
 21
3.2287867268
 31
0.0
 11
3.5473393595
 21
3.2379229163
 31
0.0
 11
3.5462274134
 21
3.2469993976
 31
0.0
 11
3.5448027801
 21
3.2559901344
 31
0.0
 11
3.5430677035
 21
3.2648690973
 31
0.0
 11
3.541025592
 21
3.2736121191
 31
0.0
 11
3.5386825901
 21
3.2821994053
 31
0.0
 11
3.5360452342
 21
3.2906117887
 31
0.0
 11
3.5331200611
 21
3.2988301018
 31
0.0
 11
3.5299136072
 21
3.3068351773
 31
0.0
 11
3.5282069427
 21
3.3107517611
 31
0.0
 11
3.5264324394
 21
3.3146078643
 31
0.0
 11
3.5226845959
 21
3.3221298173
 31
0.0
 11
3.5186802193
 21
3.3293838425
 31
0.0
 11
3.5144296137
 21
3.3363528346
 31
0.0
 11
3.5099430835
 21
3.3430196882
 31
0.0
 11
3.505230933
 21
3.349367298
 31
0.0
 11
3.5027934702
 21
3.3524160412
 31
0.0
 11
3.5003035457
 21
3.3553786981
 31
0.0
 11
3.4951727924
 21
3.3610395341
 31
0.0
 11
3.4898518642
 21
3.3663377716
 31
0.0
 11
3.4843539984
 21
3.3712614565
 31
0.0
 11
3.4786924322
 21
3.3757986347
 31
0.0
 11
3.4728804027
 21
3.3799373523
 31
0.0
 11
3.4699221045
 21
3.3818535639
 31
0.0
 11
3.4669312665
 21
3.3836660186
 31
0.0
 11
3.4608595008
 21
3.3869764557
 31
0.0
 11
3.4577823475
 21
3.388472866
 31
0.0
 11
3.454680197
 21
3.389862356
 31
0.0
 11
3.4484084528
 21
3.3923174311
 31
0.0
 11
3.4420593659
 21
3.3943353923
 31
0.0
 11
3.438860537
 21
3.3951784901
 31
0.0
 11
3.4356480341
 21
3.3959099512
 31
0.0
 11
3.4324237516
 21
3.3965290614
 31
0.0
 11
3.4291896347
 21
3.3970356067
 31
0.0
 11
3.4226997653
 21
3.3977110005
 31
0.0
 11
3.4161941609
 21
3.3979361317
 31
0.0
  0
SPLINE
  5
27A
100
AcDbEntity
  8
0
100
AcDbSpline
 62
9
  6
CONTINUOUS
 70
0
 71
3
 72
45
 73
41
 74
39
 42
0.0000001
 43
0.0000001
 44
0.0000000001
 12
0.2532223526
 22
0.0
 32
0.0
 13
0.0
 23
0.2532223526
 33
0.0
 40
0.0
 40
0.0
 40
0.0
 40
0.0
 40
0.0257066513
 40
0.0514741969
 40
0.0644017502
 40
0.0773673657
 40
0.0903785577
 40
0.1034424477
 40
0.1297515868
 40
0.1563493347
 40
0.1697727964
 40
0.1832854756
 40
0.2105958065
 40
0.2244064222
 40
0.238325745
 40
0.2665026856
 40
0.2951545634
 40
0.3243001944
 40
0.3539535844
 40
0.3841247211
 40
0.3994078137
 40
0.4148224858
 40
0.4460419794
 40
0.477776589
 40
0.5100130625
 40
0.5427348438
 40
0.5759228069
 40
0.592685971
 40
0.6095576051
 40
0.6436121581
 40
0.6780616331
 40
0.7128773293
 40
0.748028996
 40
0.7834853578
 40
0.8192124727
 40
0.8551607514
 40
0.8912726466
 40
0.9274893889
 40
0.9637516224
 40
1.0
 40
1.0
 40
1.0
 40
1.0
 10
3.4161941609
 20
3.0229426049
 30
0.0
 10
3.4183639938
 20
3.0229426049
 30
0.0
 10
3.4227101979
 20
3.0230930866
 30
0.0
 10
3.4281213933
 20
3.02365673
 30
0.0
 10
3.4324301215
 20
3.0243317309
 30
0.0
 10
3.4356556538
 20
3.0249512176
 30
0.0
 10
3.4388693178
 20
3.0256832364
 30
0.0
 10
3.4431455161
 20
3.026810667
 30
0.0
 10
3.4484558971
 20
3.0285006005
 30
0.0
 10
3.4536724638
 20
3.0305450056
 30
0.0
 10
3.4577967556
 20
3.0323928352
 30
0.0
 10
3.4619148449
 20
3.0343959409
 30
0.0
 10
3.4659657863
 20
3.0366067293
 30
0.0
 10
3.4699391884
 20
3.0390151738
 30
0.0
 10
3.4739000793
 20
3.0415814755
 30
0.0
 10
3.478765602
 20
3.0450500579
 30
0.0
 10
3.484428998
 20
3.049593324
 30
0.0
 10
3.4899281374
 20
3.0545227583
 30
0.0
 10
3.495249724
 20
3.0598262166
 30
0.0
 10
3.499507278
 20
3.0645274
 30
0.0
 10
3.5028127875
 20
3.0684612204
 30
0.0
 10
3.5060761792
 20
3.0725439969
 30
0.0
 10
3.5100183641
 20
3.0778592225
 30
0.0
 10
3.5145031948
 20
3.0845290955
 30
0.0
 10
3.5187520953
 20
3.0915006017
 30
0.0
 10
3.5227547333
 20
3.0987565438
 30
0.0
 10
3.5258661518
 20
3.105005138
 30
0.0
 10
3.5282238726
 20
3.1101294245
 30
0.0
 10
3.5305060098
 20
3.115367717
 30
0.0
 10
3.5331846074
 20
3.1220599528
 30
0.0
 10
3.536107875
 20
3.1302786016
 30
0.0
 10
3.5387435819
 20
3.1386910349
 30
0.0
 10
3.5410851572
 20
3.1472780849
 30
0.0
 10
3.5431261624
 20
3.1560204964
 30
0.0
 10
3.5448593653
 20
3.164897574
 30
0.0
 10
3.546282343
 20
3.1738855873
 30
0.0
 10
3.5473931751
 20
3.1829590796
 30
0.0
 10
3.5481895827
 20
3.1920921687
 30
0.0
 10
3.5486693484
 20
3.2012587698
 30
0.0
 10
3.5487766823
 20
3.2073797352
 30
0.0
 10
3.5487766823
 20
3.2104393683
 30
0.0
 11
3.4161941609
 21
3.0229426049
 31
0.0
 11
3.4226997653
 21
3.0231677362
 31
0.0
 11
3.4291896347
 21
3.02384313
 31
0.0
 11
3.4324237516
 21
3.0243496753
 31
0.0
 11
3.4356480341
 21
3.0249687855
 31
0.0
 11
3.438860537
 21
3.0257002466
 31
0.0
 11
3.4420593659
 21
3.0265433444
 31
0.0
 11
3.4484084528
 21
3.0285613056
 31
0.0
 11
3.454680197
 21
3.0310163807
 31
0.0
 11
3.4577823475
 21
3.0324058707
 31
0.0
 11
3.4608595008
 21
3.033902281
 31
0.0
 11
3.4669312665
 21
3.0372127181
 31
0.0
 11
3.4699221045
 21
3.0390251728
 31
0.0
 11
3.4728804027
 21
3.0409413843
 31
0.0
 11
3.4786924322
 21
3.045080102
 31
0.0
 11
3.4843539984
 21
3.0496172802
 31
0.0
 11
3.4898518642
 21
3.0545409651
 31
0.0
 11
3.4951727924
 21
3.0598392025
 31
0.0
 11
3.5003035457
 21
3.0655000386
 31
0.0
 11
3.5027934702
 21
3.0684626955
 31
0.0
 11
3.505230933
 21
3.0715114387
 31
0.0
 11
3.5099430835
 21
3.0778590485
 31
0.0
 11
3.5144296137
 21
3.0845259021
 31
0.0
 11
3.5186802193
 21
3.0914948941
 31
0.0
 11
3.5226845959
 21
3.0987489194
 31
0.0
 11
3.5264324394
 21
3.1062708724
 31
0.0
 11
3.5282069427
 21
3.1101269756
 31
0.0
 11
3.5299136072
 21
3.1140435594
 31
0.0
 11
3.5331200611
 21
3.1220486349
 31
0.0
 11
3.5360452342
 21
3.130266948
 31
0.0
 11
3.5386825901
 21
3.1386793313
 31
0.0
 11
3.541025592
 21
3.1472666176
 31
0.0
 11
3.5430677035
 21
3.1560096394
 31
0.0
 11
3.5448027801
 21
3.1648886023
 31
0.0
 11
3.5462274134
 21
3.1738793391
 31
0.0
 11
3.5473393595
 21
3.1829558204
 31
0.0
 11
3.5481363793
 21
3.1920920099
 31
0.0
 11
3.5486162334
 21
3.2012618713
 31
0.0
 11
3.5487766823
 21
3.2104393683
 31
0.0
  0
SPLINE
  5
27B
100
AcDbEntity
  8
0
100
AcDbSpline
 62
6
  6
CONTINUOUS
 70
0
 71
3
 72
71
 73
67
 74
65
 42
0.0000001
 43
0.0000001
 44
0.0000000001
 12
0.0148559713
 22
0.2628226475
 32
0.0
 13
-0.2249215644
 23
-0.1367725624
 33
0.0
 40
0.0
 40
0.0
 40
0.0
 40
0.0
 40
0.0200870475
 40
0.0303462811
 40
0.0407557189
 40
0.0513196941
 40
0.0620412571
 40
0.0729223026
 40
0.0839634917
 40
0.1065216518
 40
0.1180415663
 40
0.1297205094
 40
0.1415583918
 40
0.1535529016
 40
0.1656976181
 40
0.1779873476
 40
0.1904189652
 40
0.2029915579
 40
0.2157051742
 40
0.2285535555
 40
0.2415316329
 40
0.2546403404
 40
0.2678871445
 40
0.281282175
 40
0.2948255528
 40
0.308527848
 40
0.3224185453
 40
0.3294507002
 40
0.3365478771
 40
0.3509427921
 40
0.3582502919
 40
0.3656365774
 40
0.3731081789
 40
0.380672988
 40
0.3844934471
 40
0.3883407528
 40
0.3961182388
 40
0.4040090182
 40
0.4120139996
 40
0.4201324499
 40
0.428362177
 40
0.436699698
 40
0.4451403922
 40
0.4536786402
 40
0.462309551
 40
0.4710317662
 40
0.4798433638
 40
0.497719647
 40
0.5159010827
 40
0.5250903123
 40
0.5343349814
 40
0.5436303716
 40
0.5529745787
 40
0.5718004684
 40
0.5907928685
 40
0.6099278082
 40
0.6291814029
 40
0.6485379054
 40
0.6874986256
 40
0.7266888071
 40
0.766012472
 40
0.8447106675
 40
0.8839224483
 40
0.9229360486
 40
0.9616658656
 40
1.0
 40
1.0
 40
1.0
 40
1.0
 10
6.4945025405
 20
5.3125020142
 30
0.0
 10
6.4946020114
 20
5.3142617912
 30
0.0
 10
6.4946227946
 20
5.3169295022
 30
0.0
 10
6.4944143727
 20
5.3205002855
 30
0.0
 10
6.4941381534
 20
5.3232278129
 30
0.0
 10
6.493744668
 20
5.3259817205
 30
0.0
 10
6.4932354255
 20
5.3287586487
 30
0.0
 10
6.4926120411
 20
5.3315551155
 30
0.0
 10
6.4916232049
 20
5.3353315119
 30
0.0
 10
6.4904111442
 20
5.339104764
 30
0.0
 10
6.4889841334
 20
5.3428582995
 30
0.0
 10
6.4877917812
 20
5.3456927699
 30
0.0
 10
6.4864849125
 20
5.3485221599
 30
0.0
 10
6.4850629175
 20
5.3513413808
 30
0.0
 10
6.4835223834
 20
5.3541430065
 30
0.0
 10
6.4818605211
 20
5.3569192663
 30
0.0
 10
6.4800744878
 20
5.3596623046
 30
0.0
 10
6.4781614227
 20
5.3623640742
 30
0.0
 10
6.4761194589
 20
5.3650162085
 30
0.0
 10
6.4739433423
 20
5.3676062771
 30
0.0
 10
6.4716277531
 20
5.3701200107
 30
0.0
 10
6.4691678137
 20
5.3725430238
 30
0.0
 10
6.4665588097
 20
5.3748604591
 30
0.0
 10
6.4637978305
 20
5.3770568449
 30
0.0
 10
6.4608761027
 20
5.3791057499
 30
0.0
 10
6.4577866746
 20
5.3809779818
 30
0.0
 10
6.455077755
 20
5.382360781
 30
0.0
 10
6.4528256544
 20
5.383348761
 30
0.0
 10
6.450494416
 20
5.3842612404
 30
0.0
 10
6.4480850058
 20
5.3850352696
 30
0.0
 10
6.4456089884
 20
5.385657821
 30
0.0
 10
6.4437029898
 20
5.3860485734
 30
0.0
 10
6.4417590748
 20
5.3863566974
 30
0.0
 10
6.4401140465
 20
5.3865406705
 30
0.0
 10
6.4387812443
 20
5.3866429775
 30
0.0
 10
6.4374277654
 20
5.3867149494
 30
0.0
 10
6.4357149867
 20
5.3867465188
 30
0.0
 10
6.4336377738
 20
5.3866944057
 30
0.0
 10
6.4315346468
 20
5.3865548324
 30
0.0
 10
6.429409041
 20
5.3863302409
 30
0.0
 10
6.4272643535
 20
5.3860230551
 30
0.0
 10
6.425103995
 20
5.3856356932
 30
0.0
 10
6.4229313728
 20
5.3851705848
 30
0.0
 10
6.4207497705
 20
5.3846300613
 30
0.0
 10
6.4185619418
 20
5.3840165303
 30
0.0
 10
6.4163693987
 20
5.3833345048
 30
0.0
 10
6.4134271998
 20
5.3823346969
 30
0.0
 10
6.4097460431
 20
5.3809341927
 30
0.0
 10
6.4060937504
 20
5.3793750337
 30
0.0
 10
6.4031707684
 20
5.3780410445
 30
0.0
 10
6.4009723946
 20
5.376998016
 30
0.0
 10
6.3987762107
 20
5.3759192157
 30
0.0
 10
6.3958440332
 20
5.374432452
 30
0.0
 10
6.3921862073
 20
5.3724960808
 30
0.0
 10
6.387816253
 20
5.3700709979
 30
0.0
 10
6.3834538669
 20
5.3675564636
 30
0.0
 10
6.3790971215
 20
5.3649691449
 30
0.0
 10
6.373283504
 20
5.3614288439
 30
0.0
 10
6.3660374325
 20
5.3568784678
 30
0.0
 10
6.3573681708
 20
5.3513015204
 30
0.0
 10
6.3458123896
 20
5.3437672521
 30
0.0
 10
6.3342707683
 20
5.3362078342
 30
0.0
 10
6.3227074083
 20
5.3287316601
 30
0.0
 10
6.3140573333
 20
5.3232092533
 30
0.0
 10
6.3054307698
 20
5.3177936218
 30
0.0
 10
6.299671501
 20
5.3142497001
 30
0.0
 10
6.2967974432
 20
5.3125020142
 30
0.0
 11
6.4945025405
 21
5.3125020142
 31
0.0
 11
6.4945524235
 21
5.317789537
 31
0.0
 11
6.4943961464
 21
5.3204856746
 31
0.0
 11
6.4941210719
 21
5.3232120361
 31
0.0
 11
6.4937287113
 21
5.3259651013
 31
0.0
 11
6.4932205758
 21
5.3287413501
 31
0.0
 11
6.4925981718
 21
5.3315372604
 31
0.0
 11
6.4918624282
 21
5.3343491036
 31
0.0
 11
6.490050062
 21
5.3400040352
 31
0.0
 11
6.4889728195
 21
5.3428387788
 31
0.0
 11
6.4877811243
 21
5.345672811
 31
0.0
 11
6.4864746621
 21
5.3485019532
 31
0.0
 11
6.4850523827
 21
5.3513209389
 31
0.0
 11
6.4835116766
 21
5.3541221965
 31
0.0
 11
6.481849735
 21
5.3568978601
 31
0.0
 11
6.4800637493
 21
5.359640064
 31
0.0
 11
6.4781509108
 21
5.3623409423
 31
0.0
 11
6.4761082269
 21
5.3649920261
 31
0.0
 11
6.4739314307
 21
5.3675806701
 31
0.0
 11
6.4716157168
 21
5.3700924629
 31
0.0
 11
6.4691562774
 21
5.3725129866
 31
0.0
 11
6.4665483051
 21
5.3748278234
 31
0.0
 11
6.4637868066
 21
5.3770204858
 31
0.0
 11
6.4608659142
 21
5.379064735
 31
0.0
 11
6.4577795025
 21
5.3809314622
 31
0.0
 11
6.4545214463
 21
5.3825915588
 31
0.0
 11
6.452826143
 21
5.3833350231
 31
0.0
 11
6.4510863176
 21
5.384015805
 31
0.0
 11
6.4474781399
 21
5.3851734829
 31
0.0
 11
6.4456125318
 21
5.3856424236
 31
0.0
 11
6.4437077403
 21
5.3860327953
 31
0.0
 11
6.4417651374
 21
5.3863406205
 31
0.0
 11
6.4397860954
 21
5.3865619215
 31
0.0
 11
6.4387833384
 21
5.3866388825
 31
0.0
 11
6.4377719995
 21
5.386692762
 31
0.0
 11
6.4357250054
 21
5.3867315918
 31
0.0
 11
6.4336484475
 21
5.3866805136
 31
0.0
 11
6.4315457601
 21
5.3865419388
 31
0.0
 11
6.4294203774
 21
5.386318279
 31
0.0
 11
6.4272757334
 21
5.3860119455
 31
0.0
 11
6.4251152625
 21
5.3856253499
 31
0.0
 11
6.4229423988
 21
5.3851609036
 31
0.0
 11
6.4207605759
 21
5.3846210185
 31
0.0
 11
6.4185726732
 21
5.384008519
 31
0.0
 11
6.4163799625
 21
5.3833274258
 31
0.0
 11
6.4141834255
 21
5.3825819757
 31
0.0
 11
6.4097828002
 21
5.3809149505
 31
0.0
 11
6.4053786522
 21
5.3790413359
 31
0.0
 11
6.4031777117
 21
5.3780376491
 31
0.0
 11
6.400978809
 21
5.3769949739
 31
0.0
 11
6.3987823606
 21
5.3759164917
 31
0.0
 11
6.3965882889
 21
5.3748044605
 31
0.0
 11
6.3922068916
 21
5.3724886462
 31
0.0
 11
6.3878338485
 21
5.3700653216
 31
0.0
 11
6.3834683915
 21
5.3675522767
 31
0.0
 11
6.3791097057
 21
5.3649657514
 31
0.0
 11
6.3747568266
 21
5.3623169719
 31
0.0
 11
6.366064509
 21
5.3568735079
 31
0.0
 11
6.3573837432
 21
5.3512990431
 31
0.0
 11
6.3487079042
 21
5.3456522373
 31
0.0
 11
6.3313574018
 21
5.3343322958
 31
0.0
 11
6.3226874439
 21
5.3287305522
 31
0.0
 11
6.3140293619
 21
5.3232068731
 31
0.0
 11
6.3053932591
 21
5.3177881735
 31
0.0
 11
6.2967974432
 21
5.3125020142
 31
0.0
  0
SPLINE
  5
27C
100
AcDbEntity
  8
0
100
AcDbSpline
 62
6
  6
CONTINUOUS
 70
0
 71
3
 72
82
 73
78
 74
76
 42
0.0000001
 43
0.0000001
 44
0.0000000001
 12
-0.102963318
 22
0.2640342368
 32
0.0
 13
-0.2337759103
 23
-0.1602009577
 33
0.0
 40
0.0
 40
0.0
 40
0.0
 40
0.0
 40
0.0100047272
 40
0.0202866421
 40
0.0308409156
 40
0.0416619244
 40
0.052743374
 40
0.0640784042
 40
0.0756596824
 40
0.0874801395
 40
0.1118146969
 40
0.1243201912
 40
0.1370443101
 40
0.1499827238
 40
0.1631304488
 40
0.1764806236
 40
0.1900274178
 40
0.2037666318
 40
0.2176957918
 40
0.2247314988
 40
0.2318140267
 40
0.2461153495
 40
0.2605951388
 40
0.2752528765
 40
0.2826500194
 40
0.2900937323
 40
0.2975852538
 40
0.305124258
 40
0.3203397766
 40
0.3357415515
 40
0.3513439902
 40
0.3592301439
 40
0.3671778686
 40
0.3751862327
 40
0.3832532268
 40
0.3913777713
 40
0.3995597786
 40
0.4078002129
 40
0.4161011479
 40
0.4244658193
 40
0.4328978208
 40
0.4413976246
 40
0.4499636971
 40
0.4585932875
 40
0.4672825502
 40
0.4760266578
 40
0.4848199055
 40
0.4936558077
 40
0.502528039
 40
0.5114353076
 40
0.5203776544
 40
0.5383613596
 40
0.5564608283
 40
0.5746430189
 40
0.5837524408
 40
0.5928700307
 40
0.6111271305
 40
0.6294077404
 40
0.6477011528
 40
0.6659934693
 40
0.6842694383
 40
0.7025194526
 40
0.7207354644
 40
0.7389085316
 40
0.7570289445
 40
0.7750863674
 40
0.7930711717
 40
0.8109755667
 40
0.8287918105
 40
0.8465120247
 40
0.8641282205
 40
0.8816323259
 40
0.8990152048
 40
0.9162637686
 40
0.9333639635
 40
0.9670630249
 40
1.0
 40
1.0
 40
1.0
 40
1.0
 10
6.2967974432
 20
5.3125020142
 30
0.0
 10
6.2964540699
 20
5.3133825443
 30
0.0
 10
6.295727982
 20
5.315156499
 30
0.0
 10
6.2945413146
 20
5.3178177656
 30
0.0
 10
6.2932439823
 20
5.3205127172
 30
0.0
 10
6.2918379476
 20
5.3232378171
 30
0.0
 10
6.2903251588
 20
5.325989582
 30
0.0
 10
6.2887075461
 20
5.3287644866
 30
0.0
 10
6.2869870988
 20
5.3315591574
 30
0.0
 10
6.2845342978
 20
5.3353436031
 30
0.0
 10
6.2818996551
 20
5.3391128347
 30
0.0
 10
6.2790880304
 20
5.3428571839
 30
0.0
 10
6.2768573647
 20
5.345690374
 30
0.0
 10
6.2745239163
 20
5.3485186014
 30
0.0
 10
6.2720872743
 20
5.3513371272
 30
0.0
 10
6.2695441452
 20
5.354138144
 30
0.0
 10
6.2668917421
 20
5.3569137954
 30
0.0
 10
6.2641272584
 20
5.3596561168
 30
0.0
 10
6.2617358539
 20
5.3618993566
 30
0.0
 10
6.2597644512
 20
5.3636696962
 30
0.0
 10
6.2577402825
 20
5.3654334452
 30
0.0
 10
6.2551336834
 20
5.3675986388
 30
0.0
 10
6.2518890625
 20
5.3701122041
 30
0.0
 10
6.2490842028
 20
5.3721248232
 30
0.0
 10
6.2467732539
 20
5.3736822944
 30
0.0
 10
6.2450001241
 20
5.3748256809
 30
0.0
 10
6.2431921328
 20
5.3759389196
 30
0.0
 10
6.240726737
 20
5.3773834615
 30
0.0
 10
6.2375533997
 20
5.3790962718
 30
0.0
 10
6.2336067888
 20
5.3809687421
 30
0.0
 10
6.2302007565
 20
5.3823521597
 30
0.0
 10
6.2274000684
 20
5.3833409307
 30
0.0
 10
6.2252528032
 20
5.3840220806
 30
0.0
 10
6.2230677529
 20
5.3846365279
 30
0.0
 10
6.220846869
 20
5.3851805094
 30
0.0
 10
6.2185923049
 20
5.3856501773
 30
0.0
 10
6.2163062083
 20
5.3860416897
 30
0.0
 10
6.2139907286
 20
5.3863511987
 30
0.0
 10
6.2116480215
 20
5.3865748608
 30
0.0
 10
6.209280306
 20
5.3867088038
 30
0.0
 10
6.2068903699
 20
5.3867492421
 30
0.0
 10
6.2044816505
 20
5.3866989227
 30
0.0
 10
6.2020577291
 20
5.3865604879
 30
0.0
 10
6.1996222686
 20
5.3863365957
 30
0.0
 10
6.1971789283
 20
5.386029894
 30
0.0
 10
6.1947313685
 20
5.385643033
 30
0.0
 10
6.1922832553
 20
5.3851786447
 30
0.0
 10
6.1898381589
 20
5.3846394012
 30
0.0
 10
6.1873991284
 20
5.3840275903
 30
0.0
 10
6.1849679056
 20
5.3833472526
 30
0.0
 10
6.1817319509
 20
5.3823526636
 30
0.0
 10
6.1777117707
 20
5.3809588246
 30
0.0
 10
6.1729399207
 20
5.3790827096
 30
0.0
 10
6.1690056504
 20
5.3773754749
 30
0.0
 10
6.1658809466
 20
5.3759378956
 30
0.0
 10
6.1627697201
 20
5.3744548189
 30
0.0
 10
6.1589127064
 20
5.3725238588
 30
0.0
 10
6.154334539
 20
5.3701002966
 30
0.0
 10
6.1498022271
 20
5.3675853277
 30
0.0
 10
6.1453133071
 20
5.3649947684
 30
0.0
 10
6.1408642799
 20
5.3623443899
 30
0.0
 10
6.1364541426
 20
5.3596436244
 30
0.0
 10
6.1320815239
 20
5.3569008321
 30
0.0
 10
6.127744724
 20
5.3541244338
 30
0.0
 10
6.1234421206
 20
5.3513227288
 30
0.0
 10
6.119171805
 20
5.3485042404
 30
0.0
 10
6.1149323321
 20
5.3456761921
 30
0.0
 10
6.1107239561
 20
5.3428426747
 30
0.0
 10
6.1065464582
 20
5.3400081165
 30
0.0
 10
6.1023996817
 20
5.3371768139
 30
0.0
 10
6.0982834494
 20
5.3343530945
 30
0.0
 10
6.094197667
 20
5.3315413335
 30
0.0
 10
6.0901426262
 20
5.3287461655
 30
0.0
 10
6.0861202924
 20
5.3259707805
 30
0.0
 10
6.0808298914
 20
5.3223191991
 30
0.0
 10
6.0743187828
 20
5.3178272052
 30
0.0
 10
6.0691316048
 20
5.3142608592
 30
0.0
 10
6.0665649811
 20
5.3125020142
 30
0.0
 11
6.2967974432
 21
5.3125020142
 31
0.0
 11
6.2957246521
 21
5.3151265649
 31
0.0
 11
6.2945390915
 21
5.3177883734
 31
0.0
 11
6.2932427208
 21
5.3204839225
 31
0.0
 11
6.2918374991
 21
5.3232096952
 31
0.0
 11
6.2903253857
 21
5.3259621742
 31
0.0
 11
6.28870834
 21
5.3287378426
 31
0.0
 11
6.2869883178
 21
5.3315331823
 31
0.0
 11
6.285166631
 21
5.3343444809
 31
0.0
 11
6.2812176607
 21
5.3399983408
 31
0.0
 11
6.2790897934
 21
5.3428325101
 31
0.0
 11
6.2768592821
 21
5.3456659108
 31
0.0
 11
6.274525834
 21
5.3484943456
 31
0.0
 11
6.2720885591
 21
5.3513127222
 31
0.0
 11
6.2695449386
 21
5.3541135084
 31
0.0
 11
6.266892179
 21
5.3568887598
 31
0.0
 11
6.2641274864
 21
5.359630532
 31
0.0
 11
6.2612480671
 21
5.3623308807
 31
0.0
 11
6.2597644595
 21
5.3636630297
 31
0.0
 11
6.2582510212
 21
5.3649814788
 31
0.0
 11
6.2551323483
 21
5.3675700381
 31
0.0
 11
6.2518873975
 21
5.3700819282
 31
0.0
 11
6.2485115094
 21
5.3725024883
 31
0.0
 11
6.2467730077
 21
5.3736739381
 31
0.0
 11
6.2450000245
 21
5.3748170575
 31
0.0
 11
6.2431919795
 21
5.3759299425
 31
0.0
 11
6.241348325
 21
5.3770096638
 31
0.0
 11
6.2375520945
 21
5.3790548145
 31
0.0
 11
6.2336071493
 21
5.3809228157
 31
0.0
 11
6.2295093068
 21
5.3825839549
 31
0.0
 11
6.2274017418
 21
5.3833276661
 31
0.0
 11
6.2252547217
 21
5.3840085049
 31
0.0
 11
6.2230698296
 21
5.3846226658
 31
0.0
 11
6.2208492245
 21
5.3851663179
 31
0.0
 11
6.2185950659
 21
5.3856356306
 31
0.0
 11
6.2163095136
 21
5.3860267731
 31
0.0
 11
6.2139947268
 21
5.3863359147
 31
0.0
 11
6.2116528652
 21
5.3865592246
 31
0.0
 11
6.2092860883
 21
5.3866928723
 31
0.0
 11
6.2068968159
 21
5.3867341343
 31
0.0
 11
6.2044884814
 21
5.3866846004
 31
0.0
 11
6.2020647649
 21
5.3865469104
 31
0.0
 11
6.1996293466
 21
5.3863237038
 31
0.0
 11
6.1971859067
 21
5.3860176202
 31
0.0
 11
6.1947381252
 21
5.3856312993
 31
0.0
 11
6.1922896823
 21
5.3851673806
 31
0.0
 11
6.1898442582
 21
5.3846285038
 31
0.0
 11
6.187405249
 21
5.3840174473
 31
0.0
 11
6.1849741056
 21
5.3833379403
 31
0.0
 11
6.1825514639
 21
5.38259411
 31
0.0
 11
6.177734218
 21
5.3809299951
 31
0.0
 11
6.1729585761
 21
5.3790581328
 31
0.0
 11
6.168229603
 21
5.3770115534
 31
0.0
 11
6.1658841316
 21
5.3759329098
 31
0.0
 11
6.1635515171
 21
5.3748213457
 31
0.0
 11
6.1589236821
 21
5.3725074639
 31
0.0
 11
6.1543437341
 21
5.3700858994
 31
0.0
 11
6.1498093073
 21
5.367572639
 31
0.0
 11
6.1453180357
 21
5.3649836694
 31
0.0
 11
6.1408676354
 21
5.3623341017
 31
0.0
 11
6.1364562892
 21
5.3596340729
 31
0.0
 11
6.1320823442
 21
5.3568919661
 31
0.0
 11
6.1277441477
 21
5.3541161625
 31
0.0
 11
6.1234400472
 21
5.3513150432
 31
0.0
 11
6.1191683957
 21
5.3484969732
 31
0.0
 11
6.1149280509
 21
5.3456689373
 31
0.0
 11
6.1107187522
 21
5.3428355048
 31
0.0
 11
6.1065403283
 21
5.3400010013
 31
0.0
 11
6.1023926079
 21
5.3371697522
 31
0.0
 11
6.0982754197
 21
5.3343460833
 31
0.0
 11
6.0941885924
 21
5.3315343199
 31
0.0
 11
6.0901323971
 21
5.3287386487
 31
0.0
 11
6.0861088298
 21
5.3259627138
 31
0.0
 11
6.0821203067
 21
5.3232100276
 31
0.0
 11
6.0742580582
 21
5.3177884501
 31
0.0
 11
6.0665649811
 21
5.3125020142
 31
0.0
  0
SPLINE
  5
27D
100
AcDbEntity
  8
0
100
AcDbSpline
 62
6
  6
CONTINUOUS
 70
0
 71
3
 72
72
 73
68
 74
66
 42
0.0000001
 43
0.0000001
 44
0.0000000001
 12
-0.1856791994
 22
0.2292694061
 32
0.0
 13
-0.2246423877
 23
-0.1912512047
 33
0.0
 40
0.0
 40
0.0
 40
0.0
 40
0.0
 40
0.023345591
 40
0.0354655863
 40
0.0478677933
 40
0.0605403325
 40
0.0734712757
 40
0.0866486753
 40
0.1000619395
 40
0.1275648319
 40
0.1416408873
 40
0.1559242358
 40
0.1704085909
 40
0.1850873935
 40
0.1999534778
 40
0.2150005964
 40
0.2302236976
 40
0.2456190175
 40
0.2611833669
 40
0.2769098986
 40
0.2927924107
 40
0.3088281651
 40
0.325018237
 40
0.3413640291
 40
0.3578551341
 40
0.3744855919
 40
0.3912608534
 40
0.3997086923
 40
0.4081976418
 40
0.4252794098
 40
0.4338664963
 40
0.4424802688
 40
0.4511194106
 40
0.459783734
 40
0.4641257825
 40
0.468474589
 40
0.4771919803
 40
0.4859346196
 40
0.4946997568
 40
0.5034837835
 40
0.5122823169
 40
0.5210902778
 40
0.5299019658
 40
0.5387111309
 40
0.5475132098
 40
0.5563091852
 40
0.5651001042
 40
0.582664705
 40
0.6001974082
 40
0.6089450055
 40
0.6176746638
 40
0.6263845712
 40
0.6350750708
 40
0.652397527
 40
0.6696396896
 40
0.6867942033
 40
0.7038518135
 40
0.7208069821
 40
0.7543833713
 40
0.7874647202
 40
0.8199985834
 40
0.8519278201
 40
0.8831873044
 40
0.9137069037
 40
0.943409743
 40
0.9722106408
 40
1.0
 40
1.0
 40
1.0
 40
1.0
 10
6.0665649811
 20
5.3125020142
 30
0.0
 10
6.0651200508
 20
5.3142861574
 30
0.0
 10
6.0628828412
 20
5.3169627116
 30
0.0
 10
6.0597901885
 20
5.3205118308
 30
0.0
 10
6.0573502389
 20
5.3232371195
 30
0.0
 10
6.0548210902
 20
5.3259891392
 30
0.0
 10
6.0522049757
 20
5.3287643572
 30
0.0
 10
6.0495041641
 20
5.3315594423
 30
0.0
 10
6.0457610208
 20
5.3353395323
 30
0.0
 10
6.0418824798
 20
5.3391094212
 30
0.0
 10
6.0378678192
 20
5.3428596171
 30
0.0
 10
6.0347495909
 20
5.3456933924
 30
0.0
 10
6.0315475008
 20
5.3485223956
 30
0.0
 10
6.0282609687
 20
5.3513417205
 30
0.0
 10
6.0248870258
 20
5.3541433388
 30
0.0
 10
6.0214231724
 20
5.3569194762
 30
0.0
 10
6.0178668505
 20
5.3596622764
 30
0.0
 10
6.0142155001
 20
5.3623637241
 30
0.0
 10
6.0104673773
 20
5.3650159859
 30
0.0
 10
6.0066180144
 20
5.3676060722
 30
0.0
 10
6.0026630056
 20
5.3701195122
 30
0.0
 10
5.9985983145
 20
5.3725419599
 30
0.0
 10
5.994420145
 20
5.3748586731
 30
0.0
 10
5.9901266524
 20
5.3770545673
 30
0.0
 10
5.985712495
 20
5.379102556
 30
0.0
 10
5.9811744239
 20
5.3809735492
 30
0.0
 10
5.9772960746
 20
5.3823576298
 30
0.0
 10
5.9741314803
 20
5.3833472095
 30
0.0
 10
5.9709118021
 20
5.3842571435
 30
0.0
 10
5.9676406693
 20
5.3850314597
 30
0.0
 10
5.9643271696
 20
5.3856561796
 30
0.0
 10
5.9618157623
 20
5.3860470666
 30
0.0
 10
5.9592852501
 20
5.3863554288
 30
0.0
 10
5.9571641283
 20
5.3865401565
 30
0.0
 10
5.9554603848
 20
5.3866427988
 30
0.0
 10
5.9537498397
 20
5.3867146489
 30
0.0
 10
5.951604849
 20
5.3867465586
 30
0.0
 10
5.949025824
 20
5.3866949709
 30
0.0
 10
5.9464434825
 20
5.3865559187
 30
0.0
 10
5.9438616407
 20
5.386331833
 30
0.0
 10
5.9412840864
 20
5.3860251309
 30
0.0
 10
5.9387146163
 20
5.3856382265
 30
0.0
 10
5.936157023
 20
5.3851735483
 30
0.0
 10
5.9336148985
 20
5.3846334169
 30
0.0
 10
5.9310910364
 20
5.3840201714
 30
0.0
 10
5.928586718
 20
5.3833383545
 30
0.0
 10
5.9252756345
 20
5.3823438589
 30
0.0
 10
5.9211887348
 20
5.3809509295
 30
0.0
 10
5.9171700591
 20
5.3793849653
 30
0.0
 10
5.9139983145
 20
5.3780451736
 30
0.0
 10
5.9116435481
 20
5.3770021214
 30
0.0
 10
5.9093111547
 20
5.3759233079
 30
0.0
 10
5.9062344053
 20
5.3744418249
 30
0.0
 10
5.9024428155
 20
5.3725120582
 30
0.0
 10
5.8979716583
 20
5.3700865455
 30
0.0
 10
5.8935803159
 20
5.3675715737
 30
0.0
 10
5.8892643203
 20
5.3649840143
 30
0.0
 10
5.8836264974
 20
5.3614626268
 30
0.0
 10
5.876760574
 20
5.3569356461
 30
0.0
 10
5.8687567967
 20
5.3513579627
 30
0.0
 10
5.8610034812
 20
5.3457083624
 30
0.0
 10
5.8534864401
 20
5.3400412361
 30
0.0
 10
5.8462058788
 20
5.3343911307
 30
0.0
 10
5.8391629948
 20
5.3287929974
 30
0.0
 10
5.8323670687
 20
5.3232735717
 30
0.0
 10
5.8258301763
 20
5.3178617436
 30
0.0
 10
5.8215760052
 20
5.314273597
 30
0.0
 10
5.8194951159
 20
5.3125020142
 30
0.0
 11
6.0665649811
 21
5.3125020142
 31
0.0
 11
6.0621512506
 21
5.317789537
 31
0.0
 11
6.0598024848
 21
5.3204856746
 31
0.0
 11
6.0573621618
 21
5.3232120361
 31
0.0
 11
6.0548325639
 21
5.3259651013
 31
0.0
 11
6.0522159737
 21
5.3287413501
 31
0.0
 11
6.0495146666
 21
5.3315372604
 31
0.0
 11
6.0467301349
 21
5.3343491036
 31
0.0
 11
6.0409111553
 21
5.3400040352
 31
0.0
 11
6.0378763289
 21
5.3428387788
 31
0.0
 11
6.0347576924
 21
5.345672811
 31
0.0
 11
6.0315550524
 21
5.3485019532
 31
0.0
 11
6.0282675226
 21
5.3513209389
 31
0.0
 11
6.0248927474
 21
5.3541221965
 31
0.0
 11
6.0214281842
 21
5.3568978601
 31
0.0
 11
6.01787129
 21
5.359640064
 31
0.0
 11
6.0142195222
 21
5.3623409423
 31
0.0
 11
6.0104702019
 21
5.3649920261
 31
0.0
 11
6.00661971
 21
5.3675806701
 31
0.0
 11
6.0026640291
 21
5.3700924629
 31
0.0
 11
5.9985991408
 21
5.3725129866
 31
0.0
 11
5.9944210263
 21
5.3748278234
 31
0.0
 11
5.9901258739
 21
5.3770204858
 31
0.0
 11
5.9857108455
 21
5.379064735
 31
0.0
 11
5.9811733895
 21
5.3809314622
 31
0.0
 11
5.9765109547
 21
5.3825915588
 31
0.0
 11
5.9741320803
 21
5.3833350231
 31
0.0
 11
5.9717219094
 21
5.384015805
 31
0.0
 11
5.9668170891
 21
5.3851734829
 31
0.0
 11
5.9643274415
 21
5.3856424236
 31
0.0
 11
5.9618163034
 21
5.3860327953
 31
0.0
 11
5.9592861758
 21
5.3863406205
 31
0.0
 11
5.9567395596
 21
5.3865619215
 31
0.0
 11
5.9554608498
 21
5.3866388825
 31
0.0
 11
5.9541789641
 21
5.386692762
 31
0.0
 11
5.9516073871
 21
5.3867315918
 31
0.0
 11
5.9490285739
 21
5.3866805136
 31
0.0
 11
5.946446333
 21
5.3865419388
 31
0.0
 11
5.943864473
 21
5.386318279
 31
0.0
 11
5.9412868024
 21
5.3860119455
 31
0.0
 11
5.9387171297
 21
5.3856253499
 31
0.0
 11
5.9361592636
 21
5.3851609036
 31
0.0
 11
5.9336170118
 21
5.3846210185
 31
0.0
 11
5.9310934227
 21
5.384008519
 31
0.0
 11
5.9285893419
 21
5.3833274258
 31
0.0
 11
5.9261052178
 21
5.3825819757
 31
0.0
 11
5.9211986337
 21
5.3809149505
 31
0.0
 11
5.9163772578
 21
5.3790413359
 31
0.0
 11
5.913999644
 21
5.3780376491
 31
0.0
 11
5.911644655
 21
5.3769949739
 31
0.0
 11
5.9093122656
 21
5.3759164917
 31
0.0
 11
5.907002037
 21
5.3748044605
 31
0.0
 11
5.9024462444
 21
5.3724886462
 31
0.0
 11
5.8979736419
 21
5.3700653216
 31
0.0
 11
5.8935805945
 21
5.3675522767
 31
0.0
 11
5.8892636996
 21
5.3649657514
 31
0.0
 11
5.8850203069
 21
5.3623169719
 31
0.0
 11
5.8767440331
 21
5.3568735079
 31
0.0
 11
5.8687327199
 21
5.3512990431
 31
0.0
 11
5.8609711115
 21
5.3456522373
 31
0.0
 11
5.8534473259
 21
5.3399839831
 31
0.0
 11
5.8461595806
 21
5.3343322958
 31
0.0
 11
5.8391101363
 21
5.3287305522
 31
0.0
 11
5.8323070603
 21
5.3232068731
 31
0.0
 11
5.825762011
 21
5.3177881735
 31
0.0
 11
5.8194951159
 21
5.3125020142
 31
0.0
  0
SPLINE
  5
27E
100
AcDbEntity
  8
0
100
AcDbSpline
 62
6
  6
CONTINUOUS
 70
0
 71
3
 72
10
 73
6
 74
4
 42
0.0000001
 43
0.0000001
 44
0.0000000001
 12
-0.0337626958
 22
0.0494096065
 32
0.0
 13
-0.03312515
 23
0.0498392745
 33
0.0
 40
0.0
 40
0.0
 40
0.0
 40
0.0
 40
0.2485224615
 40
0.4981944769
 40
1.0
 40
1.0
 40
1.0
 40
1.0
 10
5.4683548114
 20
4.0389328956
 30
0.0
 10
5.465557882
 20
4.0430260279
 30
0.0
 10
5.4599553993
 20
4.0512341816
 30
0.0
 10
5.4487481706
 20
4.067736078
 30
0.0
 10
5.4403926498
 20
4.0801820241
 30
0.0
 10
5.4348518554
 20
4.0885185652
 30
0.0
 11
5.4683548114
 21
4.0389328956
 31
0.0
 11
5.4599730805
 21
4.0512184768
 31
0.0
 11
5.4515812246
 21
4.0635803799
 31
0.0
 11
5.4348518554
 21
4.0885185652
 31
0.0
  0
SPLINE
  5
27F
100
AcDbEntity
  8
0
100
AcDbSpline
 62
6
  6
CONTINUOUS
 70
0
 71
3
 72
9
 73
5
 74
3
 42
0.0000001
 43
0.0000001
 44
0.0000000001
 12
0.0357337719
 22
-0.0502371482
 32
0.0
 13
0.0376306816
 23
-0.0488324207
 33
0.0
 40
0.0
 40
0.0
 40
0.0
 40
0.0
 40
0.4994384963
 40
1.0
 40
1.0
 40
1.0
 40
1.0
 10
5.4348518554
 20
4.0885185652
 30
0.0
 10
5.4408007959
 20
4.0801551099
 30
0.0
 10
5.45284802
 20
4.0635056746
 30
0.0
 10
5.4652008218
 20
4.0470807722
 30
0.0
 10
5.4714796453
 20
4.0389328956
 30
0.0
 11
5.4348518554
 21
4.0885185652
 31
0.0
 11
5.4529107138
 21
4.0635803793
 31
0.0
 11
5.4714796453
 21
4.0389328956
 31
0.0
  0
LINE
  5
280
100
AcDbEntity
  8
0
100
AcDbLine
 62
6
  6
CONTINUOUS
 10
5.5318563747
 20
4.0389328956
 11
5.5054352089
 21
4.0885185652
  0
SPLINE
  5
281
100
AcDbEntity
  8
0
100
AcDbSpline
 62
6
  6
CONTINUOUS
 70
0
 71
3
 72
9
 73
5
 74
3
 42
0.0000001
 43
0.0000001
 44
0.0000000001
 12
0.0298501588
 22
-0.0501918805
 32
0.0
 13
0.0320071735
 23
-0.0488446281
 33
0.0
 40
0.0
 40
0.0
 40
0.0
 40
0.0
 40
0.4996007281
 40
1.0
 40
1.0
 40
1.0
 40
1.0
 10
5.5054352089
 20
4.0885185652
 30
0.0
 10
5.5104062625
 20
4.0801599318
 30
0.0
 10
5.5204999474
 20
4.0635142931
 30
0.0
 10
5.5309367684
 20
4.0470801677
 30
0.0
 10
5.5362755572
 20
4.0389328956
 30
0.0
 11
5.5054352089
 21
4.0885185652
 31
0.0
 11
5.5205775343
 21
4.0635803793
 31
0.0
 11
5.5362755572
 21
4.0389328956
 31
0.0
  0
LINE
  5
282
100
AcDbEntity
  8
0
100
AcDbLine
 62
6
  6
CONTINUOUS
 10
5.6149600429
 20
4.0389328956
 11
5.5974212259
 21
4.0885185652
  0
SPLINE
  5
283
100
AcDbEntity
  8
0
100
AcDbSpline
 62
6
  6
CONTINUOUS
 70
0
 71
3
 72
13
 73
9
 74
7
 42
0.0000001
 43
0.0000001
 44
0.0000000001
 12
0.0
 22
0.0252143508
 32
0.0
 13
-0.005808596
 23
0.0245361712
 33
0.0
 40
0.0
 40
0.0
 40
0.0
 40
0.0
 40
0.1272306574
 40
0.2543056664
 40
0.5068785718
 40
0.7559935349
 40
0.8787632262
 40
1.0
 40
1.0
 40
1.0
 40
1.0
 10
6.4689678959
 20
5.5439328956
 30
0.0
 10
6.4689678959
 20
5.5450022417
 30
0.0
 10
6.4689379208
 20
5.5471397621
 30
0.0
 10
6.4687590471
 20
5.5513966445
 30
0.0
 10
6.4683149048
 20
5.5566655832
 30
0.0
 10
6.4675741572
 20
5.5618647349
 30
0.0
 10
6.4668063432
 20
5.5659380821
 30
0.0
 10
6.4663653282
 20
5.5679413335
 30
0.0
 10
6.4661305897
 20
5.5689328956
 30
0.0
 11
6.4689678959
 21
5.5439328956
 31
0.0
 11
6.4689229423
 21
5.547140619
 31
0.0
 11
6.4687882993
 21
5.5503419027
 31
0.0
 11
6.4682514459
 21
5.5566876961
 31
0.0
 11
6.4673624021
 21
5.5629057328
 31
0.0
 11
6.4667884926
 21
5.5659476249
 31
0.0
 11
6.4661305897
 21
5.5689328956
 31
0.0
  0
SPLINE
  5
284
100
AcDbEntity
  8
0
100
AcDbSpline
 62
6
  6
CONTINUOUS
 70
0
 71
3
 72
10
 73
6
 74
4
 42
0.0000001
 43
0.0000001
 44
0.0000000001
 12
0.0219068734
 22
-0.0500601829
 32
0.0
 13
0.0242533381
 23
-0.0489664028
 33
0.0
 40
0.0
 40
0.0
 40
0.0
 40
0.0
 40
0.2502760319
 40
0.5002513172
 40
1.0
 40
1.0
 40
1.0
 40
1.0
 10
5.5974212259
 20
4.0885185652
 30
0.0
 10
5.5992488144
 20
4.0843422772
 30
0.0
 10
5.6029375437
 20
4.0760102387
 30
0.0
 10
5.6104746856
 20
4.0594282362
 30
0.0
 10
5.6163322227
 20
4.0470898607
 30
0.0
 10
5.6203724139
 20
4.0389328956
 30
0.0
 11
5.5974212259
 21
4.0885185652
 31
0.0
 11
5.6029602199
 21
4.0760144581
 31
0.0
 11
5.6086150939
 21
4.0635803793
 31
0.0
 11
5.6203724139
 21
4.0389328956
 31
0.0
  0
SPLINE
  5
285
100
AcDbEntity
  8
0
100
AcDbSpline
 62
6
  6
CONTINUOUS
 70
0
 71
3
 72
13
 73
9
 74
7
 42
0.0000001
 43
0.0000001
 44
0.0000000001
 12
0.0
 22
0.0251321274
 32
0.0
 13
-0.0045858606
 23
0.0247101945
 33
0.0
 40
0.0
 40
0.0
 40
0.0
 40
0.0
 40
0.12764208
 40
0.2550894384
 40
0.5081413935
 40
0.757104558
 40
0.8794572605
 40
1.0
 40
1.0
 40
1.0
 40
1.0
 10
6.3286398593
 20
5.5439328956
 30
0.0
 10
6.3286398593
 20
5.5450022013
 30
0.0
 10
6.3286163701
 20
5.5471392652
 30
0.0
 10
6.3284762281
 20
5.5513941158
 30
0.0
 10
6.3281286014
 20
5.5566577432
 30
0.0
 10
6.3275481777
 20
5.5618580244
 30
0.0
 10
6.3269459006
 20
5.5659345743
 30
0.0
 10
6.3265998585
 20
5.5679400174
 30
0.0
 10
6.3264155944
 20
5.5689328956
 30
0.0
 11
6.3286398593
 21
5.5439328956
 31
0.0
 11
6.3286046186
 21
5.547140619
 31
0.0
 11
6.3284990672
 21
5.5503419027
 31
0.0
 11
6.3280782088
 21
5.5566876961
 31
0.0
 11
6.3273812559
 21
5.5629057328
 31
0.0
 11
6.3269313479
 21
5.5659476249
 31
0.0
 11
6.3264155944
 21
5.5689328956
 31
0.0
  0
SPLINE
  5
286
100
AcDbEntity
  8
0
100
AcDbSpline
 62
6
  6
CONTINUOUS
 70
0
 71
3
 72
11
 73
7
 74
5
 42
0.0000001
 43
0.0000001
 44
0.0000000001
 12
-0.0066085578
 22
0.0497078543
 32
0.0
 13
-0.007948227
 23
0.0495113068
 33
0.0
 40
0.0
 40
0.0
 40
0.0
 40
0.0
 40
0.2473581347
 40
0.496591265
 40
0.7475089584
 40
1.0
 40
1.0
 40
1.0
 40
1.0
 10
5.7120024383
 20
4.0389328956
 30
0.0
 10
5.7114575447
 20
4.043031443
 30
0.0
 10
5.7103086134
 20
4.0512523277
 30
0.0
 10
5.7084628793
 20
4.0636100076
 30
0.0
 10
5.7065339611
 20
4.0760417646
 30
0.0
 10
5.7052101636
 20
4.0843515114
 30
0.0
 10
5.7045412116
 20
4.0885185652
 30
0.0
 11
5.7120024383
 21
4.0389328956
 31
0.0
 11
5.7102937865
 21
4.0512184768
 31
0.0
 11
5.7084554036
 21
4.06358038
 31
0.0
 11
5.7065296384
 21
4.0760144592
 31
0.0
 11
5.7045412116
 21
4.0885185652
 31
0.0
  0
SPLINE
  5
287
100
AcDbEntity
  8
0
100
AcDbSpline
 62
6
  6
CONTINUOUS
 70
0
 71
3
 72
12
 73
8
 74
6
 42
0.0000001
 43
0.0000001
 44
0.0000000001
 12
0.0
 22
0.0250656239
 32
0.0
 13
-0.0032514617
 23
0.0248538428
 33
0.0
 40
0.0
 40
0.0
 40
0.0
 40
0.0
 40
0.2557197654
 40
0.509163467
 40
0.7580068845
 40
0.8800218216
 40
1.0
 40
1.0
 40
1.0
 40
1.0
 10
6.1784018995
 20
5.5439328956
 30
0.0
 10
6.1784018995
 20
5.5460694874
 30
0.0
 10
6.1783362706
 20
5.5503239583
 30
0.0
 10
6.1780418811
 20
5.5566513776
 30
0.0
 10
6.1776328787
 20
5.561852539
 30
0.0
 10
6.1772081176
 20
5.5659316804
 30
0.0
 10
6.1769640034
 20
5.5679389227
 30
0.0
 10
6.1768339686
 20
5.5689328956
 30
0.0
 11
6.1784018995
 21
5.5439328956
 31
0.0
 11
6.1783026522
 21
5.5503419027
 31
0.0
 11
6.1780059803
 21
5.5566876961
 31
0.0
 11
6.1775146836
 21
5.5629057328
 31
0.0
 11
6.177197534
 21
5.5659476249
 31
0.0
 11
6.1768339686
 21
5.5689328956
 31
0.0
  0
SPLINE
  5
288
100
AcDbEntity
  8
0
100
AcDbSpline
 62
6
  6
CONTINUOUS
 70
0
 71
3
 72
11
 73
7
 74
5
 42
0.0000001
 43
0.0000001
 44
0.0000000001
 12
0.0124967745
 22
-0.0498518693
 32
0.0
 13
0.0148389898
 23
-0.0492055142
 33
0.0
 40
0.0
 40
0.0
 40
0.0
 40
0.0
 40
0.2510844128
 40
0.5013634967
 40
0.7509430006
 40
1.0
 40
1.0
 40
1.0
 40
1.0
 10
5.7045412116
 20
4.0885185652
 30
0.0
 10
5.7055871267
 20
4.0843462228
 30
0.0
 10
5.7077073533
 20
4.0760228228
 30
0.0
 10
5.7109982704
 20
4.0635859117
 30
0.0
 10
5.7144144242
 20
4.0512187574
 30
0.0
 10
5.7168072357
 20
4.0430178882
 30
0.0
 10
5.7180391538
 20
4.0389328956
 30
0.0
 11
5.7045412116
 21
4.0885185652
 31
0.0
 11
5.7077300554
 21
4.0760144581
 31
0.0
 11
5.7110237785
 21
4.0635803793
 31
0.0
 11
5.714446444
 21
4.0512184772
 31
0.0
 11
5.7180391538
 21
4.0389328956
 31
0.0
  0
SPLINE
  5
289
100
AcDbEntity
  8
0
100
AcDbSpline
 62
6
  6
CONTINUOUS
 70
0
 71
3
 72
11
 73
7
 74
5
 42
0.0000001
 43
0.0000001
 44
0.0000000001
 12
0.0
 22
0.0250206842
 32
0.0
 13
-0.0018344326
 23
0.0249533464
 33
0.0
 40
0.0
 40
0.0
 40
0.0
 40
0.0
 40
0.2561580514
 40
0.5098674566
 40
0.7586281401
 40
1.0
 40
1.0
 40
1.0
 40
1.0
 10
6.0211782274
 20
5.5439328956
 30
0.0
 10
6.0211782274
 20
5.5460693122
 30
0.0
 10
6.021141374
 20
5.5503218151
 30
0.0
 10
6.0209760688
 20
5.5566471081
 30
0.0
 10
6.0207022393
 20
5.5628452061
 30
0.0
 10
6.020444742
 20
5.566925217
 30
0.0
 10
6.0202971485
 20
5.5689328956
 30
0.0
 11
6.0211782274
 21
5.5439328956
 31
0.0
 11
6.0211224566
 21
5.5503419027
 31
0.0
 11
6.0209557456
 21
5.5566876961
 31
0.0
 11
6.0206796676
 21
5.5629057328
 31
0.0
 11
6.0202971485
 21
5.5689328956
 31
0.0
  0
SPLINE
  5
28A
100
AcDbEntity
  8
0
100
AcDbSpline
 62
6
  6
CONTINUOUS
 70
0
 71
3
 72
11
 73
7
 74
5
 42
0.0000001
 43
0.0000001
 44
0.0000000001
 12
0.0043205609
 22
0.0494988625
 32
0.0
 13
0.0023159912
 23
0.0496330617
 33
0.0
 40
0.0
 40
0.0
 40
0.0
 40
0.0
 40
0.2480369789
 40
0.4973790336
 40
0.7480322991
 40
1.0
 40
1.0
 40
1.0
 40
1.0
 10
5.816370282
 20
4.0389328956
 30
0.0
 10
5.8167275016
 20
4.0430254117
 30
0.0
 10
5.8173737083
 20
4.0512381771
 30
0.0
 10
5.8181855165
 20
4.0636009337
 30
0.0
 10
5.8188899251
 20
4.0760354075
 30
0.0
 10
5.8193005976
 20
4.0843499224
 30
0.0
 10
5.8194951159
 20
4.0885185652
 30
0.0
 11
5.816370282
 21
4.0389328956
 31
0.0
 11
5.8173455467
 21
4.0512184767
 31
0.0
 11
5.8181656286
 21
4.0635803801
 31
0.0
 11
5.8188737317
 21
4.0760144593
 31
0.0
 11
5.8194951159
 21
4.0885185652
 31
0.0
  0
SPLINE
  5
28B
100
AcDbEntity
  8
0
100
AcDbSpline
 62
6
  6
CONTINUOUS
 70
0
 71
3
 72
11
 73
7
 74
5
 42
0.0000001
 43
0.0000001
 44
0.0000000001
 12
0.0023159912
 22
-0.0496330616
 32
0.0
 13
0.0043205608
 23
-0.0494988624
 33
0.0
 40
0.0
 40
0.0
 40
0.0
 40
0.0
 40
0.2519677198
 40
0.5026209872
 40
0.7519630249
 40
1.0
 40
1.0
 40
1.0
 40
1.0
 10
5.8194951159
 20
4.0885185652
 30
0.0
 10
5.8196896342
 20
4.0843499221
 30
0.0
 10
5.8201002975
 20
4.0760354065
 30
0.0
 10
5.8208047177
 20
4.0636009331
 30
0.0
 10
5.8216165367
 20
4.0512381777
 30
0.0
 10
5.8222627302
 20
4.0430254116
 30
0.0
 10
5.8226199498
 20
4.0389328956
 30
0.0
 11
5.8194951159
 21
4.0885185652
 31
0.0
 11
5.8201164951
 21
4.0760144581
 31
0.0
 11
5.8208246056
 21
4.0635803793
 31
0.0
 11
5.8216446932
 21
4.0512184772
 31
0.0
 11
5.8226199498
 21
4.0389328956
 31
0.0
  0
SPLINE
  5
28C
100
AcDbEntity
  8
0
100
AcDbSpline
 62
6
  6
CONTINUOUS
 70
0
 71
3
 72
15
 73
11
 74
9
 42
0.0000001
 43
0.0000001
 44
0.0000000001
 12
0.1389684228
 22
-0.346185632
 32
0.0
 13
0.1869225972
 23
-0.3228260476
 33
0.0
 40
0.0
 40
0.0
 40
0.0
 40
0.0
 40
0.1254172282
 40
0.2506353585
 40
0.3756941835
 40
0.5006336478
 40
0.6254938109
 40
0.7503148085
 40
0.875136814
 40
1.0
 40
1.0
 40
1.0
 40
1.0
 10
5.3422698171
 20
4.4236299507
 30
0.0
 10
5.3480794952
 20
4.4091574032
 30
0.0
 10
5.359946209
 20
4.3803375101
 30
0.0
 10
5.3785000269
 20
4.337461444
 30
0.0
 10
5.397791843
 20
4.2949773918
 30
0.0
 10
5.4178215838
 20
4.2528855431
 30
0.0
 10
5.4385892571
 20
4.2111858759
 30
0.0
 10
5.4600948787
 20
4.169878371
 30
0.0
 10
5.4823383453
 20
4.1289632078
 30
0.0
 10
5.4976552918
 20
4.1019549281
 30
0.0
 10
5.5054352089
 20
4.0885185652
 30
0.0
 11
5.3422698171
 21
4.4236299507
 31
0.0
 11
5.3600835938
 21
4.3803687409
 31
0.0
 11
5.3786350555
 21
4.337499613
 31
0.0
 11
5.397924202
 21
4.295022567
 31
0.0
 11
5.4179510335
 21
4.2529376028
 31
0.0
 11
5.43871555
 21
4.2112447206
 31
0.0
 11
5.4602177513
 21
4.1699439202
 31
0.0
 11
5.4824576376
 21
4.1290352018
 31
0.0
 11
5.5054352089
 21
4.0885185652
 31
0.0
  0
SPLINE
  5
28D
100
AcDbEntity
  8
0
100
AcDbSpline
 62
6
  6
CONTINUOUS
 70
0
 71
3
 72
12
 73
8
 74
6
 42
0.0000001
 43
0.0000001
 44
0.0000000001
 12
0.0
 22
0.0250402584
 32
0.0
 13
0.002551237
 23
0.0249099524
 33
0.0
 40
0.0
 40
0.0
 40
0.0
 40
0.0
 40
0.2559669283
 40
0.5095602519
 40
0.7583564465
 40
0.8802405055
 40
1.0
 40
1.0
 40
1.0
 40
1.0
 10
5.5385157166
 20
5.5439328956
 30
0.0
 10
5.5385157166
 20
5.5460693883
 30
0.0
 10
5.5385670733
 20
5.5503227483
 30
0.0
 10
5.5387974562
 20
5.5566489564
 30
0.0
 10
5.5391176039
 20
5.5618504132
 30
0.0
 10
5.5394502005
 20
5.5659305551
 30
0.0
 10
5.5396413667
 20
5.5679384945
 30
0.0
 10
5.5397432116
 20
5.5689328956
 30
0.0
 11
5.5385157166
 21
5.5439328956
 31
0.0
 11
5.538593415
 21
5.5503419027
 31
0.0
 11
5.5388256722
 21
5.5566876961
 31
0.0
 11
5.5392102964
 21
5.5629057328
 31
0.0
 11
5.5394585851
 21
5.5659476249
 31
0.0
 11
5.5397432116
 21
5.5689328956
 31
0.0
  0
SPLINE
  5
28E
100
AcDbEntity
  8
0
100
AcDbSpline
 62
6
  6
CONTINUOUS
 70
0
 71
3
 72
23
 73
19
 74
17
 42
0.0000001
 43
0.0000001
 44
0.0000000001
 12
0.0313945272
 22
-1.2323921796
 32
0.0
 13
0.2555956232
 23
-1.2060045514
 33
0.0
 40
0.0
 40
0.0
 40
0.0
 40
0.0
 40
0.0688024002
 40
0.1367311251
 40
0.20379243
 40
0.2699928158
 40
0.3353390407
 40
0.3998381312
 40
0.4634973943
 40
0.5263244301
 40
0.5883271447
 40
0.6495137638
 40
0.7098928466
 40
0.7694733003
 40
0.8282643951
 40
0.8862757796
 40
0.9435174967
 40
1.0
 40
1.0
 40
1.0
 40
1.0
 10
5.5724252507
 20
5.3125020142
 30
0.0
 10
5.573145257
 20
5.2842381675
 30
0.0
 10
5.5748338079
 20
5.2280755676
 30
0.0
 10
5.5781432643
 20
5.1443951996
 30
0.0
 10
5.5822131046
 20
5.0618187698
 30
0.0
 10
5.5870433312
 20
4.9803463618
 30
0.0
 10
5.5926339495
 20
4.8999779413
 30
0.0
 10
5.5989849651
 20
4.8207135047
 30
0.0
 10
5.6060963845
 20
4.74255304
 30
0.0
 10
5.613968215
 20
4.6654965371
 30
0.0
 10
5.6226004647
 20
4.5895439851
 30
0.0
 10
5.6319931427
 20
4.5146953727
 30
0.0
 10
5.6421462589
 20
4.44095069
 30
0.0
 10
5.6530598254
 20
4.3683099219
 30
0.0
 10
5.6647338516
 20
4.2967730709
 30
0.0
 10
5.6771683617
 20
4.2263400761
 30
0.0
 10
5.6903633322
 20
4.1570111084
 30
0.0
 10
5.6997289847
 20
4.1112246172
 30
0.0
 10
5.7045412116
 20
4.0885185652
 30
0.0
 11
5.5724252507
 21
5.3125020142
 31
0.0
 11
5.5749792704
 21
5.2277214273
 31
0.0
 11
5.5782937204
 21
5.1440450565
 31
0.0
 11
5.5823686008
 21
5.061472902
 31
0.0
 11
5.5872039116
 21
4.9800049636
 31
0.0
 11
5.5927996528
 21
4.8996412415
 31
0.0
 11
5.5991558244
 21
4.8203817354
 31
0.0
 11
5.6062724264
 21
4.7422264456
 31
0.0
 11
5.6141494588
 21
4.665175372
 31
0.0
 11
5.6227869215
 21
4.5892285145
 31
0.0
 11
5.6321848146
 21
4.5143858732
 31
0.0
 11
5.6423431382
 21
4.4406474481
 31
0.0
 11
5.6532618921
 21
4.3680132392
 31
0.0
 11
5.6649410764
 21
4.2964832464
 31
0.0
 11
5.6773806911
 21
4.2260574698
 31
0.0
 11
5.6905807361
 21
4.1567359094
 31
0.0
 11
5.7045412116
 21
4.0885185652
 31
0.0
  0
SPLINE
  5
28F
100
AcDbEntity
  8
0
100
AcDbSpline
 62
6
  6
CONTINUOUS
 70
0
 71
3
 72
13
 73
9
 74
7
 42
0.0000001
 43
0.0000001
 44
0.0000000001
 12
0.0
 22
0.025096611
 32
0.0
 13
0.003930966
 23
0.0247868391
 33
0.0
 40
0.0
 40
0.0
 40
0.0
 40
0.0
 40
0.1278206367
 40
0.2554296616
 40
0.5086900087
 40
0.7575879266
 40
0.8797594884
 40
1.0
 40
1.0
 40
1.0
 40
1.0
 10
5.3844095057
 20
5.5439328956
 30
0.0
 10
5.3844095057
 20
5.5450021839
 30
0.0
 10
5.3844295748
 20
5.5471390514
 30
0.0
 10
5.3845493013
 20
5.5513930265
 30
0.0
 10
5.3848461592
 20
5.5566543515
 30
0.0
 10
5.3853420505
 20
5.5618550931
 30
0.0
 10
5.3858568548
 20
5.5659330319
 30
0.0
 10
5.3861526799
 20
5.5679394349
 30
0.0
 10
5.3863102337
 20
5.5689328956
 30
0.0
 11
5.3844095057
 21
5.5439328956
 31
0.0
 11
5.3844396204
 21
5.547140619
 31
0.0
 11
5.3845298185
 21
5.5503419027
 31
0.0
 11
5.3848894597
 21
5.5566876961
 31
0.0
 11
5.3854850353
 21
5.5629057328
 31
0.0
 11
5.3858695006
 21
5.5659476249
 31
0.0
 11
5.3863102337
 21
5.5689328956
 31
0.0
  0
SPLINE
  5
290
100
AcDbEntity
  8
0
100
AcDbSpline
 62
6
  6
CONTINUOUS
 70
0
 71
3
 72
22
 73
18
 74
16
 42
0.0000001
 43
0.0000001
 44
0.0000000001
 12
0.0617524141
 22
-1.2548018599
 32
0.0
 13
0.4760205546
 23
-1.1626459048
 33
0.0
 40
0.0
 40
0.0
 40
0.0
 40
0.0
 40
0.1343908814
 40
0.2004142832
 40
0.2656856196
 40
0.3302292852
 40
0.3940705087
 40
0.4572353606
 40
0.5197507577
 40
0.5816444637
 40
0.6429450875
 40
0.7036820759
 40
0.7638857025
 40
0.8235870528
 40
0.8828180026
 40
0.9416111933
 40
1.0
 40
1.0
 40
1.0
 40
1.0
 10
5.3421927886
 20
5.3125020142
 30
0.0
 10
5.344959109
 20
5.2562907048
 30
0.0
 10
5.3505599709
 20
5.172524796
 30
0.0
 10
5.36110768
 20
5.0617590621
 30
0.0
 10
5.3704416295
 20
4.9802745036
 30
0.0
 10
5.3812450685
 20
4.8998939892
 30
0.0
 10
5.3935181043
 20
4.8206169334
 30
0.0
 10
5.4072607798
 20
4.7424435076
 30
0.0
 10
5.4224731563
 20
4.6653736904
 30
0.0
 10
5.4391552908
 20
4.5894075187
 30
0.0
 10
5.4573072421
 20
4.5145450207
 30
0.0
 10
5.4769290659
 20
4.4407862383
 30
0.0
 10
5.4980208225
 20
4.3681312055
 30
0.0
 10
5.5205825487
 20
4.2965800128
 30
0.0
 10
5.5446143541
 20
4.2261325735
 30
0.0
 10
5.570116065
 20
4.156789486
 30
0.0
 10
5.5881564685
 20
4.1111470675
 30
0.0
 10
5.5974212259
 20
4.0885185652
 30
0.0
 11
5.3421927886
 21
5.3125020142
 31
0.0
 11
5.3535298014
 21
5.1440450565
 31
0.0
 11
5.3614018659
 21
5.061472902
 31
0.0
 11
5.3707429691
 21
4.9800049636
 31
0.0
 11
5.381553111
 21
4.8996412415
 31
0.0
 11
5.3938322915
 21
4.8203817354
 31
0.0
 11
5.4075805108
 21
4.7422264456
 31
0.0
 11
5.4227977688
 21
4.665175372
 31
0.0
 11
5.4394840655
 21
4.5892285145
 31
0.0
 11
5.4576394009
 21
4.5143858732
 31
0.0
 11
5.477263775
 21
4.4406474481
 31
0.0
 11
5.4983571878
 21
4.3680132392
 31
0.0
 11
5.5209196393
 21
4.2964832464
 31
0.0
 11
5.5449511294
 21
4.2260574698
 31
0.0
 11
5.5704516583
 21
4.1567359094
 31
0.0
 11
5.5974212259
 21
4.0885185652
 31
0.0
  0
SPLINE
  5
291
100
AcDbEntity
  8
0
100
AcDbSpline
 62
6
  6
CONTINUOUS
 70
0
 71
3
 72
13
 73
9
 74
7
 42
0.0000001
 43
0.0000001
 44
0.0000000001
 12
0.0
 22
0.0251716405
 32
0.0
 13
0.0052127419
 23
0.0246259783
 33
0.0
 40
0.0
 40
0.0
 40
0.0
 40
0.0
 40
0.1274440283
 40
0.2547121169
 40
0.507533271
 40
0.7565692555
 40
0.8791227571
 40
1.0
 40
1.0
 40
1.0
 40
1.0
 10
5.2387717412
 20
5.5439328956
 30
0.0
 10
5.2387717412
 20
5.5450022207
 30
0.0
 10
5.2387985378
 20
5.5471395037
 30
0.0
 10
5.2389584275
 20
5.5513953298
 30
0.0
 10
5.2393552283
 20
5.5566615129
 30
0.0
 10
5.240017404
 20
5.5618612624
 30
0.0
 10
5.2407041552
 20
5.5659362709
 30
0.0
 10
5.2410986727
 20
5.5679406555
 30
0.0
 10
5.2413087067
 20
5.5689328956
 30
0.0
 11
5.2387717412
 21
5.5439328956
 31
0.0
 11
5.2388119363
 21
5.547140619
 31
0.0
 11
5.2389323268
 21
5.5503419027
 31
0.0
 11
5.239412352
 21
5.5566876961
 31
0.0
 11
5.2402072867
 21
5.5629057328
 31
0.0
 11
5.2407204455
 21
5.5659476249
 31
0.0
 11
5.2413087067
 21
5.5689328956
 31
0.0
  0
SPLINE
  5
292
100
AcDbEntity
  8
0
100
AcDbSpline
 62
6
  6
CONTINUOUS
 70
0
 71
3
 72
10
 73
6
 74
4
 42
0.0000001
 43
0.0000001
 44
0.0000000001
 12
0.0148389103
 22
0.0492052506
 32
0.0
 13
0.0124967076
 23
0.0498516023
 33
0.0
 40
0.0
 40
0.0
 40
0.0
 40
0.0
 40
0.2490583613
 40
0.4986391985
 40
1.0
 40
1.0
 40
1.0
 40
1.0
 10
5.920951078
 20
4.0389328956
 30
0.0
 10
5.9221829962
 20
4.0430178886
 30
0.0
 10
5.9245758168
 20
4.0512187654
 30
0.0
 10
5.9291372533
 20
4.0677320357
 30
0.0
 10
5.9323605671
 20
4.0801873521
 30
0.0
 10
5.9344490202
 20
4.0885185652
 30
0.0
 11
5.920951078
 21
4.0389328956
 31
0.0
 11
5.9245437941
 21
4.0512184768
 31
0.0
 11
5.9279664553
 21
4.0635803799
 31
0.0
 11
5.9344490202
 21
4.0885185652
 31
0.0
  0
SPLINE
  5
293
100
AcDbEntity
  8
0
100
AcDbSpline
 62
6
  6
CONTINUOUS
 70
0
 71
3
 72
11
 73
7
 74
5
 42
0.0000001
 43
0.0000001
 44
0.0000000001
 12
-0.007948227
 22
-0.0495113068
 32
0.0
 13
-0.0066085578
 23
-0.0497078542
 33
0.0
 40
0.0
 40
0.0
 40
0.0
 40
0.0
 40
0.2524910767
 40
0.5034087447
 40
0.7526418377
 40
1.0
 40
1.0
 40
1.0
 40
1.0
 10
5.9344490202
 20
4.0885185652
 30
0.0
 10
5.933780068
 20
4.0843515108
 30
0.0
 10
5.9324562627
 20
4.0760417651
 30
0.0
 10
5.9305273545
 20
4.063610007
 30
0.0
 10
5.9286816297
 20
4.0512523264
 30
0.0
 10
5.9275326871
 20
4.0430314434
 30
0.0
 10
5.9269877935
 20
4.0389328956
 30
0.0
 11
5.9344490202
 21
4.0885185652
 31
0.0
 11
5.9324605889
 21
4.0760144581
 31
0.0
 11
5.9305348301
 21
4.0635803793
 31
0.0
 11
5.9286964523
 21
4.0512184772
 31
0.0
 11
5.9269877935
 21
4.0389328956
 31
0.0
  0
SPLINE
  5
294
100
AcDbEntity
  8
0
100
AcDbSpline
 62
6
  6
CONTINUOUS
 70
0
 71
3
 72
11
 73
7
 74
5
 42
0.0000001
 43
0.0000001
 44
0.0000000001
 12
0.0
 22
0.0229560863
 32
0.0
 13
0.0052251748
 23
0.0223535109
 33
0.0
 40
0.0
 40
0.0
 40
0.0
 40
0.0
 40
0.253151692
 40
0.5050720391
 40
0.7544052159
 40
1.0
 40
1.0
 40
1.0
 40
1.0
 10
5.1044370967
 20
5.5439328956
 30
0.0
 10
5.1044370967
 20
5.5458700196
 30
0.0
 10
5.1045449775
 20
5.5497357051
 30
0.0
 10
5.1050286957
 20
5.5554911016
 30
0.0
 10
5.1058310081
 20
5.561152467
 30
0.0
 10
5.1065807912
 20
5.5648673969
 30
0.0
 10
5.1070085497
 20
5.5666973655
 30
0.0
 11
5.1044370967
 21
5.5439328956
 31
0.0
 11
5.1045994959
 21
5.5497419981
 31
0.0
 11
5.1050851861
 21
5.5555046721
 31
0.0
 11
5.1058903759
 21
5.5611714675
 31
0.0
 11
5.1070085497
 21
5.5666973655
 31
0.0
  0
SPLINE
  5
295
100
AcDbEntity
  8
0
100
AcDbSpline
 62
6
  6
CONTINUOUS
 70
0
 71
3
 72
9
 73
5
 74
3
 42
0.0000001
 43
0.0000001
 44
0.0000000001
 12
0.0242531915
 22
0.0489661068
 32
0.0
 13
0.021906741
 23
0.0500598803
 33
0.0
 40
0.0
 40
0.0
 40
0.0
 40
0.0
 40
0.4997517306
 40
1.0
 40
1.0
 40
1.0
 40
1.0
 10
6.0186178178
 20
4.0389328956
 30
0.0
 10
6.0226580093
 20
4.0470898611
 30
0.0
 10
6.0304708166
 20
4.0635467009
 30
0.0
 10
6.0379160694
 20
4.080171109
 30
0.0
 10
6.0415690058
 20
4.0885185652
 30
0.0
 11
6.0186178178
 21
4.0389328956
 31
0.0
 11
6.0303751399
 21
4.0635803799
 31
0.0
 11
6.0415690058
 21
4.0885185652
 31
0.0
  0
LINE
  5
296
100
AcDbEntity
  8
0
100
AcDbLine
 62
6
  6
CONTINUOUS
 10
6.0415690058
 20
4.0885185652
 11
6.0240301889
 21
4.0389328956
  0
SPLINE
  5
297
100
AcDbEntity
  8
0
100
AcDbSpline
 62
6
  6
CONTINUOUS
 70
0
 71
3
 72
9
 73
5
 74
3
 42
0.0000001
 43
0.0000001
 44
0.0000000001
 12
0.0320071735
 22
0.0488446281
 32
0.0
 13
0.0298501588
 23
0.0501918805
 33
0.0
 40
0.0
 40
0.0
 40
0.0
 40
0.0
 40
0.5003992978
 40
1.0
 40
1.0
 40
1.0
 40
1.0
 10
6.1027146746
 20
4.0389328956
 30
0.0
 10
6.1080534637
 20
4.0470801681
 30
0.0
 10
6.1184902866
 20
4.0635142922
 30
0.0
 10
6.1285839695
 20
4.0801599323
 30
0.0
 10
6.1335550229
 20
4.0885185652
 30
0.0
 11
6.1027146746
 21
4.0389328956
 31
0.0
 11
6.1184126993
 21
4.0635803799
 31
0.0
 11
6.1335550229
 21
4.0885185652
 31
0.0
  0
SPLINE
  5
298
100
AcDbEntity
  8
0
100
AcDbSpline
 62
6
  6
CONTINUOUS
 70
0
 71
3
 72
61
 73
57
 74
55
 42
0.0000001
 43
0.0000001
 44
0.0000000001
 12
0.0045259893
 22
0.0870757364
 32
0.0
 13
-0.068116792
 23
-0.054431343
 33
0.0
 40
0.0
 40
0.0
 40
0.0
 40
0.0
 40
0.0068125479
 40
0.0099547152
 40
0.0129196887
 40
0.0157080102
 40
0.0183215027
 40
0.0207636644
 40
0.0230401924
 40
0.025159668
 40
0.0271344203
 40
0.0307165681
 40
0.0323834457
 40
0.0340105148
 40
0.0356383409
 40
0.0373093056
 40
0.0390621365
 40
0.0409291035
 40
0.0429357068
 40
0.0451013569
 40
0.0474404446
 40
0.0499634208
 40
0.052677719
 40
0.0555884851
 40
0.0586991303
 40
0.0620117445
 40
0.0692456787
 40
0.0772913942
 40
0.0861409412
 40
0.0957791044
 40
0.1061788434
 40
0.1173081972
 40
0.1291330771
 40
0.1416179103
 40
0.1547260736
 40
0.1684201944
 40
0.1826623676
 40
0.197414315
 40
0.212640233
 40
0.2444263471
 40
0.277864559
 40
0.312802412
 40
0.3490879059
 40
0.3865822115
 40
0.4251927156
 40
0.4648382509
 40
0.5054387907
 40
0.5469172347
 40
0.5892145088
 40
0.632282356
 40
0.6760736632
 40
0.7205426955
 40
0.7656534437
 40
0.8113807314
 40
0.9045881954
 40
1.0
 40
1.0
 40
1.0
 40
1.0
 10
6.8243486562
 20
5.3838911389
 30
0.0
 10
6.824358934
 20
5.3840888748
 30
0.0
 10
6.8243664506
 20
5.3843783593
 30
0.0
 10
6.8243562647
 20
5.3847537951
 30
0.0
 10
6.8243391105
 20
5.3850118446
 30
0.0
 10
6.8243121583
 20
5.3852536147
 30
0.0
 10
6.8242753075
 20
5.3854787123
 30
0.0
 10
6.8242284484
 20
5.3856867547
 30
0.0
 10
6.8241714807
 20
5.3858773368
 30
0.0
 10
6.8241042032
 20
5.3860501552
 30
0.0
 10
6.8240040061
 20
5.3862496548
 30
0.0
 10
6.8238793215
 20
5.3864219949
 30
0.0
 10
6.8237287899
 20
5.3865545379
 30
0.0
 10
6.8236073225
 20
5.3866313083
 30
0.0
 10
6.8234747122
 20
5.3866869772
 30
0.0
 10
6.8233313634
 20
5.3867213595
 30
0.0
 10
6.8231776985
 20
5.3867349282
 30
0.0
 10
6.8230139188
 20
5.3867281299
 30
0.0
 10
6.822840132
 20
5.3867013924
 30
0.0
 10
6.8226563974
 20
5.3866550699
 30
0.0
 10
6.8224627714
 20
5.3865894656
 30
0.0
 10
6.8222593228
 20
5.3865048492
 30
0.0
 10
6.822046136
 20
5.3864014739
 30
0.0
 10
6.8218233104
 20
5.3862795837
 30
0.0
 10
6.8215909505
 20
5.3861394258
 30
0.0
 10
6.8212587435
 20
5.3859220402
 30
0.0
 10
6.8208213242
 20
5.3856042039
 30
0.0
 10
6.8202746586
 20
5.3851645914
 30
0.0
 10
6.8196928911
 20
5.3846581177
 30
0.0
 10
6.8190772881
 20
5.384087034
 30
0.0
 10
6.8184286226
 20
5.3834546222
 30
0.0
 10
6.8177479286
 20
5.3827643217
 30
0.0
 10
6.8170362707
 20
5.3820196443
 30
0.0
 10
6.8162947193
 20
5.3812241138
 30
0.0
 10
6.8155243443
 20
5.3803812656
 30
0.0
 10
6.8147262152
 20
5.3794946423
 30
0.0
 10
6.8139014005
 20
5.3785677916
 30
0.0
 10
6.8130509169
 20
5.3776042046
 30
0.0
 10
6.8118665763
 20
5.3762551861
 30
0.0
 10
6.8103286337
 20
5.3744939052
 30
0.0
 10
6.8084151175
 20
5.3722999855
 30
0.0
 10
6.806411246
 20
5.3700113499
 30
0.0
 10
6.8043198709
 20
5.3676426624
 30
0.0
 10
6.8021428043
 20
5.3652073071
 30
0.0
 10
6.7998827339
 20
5.3627152674
 30
0.0
 10
6.7975411992
 20
5.3601753718
 30
0.0
 10
6.7951195615
 20
5.3575961344
 30
0.0
 10
6.7926186571
 20
5.3549858404
 30
0.0
 10
6.7900397507
 20
5.3523512497
 30
0.0
 10
6.7873839499
 20
5.3496981792
 30
0.0
 10
6.7846520828
 20
5.3470322969
 30
0.0
 10
6.7818447221
 20
5.3443591672
 30
0.0
 10
6.7789624591
 20
5.3416835439
 30
0.0
 10
6.7749954169
 20
5.338095002
 30
0.0
 10
6.7698538438
 20
5.3336265007
 30
0.0
 10
6.7656184391
 20
5.3301445646
 30
0.0
 10
6.7634520571
 20
5.3284134337
 30
0.0
 11
6.8243486562
 21
5.3838911389
 31
0.0
 11
6.824362026
 21
5.3844849968
 31
0.0
 11
6.824354282
 21
5.3847588632
 31
0.0
 11
6.8243367943
 21
5.3850167969
 31
0.0
 11
6.8243094698
 21
5.3852583794
 31
0.0
 11
6.8242722154
 21
5.3854831925
 31
0.0
 11
6.8242249378
 21
5.3856908179
 31
0.0
 11
6.8241675439
 21
5.3858808373
 31
0.0
 11
6.8240999404
 21
5.3860528324
 31
0.0
 11
6.8240220341
 21
5.3862063848
 31
0.0
 11
6.8238349407
 21
5.3864564884
 31
0.0
 11
6.823725567
 21
5.386552203
 31
0.0
 11
6.8236055179
 21
5.3866278017
 31
0.0
 11
6.8234747043
 21
5.3866828788
 31
0.0
 11
6.8233331424
 21
5.3867173433
 31
0.0
 11
6.8231809581
 21
5.3867314331
 31
0.0
 11
6.8230182829
 21
5.386725402
 31
0.0
 11
6.822845248
 21
5.3866995036
 31
0.0
 11
6.8226619846
 21
5.3866539914
 31
0.0
 11
6.8224686241
 21
5.3865891191
 31
0.0
 11
6.8222652977
 21
5.3865051402
 31
0.0
 11
6.8220521366
 21
5.3864023084
 31
0.0
 11
6.8218292722
 21
5.3862808773
 31
0.0
 11
6.8215968357
 21
5.3861411005
 31
0.0
 11
6.8213549584
 21
5.3859832315
 31
0.0
 11
6.8208434065
 21
5.3856142318
 31
0.0
 11
6.8202956667
 21
5.3851759069
 31
0.0
 11
6.8197127892
 21
5.3846702856
 31
0.0
 11
6.8190958263
 21
5.3840996715
 31
0.0
 11
6.8184458383
 21
5.3834673907
 31
0.0
 11
6.8177638876
 21
5.3827770076
 31
0.0
 11
6.8170510364
 21
5.3820320864
 31
0.0
 11
6.816308347
 21
5.3812361917
 31
0.0
 11
6.8155368816
 21
5.3803928878
 31
0.0
 11
6.8147377024
 21
5.379505739
 31
0.0
 11
6.8139118717
 21
5.3785783096
 31
0.0
 11
6.8130604518
 21
5.3776141642
 31
0.0
 11
6.8121844112
 21
5.3766166329
 31
0.0
 11
6.8103604102
 21
5.3745299058
 31
0.0
 11
6.8084430797
 21
5.3723334327
 31
0.0
 11
6.8064354963
 21
5.3700421813
 31
0.0
 11
6.8043407362
 21
5.3676711192
 31
0.0
 11
6.8021615663
 21
5.3652340668
 31
0.0
 11
6.7998996073
 21
5.3627405995
 31
0.0
 11
6.7975562153
 21
5.3601993108
 31
0.0
 11
6.795132746
 21
5.3576187944
 31
0.0
 11
6.7926305253
 21
5.3550074751
 31
0.0
 11
6.7900505705
 21
5.3523720513
 31
0.0
 11
6.7873937189
 21
5.3497182109
 31
0.0
 11
6.7846608051
 21
5.3470516294
 31
0.0
 11
6.7818526579
 21
5.3443779527
 31
0.0
 11
6.7789699238
 21
5.341701926
 31
0.0
 11
6.7760130373
 21
5.339027251
 31
0.0
 11
6.7698784986
 21
5.3336965272
 31
0.0
 11
6.7634520571
 21
5.3284134337
 31
0.0
  0
SPLINE
  5
299
100
AcDbEntity
  8
0
100
AcDbSpline
 62
6
  6
CONTINUOUS
 70
0
 71
3
 72
63
 73
59
 74
57
 42
0.0000001
 43
0.0000001
 44
0.0000000001
 12
0.00933913
 22
0.1533511798
 32
0.0
 13
-0.1307779958
 23
-0.0806282799
 33
0.0
 40
0.0
 40
0.0
 40
0.0
 40
0.0
 40
0.011647639
 40
0.0230676231
 40
0.0342444533
 40
0.04516469
 40
0.0558173757
 40
0.0661945394
 40
0.0762878868
 40
0.0860753599
 40
0.0955371441
 40
0.1046638343
 40
0.1134593304
 40
0.1219443233
 40
0.130159604
 40
0.1381622019
 40
0.1421089446
 40
0.146033635
 40
0.1499500548
 40
0.1538735889
 40
0.1578210979
 40
0.1618107342
 40
0.1658617064
 40
0.1699940094
 40
0.1742279168
 40
0.1785811524
 40
0.1830679795
 40
0.1877001183
 40
0.1974330593
 40
0.2078358981
 40
0.2189355468
 40
0.230740069
 40
0.2432435881
 40
0.2564284365
 40
0.270265549
 40
0.2847171126
 40
0.2997388515
 40
0.3152816936
 40
0.3312942902
 40
0.3477408323
 40
0.3645973361
 40
0.3818390821
 40
0.4173754313
 40
0.4356176717
 40
0.4541464596
 40
0.4920044161
 40
0.5308315927
 40
0.5505720814
 40
0.5705138502
 40
0.6109635955
 40
0.6521070228
 40
0.6938745473
 40
0.7362137242
 40
0.7790797168
 40
0.8224304969
 40
0.8662313062
 40
0.9104505311
 40
1.0
 40
1.0
 40
1.0
 40
1.0
 10
6.7657913246
 20
5.3647183901
 30
0.0
 10
6.7658275842
 20
5.3653137832
 30
0.0
 10
6.7658801444
 20
5.3664942129
 30
0.0
 10
6.765896995
 20
5.368248213
 30
0.0
 10
6.7658497323
 20
5.3699644552
 30
0.0
 10
6.7657369548
 20
5.3716383049
 30
0.0
 10
6.7655572687
 20
5.3732651706
 30
0.0
 10
6.765309252
 20
5.374840245
 30
0.0
 10
6.7649919118
 20
5.3763576959
 30
0.0
 10
6.7646025301
 20
5.3778099641
 30
0.0
 10
6.764138286
 20
5.3791881388
 30
0.0
 10
6.7635963719
 20
5.3804830539
 30
0.0
 10
6.7629738379
 20
5.3816855058
 30
0.0
 10
6.7622675654
 20
5.3827862374
 30
0.0
 10
6.7614746221
 20
5.3837752116
 30
0.0
 10
6.7607363126
 20
5.3845013908
 30
0.0
 10
6.7601036103
 20
5.3850126529
 30
0.0
 10
6.7596092344
 20
5.3853599371
 30
0.0
 10
6.7590929021
 20
5.3856713727
 30
0.0
 10
6.7585545652
 20
5.3859456558
 30
0.0
 10
6.7579942062
 20
5.3861814565
 30
0.0
 10
6.7574118139
 20
5.3863774618
 30
0.0
 10
6.7568073869
 20
5.3865323492
 30
0.0
 10
6.7561809422
 20
5.3866448708
 30
0.0
 10
6.7555326427
 20
5.3867135311
 30
0.0
 10
6.754863103
 20
5.3867387235
 30
0.0
 10
6.7541729599
 20
5.3867214144
 30
0.0
 10
6.7532103906
 20
5.3866413767
 30
0.0
 10
6.7519567341
 20
5.3864340249
 30
0.0
 10
6.7504065572
 20
5.3860325822
 30
0.0
 10
6.7487910419
 20
5.3854809131
 30
0.0
 10
6.7471153151
 20
5.3847853289
 30
0.0
 10
6.7453847035
 20
5.3839517695
 30
0.0
 10
6.7436025621
 20
5.3829907605
 30
0.0
 10
6.7417718218
 20
5.3819131713
 30
0.0
 10
6.7398955799
 20
5.3807297423
 30
0.0
 10
6.7379769536
 20
5.3794512912
 30
0.0
 10
6.7360191053
 20
5.3780885384
 30
0.0
 10
6.7340242063
 20
5.3766519229
 30
0.0
 10
6.7319943079
 20
5.3751492002
 30
0.0
 10
6.7299308457
 20
5.3735863144
 30
0.0
 10
6.7271073336
 20
5.3714079695
 30
0.0
 10
6.7242512291
 20
5.3691559469
 30
0.0
 10
6.7213556364
 20
5.3668477797
 30
0.0
 10
6.7183727237
 20
5.3644584176
 30
0.0
 10
6.7145739119
 20
5.3614014393
 30
0.0
 10
6.7107254476
 20
5.3583071784
 30
0.0
 10
6.7075853347
 20
5.3557962028
 30
0.0
 10
6.7043742075
 20
5.3532410021
 30
0.0
 10
6.7002914974
 20
5.3500208108
 30
0.0
 10
6.6953017506
 20
5.3461459643
 30
0.0
 10
6.6901987797
 20
5.3422595701
 30
0.0
 10
6.6849845845
 20
5.3383741745
 30
0.0
 10
6.679660705
 20
5.334500948
 30
0.0
 10
6.6742279847
 20
5.3306509377
 30
0.0
 10
6.6686881649
 20
5.3268331109
 30
0.0
 10
6.6611299015
 20
5.3217763918
 30
0.0
 10
6.6553534799
 20
5.3180911089
 30
0.0
 10
6.6514497799
 20
5.315684369
 30
0.0
 11
6.7657913246
 21
5.3647183901
 31
0.0
 11
6.7658701564
 21
5.3665061413
 31
0.0
 11
6.7658861363
 21
5.3682605812
 31
0.0
 11
6.7658378744
 21
5.3699770584
 31
0.0
 11
6.7657239809
 21
5.3716509219
 31
0.0
 11
6.7655430658
 21
5.3732775204
 31
0.0
 11
6.7652937393
 21
5.3748522027
 31
0.0
 11
6.7649744461
 21
5.3763696693
 31
0.0
 11
6.7645828292
 21
5.3778214798
 31
0.0
 11
6.7641162891
 21
5.3791982439
 31
0.0
 11
6.7635722265
 21
5.3804905711
 31
0.0
 11
6.7629480418
 21
5.3816890707
 31
0.0
 11
6.7622411355
 21
5.3827843524
 31
0.0
 11
6.7614490065
 21
5.3837669877
 31
0.0
 11
6.7605704273
 21
5.3846270594
 31
0.0
 11
6.7600986118
 21
5.3850079286
 31
0.0
 11
6.7596050589
 21
5.3853543091
 31
0.0
 11
6.7590897283
 21
5.3856649177
 31
0.0
 11
6.7585525801
 21
5.3859384713
 31
0.0
 11
6.7579935741
 21
5.3861736868
 31
0.0
 11
6.7574126702
 21
5.3863692809
 31
0.0
 11
6.7568098283
 21
5.3865239704
 31
0.0
 11
6.7561850081
 21
5.3866364722
 31
0.0
 11
6.7555382185
 21
5.3867056408
 31
0.0
 11
6.7548699111
 21
5.3867315811
 31
0.0
 11
6.754180774
 21
5.3867150646
 31
0.0
 11
6.7534714974
 21
5.3866568695
 31
0.0
 11
6.7519952868
 21
5.3864185549
 31
0.0
 11
6.7504468012
 21
5.3860228608
 31
0.0
 11
6.7488315627
 21
5.3854760106
 31
0.0
 11
6.7471550932
 21
5.384784228
 31
0.0
 11
6.7454226644
 21
5.3839542511
 31
0.0
 11
6.7436380578
 21
5.3829958828
 31
0.0
 11
6.7418045059
 21
5.3819200549
 31
0.0
 11
6.7399252402
 21
5.3807377011
 31
0.0
 11
6.7380034924
 21
5.3794597552
 31
0.0
 11
6.7360424939
 21
5.3780971508
 31
0.0
 11
6.7340453791
 21
5.3766606187
 31
0.0
 11
6.732013919
 21
5.3751580433
 31
0.0
 11
6.7299488802
 21
5.3735952124
 31
0.0
 11
6.7278510063
 21
5.3719778653
 31
0.0
 11
6.7235597262
 21
5.3686025791
 31
0.0
 11
6.7213677966
 21
5.3668560675
 31
0.0
 11
6.7191457484
 21
5.3650767235
 31
0.0
 11
6.7146123279
 21
5.3614328716
 31
0.0
 11
6.7099614761
 21
5.3576974355
 31
0.0
 11
6.7075926356
 21
5.3558035803
 31
0.0
 11
6.7051951213
 21
5.3538960825
 31
0.0
 11
6.7003146071
 21
5.3500489151
 31
0.0
 11
6.6953209957
 21
5.3461733596
 31
0.0
 11
6.6902153654
 21
5.3422862024
 31
0.0
 11
6.6849989085
 21
5.3384002154
 31
0.0
 11
6.6796728624
 21
5.3345265782
 31
0.0
 11
6.6742384907
 21
5.3306761238
 31
0.0
 11
6.668697183
 21
5.3268580007
 31
0.0
 11
6.6630503679
 21
5.3230808407
 31
0.0
 11
6.6514497799
 21
5.315684369
 31
0.0
  0
SPLINE
  5
29A
100
AcDbEntity
  8
0
100
AcDbSpline
 62
6
  6
CONTINUOUS
 70
0
 71
3
 72
73
 73
69
 74
67
 42
0.0000001
 43
0.0000001
 44
0.0000000001
 12
0.0145361705
 22
0.212852999
 32
0.0
 13
-0.1843778029
 23
-0.1073430261
 33
0.0
 40
0.0
 40
0.0
 40
0.0
 40
0.0
 40
0.0227302866
 40
0.034094459
 40
0.0454597615
 40
0.056827889
 40
0.0681946275
 40
0.0908954253
 40
0.1022250352
 40
0.1135361527
 40
0.1248284161
 40
0.136096809
 40
0.1585163919
 40
0.1696664724
 40
0.1807780096
 40
0.186323009
 40
0.1918615587
 40
0.2029143205
 40
0.2139394586
 40
0.2249555648
 40
0.2360004919
 40
0.2415529035
 40
0.2471353404
 40
0.2527544666
 40
0.2584174963
 40
0.2641326905
 40
0.2699093541
 40
0.2757578157
 40
0.2816893931
 40
0.287716342
 40
0.2938517903
 40
0.3001088349
 40
0.3064965401
 40
0.3196833961
 40
0.3334434117
 40
0.3405411274
 40
0.3477815603
 40
0.3551621958
 40
0.3626797548
 40
0.3703319254
 40
0.3781166606
 40
0.3940698213
 40
0.4105056818
 40
0.4273781612
 40
0.4359614644
 40
0.444633298
 40
0.4622280381
 40
0.4801393708
 40
0.4983427609
 40
0.5168114964
 40
0.5261365645
 40
0.5355175736
 40
0.5544391193
 40
0.5735605378
 40
0.5928659613
 40
0.6123391581
 40
0.6319640495
 40
0.6517280283
 40
0.6716203277
 40
0.7117468865
 40
0.7522617676
 40
0.7930978155
 40
0.8136167769
 40
0.8341930451
 40
0.8754898418
 40
0.9169342743
 40
0.9584634913
 40
1.0
 40
1.0
 40
1.0
 40
1.0
 10
6.6530797681
 20
5.337926542
 30
0.0
 10
6.6531899052
 20
5.3395392786
 30
0.0
 10
6.6532690399
 20
5.3419653782
 30
0.0
 10
6.6532010228
 20
5.3451980592
 30
0.0
 10
6.6530630283
 20
5.3476195784
 30
0.0
 10
6.6528380106
 20
5.3500347587
 30
0.0
 10
6.6524204076
 20
5.353239402
 30
0.0
 10
6.6518223694
 20
5.3564159646
 30
0.0
 10
6.6510366326
 20
5.3595440174
 30
0.0
 10
6.6503523162
 20
5.3618588987
 30
0.0
 10
6.6495713103
 20
5.3641384847
 30
0.0
 10
6.6484006474
 20
5.3671161622
 30
0.0
 10
6.6470235135
 20
5.3699994365
 30
0.0
 10
6.6454263652
 20
5.3727479517
 30
0.0
 10
6.6443357461
 20
5.3743990893
 30
0.0
 10
6.6434064216
 20
5.3756752178
 30
0.0
 10
6.6424399309
 20
5.3769181399
 30
0.0
 10
6.6411575057
 20
5.3784078711
 30
0.0
 10
6.6394935568
 20
5.3800755826
 30
0.0
 10
6.6377004848
 20
5.3816033731
 30
0.0
 10
6.636096905
 20
5.3827421436
 30
0.0
 10
6.634748854
 20
5.3835621471
 30
0.0
 10
6.6337014754
 20
5.3841311968
 30
0.0
 10
6.6326200098
 20
5.3846508702
 30
0.0
 10
6.6315049008
 20
5.3851188151
 30
0.0
 10
6.6303566622
 20
5.3855326453
 30
0.0
 10
6.6291758013
 20
5.3858899783
 30
0.0
 10
6.6279628325
 20
5.3861884309
 30
0.0
 10
6.6267182727
 20
5.3864256224
 30
0.0
 10
6.6254426443
 20
5.3865991705
 30
0.0
 10
6.6241365251
 20
5.3867067058
 30
0.0
 10
6.622800915
 20
5.3867458087
 30
0.0
 10
6.6209636169
 20
5.3867084926
 30
0.0
 10
6.6185994134
 20
5.3864939784
 30
0.0
 10
6.6162114465
 20
5.3860806678
 30
0.0
 10
6.6142628734
 20
5.3856365795
 30
0.0
 10
6.6127689516
 20
5.3852431955
 30
0.0
 10
6.6112595282
 20
5.3847946641
 30
0.0
 10
6.6097362701
 20
5.3842924343
 30
0.0
 10
6.608200375
 20
5.3837388121
 30
0.0
 10
6.6061198074
 20
5.3829292039
 30
0.0
 10
6.6034939932
 20
5.3818009172
 30
0.0
 10
6.6003298824
 20
5.380295576
 30
0.0
 10
6.597681012
 20
5.3789311801
 30
0.0
 10
6.5955451134
 20
5.3777785308
 30
0.0
 10
6.5933777552
 20
5.37657635
 30
0.0
 10
6.590654877
 20
5.3750085358
 30
0.0
 10
6.5873794359
 20
5.3730432873
 30
0.0
 10
6.5840810069
 20
5.3709964756
 30
0.0
 10
6.5813226583
 20
5.3692379659
 30
0.0
 10
6.5791036005
 20
5.3678009063
 30
0.0
 10
6.5768635814
 20
5.3663370129
 30
0.0
 10
6.5740508886
 20
5.364475967
 30
0.0
 10
6.5706633148
 20
5.3622048747
 30
0.0
 10
6.5672538452
 20
5.3598960835
 30
0.0
 10
6.5638223983
 20
5.3575559413
 30
0.0
 10
6.5603685353
 20
5.3551908083
 30
0.0
 10
6.5568923453
 20
5.3528055329
 30
0.0
 10
6.5522143528
 20
5.349594766
 30
0.0
 10
6.546315228
 20
5.34555533
 30
0.0
 10
6.5391642534
 20
5.3407079541
 30
0.0
 10
6.5331410689
 20
5.3366822064
 30
0.0
 10
6.5282766051
 20
5.3334748692
 30
0.0
 10
6.5233699936
 20
5.3302720456
 30
0.0
 10
6.5171877775
 20
5.3263010477
 30
0.0
 10
6.5096992992
 20
5.3216074009
 30
0.0
 10
6.502139259
 20
5.3169970387
 30
0.0
 10
6.4970553439
 20
5.3139882323
 30
0.0
 10
6.4945025405
 20
5.3125020142
 30
0.0
 11
6.6530797681
 21
5.337926542
 31
0.0
 11
6.6532375747
 21
5.3427734525
 31
0.0
 11
6.6531865311
 21
5.3451974474
 31
0.0
 11
6.6530485412
 21
5.3476182912
 31
0.0
 11
6.6528232654
 21
5.3500331825
 31
0.0
 11
6.6525094765
 21
5.3524378754
 31
0.0
 11
6.6516096393
 21
5.3571967363
 31
0.0
 11
6.6510202257
 21
5.3595409305
 31
0.0
 11
6.650335572
 21
5.3618549846
 31
0.0
 11
6.649553982
 21
5.3641338695
 31
0.0
 11
6.6486732025
 21
5.3663708124
 31
0.0
 11
6.6466020449
 21
5.3706823339
 31
0.0
 11
6.6454055743
 21
5.3727384015
 31
0.0
 11
6.6440977809
 21
5.3747156664
 31
0.0
 11
6.6434011855
 21
5.3756718507
 31
0.0
 11
6.6426755534
 21
5.3766044481
 31
0.0
 11
6.6411349614
 21
5.3783897155
 31
0.0
 11
6.6394715147
 21
5.3800527815
 31
0.0
 11
6.6376807121
 21
5.3815748879
 31
0.0
 11
6.6357580525
 21
5.3829372767
 31
0.0
 11
6.6347458701
 21
5.3835527151
 31
0.0
 11
6.6336992866
 21
5.3841211854
 31
0.0
 11
6.6326186874
 21
5.3846403266
 31
0.0
 11
6.631504578
 21
5.3851077754
 31
0.0
 11
6.6303574638
 21
5.3855211686
 31
0.0
 11
6.6291778504
 21
5.3858781428
 31
0.0
 11
6.6279662433
 21
5.386176335
 31
0.0
 11
6.626723148
 21
5.3864133818
 31
0.0
 11
6.6254490701
 21
5.3865869201
 31
0.0
 11
6.6241445151
 21
5.3866945865
 31
0.0
 11
6.6228101826
 21
5.3867346172
 31
0.0
 11
6.6214476353
 21
5.3867079118
 31
0.0
 11
6.6186451046
 21
5.3864608508
 31
0.0
 11
6.6157513409
 21
5.3859665198
 31
0.0
 11
6.6142747522
 21
5.3856307269
 31
0.0
 11
6.6127807619
 21
5.3852380351
 31
0.0
 11
6.6112711723
 21
5.3847900839
 31
0.0
 11
6.6097477422
 21
5.3842885522
 31
0.0
 11
6.6082116325
 21
5.3837356611
 31
0.0
 11
6.6066635673
 21
5.383134028
 31
0.0
 11
6.6035344265
 21
5.3817950418
 31
0.0
 11
6.6003660324
 21
5.3802926048
 31
0.0
 11
6.5971640978
 21
5.3786477282
 31
0.0
 11
6.595552338
 21
5.3777784412
 31
0.0
 11
6.5939342765
 21
5.3768813125
 31
0.0
 11
6.5906800569
 21
5.3750101655
 31
0.0
 11
6.58740218
 21
5.3730459043
 31
0.0
 11
6.5841012101
 21
5.370999811
 31
0.0
 11
6.5807777111
 21
5.3688831681
 31
0.0
 11
6.5791076895
 21
5.3678019162
 31
0.0
 11
6.5774322308
 21
5.3667071342
 31
0.0
 11
6.5740649963
 21
5.3644804324
 31
0.0
 11
6.5706759408
 21
5.3622095565
 31
0.0
 11
6.5672649868
 21
5.3599009182
 31
0.0
 11
6.5638320567
 21
5.3575609291
 31
0.0
 11
6.5603770701
 21
5.3551958523
 31
0.0
 11
6.5568999187
 21
5.3528106253
 31
0.0
 11
6.5534004797
 21
5.3504094915
 31
0.0
 11
6.5463342482
 21
5.3455764518
 31
0.0
 11
6.5391779217
 21
5.3407285374
 31
0.0
 11
6.5319331032
 21
5.3358894117
 31
0.0
 11
6.5282781683
 21
5.3334799167
 31
0.0
 11
6.5246019924
 21
5.331080512
 31
0.0
 11
6.5171879041
 21
5.3263204347
 31
0.0
 11
6.509694912
 21
5.3216259554
 31
0.0
 11
6.5021296263
 21
5.3170140436
 31
0.0
 11
6.4945025405
 21
5.3125020142
 31
0.0
  0
SPLINE
  5
29B
100
AcDbEntity
  8
0
100
AcDbSpline
 62
6
  6
CONTINUOUS
 70
0
 71
3
 72
15
 73
11
 74
9
 42
0.0000001
 43
0.0000001
 44
0.0000000001
 12
-0.1389703179
 22
-0.3461933311
 32
0.0
 13
-0.1869265311
 23
-0.3228328418
 33
0.0
 40
0.0
 40
0.0
 40
0.0
 40
0.0
 40
0.1254172516
 40
0.2506353952
 40
0.3756942252
 40
0.5006336879
 40
0.6254938443
 40
0.7503148319
 40
0.8751368257
 40
1.0
 40
1.0
 40
1.0
 40
1.0
 10
6.2967233395
 20
4.4236372368
 30
0.0
 10
6.2909135811
 20
4.4091643648
 30
0.0
 10
6.2790466963
 20
4.3803438277
 30
0.0
 10
6.26049259
 20
4.3374668093
 30
0.0
 10
6.2412004546
 20
4.2949818212
 30
0.0
 10
6.2211703635
 20
4.2528890531
 30
0.0
 10
6.2004023089
 20
4.2111884829
 30
0.0
 10
6.1788962751
 20
4.1698800915
 30
0.0
 10
6.1566523654
 20
4.1289640582
 30
0.0
 10
6.1413351029
 20
4.1019552097
 30
0.0
 10
6.1335550229
 20
4.0885185652
 30
0.0
 11
6.2967233395
 21
4.4236372368
 31
0.0
 11
6.2789093054
 21
4.3803750587
 31
0.0
 11
6.2603575555
 21
4.337504979
 31
0.0
 11
6.2410680897
 21
4.2950269975
 31
0.0
 11
6.221040908
 21
4.2529411144
 31
0.0
 11
6.2002760105
 21
4.2112473296
 31
0.0
 11
6.1787733972
 21
4.1699456432
 31
0.0
 11
6.156533068
 21
4.129036055
 31
0.0
 11
6.1335550229
 21
4.0885185652
 31
0.0
  0
LINE
  5
29C
100
AcDbEntity
  8
0
100
AcDbLine
 62
6
  6
CONTINUOUS
 10
6.1335550229
 20
4.0885185652
 11
6.1071338571
 21
4.0389328956
  0
SPLINE
  5
29D
100
AcDbEntity
  8
0
100
AcDbSpline
 62
6
  6
CONTINUOUS
 70
0
 71
3
 72
9
 73
5
 74
3
 42
0.0000001
 43
0.0000001
 44
0.0000000001
 12
0.0376306816
 22
0.0488324207
 32
0.0
 13
0.0357337719
 23
0.0502371482
 33
0.0
 40
0.0
 40
0.0
 40
0.0
 40
0.0
 40
0.5005615267
 40
1.0
 40
1.0
 40
1.0
 40
1.0
 10
6.1675105865
 20
4.0389328956
 30
0.0
 10
6.1737894103
 20
4.0470807726
 30
0.0
 10
6.1861422133
 20
4.063505674
 30
0.0
 10
6.1981894362
 20
4.0801551103
 30
0.0
 10
6.2041383763
 20
4.0885185652
 30
0.0
 11
6.1675105865
 21
4.0389328956
 31
0.0
 11
6.1860795194
 21
4.0635803799
 31
0.0
 11
6.2041383763
 21
4.0885185652
 31
0.0
  0
SPLINE
  5
29E
100
AcDbEntity
  8
0
100
AcDbSpline
 62
6
  6
CONTINUOUS
 70
0
 71
3
 72
10
 73
6
 74
4
 42
0.0000001
 43
0.0000001
 44
0.0000000001
 12
-0.03312515
 22
-0.0498392745
 32
0.0
 13
-0.0337626958
 23
-0.0494096065
 33
0.0
 40
0.0
 40
0.0
 40
0.0
 40
0.0
 40
0.5018055281
 40
0.7514775018
 40
1.0
 40
1.0
 40
1.0
 40
1.0
 10
6.2041383763
 20
4.0885185652
 30
0.0
 10
6.1985975819
 20
4.080182024
 30
0.0
 10
6.1902420605
 20
4.0677360793
 30
0.0
 10
6.1790348365
 20
4.0512341797
 30
0.0
 10
6.1734323502
 20
4.0430260285
 30
0.0
 10
6.1706354204
 20
4.0389328956
 30
0.0
 11
6.2041383763
 21
4.0885185652
 31
0.0
 11
6.1874090076
 21
4.0635803793
 31
0.0
 11
6.1790171547
 21
4.0512184772
 31
0.0
 11
6.1706354204
 21
4.0389328956
 31
0.0
  0
SPLINE
  5
29F
100
AcDbEntity
  8
0
100
AcDbSpline
 62
6
  6
CONTINUOUS
 70
0
 71
3
 72
22
 73
18
 74
16
 42
0.0000001
 43
0.0000001
 44
0.0000000001
 12
-0.0617524141
 22
-1.2548018599
 32
0.0
 13
-0.4760205546
 23
-1.1626459048
 33
0.0
 40
0.0
 40
0.0
 40
0.0
 40
0.0
 40
0.1343908814
 40
0.2004142832
 40
0.2656856196
 40
0.3302292852
 40
0.3940705087
 40
0.4572353606
 40
0.5197507577
 40
0.5816444637
 40
0.6429450875
 40
0.7036820759
 40
0.7638857025
 40
0.8235870528
 40
0.8828180026
 40
0.9416111933
 40
1.0
 40
1.0
 40
1.0
 40
1.0
 10
6.2967974432
 20
5.3125020142
 30
0.0
 10
6.2940311228
 20
5.2562907048
 30
0.0
 10
6.2884302609
 20
5.172524796
 30
0.0
 10
6.2778825518
 20
5.0617590621
 30
0.0
 10
6.2685486023
 20
4.9802745036
 30
0.0
 10
6.2577451632
 20
4.8998939892
 30
0.0
 10
6.2454721274
 20
4.8206169334
 30
0.0
 10
6.231729452
 20
4.7424435076
 30
0.0
 10
6.2165170755
 20
4.6653736904
 30
0.0
 10
6.1998349409
 20
4.5894075187
 30
0.0
 10
6.1816829897
 20
4.5145450207
 30
0.0
 10
6.1620611658
 20
4.4407862383
 30
0.0
 10
6.1409694093
 20
4.3681312055
 30
0.0
 10
6.118407683
 20
4.2965800128
 30
0.0
 10
6.0943758776
 20
4.2261325735
 30
0.0
 10
6.0688741668
 20
4.156789486
 30
0.0
 10
6.0508337632
 20
4.1111470675
 30
0.0
 10
6.0415690058
 20
4.0885185652
 30
0.0
 11
6.2967974432
 21
5.3125020142
 31
0.0
 11
6.2854604304
 21
5.1440450565
 31
0.0
 11
6.2775883659
 21
5.061472902
 31
0.0
 11
6.2682472627
 21
4.9800049636
 31
0.0
 11
6.2574371208
 21
4.8996412415
 31
0.0
 11
6.2451579402
 21
4.8203817354
 31
0.0
 11
6.2314097209
 21
4.7422264456
 31
0.0
 11
6.216192463
 21
4.665175372
 31
0.0
 11
6.1995061663
 21
4.5892285145
 31
0.0
 11
6.1813508309
 21
4.5143858732
 31
0.0
 11
6.1617264568
 21
4.4406474481
 31
0.0
 11
6.140633044
 21
4.3680132392
 31
0.0
 11
6.1180705925
 21
4.2964832464
 31
0.0
 11
6.0940391023
 21
4.2260574698
 31
0.0
 11
6.0685385734
 21
4.1567359094
 31
0.0
 11
6.0415690058
 21
4.0885185652
 31
0.0
  0
SPLINE
  5
2A0
100
AcDbEntity
  8
0
100
AcDbSpline
 62
6
  6
CONTINUOUS
 70
0
 71
3
 72
23
 73
19
 74
17
 42
0.0000001
 43
0.0000001
 44
0.0000000001
 12
-0.0313945272
 22
-1.2323921796
 32
0.0
 13
-0.2555956232
 23
-1.2060045514
 33
0.0
 40
0.0
 40
0.0
 40
0.0
 40
0.0
 40
0.0688024002
 40
0.1367311251
 40
0.20379243
 40
0.2699928158
 40
0.3353390407
 40
0.3998381312
 40
0.4634973943
 40
0.5263244301
 40
0.5883271447
 40
0.6495137638
 40
0.7098928466
 40
0.7694733003
 40
0.8282643951
 40
0.8862757796
 40
0.9435174967
 40
1.0
 40
1.0
 40
1.0
 40
1.0
 10
6.0665649811
 20
5.3125020142
 30
0.0
 10
6.0658449748
 20
5.2842381675
 30
0.0
 10
6.0641564239
 20
5.2280755676
 30
0.0
 10
6.0608469675
 20
5.1443951996
 30
0.0
 10
6.0567771271
 20
5.0618187698
 30
0.0
 10
6.0519469006
 20
4.9803463618
 30
0.0
 10
6.0463562823
 20
4.8999779413
 30
0.0
 10
6.0400052667
 20
4.8207135047
 30
0.0
 10
6.0328938472
 20
4.74255304
 30
0.0
 10
6.0250220167
 20
4.6654965371
 30
0.0
 10
6.0163897671
 20
4.5895439851
 30
0.0
 10
6.0069970891
 20
4.5146953727
 30
0.0
 10
5.9968439728
 20
4.44095069
 30
0.0
 10
5.9859304064
 20
4.3683099219
 30
0.0
 10
5.9742563802
 20
4.2967730709
 30
0.0
 10
5.9618218701
 20
4.2263400761
 30
0.0
 10
5.9486268996
 20
4.1570111084
 30
0.0
 10
5.939261247
 20
4.1112246172
 30
0.0
 10
5.9344490202
 20
4.0885185652
 30
0.0
 11
6.0665649811
 21
5.3125020142
 31
0.0
 11
6.0640109614
 21
5.2277214273
 31
0.0
 11
6.0606965114
 21
5.1440450565
 31
0.0
 11
6.0566216309
 21
5.061472902
 31
0.0
 11
6.0517863201
 21
4.9800049636
 31
0.0
 11
6.0461905789
 21
4.8996412415
 31
0.0
 11
6.0398344073
 21
4.8203817354
 31
0.0
 11
6.0327178054
 21
4.7422264456
 31
0.0
 11
6.024840773
 21
4.665175372
 31
0.0
 11
6.0162033103
 21
4.5892285145
 31
0.0
 11
6.0068054171
 21
4.5143858732
 31
0.0
 11
5.9966470936
 21
4.4406474481
 31
0.0
 11
5.9857283397
 21
4.3680132392
 31
0.0
 11
5.9740491554
 21
4.2964832464
 31
0.0
 11
5.9616095407
 21
4.2260574698
 31
0.0
 11
5.9484094956
 21
4.1567359094
 31
0.0
 11
5.9344490202
 21
4.0885185652
 31
0.0
  0
SPLINE
  5
2A1
100
AcDbEntity
  8
0
100
AcDbSpline
 62
6
  6
CONTINUOUS
 70
0
 71
3
 72
12
 73
8
 74
6
 42
0.0000001
 43
0.0000001
 44
0.0000000001
 12
-0.0052271497
 22
0.0223532445
 32
0.0
 13
0.0
 23
0.0229562766
 33
0.0
 40
0.0
 40
0.0
 40
0.0
 40
0.0
 40
0.2456657377
 40
0.370070944
 40
0.4952781135
 40
0.7472617044
 40
1.0
 40
1.0
 40
1.0
 40
1.0
 10
5.1070084357
 20
5.521168695
 30
0.0
 10
5.1065803918
 20
5.5229991704
 30
0.0
 10
5.1060196351
 20
5.5257771704
 30
0.0
 10
5.105433677
 20
5.5295218746
 30
0.0
 10
5.1049497282
 20
5.5333300046
 30
0.0
 10
5.1045457925
 20
5.5381359459
 30
0.0
 10
5.1044370967
 20
5.5419989188
 30
0.0
 10
5.1044370967
 20
5.5439328956
 30
0.0
 11
5.1070084357
 21
5.521168695
 31
0.0
 11
5.1058900651
 21
5.5266962626
 31
0.0
 11
5.1054481592
 21
5.5295177466
 31
0.0
 11
5.1050854929
 21
5.5323690653
 31
0.0
 11
5.1045998539
 21
5.5381332487
 31
0.0
 11
5.1044370967
 21
5.5439328956
 31
0.0
  0
SPLINE
  5
2A2
100
AcDbEntity
  8
0
100
AcDbSpline
 62
6
  6
CONTINUOUS
 70
0
 71
3
 72
18
 73
14
 74
12
 42
0.0000001
 43
0.0000001
 44
0.0000000001
 12
0.0146645787
 22
0.03583407
 32
0.0
 13
0.0
 23
0.0387186058
 33
0.0
 40
0.0
 40
0.0
 40
0.0
 40
0.0
 40
0.1158721457
 40
0.2352561906
 40
0.357756813
 40
0.420047484
 40
0.4829551637
 40
0.5464238285
 40
0.6103926319
 40
0.6747818914
 40
0.7395060517
 40
0.8696047039
 40
1.0
 40
1.0
 40
1.0
 40
1.0
 10
6.4620506518
 20
5.5060732699
 30
0.0
 10
6.4626170572
 20
5.5074573267
 30
0.0
 10
6.4636845968
 20
5.5103017838
 30
0.0
 10
6.4650692095
 20
5.5147086457
 30
0.0
 10
6.4660528228
 20
5.5185110352
 30
0.0
 10
6.4667398934
 20
5.5216334306
 30
0.0
 10
6.4672058197
 20
5.5240236633
 30
0.0
 10
6.4676185656
 20
5.5264456026
 30
0.0
 10
6.4679771881
 20
5.5288954693
 30
0.0
 10
6.4682814594
 20
5.5313690059
 30
0.0
 10
6.46861483
 20
5.5346980404
 30
0.0
 10
6.4688930908
 20
5.538887569
 30
0.0
 10
6.4689678959
 20
5.5422499876
 30
0.0
 10
6.4689678959
 20
5.5439328956
 30
0.0
 11
6.4620506518
 21
5.5060732699
 31
0.0
 11
6.4636305648
 21
5.5102722853
 31
0.0
 11
6.4650196397
 21
5.5146810156
 31
0.0
 11
6.4662101774
 21
5.5192722219
 31
0.0
 11
6.4667287529
 21
5.5216276193
 31
0.0
 11
6.4671950037
 21
5.5240182747
 31
0.0
 11
6.4676080331
 21
5.5264407344
 31
0.0
 11
6.4679670407
 21
5.5288913602
 31
0.0
 11
6.4682716267
 21
5.5313657465
 31
0.0
 11
6.4685214959
 21
5.5338592877
 31
0.0
 11
6.468855902
 21
5.5388854138
 31
0.0
 11
6.4689678959
 21
5.5439328956
 31
0.0
  0
SPLINE
  5
2A3
100
AcDbEntity
  8
0
100
AcDbSpline
 62
6
  6
CONTINUOUS
 70
0
 71
3
 72
23
 73
19
 74
17
 42
0.0000001
 43
0.0000001
 44
0.0000000001
 12
0.0281088475
 22
0.046067323
 32
0.0
 13
0.0
 23
0.0539657813
 33
0.0
 40
0.0
 40
0.0
 40
0.0
 40
0.0
 40
0.0492734044
 40
0.1008494487
 40
0.1546730511
 40
0.2106497596
 40
0.2686697607
 40
0.3286133426
 40
0.3903532308
 40
0.4537488854
 40
0.5186453677
 40
0.5848824514
 40
0.6522965064
 40
0.7207184925
 40
0.789938773
 40
0.8597194004
 40
0.9298201267
 40
1.0
 40
1.0
 40
1.0
 40
1.0
 10
6.3169344523
 20
5.4918611338
 30
0.0
 10
6.3173961252
 20
5.4926177651
 30
0.0
 10
6.3182973625
 20
5.4941933781
 30
0.0
 10
6.3195553168
 20
5.4966762583
 30
0.0
 10
6.3207460545
 20
5.4993248079
 30
0.0
 10
6.3218662703
 20
5.5021290169
 30
0.0
 10
6.3229121755
 20
5.5050787732
 30
0.0
 10
6.3238800668
 20
5.5081638015
 30
0.0
 10
6.3247659863
 20
5.5113737384
 30
0.0
 10
6.3255668033
 20
5.5146976194
 30
0.0
 10
6.3262803607
 20
5.5181239519
 30
0.0
 10
6.3269042153
 20
5.5216411532
 30
0.0
 10
6.327436043
 20
5.5252375422
 30
0.0
 10
6.3278731643
 20
5.5289006991
 30
0.0
 10
6.3282144317
 20
5.5326167523
 30
0.0
 10
6.3284592606
 20
5.5363706579
 30
0.0
 10
6.3286068235
 20
5.5401468859
 30
0.0
 10
6.3286398593
 20
5.5426704584
 30
0.0
 10
6.3286398593
 20
5.5439328956
 30
0.0
 11
6.3169344523
 21
5.4918611338
 31
0.0
 11
6.318257442
 21
5.4941677314
 31
0.0
 11
6.319517999
 21
5.4966492605
 31
0.0
 11
6.3207116051
 21
5.4992973156
 31
0.0
 11
6.3218344328
 21
5.5021017144
 31
0.0
 11
6.3228827173
 21
5.5050521132
 31
0.0
 11
6.3238526937
 21
5.5081381687
 31
0.0
 11
6.3247406186
 21
5.5113495167
 31
0.0
 11
6.3255433744
 21
5.5146751994
 31
0.0
 11
6.3262585488
 21
5.5181035891
 31
0.0
 11
6.3268837678
 21
5.5216230221
 31
0.0
 11
6.327416657
 21
5.5252218347
 31
0.0
 11
6.3278549175
 21
5.5288881796
 31
0.0
 11
6.3281971565
 21
5.5326079956
 31
0.0
 11
6.3284425811
 21
5.5363657557
 31
0.0
 11
6.3285904094
 21
5.5401459067
 31
0.0
 11
6.3286398593
 21
5.5439328956
 31
0.0
  0
SPLINE
  5
2A4
100
AcDbEntity
  8
0
100
AcDbSpline
 62
6
  6
CONTINUOUS
 70
0
 71
3
 72
28
 73
24
 74
22
 42
0.0000001
 43
0.0000001
 44
0.0000000001
 12
0.0360769143
 22
0.0492497723
 32
0.0
 13
0.0
 23
0.061049847
 33
0.0
 40
0.0
 40
0.0
 40
0.0
 40
0.0
 40
0.019007044
 40
0.0389815025
 40
0.0599285442
 40
0.0818475564
 40
0.1047338433
 40
0.1285794095
 40
0.1533735826
 40
0.1791035104
 40
0.2333043862
 40
0.2617334245
 40
0.2910090716
 40
0.3519761597
 40
0.4159569397
 40
0.4826880737
 40
0.5518792936
 40
0.6232203743
 40
0.6963960209
 40
0.77107916
 40
0.8468679105
 40
0.9233221232
 40
1.0
 40
1.0
 40
1.0
 40
1.0
 10
6.1662901289
 20
5.4848518059
 30
0.0
 10
6.1665187007
 20
5.4851638367
 30
0.0
 10
6.1669715044
 20
5.4858155988
 30
0.0
 10
6.1676225553
 20
5.4868472139
 30
0.0
 10
6.1682615302
 20
5.4879552966
 30
0.0
 10
6.1688875968
 20
5.4891381518
 30
0.0
 10
6.1694999553
 20
5.4903940976
 30
0.0
 10
6.1700977846
 20
5.4917214363
 30
0.0
 10
6.1706802728
 20
5.4931184775
 30
0.0
 10
6.1714487239
 20
5.4951064668
 30
0.0
 10
6.1721669594
 20
5.4971923172
 30
0.0
 10
6.1728403439
 20
5.4993678563
 30
0.0
 10
6.1735080449
 20
5.5016888401
 30
0.0
 10
6.174289161
 20
5.5047292835
 30
0.0
 10
6.1751311752
 20
5.5085386535
 30
0.0
 10
6.1758846929
 20
5.5125369056
 30
0.0
 10
6.1765460115
 20
5.5167030861
 30
0.0
 10
6.1771121121
 20
5.5210155288
 30
0.0
 10
6.1775797766
 20
5.5254521208
 30
0.0
 10
6.1779454692
 20
5.5299890616
 30
0.0
 10
6.1782079667
 20
5.5345999478
 30
0.0
 10
6.1783663837
 20
5.5392561606
 30
0.0
 10
6.1784018995
 20
5.5423725047
 30
0.0
 10
6.1784018995
 20
5.5439328956
 30
0.0
 11
6.1662901289
 21
5.4848518059
 31
0.0
 11
6.1669532971
 21
5.4858040049
 31
0.0
 11
6.1676052075
 21
5.4868345586
 31
0.0
 11
6.1682450283
 21
5.4879418047
 31
0.0
 11
6.1688719349
 21
5.4891240228
 31
0.0
 11
6.1694851031
 21
5.4903794927
 31
0.0
 11
6.1700837084
 21
5.4917064941
 31
0.0
 11
6.1706669264
 21
5.4931033067
 31
0.0
 11
6.1712339328
 21
5.4945682101
 31
0.0
 11
6.1723160654
 21
5.4976952172
 31
0.0
 11
6.1728297734
 21
5.4993530384
 31
0.0
 11
6.1733244007
 21
5.501070505
 31
0.0
 11
6.1742539064
 21
5.504674605
 31
0.0
 11
6.1750995695
 21
5.508487979
 31
0.0
 11
6.1758564607
 21
5.512490976
 31
0.0
 11
6.1765206958
 21
5.5166625375
 31
0.0
 11
6.1770890999
 21
5.52098065
 31
0.0
 11
6.1775585117
 21
5.5254232817
 31
0.0
 11
6.1779259293
 21
5.5299678477
 31
0.0
 11
6.178189663
 21
5.5345872167
 31
0.0
 11
6.1783486668
 21
5.5392520256
 31
0.0
 11
6.1784018995
 21
5.5439328956
 31
0.0
  0
SPLINE
  5
2A5
100
AcDbEntity
  8
0
100
AcDbSpline
 62
6
  6
CONTINUOUS
 70
0
 71
3
 72
32
 73
28
 74
26
 42
0.0000001
 43
0.0000001
 44
0.0000000001
 12
0.039998968
 22
0.0497623271
 32
0.0
 13
-0.0
 23
0.0638451771
 33
0.0
 40
0.0
 40
0.0
 40
0.0
 40
0.0
 40
0.0122286641
 40
0.0258658771
 40
0.0409578626
 40
0.0575322486
 40
0.0756040697
 40
0.09517686
 40
0.1162351105
 40
0.1387547386
 40
0.1627079883
 40
0.1880644012
 40
0.2147914982
 40
0.2428552679
 40
0.2722178697
 40
0.3028292518
 40
0.3346354856
 40
0.3675819075
 40
0.4016132766
 40
0.436673897
 40
0.5096554184
 40
0.5860426279
 40
0.6653224402
 40
0.7469779926
 40
0.8304348928
 40
0.9150083599
 40
1.0
 40
1.0
 40
1.0
 40
1.0
 10
6.0123922365
 20
5.4812507985
 30
0.0
 10
6.0125552812
 20
5.4814536408
 30
0.0
 10
6.0128777343
 20
5.4819008743
 30
0.0
 10
6.0133305256
 20
5.4826464469
 30
0.0
 10
6.0137775329
 20
5.4835013325
 30
0.0
 10
6.0142179613
 20
5.4844643091
 30
0.0
 10
6.0146510293
 20
5.485534178
 30
0.0
 10
6.0150757944
 20
5.486709316
 30
0.0
 10
6.0154916865
 20
5.4879875133
 30
0.0
 10
6.015897983
 20
5.4893662363
 30
0.0
 10
6.0162939415
 20
5.4908428566
 30
0.0
 10
6.01667882
 20
5.4924147317
 30
0.0
 10
6.0170518801
 20
5.4940792083
 30
0.0
 10
6.017412373
 20
5.4958335712
 30
0.0
 10
6.0177595064
 20
5.497674805
 30
0.0
 10
6.018092798
 20
5.4995994676
 30
0.0
 10
6.0184116979
 20
5.5016038272
 30
0.0
 10
6.0187156475
 20
5.503684086
 30
0.0
 10
6.0190040911
 20
5.5058364471
 30
0.0
 10
6.0193721996
 20
5.5088375779
 30
0.0
 10
6.019787358
 20
5.5127408318
 30
0.0
 10
6.0202096721
 20
5.5175887653
 30
0.0
 10
6.0205598495
 20
5.5226274905
 30
0.0
 10
6.0208348157
 20
5.5278215302
 30
0.0
 10
6.0210321994
 20
5.5331318218
 30
0.0
 10
6.0211514615
 20
5.5385154326
 30
0.0
 10
6.0211782274
 20
5.5421241268
 30
0.0
 10
6.0211782274
 20
5.5439328956
 30
0.0
 11
6.0123922365
 21
5.4812507985
 31
0.0
 11
6.0128520156
 21
5.4818817978
 31
0.0
 11
6.0133067519
 21
5.4826242812
 31
0.0
 11
6.0137556271
 21
5.4834768893
 31
0.0
 11
6.0141978228
 21
5.4844382627
 31
0.0
 11
6.0146325204
 21
5.485507042
 31
0.0
 11
6.0150589159
 21
5.4866816729
 31
0.0
 11
6.0154762693
 21
5.487959722
 31
0.0
 11
6.0158838585
 21
5.4893385087
 31
0.0
 11
6.0162809617
 21
5.4908153519
 31
0.0
 11
6.016666857
 21
5.4923875708
 31
0.0
 11
6.0170408223
 21
5.4940524847
 31
0.0
 11
6.0174021359
 21
5.4958074125
 31
0.0
 11
6.017750103
 21
5.4976494958
 31
0.0
 11
6.0180841446
 21
5.4995751263
 31
0.0
 11
6.0184037119
 21
5.5015804982
 31
0.0
 11
6.018708256
 21
5.5036618053
 31
0.0
 11
6.0189972283
 21
5.5058152419
 31
0.0
 11
6.0192700801
 21
5.5080370018
 31
0.0
 11
6.0197652841
 21
5.5126701306
 31
0.0
 11
6.0201904054
 21
5.5175285214
 31
0.0
 11
6.020542658
 21
5.5225778831
 31
0.0
 11
6.0208192781
 21
5.5277838523
 31
0.0
 11
6.0210180864
 21
5.5331084627
 31
0.0
 11
6.0211380401
 21
5.5385067381
 31
0.0
 11
6.0211782274
 21
5.5439328956
 31
0.0
  0
SPLINE
  5
2A6
100
AcDbEntity
  8
0
100
AcDbSpline
 62
6
  6
CONTINUOUS
 70
0
 71
3
 72
36
 73
32
 74
30
 42
0.0000001
 43
0.0000001
 44
0.0000000001
 12
-0.0408688032
 22
0.0495287185
 32
0.0
 13
0.0
 23
0.06421334
 33
0.0
 40
0.0
 40
0.0
 40
0.0
 40
0.0
 40
0.0038704244
 40
0.0081510673
 40
0.0128573016
 40
0.0179997453
 40
0.0235856814
 40
0.0296200083
 40
0.0361058884
 40
0.0430451991
 40
0.0504388501
 40
0.0582870113
 40
0.0753442164
 40
0.0942092686
 40
0.1148599951
 40
0.1372572572
 40
0.1613584006
 40
0.1871190994
 40
0.214493836
 40
0.243436224
 40
0.2738975558
 40
0.3058156353
 40
0.3391217558
 40
0.4096208804
 40
0.4848395456
 40
0.5641986081
 40
0.6470717727
 40
0.7328251773
 40
0.8207822785
 40
0.9101238466
 40
1.0
 40
1.0
 40
1.0
 40
1.0
 10
5.7039508873
 20
5.4803157956
 30
0.0
 10
5.7038981607
 20
5.4803796946
 30
0.0
 10
5.7037933784
 20
5.4805194792
 30
0.0
 10
5.7036444672
 20
5.4807511192
 30
0.0
 10
5.703496133
 20
5.4810148462
 30
0.0
 10
5.7033484429
 20
5.4813104866
 30
0.0
 10
5.7032014515
 20
5.4816378864
 30
0.0
 10
5.7030552312
 20
5.4819968698
 30
0.0
 10
5.7029098555
 20
5.4823872555
 30
0.0
 10
5.7027654022
 20
5.4828088557
 30
0.0
 10
5.7026219431
 20
5.4832614775
 30
0.0
 10
5.7024266367
 20
5.4839247011
 30
0.0
 10
5.7021872216
 20
5.4848306748
 30
0.0
 10
5.7019124029
 20
5.4860101272
 30
0.0
 10
5.7016433061
 20
5.487307848
 30
0.0
 10
5.7013803673
 20
5.4887209679
 30
0.0
 10
5.7011241709
 20
5.4902463376
 30
0.0
 10
5.700875267
 20
5.491880756
 30
0.0
 10
5.7006342076
 20
5.4936210174
 30
0.0
 10
5.7004015342
 20
5.4954638725
 30
0.0
 10
5.7001778454
 20
5.4974057588
 30
0.0
 10
5.6999635186
 20
5.4994426404
 30
0.0
 10
5.6996854725
 20
5.5023344189
 30
0.0
 10
5.6993666341
 20
5.5061532083
 30
0.0
 10
5.6990342857
 20
5.5109595147
 30
0.0
 10
5.698748492
 20
5.5160341046
 30
0.0
 10
5.6985111085
 20
5.5213368967
 30
0.0
 10
5.6983243258
 20
5.526825851
 30
0.0
 10
5.6981901651
 20
5.5324548297
 30
0.0
 10
5.6981090814
 20
5.5381730657
 30
0.0
 10
5.698090872
 20
5.5420091463
 30
0.0
 10
5.698090872
 20
5.5439328956
 30
0.0
 11
5.7039508873
 21
5.4803157956
 31
0.0
 11
5.7038009917
 21
5.4805140376
 31
0.0
 11
5.7036516056
 21
5.4807447749
 31
0.0
 11
5.703502803
 21
5.4810078043
 31
0.0
 11
5.703354658
 21
5.4813029213
 31
0.0
 11
5.7032072448
 21
5.4816299213
 31
0.0
 11
5.7030606375
 21
5.4819885999
 31
0.0
 11
5.7029149102
 21
5.4823787527
 31
0.0
 11
5.702770137
 21
5.482800175
 31
0.0
 11
5.702626392
 21
5.4832526625
 31
0.0
 11
5.7024837492
 21
5.4837360105
 31
0.0
 11
5.7022020672
 21
5.4847944705
 31
0.0
 11
5.7019256832
 21
5.485973908
 31
0.0
 11
5.7016551631
 21
5.4872720733
 31
0.0
 11
5.7013910333
 21
5.4886858142
 31
0.0
 11
5.7011338166
 21
5.4902119045
 31
0.0
 11
5.700884036
 21
5.4918471179
 31
0.0
 11
5.7006422145
 21
5.4935882281
 31
0.0
 11
5.7004088752
 21
5.4954320091
 31
0.0
 11
5.7001845307
 21
5.4973751249
 31
0.0
 11
5.6999696154
 21
5.4994133923
 31
0.0
 11
5.6997645271
 21
5.5015422335
 31
0.0
 11
5.6993854213
 21
5.506053316
 31
0.0
 11
5.699050392
 21
5.5108717243
 31
0.0
 11
5.6987622846
 21
5.5159594838
 31
0.0
 11
5.6985232041
 21
5.5212756733
 31
0.0
 11
5.6983351562
 21
5.5267789739
 31
0.0
 11
5.6981998831
 21
5.532425373
 31
0.0
 11
5.6981182349
 21
5.5381617125
 31
0.0
 11
5.698090872
 21
5.5439328956
 31
0.0
  0
SPLINE
  5
2A7
100
AcDbEntity
  8
0
100
AcDbSpline
 62
6
  6
CONTINUOUS
 70
0
 71
3
 72
37
 73
33
 74
31
 42
0.0000001
 43
0.0000001
 44
0.0000000001
 12
0.0412409678
 22
0.0491732904
 32
0.0
 13
0.0
 23
0.0641781108
 33
0.0
 40
0.0
 40
0.0
 40
0.0
 40
0.0
 40
0.0007036374
 40
0.0015260973
 40
0.0024738357
 40
0.0035510706
 40
0.0061042624
 40
0.0092008596
 40
0.0128479069
 40
0.0170468255
 40
0.0217969434
 40
0.0270965989
 40
0.0329435192
 40
0.0393350342
 40
0.0537397548
 40
0.0702854895
 40
0.0889450511
 40
0.1096861248
 40
0.1324563501
 40
0.1571972859
 40
0.1838502087
 40
0.2123562023
 40
0.2426562142
 40
0.3083791992
 40
0.380392705
 40
0.4580221833
 40
0.5405833999
 40
0.6273359051
 40
0.7175178602
 40
0.8103377076
 40
0.9048372724
 40
1.0
 40
1.0
 40
1.0
 40
1.0
 10
5.8578845614
 20
5.4798637956
 30
0.0
 10
5.8578942343
 20
5.479875329
 30
0.0
 10
5.8579133446
 20
5.4799019158
 30
0.0
 10
5.8579398364
 20
5.4799477902
 30
0.0
 10
5.8579663286
 20
5.4800026926
 30
0.0
 10
5.8580037908
 20
5.4800932262
 30
0.0
 10
5.858049509
 20
5.4802298387
 30
0.0
 10
5.8581018236
 20
5.4804217783
 30
0.0
 10
5.8581541008
 20
5.4806500116
 30
0.0
 10
5.8582063126
 20
5.4809143984
 30
0.0
 10
5.8582583801
 20
5.4812147591
 30
0.0
 10
5.8583102519
 20
5.4815508685
 30
0.0
 10
5.8583618843
 20
5.4819224979
 30
0.0
 10
5.8584332235
 20
5.482487997
 30
0.0
 10
5.8585202918
 20
5.4832821348
 30
0.0
 10
5.8586197104
 20
5.4843387885
 30
0.0
 10
5.8587174294
 20
5.4855316611
 30
0.0
 10
5.8588131426
 20
5.4868582319
 30
0.0
 10
5.8589066497
 20
5.4883153473
 30
0.0
 10
5.8589977217
 20
5.4898993115
 30
0.0
 10
5.8590861285
 20
5.4916063055
 30
0.0
 10
5.8591716518
 20
5.4934325082
 30
0.0
 10
5.8592846167
 20
5.4960941309
 30
0.0
 10
5.85941552
 20
5.4996865355
 30
0.0
 10
5.859554405
 20
5.5042917253
 30
0.0
 10
5.8596776478
 20
5.5092576931
 30
0.0
 10
5.8597838685
 20
5.5145394249
 30
0.0
 10
5.859872214
 20
5.5200900508
 30
0.0
 10
5.8599418686
 20
5.5258604177
 30
0.0
 10
5.8599919504
 20
5.5317967234
 30
0.0
 10
5.8600222199
 20
5.5378397151
 30
0.0
 10
5.8600290229
 20
5.5418971076
 30
0.0
 10
5.8600290229
 20
5.5439328956
 30
0.0
 11
5.8578845614
 21
5.4798637956
 31
0.0
 11
5.8579112683
 21
5.4799002099
 31
0.0
 11
5.857937958
 21
5.4799457489
 31
0.0
 11
5.8579646265
 21
5.4800004148
 31
0.0
 11
5.8579912701
 21
5.4800642094
 31
0.0
 11
5.858044467
 21
5.4802191928
 31
0.0
 11
5.8580975179
 21
5.4804107149
 31
0.0
 11
5.8581503923
 21
5.4806387252
 31
0.0
 11
5.8582030607
 21
5.4809030068
 31
0.0
 11
5.8582554938
 21
5.4812033174
 31
0.0
 11
5.8583076622
 21
5.4815394147
 31
0.0
 11
5.8583595367
 21
5.481911056
 31
0.0
 11
5.8584110879
 21
5.4823179992
 31
0.0
 11
5.8585131031
 21
5.483236821
 31
0.0
 11
5.8586134731
 21
5.4842939408
 31
0.0
 11
5.8587119633
 21
5.4854874192
 31
0.0
 11
5.8588083429
 21
5.4868150484
 31
0.0
 11
5.8589023997
 21
5.4882733684
 31
0.0
 11
5.8589939266
 21
5.4898585548
 31
0.0
 11
5.8590827166
 21
5.491566783
 31
0.0
 11
5.8591685628
 21
5.4933942286
 31
0.0
 11
5.8592512582
 21
5.495337067
 31
0.0
 11
5.8594064129
 21
5.4995521894
 31
0.0
 11
5.8595468282
 21
5.5041717466
 31
0.0
 11
5.8596712453
 21
5.5091523061
 31
0.0
 11
5.8597784548
 21
5.5144498443
 31
0.0
 11
5.8598675485
 21
5.5200167433
 31
0.0
 11
5.8599377326
 21
5.5258040253
 31
0.0
 11
5.8599882751
 21
5.5317608133
 31
0.0
 11
5.8600187924
 21
5.5378255401
 31
0.0
 11
5.8600290229
 21
5.5439328956
 31
0.0
  0
SPLINE
  5
2A8
100
AcDbEntity
  8
0
100
AcDbSpline
 62
6
  6
CONTINUOUS
 70
0
 71
3
 72
72
 73
68
 74
66
 42
0.0000001
 43
0.0000001
 44
0.0000000001
 12
-0.2246420127
 22
0.1912508855
 32
0.0
 13
-0.1856788895
 23
-0.2292690234
 33
0.0
 40
0.0
 40
0.0
 40
0.0
 40
0.0
 40
0.0277946752
 40
0.0566154809
 40
0.0713765227
 40
0.0863531351
 40
0.1015317659
 40
0.1169006276
 40
0.1481759692
 40
0.164067199
 40
0.1801174879
 40
0.1963196815
 40
0.2126663745
 40
0.229149573
 40
0.245761902
 40
0.262496855
 40
0.2793488969
 40
0.2963127608
 40
0.3133791223
 40
0.3305387035
 40
0.3477850742
 40
0.3651150265
 40
0.3825247557
 40
0.3999961295
 40
0.4175138187
 40
0.4350728356
 40
0.4438701462
 40
0.4526783405
 40
0.461491291
 40
0.4703030337
 40
0.4791085275
 40
0.4879037397
 40
0.4966857381
 40
0.5054527871
 40
0.5098306862
 40
0.5142047869
 40
0.522941104
 40
0.5316609645
 40
0.5403623776
 40
0.5490426265
 40
0.5576983342
 40
0.5663255271
 40
0.5749196986
 40
0.5834758715
 40
0.5919909018
 40
0.6004674436
 40
0.6089082392
 40
0.6256869264
 40
0.6423302067
 40
0.6505980246
 40
0.6588262601
 40
0.6670141381
 40
0.6751627951
 40
0.6913449286
 40
0.707375884
 40
0.7232529729
 40
0.7389707354
 40
0.7545265264
 40
0.7851341971
 40
0.8150328517
 40
0.8441807103
 40
0.8725279281
 40
0.9000161647
 40
0.926581568
 40
0.9521545748
 40
0.9766590564
 40
1.0
 40
1.0
 40
1.0
 40
1.0
 10
5.8194951159
 20
5.3125020142
 30
0.0
 10
5.817413832
 20
5.3142739329
 30
0.0
 10
5.8131581351
 20
5.3178640961
 30
0.0
 10
5.80775139
 20
5.3223406678
 30
0.0
 10
5.8032893655
 20
5.3259812811
 30
0.0
 10
5.7998530174
 20
5.3287567247
 30
0.0
 10
5.7963559432
 20
5.3315520283
 30
0.0
 10
5.7915867283
 20
5.3353228118
 30
0.0
 10
5.7867282619
 20
5.3390936117
 30
0.0
 10
5.7817767738
 20
5.3428530171
 30
0.0
 10
5.7779839562
 20
5.3456869426
 30
0.0
 10
5.7741318588
 20
5.3485161005
 30
0.0
 10
5.7702200566
 20
5.3513355914
 30
0.0
 10
5.7662460436
 20
5.3541373417
 30
0.0
 10
5.7622077126
 20
5.3569135798
 30
0.0
 10
5.7581029095
 20
5.3596564543
 30
0.0
 10
5.7539294832
 20
5.3623579562
 30
0.0
 10
5.7496860989
 20
5.3650102928
 30
0.0
 10
5.745369058
 20
5.3676004273
 30
0.0
 10
5.7409747893
 20
5.3701138845
 30
0.0
 10
5.7365000806
 20
5.372536335
 30
0.0
 10
5.7319420005
 20
5.3748530492
 30
0.0
 10
5.7272998034
 20
5.3770489132
 30
0.0
 10
5.7225700198
 20
5.3790968858
 30
0.0
 10
5.7177514652
 20
5.380967942
 30
0.0
 10
5.7136638993
 20
5.3823545777
 30
0.0
 10
5.7103505521
 20
5.3833459143
 30
0.0
 10
5.7078430698
 20
5.3840270778
 30
0.0
 10
5.7053169707
 20
5.3846416738
 30
0.0
 10
5.7027749823
 20
5.3851857288
 30
0.0
 10
5.7002199215
 20
5.3856552618
 30
0.0
 10
5.6976545909
 20
5.3860462854
 30
0.0
 10
5.6950818208
 20
5.386354814
 30
0.0
 10
5.6929329716
 20
5.3865399196
 30
0.0
 10
5.691213097
 20
5.3866427193
 30
0.0
 10
5.6894946738
 20
5.3867145205
 30
0.0
 10
5.6873475846
 20
5.3867465762
 30
0.0
 10
5.6847752019
 20
5.3866951959
 30
0.0
 10
5.6822115834
 20
5.386556337
 30
0.0
 10
5.6796603479
 20
5.3863324295
 30
0.0
 10
5.6771250862
 20
5.3860258906
 30
0.0
 10
5.6746093971
 20
5.3856391347
 30
0.0
 10
5.6721168752
 20
5.3851745912
 30
0.0
 10
5.6696509066
 20
5.3846345782
 30
0.0
 10
5.6672140577
 20
5.3840214168
 30
0.0
 10
5.6648073203
 20
5.3833396588
 30
0.0
 10
5.6616453879
 20
5.3823469293
 30
0.0
 10
5.6577683379
 20
5.3809565382
 30
0.0
 10
5.6539786922
 20
5.3793883196
 30
0.0
 10
5.6510085112
 20
5.3780465798
 30
0.0
 10
5.6488163777
 20
5.3770035288
 30
0.0
 10
5.6466547312
 20
5.3759247161
 30
0.0
 10
5.6438195011
 20
5.3744450698
 30
0.0
 10
5.6403486737
 20
5.3725176844
 30
0.0
 10
5.6362879345
 20
5.3700921672
 30
0.0
 10
5.6323361449
 20
5.3675772177
 30
0.0
 10
5.6284877873
 20
5.3649896877
 30
0.0
 10
5.6235185988
 20
5.3614758979
 30
0.0
 10
5.6175531876
 20
5.3569593298
 30
0.0
 10
5.6107220867
 20
5.3513825038
 30
0.0
 10
5.6042426351
 20
5.3457340953
 30
0.0
 10
5.5980975155
 20
5.3400683038
 30
0.0
 10
5.5922858731
 20
5.3344197894
 30
0.0
 10
5.5868075188
 20
5.3288234014
 30
0.0
 10
5.5816714023
 20
5.3233059157
 30
0.0
 10
5.5768884431
 20
5.3178962004
 30
0.0
 10
5.5738698909
 20
5.3142857993
 30
0.0
 10
5.5724252507
 20
5.3125020142
 30
0.0
 11
5.8194951159
 21
5.3125020142
 31
0.0
 11
5.813227337
 21
5.317789537
 31
0.0
 11
5.8066778267
 21
5.3232120361
 31
0.0
 11
5.803303536
 21
5.3259651013
 31
0.0
 11
5.7998661488
 21
5.3287413501
 31
0.0
 11
5.7963681038
 21
5.3315372604
 31
0.0
 11
5.7928110302
 21
5.3343491036
 31
0.0
 11
5.7855199001
 21
5.3400040352
 31
0.0
 11
5.7817856292
 21
5.3428387788
 31
0.0
 11
5.7779920779
 21
5.345672811
 31
0.0
 11
5.7741391357
 21
5.3485019532
 31
0.0
 11
5.7702260923
 21
5.3513209389
 31
0.0
 11
5.7662509678
 21
5.3541221965
 31
0.0
 11
5.7622116197
 21
5.3568978601
 31
0.0
 11
5.758105906
 21
5.359640064
 31
0.0
 11
5.7539316844
 21
5.3623409423
 31
0.0
 11
5.7496867159
 21
5.3649920261
 31
0.0
 11
5.7453680905
 21
5.3675806701
 31
0.0
 11
5.7409726147
 21
5.3700924629
 31
0.0
 11
5.736497094
 21
5.3725129866
 31
0.0
 11
5.7319383337
 21
5.3748278234
 31
0.0
 11
5.7272935277
 21
5.3770204858
 31
0.0
 11
5.7225616998
 21
5.379064735
 31
0.0
 11
5.7177424123
 21
5.3809314622
 31
0.0
 11
5.7128352278
 21
5.3825915588
 31
0.0
 11
5.7103485449
 21
5.3833350231
 31
0.0
 11
5.7078406484
 21
5.384015805
 31
0.0
 11
5.705314163
 21
5.3846299509
 31
0.0
 11
5.7027719152
 21
5.3851734829
 31
0.0
 11
5.7002167316
 21
5.3856424236
 31
0.0
 11
5.6976514387
 21
5.3860327953
 31
0.0
 11
5.6950788632
 21
5.3863406205
 31
0.0
 11
5.6925018316
 21
5.3865619215
 31
0.0
 11
5.691212528
 21
5.3866388825
 31
0.0
 11
5.6899231755
 21
5.386692762
 31
0.0
 11
5.6873460185
 21
5.3867315918
 31
0.0
 11
5.6847739313
 21
5.3866805136
 31
0.0
 11
5.6822105223
 21
5.3865419388
 31
0.0
 11
5.6796593999
 21
5.386318279
 31
0.0
 11
5.6771241725
 21
5.3860119455
 31
0.0
 11
5.6746084487
 21
5.3856253499
 31
0.0
 11
5.6721158368
 21
5.3851609036
 31
0.0
 11
5.6696499444
 21
5.3846210185
 31
0.0
 11
5.6672135923
 21
5.384008519
 31
0.0
 11
5.6648073178
 21
5.3833274258
 31
0.0
 11
5.6624312471
 21
5.3825819757
 31
0.0
 11
5.6577702205
 21
5.3809149505
 31
0.0
 11
5.6532315201
 21
5.3790413359
 31
0.0
 11
5.6510083571
 21
5.3780376491
 31
0.0
 11
5.6488161354
 21
5.3769949739
 31
0.0
 11
5.6466546042
 21
5.3759164917
 31
0.0
 11
5.6445231826
 21
5.3748044605
 31
0.0
 11
5.640348297
 21
5.3724886462
 31
0.0
 11
5.6362867356
 21
5.3700653216
 31
0.0
 11
5.6323337553
 21
5.3675522767
 31
0.0
 11
5.6284849657
 21
5.3649657514
 31
0.0
 11
5.6247371181
 21
5.3623169719
 31
0.0
 11
5.6175321743
 21
5.3568735079
 31
0.0
 11
5.6106959614
 21
5.3512990431
 31
0.0
 11
5.6042103343
 21
5.3456522373
 31
0.0
 11
5.5980610317
 21
5.3399839831
 31
0.0
 11
5.5922449475
 21
5.3343322958
 31
0.0
 11
5.5867634282
 21
5.3287305522
 31
0.0
 11
5.5816241788
 21
5.3232068731
 31
0.0
 11
5.5768384571
 21
5.3177881735
 31
0.0
 11
5.5724252507
 21
5.3125020142
 31
0.0
  0
SPLINE
  5
2A9
100
AcDbEntity
  8
0
100
AcDbSpline
 62
6
  6
CONTINUOUS
 70
0
 71
3
 72
31
 73
27
 74
25
 42
0.0000001
 43
0.0000001
 44
0.0000000001
 12
-0.0384781497
 22
0.0497031407
 32
0.0
 13
-0.0
 23
0.0628567435
 33
0.0
 40
0.0
 40
0.0
 40
0.0
 40
0.0
 40
0.0158209328
 40
0.0328150228
 40
0.0510097326
 40
0.0704220669
 40
0.0910525216
 40
0.1128922574
 40
0.1359277951
 40
0.1601420874
 40
0.1855153141
 40
0.2120254819
 40
0.2396487346
 40
0.2683542648
 40
0.2981028233
 40
0.3288535223
 40
0.3605645292
 40
0.3931932506
 40
0.4610289518
 40
0.5320021675
 40
0.6057161735
 40
0.681763002
 40
0.759728791
 40
0.8391295578
 40
0.9194074944
 40
1.0
 40
1.0
 40
1.0
 40
1.0
 10
5.5494010298
 20
5.4827279248
 30
0.0
 10
5.5491981097
 20
5.4829900415
 30
0.0
 10
5.5487959884
 20
5.4835483956
 30
0.0
 10
5.5482222937
 20
5.4844507003
 30
0.0
 10
5.5476577146
 20
5.4854462027
 30
0.0
 10
5.5471033086
 20
5.4865335782
 30
0.0
 10
5.5465597199
 20
5.4877110237
 30
0.0
 10
5.5460277189
 20
5.4889764785
 30
0.0
 10
5.5455081224
 20
5.4903278152
 30
0.0
 10
5.5450017495
 20
5.4917628919
 30
0.0
 10
5.5445094253
 20
5.4932795595
 30
0.0
 10
5.5440319653
 20
5.4948756559
 30
0.0
 10
5.5435702608
 20
5.4965489099
 30
0.0
 10
5.5431250591
 20
5.4982967227
 30
0.0
 10
5.542696897
 20
5.5001161602
 30
0.0
 10
5.5422864159
 20
5.5020041517
 30
0.0
 10
5.5418942345
 20
5.5039576131
 30
0.0
 10
5.5413900373
 20
5.5066807892
 30
0.0
 10
5.5408125435
 20
5.5102265674
 30
0.0
 10
5.5402109186
 20
5.5146390116
 30
0.0
 10
5.5396950137
 20
5.5192354313
 30
0.0
 10
5.5392679964
 20
5.5239880413
 30
0.0
 10
5.5389334106
 20
5.5288674668
 30
0.0
 10
5.53869327
 20
5.5338411881
 30
0.0
 10
5.5385482463
 20
5.5388736155
 30
0.0
 10
5.5385157166
 20
5.5422443014
 30
0.0
 10
5.5385157166
 20
5.5439328956
 30
0.0
 11
5.5494010298
 21
5.4827279248
 31
0.0
 11
5.5488180487
 21
5.4835335727
 31
0.0
 11
5.5482432383
 21
5.4844339224
 31
0.0
 11
5.547677526
 21
5.4854278682
 31
0.0
 11
5.5471218269
 21
5.4865141817
 31
0.0
 11
5.5465769843
 21
5.4876909321
 31
0.0
 11
5.5460438166
 21
5.488955939
 31
0.0
 11
5.5455231417
 21
5.4903070217
 31
0.0
 11
5.5450157777
 21
5.4917419997
 31
0.0
 11
5.5445225428
 21
5.4932586923
 31
0.0
 11
5.5440442551
 21
5.4948549189
 31
0.0
 11
5.5435817305
 21
5.4965284886
 31
0.0
 11
5.5431357026
 21
5.4982768272
 31
0.0
 11
5.5427068003
 21
5.5000968711
 31
0.0
 11
5.5422956454
 21
5.5019855242
 31
0.0
 11
5.5419028597
 21
5.5039396909
 31
0.0
 11
5.5415290651
 21
5.5059562753
 31
0.0
 11
5.5408409366
 21
5.5101643139
 31
0.0
 11
5.5402358634
 21
5.5145842351
 31
0.0
 11
5.539717232
 21
5.5191885401
 31
0.0
 11
5.5392881798
 21
5.5239493015
 31
0.0
 11
5.5389518048
 21
5.5288384193
 31
0.0
 11
5.5387102225
 21
5.5338234427
 31
0.0
 11
5.5385645154
 21
5.5388673482
 31
0.0
 11
5.5385157166
 21
5.5439328956
 31
0.0
  0
SPLINE
  5
2AA
100
AcDbEntity
  8
0
100
AcDbSpline
 62
6
  6
CONTINUOUS
 70
0
 71
3
 72
23
 73
19
 74
17
 42
0.0000001
 43
0.0000001
 44
0.0000000001
 12
-0.0326543646
 22
0.0481659951
 32
0.0
 13
0.0
 23
0.0581916713
 33
0.0
 40
0.0
 40
0.0
 40
0.0
 40
0.0
 40
0.0444354904
 40
0.0919168129
 40
0.1424071006
 40
0.1958389571
 40
0.2520881979
 40
0.3109922034
 40
0.3723741708
 40
0.4360471376
 40
0.5018065067
 40
0.5694273861
 40
0.6386784896
 40
0.7093248119
 40
0.781106708
 40
0.8537026097
 40
0.9267786933
 40
1.0
 40
1.0
 40
1.0
 40
1.0
 10
5.3968182691
 20
5.4877993308
 30
0.0
 10
5.3963345982
 20
5.4885127573
 30
0.0
 10
5.395389368
 20
5.4900264499
 30
0.0
 10
5.3940763137
 20
5.4924583971
 30
0.0
 10
5.3928264747
 20
5.4951175173
 30
0.0
 10
5.3916464493
 20
5.4979928153
 30
0.0
 10
5.3905407149
 20
5.5010713171
 30
0.0
 10
5.3895135702
 20
5.504338812
 30
0.0
 10
5.3885696141
 20
5.5077807618
 30
0.0
 10
5.3877136592
 20
5.5113823949
 30
0.0
 10
5.3869496414
 20
5.5151281706
 30
0.0
 10
5.3862801891
 20
5.5190017938
 30
0.0
 10
5.3857082593
 20
5.5229867654
 30
0.0
 10
5.3852368725
 20
5.527066115
 30
0.0
 10
5.3848687775
 20
5.5312211882
 30
0.0
 10
5.3846045536
 20
5.5354313642
 30
0.0
 10
5.3844452085
 20
5.539674716
 30
0.0
 10
5.3844095057
 20
5.5425126055
 30
0.0
 10
5.3844095057
 20
5.5439328956
 30
0.0
 11
5.3968182691
 21
5.4877993308
 31
0.0
 11
5.3954435272
 21
5.4899893809
 31
0.0
 11
5.3941262731
 21
5.4924181887
 31
0.0
 11
5.3928725346
 21
5.495075378
 31
0.0
 11
5.391688247
 21
5.4979502938
 31
0.0
 11
5.3905784749
 21
5.5010296588
 31
0.0
 11
5.389547805
 21
5.5042987567
 31
0.0
 11
5.3886008193
 21
5.5077428568
 31
0.0
 11
5.3877420812
 21
5.5113472077
 31
0.0
 11
5.3869754496
 21
5.5150962753
 31
0.0
 11
5.3863038741
 21
5.5189735154
 31
0.0
 11
5.3857302441
 21
5.522962317
 31
0.0
 11
5.3852574481
 21
5.5270460667
 31
0.0
 11
5.384887901
 21
5.5312067963
 31
0.0
 11
5.3846227603
 21
5.5354229444
 31
0.0
 11
5.384462978
 21
5.5396723609
 31
0.0
 11
5.3844095057
 21
5.5439328956
 31
0.0
  0
SPLINE
  5
2AB
100
AcDbEntity
  8
0
100
AcDbSpline
 62
6
  6
CONTINUOUS
 70
0
 71
3
 72
23
 73
19
 74
17
 42
0.0000001
 43
0.0000001
 44
0.0000000001
 12
-0.0221740348
 22
0.0423924175
 32
0.0
 13
0.0
 23
0.0478414556
 33
0.0
 40
0.0
 40
0.0
 40
0.0
 40
0.0
 40
0.0536173909
 40
0.1088234677
 40
0.1655524058
 40
0.2237319874
 40
0.2832850378
 40
0.3441283723
 40
0.4061680835
 40
0.4693050198
 40
0.5334369953
 40
0.5984596158
 40
0.6642662487
 40
0.7307278746
 40
0.797689956
 40
0.8649950125
 40
0.9324845954
 40
1.0
 40
1.0
 40
1.0
 40
1.0
 10
5.2486844718
 20
5.4975693607
 30
0.0
 10
5.2482881672
 20
5.4983270176
 30
0.0
 10
5.2475161971
 20
5.4998819136
 30
0.0
 10
5.2464349207
 20
5.502291069
 30
0.0
 10
5.2454155514
 20
5.5048057462
 30
0.0
 10
5.2444607629
 20
5.5074195176
 30
0.0
 10
5.2435732345
 20
5.5101259969
 30
0.0
 10
5.2427556021
 20
5.5129185731
 30
0.0
 10
5.2420094386
 20
5.5157901461
 30
0.0
 10
5.2413364308
 20
5.5187335394
 30
0.0
 10
5.2407382631
 20
5.5217415456
 30
0.0
 10
5.2402165843
 20
5.524806939
 30
0.0
 10
5.2397732595
 20
5.5279221607
 30
0.0
 10
5.2394094175
 20
5.5310787828
 30
0.0
 10
5.2391254002
 20
5.5342675622
 30
0.0
 10
5.2389218028
 20
5.5374789099
 30
0.0
 10
5.238799168
 20
5.5407031735
 30
0.0
 10
5.2387717412
 20
5.5428562172
 30
0.0
 10
5.2387717412
 20
5.5439328956
 30
0.0
 11
5.2486844718
 21
5.4975693607
 31
0.0
 11
5.2475423256
 21
5.4998661877
 31
0.0
 11
5.2464595446
 21
5.5022751711
 31
0.0
 11
5.2454387927
 21
5.5047898946
 31
0.0
 11
5.2444827336
 21
5.507403942
 31
0.0
 11
5.2435940309
 21
5.5101108969
 31
0.0
 11
5.2427751394
 21
5.512904169
 31
0.0
 11
5.2420278645
 21
5.515776628
 31
0.0
 11
5.241353886
 21
5.5187210385
 31
0.0
 11
5.2407548838
 21
5.5217301655
 31
0.0
 11
5.2402325377
 21
5.5247967739
 31
0.0
 11
5.2397885092
 21
5.5279135892
 31
0.0
 11
5.2394239483
 21
5.5310722416
 31
0.0
 11
5.2391394377
 21
5.5342631462
 31
0.0
 11
5.2389355307
 21
5.5374766553
 31
0.0
 11
5.2388127808
 21
5.5407031211
 31
0.0
 11
5.2387717412
 21
5.5439328956
 31
0.0
  0
SPLINE
  5
2AC
100
AcDbEntity
  8
0
100
AcDbSpline
 62
6
  6
CONTINUOUS
 70
0
 71
3
 72
80
 73
76
 74
74
 42
0.0000001
 43
0.0000001
 44
0.0000000001
 12
-0.2337744782
 22
0.1601999763
 32
0.0
 13
-0.1029626872
 23
-0.2640326193
 33
0.0
 40
0.0
 40
0.0
 40
0.0
 40
0.0
 40
0.0329439619
 40
0.0666488203
 40
0.0837512875
 40
0.1010016096
 40
0.118385679
 40
0.1358912792
 40
0.1712327616
 40
0.1890522567
 40
0.2069601304
 40
0.2249484445
 40
0.2430087238
 40
0.2611311642
 40
0.2793062197
 40
0.2975249546
 40
0.3157791576
 40
0.3249172327
 40
0.3340607936
 40
0.3523563799
 40
0.3706515519
 40
0.3889342942
 40
0.4071954829
 40
0.4163158645
 40
0.4254255609
 40
0.4435958535
 40
0.4616794316
 40
0.479659154
 40
0.4886086316
 40
0.497528841
 40
0.5064126101
 40
0.5152527916
 40
0.5240432653
 40
0.5327790516
 40
0.5414564359
 40
0.550073103
 40
0.5543585473
 40
0.5586286631
 40
0.5671232149
 40
0.5755583214
 40
0.5839344873
 40
0.5922515449
 40
0.6005087067
 40
0.6087046193
 40
0.6168374193
 40
0.6249047899
 40
0.6329058758
 40
0.6408455422
 40
0.6487288384
 40
0.6643386852
 40
0.6797542106
 40
0.6873901648
 40
0.6949761529
 40
0.7025121941
 40
0.7100001689
 40
0.7248368346
 40
0.7394941307
 40
0.7539725317
 40
0.7682686258
 40
0.7823818669
 40
0.7963104185
 40
0.8100498582
 40
0.8369380047
 40
0.8630155437
 40
0.8757380118
 40
0.8882415543
 40
0.9125681482
 40
0.9243810881
 40
0.9359523064
 40
0.9472764248
 40
0.9583482974
 40
0.9691626947
 40
0.9797132954
 40
0.9899941025
 40
1.0
 40
1.0
 40
1.0
 40
1.0
 10
5.5724252507
 20
5.3125020142
 30
0.0
 10
5.5698580982
 20
5.3142612215
 30
0.0
 10
5.5646699368
 20
5.3178282007
 30
0.0
 10
5.5581576747
 20
5.3223209418
 30
0.0
 10
5.5528665624
 20
5.3259730576
 30
0.0
 10
5.5488438745
 20
5.328748745
 30
0.0
 10
5.5447886227
 20
5.3315442942
 30
0.0
 10
5.5393232091
 20
5.3353053191
 30
0.0
 10
5.5338150986
 20
5.3390768738
 30
0.0
 10
5.5282594314
 20
5.3428461
 30
0.0
 10
5.5240502911
 20
5.3456801571
 30
0.0
 10
5.5198105114
 20
5.3485093633
 30
0.0
 10
5.5155399778
 20
5.3513289064
 30
0.0
 10
5.5112367173
 20
5.3541307373
 30
0.0
 10
5.5068991387
 20
5.356907043
 30
0.0
 10
5.5025256211
 20
5.3596499176
 30
0.0
 10
5.4988511674
 20
5.3619002736
 30
0.0
 10
5.4958917381
 20
5.3636762428
 30
0.0
 10
5.4929174395
 20
5.3654348866
 30
0.0
 10
5.4891748859
 20
5.3675936474
 30
0.0
 10
5.4846410318
 20
5.3701071588
 30
0.0
 10
5.4800614524
 20
5.3725295886
 30
0.0
 10
5.4762037281
 20
5.3744609243
 30
0.0
 10
5.4730926795
 20
5.3759458882
 30
0.0
 10
5.4699693899
 20
5.3773845057
 30
0.0
 10
5.466037045
 20
5.3790896779
 30
0.0
 10
5.4612665504
 20
5.380961003
 30
0.0
 10
5.4572463629
 20
5.3823510078
 30
0.0
 10
5.4540085294
 20
5.3833445522
 30
0.0
 10
5.4515744605
 20
5.3840256931
 30
0.0
 10
5.4491333615
 20
5.3846402579
 30
0.0
 10
5.4466881015
 20
5.3851843096
 30
0.0
 10
5.4442416531
 20
5.3856538998
 30
0.0
 10
5.4417969735
 20
5.3860450723
 30
0.0
 10
5.4393570486
 20
5.3863538718
 30
0.0
 10
5.4373265186
 20
5.38653958
 30
0.0
 10
5.4357075269
 20
5.3866427701
 30
0.0
 10
5.4340983967
 20
5.3867147857
 30
0.0
 10
5.4320954779
 20
5.3867471673
 30
0.0
 10
5.4297049423
 20
5.386696031
 30
0.0
 10
5.4273346855
 20
5.3865572527
 30
0.0
 10
5.4249878599
 20
5.3863333147
 30
0.0
 10
5.4226675887
 20
5.3860266818
 30
0.0
 10
5.4203770015
 20
5.3856398203
 30
0.0
 10
5.4181192264
 20
5.3851751997
 30
0.0
 10
5.4158972172
 20
5.3846352263
 30
0.0
 10
5.4137132284
 20
5.3840221534
 30
0.0
 10
5.4115679373
 20
5.3833404642
 30
0.0
 10
5.4087685075
 20
5.3823491299
 30
0.0
 10
5.4053627776
 20
5.3809605198
 30
0.0
 10
5.4020631798
 20
5.3793906462
 30
0.0
 10
5.3994992204
 20
5.3780475655
 30
0.0
 10
5.3976191623
 20
5.3770044191
 30
0.0
 10
5.3957755832
 20
5.3759255402
 30
0.0
 10
5.3933730997
 20
5.3744469645
 30
0.0
 10
5.3904571339
 20
5.3725209333
 30
0.0
 10
5.3870837282
 20
5.3700954397
 30
0.0
 10
5.3838410216
 20
5.3675805258
 30
0.0
 10
5.3807226551
 20
5.3649929555
 30
0.0
 10
5.3777260022
 20
5.3623432431
 30
0.0
 10
5.3748477581
 20
5.3596417106
 30
0.0
 10
5.371189937
 20
5.356010383
 30
0.0
 10
5.3668933381
 20
5.3513969742
 30
0.0
 10
5.3628903121
 20
5.3466523723
 30
0.0
 10
5.3598938365
 20
5.3428428195
 30
0.0
 10
5.3570837604
 20
5.3390986923
 30
0.0
 10
5.3544498306
 20
5.3353310633
 30
0.0
 10
5.3519969021
 20
5.3315496038
 30
0.0
 10
5.3502777146
 20
5.3287573302
 30
0.0
 10
5.3486621669
 20
5.3259845801
 30
0.0
 10
5.3471513223
 20
5.3232346937
 30
0.0
 10
5.3457463132
 20
5.3205112035
 30
0.0
 10
5.3444492557
 20
5.3178173369
 30
0.0
 10
5.3432624163
 20
5.3151565404
 30
0.0
 10
5.3425361999
 20
5.3133826419
 30
0.0
 10
5.3421927886
 20
5.3125020142
 30
0.0
 11
5.5724252507
 21
5.3125020142
 31
0.0
 11
5.5647305696
 21
5.317789511
 31
0.0
 11
5.5568670015
 21
5.3232119659
 31
0.0
 11
5.5528779868
 21
5.3259650212
 31
0.0
 11
5.5488540728
 21
5.3287412784
 31
0.0
 11
5.5447976926
 21
5.3315372227
 31
0.0
 11
5.5407104808
 21
5.3343491209
 31
0.0
 11
5.5324439902
 21
5.3400041743
 31
0.0
 11
5.5282646819
 21
5.3428389603
 31
0.0
 11
5.5240546453
 21
5.3456730064
 31
0.0
 11
5.5198138641
 21
5.3485021244
 31
0.0
 11
5.5155418922
 21
5.3513211217
 31
0.0
 11
5.5112372688
 21
5.3541224333
 31
0.0
 11
5.5068983861
 21
5.3568981514
 31
0.0
 11
5.5025236367
 21
5.3596403684
 31
0.0
 11
5.498111413
 21
5.3623411767
 31
0.0
 11
5.4958907442
 21
5.3636735614
 31
0.0
 11
5.493660067
 21
5.364992179
 31
0.0
 11
5.4891676137
 21
5.3675808906
 31
0.0
 11
5.4846319006
 21
5.3700927928
 31
0.0
 11
5.4800507738
 21
5.3725133521
 31
0.0
 11
5.4754220793
 21
5.3748280352
 31
0.0
 11
5.4730892627
 21
5.3759409771
 31
0.0
 11
5.4707441424
 21
5.3770205319
 31
0.0
 11
5.4660178996
 21
5.3790648508
 31
0.0
 11
5.4612451721
 21
5.3809317186
 31
0.0
 11
5.4564277821
 21
5.3825918596
 31
0.0
 11
5.4540029106
 21
5.3833352587
 31
0.0
 11
5.4515682979
 21
5.3840159203
 31
0.0
 11
5.4491266731
 21
5.3846299239
 31
0.0
 11
5.4466810231
 21
5.3851733221
 31
0.0
 11
5.4442343348
 21
5.3856421673
 31
0.0
 11
5.4417895953
 21
5.3860325121
 31
0.0
 11
5.4393497913
 21
5.3863404091
 31
0.0
 11
5.43691791
 21
5.3865619108
 31
0.0
 11
5.4357058738
 21
5.3866390298
 31
0.0
 11
5.4344969388
 21
5.3866930911
 31
0.0
 11
5.4320899148
 21
5.3867321351
 31
0.0
 11
5.4296999659
 21
5.38668109
 31
0.0
 11
5.4273302296
 21
5.3865424155
 31
0.0
 11
5.4249838436
 21
5.3863185711
 31
0.0
 11
5.4226639455
 21
5.3860120166
 31
0.0
 11
5.4203736728
 21
5.3856252115
 31
0.0
 11
5.4181161631
 21
5.3851606154
 31
0.0
 11
5.4158945541
 21
5.384620688
 31
0.0
 11
5.4137113416
 21
5.3840082262
 31
0.0
 11
5.4115667917
 21
5.3833271993
 31
0.0
 11
5.4094606856
 21
5.3825818314
 31
0.0
 11
5.4053629304
 21
5.3809149689
 31
0.0
 11
5.4014163272
 21
5.3790414312
 31
0.0
 11
5.399499161
 21
5.3780377192
 31
0.0
 11
5.3976191184
 21
5.3769949739
 31
0.0
 11
5.3957757531
 21
5.3759164465
 31
0.0
 11
5.3939683877
 21
5.3748043999
 31
0.0
 11
5.3904589021
 21
5.3724886104
 31
0.0
 11
5.3870851528
 21
5.3700653283
 31
0.0
 11
5.3838416311
 21
5.3675522764
 31
0.0
 11
5.3807232481
 21
5.3649657272
 31
0.0
 11
5.377726362
 21
5.3623169518
 31
0.0
 11
5.374847643
 21
5.3596161441
 31
0.0
 11
5.372083761
 21
5.3568734977
 31
0.0
 11
5.3668885173
 21
5.3512990346
 31
0.0
 11
5.3621208524
 21
5.3456522379
 31
0.0
 11
5.3598919438
 21
5.3428181994
 31
0.0
 11
5.3577651036
 21
5.3399839779
 31
0.0
 11
5.3538170355
 21
5.3343322923
 31
0.0
 11
5.3519956935
 21
5.3315233334
 31
0.0
 11
5.3502769988
 21
5.328730548
 31
0.0
 11
5.3486620155
 21
5.3259572798
 31
0.0
 11
5.3471518078
 21
5.3232068725
 31
0.0
 11
5.3457476328
 21
5.3204826895
 31
0.0
 11
5.3444515546
 21
5.317788175
 31
0.0
 11
5.3432658482
 21
5.3151267947
 31
0.0
 11
5.3421927886
 21
5.3125020142
 31
0.0
  0
SPLINE
  5
2AD
100
AcDbEntity
  8
0
100
AcDbSpline
 62
6
  6
CONTINUOUS
 70
0
 71
3
 72
73
 73
69
 74
67
 42
0.0000001
 43
0.0000001
 44
0.0000000001
 12
-0.2249174376
 22
0.1367700529
 32
0.0
 13
0.0148556987
 23
-0.2628178253
 33
0.0
 40
0.0
 40
0.0
 40
0.0
 40
0.0
 40
0.0383420875
 40
0.0770985737
 40
0.0965970732
 40
0.1161567916
 40
0.1357634623
 40
0.1554045537
 40
0.1947537229
 40
0.2144441061
 40
0.2341331642
 40
0.253811998
 40
0.273470438
 40
0.2930956689
 40
0.3126747652
 40
0.3321951607
 40
0.3516447673
 40
0.3710109144
 40
0.3902736711
 40
0.4094112567
 40
0.4284039878
 40
0.4472347697
 40
0.4658838565
 40
0.4843092739
 40
0.5024692698
 40
0.5203327346
 40
0.5378788502
 40
0.5465206814
 40
0.5550640651
 40
0.5635025501
 40
0.5718311491
 40
0.5800465335
 40
0.5881472495
 40
0.5921549486
 40
0.5961344382
 40
0.6040109122
 40
0.6117827048
 40
0.6194549331
 40
0.6270321438
 40
0.634518345
 40
0.6419170431
 40
0.6492312848
 40
0.6564637056
 40
0.6636185229
 40
0.6707046808
 40
0.6777305525
 40
0.6916243863
 40
0.7053384309
 40
0.7121335537
 40
0.7188866635
 40
0.7255988798
 40
0.7322729525
 40
0.7455136944
 40
0.7586207711
 40
0.7715956703
 40
0.7844349289
 40
0.7971395743
 40
0.8097089286
 40
0.8221388878
 40
0.8465569786
 40
0.8703751749
 40
0.8820512766
 40
0.8935675382
 40
0.9161127859
 40
0.938008756
 40
0.9592679865
 40
0.9799177734
 40
1.0
 40
1.0
 40
1.0
 40
1.0
 10
5.3421927886
 20
5.3125020142
 30
0.0
 10
5.3393181872
 20
5.3142500306
 30
0.0
 10
5.3335566852
 20
5.3177958849
 30
0.0
 10
5.3263781913
 20
5.3223028902
 30
0.0
 10
5.3206157894
 20
5.3259655747
 30
0.0
 10
5.3162807442
 20
5.3287414041
 30
0.0
 10
5.3119435489
 20
5.33153703
 30
0.0
 10
5.3061565192
 20
5.3352883981
 30
0.0
 10
5.3003739326
 20
5.3390600786
 30
0.0
 10
5.2945909323
 20
5.3428388067
 30
0.0
 10
5.2902524537
 20
5.3456728707
 30
0.0
 10
5.2859141682
 20
5.3485021031
 30
0.0
 10
5.2815761738
 20
5.3513215239
 30
0.0
 10
5.277237086
 20
5.354123174
 30
0.0
 10
5.2728959731
 20
5.3568992848
 30
0.0
 10
5.2685518888
 20
5.3596420136
 30
0.0
 10
5.2642039099
 20
5.3623433509
 30
0.0
 10
5.2598520973
 20
5.3649953729
 30
0.0
 10
5.255494715
 20
5.3675851449
 30
0.0
 10
5.2511303777
 20
5.3700982667
 30
0.0
 10
5.2467581064
 20
5.3725204404
 30
0.0
 10
5.2423772717
 20
5.3748369263
 30
0.0
 10
5.2379899391
 20
5.3770323119
 30
0.0
 10
5.233596336
 20
5.3790800064
 30
0.0
 10
5.2291991737
 20
5.3809512316
 30
0.0
 10
5.2248021781
 20
5.3826169242
 30
0.0
 10
5.221125061
 20
5.3838144324
 30
0.0
 10
5.2181906598
 20
5.3846383848
 30
0.0
 10
5.2160088249
 20
5.3851827705
 30
0.0
 10
5.213837826
 20
5.3856526847
 30
0.0
 10
5.2116804999
 20
5.3860441466
 30
0.0
 10
5.2095397309
 20
5.386353167
 30
0.0
 10
5.2077656112
 20
5.3865392996
 30
0.0
 10
5.2063576471
 20
5.3866425161
 30
0.0
 10
5.2049674307
 20
5.3867142015
 30
0.0
 10
5.2032448867
 20
5.3867466214
 30
0.0
 10
5.2011986087
 20
5.3866957164
 30
0.0
 10
5.1991826951
 20
5.3865572548
 30
0.0
 10
5.1971996698
 20
5.3863336651
 30
0.0
 10
5.1952520244
 20
5.3860273654
 30
0.0
 10
5.1933422578
 20
5.3856407709
 30
0.0
 10
5.1914728635
 20
5.3851763127
 30
0.0
 10
5.1896461783
 20
5.3846363079
 30
0.0
 10
5.18786394
 20
5.3840230809
 30
0.0
 10
5.1861263045
 20
5.3833412008
 30
0.0
 10
5.183877031
 20
5.3823500417
 30
0.0
 10
5.1811705571
 20
5.3809609383
 30
0.0
 10
5.1785897133
 20
5.3793902992
 30
0.0
 10
5.1766097449
 20
5.3780473028
 30
0.0
 10
5.1751698505
 20
5.3770041453
 30
0.0
 10
5.1737699916
 20
5.3759252039
 30
0.0
 10
5.1719611711
 20
5.3744459377
 30
0.0
 10
5.1697955596
 20
5.3725185573
 30
0.0
 10
5.1673398693
 20
5.3700927585
 30
0.0
 10
5.1650275946
 20
5.3675777841
 30
0.0
 10
5.1628519149
 20
5.3649899243
 30
0.0
 10
5.1608102643
 20
5.3623399606
 30
0.0
 10
5.1588992013
 20
5.3596382681
 30
0.0
 10
5.1565347521
 20
5.3560024154
 30
0.0
 10
5.1538829777
 20
5.351380849
 30
0.0
 10
5.1515972115
 20
5.3466417092
 30
0.0
 10
5.1499999017
 20
5.3428377689
 30
0.0
 10
5.1485749725
 20
5.33908524
 30
0.0
 10
5.1470722266
 20
5.3344061745
 30
0.0
 10
5.1457072357
 20
5.3287999022
 30
0.0
 10
5.1448009065
 20
5.3232691274
 30
0.0
 10
5.1443606902
 20
5.317841387
 30
0.0
 10
5.1443882461
 20
5.3142613365
 30
0.0
 10
5.1444876912
 20
5.3125020142
 30
0.0
 11
5.3421927886
 21
5.3125020142
 31
0.0
 11
5.3335955708
 21
5.317789537
 31
0.0
 11
5.324953785
 21
5.3232120361
 31
0.0
 11
5.320621859
 21
5.3259651013
 31
0.0
 11
5.3162856068
 21
5.3287413501
 31
0.0
 11
5.3119472946
 21
5.3315372604
 31
0.0
 11
5.307608491
 21
5.3343491036
 31
0.0
 11
5.2989301585
 21
5.3400040352
 31
0.0
 11
5.2945907749
 21
5.3428387788
 31
0.0
 11
5.2902513434
 21
5.345672811
 31
0.0
 11
5.2859119347
 21
5.3485019532
 31
0.0
 11
5.2815723214
 21
5.3513209389
 31
0.0
 11
5.277231644
 21
5.3541221965
 31
0.0
 11
5.2728889622
 21
5.3568978601
 31
0.0
 11
5.2685433355
 21
5.359640064
 31
0.0
 11
5.2641938239
 21
5.3623409423
 31
0.0
 11
5.2598394847
 21
5.3649920261
 31
0.0
 11
5.25547936
 21
5.3675806701
 31
0.0
 11
5.2511124855
 21
5.3700924629
 31
0.0
 11
5.2467378968
 21
5.3725129866
 31
0.0
 11
5.2423546293
 21
5.3748278234
 31
0.0
 11
5.2379623806
 21
5.3770204858
 31
0.0
 11
5.2335639663
 21
5.379064735
 31
0.0
 11
5.2291631198
 21
5.3809314622
 31
0.0
 11
5.2247635747
 21
5.3825915588
 31
0.0
 11
5.2203698552
 21
5.384015805
 31
0.0
 11
5.2181794718
 21
5.3846299509
 31
0.0
 11
5.2159972038
 21
5.3851734829
 31
0.0
 11
5.2138259422
 21
5.3856424236
 31
0.0
 11
5.211668578
 21
5.3860327953
 31
0.0
 11
5.2095280021
 21
5.3863406205
 31
0.0
 11
5.2074071055
 21
5.3865619215
 31
0.0
 11
5.2063549404
 21
5.3866388825
 31
0.0
 11
5.2053087766
 21
5.386692762
 31
0.0
 11
5.2032357581
 21
5.3867315918
 31
0.0
 11
5.2011905698
 21
5.3866805136
 31
0.0
 11
5.1991757125
 21
5.3865419388
 31
0.0
 11
5.197193687
 21
5.386318279
 31
0.0
 11
5.1952469944
 21
5.3860119455
 31
0.0
 11
5.1933381353
 21
5.3856253499
 31
0.0
 11
5.1914696108
 21
5.3851609036
 31
0.0
 11
5.189643921
 21
5.3846210185
 31
0.0
 11
5.1878628829
 21
5.384008519
 31
0.0
 11
5.1861263315
 21
5.3833274258
 31
0.0
 11
5.1844337447
 21
5.3825819757
 31
0.0
 11
5.1811783759
 21
5.3809149505
 31
0.0
 11
5.1780925988
 21
5.3790413359
 31
0.0
 11
5.1766120016
 21
5.3780376491
 31
0.0
 11
5.1751722302
 21
5.3769949739
 31
0.0
 11
5.1737726471
 21
5.3759164917
 31
0.0
 11
5.172412514
 21
5.3748044605
 31
0.0
 11
5.1698076301
 21
5.3724886462
 31
0.0
 11
5.1673516424
 21
5.3700653216
 31
0.0
 11
5.1650386151
 21
5.3675522767
 31
0.0
 11
5.1628631271
 21
5.3649657514
 31
0.0
 11
5.1608214223
 21
5.3623169719
 31
0.0
 11
5.1589100809
 21
5.3596161526
 31
0.0
 11
5.1571256827
 21
5.3568735079
 31
0.0
 11
5.1539254706
 21
5.3512990431
 31
0.0
 11
5.1512006839
 21
5.3456522373
 31
0.0
 11
5.1500110666
 21
5.3428182045
 31
0.0
 11
5.1489353143
 21
5.3399839831
 31
0.0
 11
5.1471243195
 21
5.3343322958
 31
0.0
 11
5.1457670108
 21
5.3287305522
 31
0.0
 11
5.1448688541
 21
5.3232068731
 31
0.0
 11
5.1444380836
 21
5.3177881735
 31
0.0
 11
5.1444876912
 21
5.3125020142
 31
0.0
  0
SPLINE
  5
2AE
100
AcDbEntity
  8
0
100
AcDbSpline
 62
6
  6
CONTINUOUS
 70
0
 71
3
 72
65
 73
61
 74
59
 42
0.0000001
 43
0.0000001
 44
0.0000000001
 12
-0.1843674879
 22
0.1073370208
 32
0.0
 13
0.0145701775
 23
-0.2128387102
 33
0.0
 40
0.0
 40
0.0
 40
0.0
 40
0.0
 40
0.0415171077
 40
0.083045136
 40
0.1245097637
 40
0.1658350085
 40
0.1864213922
 40
0.2069456972
 40
0.2477805229
 40
0.2882835758
 40
0.3283972847
 40
0.3680534891
 40
0.3876774866
 40
0.4071462972
 40
0.4264457461
 40
0.4455618828
 40
0.464481043
 40
0.4831856637
 40
0.5016496135
 40
0.5198468391
 40
0.5377530032
 40
0.5553459368
 40
0.57260614
 40
0.5895034426
 40
0.6059745406
 40
0.6219583212
 40
0.6374054739
 40
0.6449173393
 40
0.6522840249
 40
0.6595045938
 40
0.6665798124
 40
0.673512221
 40
0.6803051129
 40
0.6934848769
 40
0.7061580755
 40
0.7183710101
 40
0.7243245489
 40
0.7301860164
 40
0.7359648641
 40
0.7416724672
 40
0.7473230134
 40
0.7529296826
 40
0.7585039186
 40
0.7640554118
 40
0.7751173768
 40
0.7861626996
 40
0.7972103892
 40
0.8082621353
 40
0.8193322779
 40
0.8415757565
 40
0.863989094
 40
0.8752451151
 40
0.88652494
 40
0.9091495154
 40
0.931844776
 40
0.943205586
 40
0.9545644727
 40
0.9659216971
 40
0.9772793944
 40
1.0
 40
1.0
 40
1.0
 40
1.0
 10
5.1444876912
 20
5.3125020142
 30
0.0
 10
5.1419362229
 20
5.3139874551
 30
0.0
 10
5.1368539958
 20
5.3169955937
 30
0.0
 10
5.1292946505
 20
5.3216060839
 30
0.0
 10
5.1218033525
 20
5.3263006467
 30
0.0
 10
5.1156175916
 20
5.3302731067
 30
0.0
 10
5.110709131
 20
5.3334782125
 30
0.0
 10
5.105844794
 20
5.3366869888
 30
0.0
 10
5.0998230426
 20
5.3407131606
 30
0.0
 10
5.0926737108
 20
5.3455588043
 30
0.0
 10
5.0856144347
 20
5.3503877499
 30
0.0
 10
5.0797895839
 20
5.3543914417
 30
0.0
 10
5.0751695387
 20
5.3575561618
 30
0.0
 10
5.0717386359
 20
5.3598952702
 30
0.0
 10
5.068329827
 20
5.3622026417
 30
0.0
 10
5.0649430057
 20
5.3644727043
 30
0.0
 10
5.0615784564
 20
5.3666999178
 30
0.0
 10
5.0582367543
 20
5.3688774714
 30
0.0
 10
5.0549171876
 20
5.3709946753
 30
0.0
 10
5.0516199339
 20
5.3730407985
 30
0.0
 10
5.0483451763
 20
5.3750049748
 30
0.0
 10
5.0450930784
 20
5.3768763202
 30
0.0
 10
5.0418647608
 20
5.3786436291
 30
0.0
 10
5.0386642348
 20
5.3802935254
 30
0.0
 10
5.0354958321
 20
5.3818045027
 30
0.0
 10
5.0323670088
 20
5.3831537488
 30
0.0
 10
5.0297752322
 20
5.3841331108
 30
0.0
 10
5.027727526
 20
5.3848103896
 30
0.0
 10
5.0262209405
 20
5.3852583976
 30
0.0
 10
5.024730325
 20
5.3856483611
 30
0.0
 10
5.0232565968
 20
5.385977031
 30
0.0
 10
5.0218012576
 20
5.3862437031
 30
0.0
 10
5.0199068105
 20
5.3865142298
 30
0.0
 10
5.0175899604
 20
5.3867029464
 30
0.0
 10
5.0148795317
 20
5.3866857606
 30
0.0
 10
5.0126936857
 20
5.3864649314
 30
0.0
 10
5.0110111755
 20
5.3861632846
 30
0.0
 10
5.0097923579
 20
5.3858780325
 30
0.0
 10
5.0086076108
 20
5.3855318891
 30
0.0
 10
5.0074582119
 20
5.3851250391
 30
0.0
 10
5.0063441283
 20
5.384660656
 30
0.0
 10
5.0052649742
 20
5.3841416569
 30
0.0
 10
5.004220284
 20
5.3835709603
 30
0.0
 10
5.0028745698
 20
5.3827461766
 30
0.0
 10
5.0012732213
 20
5.381598865
 30
0.0
 10
4.999482156
 20
5.3800615223
 30
0.0
 10
4.9978191163
 20
5.3783881664
 30
0.0
 10
4.9962778439
 20
5.3766001396
 30
0.0
 10
4.9943795275
 20
5.37407781
 30
0.0
 10
4.9922965818
 20
5.3706950121
 30
0.0
 10
4.9905848102
 20
5.3670988271
 30
0.0
 10
4.989414717
 20
5.3641233103
 30
0.0
 10
4.9883732443
 20
5.361084412
 30
0.0
 10
4.9873149105
 20
5.3571959746
 30
0.0
 10
4.9865692126
 20
5.353230593
 30
0.0
 10
4.9861514407
 20
5.3500275672
 30
0.0
 10
4.9859257895
 20
5.3476142587
 30
0.0
 10
4.9857877189
 20
5.345194563
 30
0.0
 10
4.9857199204
 20
5.3419637802
 30
0.0
 10
4.9857994671
 20
5.3395389743
 30
0.0
 10
4.9859098148
 20
5.3379270329
 30
0.0
 11
5.1444876912
 21
5.3125020142
 31
0.0
 11
5.1368647411
 21
5.3170119317
 31
0.0
 11
5.1293002283
 21
5.3216236719
 31
0.0
 11
5.1218037142
 21
5.3263197127
 31
0.0
 11
5.1143847599
 21
5.331082532
 31
0.0
 11
5.110707312
 21
5.3334834865
 31
0.0
 11
5.1070521142
 21
5.3358942089
 31
0.0
 11
5.0998085742
 21
5.3407339017
 31
0.0
 11
5.0926542899
 21
5.3455794692
 31
0.0
 11
5.0855893993
 21
5.3504087647
 31
0.0
 11
5.0786139172
 21
5.3551958763
 31
0.0
 11
5.0751595658
 21
5.3575611287
 31
0.0
 11
5.0717273765
 21
5.3599001303
 31
0.0
 11
5.0683172762
 21
5.3622073448
 31
0.0
 11
5.0649291917
 21
5.3644772356
 31
0.0
 11
5.0615630503
 21
5.3667042582
 31
0.0
 11
5.0582188657
 21
5.3688813202
 31
0.0
 11
5.0548968398
 21
5.370997965
 31
0.0
 11
5.0515971989
 21
5.3730432939
 31
0.0
 11
5.0483201696
 21
5.3750064083
 31
0.0
 11
5.0450659782
 21
5.3768764097
 31
0.0
 11
5.0418348539
 21
5.3786423956
 31
0.0
 11
5.0386288715
 21
5.3802905411
 31
0.0
 11
5.0354552068
 21
5.3817989472
 31
0.0
 11
5.0323219088
 21
5.3831443321
 31
0.0
 11
5.0292370266
 21
5.3843034142
 31
0.0
 11
5.0277152569
 21
5.3848058161
 31
0.0
 11
5.0262086095
 21
5.3852529116
 31
0.0
 11
5.0247180906
 21
5.3856417905
 31
0.0
 11
5.0232447408
 21
5.385969728
 31
0.0
 11
5.0217899352
 21
5.3862358082
 31
0.0
 11
5.0203552381
 21
5.386440136
 31
0.0
 11
5.017552435
 21
5.3866640005
 31
0.0
 11
5.0148488623
 21
5.3866422538
 31
0.0
 11
5.0122570511
 21
5.3863758278
 31
0.0
 11
5.011006972
 21
5.3861511514
 31
0.0
 11
5.0097895324
 21
5.3858656547
 31
0.0
 11
5.0086062984
 21
5.3855194545
 31
0.0
 11
5.0074584032
 21
5.3851132666
 31
0.0
 11
5.006345657
 21
5.3846496363
 31
0.0
 11
5.0052676184
 21
5.3841314571
 31
0.0
 11
5.0042238459
 21
5.3835616225
 31
0.0
 11
5.0032138979
 21
5.3829430261
 31
0.0
 11
5.0012937096
 21
5.3815711219
 31
0.0
 11
4.9995035215
 21
5.3800388927
 31
0.0
 11
4.9978398018
 21
5.3783694868
 31
0.0
 11
4.9962990071
 21
5.3765848549
 31
0.0
 11
4.9948775183
 21
5.3746988932
 31
0.0
 11
4.9923778576
 21
5.3706652751
 31
0.0
 11
4.9903116168
 21
5.3663531692
 31
0.0
 11
4.9894320333
 21
5.3641187365
 31
0.0
 11
4.9886512461
 21
5.3618425241
 31
0.0
 11
4.9873788324
 21
5.3571866068
 31
0.0
 11
4.9864799441
 21
5.3524290445
 31
0.0
 11
4.9861660637
 21
5.3500257759
 31
0.0
 11
4.9859403741
 21
5.3476130395
 31
0.0
 11
4.9858022572
 21
5.345194065
 31
0.0
 11
4.9857513603
 21
5.3427715844
 31
0.0
 11
4.9859098148
 21
5.3379270329
 31
0.0
  0
SPLINE
  5
2AF
100
AcDbEntity
  8
0
100
AcDbSpline
 62
6
  6
CONTINUOUS
 70
0
 71
3
 72
66
 73
62
 74
60
 42
0.0000001
 43
0.0000001
 44
0.0000000001
 12
-0.1306618876
 22
0.0806081536
 32
0.0
 13
0.0092805779
 23
-0.153245144
 33
0.0
 40
0.0
 40
0.0
 40
0.0
 40
0.0
 40
0.0895906715
 40
0.1338507057
 40
0.1776937003
 40
0.2210753071
 40
0.2639570011
 40
0.3063004593
 40
0.3480657265
 40
0.3687186949
 40
0.3892101529
 40
0.4296673913
 40
0.46935143
 40
0.4888759857
 40
0.508174078
 40
0.5272345122
 40
0.5460426972
 40
0.5828187345
 40
0.6007441974
 40
0.6183334021
 40
0.6355659006
 40
0.6524217371
 40
0.668874577
 40
0.6848816082
 40
0.7003992004
 40
0.7153862873
 40
0.729805197
 40
0.743622737
 40
0.7568093195
 40
0.7693286342
 40
0.7811487277
 40
0.786790938
 40
0.7922528713
 40
0.7975352105
 40
0.8026402501
 40
0.8123340582
 40
0.8214048246
 40
0.8257443304
 40
0.829973057
 40
0.8341074744
 40
0.8381643661
 40
0.842160666
 40
0.8461132717
 40
0.8500388465
 40
0.8539536186
 40
0.8578731931
 40
0.8618123858
 40
0.8697998441
 40
0.8780121846
 40
0.8865103125
 40
0.8953278863
 40
0.9044762259
 40
0.9139489812
 40
0.9237289806
 40
0.9338090514
 40
0.9441839112
 40
0.9548432067
 40
0.9657724129
 40
0.9769535976
 40
0.9883669648
 40
1.0
 40
1.0
 40
1.0
 40
1.0
 10
4.9874482675
 20
5.315741402
 30
0.0
 10
4.9835462388
 20
5.3181486482
 30
0.0
 10
4.9777714988
 20
5.3218352819
 30
0.0
 10
4.9702140344
 20
5.3268929747
 30
0.0
 10
4.9646739799
 20
5.3307122932
 30
0.0
 10
4.9592427747
 20
5.3345640954
 30
0.0
 10
4.9539215221
 20
5.3384373786
 30
0.0
 10
4.9487108998
 20
5.3423213317
 30
0.0
 10
4.9444457907
 20
5.3455697821
 30
0.0
 10
4.9410886127
 20
5.348164372
 30
0.0
 10
4.9377956834
 20
5.3507325637
 30
0.0
 10
4.9337530678
 20
5.3539230618
 30
0.0
 10
4.9297668769
 20
5.3571050119
 30
0.0
 10
4.9266331231
 20
5.3596191177
 30
0.0
 10
4.9243244917
 20
5.3614751234
 30
0.0
 10
4.9220452347
 20
5.363309157
 30
0.0
 10
4.9190683518
 20
5.365702954
 30
0.0
 10
4.9161314334
 20
5.368053792
 30
0.0
 10
4.9132292043
 20
5.370348015
 30
0.0
 10
4.911102498
 20
5.372010457
 30
0.0
 10
4.9090076814
 20
5.3736247255
 30
0.0
 10
4.906945577
 20
5.3751860358
 30
0.0
 10
4.9049177799
 20
5.3766885758
 30
0.0
 10
4.9029254375
 20
5.3781236147
 30
0.0
 10
4.9009706669
 20
5.3794819696
 30
0.0
 10
4.8990556479
 20
5.380754341
 30
0.0
 10
4.8971825443
 20
5.3819314531
 30
0.0
 10
4.8953535997
 20
5.3830039934
 30
0.0
 10
4.8935717331
 20
5.3839622328
 30
0.0
 10
4.8918413056
 20
5.3847966404
 30
0.0
 10
4.8904250912
 20
5.3853895085
 30
0.0
 10
4.8893219521
 20
5.3857893314
 30
0.0
 10
4.888523753
 20
5.3860470468
 30
0.0
 10
4.8877425189
 20
5.3862660276
 30
0.0
 10
4.8867417298
 20
5.3865005304
 30
0.0
 10
4.8855335508
 20
5.386695753
 30
0.0
 10
4.8843491831
 20
5.3867489007
 30
0.0
 10
4.8834471291
 20
5.3867029396
 30
0.0
 10
4.8828009598
 20
5.386627545
 30
0.0
 10
4.8821755513
 20
5.3865114701
 30
0.0
 10
4.8815711442
 20
5.386355484
 30
0.0
 10
4.8809880105
 20
5.3861603604
 30
0.0
 10
4.8804264156
 20
5.3859268828
 30
0.0
 10
4.8798866225
 20
5.3856558417
 30
0.0
 10
4.8793688954
 20
5.3853480402
 30
0.0
 10
4.8788734671
 20
5.3850042674
 30
0.0
 10
4.8782402139
 20
5.3844968222
 30
0.0
 10
4.8775029788
 20
5.3837722037
 30
0.0
 10
4.8767129952
 20
5.3827822684
 30
0.0
 10
4.876009515
 20
5.3816788885
 30
0.0
 10
4.8753892543
 20
5.3804730966
 30
0.0
 10
4.8748489625
 20
5.3791755882
 30
0.0
 10
4.874385631
 20
5.3777968827
 30
0.0
 10
4.8739959632
 20
5.3763463398
 30
0.0
 10
4.8736784587
 20
5.3748312369
 30
0.0
 10
4.8734314362
 20
5.3732576021
 30
0.0
 10
4.8732530528
 20
5.3716310807
 30
0.0
 10
4.8731415016
 20
5.3699573268
 30
0.0
 10
4.873095005
 20
5.3682419529
 30
0.0
 10
4.8731117162
 20
5.3664900729
 30
0.0
 10
4.8731637884
 20
5.3653115527
 30
0.0
 10
4.8731997755
 20
5.3647173173
 30
0.0
 11
4.9874482675
 21
5.315741402
 31
0.0
 11
4.9758525093
 21
5.3231389931
 31
0.0
 11
4.9702051076
 21
5.3269178446
 31
0.0
 11
4.9646631395
 21
5.3307379791
 31
0.0
 11
4.9592299394
 21
5.3345900702
 31
0.0
 11
4.9539066857
 21
5.3384636725
 31
0.0
 11
4.9486939787
 21
5.3423480408
 31
0.0
 11
4.9435924186
 21
5.3462324295
 31
0.0
 11
4.9410835064
 21
5.348171273
 31
0.0
 11
4.9386026286
 21
5.3501057936
 31
0.0
 11
4.9337256099
 21
5.3539521059
 31
0.0
 11
4.9289626758
 21
5.3577512315
 31
0.0
 11
4.9266244039
 21
5.359626769
 31
0.0
 11
4.9243151491
 21
5.3614829134
 31
0.0
 11
4.9220350779
 21
5.3633171254
 31
0.0
 11
4.9197844639
 21
5.3651261707
 31
0.0
 11
4.9153735075
 21
5.3686506024
 31
0.0
 11
4.9132141464
 21
5.3703567061
 31
0.0
 11
4.9110861842
 21
5.372019213
 31
0.0
 11
4.9089901116
 21
5.3736334818
 31
0.0
 11
4.9069264203
 21
5.3751948678
 31
0.0
 11
4.9048960469
 21
5.3766975128
 31
0.0
 11
4.9029010419
 21
5.3781325151
 31
0.0
 11
4.900943628
 21
5.379490504
 31
0.0
 11
4.8990260278
 21
5.3807621086
 31
0.0
 11
4.897150464
 21
5.3819379582
 31
0.0
 11
4.8953191591
 21
5.3830086821
 31
0.0
 11
4.8935346897
 21
5.3839648182
 31
0.0
 11
4.891801829
 21
5.3847963399
 31
0.0
 11
4.8901261914
 21
5.3854930035
 31
0.0
 11
4.8893115863
 21
5.3857875625
 31
0.0
 11
4.8885133929
 21
5.3860445655
 31
0.0
 11
4.8877323134
 21
5.3862627322
 31
0.0
 11
4.8869690497
 21
5.3864407821
 31
0.0
 11
4.8854987775
 21
5.3866714109
 31
0.0
 11
4.8841073996
 21
5.3867296834
 31
0.0
 11
4.8834420592
 21
5.386695333
 31
0.0
 11
4.8827972616
 21
5.386619693
 31
0.0
 11
4.8821732395
 21
5.38650354
 31
0.0
 11
4.8815702258
 21
5.3863476501
 31
0.0
 11
4.8809884534
 21
5.3861527997
 31
0.0
 11
4.8804281549
 21
5.3859197651
 31
0.0
 11
4.8798895633
 21
5.3856493226
 31
0.0
 11
4.8793729114
 21
5.3853422484
 31
0.0
 11
4.8788784319
 21
5.384999319
 31
0.0
 11
4.8784063574
 21
5.3846213109
 31
0.0
 11
4.877529412
 21
5.3837641448
 31
0.0
 11
4.8767400102
 21
5.3827810481
 31
0.0
 11
4.8760354982
 21
5.3816829316
 31
0.0
 11
4.8754132222
 21
5.3804807058
 31
0.0
 11
4.8748705285
 21
5.3791852817
 31
0.0
 11
4.8744047632
 21
5.3778075698
 31
0.0
 11
4.8740133533
 21
5.3763580009
 31
0.0
 11
4.873694281
 21
5.374843699
 31
0.0
 11
4.8734457627
 21
5.3732703963
 31
0.0
 11
4.8732660155
 21
5.3716438198
 31
0.0
 11
4.8731532565
 21
5.3699696966
 31
0.0
 11
4.8731057029
 21
5.3682537539
 31
0.0
 11
4.8731216203
 21
5.3665015787
 31
0.0
 11
4.8731997755
 21
5.3647173173
 31
0.0
  0
SPLINE
  5
2B0
100
AcDbEntity
  8
0
100
AcDbSpline
 62
6
  6
CONTINUOUS
 70
0
 71
3
 72
60
 73
56
 74
54
 42
0.0000001
 43
0.0000001
 44
0.0000000001
 12
-0.068023227
 22
0.0543850385
 32
0.0
 13
0.0044593305
 23
-0.086977044
 33
0.0
 40
0.0
 40
0.0
 40
0.0
 40
0.0
 40
0.0480295865
 40
0.095516369
 40
0.1887819968
 40
0.2796361837
 40
0.3241053857
 40
0.3679036781
 40
0.4533032048
 40
0.4947911292
 40
0.5353920972
 40
0.5750458105
 40
0.613685284
 40
0.6512050966
 40
0.6874834941
 40
0.7223975552
 40
0.7558235675
 40
0.7719397002
 40
0.7876310291
 40
0.8176086926
 40
0.8318284683
 40
0.8454915006
 40
0.8585652012
 40
0.8710174969
 40
0.8828170256
 40
0.8939334087
 40
0.9043367385
 40
0.9139961684
 40
0.9228828348
 40
0.9309715948
 40
0.9382430173
 40
0.9415690102
 40
0.9446879319
 40
0.947600958
 40
0.9503108679
 40
0.9528225859
 40
0.9551439216
 40
0.957286576
 40
0.9592684888
 40
0.9611146884
 40
0.9628549479
 40
0.9645232445
 40
0.9661565647
 40
0.9677928056
 40
0.9694682594
 40
0.9730550759
 40
0.9750229252
 40
0.9771295104
 40
0.9793879828
 40
0.9818081274
 40
0.9843970764
 40
0.9871598981
 40
0.9901000614
 40
0.9932197945
 40
1.0
 40
1.0
 40
1.0
 40
1.0
 10
4.8754687401
 20
5.3284689604
 30
0.0
 10
4.8743796976
 20
5.3293396573
 30
0.0
 10
4.8722260233
 20
5.3310864207
 30
0.0
 10
4.8680181339
 20
5.3345978611
 30
0.0
 10
4.8629440293
 20
5.3390106218
 30
0.0
 10
4.8580519769
 20
5.3434955935
 30
0.0
 10
4.8542863914
 20
5.3470818703
 30
0.0
 10
4.8506788117
 20
5.3506038659
 30
0.0
 10
4.8471944803
 20
5.3541276635
 30
0.0
 10
4.8438311375
 20
5.3576390802
 30
0.0
 10
4.8414117067
 20
5.3602154384
 30
0.0
 10
4.8390721321
 20
5.3627531313
 30
0.0
 10
4.8368145643
 20
5.3652445876
 30
0.0
 10
4.8346402802
 20
5.3676791456
 30
0.0
 10
4.8325512267
 20
5.37004474
 30
0.0
 10
4.8305497405
 20
5.3723290716
 30
0.0
 10
4.8289377429
 20
5.3741764444
 30
0.0
 10
4.8276926086
 20
5.3756033126
 30
0.0
 10
4.8265123015
 20
5.3769538849
 30
0.0
 10
4.8253647172
 20
5.3782599546
 30
0.0
 10
4.8242475727
 20
5.3795143284
 30
0.0
 10
4.8234514672
 20
5.380397461
 30
0.0
 10
4.8226831445
 20
5.3812365177
 30
0.0
 10
4.8219434601
 20
5.3820283837
 30
0.0
 10
4.8212332764
 20
5.3827699566
 30
0.0
 10
4.8205534684
 20
5.3834581197
 30
0.0
 10
4.8199050023
 20
5.3840897067
 30
0.0
 10
4.8192891223
 20
5.3846616747
 30
0.0
 10
4.8187071141
 20
5.3851709537
 30
0.0
 10
4.8181602681
 20
5.3856144517
 30
0.0
 10
4.8177227706
 20
5.3859357298
 30
0.0
 10
4.8173905527
 20
5.3861553828
 30
0.0
 10
4.8171584374
 20
5.3862966786
 30
0.0
 10
4.8169360418
 20
5.3864191196
 30
0.0
 10
4.8167234965
 20
5.3865223182
 30
0.0
 10
4.816520922
 20
5.3866058854
 30
0.0
 10
4.8163284222
 20
5.3866694341
 30
0.0
 10
4.816146032
 20
5.3867125141
 30
0.0
 10
4.8159737762
 20
5.3867347765
 30
0.0
 10
4.8158117052
 20
5.3867364117
 30
0.0
 10
4.8156598231
 20
5.386717546
 30
0.0
 10
4.8155182256
 20
5.3866783336
 30
0.0
 10
4.8153870877
 20
5.3866190197
 30
0.0
 10
4.8152665746
 20
5.3865399644
 30
0.0
 10
4.8151168706
 20
5.3864059765
 30
0.0
 10
4.8149919138
 20
5.38623416
 30
0.0
 10
4.814890856
 20
5.3860358671
 30
0.0
 10
4.8148228538
 20
5.3858647591
 30
0.0
 10
4.8147650313
 20
5.385676284
 30
0.0
 10
4.814717246
 20
5.3854706325
 30
0.0
 10
4.8146794474
 20
5.3852480813
 30
0.0
 10
4.8146515766
 20
5.3850088863
 30
0.0
 10
4.8146335836
 20
5.3847533108
 30
0.0
 10
4.814622416
 20
5.3843806497
 30
0.0
 10
4.8146295486
 20
5.3840930725
 30
0.0
 10
4.814639627
 20
5.3838964984
 30
0.0
 11
4.8754687401
 21
5.3284689604
 31
0.0
 11
4.8722200159
 21
5.3311039048
 31
0.0
 11
4.8690446396
 21
5.3337535981
 31
0.0
 11
4.8629151611
 21
5.3390833732
 31
0.0
 11
4.8570823809
 21
5.3444301514
 31
0.0
 11
4.8542778776
 21
5.3471010988
 31
0.0
 11
4.8515483269
 21
5.3497656022
 31
0.0
 11
4.8463172022
 21
5.3550526194
 31
0.0
 11
4.843817682
 21
5.3576618104
 31
0.0
 11
4.8413968979
 21
5.3602392186
 31
0.0
 11
4.8390558811
 21
5.3627781658
 31
0.0
 11
4.8367957876
 21
5.3652714144
 31
0.0
 11
4.8346185885
 21
5.3677080785
 31
0.0
 11
4.8325265817
 21
5.3700758098
 31
0.0
 11
4.830522066
 21
5.3723622561
 31
0.0
 11
4.8286073402
 21
5.3745550652
 31
0.0
 11
4.827684369
 21
5.3756124895
 31
0.0
 11
4.8267849039
 21
5.3766413227
 31
0.0
 11
4.8250598046
 21
5.3786009844
 31
0.0
 11
4.8242358787
 21
5.3795255527
 31
0.0
 11
4.8234388408
 21
5.380409106
 31
0.0
 11
4.8226695449
 21
5.3812485141
 31
0.0
 11
4.8219288452
 21
5.3820406472
 31
0.0
 11
4.8212175957
 21
5.382782375
 31
0.0
 11
4.8205366507
 21
5.3834705676
 31
0.0
 11
4.8198869614
 21
5.3841020826
 31
0.0
 11
4.8192697792
 21
5.3846737393
 31
0.0
 11
4.8186864134
 21
5.3851823498
 31
0.0
 11
4.8181381728
 21
5.3856247263
 31
0.0
 11
4.8176263668
 21
5.3859976807
 31
0.0
 11
4.8173845358
 21
5.3861571284
 31
0.0
 11
4.8171523043
 21
5.3862980252
 31
0.0
 11
4.8169298361
 21
5.3864199725
 31
0.0
 11
4.8167172946
 21
5.3865225718
 31
0.0
 11
4.8165148436
 21
5.3866054247
 31
0.0
 11
4.8163226466
 21
5.3866681326
 31
0.0
 11
4.8161408667
 21
5.3867102995
 31
0.0
 11
4.8159695984
 21
5.386731758
 31
0.0
 11
4.8158088136
 21
5.3867327517
 31
0.0
 11
4.8156584712
 21
5.3867135674
 31
0.0
 11
4.8155185303
 21
5.3866744918
 31
0.0
 11
4.8153889497
 21
5.3866158116
 31
0.0
 11
4.8152696885
 21
5.3865378136
 31
0.0
 11
4.8151607057
 21
5.3864407846
 31
0.0
 11
4.8149734111
 21
5.38619078
 31
0.0
 11
4.8148950173
 21
5.386038378
 31
0.0
 11
4.8148267377
 21
5.3858680918
 31
0.0
 11
4.8147685314
 21
5.3856802082
 31
0.0
 11
4.8147203574
 21
5.3854750138
 31
0.0
 11
4.8146821745
 21
5.3852527954
 31
0.0
 11
4.8146539419
 21
5.3850138398
 31
0.0
 11
4.8146356184
 21
5.3847584336
 31
0.0
 11
4.8146271631
 21
5.3844868637
 31
0.0
 11
4.814639627
 21
5.3838964984
 31
0.0
  0
ENDSEC
  0
SECTION
  2
OBJECTS
  0
DICTIONARY
  5
C
100
AcDbDictionary
280
0
281
1
  3
ACAD_GROUP
350
D
  3
ACAD_MLINESTYLE
350
17
  3
ACAD_LAYOUT
350
1A
  3
ACAD_PLOTSETTINGS
350
19
  3
ACAD_PLOTSTYLENAME
350
E
  0
DICTIONARY
  5
D
102
{ACAD_REACTORS
330
C
102
}
100
AcDbDictionary
280
0
281
1
  0
ACDBDICTIONARYWDFLT
  5
E
102
{ACAD_REACTORS
330
C
102
}
100
AcDbDictionary
281
1
  3
Normal
350
F
100
AcDbDictionaryWithDefault
340
F
  0
DICTIONARY
  5
17
102
{ACAD_REACTORS
330
C
102
}
100
AcDbDictionary
280
0
281
1
  3
Standard
350
18
  0
DICTIONARY
  5
19
102
{ACAD_REACTORS
330
C
102
}
100
AcDbDictionary
281
1
  0
DICTIONARY
  5
1A
102
{ACAD_REACTORS
330
C
102
}
100
AcDbDictionary
281
1
  3
Model
350
2B1
  3
Layout1
350
2B2
  0
ACDBPLACEHOLDER
  5
F
102
{ACAD_REACTORS
330
E
102
}
  0
MLINESTYLE
  5
18
102
{ACAD_REACTORS
330
17
102
}
100
AcDbMlineStyle
  2
STANDARD
 70
0
  3

 62
256
 51
90.0
 52
90.0
 71
2
 49
0.5
 62
256
  6
BYLAYER
 49
-0.5
 62
256
  6
BYLAYER
  0
LAYOUT
  5
2B1
102
{ACAD_REACTORS
330
1A
102
}
100
AcDbPlotSettings
  1

  2
none_device
  4
ISO_A4_(297.00_x_210.00_MM)
  6

 40
0.0
 41
0.0
 42
0.0
 43
0.0
 44
297.0
 45
210.0
 46
0.0
 47
0.0
 48
0.0
 49
0.0
140
0.0
141
0.0
142
1.0
143
1.0
 70
1024
 72
0
 73
0
 74
0
  7

 75
0
147
1.0
148
0.0
149
0.0
100
AcDbLayout
  1
Model
 70
0
 71
0
 10
0.0
 20
0.0
 11
11.6929133858
 21
8.2677165354
 12
0.0
 22
0.0
 32
0.0
 14
0.0
 24
0.0
 34
0.0
 15
0.0
 25
0.0
 35
0.0
146
0.0
 13
0.0
 23
0.0
 33
0.0
 16
1.0
 26
0.0
 36
0.0
 17
0.0
 27
1.0
 37
0.0
 76
0
330
204
345
0
346
0
  0
LAYOUT
  5
2B2
102
{ACAD_REACTORS
330
1A
102
}
100
AcDbPlotSettings
  1

  2
none_device
  4
ISO_A4_(297.00_x_210.00_MM)
  6

 40
0.0
 41
0.0
 42
0.0
 43
0.0
 44
297.0
 45
210.0
 46
0.0
 47
0.0
 48
0.0
 49
0.0
140
0.0
141
0.0
142
1.0
143
1.0
 70
0
 72
0
 73
0
 74
0
  7

 75
0
147
1.0
148
0.0
149
0.0
100
AcDbLayout
  1
Layout1
 70
0
 71
1
 10
0.0
 20
0.0
 11
11.6929133858
 21
8.2677165354
 12
0.0
 22
0.0
 32
0.0
 14
0.0
 24
0.0
 34
0.0
 15
0.0
 25
0.0
 35
0.0
146
0.0
 13
0.0
 23
0.0
 33
0.0
 16
1.0
 26
0.0
 36
0.0
 17
0.0
 27
1.0
 37
0.0
 76
0
330
205
345
0
346
0
  0
ENDSEC
  0
EOF
