  0
SECTION
  2
HEADER
  9
$ACADVER
  1
AC1015
  9
$DWGCODEPAGE
  3
ANSI_1252
  9
$EXTMAX
 10
23.3858267717
 20
16.5354330709
 30
0.0
  9
$EXTMIN
 10
0.0
 20
0.0
 30
0.0
  9
$LIMMIN
 10
0.0
 20
0.0
  9
$LIMMAX
 10
23.3858267717
 20
16.5354330709
  9
$VIEWCTR
 10
11.6929133858
 20
8.2677165354
  9
$VIEWSIZE
 40
16.5354330709
  9
$CLAYER
  8
0
  9
$LTSCALE
 40
1.2862204724
  9
$CELTYPE
  6
BYLAYER
  9
$DIMSCALE
 40
1.0
  9
$DIMASZ
 40
0.1
  9
$DIMEXO
 40
0.1461614173
  9
$DIMDLI
 40
0.8886614173
  9
$DIMEXE
 40
0.4209448819
  9
$DIMCEN
 40
0.2104724409
  9
$DIMLFAC
 40
1.0
  9
$DIMBLK
  1
_FILLED
  9
$DIMTXT
 40
0.08
  9
$DIMTOL
 70
1
  9
$DIMLIM
 70
0
  9
$DIMTFAC
 40
1.0
  9
$DIMTP
 40
0.01
  9
$DIMTM
 40
0.01
  9
$PDMODE
 70
3
  9
$PDSIZE
 40
0.06
  9
$HANDSEED
  5
363
  9
$TILEMODE
 70
1
  9
$MEASUREMENT
 70
0
  9
$INSUNITS
 70
1
  0
ENDSEC
  0
SECTION
  2
CLASSES
  0
CLASS
  1
ACDBDICTIONARYWDFLT
  2
AcDbDictionaryWithDefault
  3
AutoCAD 2000
 90
0
280
0
281
0
  0
CLASS
  1
ACDBPLACEHOLDER
  2
AcDbPlaceHolder
  3
AutoCAD 2000
 90
0
280
0
281
0
  0
CLASS
  1
LAYOUT
  2
AcDbLayout
  3
AutoCAD 2000
 90
0
280
0
281
0
  0
ENDSEC
  0
SECTION
  2
TABLES
  0
TABLE
  2
VPORT
  5
8
100
AcDbSymbolTable
 70
2
  0
VPORT
  5
1F4
100
AcDbSymbolTableRecord
100
AcDbViewportTableRecord
  2
*ACTIVE
 70
0
 10
0.0
 20
0.0
 11
1.0
 21
1.0
 12
11.6929133858
 22
8.2677165354
 13
0.0
 23
0.0
 14
1.0
 24
1.0
 15
0.0
 25
0.0
 16
0.0
 26
0.0
 36
1.0
 17
0.0
 27
0.0
 37
0.0
 40
16.5354330709
 41
1.4142857143
 42
50.0
 43
0.0
 44
0.0
 50
0.0
 51
0.0
 71
0
 72
100
 73
1
 74
1
 75
0
 76
0
 77
0
 78
0
  0
ENDTAB
  0
TABLE
  2
LTYPE
  5
5
100
AcDbSymbolTable
 70
6
  0
LTYPE
  5
14
100
AcDbSymbolTableRecord
100
AcDbLinetypeTableRecord
  2
BYBLOCK
 70
0
  3

 72
65
 73
0
 40
0.0
  0
LTYPE
  5
15
100
AcDbSymbolTableRecord
100
AcDbLinetypeTableRecord
  2
BYLAYER
 70
0
  3

 72
65
 73
0
 40
0.0
  0
LTYPE
  5
16
100
AcDbSymbolTableRecord
100
AcDbLinetypeTableRecord
  2
CONTINUOUS
 70
64
  3
Solid line
 72
65
 73
0
 40
0.0
  0
LTYPE
  5
1F5
100
AcDbSymbolTableRecord
100
AcDbLinetypeTableRecord
  2
CENTER
 70
64
  3
____ _ ____ _ ____ _ ____ _ ____ _ ____ _ ____
 72
65
 73
4
 40
0.6
 49
0.375
 74
0
 49
-0.075
 74
0
 49
0.075
 74
0
 49
-0.075
 74
0
  0
LTYPE
  5
1F6
100
AcDbSymbolTableRecord
100
AcDbLinetypeTableRecord
  2
HIDDEN
 70
64
  3
- - - - - - - - - - - - - - - - - - - -
 72
65
 73
2
 40
0.2
 49
0.1
 74
0
 49
-0.1
 74
0
  0
LTYPE
  5
1F7
100
AcDbSymbolTableRecord
100
AcDbLinetypeTableRecord
  2
PHANTOM
 70
64
  3
_____ _ _ _____ _ _ _____ _ _ _____
 72
65
 73
6
 40
0.8
 49
0.45
 74
0
 49
-0.05
 74
0
 49
0.1
 74
0
 49
-0.05
 74
0
 49
0.1
 74
0
 49
-0.05
 74
0
  0
LTYPE
  5
1F8
100
AcDbSymbolTableRecord
100
AcDbLinetypeTableRecord
  2
DOT
 70
64
  3
. . . . . . . . . . . . . . . . . . . .
 72
65
 73
2
 40
0.2
 49
0.1
 74
0
 49
-0.1
 74
0
  0
LTYPE
  5
1F9
100
AcDbSymbolTableRecord
100
AcDbLinetypeTableRecord
  2
DASHED
 70
64
  3
- - - - - - - - - - - - - - - - - - - -
 72
65
 73
2
 40
0.2
 49
0.1
 74
0
 49
-0.1
 74
0
  0
ENDTAB
  0
TABLE
  2
LAYER
  5
2
100
AcDbSymbolTable
 70
36
  0
LAYER
  5
10
100
AcDbSymbolTableRecord
100
AcDbLayerTableRecord
  2
0
 70
0
 62
7
  6
CONTINUOUS
370
-3
390
F
  0
LAYER
  5
1FA
100
AcDbSymbolTableRecord
100
AcDbLayerTableRecord
  2
DEFAULT_1
 70
0
 62
7
  6
CENTER
370
-3
390
F
  0
LAYER
  5
1FB
100
AcDbSymbolTableRecord
100
AcDbLayerTableRecord
  2
DEFAULT_2
 70
0
 62
8
  6
HIDDEN
370
-3
390
F
  0
LAYER
  5
1FC
100
AcDbSymbolTableRecord
100
AcDbLayerTableRecord
  2
DEFAULT_3
 70
0
 62
7
  6
PHANTOM
370
-3
390
F
  0
LAYER
  5
1FD
100
AcDbSymbolTableRecord
100
AcDbLayerTableRecord
  2
3_ALL_SYMBOLS
 70
0
 62
7
  6
CONTINUOUS
370
-3
390
F
  0
LAYER
  5
1FE
100
AcDbSymbolTableRecord
100
AcDbLayerTableRecord
  2
DEFAULT_COORDINATE_SYSTEM
 70
0
 62
7
  6
CONTINUOUS
370
-3
390
F
  0
LAYER
  5
1FF
100
AcDbSymbolTableRecord
100
AcDbLayerTableRecord
  2
DEFAULT_DATUM_AXES
 70
0
 62
7
  6
CONTINUOUS
370
-3
390
F
  0
LAYER
  5
200
100
AcDbSymbolTableRecord
100
AcDbLayerTableRecord
  2
DEFAULT_DATUM_CURVES
 70
0
 62
7
  6
CONTINUOUS
370
-3
390
F
  0
LAYER
  5
201
100
AcDbSymbolTableRecord
100
AcDbLayerTableRecord
  2
DEFAULT_DATUM_PLANES
 70
0
 62
7
  6
CONTINUOUS
370
-3
390
F
  0
ENDTAB
  0
TABLE
  2
STYLE
  5
3
100
AcDbSymbolTable
 70
1
  0
STYLE
  5
11
100
AcDbSymbolTableRecord
100
AcDbTextStyleTableRecord
  2
STANDARD
 70
0
 40
0.0
 41
0.8
 50
0.0
 71
0
 42
0.2
  3
txt
  4

  0
STYLE
  5
202
100
AcDbSymbolTableRecord
100
AcDbTextStyleTableRecord
  2
TEXTSTYLE_1
 70
0
 40
0.0
 41
0.8
 50
0.0
 71
0
 42
0.2
  3
gdt
  4

  0
ENDTAB
  0
TABLE
  2
VIEW
  5
6
100
AcDbSymbolTable
 70
0
  0
ENDTAB
  0
TABLE
  2
UCS
  5
7
100
AcDbSymbolTable
 70
0
  0
ENDTAB
  0
TABLE
  2
APPID
  5
9
100
AcDbSymbolTable
 70
1
  0
APPID
  5
203
100
AcDbSymbolTableRecord
100
AcDbRegAppTableRecord
  2
ACAD
 70
0
  0
ENDTAB
  0
TABLE
  2
BLOCK_RECORD
  5
1
100
AcDbSymbolTable
 70
0
  0
BLOCK_RECORD
  5
204
100
AcDbSymbolTableRecord
100
AcDbBlockTableRecord
  2
*Model_Space
  0
BLOCK_RECORD
  5
205
100
AcDbSymbolTableRecord
100
AcDbBlockTableRecord
  2
*Paper_Space
  0
ENDTAB
  0
TABLE
  2
DIMSTYLE
  5
A
100
AcDbSymbolTable
 70
1
100
AcDbDimStyleTable
 71
0
  0
DIMSTYLE
105
206
100
AcDbSymbolTableRecord
100
AcDbDimStyleTableRecord
  2
STANDARD
 70
0
  3

  4

 40
1.0
 41
0.1
 42
0.0625
 43
0.38
 44
0.18
 45
0.0
 46
0.0
 47
0.01
 48
0.01
140
0.08
141
0.09
142
0.0
143
25.4
144
1.0
145
0.0
146
1.0
147
0.09
 71
1.0
 72
0.0
 73
1
 74
1
 75
0
 76
0
 77
0
 78
4
170
0
171
2
172
0
173
0
174
0
175
0
176
0
177
0
178
0
270
2
271
2
272
2
273
2
274
2
275
0
280
0
281
0
282
0
283
1
284
4
285
0
286
0
287
3
288
0
340
11
  0
ENDTAB
  0
ENDSEC
  0
SECTION
  2
BLOCKS
  0
BLOCK
  5
20
100
AcDbEntity
  8
0
100
AcDbBlockBegin
  2
*Model_Space
 70
0
 10
0.0
 20
0.0
 30
0.0
  3
*Model_Space
  1

  0
ENDBLK
  5
21
100
AcDbEntity
  8
0
100
AcDbBlockEnd
  0
BLOCK
  5
1C
100
AcDbEntity
  8
0
100
AcDbBlockBegin
  2
*Paper_Space
 70
0
 10
0.0
 20
0.0
 30
0.0
  3
*Paper_Space
  1

  0
ENDBLK
  5
1D
100
AcDbEntity
  8
0
100
AcDbBlockEnd
  0
ENDSEC
  0
SECTION
  2
ENTITIES
  0
LINE
  5
207
100
AcDbEntity
  8
0
100
AcDbLine
 62
6
  6
CONTINUOUS
 10
2.47846809
 20
9.2961284151
 11
2.47846809
 21
9.3963414756
  0
LINE
  5
208
100
AcDbEntity
  8
0
100
AcDbLine
 62
6
  6
CONTINUOUS
 10
2.7041273797
 20
9.4690989788
 11
2.6998225588
 21
9.4871899537
  0
LINE
  5
209
100
AcDbEntity
  8
0
100
AcDbLine
 62
6
  6
CONTINUOUS
 10
2.6047078002
 20
9.4909900255
 11
2.6053636269
 21
9.4871899537
  0
LINE
  5
20A
100
AcDbEntity
  8
0
100
AcDbLine
 62
6
  6
CONTINUOUS
 10
4.7015725532
 20
9.4871899537
 11
4.7022337631
 21
9.4909913771
  0
LINE
  5
20B
100
AcDbEntity
  8
0
100
AcDbLine
 62
6
  6
CONTINUOUS
 10
4.6028016714
 20
9.469072672
 11
4.6071136213
 21
9.4871899537
  0
LINE
  5
20C
100
AcDbEntity
  8
0
100
AcDbLine
 62
6
  6
CONTINUOUS
 10
4.82846809
 20
9.2961284151
 11
4.82846809
 21
9.3963414756
  0
LINE
  5
20D
100
AcDbEntity
  8
0
100
AcDbLine
 62
6
  6
CONTINUOUS
 10
2.2842984514
 20
9.5139429714
 11
2.2836985351
 21
9.5134746755
  0
LINE
  5
20E
100
AcDbEntity
  8
0
100
AcDbLine
 62
9
  6
CONTINUOUS
 10
5.40346809
 20
7.9131284151
 11
5.40346809
 21
6.6631284151
  0
LINE
  5
20F
100
AcDbEntity
  8
0
100
AcDbLine
 62
6
  6
CONTINUOUS
 10
5.0232376878
 20
9.5134746016
 11
5.0226377486
 21
9.5139429714
  0
LINE
  5
210
100
AcDbEntity
  8
0
100
AcDbLine
 62
6
  6
CONTINUOUS
 10
5.40346809
 20
6.6631284151
 11
17.90346809
 21
6.6631284151
  0
LINE
  5
211
100
AcDbEntity
  8
0
100
AcDbLine
 62
6
  6
CONTINUOUS
 10
5.40346809
 20
7.9131284151
 11
17.90346809
 21
7.9131284151
  0
LINE
  5
212
100
AcDbEntity
  8
0
100
AcDbLine
 62
6
  6
CONTINUOUS
 10
19.5868563353
 20
9.4274106857
 11
19.5865162865
 21
9.4273867688
  0
LINE
  5
213
100
AcDbEntity
  8
0
100
AcDbLine
 62
7
  6
CONTINUOUS
 10
4.27846809
 20
9.0381284151
 11
3.02846809
 21
9.0381284151
  0
LINE
  5
214
100
AcDbEntity
  8
0
100
AcDbLine
 62
7
  6
CONTINUOUS
 10
19.02846809
 20
9.0381284151
 11
20.27846809
 21
9.0381284151
  0
LINE
  5
215
100
AcDbEntity
  8
0
100
AcDbLine
 62
9
  6
CONTINUOUS
 10
2.6974704513
 20
9.0771284151
 11
4.6094657288
 21
9.0771284151
  0
LINE
  5
216
100
AcDbEntity
  8
0
100
AcDbLine
 62
9
  6
CONTINUOUS
 10
18.6974704513
 20
9.0771284151
 11
20.6094657288
 21
9.0771284151
  0
LINE
  5
217
100
AcDbEntity
  8
0
100
AcDbLine
 62
9
  6
CONTINUOUS
 10
2.47846809
 20
9.2961284151
 11
4.82846809
 21
9.2961284151
  0
LINE
  5
218
100
AcDbEntity
  8
0
100
AcDbLine
 62
9
  6
CONTINUOUS
 10
18.47846809
 20
9.2961284151
 11
20.82846809
 21
9.2961284151
  0
LINE
  5
219
100
AcDbEntity
  8
0
100
AcDbLine
 62
7
  6
CONTINUOUS
 10
2.4373471046
 20
9.3951284151
 11
4.8695890755
 21
9.3951284151
  0
LINE
  5
21A
100
AcDbEntity
  8
0
100
AcDbLine
 62
7
  6
CONTINUOUS
 10
18.4373471046
 20
9.3951284151
 11
20.8695890755
 21
9.3951284151
  0
LINE
  5
21B
100
AcDbEntity
  8
0
100
AcDbLine
 62
7
  6
CONTINUOUS
 10
2.43596809
 20
9.3963414756
 11
4.87096809
 21
9.3963414756
  0
LINE
  5
21C
100
AcDbEntity
  8
0
100
AcDbLine
 62
7
  6
CONTINUOUS
 10
18.43596809
 20
9.3963414756
 11
20.87096809
 21
9.3963414756
  0
LINE
  5
21D
100
AcDbEntity
  8
0
100
AcDbLine
 62
9
  6
CONTINUOUS
 10
2.848406999
 20
9.4149169008
 11
2.852941022
 21
9.4149169008
  0
LINE
  5
21E
100
AcDbEntity
  8
0
100
AcDbLine
 62
9
  6
CONTINUOUS
 10
2.9520320715
 20
9.4149169008
 11
2.9655021155
 21
9.4149169008
  0
LINE
  5
21F
100
AcDbEntity
  8
0
100
AcDbLine
 62
9
  6
CONTINUOUS
 10
3.0640145011
 20
9.4149169008
 11
3.0844994648
 21
9.4149169008
  0
LINE
  5
220
100
AcDbEntity
  8
0
100
AcDbLine
 62
9
  6
CONTINUOUS
 10
3.1834396658
 20
9.4149169008
 11
3.2096198719
 21
9.4149169008
  0
LINE
  5
221
100
AcDbEntity
  8
0
100
AcDbLine
 62
9
  6
CONTINUOUS
 10
3.3082751233
 20
9.4149169008
 11
3.3384505508
 21
9.4149169008
  0
LINE
  5
222
100
AcDbEntity
  8
0
100
AcDbLine
 62
9
  6
CONTINUOUS
 10
3.437147133
 20
9.4149169008
 11
3.4705095413
 21
9.4149169008
  0
LINE
  5
223
100
AcDbEntity
  8
0
100
AcDbLine
 62
9
  6
CONTINUOUS
 10
3.5691157035
 20
9.4149169008
 11
3.6043270746
 21
9.4149169008
  0
LINE
  5
224
100
AcDbEntity
  8
0
100
AcDbLine
 62
9
  6
CONTINUOUS
 10
3.7027445335
 20
9.4149169008
 11
3.7378446009
 21
9.4149169008
  0
LINE
  5
225
100
AcDbEntity
  8
0
100
AcDbLine
 62
9
  6
CONTINUOUS
 10
3.8365986789
 20
9.4149169008
 11
3.8696448028
 21
9.4149169008
  0
LINE
  5
226
100
AcDbEntity
  8
0
100
AcDbLine
 62
9
  6
CONTINUOUS
 10
3.9684300849
 20
9.4149169008
 11
3.9985831646
 21
9.4149169008
  0
LINE
  5
227
100
AcDbEntity
  8
0
100
AcDbLine
 62
9
  6
CONTINUOUS
 10
4.0973597957
 20
9.4149169008
 11
4.1233778242
 21
9.4149169008
  0
LINE
  5
228
100
AcDbEntity
  8
0
100
AcDbLine
 62
9
  6
CONTINUOUS
 10
4.2226855392
 20
9.4149169008
 11
4.2427440907
 21
9.4149169008
  0
LINE
  5
229
100
AcDbEntity
  8
0
100
AcDbLine
 62
9
  6
CONTINUOUS
 10
4.3413768654
 20
9.4149169008
 11
4.35472575
 21
9.4149169008
  0
LINE
  5
22A
100
AcDbEntity
  8
0
100
AcDbLine
 62
9
  6
CONTINUOUS
 10
4.453932363
 20
9.4149169008
 11
4.4585607719
 21
9.4149169008
  0
LINE
  5
22B
100
AcDbEntity
  8
0
100
AcDbLine
 62
9
  6
CONTINUOUS
 10
18.848406999
 20
9.4149169008
 11
18.852941022
 21
9.4149169008
  0
LINE
  5
22C
100
AcDbEntity
  8
0
100
AcDbLine
 62
9
  6
CONTINUOUS
 10
18.9520320715
 20
9.4149169008
 11
18.9655021155
 21
9.4149169008
  0
LINE
  5
22D
100
AcDbEntity
  8
0
100
AcDbLine
 62
9
  6
CONTINUOUS
 10
19.0640145011
 20
9.4149169008
 11
19.0844994648
 21
9.4149169008
  0
LINE
  5
22E
100
AcDbEntity
  8
0
100
AcDbLine
 62
9
  6
CONTINUOUS
 10
19.1834396658
 20
9.4149169008
 11
19.2096198719
 21
9.4149169008
  0
LINE
  5
22F
100
AcDbEntity
  8
0
100
AcDbLine
 62
9
  6
CONTINUOUS
 10
19.3082751233
 20
9.4149169008
 11
19.3384505508
 21
9.4149169008
  0
LINE
  5
230
100
AcDbEntity
  8
0
100
AcDbLine
 62
9
  6
CONTINUOUS
 10
19.437147133
 20
9.4149169008
 11
19.4705095413
 21
9.4149169008
  0
LINE
  5
231
100
AcDbEntity
  8
0
100
AcDbLine
 62
9
  6
CONTINUOUS
 10
19.5691157035
 20
9.4149169008
 11
19.6043270746
 21
9.4149169008
  0
LINE
  5
232
100
AcDbEntity
  8
0
100
AcDbLine
 62
9
  6
CONTINUOUS
 10
19.7027445335
 20
9.4149169008
 11
19.7378446009
 21
9.4149169008
  0
LINE
  5
233
100
AcDbEntity
  8
0
100
AcDbLine
 62
9
  6
CONTINUOUS
 10
19.8365986789
 20
9.4149169008
 11
19.8696448028
 21
9.4149169008
  0
LINE
  5
234
100
AcDbEntity
  8
0
100
AcDbLine
 62
9
  6
CONTINUOUS
 10
19.9684300849
 20
9.4149169008
 11
19.9985831646
 21
9.4149169008
  0
LINE
  5
235
100
AcDbEntity
  8
0
100
AcDbLine
 62
9
  6
CONTINUOUS
 10
20.0973597957
 20
9.4149169008
 11
20.1233778242
 21
9.4149169008
  0
LINE
  5
236
100
AcDbEntity
  8
0
100
AcDbLine
 62
9
  6
CONTINUOUS
 10
20.2226855392
 20
9.4149169008
 11
20.2427440907
 21
9.4149169008
  0
LINE
  5
237
100
AcDbEntity
  8
0
100
AcDbLine
 62
9
  6
CONTINUOUS
 10
20.3413768654
 20
9.4149169008
 11
20.35472575
 21
9.4149169008
  0
LINE
  5
238
100
AcDbEntity
  8
0
100
AcDbLine
 62
9
  6
CONTINUOUS
 10
20.453932363
 20
9.4149169008
 11
20.4585607719
 21
9.4149169008
  0
LINE
  5
239
100
AcDbEntity
  8
0
100
AcDbLine
 62
9
  6
CONTINUOUS
 10
2.2767572006
 20
9.5139429714
 11
5.0301789795
 21
9.5139429714
  0
LINE
  5
23A
100
AcDbEntity
  8
0
100
AcDbLine
 62
9
  6
CONTINUOUS
 10
18.2767572006
 20
9.5139429714
 11
21.0301789795
 21
9.5139429714
  0
LINE
  5
23B
100
AcDbEntity
  8
0
100
AcDbLine
 62
6
  6
CONTINUOUS
 10
2.2559702148
 20
9.5201284151
 11
5.0509659653
 21
9.5201284151
  0
LINE
  5
23C
100
AcDbEntity
  8
0
100
AcDbLine
 62
6
  6
CONTINUOUS
 10
18.2559702148
 20
9.5201284151
 11
21.0509659653
 21
9.5201284151
  0
LINE
  5
23D
100
AcDbEntity
  8
0
100
AcDbLine
 62
6
  6
CONTINUOUS
 10
3.720021417
 20
9.4274107228
 11
3.7204149706
 21
9.4273866456
  0
LINE
  5
23E
100
AcDbEntity
  8
0
100
AcDbLine
 62
6
  6
CONTINUOUS
 10
3.5868563353
 20
9.4274106857
 11
3.5865162865
 21
9.4273867688
  0
LINE
  5
23F
100
AcDbEntity
  8
0
100
AcDbLine
 62
6
  6
CONTINUOUS
 10
2.2309702528
 20
9.6851284151
 11
5.0759659273
 21
9.6851284151
  0
LINE
  5
240
100
AcDbEntity
  8
0
100
AcDbLine
 62
6
  6
CONTINUOUS
 10
18.2309702528
 20
9.6851284151
 11
21.0759659273
 21
9.6851284151
  0
LINE
  5
241
100
AcDbEntity
  8
0
100
AcDbLine
 62
6
  6
CONTINUOUS
 10
19.720021417
 20
9.4274107228
 11
19.7204149706
 21
9.4273866456
  0
LINE
  5
242
100
AcDbEntity
  8
0
100
AcDbLine
 62
6
  6
CONTINUOUS
 10
18.2842984514
 20
9.5139429714
 11
18.2836985351
 21
9.5134746755
  0
LINE
  5
243
100
AcDbEntity
  8
0
100
AcDbLine
 62
9
  6
CONTINUOUS
 10
17.90346809
 20
7.9131284151
 11
17.90346809
 21
6.6631284151
  0
LINE
  5
244
100
AcDbEntity
  8
0
100
AcDbLine
 62
6
  6
CONTINUOUS
 10
18.47846809
 20
9.2961284151
 11
18.47846809
 21
9.3963414756
  0
LINE
  5
245
100
AcDbEntity
  8
0
100
AcDbLine
 62
6
  6
CONTINUOUS
 10
21.0232376878
 20
9.5134746016
 11
21.0226377486
 21
9.5139429714
  0
LINE
  5
246
100
AcDbEntity
  8
0
100
AcDbLine
 62
6
  6
CONTINUOUS
 10
18.6047078002
 20
9.4909900255
 11
18.6053636269
 21
9.4871899537
  0
LINE
  5
247
100
AcDbEntity
  8
0
100
AcDbLine
 62
6
  6
CONTINUOUS
 10
18.7041273797
 20
9.4690989788
 11
18.6998225588
 21
9.4871899537
  0
LINE
  5
248
100
AcDbEntity
  8
0
100
AcDbLine
 62
6
  6
CONTINUOUS
 10
20.82846809
 20
9.2961284151
 11
20.82846809
 21
9.3963414756
  0
LINE
  5
249
100
AcDbEntity
  8
0
100
AcDbLine
 62
6
  6
CONTINUOUS
 10
20.7015725532
 20
9.4871899537
 11
20.7022337631
 21
9.4909913771
  0
LINE
  5
24A
100
AcDbEntity
  8
0
100
AcDbLine
 62
6
  6
CONTINUOUS
 10
20.6028016714
 20
9.469072672
 11
20.6071136213
 21
9.4871899537
  0
ARC
  5
24B
100
AcDbEntity
  8
0
100
AcDbCircle
 62
6
  6
CONTINUOUS
 10
5.40346809
 20
9.0381284151
 40
2.375
100
AcDbArc
 50
180.0
 51
270.0
  0
ARC
  5
24C
100
AcDbEntity
  8
0
100
AcDbCircle
 62
6
  6
CONTINUOUS
 10
5.40346809
 20
9.0381284151
 40
1.125
100
AcDbArc
 50
180.0
 51
270.0
  0
ARC
  5
24D
100
AcDbEntity
  8
0
100
AcDbCircle
 62
6
  6
CONTINUOUS
 10
1.8343351442
 20
8.8930490475
 40
0.7679870058
100
AcDbArc
 50
52.3038822294
 51
52.7922796395
  0
ARC
  5
24E
100
AcDbEntity
  8
0
100
AcDbCircle
 62
6
  6
CONTINUOUS
 10
5.4033760155
 20
8.9834387609
 40
0.654135625
100
AcDbArc
 50
127.1678357551
 51
127.7318055696
  0
ARC
  5
24F
100
AcDbEntity
  8
0
100
AcDbCircle
 62
6
  6
CONTINUOUS
 10
2.3076906333
 20
9.1584965425
 40
0.392599084
100
AcDbArc
 50
57.1019536901
 51
57.8986267149
  0
ARC
  5
250
100
AcDbEntity
  8
0
100
AcDbCircle
 62
6
  6
CONTINUOUS
 10
4.9955236517
 20
9.164336073
 40
0.3856744853
100
AcDbArc
 50
122.0929627396
 51
122.9232033029
  0
ARC
  5
251
100
AcDbEntity
  8
0
100
AcDbCircle
 62
6
  6
CONTINUOUS
 10
2.424098141
 20
9.2063730041
 40
0.3342384412
100
AcDbArc
 50
57.1580245044
 51
57.6009761953
  0
ARC
  5
252
100
AcDbEntity
  8
0
100
AcDbCircle
 62
6
  6
CONTINUOUS
 10
4.8828157543
 20
9.2064074404
 40
0.3341974232
100
AcDbArc
 50
122.3994373558
 51
122.8419673826
  0
ARC
  5
253
100
AcDbEntity
  8
0
100
AcDbCircle
 62
6
  6
CONTINUOUS
 10
2.69746809
 20
9.2961284151
 40
0.219
100
AcDbArc
 50
180.0
 51
270.0
  0
ARC
  5
254
100
AcDbEntity
  8
0
100
AcDbCircle
 62
6
  6
CONTINUOUS
 10
3.3025491896
 20
9.4541007021
 40
0.0353517938
100
AcDbArc
 50
302.6089727195
 51
303.8793836586
  0
ARC
  5
255
100
AcDbEntity
  8
0
100
AcDbCircle
 62
6
  6
CONTINUOUS
 10
3.303506601
 20
9.4526728472
 40
0.0336326647
100
AcDbArc
 50
303.8812530928
 51
305.8655120409
  0
ARC
  5
256
100
AcDbEntity
  8
0
100
AcDbCircle
 62
6
  6
CONTINUOUS
 10
2.41596809
 20
9.3963414756
 40
0.02
100
AcDbArc
 50
0.0
 51
16.6450317477
  0
ARC
  5
257
100
AcDbEntity
  8
0
100
AcDbCircle
 62
6
  6
CONTINUOUS
 10
2.78796809
 20
9.6851284151
 40
0.557
100
AcDbArc
 50
180.0
 51
197.2312963683
  0
ARC
  5
258
100
AcDbEntity
  8
0
100
AcDbCircle
 62
6
  6
CONTINUOUS
 10
3.2587089883
 20
9.501666854
 40
0.1000003832
100
AcDbArc
 50
224.2650695839
 51
309.3019217797
  0
ARC
  5
259
100
AcDbEntity
  8
0
100
AcDbCircle
 62
6
  6
CONTINUOUS
 10
3.3878677
 20
9.5016666242
 40
0.1000002078
100
AcDbArc
 50
226.1995776278
 51
310.6295293671
  0
ARC
  5
25A
100
AcDbEntity
  8
0
100
AcDbCircle
 62
6
  6
CONTINUOUS
 10
2.7986756625
 20
9.5016666527
 40
0.1000001775
100
AcDbArc
 50
199.0062348775
 51
301.4147720079
  0
ARC
  5
25B
100
AcDbEntity
  8
0
100
AcDbCircle
 62
6
  6
CONTINUOUS
 10
3.5199363959
 20
9.5016665018
 40
0.1000000726
100
AcDbArc
 50
227.3974298521
 51
312.0278152538
  0
ARC
  5
25C
100
AcDbEntity
  8
0
100
AcDbCircle
 62
6
  6
CONTINUOUS
 10
2.4385245677
 20
9.5016664654
 40
0.1000000584
100
AcDbArc
 50
175.386626634
 51
284.1839238205
  0
ARC
  5
25D
100
AcDbEntity
  8
0
100
AcDbCircle
 62
6
  6
CONTINUOUS
 10
2.3760007622
 20
9.5016663487
 40
0.1
100
AcDbArc
 50
172.9482235284
 51
272.4528753393
  0
ARC
  5
25E
100
AcDbEntity
  8
0
100
AcDbCircle
 62
6
  6
CONTINUOUS
 10
2.5471489464
 20
9.5016664524
 40
0.0999999603
100
AcDbArc
 50
179.7250249857
 51
291.2089309961
  0
ARC
  5
25F
100
AcDbEntity
  8
0
100
AcDbCircle
 62
6
  6
CONTINUOUS
 10
2.4864436071
 20
9.5016664117
 40
0.0999999547
100
AcDbArc
 50
177.2862316751
 51
287.877869519
  0
ARC
  5
260
100
AcDbEntity
  8
0
100
AcDbCircle
 62
6
  6
CONTINUOUS
 10
2.6199753016
 20
9.5016663384
 40
0.0999998945
100
AcDbArc
 50
182.702407533
 51
294.8174189291
  0
ARC
  5
261
100
AcDbEntity
  8
0
100
AcDbCircle
 62
6
  6
CONTINUOUS
 10
2.3829984153
 20
9.5016662211
 40
0.0999995711
100
AcDbArc
 50
173.2183790218
 51
275.7034703478
  0
ARC
  5
262
100
AcDbEntity
  8
0
100
AcDbCircle
 62
6
  6
CONTINUOUS
 10
2.7041247414
 20
9.5016659384
 40
0.0999995321
100
AcDbArc
 50
186.1291931059
 51
298.1973984364
  0
ARC
  5
263
100
AcDbEntity
  8
0
100
AcDbCircle
 62
6
  6
CONTINUOUS
 10
3.1338787163
 20
9.5016605058
 40
0.0999932607
100
AcDbArc
 50
221.3810589777
 51
308.8120587015
  0
ARC
  5
264
100
AcDbEntity
  8
0
100
AcDbCircle
 62
6
  6
CONTINUOUS
 10
2.4039165917
 20
9.5016664821
 40
0.1000000876
100
AcDbArc
 50
174.0303513018
 51
280.4700169587
  0
ARC
  5
265
100
AcDbEntity
  8
0
100
AcDbCircle
 62
6
  6
CONTINUOUS
 10
3.0147462194
 20
9.5016487122
 40
0.0999788512
100
AcDbArc
 50
217.1412052635
 51
306.5981246385
  0
ARC
  5
266
100
AcDbEntity
  8
0
100
AcDbCircle
 62
6
  6
CONTINUOUS
 10
2.90261565
 20
9.501627101
 40
0.0999540521
100
AcDbArc
 50
210.6550712619
 51
304.2288004683
  0
ARC
  5
267
100
AcDbEntity
  8
0
100
AcDbCircle
 62
6
  6
CONTINUOUS
 10
3.3879645958
 20
9.5015471423
 40
0.0998464335
100
AcDbArc
 50
310.6319767042
 51
311.3722011328
  0
ARC
  5
268
100
AcDbEntity
  8
0
100
AcDbCircle
 62
6
  6
CONTINUOUS
 10
3.2588248565
 20
9.501518314
 40
0.0998120486
100
AcDbArc
 50
309.3044620104
 51
310.2275878405
  0
ARC
  5
269
100
AcDbEntity
  8
0
100
AcDbCircle
 62
6
  6
CONTINUOUS
 10
2.2622949036
 20
9.5001284151
 40
0.02
100
AcDbArc
 50
43.6877494647
 51
89.9999997183
  0
ARC
  5
26A
100
AcDbEntity
  8
0
100
AcDbCircle
 62
6
  6
CONTINUOUS
 10
4.60946809
 20
9.2961284151
 40
0.219
100
AcDbArc
 50
270.0
 51
360.0
  0
ARC
  5
26B
100
AcDbEntity
  8
0
100
AcDbCircle
 62
6
  6
CONTINUOUS
 10
4.0037643709
 20
9.4531619917
 40
0.0342254444
100
AcDbArc
 50
234.9298617613
 51
237.1383593012
  0
ARC
  5
26C
100
AcDbEntity
  8
0
100
AcDbCircle
 62
6
  6
CONTINUOUS
 10
4.0029785799
 20
9.4520375734
 40
0.0328536664
100
AcDbArc
 50
234.1543661483
 51
234.9247401678
  0
ARC
  5
26D
100
AcDbEntity
  8
0
100
AcDbCircle
 62
6
  6
CONTINUOUS
 10
4.89096809
 20
9.3963414756
 40
0.02
100
AcDbArc
 50
164.0742472202
 51
180.0
  0
ARC
  5
26E
100
AcDbEntity
  8
0
100
AcDbCircle
 62
6
  6
CONTINUOUS
 10
4.51896809
 20
9.6851284151
 40
0.557
100
AcDbArc
 50
342.7687036317
 51
360.0
  0
ARC
  5
26F
100
AcDbEntity
  8
0
100
AcDbCircle
 62
6
  6
CONTINUOUS
 10
4.6026443691
 20
9.5017000211
 40
0.1001696256
100
AcDbArc
 50
351.2307402281
 51
351.6569452551
  0
ARC
  5
270
100
AcDbEntity
  8
0
100
AcDbCircle
 62
6
  6
CONTINUOUS
 10
4.0482271922
 20
9.5016668732
 40
0.1000004012
100
AcDbArc
 50
231.1931244447
 51
315.7353106036
  0
ARC
  5
271
100
AcDbEntity
  8
0
100
AcDbCircle
 62
6
  6
CONTINUOUS
 10
3.9190684849
 20
9.5016668637
 40
0.100000395
100
AcDbArc
 50
229.7848916611
 51
313.8004342227
  0
ARC
  5
272
100
AcDbEntity
  8
0
100
AcDbCircle
 62
6
  6
CONTINUOUS
 10
3.7869998119
 20
9.5016667925
 40
0.1000003388
100
AcDbArc
 50
227.9722541025
 51
312.6022173754
  0
ARC
  5
273
100
AcDbEntity
  8
0
100
AcDbCircle
 62
6
  6
CONTINUOUS
 10
3.6534681384
 20
9.5016666883
 40
0.1000002199
100
AcDbArc
 50
227.9720659609
 51
312.0277786781
  0
ARC
  5
274
100
AcDbEntity
  8
0
100
AcDbCircle
 62
6
  6
CONTINUOUS
 10
4.8684116225
 20
9.5016665317
 40
0.1000000434
100
AcDbArc
 50
256.3255204892
 51
4.6140063539
  0
ARC
  5
275
100
AcDbEntity
  8
0
100
AcDbCircle
 62
6
  6
CONTINUOUS
 10
4.8204924996
 20
9.5016665616
 40
0.1000000412
100
AcDbArc
 50
252.264652913
 51
2.7136933735
  0
ARC
  5
276
100
AcDbEntity
  8
0
100
AcDbCircle
 62
6
  6
CONTINUOUS
 10
4.9309354179
 20
9.5016663487
 40
0.1
100
AcDbArc
 50
266.856951062
 51
7.0517764716
  0
ARC
  5
277
100
AcDbEntity
  8
0
100
AcDbCircle
 62
6
  6
CONTINUOUS
 10
4.7597872
 20
9.5016663866
 40
0.0999999507
100
AcDbArc
 50
248.6987015496
 51
0.2779704326
  0
ARC
  5
278
100
AcDbEntity
  8
0
100
AcDbCircle
 62
6
  6
CONTINUOUS
 10
4.6869610043
 20
9.5016659254
 40
0.0999995295
100
AcDbArc
 50
245.0927190638
 51
357.3043627976
  0
ARC
  5
279
100
AcDbEntity
  8
0
100
AcDbCircle
 62
6
  6
CONTINUOUS
 10
4.5082607794
 20
9.501665844
 40
0.0999994477
100
AcDbArc
 50
238.5779101408
 51
340.9782292534
  0
ARC
  5
27A
100
AcDbEntity
  8
0
100
AcDbCircle
 62
6
  6
CONTINUOUS
 10
4.6028115867
 20
9.5016656694
 40
0.0999992776
100
AcDbArc
 50
241.7090871786
 51
351.2355856835
  0
ARC
  5
27B
100
AcDbEntity
  8
0
100
AcDbCircle
 62
6
  6
CONTINUOUS
 10
4.1730597444
 20
9.5016642305
 40
0.0999976161
100
AcDbArc
 50
231.1949559901
 51
318.6199667938
  0
ARC
  5
27C
100
AcDbEntity
  8
0
100
AcDbCircle
 62
6
  6
CONTINUOUS
 10
4.9239437569
 20
9.5016668152
 40
0.099993546
100
AcDbArc
 50
264.0003979739
 51
6.7816276565
  0
ARC
  5
27D
100
AcDbEntity
  8
0
100
AcDbCircle
 62
6
  6
CONTINUOUS
 10
4.2921946156
 20
9.5016558857
 40
0.0999873915
100
AcDbArc
 50
233.3400393897
 51
322.8590885277
  0
ARC
  5
27E
100
AcDbEntity
  8
0
100
AcDbCircle
 62
6
  6
CONTINUOUS
 10
4.4043372978
 20
9.5016558688
 40
0.0999872822
100
AcDbArc
 50
235.8276389843
 51
329.3442552215
  0
ARC
  5
27F
100
AcDbEntity
  8
0
100
AcDbCircle
 62
6
  6
CONTINUOUS
 10
4.602842936
 20
9.5016720323
 40
0.099969099
100
AcDbArc
 50
351.6563036907
 51
353.8686594496
  0
ARC
  5
280
100
AcDbEntity
  8
0
100
AcDbCircle
 62
6
  6
CONTINUOUS
 10
4.0482095567
 20
9.5016335446
 40
0.0999633922
100
AcDbArc
 50
229.7730579478
 51
230.2373660281
  0
ARC
  5
281
100
AcDbEntity
  8
0
100
AcDbCircle
 62
6
  6
CONTINUOUS
 10
4.9030654912
 20
9.5016707445
 40
0.0999539902
100
AcDbArc
 50
260.2490742133
 51
5.9695818691
  0
ARC
  5
282
100
AcDbEntity
  8
0
100
AcDbCircle
 62
6
  6
CONTINUOUS
 10
3.9189835783
 20
9.5015588008
 40
0.0998630548
100
AcDbArc
 50
228.632104412
 51
229.7820602877
  0
ARC
  5
283
100
AcDbEntity
  8
0
100
AcDbCircle
 62
6
  6
CONTINUOUS
 10
4.0481271675
 20
9.5015342195
 40
0.0998343441
100
AcDbArc
 50
230.2372532457
 51
231.1901469057
  0
ARC
  5
284
100
AcDbEntity
  8
0
100
AcDbCircle
 62
6
  6
CONTINUOUS
 10
4.6100211157
 20
9.5013104833
 40
0.0926339844
100
AcDbArc
 50
350.7684076863
 51
351.2320176298
  0
ARC
  5
285
100
AcDbEntity
  8
0
100
AcDbCircle
 62
6
  6
CONTINUOUS
 10
5.0446412765
 20
9.5001284151
 40
0.02
100
AcDbArc
 50
90.0000002817
 51
136.3122505293
  0
ARC
  5
286
100
AcDbEntity
  8
0
100
AcDbCircle
 62
6
  6
CONTINUOUS
 10
17.90346809
 20
9.0381284151
 40
2.375
100
AcDbArc
 50
270.0
 51
360.0
  0
ARC
  5
287
100
AcDbEntity
  8
0
100
AcDbCircle
 62
6
  6
CONTINUOUS
 10
17.90346809
 20
9.0381284151
 40
1.125
100
AcDbArc
 50
270.0
 51
360.0
  0
ARC
  5
288
100
AcDbEntity
  8
0
100
AcDbCircle
 62
6
  6
CONTINUOUS
 10
17.8343351443
 20
8.8930490476
 40
0.7679870057
100
AcDbArc
 50
52.3038822293
 51
52.7922796396
  0
ARC
  5
289
100
AcDbEntity
  8
0
100
AcDbCircle
 62
6
  6
CONTINUOUS
 10
21.4033760155
 20
8.9834387609
 40
0.6541356249
100
AcDbArc
 50
127.167835755
 51
127.7318055696
  0
ARC
  5
28A
100
AcDbEntity
  8
0
100
AcDbCircle
 62
6
  6
CONTINUOUS
 10
18.3076906334
 20
9.1584965425
 40
0.392599084
100
AcDbArc
 50
57.10195369
 51
57.898626715
  0
ARC
  5
28B
100
AcDbEntity
  8
0
100
AcDbCircle
 62
6
  6
CONTINUOUS
 10
20.9955236517
 20
9.164336073
 40
0.3856744853
100
AcDbArc
 50
122.0929627395
 51
122.9232033029
  0
ARC
  5
28C
100
AcDbEntity
  8
0
100
AcDbCircle
 62
6
  6
CONTINUOUS
 10
18.4240981411
 20
9.2063730042
 40
0.334238441
100
AcDbArc
 50
57.1580245043
 51
57.6009761954
  0
ARC
  5
28D
100
AcDbEntity
  8
0
100
AcDbCircle
 62
6
  6
CONTINUOUS
 10
20.8828157542
 20
9.2064074406
 40
0.334197423
100
AcDbArc
 50
122.3994373557
 51
122.8419673827
  0
ARC
  5
28E
100
AcDbEntity
  8
0
100
AcDbCircle
 62
6
  6
CONTINUOUS
 10
18.69746809
 20
9.2961284151
 40
0.219
100
AcDbArc
 50
180.0
 51
270.0
  0
ARC
  5
28F
100
AcDbEntity
  8
0
100
AcDbCircle
 62
6
  6
CONTINUOUS
 10
19.3025491896
 20
9.4541007022
 40
0.0353517939
100
AcDbArc
 50
302.6089727203
 51
303.8793836577
  0
ARC
  5
290
100
AcDbEntity
  8
0
100
AcDbCircle
 62
6
  6
CONTINUOUS
 10
19.303506601
 20
9.4526728472
 40
0.0336326647
100
AcDbArc
 50
303.8812530924
 51
305.8655120411
  0
ARC
  5
291
100
AcDbEntity
  8
0
100
AcDbCircle
 62
6
  6
CONTINUOUS
 10
18.41596809
 20
9.3963414756
 40
0.02
100
AcDbArc
 50
0.0
 51
16.6450317477
  0
ARC
  5
292
100
AcDbEntity
  8
0
100
AcDbCircle
 62
6
  6
CONTINUOUS
 10
18.78796809
 20
9.6851284151
 40
0.557
100
AcDbArc
 50
180.0
 51
197.2312963683
  0
ARC
  5
293
100
AcDbEntity
  8
0
100
AcDbCircle
 62
6
  6
CONTINUOUS
 10
19.2587089883
 20
9.501666854
 40
0.1000003832
100
AcDbArc
 50
224.2650695839
 51
309.3019217797
  0
ARC
  5
294
100
AcDbEntity
  8
0
100
AcDbCircle
 62
6
  6
CONTINUOUS
 10
19.3878677
 20
9.5016666242
 40
0.1000002078
100
AcDbArc
 50
226.1995776278
 51
310.6295293671
  0
ARC
  5
295
100
AcDbEntity
  8
0
100
AcDbCircle
 62
6
  6
CONTINUOUS
 10
18.7986756625
 20
9.5016666527
 40
0.1000001775
100
AcDbArc
 50
199.0062348773
 51
301.4147720079
  0
ARC
  5
296
100
AcDbEntity
  8
0
100
AcDbCircle
 62
6
  6
CONTINUOUS
 10
19.5199363959
 20
9.5016665018
 40
0.1000000726
100
AcDbArc
 50
227.3974298521
 51
312.0278152538
  0
ARC
  5
297
100
AcDbEntity
  8
0
100
AcDbCircle
 62
6
  6
CONTINUOUS
 10
18.4385245677
 20
9.5016664654
 40
0.1000000584
100
AcDbArc
 50
175.386626634
 51
284.1839238205
  0
ARC
  5
298
100
AcDbEntity
  8
0
100
AcDbCircle
 62
6
  6
CONTINUOUS
 10
18.3760007622
 20
9.5016663487
 40
0.1
100
AcDbArc
 50
172.9482235284
 51
272.4528753393
  0
ARC
  5
299
100
AcDbEntity
  8
0
100
AcDbCircle
 62
6
  6
CONTINUOUS
 10
18.5471489464
 20
9.5016664524
 40
0.0999999603
100
AcDbArc
 50
179.7250249857
 51
291.2089309961
  0
ARC
  5
29A
100
AcDbEntity
  8
0
100
AcDbCircle
 62
6
  6
CONTINUOUS
 10
18.4864436071
 20
9.5016664117
 40
0.0999999547
100
AcDbArc
 50
177.2862316751
 51
287.877869519
  0
ARC
  5
29B
100
AcDbEntity
  8
0
100
AcDbCircle
 62
6
  6
CONTINUOUS
 10
18.6199753016
 20
9.5016663384
 40
0.0999998945
100
AcDbArc
 50
182.7024075319
 51
294.8174189302
  0
ARC
  5
29C
100
AcDbEntity
  8
0
100
AcDbCircle
 62
6
  6
CONTINUOUS
 10
18.3829984153
 20
9.5016662211
 40
0.0999995711
100
AcDbArc
 50
173.2183790218
 51
275.7034703478
  0
ARC
  5
29D
100
AcDbEntity
  8
0
100
AcDbCircle
 62
6
  6
CONTINUOUS
 10
18.7041247414
 20
9.5016659384
 40
0.0999995321
100
AcDbArc
 50
186.1291931058
 51
298.1973984362
  0
ARC
  5
29E
100
AcDbEntity
  8
0
100
AcDbCircle
 62
6
  6
CONTINUOUS
 10
19.1338787163
 20
9.5016605058
 40
0.0999932607
100
AcDbArc
 50
221.3810589777
 51
308.8120587015
  0
ARC
  5
29F
100
AcDbEntity
  8
0
100
AcDbCircle
 62
6
  6
CONTINUOUS
 10
18.4039165917
 20
9.5016664821
 40
0.1000000876
100
AcDbArc
 50
174.0303513018
 51
280.4700169587
  0
ARC
  5
2A0
100
AcDbEntity
  8
0
100
AcDbCircle
 62
6
  6
CONTINUOUS
 10
19.0147462194
 20
9.5016487122
 40
0.0999788512
100
AcDbArc
 50
217.1412052635
 51
306.5981246385
  0
ARC
  5
2A1
100
AcDbEntity
  8
0
100
AcDbCircle
 62
6
  6
CONTINUOUS
 10
18.90261565
 20
9.501627101
 40
0.0999540521
100
AcDbArc
 50
210.6550712619
 51
304.2288004684
  0
ARC
  5
2A2
100
AcDbEntity
  8
0
100
AcDbCircle
 62
6
  6
CONTINUOUS
 10
19.3879645958
 20
9.5015471422
 40
0.0998464335
100
AcDbArc
 50
310.631976704
 51
311.3722011327
  0
ARC
  5
2A3
100
AcDbEntity
  8
0
100
AcDbCircle
 62
6
  6
CONTINUOUS
 10
19.2588248563
 20
9.5015183143
 40
0.0998120489
100
AcDbArc
 50
309.3044620112
 51
310.2275878405
  0
ARC
  5
2A4
100
AcDbEntity
  8
0
100
AcDbCircle
 62
6
  6
CONTINUOUS
 10
18.2622949036
 20
9.5001284151
 40
0.02
100
AcDbArc
 50
43.6877494647
 51
89.9999997183
  0
ARC
  5
2A5
100
AcDbEntity
  8
0
100
AcDbCircle
 62
6
  6
CONTINUOUS
 10
20.60946809
 20
9.2961284151
 40
0.219
100
AcDbArc
 50
270.0
 51
360.0
  0
ARC
  5
2A6
100
AcDbEntity
  8
0
100
AcDbCircle
 62
6
  6
CONTINUOUS
 10
20.0037643709
 20
9.4531619917
 40
0.0342254444
100
AcDbArc
 50
234.9298617614
 51
237.1383593012
  0
ARC
  5
2A7
100
AcDbEntity
  8
0
100
AcDbCircle
 62
6
  6
CONTINUOUS
 10
20.0029785798
 20
9.4520375734
 40
0.0328536664
100
AcDbArc
 50
234.1543661477
 51
234.9247401685
  0
ARC
  5
2A8
100
AcDbEntity
  8
0
100
AcDbCircle
 62
6
  6
CONTINUOUS
 10
20.89096809
 20
9.3963414756
 40
0.02
100
AcDbArc
 50
164.0742472202
 51
180.0
  0
ARC
  5
2A9
100
AcDbEntity
  8
0
100
AcDbCircle
 62
6
  6
CONTINUOUS
 10
20.51896809
 20
9.6851284151
 40
0.557
100
AcDbArc
 50
342.7687036317
 51
360.0
  0
ARC
  5
2AA
100
AcDbEntity
  8
0
100
AcDbCircle
 62
6
  6
CONTINUOUS
 10
20.6026443691
 20
9.5017000211
 40
0.1001696256
100
AcDbArc
 50
351.2307402278
 51
351.6569452548
  0
ARC
  5
2AB
100
AcDbEntity
  8
0
100
AcDbCircle
 62
6
  6
CONTINUOUS
 10
20.0482271922
 20
9.5016668732
 40
0.1000004012
100
AcDbArc
 50
231.1931244447
 51
315.7353106036
  0
ARC
  5
2AC
100
AcDbEntity
  8
0
100
AcDbCircle
 62
6
  6
CONTINUOUS
 10
19.9190684849
 20
9.5016668637
 40
0.100000395
100
AcDbArc
 50
229.7848916611
 51
313.8004342227
  0
ARC
  5
2AD
100
AcDbEntity
  8
0
100
AcDbCircle
 62
6
  6
CONTINUOUS
 10
19.7869998119
 20
9.5016667925
 40
0.1000003388
100
AcDbArc
 50
227.9722541025
 51
312.6022173754
  0
ARC
  5
2AE
100
AcDbEntity
  8
0
100
AcDbCircle
 62
6
  6
CONTINUOUS
 10
19.6534681384
 20
9.5016666883
 40
0.1000002199
100
AcDbArc
 50
227.9720659609
 51
312.0277786781
  0
ARC
  5
2AF
100
AcDbEntity
  8
0
100
AcDbCircle
 62
6
  6
CONTINUOUS
 10
20.8684116225
 20
9.5016665317
 40
0.1000000434
100
AcDbArc
 50
256.3255204892
 51
4.6140063539
  0
ARC
  5
2B0
100
AcDbEntity
  8
0
100
AcDbCircle
 62
6
  6
CONTINUOUS
 10
20.8204924996
 20
9.5016665616
 40
0.1000000412
100
AcDbArc
 50
252.264652913
 51
2.7136933735
  0
ARC
  5
2B1
100
AcDbEntity
  8
0
100
AcDbCircle
 62
6
  6
CONTINUOUS
 10
20.9309354179
 20
9.5016663487
 40
0.1
100
AcDbArc
 50
266.856951062
 51
7.0517764716
  0
ARC
  5
2B2
100
AcDbEntity
  8
0
100
AcDbCircle
 62
6
  6
CONTINUOUS
 10
20.7597872
 20
9.5016663866
 40
0.0999999507
100
AcDbArc
 50
248.6987015496
 51
0.2779704326
  0
ARC
  5
2B3
100
AcDbEntity
  8
0
100
AcDbCircle
 62
6
  6
CONTINUOUS
 10
20.6869610043
 20
9.5016659254
 40
0.0999995295
100
AcDbArc
 50
245.0927190615
 51
357.3043627991
  0
ARC
  5
2B4
100
AcDbEntity
  8
0
100
AcDbCircle
 62
6
  6
CONTINUOUS
 10
20.5082607794
 20
9.501665844
 40
0.0999994477
100
AcDbArc
 50
238.5779101408
 51
340.9782292534
  0
ARC
  5
2B5
100
AcDbEntity
  8
0
100
AcDbCircle
 62
6
  6
CONTINUOUS
 10
20.6028115867
 20
9.5016656694
 40
0.0999992776
100
AcDbArc
 50
241.7090871784
 51
351.2355856835
  0
ARC
  5
2B6
100
AcDbEntity
  8
0
100
AcDbCircle
 62
6
  6
CONTINUOUS
 10
20.1730597444
 20
9.5016642305
 40
0.0999976161
100
AcDbArc
 50
231.1949559901
 51
318.6199667938
  0
ARC
  5
2B7
100
AcDbEntity
  8
0
100
AcDbCircle
 62
6
  6
CONTINUOUS
 10
20.9239437569
 20
9.5016668152
 40
0.099993546
100
AcDbArc
 50
264.0003979739
 51
6.7816276563
  0
ARC
  5
2B8
100
AcDbEntity
  8
0
100
AcDbCircle
 62
6
  6
CONTINUOUS
 10
20.2921946156
 20
9.5016558857
 40
0.0999873915
100
AcDbArc
 50
233.3400393897
 51
322.8590885277
  0
ARC
  5
2B9
100
AcDbEntity
  8
0
100
AcDbCircle
 62
6
  6
CONTINUOUS
 10
20.4043372978
 20
9.5016558688
 40
0.0999872822
100
AcDbArc
 50
235.8276389843
 51
329.3442552215
  0
ARC
  5
2BA
100
AcDbEntity
  8
0
100
AcDbCircle
 62
6
  6
CONTINUOUS
 10
20.602842936
 20
9.5016720323
 40
0.099969099
100
AcDbArc
 50
351.6563036909
 51
353.8686594495
  0
ARC
  5
2BB
100
AcDbEntity
  8
0
100
AcDbCircle
 62
6
  6
CONTINUOUS
 10
20.0482095567
 20
9.5016335445
 40
0.0999633922
100
AcDbArc
 50
229.7730579476
 51
230.2373660281
  0
ARC
  5
2BC
100
AcDbEntity
  8
0
100
AcDbCircle
 62
6
  6
CONTINUOUS
 10
20.9030654913
 20
9.5016707446
 40
0.0999539902
100
AcDbArc
 50
260.2490742133
 51
5.9695818693
  0
ARC
  5
2BD
100
AcDbEntity
  8
0
100
AcDbCircle
 62
6
  6
CONTINUOUS
 10
19.9189835783
 20
9.5015588007
 40
0.0998630547
100
AcDbArc
 50
228.6321044118
 51
229.7820602878
  0
ARC
  5
2BE
100
AcDbEntity
  8
0
100
AcDbCircle
 62
6
  6
CONTINUOUS
 10
20.0481271675
 20
9.5015342195
 40
0.0998343441
100
AcDbArc
 50
230.2372532458
 51
231.1901469055
  0
ARC
  5
2BF
100
AcDbEntity
  8
0
100
AcDbCircle
 62
6
  6
CONTINUOUS
 10
20.6100211157
 20
9.5013104833
 40
0.0926339844
100
AcDbArc
 50
350.7684076862
 51
351.2320176295
  0
ARC
  5
2C0
100
AcDbEntity
  8
0
100
AcDbCircle
 62
6
  6
CONTINUOUS
 10
21.0446412765
 20
9.5001284151
 40
0.02
100
AcDbArc
 50
90.0000002817
 51
136.3122505293
  0
SPLINE
  5
2C1
100
AcDbEntity
  8
0
100
AcDbSpline
 62
6
  6
CONTINUOUS
 70
0
 71
3
 72
9
 73
5
 74
3
 42
0.0000001
 43
0.0000001
 44
0.0000000001
 12
0.0037370768
 22
0.0093557934
 32
0.0
 13
0.0004830659
 23
0.0100629648
 33
0.0
 40
0.0
 40
0.0
 40
0.0
 40
0.0
 40
0.5267687501
 40
1.0
 40
1.0
 40
1.0
 40
1.0
 10
20.7845482333
 20
9.4871899537
 30
0.0
 10
20.785204425
 20
9.4888327335
 30
0.0
 10
20.7862556705
 20
9.4920352632
 30
0.0
 10
20.7867739868
 20
9.4953755347
 30
0.0
 10
20.7868501875
 20
9.4969629045
 30
0.0
 11
20.7845482333
 21
9.4871899537
 31
0.0
 11
20.7861640715
 21
9.49224494
 31
0.0
 11
20.7868501875
 21
9.4969629045
 31
0.0
  0
SPLINE
  5
2C2
100
AcDbEntity
  8
0
100
AcDbSpline
 62
6
  6
CONTINUOUS
 70
0
 71
3
 72
9
 73
5
 74
3
 42
0.0000001
 43
0.0000001
 44
0.0000000001
 12
0.0040886425
 22
0.0008654756
 32
0.0
 13
0.0030169874
 23
0.0028920291
 33
0.0
 40
0.0
 40
0.0
 40
0.0
 40
0.0
 40
0.4639213812
 40
1.0
 40
1.0
 40
1.0
 40
1.0
 10
19.9847036118
 20
9.427413817
 30
0.0
 10
19.9853358813
 20
9.4275476546
 30
0.0
 10
19.9866473375
 20
9.4280947014
 30
0.0
 10
19.9877444814
 20
9.428974462
 30
0.0
 10
19.9882835955
 20
9.429491247
 30
0.0
 11
19.9847036118
 21
9.427413817
 31
0.0
 11
19.9865065815
 21
9.4281268357
 31
0.0
 11
19.9882835955
 21
9.429491247
 31
0.0
  0
SPLINE
  5
2C3
100
AcDbEntity
  8
0
100
AcDbSpline
 62
6
  6
CONTINUOUS
 70
0
 71
3
 72
9
 73
5
 74
3
 42
0.0000001
 43
0.0000001
 44
0.0000000001
 12
-0.0040884589
 22
0.0008654367
 32
0.0
 13
-0.0030168971
 23
0.0028918522
 33
0.0
 40
0.0
 40
0.0
 40
0.0
 40
0.0
 40
0.4639231891
 40
1.0
 40
1.0
 40
1.0
 40
1.0
 10
19.3222325683
 20
9.427413817
 30
0.0
 10
19.3216003247
 20
9.4275476491
 30
0.0
 10
19.3202889249
 20
9.4280946605
 30
0.0
 10
19.3191918172
 20
9.4289743646
 30
0.0
 10
19.318652721
 20
9.4294911163
 30
0.0
 11
19.3222325683
 21
9.427413817
 31
0.0
 11
19.3204296681
 21
9.4281267953
 31
0.0
 11
19.318652721
 21
9.4294911163
 31
0.0
  0
SPLINE
  5
2C4
100
AcDbEntity
  8
0
100
AcDbSpline
 62
6
  6
CONTINUOUS
 70
0
 71
3
 72
9
 73
5
 74
3
 42
0.0000001
 43
0.0000001
 44
0.0000000001
 12
0.0037370768
 22
0.0093557934
 32
0.0
 13
0.0004830659
 23
0.0100629648
 33
0.0
 40
0.0
 40
0.0
 40
0.0
 40
0.0
 40
0.5267687501
 40
1.0
 40
1.0
 40
1.0
 40
1.0
 10
4.7845482333
 20
9.4871899537
 30
0.0
 10
4.785204425
 20
9.4888327335
 30
0.0
 10
4.7862556705
 20
9.4920352632
 30
0.0
 10
4.7867739868
 20
9.4953755347
 30
0.0
 10
4.7868501875
 20
9.4969629045
 30
0.0
 11
4.7845482333
 21
9.4871899537
 31
0.0
 11
4.7861640715
 21
9.49224494
 31
0.0
 11
4.7868501875
 21
9.4969629045
 31
0.0
  0
SPLINE
  5
2C5
100
AcDbEntity
  8
0
100
AcDbSpline
 62
6
  6
CONTINUOUS
 70
0
 71
3
 72
9
 73
5
 74
3
 42
0.0000001
 43
0.0000001
 44
0.0000000001
 12
0.0040886425
 22
0.0008654756
 32
0.0
 13
0.0030169874
 23
0.0028920291
 33
0.0
 40
0.0
 40
0.0
 40
0.0
 40
0.0
 40
0.4639213812
 40
1.0
 40
1.0
 40
1.0
 40
1.0
 10
3.9847036118
 20
9.427413817
 30
0.0
 10
3.9853358813
 20
9.4275476546
 30
0.0
 10
3.9866473375
 20
9.4280947014
 30
0.0
 10
3.9877444814
 20
9.428974462
 30
0.0
 10
3.9882835955
 20
9.429491247
 30
0.0
 11
3.9847036118
 21
9.427413817
 31
0.0
 11
3.9865065815
 21
9.4281268357
 31
0.0
 11
3.9882835955
 21
9.429491247
 31
0.0
  0
SPLINE
  5
2C6
100
AcDbEntity
  8
0
100
AcDbSpline
 62
6
  6
CONTINUOUS
 70
0
 71
3
 72
9
 73
5
 74
3
 42
0.0000001
 43
0.0000001
 44
0.0000000001
 12
-0.0040884589
 22
0.0008654367
 32
0.0
 13
-0.0030168971
 23
0.0028918522
 33
0.0
 40
0.0
 40
0.0
 40
0.0
 40
0.0
 40
0.4639231891
 40
1.0
 40
1.0
 40
1.0
 40
1.0
 10
3.3222325683
 20
9.427413817
 30
0.0
 10
3.3216003247
 20
9.4275476491
 30
0.0
 10
3.3202889249
 20
9.4280946605
 30
0.0
 10
3.3191918172
 20
9.4289743646
 30
0.0
 10
3.318652721
 20
9.4294911163
 30
0.0
 11
3.3222325683
 21
9.427413817
 31
0.0
 11
3.3204296681
 21
9.4281267953
 31
0.0
 11
3.318652721
 21
9.4294911163
 31
0.0
  0
LINE
  5
2C7
100
AcDbEntity
  8
0
100
AcDbLine
 62
6
  6
CONTINUOUS
 10
2.2836984962
 20
9.5134747153
 11
2.2840510685
 21
9.5121409535
  0
LINE
  5
2C8
100
AcDbEntity
  8
0
100
AcDbLine
 62
6
  6
CONTINUOUS
 10
19.8536722583
 20
9.427413817
 11
19.854690467
 21
9.4280595721
  0
LINE
  5
2C9
100
AcDbEntity
  8
0
100
AcDbLine
 62
6
  6
CONTINUOUS
 10
19.4532639218
 20
9.427413817
 11
19.4522454197
 21
9.428059842
  0
SPLINE
  5
2CA
100
AcDbEntity
  8
0
100
AcDbSpline
 62
6
  6
CONTINUOUS
 70
0
 71
3
 72
9
 73
5
 74
3
 42
0.0000001
 43
0.0000001
 44
0.0000000001
 12
0.0004876329
 22
-0.0100513594
 32
0.0
 13
0.0037328585
 23
-0.009345233
 33
0.0
 40
0.0
 40
0.0
 40
0.0
 40
0.0
 40
0.4732715903
 40
1.0
 40
1.0
 40
1.0
 40
1.0
 10
18.5200865411
 20
9.4969515019
 30
0.0
 10
18.5201634687
 20
9.4953658276
 30
0.0
 10
18.5206823223
 20
9.4920295756
 30
0.0
 10
18.521732546
 20
9.4888307536
 30
0.0
 10
18.5223879468
 20
9.4871899537
 30
0.0
 11
18.5200865411
 21
9.4969515019
 31
0.0
 11
18.5207736055
 21
9.4922387034
 31
0.0
 11
18.5223879468
 21
9.4871899537
 31
0.0
  0
LINE
  5
2CB
100
AcDbEntity
  8
0
100
AcDbLine
 62
6
  6
CONTINUOUS
 10
18.2836984962
 20
9.5134747153
 11
18.2840510685
 21
9.5121409535
  0
LINE
  5
2CC
100
AcDbEntity
  8
0
100
AcDbLine
 62
6
  6
CONTINUOUS
 10
3.8536722583
 20
9.427413817
 11
3.854690467
 21
9.4280595721
  0
LINE
  5
2CD
100
AcDbEntity
  8
0
100
AcDbLine
 62
6
  6
CONTINUOUS
 10
3.4532639218
 20
9.427413817
 11
3.4522454197
 21
9.428059842
  0
SPLINE
  5
2CE
100
AcDbEntity
  8
0
100
AcDbSpline
 62
6
  6
CONTINUOUS
 70
0
 71
3
 72
9
 73
5
 74
3
 42
0.0000001
 43
0.0000001
 44
0.0000000001
 12
0.0004876329
 22
-0.0100513594
 32
0.0
 13
0.0037328585
 23
-0.009345233
 33
0.0
 40
0.0
 40
0.0
 40
0.0
 40
0.0
 40
0.4732715903
 40
1.0
 40
1.0
 40
1.0
 40
1.0
 10
2.5200865411
 20
9.4969515019
 30
0.0
 10
2.5201634687
 20
9.4953658276
 30
0.0
 10
2.5206823223
 20
9.4920295756
 30
0.0
 10
2.521732546
 20
9.4888307536
 30
0.0
 10
2.5223879468
 20
9.4871899537
 30
0.0
 11
2.5200865411
 21
9.4969515019
 31
0.0
 11
2.5207736055
 21
9.4922387034
 31
0.0
 11
2.5223879468
 21
9.4871899537
 31
0.0
  0
SPLINE
  5
2CF
100
AcDbEntity
  8
0
100
AcDbSpline
 62
6
  6
CONTINUOUS
 70
0
 71
3
 72
17
 73
13
 74
11
 42
0.0000001
 43
0.0000001
 44
0.0000000001
 12
-0.0172597453
 22
0.0000004317
 32
0.0
 13
-0.0137577498
 23
-0.0104222419
 33
0.0
 40
0.0
 40
0.0
 40
0.0
 40
0.0
 40
0.0203101211
 40
0.0458936527
 40
0.0770918032
 40
0.114068012
 40
0.2055456293
 40
0.3203426362
 40
0.4579991973
 40
0.6177924383
 40
0.7988056734
 40
1.0
 40
1.0
 40
1.0
 40
1.0
 10
5.0226368072
 20
9.5139429714
 30
0.0
 10
5.0225199581
 20
9.5139429743
 30
0.0
 10
5.0222562328
 20
9.5139080657
 30
0.0
 10
5.0218286085
 20
9.5137881829
 30
0.0
 10
5.0213243991
 20
9.5135947098
 30
0.0
 10
5.0204899602
 20
9.5132098285
 30
0.0
 10
5.0192643709
 20
9.5125310456
 30
0.0
 10
5.0175856643
 20
9.5114829128
 30
0.0
 10
5.015618676
 20
9.5101569793
 30
0.0
 10
5.0133729711
 20
9.5085647994
 30
0.0
 10
5.0108590847
 20
9.5067196432
 30
0.0
 10
5.0091014148
 20
9.5053982568
 30
0.0
 10
5.0081787544
 20
9.5046992914
 30
0.0
 11
5.0226368072
 21
9.5139429714
 31
0.0
 11
5.0222883292
 21
9.5139049364
 31
0.0
 11
5.0218617025
 21
9.5137910529
 31
0.0
 11
5.0213576305
 21
9.5136016759
 31
0.0
 11
5.0207768215
 21
9.5133371763
 31
0.0
 11
5.0193882498
 21
9.5125856898
 31
0.0
 11
5.0177029591
 21
9.5115437632
 31
0.0
 11
5.0157292552
 21
9.5102210859
 31
0.0
 11
5.0134767211
 21
9.5086296707
 31
0.0
 11
5.0109560679
 21
9.506783811
 31
0.0
 11
5.0081787544
 21
9.5046992914
 31
0.0
  0
SPLINE
  5
2D0
100
AcDbEntity
  8
0
100
AcDbSpline
 62
6
  6
CONTINUOUS
 70
0
 71
3
 72
18
 73
14
 74
12
 42
0.0000001
 43
0.0000001
 44
0.0000000001
 12
-0.0370537664
 22
0.0000005165
 32
0.0
 13
-0.0302482752
 23
-0.0214014824
 33
0.0
 40
0.0
 40
0.0
 40
0.0
 40
0.0
 40
0.0261171294
 40
0.057054331
 40
0.0930635313
 40
0.1342547225
 40
0.1806515997
 40
0.2322186594
 40
0.3504557046
 40
0.487902009
 40
0.643120868
 40
0.814437013
 40
1.0
 40
1.0
 40
1.0
 40
1.0
 10
5.0000936485
 20
9.5139429714
 30
0.0
 10
4.9997710692
 20
9.5139429759
 30
0.0
 10
4.9990663728
 20
9.5138762384
 30
0.0
 10
4.9979418767
 20
9.5136305462
 30
0.0
 10
4.9966656995
 20
9.5132318345
 30
0.0
 10
4.995240856
 20
9.5126817002
 30
0.0
 10
4.9936701596
 20
9.5119824288
 30
0.0
 10
4.9912755197
 20
9.5107994766
 30
0.0
 10
4.9879576881
 20
9.5089531909
 30
0.0
 10
4.9836276252
 20
9.5063044871
 30
0.0
 10
4.9788265548
 20
9.5031742913
 30
0.0
 10
4.9735980181
 20
9.4996145254
 30
0.0
 10
4.9699886537
 20
9.4970840991
 30
0.0
 10
4.9681176669
 20
9.4957603247
 30
0.0
 11
5.0000936485
 21
9.5139429714
 31
0.0
 11
4.9991291137
 21
9.5138642982
 31
0.0
 11
4.9980071893
 21
9.5136289675
 31
0.0
 11
4.9967314448
 21
9.5132381096
 31
0.0
 11
4.9953055312
 21
9.5126937497
 31
0.0
 11
4.9937331624
 21
9.5119986
 31
0.0
 11
4.9920183019
 21
9.5111558464
 31
0.0
 11
4.988179363
 21
9.5090447261
 31
0.0
 11
4.9838272009
 21
9.5063996649
 31
0.0
 11
4.979003269
 21
9.5032677675
 31
0.0
 11
4.9737514019
 21
9.4997021213
 31
0.0
 11
4.9681176669
 21
9.4957603247
 31
0.0
  0
SPLINE
  5
2D1
100
AcDbEntity
  8
0
100
AcDbSpline
 62
6
  6
CONTINUOUS
 70
0
 71
3
 72
19
 73
15
 74
13
 42
0.0000001
 43
0.0000001
 44
0.0000000001
 12
-0.048620457
 22
0.0000004114
 32
0.0
 13
-0.0403253662
 23
-0.0271627258
 33
0.0
 40
0.0
 40
0.0
 40
0.0
 40
0.0
 40
0.0319402179
 40
0.0681206283
 40
0.1086974631
 40
0.1537326061
 40
0.2032225577
 40
0.25710005
 40
0.3775205892
 40
0.4437567385
 40
0.5137545697
 40
0.6641671293
 40
0.8269014757
 40
1.0
 40
1.0
 40
1.0
 40
1.0
 10
4.9627967523
 20
9.5139429714
 30
0.0
 10
4.962279103
 20
9.5139429758
 30
0.0
 10
4.9611747593
 20
9.5138660253
 30
0.0
 10
4.9594365083
 20
9.5135679483
 30
0.0
 10
4.9575217373
 20
9.5130816212
 30
0.0
 10
4.9554364599
 20
9.5124102581
 30
0.0
 10
4.9531867254
 20
9.5115573083
 30
0.0
 10
4.949851474
 20
9.5101303083
 30
0.0
 10
4.9463517599
 20
9.5084068696
 30
0.0
 10
4.9426868362
 20
9.5064394287
 30
0.0
 10
4.9386408575
 20
9.5041557337
 30
0.0
 10
4.9333174796
 20
9.5009567146
 30
0.0
 10
4.9266697585
 20
9.4967236442
 30
0.0
 10
4.9221350677
 20
9.4937130712
 30
0.0
 10
4.9198083139
 20
9.4921457953
 30
0.0
 11
4.9627967523
 21
9.5139429714
 31
0.0
 11
4.9612467935
 21
9.5138466641
 31
0.0
 11
4.9595114197
 21
9.5135586729
 31
0.0
 11
4.9575973438
 21
9.5130806489
 31
0.0
 11
4.9555111234
 21
9.5124156974
 31
0.0
 11
4.9532593061
 21
9.5115676212
 31
0.0
 11
4.9508490997
 21
9.5105414934
 31
0.0
 11
4.9455843784
 21
9.5079797395
 31
0.0
 11
4.9427458564
 21
9.5064585643
 31
0.0
 11
4.9397808129
 21
9.5047878912
 31
0.0
 11
4.9335047432
 21
9.5010338558
 31
0.0
 11
4.9268247569
 21
9.4967934572
 31
0.0
 11
4.9198083139
 21
9.4921457953
 31
0.0
  0
SPLINE
  5
2D2
100
AcDbEntity
  8
0
100
AcDbSpline
 62
6
  6
CONTINUOUS
 70
0
 71
3
 72
17
 73
13
 74
11
 42
0.0000001
 43
0.0000001
 44
0.0000000001
 12
-0.0583320166
 22
0.000000375
 32
0.0
 13
-0.0487771445
 23
-0.0319908477
 33
0.0
 40
0.0
 40
0.0
 40
0.0
 40
0.0
 40
0.0367829418
 40
0.0773282945
 40
0.1217139214
 40
0.1699562744
 40
0.2777845438
 40
0.3999649839
 40
0.5350949948
 40
0.6814482609
 40
0.8370838901
 40
1.0
 40
1.0
 40
1.0
 40
1.0
 10
4.9111544899
 20
9.5139429714
 30
0.0
 10
4.9104392822
 20
9.513942976
 30
0.0
 10
4.9089352314
 20
9.513858918
 30
0.0
 10
4.90659039
 20
9.5135231225
 30
0.0
 10
4.9040580123
 20
9.5129735205
 30
0.0
 10
4.9003032093
 20
9.511921164
 30
0.0
 10
4.8952139419
 20
9.5100629165
 30
0.0
 10
4.8887308892
 20
9.5071593681
 30
0.0
 10
4.8817467245
 20
9.5035715299
 30
0.0
 10
4.874349573
 20
9.4993822025
 30
0.0
 10
4.8666268173
 20
9.494681764
 30
0.0
 10
4.8614155899
 20
9.4913329602
 30
0.0
 10
4.858766729
 20
9.4895956854
 30
0.0
 11
4.9111544899
 21
9.5139429714
 31
0.0
 11
4.9090116481
 21
9.5138337559
 31
0.0
 11
4.9066692036
 21
9.5135072369
 31
0.0
 11
4.9041373986
 21
9.5129655557
 31
0.0
 11
4.9014259075
 21
9.5122126766
 31
0.0
 11
4.8955034982
 21
9.5100943847
 31
0.0
 11
4.8889870964
 21
9.5072080228
 31
0.0
 11
4.8819655221
 21
9.5036261491
 31
0.0
 11
4.8745287156
 21
9.4994338152
 31
0.0
 11
4.866766945
 21
9.4947248016
 31
0.0
 11
4.858766729
 21
9.4895956854
 31
0.0
  0
SPLINE
  5
2D3
100
AcDbEntity
  8
0
100
AcDbSpline
 62
6
  6
CONTINUOUS
 70
0
 71
3
 72
15
 73
11
 74
9
 42
0.0000001
 43
0.0000001
 44
0.0000000001
 12
-0.0602799229
 22
0.0000003124
 32
0.0
 13
-0.0510706704
 23
-0.0320227376
 33
0.0
 40
0.0
 40
0.0
 40
0.0
 40
0.0
 40
0.0864429541
 40
0.1855334286
 40
0.2970155614
 40
0.4200564273
 40
0.5534346022
 40
0.6956684791
 40
0.8450963408
 40
1.0
 40
1.0
 40
1.0
 40
1.0
 10
4.8457327697
 20
9.5139429714
 30
0.0
 10
4.8439958448
 20
9.5139429804
 30
0.0
 10
4.8402667359
 20
9.5136123387
 30
0.0
 10
4.834421304
 20
9.512363268
 30
0.0
 10
4.8280165094
 20
9.5103582887
 30
0.0
 10
4.821135225
 20
9.5076441125
 30
0.0
 10
4.8138609513
 20
9.5042817294
 30
0.0
 10
4.8062797855
 20
9.50034385
 30
0.0
 10
4.79847616
 20
9.4959112847
 30
0.0
 10
4.7932539189
 20
9.4927280335
 30
0.0
 10
4.7906169077
 20
9.4910745538
 30
0.0
 11
4.8457327697
 21
9.5139429714
 31
0.0
 11
4.8405378119
 21
9.5135372797
 31
0.0
 11
4.8346876686
 21
9.5123312376
 31
0.0
 11
4.8282646002
 21
9.5103552825
 31
0.0
 11
4.821355559
 21
9.5076579758
 31
0.0
 11
4.8140490564
 21
9.5043028245
 31
0.0
 11
4.8064331814
 21
9.5003646393
 31
0.0
 11
4.7985949637
 21
9.4959264642
 31
0.0
 11
4.7906169077
 21
9.4910745538
 31
0.0
  0
SPLINE
  5
2D4
100
AcDbEntity
  8
0
100
AcDbSpline
 62
6
  6
CONTINUOUS
 70
0
 71
3
 72
15
 73
11
 74
9
 42
0.0000001
 43
0.0000001
 44
0.0000000001
 12
-0.0691322593
 22
0.0000003075
 32
0.0
 13
-0.0583714667
 23
-0.0370410738
 33
0.0
 40
0.0
 40
0.0
 40
0.0
 40
0.0
 40
0.0929103276
 40
0.1970491052
 40
0.3118730217
 40
0.4363396716
 40
0.5690607906
 40
0.7084214718
 40
0.85266681
 40
1.0
 40
1.0
 40
1.0
 40
1.0
 10
4.7672483131
 20
9.5139429714
 30
0.0
 10
4.7651072795
 20
9.5139429809
 30
0.0
 10
4.7605644648
 20
9.5135817476
 30
0.0
 10
4.7535035912
 20
9.5121842019
 30
0.0
 10
4.7459049533
 20
9.509939176
 30
0.0
 10
4.7378800436
 20
9.5069064053
 30
0.0
 10
4.7295388886
 20
9.5031628253
 30
0.0
 10
4.7209912248
 20
9.4987988311
 30
0.0
 10
4.7123425899
 20
9.4939135798
 30
0.0
 10
4.7066132759
 20
9.4904005425
 30
0.0
 10
4.7037465911
 20
9.488581416
 30
0.0
 11
4.7672483131
 21
9.5139429714
 31
0.0
 11
4.7608414648
 21
9.5134863315
 31
0.0
 11
4.7537709851
 21
9.5121302557
 31
0.0
 11
4.7461488366
 21
9.5099132125
 31
0.0
 11
4.7380904691
 21
9.5068961114
 31
0.0
 11
4.7297111298
 21
9.5031580635
 31
0.0
 11
4.7211231402
 21
9.4987915396
 31
0.0
 11
4.7124345293
 21
9.4938977734
 31
0.0
 11
4.7037465911
 21
9.488581416
 31
0.0
  0
SPLINE
  5
2D5
100
AcDbEntity
  8
0
100
AcDbSpline
 62
6
  6
CONTINUOUS
 70
0
 71
3
 72
15
 73
11
 74
9
 42
0.0000001
 43
0.0000001
 44
0.0000000001
 12
0.0037730369
 22
0.0477565004
 32
0.0
 13
-0.0479053143
 23
-0.0000001702
 33
0.0
 40
0.0
 40
0.0
 40
0.0
 40
0.0
 40
0.1162831617
 40
0.2272699333
 40
0.3368631225
 40
0.4494562746
 40
0.5692385687
 40
0.6995976637
 40
0.8428072534
 40
1.0
 40
1.0
 40
1.0
 40
1.0
 10
4.6071136213
 20
9.4871899537
 30
0.0
 10
4.6072598682
 20
9.489041046
 30
0.0
 10
4.607190609
 20
9.4927026928
 30
0.0
 10
4.6058461071
 20
9.4979638636
 30
0.0
 10
4.6032640697
 20
9.5026813427
 30
0.0
 10
4.5994927416
 20
9.5067057723
 30
0.0
 10
4.594620155
 20
9.5099234171
 30
0.0
 10
4.588748534
 20
9.5122581639
 30
0.0
 10
4.5819858082
 20
9.5136609766
 30
0.0
 10
4.5771805189
 20
9.5139429803
 30
0.0
 10
4.5746703963
 20
9.5139429714
 30
0.0
 11
4.6071136213
 21
9.4871899537
 31
0.0
 11
4.6069696612
 21
9.4927586746
 31
0.0
 11
4.60563065
 21
9.4979041589
 31
0.0
 11
4.6031100967
 21
9.5025096253
 31
0.0
 11
4.5994408406
 21
9.5064630731
 31
0.0
 11
4.5946765239
 21
9.5096612479
 31
0.0
 11
4.5888923828
 21
9.5120154793
 31
0.0
 11
4.5821850795
 21
9.5134571966
 31
0.0
 11
4.5746703963
 21
9.5139429714
 31
0.0
  0
SPLINE
  5
2D6
100
AcDbEntity
  8
0
100
AcDbSpline
 62
6
  6
CONTINUOUS
 70
0
 71
3
 72
15
 73
11
 74
9
 42
0.0000001
 43
0.0000001
 44
0.0000000001
 12
-0.0753040158
 22
0.0000002943
 32
0.0
 13
-0.0632717937
 23
-0.0408335024
 33
0.0
 40
0.0
 40
0.0
 40
0.0
 40
0.0
 40
0.0990912333
 40
0.2079198791
 40
0.3257223498
 40
0.4513168687
 40
0.5832378154
 40
0.7198323491
 40
0.8593575258
 40
1.0
 40
1.0
 40
1.0
 40
1.0
 10
4.676561065
 20
9.5139429714
 30
0.0
 10
4.6740737424
 20
9.5139429811
 30
0.0
 10
4.6688519988
 20
9.513569196
 30
0.0
 10
4.6607984982
 20
9.512090562
 30
0.0
 10
4.6522724488
 20
9.5097115662
 30
0.0
 10
4.6434078878
 20
9.5065001282
 30
0.0
 10
4.6343347809
 20
9.5025432555
 30
0.0
 10
4.625179114
 20
9.4979422192
 30
0.0
 10
4.6160608598
 20
9.4928075781
 30
0.0
 10
4.6100798552
 20
9.4891042619
 30
0.0
 10
4.6071136213
 20
9.4871899537
 30
0.0
 11
4.676561065
 21
9.5139429714
 31
0.0
 11
4.6691149245
 21
9.5134572182
 31
0.0
 11
4.6610474905
 21
9.5120155634
 31
0.0
 11
4.6524945563
 21
9.5096614303
 31
0.0
 11
4.643593882
 21
9.5064633933
 31
0.0
 11
4.6344802022
 21
9.5025100764
 31
0.0
 11
4.6252826674
 21
9.4979046931
 31
0.0
 11
4.6161221904
 21
9.4927589535
 31
0.0
 11
4.6071136213
 21
9.4871899537
 31
0.0
  0
SPLINE
  5
2D7
100
AcDbEntity
  8
0
100
AcDbSpline
 62
6
  6
CONTINUOUS
 70
0
 71
3
 72
15
 73
11
 74
9
 42
0.0000001
 43
0.0000001
 44
0.0000000001
 12
-0.0043725938
 22
0.0524325443
 32
0.0
 13
-0.0526145539
 23
-0.000000141
 33
0.0
 40
0.0
 40
0.0
 40
0.0
 40
0.0
 40
0.1078302224
 40
0.2148683483
 40
0.3244450149
 40
0.4397532348
 40
0.5634575158
 40
0.6974738731
 40
0.8428902586
 40
1.0
 40
1.0
 40
1.0
 40
1.0
 10
4.5022063494
 20
9.4871899537
 30
0.0
 10
4.5020491835
 20
9.489074558
 30
0.0
 10
4.501333227
 20
9.4928116636
 30
0.0
 10
4.4989989227
 20
9.4980545524
 30
0.0
 10
4.4954510381
 20
9.5027324276
 30
0.0
 10
4.4907578893
 20
9.50671861
 30
0.0
 10
4.4850072154
 20
9.5099153299
 30
0.0
 10
4.4782994887
 20
9.5122457666
 30
0.0
 10
4.4707494518
 20
9.5136534652
 30
0.0
 10
4.4654364716
 20
9.5139429788
 30
0.0
 10
4.462681052
 20
9.5139429714
 30
0.0
 11
4.5022063494
 21
9.4871899537
 31
0.0
 11
4.5011215626
 21
9.4927587191
 31
0.0
 11
4.4988323765
 21
9.4979042399
 31
0.0
 11
4.4953641719
 21
9.502509732
 31
0.0
 11
4.4907622903
 21
9.506463192
 31
0.0
 11
4.4850935897
 21
9.5096613634
 31
0.0
 11
4.4784469915
 21
9.5120155738
 31
0.0
 11
4.4709330284
 21
9.5134572531
 31
0.0
 11
4.462681052
 21
9.5139429714
 31
0.0
  0
SPLINE
  5
2D8
100
AcDbEntity
  8
0
100
AcDbSpline
 62
6
  6
CONTINUOUS
 70
0
 71
3
 72
15
 73
11
 74
9
 42
0.0000001
 43
0.0000001
 44
0.0000000001
 12
-0.0782046777
 22
0.0000002752
 32
0.0
 13
-0.0654977574
 23
-0.0427319014
 33
0.0
 40
0.0
 40
0.0
 40
0.0
 40
0.0
 40
0.1049198785
 40
0.2179903717
 40
0.3383145335
 40
0.4646717023
 40
0.5956242672
 40
0.7295944873
 40
0.8649468615
 40
1.0
 40
1.0
 40
1.0
 40
1.0
 10
4.5746645962
 20
9.5139429714
 30
0.0
 10
4.5719295211
 20
9.513942981
 30
0.0
 10
4.5662438512
 20
9.5135789518
 30
0.0
 10
4.5575359282
 20
9.5121072486
 30
0.0
 10
4.5484522363
 20
9.5097329247
 30
0.0
 10
4.539136959
 20
9.5065243681
 30
0.0
 10
4.5297279439
 20
9.50256916
 30
0.0
 10
4.520356298
 20
9.4979690425
 30
0.0
 10
4.5111449534
 20
9.4928349465
 30
0.0
 10
4.5051549087
 20
9.4891136461
 30
0.0
 10
4.5022063494
 20
9.4871899537
 30
0.0
 11
4.5746645962
 21
9.5139429714
 31
0.0
 11
4.5664737619
 21
9.5134572183
 31
0.0
 11
4.5577494316
 21
9.5120155634
 31
0.0
 11
4.5486387506
 21
9.5096614303
 31
0.0
 11
4.5392888318
 21
9.5064633933
 31
0.0
 11
4.5298415317
 21
9.5025100764
 31
0.0
 11
4.5204308981
 21
9.4979046931
 31
0.0
 11
4.5111806232
 21
9.4927589535
 31
0.0
 11
4.5022063494
 21
9.4871899537
 31
0.0
  0
SPLINE
  5
2D9
100
AcDbEntity
  8
0
100
AcDbSpline
 62
6
  6
CONTINUOUS
 70
0
 71
3
 72
15
 73
11
 74
9
 42
0.0000001
 43
0.0000001
 44
0.0000000001
 12
-0.0136605399
 22
0.0557843237
 32
0.0
 13
-0.0574325789
 23
-0.0000001437
 33
0.0
 40
0.0
 40
0.0
 40
0.0
 40
0.0
 40
0.1031065348
 40
0.2087424751
 40
0.3193799481
 40
0.4370919061
 40
0.5633960205
 40
0.6992057722
 40
0.8448268104
 40
1.0
 40
1.0
 40
1.0
 40
1.0
 10
4.3880001236
 20
9.4871899537
 30
0.0
 10
4.3875306266
 20
9.4891071964
 30
0.0
 10
4.3861574653
 20
9.4928986161
 30
0.0
 10
4.3828793918
 20
9.4981103551
 30
0.0
 10
4.3784249192
 20
9.5027545466
 30
0.0
 10
4.3728681815
 20
9.5067172715
 30
0.0
 10
4.3662983452
 20
9.509903894
 30
0.0
 10
4.3588213443
 20
9.512234136
 30
0.0
 10
4.3505618406
 20
9.5136468784
 30
0.0
 10
4.3447969883
 20
9.5139429789
 30
0.0
 10
4.3418263228
 20
9.5139429714
 30
0.0
 11
4.3880001236
 21
9.4871899537
 31
0.0
 11
4.3859864014
 21
9.4927587191
 31
0.0
 11
4.382772147
 21
9.4979042399
 31
0.0
 11
4.3783943346
 21
9.5025097319
 31
0.0
 11
4.3729103094
 21
9.506463192
 31
0.0
 11
4.3663994112
 21
9.5096613634
 31
0.0
 11
4.3589632697
 21
9.5120155738
 31
0.0
 11
4.3507250732
 21
9.5134572531
 31
0.0
 11
4.3418263228
 21
9.5139429714
 31
0.0
  0
SPLINE
  5
2DA
100
AcDbEntity
  8
0
100
AcDbSpline
 62
6
  6
CONTINUOUS
 70
0
 71
3
 72
15
 73
11
 74
9
 42
0.0000001
 43
0.0000001
 44
0.0000000001
 12
-0.0803746227
 22
0.0000002598
 32
0.0
 13
-0.0668650259
 23
-0.0445998686
 33
0.0
 40
0.0
 40
0.0
 40
0.0
 40
0.0
 40
0.110222785
 40
0.2271363995
 40
0.3497365966
 40
0.4767727074
 40
0.6068356234
 40
0.7384195205
 40
0.8699921055
 40
1.0
 40
1.0
 40
1.0
 40
1.0
 10
4.4626753057
 20
9.5139429714
 30
0.0
 10
4.4597222674
 20
9.513942981
 30
0.0
 10
4.4536336469
 20
9.5135870422
 30
0.0
 10
4.444366601
 20
9.5121215557
 30
0.0
 10
4.4348248829
 20
9.5097517883
 30
0.0
 10
4.4251610409
 20
9.5065463471
 30
0.0
 10
4.415519131
 20
9.5025931784
 30
0.0
 10
4.406033929
 20
9.4979943637
 30
0.0
 10
4.3968299924
 20
9.4928611461
 30
0.0
 10
4.390897784
 20
9.489122732
 30
0.0
 10
4.3880001236
 20
9.4871899537
 30
0.0
 11
4.4626753057
 21
9.5139429714
 31
0.0
 11
4.4538295181
 21
9.5134572183
 31
0.0
 11
4.4445438771
 21
9.5120155634
 31
0.0
 11
4.4349752679
 21
9.5096614303
 31
0.0
 11
4.4252785442
 21
9.5064633934
 31
0.0
 11
4.4156011304
 21
9.5025100764
 31
0.0
 11
4.4060805029
 21
9.4979046931
 31
0.0
 11
4.396841778
 21
9.4927589535
 31
0.0
 11
4.3880001236
 21
9.4871899537
 31
0.0
  0
SPLINE
  5
2DB
100
AcDbEntity
  8
0
100
AcDbSpline
 62
6
  6
CONTINUOUS
 70
0
 71
3
 72
15
 73
11
 74
9
 42
0.0000001
 43
0.0000001
 44
0.0000000001
 12
-0.0232717546
 22
0.0576482936
 32
0.0
 13
-0.0621683224
 23
-0.0000001577
 33
0.0
 40
0.0
 40
0.0
 40
0.0
 40
0.0
 40
0.1011471484
 40
0.2070174692
 40
0.3192261769
 40
0.4389473068
 40
0.5668759206
 40
0.7032414789
 40
0.8478248907
 40
1.0
 40
1.0
 40
1.0
 40
1.0
 10
4.265746211
 20
9.4871899537
 30
0.0
 10
4.2649615872
 20
9.4891336072
 30
0.0
 10
4.2629430289
 20
9.4929561944
 30
0.0
 10
4.2587745086
 20
9.4981383955
 30
0.0
 10
4.2534712891
 20
9.5027592521
 30
0.0
 10
4.2471116276
 20
9.5067088113
 30
0.0
 10
4.2397900279
 20
9.5098912359
 30
0.0
 10
4.2316208255
 20
9.5122232753
 30
0.0
 10
4.2227389021
 20
9.5136409635
 30
0.0
 10
4.2165834896
 20
9.5139429794
 30
0.0
 10
4.2134299992
 20
9.5139429714
 30
0.0
 11
4.265746211
 21
9.4871899537
 31
0.0
 11
4.2628256254
 21
9.492758705
 31
0.0
 11
4.2587215341
 21
9.4979042143
 31
0.0
 11
4.2534820989
 21
9.5025096983
 31
0.0
 11
4.2471760402
 21
9.5064631544
 31
0.0
 11
4.239894309
 21
9.5096613269
 31
0.0
 11
4.231750129
 21
9.5120155439
 31
0.0
 11
4.2228779925
 21
9.5134572353
 31
0.0
 11
4.2134299992
 21
9.5139429714
 31
0.0
  0
SPLINE
  5
2DC
100
AcDbEntity
  8
0
100
AcDbSpline
 62
6
  6
CONTINUOUS
 70
0
 71
3
 72
15
 73
11
 74
9
 42
0.0000001
 43
0.0000001
 44
0.0000000001
 12
-0.0817854475
 22
0.0000003218
 32
0.0
 13
-0.0673156634
 23
-0.0464484756
 33
0.0
 40
0.0
 40
0.0
 40
0.0
 40
0.0
 40
0.1151281624
 40
0.2355742823
 40
0.3602506881
 40
0.4878873741
 40
0.6171087324
 40
0.7464881722
 40
0.8745879981
 40
1.0
 40
1.0
 40
1.0
 40
1.0
 10
4.3418191514
 20
9.5139429714
 30
0.0
 10
4.3386805486
 20
9.5139429837
 30
0.0
 10
4.3322549123
 20
9.5135938584
 30
0.0
 10
4.3225304599
 20
9.5121341463
 30
0.0
 10
4.3126355643
 20
9.509768924
 30
0.0
 10
4.302729297
 20
9.5065668542
 30
0.0
 10
4.2929600202
 20
9.5026161176
 30
0.0
 10
4.2834648302
 20
9.4980188738
 30
0.0
 10
4.2743681864
 20
9.492886639
 30
0.0
 10
4.2685602751
 20
9.4891316858
 30
0.0
 10
4.265746211
 20
9.4871899537
 30
0.0
 11
4.3418191514
 21
9.5139429714
 31
0.0
 11
4.332415885
 21
9.5134571444
 31
0.0
 11
4.3226711981
 21
9.5120155646
 31
0.0
 11
4.3127499217
 21
9.5096615715
 31
0.0
 11
4.3028129893
 21
9.5064636956
 31
0.0
 11
4.2930117417
 21
9.502510572
 31
0.0
 11
4.2834851978
 21
9.4979051357
 31
0.0
 11
4.2743592166
 21
9.4927594829
 31
0.0
 11
4.265746211
 21
9.4871899537
 31
0.0
  0
SPLINE
  5
2DD
100
AcDbEntity
  8
0
100
AcDbSpline
 62
6
  6
CONTINUOUS
 70
0
 71
3
 72
15
 73
11
 74
9
 42
0.0000001
 43
0.0000001
 44
0.0000000001
 12
-0.0324827055
 22
0.0582058582
 32
0.0
 13
-0.0666561931
 23
-0.0000001555
 33
0.0
 40
0.0
 40
0.0
 40
0.0
 40
0.0
 40
0.1011036945
 40
0.2082091953
 40
0.3222040958
 40
0.4435841338
 40
0.5724598477
 40
0.7085877311
 40
0.8513912319
 40
1.0
 40
1.0
 40
1.0
 40
1.0
 10
4.1367840513
 20
9.4871899537
 30
0.0
 10
4.1356893441
 20
9.4891515628
 30
0.0
 10
4.1330535359
 20
9.4929875404
 30
0.0
 10
4.1280497137
 20
9.4981476516
 30
0.0
 10
4.1219579927
 20
9.5027540003
 30
0.0
 10
4.1148625535
 20
9.5066968253
 30
0.0
 10
4.1068654156
 20
9.5098782945
 30
0.0
 10
4.0980898934
 20
9.5122131088
 30
0.0
 10
4.0886802524
 20
9.5136355661
 30
0.0
 10
4.0822001847
 20
9.5139429791
 30
0.0
 10
4.0788982864
 20
9.5139429714
 30
0.0
 11
4.1367840513
 21
9.4871899537
 31
0.0
 11
4.1329885865
 21
9.4927587142
 31
0.0
 11
4.1280395991
 21
9.497904231
 31
0.0
 11
4.1219959119
 21
9.5025097202
 31
0.0
 11
4.1149368683
 21
9.5064631789
 31
0.0
 11
4.1069640357
 21
9.5096613507
 31
0.0
 11
4.0982009928
 21
9.5120155634
 31
0.0
 11
4.0887920653
 21
9.5134572469
 31
0.0
 11
4.0788982864
 21
9.5139429714
 31
0.0
  0
SPLINE
  5
2DE
100
AcDbEntity
  8
0
100
AcDbSpline
 62
6
  6
CONTINUOUS
 70
0
 71
3
 72
14
 73
10
 74
8
 42
0.0000001
 43
0.0000001
 44
0.0000000001
 12
-0.0824034515
 22
0.0000002359
 32
0.0
 13
-0.0667828215
 23
-0.0482740467
 33
0.0
 40
0.0
 40
0.0
 40
0.0
 40
0.0
 40
0.2433115254
 40
0.3699457936
 40
0.4981521732
 40
0.626596076
 40
0.7539252177
 40
0.8788219774
 40
1.0
 40
1.0
 40
1.0
 40
1.0
 10
4.2134233076
 20
9.5139429714
 30
0.0
 10
4.2067400711
 20
9.5139429905
 30
0.0
 10
4.1965564987
 20
9.5128895094
 30
0.0
 10
4.1832227834
 20
9.5097846803
 30
0.0
 10
4.1731798994
 20
9.5065853892
 30
0.0
 10
4.1633901844
 20
9.5026369762
 30
0.0
 10
4.1539883406
 20
9.4980413235
 30
0.0
 10
4.1450988103
 20
9.4929102673
 30
0.0
 10
4.139481588
 20
9.4891398715
 30
0.0
 10
4.1367840513
 20
9.4871899537
 30
0.0
 11
4.2134233076
 21
9.5139429714
 31
0.0
 11
4.1934664555
 21
9.5120155634
 31
0.0
 11
4.1833003655
 21
9.5096614303
 31
0.0
 11
4.1732313858
 21
9.5064633933
 31
0.0
 11
4.1634131875
 21
9.5025100764
 31
0.0
 11
4.1539855644
 21
9.4979046931
 31
0.0
 11
4.1450723682
 21
9.4927589535
 31
0.0
 11
4.1367840513
 21
9.4871899537
 31
0.0
  0
SPLINE
  5
2DF
100
AcDbEntity
  8
0
100
AcDbSpline
 62
6
  6
CONTINUOUS
 70
0
 71
3
 72
14
 73
10
 74
8
 42
0.0000001
 43
0.0000001
 44
0.0000000001
 12
-0.0408073175
 22
0.0577735249
 32
0.0
 13
-0.0707320107
 23
-0.0000002143
 33
0.0
 40
0.0
 40
0.0
 40
0.0
 40
0.0
 40
0.1023752193
 40
0.2113544954
 40
0.3272506379
 40
0.4500570927
 40
0.5794653883
 40
0.7148991396
 40
1.0
 40
1.0
 40
1.0
 40
1.0
 10
4.0025265807
 20
9.4871899537
 30
0.0
 10
4.001134028
 20
9.4891614794
 30
0.0
 10
3.9979191179
 20
9.4929992901
 30
0.0
 10
3.9921383165
 20
9.4981448317
 30
0.0
 10
3.9853240482
 20
9.5027428381
 30
0.0
 10
3.9775681548
 20
9.5066827392
 30
0.0
 10
3.9689790236
 20
9.5098652378
 30
0.0
 10
3.9563876455
 20
9.5130355315
 30
0.0
 10
3.9464286034
 20
9.5139429918
 30
0.0
 10
3.9397066843
 20
9.5139429714
 30
0.0
 11
4.0025265807
 21
9.4871899537
 31
0.0
 11
3.9978978943
 21
9.4927586441
 31
0.0
 11
3.9921583388
 21
9.4979041035
 31
0.0
 11
3.9853767498
 21
9.5025095523
 31
0.0
 11
3.9776422202
 21
9.5064629918
 31
0.0
 11
3.9690658149
 21
9.5096611689
 31
0.0
 11
3.9597801067
 21
9.5120154146
 31
0.0
 11
3.9397066843
 21
9.5139429714
 31
0.0
  0
SPLINE
  5
2E0
100
AcDbEntity
  8
0
100
AcDbSpline
 62
6
  6
CONTINUOUS
 70
0
 71
3
 72
13
 73
9
 74
7
 42
0.0000001
 43
0.0000001
 44
0.0000000001
 12
-0.0822501653
 22
0.0000002261
 32
0.0
 13
-0.0652382949
 23
-0.0500904639
 33
0.0
 40
0.0
 40
0.0
 40
0.0
 40
0.0
 40
0.2508957696
 40
0.3793419682
 40
0.5080349623
 40
0.7608712632
 40
0.8827469686
 40
1.0
 40
1.0
 40
1.0
 40
1.0
 10
4.0788914575
 20
9.5139429714
 30
0.0
 10
4.072012718
 20
9.5139429903
 30
0.0
 10
4.0615876786
 20
9.5129158453
 30
0.0
 10
4.0480022155
 20
9.5097990723
 30
0.0
 10
4.0346631912
 20
9.5055643378
 30
0.0
 10
4.0220258521
 20
9.4998556484
 30
0.0
 10
4.0104392277
 20
9.4929333318
 30
0.0
 10
4.0050763766
 20
9.4891477066
 30
0.0
 10
4.0025265807
 20
9.4871899537
 30
0.0
 11
4.0788914575
 21
9.5139429714
 31
0.0
 11
4.0583454454
 21
9.5120155634
 31
0.0
 11
4.0480463489
 21
9.5096614303
 31
0.0
 11
4.0379559967
 21
9.5064633933
 31
0.0
 11
4.0190030261
 21
9.4979046931
 31
0.0
 11
4.0104002421
 21
9.4927589535
 31
0.0
 11
4.0025265807
 21
9.4871899537
 31
0.0
  0
SPLINE
  5
2E1
100
AcDbEntity
  8
0
100
AcDbSpline
 62
6
  6
CONTINUOUS
 70
0
 71
3
 72
13
 73
9
 74
7
 42
0.0000001
 43
0.0000001
 44
0.0000000001
 12
-0.0480185737
 22
0.056701881
 32
0.0
 13
-0.0743026698
 23
-0.0000002329
 33
0.0
 40
0.0
 40
0.0
 40
0.0
 40
0.0
 40
0.2152901099
 40
0.3331129927
 40
0.4571512972
 40
0.5867907581
 40
0.7212164302
 40
1.0
 40
1.0
 40
1.0
 40
1.0
 10
3.8644447523
 20
9.4871899537
 30
0.0
 10
3.8609987776
 20
9.4912590717
 30
0.0
 10
3.8547184403
 20
9.4967882842
 30
0.0
 10
3.8450658189
 20
9.502726941
 30
0.0
 10
3.8367289988
 20
9.5066682858
 30
0.0
 10
3.8276411572
 20
9.5098520904
 30
0.0
 10
3.8145561182
 20
9.5130114836
 30
0.0
 10
3.8042829574
 20
9.513942993
 30
0.0
 10
3.7973781695
 20
9.5139429714
 30
0.0
 11
3.8644447523
 21
9.4871899537
 31
0.0
 11
3.8525662115
 21
9.497904077
 31
0.0
 11
3.8451209346
 21
9.5025095174
 31
0.0
 11
3.8367955544
 21
9.5064629529
 31
0.0
 11
3.8277094204
 21
9.5096611311
 31
0.0
 11
3.8180026516
 21
9.5120153837
 31
0.0
 11
3.7973781695
 21
9.5139429714
 31
0.0
  0
SPLINE
  5
2E2
100
AcDbEntity
  8
0
100
AcDbSpline
 62
6
  6
CONTINUOUS
 70
0
 71
3
 72
13
 73
9
 74
7
 42
0.0000001
 43
0.0000001
 44
0.0000000001
 12
-0.0813412488
 22
0.0000002174
 32
0.0
 13
-0.0626396367
 23
-0.0518909884
 33
0.0
 40
0.0
 40
0.0
 40
0.0
 40
0.0
 40
0.2581557142
 40
0.5171300656
 40
0.6439701622
 40
0.7674133259
 40
0.8864088496
 40
1.0
 40
1.0
 40
1.0
 40
1.0
 10
3.9396985799
 20
9.5139429714
 30
0.0
 10
3.9326990105
 20
9.5139429901
 30
0.0
 10
3.9186520128
 20
9.5126098369
 30
0.0
 10
3.9017305805
 20
9.5079696112
 30
0.0
 10
3.888962854
 20
9.5026767954
 30
0.0
 10
3.8800521793
 20
9.4980838638
 30
0.0
 10
3.8718619719
 20
9.4929541645
 30
0.0
 10
3.8668165217
 20
9.4891547394
 30
0.0
 10
3.8644447523
 20
9.4871899537
 30
0.0
 11
3.9396985799
 21
9.5139429714
 31
0.0
 11
3.9187885143
 21
9.5120155634
 31
0.0
 11
3.8984680775
 21
9.5064633933
 31
0.0
 11
3.888938197
 21
9.5025100764
 31
0.0
 11
3.8800156105
 21
9.4979046931
 31
0.0
 11
3.8718174926
 21
9.4927589535
 31
0.0
 11
3.8644447523
 21
9.4871899537
 31
0.0
  0
SPLINE
  5
2E3
100
AcDbEntity
  8
0
100
AcDbSpline
 62
6
  6
CONTINUOUS
 70
0
 71
3
 72
13
 73
9
 74
7
 42
0.0000001
 43
0.0000001
 44
0.0000000001
 12
-0.0540710021
 22
0.055281117
 32
0.0
 13
-0.0773283594
 23
-0.0000002412
 33
0.0
 40
0.0
 40
0.0
 40
0.0
 40
0.0
 40
0.1071414291
 40
0.2207875094
 40
0.3404680802
 40
0.4655206819
 40
0.7279376379
 40
1.0
 40
1.0
 40
1.0
 40
1.0
 10
3.7240514194
 20
9.4871899537
 30
0.0
 10
3.7221203379
 20
9.489164253
 30
0.0
 10
3.7178847582
 20
9.4929880024
 30
0.0
 10
3.7107466061
 20
9.4981201248
 30
0.0
 10
3.7027121768
 20
9.5027123816
 30
0.0
 10
3.6907589755
 20
9.5080495969
 30
0.0
 10
3.6742936023
 20
9.5126858349
 30
0.0
 10
3.6604854358
 20
9.5139429933
 30
0.0
 10
3.6534727238
 20
9.5139429714
 30
0.0
 11
3.7240514194
 21
9.4871899537
 31
0.0
 11
3.7179169063
 21
9.4927586294
 31
0.0
 11
3.71079269
 21
9.4979040767
 31
0.0
 11
3.7027652724
 21
9.502509517
 31
0.0
 11
3.6939402272
 21
9.5064629525
 31
0.0
 11
3.6744223676
 21
9.5120153834
 31
0.0
 11
3.6534727238
 21
9.5139429714
 31
0.0
  0
SPLINE
  5
2E4
100
AcDbEntity
  8
0
100
AcDbSpline
 62
6
  6
CONTINUOUS
 70
0
 71
3
 72
13
 73
9
 74
7
 42
0.0000001
 43
0.0000001
 44
0.0000000001
 12
-0.0796896194
 22
0.0000002095
 32
0.0
 13
-0.0589325918
 23
-0.0536412627
 33
0.0
 40
0.0
 40
0.0
 40
0.0
 40
0.0
 40
0.2651926402
 40
0.5260058438
 40
0.6519843512
 40
0.7735384014
 40
0.8897913781
 40
1.0
 40
1.0
 40
1.0
 40
1.0
 10
3.7973697012
 20
9.5139429714
 30
0.0
 10
3.7903253343
 20
9.5139429899
 30
0.0
 10
3.7763244318
 20
9.5126484321
 30
0.0
 10
3.7595399516
 20
9.5080102272
 30
0.0
 10
3.7471096324
 20
9.5026953258
 30
0.0
 10
3.7385910389
 20
9.4981032198
 30
0.0
 10
3.7308852661
 20
9.4929729952
 30
0.0
 10
3.7262163793
 20
9.4891605302
 30
0.0
 10
3.7240514194
 20
9.4871899537
 30
0.0
 11
3.7973697012
 21
9.5139429714
 31
0.0
 11
3.7763246771
 21
9.5120155634
 31
0.0
 11
3.7562958872
 21
9.5064633933
 31
0.0
 11
3.7470678643
 21
9.5025100764
 31
0.0
 11
3.738546093
 21
9.4979046931
 31
0.0
 11
3.7308424613
 21
9.4927589535
 31
0.0
 11
3.7240514194
 21
9.4871899537
 31
0.0
  0
SPLINE
  5
2E5
100
AcDbEntity
  8
0
100
AcDbSpline
 62
6
  6
CONTINUOUS
 70
0
 71
3
 72
15
 73
11
 74
9
 42
0.0000001
 43
0.0000001
 44
0.0000000001
 12
-0.0632721677
 22
0.0408337437
 32
0.0
 13
-0.0753044609
 23
-0.0000002439
 33
0.0
 40
0.0
 40
0.0
 40
0.0
 40
0.0
 40
0.1406353933
 40
0.2801532142
 40
0.4167487442
 40
0.5486725404
 40
0.6742706386
 40
0.7920759152
 40
0.9009071556
 40
1.0
 40
1.0
 40
1.0
 40
1.0
 10
18.6998225588
 20
9.4871899537
 30
0.0
 10
18.6968564567
 20
9.4891041769
 30
0.0
 10
18.6908757345
 20
9.4928073395
 30
0.0
 10
18.6817577262
 20
9.4979418545
 30
0.0
 10
18.6726021131
 20
9.5025429363
 30
0.0
 10
18.6635287939
 20
9.5064999356
 30
0.0
 10
18.654663972
 20
9.5097114999
 30
0.0
 10
18.6461376569
 20
9.5120905758
 30
0.0
 10
18.6380839313
 20
9.5135692487
 30
0.0
 10
18.6328620481
 20
9.5139429795
 30
0.0
 10
18.6303746703
 20
9.5139429714
 30
0.0
 11
18.6998225588
 21
9.4871899537
 31
0.0
 11
18.6908143981
 21
9.4927587191
 31
0.0
 11
18.6816543623
 21
9.4979042399
 31
0.0
 11
18.6724567301
 21
9.502509732
 31
0.0
 11
18.6633428145
 21
9.506463192
 31
0.0
 11
18.6544418426
 21
9.5096613634
 31
0.0
 11
18.6458886562
 21
9.5120155738
 31
0.0
 11
18.6378209788
 21
9.5134572531
 31
0.0
 11
18.6303746703
 21
9.5139429714
 31
0.0
  0
SPLINE
  5
2E6
100
AcDbEntity
  8
0
100
AcDbSpline
 62
6
  6
CONTINUOUS
 70
0
 71
3
 72
15
 73
11
 74
9
 42
0.0000001
 43
0.0000001
 44
0.0000000001
 12
-0.0479053297
 22
0.0000001685
 32
0.0
 13
0.0037730381
 23
-0.0477565158
 33
0.0
 40
0.0
 40
0.0
 40
0.0
 40
0.0
 40
0.1571899316
 40
0.3003965449
 40
0.4307535751
 40
0.5505336657
 40
0.6631253595
 40
0.772718364
 40
0.8837110217
 40
1.0
 40
1.0
 40
1.0
 40
1.0
 10
18.7322658117
 20
9.5139429714
 30
0.0
 10
18.7297557332
 20
9.5139429802
 30
0.0
 10
18.724950535
 20
9.5136609925
 30
0.0
 10
18.7181879259
 20
9.5122582325
 30
0.0
 10
18.7123163903
 20
9.5099235906
 30
0.0
 10
18.7074438223
 20
9.5067060812
 30
0.0
 10
18.7036724642
 20
9.5026817727
 30
0.0
 10
18.7010902164
 20
9.4979643249
 30
0.0
 10
18.6997456332
 20
9.4927029741
 30
0.0
 10
18.6996763045
 20
9.4890411391
 30
0.0
 10
18.6998225588
 20
9.4871899537
 30
0.0
 11
18.7322658117
 21
9.5139429714
 31
0.0
 11
18.7247512598
 21
9.5134572183
 31
0.0
 11
18.7180440867
 21
9.5120155634
 31
0.0
 11
18.7122600102
 21
9.5096614303
 31
0.0
 11
18.7074957259
 21
9.5064633933
 31
0.0
 11
18.7038264289
 21
9.5025100764
 31
0.0
 11
18.7013057387
 21
9.4979046931
 31
0.0
 11
18.6999665822
 21
9.4927589535
 31
0.0
 11
18.6998225588
 21
9.4871899537
 31
0.0
  0
SPLINE
  5
2E7
100
AcDbEntity
  8
0
100
AcDbSpline
 62
6
  6
CONTINUOUS
 70
0
 71
3
 72
15
 73
11
 74
9
 42
0.0000001
 43
0.0000001
 44
0.0000000001
 12
-0.0583692536
 22
0.0370390669
 32
0.0
 13
-0.0691293154
 23
-0.0000003301
 33
0.0
 40
0.0
 40
0.0
 40
0.0
 40
0.0
 40
0.1473230382
 40
0.2915631942
 40
0.4309247671
 40
0.5636487059
 40
0.6881187113
 40
0.8029454168
 40
0.9070872624
 40
1.0
 40
1.0
 40
1.0
 40
1.0
 10
18.6031872455
 20
9.488582905
 30
0.0
 10
18.6003208669
 20
9.4904018077
 30
0.0
 10
18.5945920696
 20
9.493914464
 30
0.0
 10
18.5859440648
 20
9.4987992929
 30
0.0
 10
18.5773967846
 20
9.5031630648
 30
0.0
 10
18.5690558257
 20
9.506906529
 30
0.0
 10
18.561031058
 20
9.5099392254
 30
0.0
 10
18.5534325389
 20
9.5121842145
 30
0.0
 10
18.5463717784
 20
9.5135817274
 30
0.0
 10
18.5418290326
 20
9.5139429816
 30
0.0
 10
18.5396880346
 20
9.5139429714
 30
0.0
 11
18.6031872455
 21
9.488582905
 31
0.0
 11
18.5945002365
 21
9.4938986056
 31
0.0
 11
18.5858122814
 21
9.4987919407
 31
0.0
 11
18.57722459
 21
9.5031582821
 31
0.0
 11
18.5688454201
 21
9.5068962289
 31
0.0
 11
18.5607871726
 21
9.509913267
 31
0.0
 11
18.553165162
 21
9.5121302642
 31
0.0
 11
18.5460947751
 21
9.5134863226
 31
0.0
 11
18.5396880346
 21
9.5139429714
 31
0.0
  0
SPLINE
  5
2E8
100
AcDbEntity
  8
0
100
AcDbSpline
 62
6
  6
CONTINUOUS
 70
0
 71
3
 72
15
 73
11
 74
9
 42
0.0000001
 43
0.0000001
 44
0.0000000001
 12
-0.0396681262
 22
0.0000001688
 32
0.0
 13
0.0042479942
 23
-0.039440015
 33
0.0
 40
0.0
 40
0.0
 40
0.0
 40
0.0
 40
0.1556537161
 40
0.2961856353
 40
0.4234518322
 40
0.5406132378
 40
0.6520045128
 40
0.7626307532
 40
0.8773110826
 40
1.0
 40
1.0
 40
1.0
 40
1.0
 10
18.6303696858
 20
9.5139429714
 30
0.0
 10
18.6283115221
 20
9.5139429802
 30
0.0
 10
18.6243877804
 20
9.5137104928
 30
0.0
 10
18.6188877698
 20
9.5125344457
 30
0.0
 10
18.614157188
 20
9.5105634354
 30
0.0
 10
18.610276921
 20
9.5078265084
 30
0.0
 10
18.6073300381
 20
9.5043802287
 30
0.0
 10
18.6053842043
 20
9.5003213493
 30
0.0
 10
18.6044629973
 20
9.4957715609
 30
0.0
 10
18.6045222094
 20
9.4926088001
 30
0.0
 10
18.6046959366
 20
9.4909958492
 30
0.0
 11
18.6303696858
 21
9.5139429714
 31
0.0
 11
18.6242086445
 21
9.5135356483
 31
0.0
 11
18.6187670903
 21
9.5123248323
 31
0.0
 11
18.6141246806
 21
9.510341277
 31
0.0
 11
18.6103471424
 21
9.5076338532
 31
0.0
 11
18.6074859746
 21
9.5042665872
 31
0.0
 11
18.6055777564
 21
9.5003148543
 31
0.0
 11
18.6046446871
 21
9.4958624188
 31
0.0
 11
18.6046959366
 21
9.4909958492
 31
0.0
  0
SPLINE
  5
2E9
100
AcDbEntity
  8
0
100
AcDbSpline
 62
6
  6
CONTINUOUS
 70
0
 71
3
 72
13
 73
9
 74
7
 42
0.0000001
 43
0.0000001
 44
0.0000000001
 12
-0.0589320429
 22
0.0536407632
 32
0.0
 13
-0.0796888772
 23
-0.0000002499
 33
0.0
 40
0.0
 40
0.0
 40
0.0
 40
0.0
 40
0.1102025803
 40
0.2264487824
 40
0.3480025075
 40
0.4739827611
 40
0.7348015132
 40
1.0
 40
1.0
 40
1.0
 40
1.0
 10
19.5828847607
 20
9.4871899537
 30
0.0
 10
19.5807199397
 20
9.4891604038
 30
0.0
 10
19.5760513929
 20
9.4929726561
 30
0.0
 10
19.5683460059
 20
9.4981026717
 30
0.0
 10
19.559827689
 20
9.502694798
 30
0.0
 10
19.5473973648
 20
9.5080098467
 30
0.0
 10
19.53061275
 20
9.5126482494
 30
0.0
 10
19.5166116805
 20
9.5139429935
 30
0.0
 10
19.5095672239
 20
9.5139429714
 30
0.0
 11
19.5828847607
 21
9.4871899537
 31
0.0
 11
19.5760941815
 21
9.4927586295
 31
0.0
 11
19.5683911076
 21
9.4979040768
 31
0.0
 11
19.5598694991
 21
9.5025095171
 31
0.0
 11
19.5506414773
 21
9.5064629526
 31
0.0
 11
19.5306125017
 21
9.5120153835
 31
0.0
 11
19.5095672239
 21
9.5139429714
 31
0.0
  0
SPLINE
  5
2EA
100
AcDbEntity
  8
0
100
AcDbSpline
 62
6
  6
CONTINUOUS
 70
0
 71
3
 72
13
 73
9
 74
7
 42
0.0000001
 43
0.0000001
 44
0.0000000001
 12
-0.0773294691
 22
0.0000001832
 32
0.0
 13
-0.0540717781
 23
-0.0552819103
 33
0.0
 40
0.0
 40
0.0
 40
0.0
 40
0.0
 40
0.2720564572
 40
0.534468053
 40
0.6595190311
 40
0.7792000257
 40
0.8928527347
 40
1.0
 40
1.0
 40
1.0
 40
1.0
 10
19.6534645704
 20
9.5139429714
 30
0.0
 10
19.6464519099
 20
9.513942988
 30
0.0
 10
19.6326438269
 20
9.5126860789
 30
0.0
 10
19.6161784794
 20
9.5080500405
 30
0.0
 10
19.6042251994
 20
9.5027129657
 30
0.0
 10
19.5961904478
 20
9.4981207191
 30
0.0
 10
19.5890518935
 20
9.4929883677
 30
0.0
 10
19.5848159751
 20
9.4891643888
 30
0.0
 10
19.5828847607
 20
9.4871899537
 30
0.0
 11
19.6534645704
 21
9.5139429714
 31
0.0
 11
19.6325150609
 21
9.5120156123
 31
0.0
 11
19.6129972517
 21
9.5064634549
 31
0.0
 11
19.6041721416
 21
9.5025101317
 31
0.0
 11
19.5961445082
 21
9.4979047351
 31
0.0
 11
19.5890197288
 21
9.4927589766
 31
0.0
 11
19.5828847607
 21
9.4871899537
 31
0.0
  0
SPLINE
  5
2EB
100
AcDbEntity
  8
0
100
AcDbSpline
 62
6
  6
CONTINUOUS
 70
0
 71
3
 72
15
 73
11
 74
9
 42
0.0000001
 43
0.0000001
 44
0.0000000001
 12
-0.0510755349
 22
0.032027113
 32
0.0
 13
-0.0602863686
 23
-0.0000004021
 33
0.0
 40
0.0
 40
0.0
 40
0.0
 40
0.0
 40
0.1548986302
 40
0.3043200085
 40
0.4465538361
 40
0.5799337871
 40
0.7029783532
 40
0.814463047
 40
0.9135590165
 40
1.0
 40
1.0
 40
1.0
 40
1.0
 10
18.5163252002
 20
9.4910708323
 30
0.0
 10
18.5136880234
 20
9.4927244843
 30
0.0
 10
18.50846549
 20
9.4959080677
 30
0.0
 10
18.5006613266
 20
9.500341158
 30
0.0
 10
18.4930795411
 20
9.5042796172
 30
0.0
 10
18.4858044848
 20
9.5076426106
 30
0.0
 10
18.4789223913
 20
9.5103573282
 30
0.0
 10
18.4725167516
 20
9.5123628079
 30
0.0
 10
18.4666706066
 20
9.5136121733
 30
0.0
 10
18.4629410342
 20
9.513942983
 30
0.0
 10
18.4612039632
 20
9.5139429714
 30
0.0
 11
18.5163252002
 21
9.4910708323
 31
0.0
 11
18.5083466495
 21
9.4959232674
 31
0.0
 11
18.500508033
 21
9.5003618997
 31
0.0
 11
18.4928914499
 21
9.5043007051
 31
0.0
 11
18.4855841628
 21
9.5076564646
 31
0.0
 11
18.4786742531
 21
9.5103543412
 31
0.0
 11
18.4722504118
 21
9.5123307525
 31
0.0
 11
18.46639935
 21
9.5135371435
 31
0.0
 11
18.4612039632
 21
9.5139429714
 31
0.0
  0
SPLINE
  5
2EC
100
AcDbEntity
  8
0
100
AcDbSpline
 62
6
  6
CONTINUOUS
 70
0
 71
3
 72
16
 73
12
 74
10
 42
0.0000001
 43
0.0000001
 44
0.0000000001
 12
-0.0296372593
 22
0.0000001318
 32
0.0
 13
0.0014361366
 23
-0.0296024433
 33
0.0
 40
0.0
 40
0.0
 40
0.0
 40
0.0
 40
0.1544469131
 40
0.2258757185
 40
0.2936888029
 40
0.4196921339
 40
0.5360581937
 40
0.6473399675
 40
0.7586723844
 40
0.8749256105
 40
1.0
 40
1.0
 40
1.0
 40
1.0
 10
18.5396833013
 20
9.5139429714
 30
0.0
 10
18.5381575069
 20
9.5139429782
 30
0.0
 10
18.5359207031
 20
9.5138157151
 30
0.0
 10
18.5330585636
 20
9.5133237443
 30
0.0
 10
18.5305188951
 20
9.5126694225
 30
0.0
 10
18.5276583173
 20
9.5115136253
 30
0.0
 10
18.5247477313
 20
9.5095261046
 30
0.0
 10
18.5224952558
 20
9.5070008392
 30
0.0
 10
18.5209441177
 20
9.5039957197
 30
0.0
 10
18.5201087339
 20
9.5005848329
 30
0.0
 10
18.5200266665
 20
9.4981856711
 30
0.0
 10
18.5200865411
 20
9.4969515019
 30
0.0
 11
18.5396833013
 21
9.5139429714
 31
0.0
 11
18.5351152051
 21
9.5136515363
 31
0.0
 11
18.533029581
 21
9.5132886776
 31
0.0
 11
18.5310844196
 21
9.5127830898
 31
0.0
 11
18.5276344318
 21
9.5113536571
 31
0.0
 11
18.5248001815
 21
9.5093887022
 31
0.0
 11
18.5226106003
 21
9.506922306
 31
0.0
 11
18.521086929
 21
9.5039955834
 31
0.0
 11
18.5202432429
 21
9.5006550504
 31
0.0
 11
18.5200865411
 21
9.4969515019
 31
0.0
  0
SPLINE
  5
2ED
100
AcDbEntity
  8
0
100
AcDbSpline
 62
6
  6
CONTINUOUS
 70
0
 71
3
 72
17
 73
13
 74
11
 42
0.0000001
 43
0.0000001
 44
0.0000000001
 12
-0.0486242303
 22
0.0318632963
 32
0.0
 13
-0.0581342018
 23
-0.0000004033
 33
0.0
 40
0.0
 40
0.0
 40
0.0
 40
0.0
 40
0.162920599
 40
0.3185451739
 40
0.4648779614
 40
0.5999852044
 40
0.722149064
 40
0.82997539
 40
0.8782249487
 40
0.9226245997
 40
0.9631905278
 40
1.0
 40
1.0
 40
1.0
 40
1.0
 10
18.4480040994
 20
9.4897040881
 30
0.0
 10
18.4453634698
 20
9.4914344839
 30
0.0
 10
18.4401686302
 20
9.494769701
 30
0.0
 10
18.432470335
 20
9.4994503561
 30
0.0
 10
18.4250970637
 20
9.5036212197
 30
0.0
 10
18.4181356724
 20
9.5071925835
 30
0.0
 10
18.4116737043
 20
9.5100823198
 30
0.0
 10
18.4066008861
 20
9.5119313817
 30
0.0
 10
18.4028579436
 20
9.512978426
 30
0.0
 10
18.4003331348
 20
9.5135252668
 30
0.0
 10
18.3979949737
 20
9.5138593556
 30
0.0
 10
18.3964951117
 20
9.5139429763
 30
0.0
 10
18.3957818153
 20
9.5139429714
 30
0.0
 11
18.4480040994
 21
9.4897040881
 31
0.0
 11
18.4400286647
 21
9.4948126288
 31
0.0
 11
18.4322915877
 21
9.499501749
 31
0.0
 11
18.4248789216
 21
9.5036755249
 31
0.0
 11
18.4178804088
 21
9.5072408664
 31
0.0
 11
18.4113853845
 21
9.5101134298
 31
0.0
 11
18.4054820282
 21
9.5122213175
 31
0.0
 11
18.402778965
 21
9.5129704446
 31
0.0
 11
18.4002547256
 21
9.5135094163
 31
0.0
 11
18.3979189433
 21
9.513834298
 31
0.0
 11
18.3957818153
 21
9.5139429714
 31
0.0
  0
SPLINE
  5
2EE
100
AcDbEntity
  8
0
100
AcDbSpline
 62
6
  6
CONTINUOUS
 70
0
 71
3
 72
16
 73
12
 74
10
 42
0.0000001
 43
0.0000001
 44
0.0000000001
 12
-0.0208025648
 22
0.0000000895
 32
0.0
 13
-0.0000977116
 23
-0.0208023354
 33
0.0
 40
0.0
 40
0.0
 40
0.0
 40
0.0
 40
0.1534630373
 40
0.2243333085
 40
0.2916007096
 40
0.4166677272
 40
0.5324580315
 40
0.643674912
 40
0.7555446011
 40
0.8729954029
 40
1.0
 40
1.0
 40
1.0
 40
1.0
 10
18.4611998877
 20
9.5139429714
 30
0.0
 10
18.4601357461
 20
9.513942976
 30
0.0
 10
18.4585766456
 20
9.5138575448
 30
0.0
 10
18.4565802771
 20
9.5135252963
 30
0.0
 10
18.4548081187
 20
9.5130827696
 30
0.0
 10
18.4528057181
 20
9.5122984641
 30
0.0
 10
18.4507515057
 20
9.5109416982
 30
0.0
 10
18.4491342746
 20
9.5092049841
 30
0.0
 10
18.4479794937
 20
9.5071196216
 30
0.0
 10
18.4472947293
 20
9.5047268527
 30
0.0
 10
18.4471542198
 20
9.5030270328
 30
0.0
 10
18.4471500832
 20
9.5021463688
 30
0.0
 11
18.4611998877
 21
9.5139429714
 31
0.0
 11
18.4580135172
 21
9.5137464553
 31
0.0
 11
18.4565597281
 21
9.5135014878
 31
0.0
 11
18.4552027968
 21
9.5131596189
 31
0.0
 11
18.4527885577
 21
9.5121898926
 31
0.0
 11
18.4507875612
 21
9.5108489904
 31
0.0
 11
18.4492139756
 21
9.5091529489
 31
0.0
 11
18.4480786052
 21
9.5071215247
 31
0.0
 11
18.4473890983
 21
9.5047775565
 31
0.0
 11
18.4471500832
 21
9.5021463688
 31
0.0
  0
SPLINE
  5
2EF
100
AcDbEntity
  8
0
100
AcDbSpline
 62
6
  6
CONTINUOUS
 70
0
 71
3
 72
13
 73
9
 74
7
 42
0.0000001
 43
0.0000001
 44
0.0000000001
 12
-0.0626390778
 22
0.0518905254
 32
0.0
 13
-0.0813405231
 23
-0.0000002591
 33
0.0
 40
0.0
 40
0.0
 40
0.0
 40
0.0
 40
0.1135849238
 40
0.2325735349
 40
0.356016473
 40
0.4828584207
 40
0.7418384673
 40
1.0
 40
1.0
 40
1.0
 40
1.0
 10
19.4424914278
 20
9.4871899537
 30
0.0
 10
19.4401198095
 20
9.4891546141
 30
0.0
 10
19.4350747172
 20
9.4929538268
 30
0.0
 10
19.426884911
 20
9.4980833186
 30
0.0
 10
19.4179745085
 20
9.5026762673
 30
0.0
 10
19.4052067586
 20
9.5079692305
 30
0.0
 10
19.3882851715
 20
9.5126096515
 30
0.0
 10
19.374237993
 20
9.5139429937
 30
0.0
 10
19.3672383283
 20
9.5139429714
 30
0.0
 11
19.4424914278
 21
9.4871899537
 31
0.0
 11
19.435119181
 21
9.4927586298
 31
0.0
 11
19.4269216456
 21
9.4979040773
 31
0.0
 11
19.4179992101
 21
9.5025095178
 31
0.0
 11
19.4084693155
 21
9.5064629534
 31
0.0
 11
19.3881486645
 21
9.5120153841
 31
0.0
 11
19.3672383283
 21
9.5139429714
 31
0.0
  0
SPLINE
  5
2F0
100
AcDbEntity
  8
0
100
AcDbSpline
 62
6
  6
CONTINUOUS
 70
0
 71
3
 72
13
 73
9
 74
7
 42
0.0000001
 43
0.0000001
 44
0.0000000001
 12
-0.0743034054
 22
0.0000001953
 32
0.0
 13
-0.0480190491
 23
-0.0567024424
 33
0.0
 40
0.0
 40
0.0
 40
0.0
 40
0.0
 40
0.2787777125
 40
0.4132008382
 40
0.5428376008
 40
0.6668743585
 40
0.7846977282
 40
1.0
 40
1.0
 40
1.0
 40
1.0
 10
19.5095587548
 20
9.5139429714
 30
0.0
 10
19.5026540437
 20
9.5139429896
 30
0.0
 10
19.4923809856
 20
9.5130116238
 30
0.0
 10
19.4792960537
 20
9.509852384
 30
0.0
 10
19.470208243
 20
9.5066687149
 30
0.0
 10
19.4618713793
 20
9.5027274689
 30
0.0
 10
19.4522183247
 20
9.4967887807
 30
0.0
 10
19.4459376313
 20
9.4912593419
 30
0.0
 10
19.4424914278
 20
9.4871899537
 30
0.0
 11
19.5095587548
 21
9.5139429714
 31
0.0
 11
19.4889344871
 21
9.5120155635
 31
0.0
 11
19.4792277822
 21
9.5096614304
 31
0.0
 11
19.47014171
 21
9.5064633935
 31
0.0
 11
19.4618162996
 21
9.5025100765
 31
0.0
 11
19.454370843
 21
9.4979046932
 31
0.0
 11
19.4424914278
 21
9.4871899537
 31
0.0
  0
SPLINE
  5
2F1
100
AcDbEntity
  8
0
100
AcDbSpline
 62
6
  6
CONTINUOUS
 70
0
 71
3
 72
19
 73
15
 74
13
 42
0.0000001
 43
0.0000001
 44
0.0000000001
 12
-0.0402641915
 22
0.0271141808
 32
0.0
 13
-0.048542599
 23
-0.0000005408
 33
0.0
 40
0.0
 40
0.0
 40
0.0
 40
0.0
 40
0.1730873148
 40
0.3358144332
 40
0.4862170166
 40
0.5562104989
 40
0.622442643
 40
0.7428585905
 40
0.7967364402
 40
0.8462285124
 40
0.8912689139
 40
0.9318543936
 40
0.9680464211
 40
1.0
 40
1.0
 40
1.0
 40
1.0
 10
18.3870635972
 20
9.4921890808
 30
0.0
 10
18.3847405237
 20
9.4937534544
 30
0.0
 10
18.3802129281
 20
9.4967584179
 30
0.0
 10
18.3735755571
 20
9.5009833928
 30
0.0
 10
18.3682603973
 20
9.5041761043
 30
0.0
 10
18.3642207007
 20
9.5064551906
 30
0.0
 10
18.3605614052
 20
9.508418591
 30
0.0
 10
18.3570670233
 20
9.5101384146
 30
0.0
 10
18.3537368296
 20
9.5115623815
 30
0.0
 10
18.3514903823
 20
9.5124134857
 30
0.0
 10
18.3494080579
 20
9.5130834177
 30
0.0
 10
18.3474958625
 20
9.513568706
 30
0.0
 10
18.3457598236
 20
9.5138661746
 30
0.0
 10
18.3446568445
 20
9.5139429771
 30
0.0
 10
18.3441398079
 20
9.5139429714
 30
0.0
 11
18.3870635972
 21
9.4921890808
 31
0.0
 11
18.3800582049
 21
9.4968280352
 31
0.0
 11
18.3733885243
 21
9.5010603725
 31
0.0
 11
18.367122219
 21
9.504806975
 31
0.0
 11
18.3641617718
 21
9.5064742732
 31
0.0
 11
18.3613276404
 21
9.5079923119
 31
0.0
 11
18.3560709788
 21
9.5105486913
 31
0.0
 11
18.3536643872
 21
9.5115726454
 31
0.0
 11
18.3514158878
 21
9.5124188904
 31
0.0
 11
18.3493326265
 21
9.5130824202
 31
0.0
 11
18.3474211226
 21
9.5135594359
 31
0.0
 11
18.3456879363
 21
9.513846847
 31
0.0
 11
18.3441398079
 21
9.5139429714
 31
0.0
  0
SPLINE
  5
2F2
100
AcDbEntity
  8
0
100
AcDbSpline
 62
6
  6
CONTINUOUS
 70
0
 71
3
 72
15
 73
11
 74
9
 42
0.0000001
 43
0.0000001
 44
0.0000000001
 12
-0.0134271653
 22
0.0000000863
 32
0.0
 13
-0.0006345594
 23
-0.0134121625
 33
0.0
 40
0.0
 40
0.0
 40
0.0
 40
0.0
 40
0.1526478869
 40
0.2898168584
 40
0.4141401334
 40
0.5294567144
 40
0.6406094374
 40
0.7529022148
 40
0.8713444967
 40
1.0
 40
1.0
 40
1.0
 40
1.0
 10
18.3957785308
 20
9.5139429714
 30
0.0
 10
18.3950953213
 20
9.5139429758
 30
0.0
 10
18.3937961282
 20
9.5138737353
 30
0.0
 10
18.3919697343
 20
9.5135177972
 30
0.0
 10
18.3903848177
 20
9.5129124983
 30
0.0
 10
18.3890531488
 20
9.5120569238
 30
0.0
 10
18.3879908331
 20
9.5109551392
 30
0.0
 10
18.3872109472
 20
9.50962271
 30
0.0
 10
18.386717547
 20
9.5080802689
 30
0.0
 10
18.3865829878
 20
9.5069762346
 30
0.0
 10
18.3865557746
 20
9.5064010518
 30
0.0
 11
18.3957785308
 21
9.5139429714
 31
0.0
 11
18.393732586
 21
9.5138201446
 31
0.0
 11
18.3919277573
 21
9.5134530132
 31
0.0
 11
18.3903733772
 21
9.5128443295
 31
0.0
 11
18.3890761136
 21
9.5119990062
 31
0.0
 11
18.3880416702
 21
9.5109231895
 31
0.0
 11
18.3872746101
 21
9.5096251139
 31
0.0
 11
18.3867785951
 21
9.5081140998
 31
0.0
 11
18.3865557746
 21
9.5064010518
 31
0.0
  0
SPLINE
  5
2F3
100
AcDbEntity
  8
0
100
AcDbSpline
 62
6
  6
CONTINUOUS
 70
0
 71
3
 72
18
 73
14
 74
12
 42
0.0000001
 43
0.0000001
 44
0.0000000001
 12
-0.0301877677
 22
0.0213541969
 32
0.0
 13
-0.036977061
 23
-0.0000003854
 33
0.0
 40
0.0
 40
0.0
 40
0.0
 40
0.0
 40
0.1855592772
 40
0.3568665348
 40
0.5120741311
 40
0.649509707
 40
0.7677397728
 40
0.8193062887
 40
0.8657050125
 40
0.9069015275
 40
0.9429188702
 40
0.9738675134
 40
1.0
 40
1.0
 40
1.0
 40
1.0
 10
18.3387557073
 20
9.4958047586
 30
0.0
 10
18.3368885005
 20
9.4971255817
 30
0.0
 10
18.3332864419
 20
9.4996502635
 30
0.0
 10
18.3280684431
 20
9.50320172
 30
0.0
 10
18.3232770633
 20
9.5063243609
 30
0.0
 10
18.3189556983
 20
9.5089664669
 30
0.0
 10
18.31564446
 20
9.510807977
 30
0.0
 10
18.3132545238
 20
9.5119878105
 30
0.0
 10
18.3116868003
 20
9.5126852089
 30
0.0
 10
18.3102645769
 20
9.5132338765
 30
0.0
 10
18.3089906298
 20
9.5136314737
 30
0.0
 10
18.3078679766
 20
9.5138764537
 30
0.0
 10
18.3071644068
 20
9.5139429748
 30
0.0
 10
18.3068423059
 20
9.5139429714
 30
0.0
 11
18.3387557073
 21
9.4958047586
 31
0.0
 11
18.3331332913
 21
9.4997376649
 31
0.0
 11
18.3278920374
 21
9.5032949636
 31
0.0
 11
18.323077872
 21
9.5064192745
 31
0.0
 11
18.3187344858
 21
9.5090577118
 31
0.0
 11
18.3149031901
 21
9.5111633735
 31
0.0
 11
18.3131916703
 21
9.512003911
 31
0.0
 11
18.3116222961
 21
9.5126972012
 31
0.0
 11
18.3101989964
 21
9.5132401011
 31
0.0
 11
18.3089254928
 21
9.5136298717
 31
0.0
 11
18.3078054192
 21
9.513864527
 31
0.0
 11
18.3068423059
 21
9.5139429714
 31
0.0
  0
SPLINE
  5
2F4
100
AcDbEntity
  8
0
100
AcDbSpline
 62
6
  6
CONTINUOUS
 70
0
 71
3
 72
15
 73
11
 74
9
 42
0.0000001
 43
0.0000001
 44
0.0000000001
 12
-0.00759955
 22
0.0000000643
 32
0.0
 13
-0.0006100352
 23
-0.0075750259
 33
0.0
 40
0.0
 40
0.0
 40
0.0
 40
0.0
 40
0.1520056349
 40
0.2884893842
 40
0.412258646
 40
0.5272222964
 40
0.6382981509
 40
0.7508848234
 40
0.8700613887
 40
1.0
 40
1.0
 40
1.0
 40
1.0
 10
18.3441370274
 20
9.5139429714
 30
0.0
 10
18.3437519693
 20
9.5139429747
 30
0.0
 10
18.3430200523
 20
9.5139048823
 30
0.0
 10
18.3419904382
 20
9.5137083084
 30
0.0
 10
18.3410949871
 20
9.5133734767
 30
0.0
 10
18.34033889
 20
9.5128981334
 30
0.0
 10
18.3397292812
 20
9.5122836122
 30
0.0
 10
18.3392728844
 20
9.5115360033
 30
0.0
 10
18.3389705851
 20
9.510664859
 30
0.0
 10
18.3388748843
 20
9.5100377256
 30
0.0
 10
18.3388484619
 20
9.5097096295
 30
0.0
 11
18.3441370274
 21
9.5139429714
 31
0.0
 11
18.3429838416
 21
9.5138752186
 31
0.0
 11
18.3419666291
 21
9.5136725028
 31
0.0
 11
18.3410884123
 21
9.513335685
 31
0.0
 11
18.3403516072
 21
9.5128661948
 31
0.0
 11
18.3397578731
 21
9.5122661703
 31
0.0
 11
18.339308755
 21
9.5115379135
 31
0.0
 11
18.3390053276
 21
9.5106845653
 31
0.0
 11
18.3388484619
 21
9.5097096295
 31
0.0
  0
SPLINE
  5
2F5
100
AcDbEntity
  8
0
100
AcDbSpline
 62
6
  6
CONTINUOUS
 70
0
 71
3
 72
17
 73
13
 74
11
 42
0.0000001
 43
0.0000001
 44
0.0000000001
 12
-0.0137426316
 22
0.0104099143
 32
0.0
 13
-0.0172402505
 23
-0.0000003575
 33
0.0
 40
0.0
 40
0.0
 40
0.0
 40
0.0
 40
0.2011905433
 40
0.382198748
 40
0.5419860729
 40
0.6796388047
 40
0.7944333869
 40
0.8859136242
 40
0.9228921228
 40
0.9540938278
 40
0.9796826572
 40
1.0
 40
1.0
 40
1.0
 40
1.0
 10
18.2987418312
 20
9.504711103
 30
0.0
 10
18.297820202
 20
9.5054092284
 30
0.0
 10
18.2960644915
 20
9.5067290038
 30
0.0
 10
18.2935534035
 20
9.5085718775
 30
0.0
 10
18.2913101765
 20
9.5101620295
 30
0.0
 10
18.2893453571
 20
9.5114862633
 30
0.0
 10
18.2876684424
 20
9.5125330057
 30
0.0
 10
18.2864441455
 20
9.5132108882
 30
0.0
 10
18.2856105428
 20
9.5135952216
 30
0.0
 10
18.2851068115
 20
9.5137884162
 30
0.0
 10
18.2846795625
 20
9.5139081232
 30
0.0
 10
18.2844160621
 20
9.5139429739
 30
0.0
 10
18.2842993034
 20
9.5139429714
 30
0.0
 11
18.2987418312
 21
9.504711103
 31
0.0
 11
18.2959676057
 21
9.5067930944
 31
0.0
 11
18.2934497561
 21
9.508636663
 31
0.0
 11
18.2911997261
 21
9.5102260472
 31
0.0
 11
18.2892281891
 21
9.5115470189
 31
0.0
 11
18.287544722
 21
9.5125875597
 31
0.0
 11
18.2861575845
 21
9.5133380442
 31
0.0
 11
18.2855773542
 21
9.5136021708
 31
0.0
 11
18.2850737638
 21
9.5137912744
 31
0.0
 11
18.2846475144
 21
9.5139049918
 31
0.0
 11
18.2842993034
 21
9.5139429714
 31
0.0
  0
SPLINE
  5
2F6
100
AcDbEntity
  8
0
100
AcDbSpline
 62
6
  6
CONTINUOUS
 70
0
 71
3
 72
12
 73
8
 74
6
 42
0.0000001
 43
0.0000001
 44
0.0000000001
 12
-0.0033807044
 22
0.0000000491
 32
0.0
 13
-0.0003516063
 23
-0.0033623705
 33
0.0
 40
0.0
 40
0.0
 40
0.0
 40
0.0
 40
0.2876897105
 40
0.525315288
 40
0.6366817752
 40
0.7497888763
 40
1.0
 40
1.0
 40
1.0
 40
1.0
 10
18.3068407041
 20
9.5139429714
 30
0.0
 10
18.3065165061
 20
9.5139429761
 30
0.0
 10
18.3059194346
 20
9.5138894665
 30
0.0
 10
18.3052476209
 20
9.5135824664
 30
0.0
 10
18.3048741625
 20
9.513212779
 30
0.0
 10
18.304586712
 20
9.5127569457
 30
0.0
 10
18.3044881189
 20
9.5123470847
 30
0.0
 10
18.3044587936
 20
9.5120666506
 30
0.0
 11
18.3068407041
 21
9.5139429714
 31
0.0
 11
18.3058753594
 21
9.5138244451
 31
0.0
 11
18.305154359
 21
9.5134701619
 31
0.0
 11
18.3048867641
 21
9.5132053165
 31
0.0
 11
18.3046815045
 21
9.5128826956
 31
0.0
 11
18.3044587936
 21
9.5120666506
 31
0.0
  0
SPLINE
  5
2F7
100
AcDbEntity
  8
0
100
AcDbSpline
 62
6
  6
CONTINUOUS
 70
0
 71
3
 72
13
 73
9
 74
7
 42
0.0000001
 43
0.0000001
 44
0.0000000001
 12
-0.0652377334
 22
0.0500900328
 32
0.0
 13
-0.0822494574
 23
-0.0000002696
 33
0.0
 40
0.0
 40
0.0
 40
0.0
 40
0.0
 40
0.1172466101
 40
0.2391152634
 40
0.4919534009
 40
0.6206494589
 40
0.7490984431
 40
1.0
 40
1.0
 40
1.0
 40
1.0
 10
19.3044095994
 20
9.4871899537
 30
0.0
 10
19.301859965
 20
9.4891475825
 30
0.0
 10
19.2964974855
 20
9.4929329938
 30
0.0
 10
19.2849112646
 20
9.4998551352
 30
0.0
 10
19.2722741552
 20
9.5055638928
 30
0.0
 10
19.2589350807
 20
9.509798775
 30
0.0
 10
19.2453494509
 20
9.5129156985
 30
0.0
 10
19.2349242714
 20
9.5139429939
 30
0.0
 10
19.2280454325
 20
9.5139429714
 30
0.0
 11
19.3044095994
 21
9.4871899537
 31
0.0
 11
19.2965364575
 21
9.4927586296
 31
0.0
 11
19.2879342752
 21
9.4979040771
 31
0.0
 11
19.2689814146
 21
9.5064629531
 31
0.0
 11
19.2588909384
 21
9.5096611313
 31
0.0
 11
19.2485917274
 21
9.5120153838
 31
0.0
 11
19.2280454325
 21
9.5139429714
 31
0.0
  0
LINE
  5
2F8
100
AcDbEntity
  8
0
100
AcDbLine
 62
6
  6
CONTINUOUS
 10
18.2831320971
 20
9.507903371
 11
18.2767572006
 21
9.5139429714
  0
SPLINE
  5
2F9
100
AcDbEntity
  8
0
100
AcDbSpline
 62
6
  6
CONTINUOUS
 70
0
 71
3
 72
14
 73
10
 74
8
 42
0.0000001
 43
0.0000001
 44
0.0000000001
 12
-0.0707325126
 22
0.000000189
 32
0.0
 13
-0.040807607
 23
-0.0577739348
 33
0.0
 40
0.0
 40
0.0
 40
0.0
 40
0.0
 40
0.2850949816
 40
0.4205262318
 40
0.5499319007
 40
0.6727368817
 40
0.7886335563
 40
0.8976191958
 40
1.0
 40
1.0
 40
1.0
 40
1.0
 10
19.3672300033
 20
9.5139429714
 30
0.0
 10
19.3605081752
 20
9.5139429894
 30
0.0
 10
19.3505492587
 20
9.5130356379
 30
0.0
 10
19.3379580156
 20
9.5098654924
 30
0.0
 10
19.3293689315
 20
9.5066831289
 30
0.0
 10
19.3216130163
 20
9.5027433272
 30
0.0
 10
19.3147984953
 20
9.4981453587
 30
0.0
 10
19.3090174022
 20
9.4929996158
 30
0.0
 10
19.3058022379
 20
9.489161601
 30
0.0
 10
19.3044095994
 20
9.4871899537
 30
0.0
 11
19.3672300033
 21
9.5139429714
 31
0.0
 11
19.3471568407
 21
9.5120155635
 31
0.0
 11
19.3378712163
 21
9.5096614304
 31
0.0
 11
19.3292948877
 21
9.5064633935
 31
0.0
 11
19.3215603433
 21
9.5025100765
 31
0.0
 11
19.314778594
 21
9.4979046932
 31
0.0
 11
19.309038612
 21
9.4927589535
 31
0.0
 11
19.3044095994
 21
9.4871899537
 31
0.0
  0
SPLINE
  5
2FA
100
AcDbEntity
  8
0
100
AcDbSpline
 62
6
  6
CONTINUOUS
 70
0
 71
3
 72
14
 73
10
 74
8
 42
0.0000001
 43
0.0000001
 44
0.0000000001
 12
-0.0667822688
 22
0.0482736472
 32
0.0
 13
-0.0824027696
 23
-0.0000002813
 33
0.0
 40
0.0
 40
0.0
 40
0.0
 40
0.0
 40
0.1211713943
 40
0.2460609583
 40
0.3733901029
 40
0.5018360811
 40
0.6300456159
 40
0.7566827239
 40
1.0
 40
1.0
 40
1.0
 40
1.0
 10
19.1701521288
 20
9.4871899537
 30
0.0
 10
19.167454762
 20
9.4891397487
 30
0.0
 10
19.1618379224
 20
9.4929099319
 30
0.0
 10
19.1529488116
 20
9.4980407828
 30
0.0
 10
19.1435472265
 20
9.5026364459
 30
0.0
 10
19.1337574896
 20
9.5065849572
 30
0.0
 10
19.1237145067
 20
9.5097843833
 30
0.0
 10
19.1103806136
 20
9.5128893595
 30
0.0
 10
19.1001968957
 20
9.5139429942
 30
0.0
 10
19.0935135566
 20
9.5139429714
 30
0.0
 11
19.1701521288
 21
9.4871899537
 31
0.0
 11
19.1618643518
 21
9.4927586295
 31
0.0
 11
19.1529517699
 21
9.4979040768
 31
0.0
 11
19.143524271
 21
9.5025095172
 31
0.0
 11
19.1337060305
 21
9.5064629527
 31
0.0
 11
19.1236369147
 21
9.5096611309
 31
0.0
 11
19.1134707008
 21
9.5120153835
 31
0.0
 11
19.0935135566
 21
9.5139429714
 31
0.0
  0
SPLINE
  5
2FB
100
AcDbEntity
  8
0
100
AcDbSpline
 62
6
  6
CONTINUOUS
 70
0
 71
3
 72
15
 73
11
 74
9
 42
0.0000001
 43
0.0000001
 44
0.0000000001
 12
-0.066655629
 22
0.0000001832
 32
0.0
 13
-0.0324824306
 23
-0.0582053656
 33
0.0
 40
0.0
 40
0.0
 40
0.0
 40
0.0
 40
0.1486059139
 40
0.2914061268
 40
0.4275314583
 40
0.5564045619
 40
0.6777831955
 40
0.7917787219
 40
0.8988906039
 40
1.0
 40
1.0
 40
1.0
 40
1.0
 10
19.228037336
 20
9.5139429714
 30
0.0
 10
19.2247355291
 20
9.5139429805
 30
0.0
 10
19.2182556546
 20
9.5136355219
 30
0.0
 10
19.2088462883
 20
9.5122130968
 30
0.0
 10
19.2000710203
 20
9.5098783628
 30
0.0
 10
19.192074067
 20
9.5066970222
 30
0.0
 10
19.1849787319
 20
9.5027543155
 30
0.0
 10
19.1788868735
 20
9.4981480461
 30
0.0
 10
19.173882879
 20
9.4929877899
 30
0.0
 10
19.1712468885
 20
9.4891516568
 30
0.0
 10
19.1701521288
 20
9.4871899537
 30
0.0
 11
19.228037336
 21
9.5139429714
 31
0.0
 11
19.2181438329
 21
9.5134572183
 31
0.0
 11
19.2087352043
 21
9.5120155635
 31
0.0
 11
19.1999723956
 21
9.5096614304
 31
0.0
 11
19.1919997748
 21
9.5064633935
 31
0.0
 11
19.1849408376
 21
9.5025100765
 31
0.0
 11
19.178897098
 21
9.4979046932
 31
0.0
 11
19.173947816
 21
9.4927589535
 31
0.0
 11
19.1701521288
 21
9.4871899537
 31
0.0
  0
LINE
  5
2FC
100
AcDbEntity
  8
0
100
AcDbLine
 62
6
  6
CONTINUOUS
 10
21.0301789795
 20
9.5139429714
 11
21.0244804969
 21
9.5085352249
  0
LINE
  5
2FD
100
AcDbEntity
  8
0
100
AcDbLine
 62
6
  6
CONTINUOUS
 10
21.0244804969
 20
9.5085352249
 11
21.0237378913
 21
9.5078416643
  0
SPLINE
  5
2FE
100
AcDbEntity
  8
0
100
AcDbSpline
 62
6
  6
CONTINUOUS
 70
0
 71
3
 72
17
 73
13
 74
11
 42
0.0000001
 43
0.0000001
 44
0.0000000001
 12
-0.0172597453
 22
0.0000004317
 32
0.0
 13
-0.0137577498
 23
-0.0104222419
 33
0.0
 40
0.0
 40
0.0
 40
0.0
 40
0.0
 40
0.0203101211
 40
0.0458936527
 40
0.0770918032
 40
0.114068012
 40
0.2055456293
 40
0.3203426362
 40
0.4579991973
 40
0.6177924383
 40
0.7988056734
 40
1.0
 40
1.0
 40
1.0
 40
1.0
 10
21.0226368072
 20
9.5139429714
 30
0.0
 10
21.0225199581
 20
9.5139429743
 30
0.0
 10
21.0222562328
 20
9.5139080657
 30
0.0
 10
21.0218286085
 20
9.5137881829
 30
0.0
 10
21.0213243991
 20
9.5135947098
 30
0.0
 10
21.0204899602
 20
9.5132098285
 30
0.0
 10
21.0192643709
 20
9.5125310456
 30
0.0
 10
21.0175856643
 20
9.5114829128
 30
0.0
 10
21.015618676
 20
9.5101569793
 30
0.0
 10
21.0133729711
 20
9.5085647994
 30
0.0
 10
21.0108590847
 20
9.5067196432
 30
0.0
 10
21.0091014148
 20
9.5053982568
 30
0.0
 10
21.0081787544
 20
9.5046992914
 30
0.0
 11
21.0226368072
 21
9.5139429714
 31
0.0
 11
21.0222883292
 21
9.5139049364
 31
0.0
 11
21.0218617025
 21
9.5137910529
 31
0.0
 11
21.0213576305
 21
9.5136016759
 31
0.0
 11
21.0207768215
 21
9.5133371763
 31
0.0
 11
21.0193882498
 21
9.5125856898
 31
0.0
 11
21.0177029591
 21
9.5115437632
 31
0.0
 11
21.0157292552
 21
9.5102210859
 31
0.0
 11
21.0134767211
 21
9.5086296707
 31
0.0
 11
21.0109560679
 21
9.506783811
 31
0.0
 11
21.0081787544
 21
9.5046992914
 31
0.0
  0
SPLINE
  5
2FF
100
AcDbEntity
  8
0
100
AcDbSpline
 62
6
  6
CONTINUOUS
 70
0
 71
3
 72
15
 73
11
 74
9
 42
0.0000001
 43
0.0000001
 44
0.0000000001
 12
-0.0673166455
 22
0.0464491532
 32
0.0
 13
-0.0817866407
 23
-0.0000002339
 33
0.0
 40
0.0
 40
0.0
 40
0.0
 40
0.0
 40
0.1254044382
 40
0.2535022843
 40
0.3828803477
 40
0.5121031004
 40
0.639742233
 40
0.76442229
 40
0.884871196
 40
1.0
 40
1.0
 40
1.0
 40
1.0
 10
19.0411899691
 20
9.4871899537
 30
0.0
 10
19.0383760337
 20
9.489131597
 30
0.0
 10
19.0325682577
 20
9.4928864645
 30
0.0
 10
19.0234717632
 20
9.4980186676
 30
0.0
 10
19.0139764943
 20
9.5026159797
 30
0.0
 10
19.0042070172
 20
9.506566812
 30
0.0
 10
18.9943003994
 20
9.5097689608
 30
0.0
 10
18.9844051192
 20
9.5121342432
 30
0.0
 10
18.9746803274
 20
9.513594009
 30
0.0
 10
18.9682544972
 20
9.5139429804
 30
0.0
 10
18.9651158311
 20
9.5139429714
 30
0.0
 11
19.0411899691
 21
9.4871899537
 31
0.0
 11
19.0325773632
 21
9.4927592373
 31
0.0
 11
19.0234514086
 21
9.4979049188
 31
0.0
 11
19.01392484
 21
9.5025104
 31
0.0
 11
19.0041233473
 21
9.5064636331
 31
0.0
 11
18.9941860722
 21
9.5096615944
 31
0.0
 11
18.9842643546
 21
9.5120156661
 31
0.0
 11
18.9745192932
 21
9.5134572532
 31
0.0
 11
18.9651158311
 21
9.5139429714
 31
0.0
  0
SPLINE
  5
300
100
AcDbEntity
  8
0
100
AcDbSpline
 62
6
  6
CONTINUOUS
 70
0
 71
3
 72
18
 73
14
 74
12
 42
0.0000001
 43
0.0000001
 44
0.0000000001
 12
-0.0370537664
 22
0.0000005165
 32
0.0
 13
-0.0302482752
 23
-0.0214014824
 33
0.0
 40
0.0
 40
0.0
 40
0.0
 40
0.0
 40
0.0261171294
 40
0.057054331
 40
0.0930635313
 40
0.1342547225
 40
0.1806515997
 40
0.2322186594
 40
0.3504557046
 40
0.487902009
 40
0.643120868
 40
0.814437013
 40
1.0
 40
1.0
 40
1.0
 40
1.0
 10
21.0000936485
 20
9.5139429714
 30
0.0
 10
20.9997710692
 20
9.5139429759
 30
0.0
 10
20.9990663728
 20
9.5138762384
 30
0.0
 10
20.9979418767
 20
9.5136305462
 30
0.0
 10
20.9966656995
 20
9.5132318345
 30
0.0
 10
20.995240856
 20
9.5126817002
 30
0.0
 10
20.9936701596
 20
9.5119824288
 30
0.0
 10
20.9912755197
 20
9.5107994766
 30
0.0
 10
20.9879576881
 20
9.5089531909
 30
0.0
 10
20.9836276252
 20
9.5063044871
 30
0.0
 10
20.9788265548
 20
9.5031742913
 30
0.0
 10
20.9735980181
 20
9.4996145254
 30
0.0
 10
20.9699886537
 20
9.4970840991
 30
0.0
 10
20.9681176669
 20
9.4957603247
 30
0.0
 11
21.0000936485
 21
9.5139429714
 31
0.0
 11
20.9991291137
 21
9.5138642982
 31
0.0
 11
20.9980071893
 21
9.5136289675
 31
0.0
 11
20.9967314448
 21
9.5132381096
 31
0.0
 11
20.9953055312
 21
9.5126937497
 31
0.0
 11
20.9937331624
 21
9.5119986
 31
0.0
 11
20.9920183019
 21
9.5111558464
 31
0.0
 11
20.988179363
 21
9.5090447261
 31
0.0
 11
20.9838272009
 21
9.5063996649
 31
0.0
 11
20.979003269
 21
9.5032677675
 31
0.0
 11
20.9737514019
 21
9.4997021213
 31
0.0
 11
20.9681176669
 21
9.4957603247
 31
0.0
  0
SPLINE
  5
301
100
AcDbEntity
  8
0
100
AcDbSpline
 62
6
  6
CONTINUOUS
 70
0
 71
3
 72
15
 73
11
 74
9
 42
0.0000001
 43
0.0000001
 44
0.0000000001
 12
-0.0621679105
 22
0.0000001779
 32
0.0
 13
-0.0232716004
 23
-0.0576479116
 33
0.0
 40
0.0
 40
0.0
 40
0.0
 40
0.0
 40
0.1521721849
 40
0.2967523095
 40
0.4331153931
 40
0.5610415072
 40
0.6807613158
 40
0.7929706436
 40
0.8988472237
 40
1.0
 40
1.0
 40
1.0
 40
1.0
 10
19.093505777
 20
9.5139429714
 30
0.0
 10
19.0903523681
 20
9.5139429804
 30
0.0
 10
19.0841971267
 20
9.5136409335
 30
0.0
 10
19.0753154425
 20
9.512223282
 30
0.0
 10
19.0671464546
 20
9.509891328
 30
0.0
 10
19.0598249987
 20
9.5067090329
 30
0.0
 10
19.0534654074
 20
9.5027595908
 30
0.0
 10
19.0481620293
 20
9.498138808
 30
0.0
 10
19.0439933511
 20
9.4929564537
 30
0.0
 10
19.0419746314
 20
9.4891337024
 30
0.0
 10
19.0411899691
 20
9.4871899537
 30
0.0
 11
19.093505777
 21
9.5139429714
 31
0.0
 11
19.0840580294
 21
9.5134572183
 31
0.0
 11
19.0751861544
 21
9.5120155635
 31
0.0
 11
19.0670421687
 21
9.5096614304
 31
0.0
 11
19.0597606053
 21
9.5064633934
 31
0.0
 11
19.0534546145
 21
9.5025100765
 31
0.0
 11
19.048215101
 21
9.4979046932
 31
0.0
 11
19.0441107445
 21
9.4927589535
 31
0.0
 11
19.0411899691
 21
9.4871899537
 31
0.0
  0
SPLINE
  5
302
100
AcDbEntity
  8
0
100
AcDbSpline
 62
6
  6
CONTINUOUS
 70
0
 71
3
 72
19
 73
15
 74
13
 42
0.0000001
 43
0.0000001
 44
0.0000000001
 12
-0.048620457
 22
0.0000004114
 32
0.0
 13
-0.0403253662
 23
-0.0271627258
 33
0.0
 40
0.0
 40
0.0
 40
0.0
 40
0.0
 40
0.0319402179
 40
0.0681206283
 40
0.1086974631
 40
0.1537326061
 40
0.2032225577
 40
0.25710005
 40
0.3775205892
 40
0.4437567385
 40
0.5137545697
 40
0.6641671293
 40
0.8269014757
 40
1.0
 40
1.0
 40
1.0
 40
1.0
 10
20.9627967523
 20
9.5139429714
 30
0.0
 10
20.962279103
 20
9.5139429758
 30
0.0
 10
20.9611747593
 20
9.5138660253
 30
0.0
 10
20.9594365083
 20
9.5135679483
 30
0.0
 10
20.9575217373
 20
9.5130816212
 30
0.0
 10
20.9554364599
 20
9.5124102581
 30
0.0
 10
20.9531867254
 20
9.5115573083
 30
0.0
 10
20.949851474
 20
9.5101303083
 30
0.0
 10
20.9463517599
 20
9.5084068696
 30
0.0
 10
20.9426868362
 20
9.5064394287
 30
0.0
 10
20.9386408575
 20
9.5041557337
 30
0.0
 10
20.9333174796
 20
9.5009567146
 30
0.0
 10
20.9266697585
 20
9.4967236442
 30
0.0
 10
20.9221350677
 20
9.4937130712
 30
0.0
 10
20.9198083139
 20
9.4921457953
 30
0.0
 11
20.9627967523
 21
9.5139429714
 31
0.0
 11
20.9612467935
 21
9.5138466641
 31
0.0
 11
20.9595114197
 21
9.5135586729
 31
0.0
 11
20.9575973438
 21
9.5130806489
 31
0.0
 11
20.9555111234
 21
9.5124156974
 31
0.0
 11
20.9532593061
 21
9.5115676212
 31
0.0
 11
20.9508490997
 21
9.5105414934
 31
0.0
 11
20.9455843784
 21
9.5079797395
 31
0.0
 11
20.9427458564
 21
9.5064585643
 31
0.0
 11
20.9397808129
 21
9.5047878912
 31
0.0
 11
20.9335047432
 21
9.5010338558
 31
0.0
 11
20.9268247569
 21
9.4967934572
 31
0.0
 11
20.9198083139
 21
9.4921457953
 31
0.0
  0
SPLINE
  5
303
100
AcDbEntity
  8
0
100
AcDbSpline
 62
6
  6
CONTINUOUS
 70
0
 71
3
 72
17
 73
13
 74
11
 42
0.0000001
 43
0.0000001
 44
0.0000000001
 12
-0.0583320166
 22
0.000000375
 32
0.0
 13
-0.0487771445
 23
-0.0319908477
 33
0.0
 40
0.0
 40
0.0
 40
0.0
 40
0.0
 40
0.0367829418
 40
0.0773282945
 40
0.1217139214
 40
0.1699562744
 40
0.2777845438
 40
0.3999649839
 40
0.5350949948
 40
0.6814482609
 40
0.8370838901
 40
1.0
 40
1.0
 40
1.0
 40
1.0
 10
20.9111544899
 20
9.5139429714
 30
0.0
 10
20.9104392822
 20
9.513942976
 30
0.0
 10
20.9089352314
 20
9.513858918
 30
0.0
 10
20.90659039
 20
9.5135231225
 30
0.0
 10
20.9040580123
 20
9.5129735205
 30
0.0
 10
20.9003032093
 20
9.511921164
 30
0.0
 10
20.8952139419
 20
9.5100629165
 30
0.0
 10
20.8887308892
 20
9.5071593681
 30
0.0
 10
20.8817467245
 20
9.5035715299
 30
0.0
 10
20.874349573
 20
9.4993822025
 30
0.0
 10
20.8666268173
 20
9.494681764
 30
0.0
 10
20.8614155899
 20
9.4913329602
 30
0.0
 10
20.858766729
 20
9.4895956854
 30
0.0
 11
20.9111544899
 21
9.5139429714
 31
0.0
 11
20.9090116481
 21
9.5138337559
 31
0.0
 11
20.9066692036
 21
9.5135072369
 31
0.0
 11
20.9041373986
 21
9.5129655557
 31
0.0
 11
20.9014259075
 21
9.5122126766
 31
0.0
 11
20.8955034982
 21
9.5100943847
 31
0.0
 11
20.8889870964
 21
9.5072080228
 31
0.0
 11
20.8819655221
 21
9.5036261491
 31
0.0
 11
20.8745287156
 21
9.4994338152
 31
0.0
 11
20.866766945
 21
9.4947248016
 31
0.0
 11
20.858766729
 21
9.4895956854
 31
0.0
  0
SPLINE
  5
304
100
AcDbEntity
  8
0
100
AcDbSpline
 62
6
  6
CONTINUOUS
 70
0
 71
3
 72
13
 73
9
 74
7
 42
0.0000001
 43
0.0000001
 44
0.0000000001
 12
-0.0589320429
 22
0.0536407632
 32
0.0
 13
-0.0796888772
 23
-0.0000002499
 33
0.0
 40
0.0
 40
0.0
 40
0.0
 40
0.0
 40
0.1102025803
 40
0.2264487824
 40
0.3480025075
 40
0.4739827611
 40
0.7348015132
 40
1.0
 40
1.0
 40
1.0
 40
1.0
 10
3.5828847607
 20
9.4871899537
 30
0.0
 10
3.5807199397
 20
9.4891604038
 30
0.0
 10
3.5760513929
 20
9.4929726561
 30
0.0
 10
3.5683460059
 20
9.4981026717
 30
0.0
 10
3.559827689
 20
9.502694798
 30
0.0
 10
3.5473973648
 20
9.5080098467
 30
0.0
 10
3.53061275
 20
9.5126482494
 30
0.0
 10
3.5166116805
 20
9.5139429935
 30
0.0
 10
3.5095672239
 20
9.5139429714
 30
0.0
 11
3.5828847607
 21
9.4871899537
 31
0.0
 11
3.5760941815
 21
9.4927586295
 31
0.0
 11
3.5683911076
 21
9.4979040768
 31
0.0
 11
3.5598694991
 21
9.5025095171
 31
0.0
 11
3.5506414773
 21
9.5064629526
 31
0.0
 11
3.5306125017
 21
9.5120153835
 31
0.0
 11
3.5095672239
 21
9.5139429714
 31
0.0
  0
SPLINE
  5
305
100
AcDbEntity
  8
0
100
AcDbSpline
 62
6
  6
CONTINUOUS
 70
0
 71
3
 72
13
 73
9
 74
7
 42
0.0000001
 43
0.0000001
 44
0.0000000001
 12
-0.0773294691
 22
0.0000001832
 32
0.0
 13
-0.0540717781
 23
-0.0552819103
 33
0.0
 40
0.0
 40
0.0
 40
0.0
 40
0.0
 40
0.2720564572
 40
0.534468053
 40
0.6595190311
 40
0.7792000257
 40
0.8928527347
 40
1.0
 40
1.0
 40
1.0
 40
1.0
 10
3.6534645704
 20
9.5139429714
 30
0.0
 10
3.6464519099
 20
9.513942988
 30
0.0
 10
3.6326438269
 20
9.5126860789
 30
0.0
 10
3.6161784794
 20
9.5080500405
 30
0.0
 10
3.6042251994
 20
9.5027129657
 30
0.0
 10
3.5961904478
 20
9.4981207191
 30
0.0
 10
3.5890518935
 20
9.4929883677
 30
0.0
 10
3.5848159751
 20
9.4891643888
 30
0.0
 10
3.5828847607
 20
9.4871899537
 30
0.0
 11
3.6534645704
 21
9.5139429714
 31
0.0
 11
3.6325150609
 21
9.5120156123
 31
0.0
 11
3.6129972517
 21
9.5064634549
 31
0.0
 11
3.6041721416
 21
9.5025101317
 31
0.0
 11
3.5961445082
 21
9.4979047351
 31
0.0
 11
3.5890197288
 21
9.4927589766
 31
0.0
 11
3.5828847607
 21
9.4871899537
 31
0.0
  0
SPLINE
  5
306
100
AcDbEntity
  8
0
100
AcDbSpline
 62
6
  6
CONTINUOUS
 70
0
 71
3
 72
13
 73
9
 74
7
 42
0.0000001
 43
0.0000001
 44
0.0000000001
 12
-0.0626390778
 22
0.0518905254
 32
0.0
 13
-0.0813405231
 23
-0.0000002591
 33
0.0
 40
0.0
 40
0.0
 40
0.0
 40
0.0
 40
0.1135849238
 40
0.2325735349
 40
0.356016473
 40
0.4828584207
 40
0.7418384673
 40
1.0
 40
1.0
 40
1.0
 40
1.0
 10
3.4424914278
 20
9.4871899537
 30
0.0
 10
3.4401198095
 20
9.4891546141
 30
0.0
 10
3.4350747172
 20
9.4929538268
 30
0.0
 10
3.426884911
 20
9.4980833186
 30
0.0
 10
3.4179745085
 20
9.5026762673
 30
0.0
 10
3.4052067586
 20
9.5079692305
 30
0.0
 10
3.3882851715
 20
9.5126096515
 30
0.0
 10
3.374237993
 20
9.5139429937
 30
0.0
 10
3.3672383283
 20
9.5139429714
 30
0.0
 11
3.4424914278
 21
9.4871899537
 31
0.0
 11
3.435119181
 21
9.4927586298
 31
0.0
 11
3.4269216456
 21
9.4979040773
 31
0.0
 11
3.4179992101
 21
9.5025095178
 31
0.0
 11
3.4084693155
 21
9.5064629534
 31
0.0
 11
3.3881486645
 21
9.5120153841
 31
0.0
 11
3.3672383283
 21
9.5139429714
 31
0.0
  0
SPLINE
  5
307
100
AcDbEntity
  8
0
100
AcDbSpline
 62
6
  6
CONTINUOUS
 70
0
 71
3
 72
13
 73
9
 74
7
 42
0.0000001
 43
0.0000001
 44
0.0000000001
 12
-0.0743034054
 22
0.0000001953
 32
0.0
 13
-0.0480190491
 23
-0.0567024424
 33
0.0
 40
0.0
 40
0.0
 40
0.0
 40
0.0
 40
0.2787777125
 40
0.4132008382
 40
0.5428376008
 40
0.6668743585
 40
0.7846977282
 40
1.0
 40
1.0
 40
1.0
 40
1.0
 10
3.5095587548
 20
9.5139429714
 30
0.0
 10
3.5026540437
 20
9.5139429896
 30
0.0
 10
3.4923809856
 20
9.5130116238
 30
0.0
 10
3.4792960537
 20
9.509852384
 30
0.0
 10
3.470208243
 20
9.5066687149
 30
0.0
 10
3.4618713793
 20
9.5027274689
 30
0.0
 10
3.4522183247
 20
9.4967887807
 30
0.0
 10
3.4459376313
 20
9.4912593419
 30
0.0
 10
3.4424914278
 20
9.4871899537
 30
0.0
 11
3.5095587548
 21
9.5139429714
 31
0.0
 11
3.4889344871
 21
9.5120155635
 31
0.0
 11
3.4792277822
 21
9.5096614304
 31
0.0
 11
3.47014171
 21
9.5064633935
 31
0.0
 11
3.4618162996
 21
9.5025100765
 31
0.0
 11
3.454370843
 21
9.4979046932
 31
0.0
 11
3.4424914278
 21
9.4871899537
 31
0.0
  0
SPLINE
  5
308
100
AcDbEntity
  8
0
100
AcDbSpline
 62
6
  6
CONTINUOUS
 70
0
 71
3
 72
15
 73
11
 74
9
 42
0.0000001
 43
0.0000001
 44
0.0000000001
 12
-0.0602799229
 22
0.0000003124
 32
0.0
 13
-0.0510706704
 23
-0.0320227376
 33
0.0
 40
0.0
 40
0.0
 40
0.0
 40
0.0
 40
0.0864429541
 40
0.1855334286
 40
0.2970155614
 40
0.4200564273
 40
0.5534346022
 40
0.6956684791
 40
0.8450963408
 40
1.0
 40
1.0
 40
1.0
 40
1.0
 10
20.8457327697
 20
9.5139429714
 30
0.0
 10
20.8439958448
 20
9.5139429804
 30
0.0
 10
20.8402667359
 20
9.5136123387
 30
0.0
 10
20.834421304
 20
9.512363268
 30
0.0
 10
20.8280165094
 20
9.5103582887
 30
0.0
 10
20.821135225
 20
9.5076441125
 30
0.0
 10
20.8138609513
 20
9.5042817294
 30
0.0
 10
20.8062797855
 20
9.50034385
 30
0.0
 10
20.79847616
 20
9.4959112847
 30
0.0
 10
20.7932539189
 20
9.4927280335
 30
0.0
 10
20.7906169077
 20
9.4910745538
 30
0.0
 11
20.8457327697
 21
9.5139429714
 31
0.0
 11
20.8405378119
 21
9.5135372797
 31
0.0
 11
20.8346876686
 21
9.5123312376
 31
0.0
 11
20.8282646002
 21
9.5103552825
 31
0.0
 11
20.821355559
 21
9.5076579758
 31
0.0
 11
20.8140490564
 21
9.5043028245
 31
0.0
 11
20.8064331814
 21
9.5003646393
 31
0.0
 11
20.7985949637
 21
9.4959264642
 31
0.0
 11
20.7906169077
 21
9.4910745538
 31
0.0
  0
SPLINE
  5
309
100
AcDbEntity
  8
0
100
AcDbSpline
 62
6
  6
CONTINUOUS
 70
0
 71
3
 72
13
 73
9
 74
7
 42
0.0000001
 43
0.0000001
 44
0.0000000001
 12
-0.0652377334
 22
0.0500900328
 32
0.0
 13
-0.0822494574
 23
-0.0000002696
 33
0.0
 40
0.0
 40
0.0
 40
0.0
 40
0.0
 40
0.1172466101
 40
0.2391152634
 40
0.4919534009
 40
0.6206494589
 40
0.7490984431
 40
1.0
 40
1.0
 40
1.0
 40
1.0
 10
3.3044095994
 20
9.4871899537
 30
0.0
 10
3.301859965
 20
9.4891475825
 30
0.0
 10
3.2964974855
 20
9.4929329938
 30
0.0
 10
3.2849112646
 20
9.4998551352
 30
0.0
 10
3.2722741552
 20
9.5055638928
 30
0.0
 10
3.2589350807
 20
9.509798775
 30
0.0
 10
3.2453494509
 20
9.5129156985
 30
0.0
 10
3.2349242714
 20
9.5139429939
 30
0.0
 10
3.2280454325
 20
9.5139429714
 30
0.0
 11
3.3044095994
 21
9.4871899537
 31
0.0
 11
3.2965364575
 21
9.4927586296
 31
0.0
 11
3.2879342752
 21
9.4979040771
 31
0.0
 11
3.2689814146
 21
9.5064629531
 31
0.0
 11
3.2588909384
 21
9.5096611313
 31
0.0
 11
3.2485917274
 21
9.5120153838
 31
0.0
 11
3.2280454325
 21
9.5139429714
 31
0.0
  0
SPLINE
  5
30A
100
AcDbEntity
  8
0
100
AcDbSpline
 62
6
  6
CONTINUOUS
 70
0
 71
3
 72
14
 73
10
 74
8
 42
0.0000001
 43
0.0000001
 44
0.0000000001
 12
-0.0707325126
 22
0.000000189
 32
0.0
 13
-0.040807607
 23
-0.0577739348
 33
0.0
 40
0.0
 40
0.0
 40
0.0
 40
0.0
 40
0.2850949816
 40
0.4205262318
 40
0.5499319007
 40
0.6727368817
 40
0.7886335563
 40
0.8976191958
 40
1.0
 40
1.0
 40
1.0
 40
1.0
 10
3.3672300033
 20
9.5139429714
 30
0.0
 10
3.3605081752
 20
9.5139429894
 30
0.0
 10
3.3505492587
 20
9.5130356379
 30
0.0
 10
3.3379580156
 20
9.5098654924
 30
0.0
 10
3.3293689315
 20
9.5066831289
 30
0.0
 10
3.3216130163
 20
9.5027433272
 30
0.0
 10
3.3147984953
 20
9.4981453587
 30
0.0
 10
3.3090174022
 20
9.4929996158
 30
0.0
 10
3.3058022379
 20
9.489161601
 30
0.0
 10
3.3044095994
 20
9.4871899537
 30
0.0
 11
3.3672300033
 21
9.5139429714
 31
0.0
 11
3.3471568407
 21
9.5120155635
 31
0.0
 11
3.3378712163
 21
9.5096614304
 31
0.0
 11
3.3292948877
 21
9.5064633935
 31
0.0
 11
3.3215603433
 21
9.5025100765
 31
0.0
 11
3.314778594
 21
9.4979046932
 31
0.0
 11
3.309038612
 21
9.4927589535
 31
0.0
 11
3.3044095994
 21
9.4871899537
 31
0.0
  0
SPLINE
  5
30B
100
AcDbEntity
  8
0
100
AcDbSpline
 62
6
  6
CONTINUOUS
 70
0
 71
3
 72
15
 73
11
 74
9
 42
0.0000001
 43
0.0000001
 44
0.0000000001
 12
-0.0668645224
 22
0.0445995327
 32
0.0
 13
-0.0803740174
 23
-0.00000031
 33
0.0
 40
0.0
 40
0.0
 40
0.0
 40
0.0
 40
0.1300008032
 40
0.2615658821
 40
0.3931500518
 40
0.5232152975
 40
0.6502547639
 40
0.7728579198
 40
0.8897746975
 40
1.0
 40
1.0
 40
1.0
 40
1.0
 10
18.9189360565
 20
9.4871899537
 30
0.0
 10
18.916038576
 20
9.489122612
 30
0.0
 10
18.9101067585
 20
9.4928608132
 30
0.0
 10
18.9009032405
 20
9.4979938285
 30
0.0
 10
18.8914182745
 20
9.5025926453
 30
0.0
 10
18.8817763175
 20
9.5065459148
 30
0.0
 10
18.8721123559
 20
9.5097514856
 30
0.0
 10
18.8625704831
 20
9.5121213832
 30
0.0
 10
18.8533032891
 20
9.5135869487
 30
0.0
 10
18.8472145652
 20
9.5139429828
 30
0.0
 10
18.8442614817
 20
9.5139429714
 30
0.0
 11
18.9189360565
 21
9.4871899537
 31
0.0
 11
18.9100949646
 21
9.4927586294
 31
0.0
 11
18.9008568586
 21
9.4979040766
 31
0.0
 11
18.8913363227
 21
9.5025095169
 31
0.0
 11
18.8816588401
 21
9.5064629524
 31
0.0
 11
18.87196196
 21
9.5096611306
 31
0.0
 11
18.8623932118
 21
9.5120153833
 31
0.0
 11
18.8531074008
 21
9.5134571392
 31
0.0
 11
18.8442614817
 21
9.5139429714
 31
0.0
  0
SPLINE
  5
30C
100
AcDbEntity
  8
0
100
AcDbSpline
 62
6
  6
CONTINUOUS
 70
0
 71
3
 72
14
 73
10
 74
8
 42
0.0000001
 43
0.0000001
 44
0.0000000001
 12
-0.0667822688
 22
0.0482736472
 32
0.0
 13
-0.0824027696
 23
-0.0000002813
 33
0.0
 40
0.0
 40
0.0
 40
0.0
 40
0.0
 40
0.1211713943
 40
0.2460609583
 40
0.3733901029
 40
0.5018360811
 40
0.6300456159
 40
0.7566827239
 40
1.0
 40
1.0
 40
1.0
 40
1.0
 10
3.1701521288
 20
9.4871899537
 30
0.0
 10
3.167454762
 20
9.4891397487
 30
0.0
 10
3.1618379224
 20
9.4929099319
 30
0.0
 10
3.1529488116
 20
9.4980407828
 30
0.0
 10
3.1435472265
 20
9.5026364459
 30
0.0
 10
3.1337574896
 20
9.5065849572
 30
0.0
 10
3.1237145067
 20
9.5097843833
 30
0.0
 10
3.1103806136
 20
9.5128893595
 30
0.0
 10
3.1001968957
 20
9.5139429942
 30
0.0
 10
3.0935135566
 20
9.5139429714
 30
0.0
 11
3.1701521288
 21
9.4871899537
 31
0.0
 11
3.1618643518
 21
9.4927586295
 31
0.0
 11
3.1529517699
 21
9.4979040768
 31
0.0
 11
3.143524271
 21
9.5025095172
 31
0.0
 11
3.1337060305
 21
9.5064629527
 31
0.0
 11
3.1236369147
 21
9.5096611309
 31
0.0
 11
3.1134707008
 21
9.5120153835
 31
0.0
 11
3.0935135566
 21
9.5139429714
 31
0.0
  0
SPLINE
  5
30D
100
AcDbEntity
  8
0
100
AcDbSpline
 62
6
  6
CONTINUOUS
 70
0
 71
3
 72
15
 73
11
 74
9
 42
0.0000001
 43
0.0000001
 44
0.0000000001
 12
-0.066655629
 22
0.0000001832
 32
0.0
 13
-0.0324824306
 23
-0.0582053656
 33
0.0
 40
0.0
 40
0.0
 40
0.0
 40
0.0
 40
0.1486059139
 40
0.2914061268
 40
0.4275314583
 40
0.5564045619
 40
0.6777831955
 40
0.7917787219
 40
0.8988906039
 40
1.0
 40
1.0
 40
1.0
 40
1.0
 10
3.228037336
 20
9.5139429714
 30
0.0
 10
3.2247355291
 20
9.5139429805
 30
0.0
 10
3.2182556546
 20
9.5136355219
 30
0.0
 10
3.2088462883
 20
9.5122130968
 30
0.0
 10
3.2000710203
 20
9.5098783628
 30
0.0
 10
3.192074067
 20
9.5066970222
 30
0.0
 10
3.1849787319
 20
9.5027543155
 30
0.0
 10
3.1788868735
 20
9.4981480461
 30
0.0
 10
3.173882879
 20
9.4929877899
 30
0.0
 10
3.1712468885
 20
9.4891516568
 30
0.0
 10
3.1701521288
 20
9.4871899537
 30
0.0
 11
3.228037336
 21
9.5139429714
 31
0.0
 11
3.2181438329
 21
9.5134572183
 31
0.0
 11
3.2087352043
 21
9.5120155635
 31
0.0
 11
3.1999723956
 21
9.5096614304
 31
0.0
 11
3.1919997748
 21
9.5064633935
 31
0.0
 11
3.1849408376
 21
9.5025100765
 31
0.0
 11
3.178897098
 21
9.4979046932
 31
0.0
 11
3.173947816
 21
9.4927589535
 31
0.0
 11
3.1701521288
 21
9.4871899537
 31
0.0
  0
SPLINE
  5
30E
100
AcDbEntity
  8
0
100
AcDbSpline
 62
6
  6
CONTINUOUS
 70
0
 71
3
 72
15
 73
11
 74
9
 42
0.0000001
 43
0.0000001
 44
0.0000000001
 12
-0.0691322593
 22
0.0000003075
 32
0.0
 13
-0.0583714667
 23
-0.0370410738
 33
0.0
 40
0.0
 40
0.0
 40
0.0
 40
0.0
 40
0.0929103276
 40
0.1970491052
 40
0.3118730217
 40
0.4363396716
 40
0.5690607906
 40
0.7084214718
 40
0.85266681
 40
1.0
 40
1.0
 40
1.0
 40
1.0
 10
20.7672483131
 20
9.5139429714
 30
0.0
 10
20.7651072795
 20
9.5139429809
 30
0.0
 10
20.7605644648
 20
9.5135817476
 30
0.0
 10
20.7535035912
 20
9.5121842019
 30
0.0
 10
20.7459049533
 20
9.509939176
 30
0.0
 10
20.7378800436
 20
9.5069064053
 30
0.0
 10
20.7295388886
 20
9.5031628253
 30
0.0
 10
20.7209912248
 20
9.4987988311
 30
0.0
 10
20.7123425899
 20
9.4939135798
 30
0.0
 10
20.7066132759
 20
9.4904005425
 30
0.0
 10
20.7037465911
 20
9.488581416
 30
0.0
 11
20.7672483131
 21
9.5139429714
 31
0.0
 11
20.7608414648
 21
9.5134863315
 31
0.0
 11
20.7537709851
 21
9.5121302557
 31
0.0
 11
20.7461488366
 21
9.5099132125
 31
0.0
 11
20.7380904691
 21
9.5068961114
 31
0.0
 11
20.7297111298
 21
9.5031580635
 31
0.0
 11
20.7211231402
 21
9.4987915396
 31
0.0
 11
20.7124345293
 21
9.4938977734
 31
0.0
 11
20.7037465911
 21
9.488581416
 31
0.0
  0
SPLINE
  5
30F
100
AcDbEntity
  8
0
100
AcDbSpline
 62
6
  6
CONTINUOUS
 70
0
 71
3
 72
15
 73
11
 74
9
 42
0.0000001
 43
0.0000001
 44
0.0000000001
 12
-0.0673166455
 22
0.0464491532
 32
0.0
 13
-0.0817866407
 23
-0.0000002339
 33
0.0
 40
0.0
 40
0.0
 40
0.0
 40
0.0
 40
0.1254044382
 40
0.2535022843
 40
0.3828803477
 40
0.5121031004
 40
0.639742233
 40
0.76442229
 40
0.884871196
 40
1.0
 40
1.0
 40
1.0
 40
1.0
 10
3.0411899691
 20
9.4871899537
 30
0.0
 10
3.0383760337
 20
9.489131597
 30
0.0
 10
3.0325682577
 20
9.4928864645
 30
0.0
 10
3.0234717632
 20
9.4980186676
 30
0.0
 10
3.0139764943
 20
9.5026159797
 30
0.0
 10
3.0042070172
 20
9.506566812
 30
0.0
 10
2.9943003994
 20
9.5097689608
 30
0.0
 10
2.9844051192
 20
9.5121342432
 30
0.0
 10
2.9746803274
 20
9.513594009
 30
0.0
 10
2.9682544972
 20
9.5139429804
 30
0.0
 10
2.9651158311
 20
9.5139429714
 30
0.0
 11
3.0411899691
 21
9.4871899537
 31
0.0
 11
3.0325773632
 21
9.4927592373
 31
0.0
 11
3.0234514086
 21
9.4979049188
 31
0.0
 11
3.01392484
 21
9.5025104
 31
0.0
 11
3.0041233473
 21
9.5064636331
 31
0.0
 11
2.9941860722
 21
9.5096615944
 31
0.0
 11
2.9842643546
 21
9.5120156661
 31
0.0
 11
2.9745192932
 21
9.5134572532
 31
0.0
 11
2.9651158311
 21
9.5139429714
 31
0.0
  0
SPLINE
  5
310
100
AcDbEntity
  8
0
100
AcDbSpline
 62
6
  6
CONTINUOUS
 70
0
 71
3
 72
15
 73
11
 74
9
 42
0.0000001
 43
0.0000001
 44
0.0000000001
 12
-0.0621679105
 22
0.0000001779
 32
0.0
 13
-0.0232716004
 23
-0.0576479116
 33
0.0
 40
0.0
 40
0.0
 40
0.0
 40
0.0
 40
0.1521721849
 40
0.2967523095
 40
0.4331153931
 40
0.5610415072
 40
0.6807613158
 40
0.7929706436
 40
0.8988472237
 40
1.0
 40
1.0
 40
1.0
 40
1.0
 10
3.093505777
 20
9.5139429714
 30
0.0
 10
3.0903523681
 20
9.5139429804
 30
0.0
 10
3.0841971267
 20
9.5136409335
 30
0.0
 10
3.0753154425
 20
9.512223282
 30
0.0
 10
3.0671464546
 20
9.509891328
 30
0.0
 10
3.0598249987
 20
9.5067090329
 30
0.0
 10
3.0534654074
 20
9.5027595908
 30
0.0
 10
3.0481620293
 20
9.498138808
 30
0.0
 10
3.0439933511
 20
9.4929564537
 30
0.0
 10
3.0419746314
 20
9.4891337024
 30
0.0
 10
3.0411899691
 20
9.4871899537
 30
0.0
 11
3.093505777
 21
9.5139429714
 31
0.0
 11
3.0840580294
 21
9.5134572183
 31
0.0
 11
3.0751861544
 21
9.5120155635
 31
0.0
 11
3.0670421687
 21
9.5096614304
 31
0.0
 11
3.0597606053
 21
9.5064633934
 31
0.0
 11
3.0534546145
 21
9.5025100765
 31
0.0
 11
3.048215101
 21
9.4979046932
 31
0.0
 11
3.0441107445
 21
9.4927589535
 31
0.0
 11
3.0411899691
 21
9.4871899537
 31
0.0
  0
SPLINE
  5
311
100
AcDbEntity
  8
0
100
AcDbSpline
 62
6
  6
CONTINUOUS
 70
0
 71
3
 72
15
 73
11
 74
9
 42
0.0000001
 43
0.0000001
 44
0.0000000001
 12
0.0037730369
 22
0.0477565004
 32
0.0
 13
-0.0479053143
 23
-0.0000001702
 33
0.0
 40
0.0
 40
0.0
 40
0.0
 40
0.0
 40
0.1162831617
 40
0.2272699333
 40
0.3368631225
 40
0.4494562746
 40
0.5692385687
 40
0.6995976637
 40
0.8428072534
 40
1.0
 40
1.0
 40
1.0
 40
1.0
 10
20.6071136213
 20
9.4871899537
 30
0.0
 10
20.6072598682
 20
9.489041046
 30
0.0
 10
20.607190609
 20
9.4927026928
 30
0.0
 10
20.6058461071
 20
9.4979638636
 30
0.0
 10
20.6032640697
 20
9.5026813427
 30
0.0
 10
20.5994927416
 20
9.5067057723
 30
0.0
 10
20.594620155
 20
9.5099234171
 30
0.0
 10
20.588748534
 20
9.5122581639
 30
0.0
 10
20.5819858082
 20
9.5136609766
 30
0.0
 10
20.5771805189
 20
9.5139429803
 30
0.0
 10
20.5746703963
 20
9.5139429714
 30
0.0
 11
20.6071136213
 21
9.4871899537
 31
0.0
 11
20.6069696612
 21
9.4927586746
 31
0.0
 11
20.60563065
 21
9.4979041589
 31
0.0
 11
20.6031100967
 21
9.5025096253
 31
0.0
 11
20.5994408406
 21
9.5064630731
 31
0.0
 11
20.5946765239
 21
9.5096612479
 31
0.0
 11
20.5888923828
 21
9.5120154793
 31
0.0
 11
20.5821850795
 21
9.5134571966
 31
0.0
 11
20.5746703963
 21
9.5139429714
 31
0.0
  0
SPLINE
  5
312
100
AcDbEntity
  8
0
100
AcDbSpline
 62
6
  6
CONTINUOUS
 70
0
 71
3
 72
12
 73
8
 74
6
 42
0.0000001
 43
0.0000001
 44
0.0000000001
 12
-0.0003510411
 22
0.003363333
 32
0.0
 13
-0.003381603
 23
-0.0000000353
 33
0.0
 40
0.0
 40
0.0
 40
0.0
 40
0.0
 40
0.2502291886
 40
0.3633376206
 40
0.4747010714
 40
0.7123195872
 40
1.0
 40
1.0
 40
1.0
 40
1.0
 10
21.0024774563
 20
9.5120660048
 30
0.0
 10
21.0024481761
 20
9.5123465395
 30
0.0
 10
21.0023496456
 20
9.5127565531
 30
0.0
 10
21.0020622001
 20
9.513212584
 30
0.0
 10
21.0016886828
 20
9.513582403
 30
0.0
 10
21.0010166939
 20
9.5138894582
 30
0.0
 10
21.0004194864
 20
9.5139429748
 30
0.0
 10
21.0000952128
 20
9.5139429714
 30
0.0
 11
21.0024774563
 21
9.5120660048
 31
0.0
 11
21.0022548422
 21
9.5128823726
 31
0.0
 11
21.0020495856
 21
9.5132051212
 31
0.0
 11
21.0017819538
 21
9.513470057
 31
0.0
 11
21.0010607838
 21
9.5138244249
 31
0.0
 11
21.0000952128
 21
9.5139429714
 31
0.0
  0
SPLINE
  5
313
100
AcDbEntity
  8
0
100
AcDbSpline
 62
6
  6
CONTINUOUS
 70
0
 71
3
 72
15
 73
11
 74
9
 42
0.0000001
 43
0.0000001
 44
0.0000000001
 12
-0.0668645224
 22
0.0445995327
 32
0.0
 13
-0.0803740174
 23
-0.00000031
 33
0.0
 40
0.0
 40
0.0
 40
0.0
 40
0.0
 40
0.1300008032
 40
0.2615658821
 40
0.3931500518
 40
0.5232152975
 40
0.6502547639
 40
0.7728579198
 40
0.8897746975
 40
1.0
 40
1.0
 40
1.0
 40
1.0
 10
2.9189360565
 20
9.4871899537
 30
0.0
 10
2.916038576
 20
9.489122612
 30
0.0
 10
2.9101067585
 20
9.4928608132
 30
0.0
 10
2.9009032405
 20
9.4979938285
 30
0.0
 10
2.8914182745
 20
9.5025926453
 30
0.0
 10
2.8817763175
 20
9.5065459148
 30
0.0
 10
2.8721123559
 20
9.5097514856
 30
0.0
 10
2.8625704831
 20
9.5121213832
 30
0.0
 10
2.8533032891
 20
9.5135869487
 30
0.0
 10
2.8472145652
 20
9.5139429828
 30
0.0
 10
2.8442614817
 20
9.5139429714
 30
0.0
 11
2.9189360565
 21
9.4871899537
 31
0.0
 11
2.9100949646
 21
9.4927586294
 31
0.0
 11
2.9008568586
 21
9.4979040766
 31
0.0
 11
2.8913363227
 21
9.5025095169
 31
0.0
 11
2.8816588401
 21
9.5064629524
 31
0.0
 11
2.87196196
 21
9.5096611306
 31
0.0
 11
2.8623932118
 21
9.5120153833
 31
0.0
 11
2.8531074008
 21
9.5134571392
 31
0.0
 11
2.8442614817
 21
9.5139429714
 31
0.0
  0
SPLINE
  5
314
100
AcDbEntity
  8
0
100
AcDbSpline
 62
6
  6
CONTINUOUS
 70
0
 71
3
 72
15
 73
11
 74
9
 42
0.0000001
 43
0.0000001
 44
0.0000000001
 12
-0.0574317743
 22
0.0000001848
 32
0.0
 13
-0.0136603485
 23
-0.0557835422
 33
0.0
 40
0.0
 40
0.0
 40
0.0
 40
0.0
 40
0.1551699354
 40
0.30078759
 40
0.436594834
 40
0.5628961743
 40
0.6806067621
 40
0.7912452566
 40
0.8968881322
 40
1.0
 40
1.0
 40
1.0
 40
1.0
 10
2.9651090612
 20
9.5139429714
 30
0.0
 10
2.9621384997
 20
9.513942981
 30
0.0
 10
2.9563738583
 20
9.513646802
 30
0.0
 10
2.9481146522
 20
9.5122340788
 30
0.0
 10
2.9406379199
 20
9.5099039081
 30
0.0
 10
2.9340682756
 20
9.5067174183
 30
0.0
 10
2.9285116418
 20
9.5027548266
 30
0.0
 10
2.9240570345
 20
9.4981107115
 30
0.0
 10
2.9207788478
 20
9.4928988389
 30
0.0
 10
2.9194055712
 20
9.4891072687
 30
0.0
 10
2.9189360565
 20
9.4871899537
 30
0.0
 11
2.9651090612
 21
9.5139429714
 31
0.0
 11
2.956210626
 21
9.5134571982
 31
0.0
 11
2.9479727438
 21
9.5120155298
 31
0.0
 11
2.9405368456
 21
9.5096613901
 31
0.0
 11
2.9340261677
 21
9.5064633621
 31
0.0
 11
2.928542244
 21
9.5025100579
 31
0.0
 11
2.9241643663
 21
9.4979046697
 31
0.0
 11
2.920949897
 21
9.4927589138
 31
0.0
 11
2.9189360565
 21
9.4871899537
 31
0.0
  0
SPLINE
  5
315
100
AcDbEntity
  8
0
100
AcDbSpline
 62
6
  6
CONTINUOUS
 70
0
 71
3
 72
15
 73
11
 74
9
 42
0.0000001
 43
0.0000001
 44
0.0000000001
 12
-0.0006113704
 22
0.0075739476
 32
0.0
 13
-0.0075985825
 23
-0.0000000533
 33
0.0
 40
0.0
 40
0.0
 40
0.0
 40
0.0
 40
0.1299253068
 40
0.2490952502
 40
0.3616784189
 40
0.4727558931
 40
0.5877250342
 40
0.7115024866
 40
0.8479927972
 40
1.0
 40
1.0
 40
1.0
 40
1.0
 10
20.968087626
 20
9.5097107977
 30
0.0
 10
20.9680611485
 20
9.5100388136
 30
0.0
 10
20.9679653405
 20
9.5106657964
 30
0.0
 10
20.9676629578
 20
9.5115367248
 30
0.0
 10
20.9672064802
 20
9.5122841289
 30
0.0
 10
20.9665968472
 20
9.5128984781
 30
0.0
 10
20.9658407593
 20
9.5133736946
 30
0.0
 10
20.9649453351
 20
9.513708394
 30
0.0
 10
20.9639158044
 20
9.5139048949
 30
0.0
 10
20.9631839604
 20
9.5139429741
 30
0.0
 10
20.9627989473
 20
9.5139429714
 30
0.0
 11
20.968087626
 21
9.5097107977
 31
0.0
 11
20.9679306114
 21
9.5106854799
 31
0.0
 11
20.9676270909
 21
9.5115386192
 31
0.0
 11
20.9671779083
 21
9.512266677
 31
0.0
 11
20.9665841466
 21
9.5128665403
 31
0.0
 11
20.9658473428
 21
9.5133359031
 31
0.0
 11
20.9649691432
 21
9.5136726051
 31
0.0
 11
20.9639519992
 21
9.5138752445
 31
0.0
 11
20.9627989473
 21
9.5139429714
 31
0.0
  0
SPLINE
  5
316
100
AcDbEntity
  8
0
100
AcDbSpline
 62
6
  6
CONTINUOUS
 70
0
 71
3
 72
15
 73
11
 74
9
 42
0.0000001
 43
0.0000001
 44
0.0000000001
 12
-0.0753040158
 22
0.0000002943
 32
0.0
 13
-0.0632717937
 23
-0.0408335024
 33
0.0
 40
0.0
 40
0.0
 40
0.0
 40
0.0
 40
0.0990912333
 40
0.2079198791
 40
0.3257223498
 40
0.4513168687
 40
0.5832378154
 40
0.7198323491
 40
0.8593575258
 40
1.0
 40
1.0
 40
1.0
 40
1.0
 10
20.676561065
 20
9.5139429714
 30
0.0
 10
20.6740737424
 20
9.5139429811
 30
0.0
 10
20.6688519988
 20
9.513569196
 30
0.0
 10
20.6607984982
 20
9.512090562
 30
0.0
 10
20.6522724488
 20
9.5097115662
 30
0.0
 10
20.6434078878
 20
9.5065001282
 30
0.0
 10
20.6343347809
 20
9.5025432555
 30
0.0
 10
20.625179114
 20
9.4979422192
 30
0.0
 10
20.6160608598
 20
9.4928075781
 30
0.0
 10
20.6100798552
 20
9.4891042619
 30
0.0
 10
20.6071136213
 20
9.4871899537
 30
0.0
 11
20.676561065
 21
9.5139429714
 31
0.0
 11
20.6691149245
 21
9.5134572182
 31
0.0
 11
20.6610474905
 21
9.5120155634
 31
0.0
 11
20.6524945563
 21
9.5096614303
 31
0.0
 11
20.643593882
 21
9.5064633933
 31
0.0
 11
20.6344802022
 21
9.5025100764
 31
0.0
 11
20.6252826674
 21
9.4979046931
 31
0.0
 11
20.6161221904
 21
9.4927589535
 31
0.0
 11
20.6071136213
 21
9.4871899537
 31
0.0
  0
SPLINE
  5
317
100
AcDbEntity
  8
0
100
AcDbSpline
 62
6
  6
CONTINUOUS
 70
0
 71
3
 72
15
 73
11
 74
9
 42
0.0000001
 43
0.0000001
 44
0.0000000001
 12
-0.0574317743
 22
0.0000001848
 32
0.0
 13
-0.0136603485
 23
-0.0557835422
 33
0.0
 40
0.0
 40
0.0
 40
0.0
 40
0.0
 40
0.1551699354
 40
0.30078759
 40
0.436594834
 40
0.5628961743
 40
0.6806067621
 40
0.7912452566
 40
0.8968881322
 40
1.0
 40
1.0
 40
1.0
 40
1.0
 10
18.9651090612
 20
9.5139429714
 30
0.0
 10
18.9621384997
 20
9.513942981
 30
0.0
 10
18.9563738583
 20
9.513646802
 30
0.0
 10
18.9481146522
 20
9.5122340788
 30
0.0
 10
18.9406379199
 20
9.5099039081
 30
0.0
 10
18.9340682756
 20
9.5067174183
 30
0.0
 10
18.9285116418
 20
9.5027548266
 30
0.0
 10
18.9240570345
 20
9.4981107115
 30
0.0
 10
18.9207788478
 20
9.4928988389
 30
0.0
 10
18.9194055712
 20
9.4891072687
 30
0.0
 10
18.9189360565
 20
9.4871899537
 30
0.0
 11
18.9651090612
 21
9.5139429714
 31
0.0
 11
18.956210626
 21
9.5134571982
 31
0.0
 11
18.9479727438
 21
9.5120155298
 31
0.0
 11
18.9405368456
 21
9.5096613901
 31
0.0
 11
18.9340261677
 21
9.5064633621
 31
0.0
 11
18.928542244
 21
9.5025100579
 31
0.0
 11
18.9241643663
 21
9.4979046697
 31
0.0
 11
18.920949897
 21
9.4927589138
 31
0.0
 11
18.9189360565
 21
9.4871899537
 31
0.0
  0
SPLINE
  5
318
100
AcDbEntity
  8
0
100
AcDbSpline
 62
6
  6
CONTINUOUS
 70
0
 71
3
 72
15
 73
11
 74
9
 42
0.0000001
 43
0.0000001
 44
0.0000000001
 12
-0.0006346598
 22
0.0134123978
 32
0.0
 13
-0.0134274051
 23
-0.0000000715
 33
0.0
 40
0.0
 40
0.0
 40
0.0
 40
0.0
 40
0.1286545361
 40
0.2470966363
 40
0.3593886757
 40
0.4705407216
 40
0.5858569773
 40
0.7101817038
 40
0.847353224
 40
1.0
 40
1.0
 40
1.0
 40
1.0
 10
20.920380409
 20
9.5064010788
 30
0.0
 10
20.9203531918
 20
9.5069762674
 30
0.0
 10
20.9202186104
 20
9.5080803118
 30
0.0
 10
20.9197252206
 20
9.5096227804
 30
0.0
 10
20.9189452767
 20
9.510955199
 30
0.0
 10
20.9178829555
 20
9.5120570036
 30
0.0
 10
20.9165512365
 20
9.5129125601
 30
0.0
 10
20.9149662692
 20
9.5135178572
 30
0.0
 10
20.913139816
 20
9.5138737364
 30
0.0
 10
20.9118405956
 20
9.5139429751
 30
0.0
 10
20.9111573789
 20
9.5139429714
 30
0.0
 11
20.920380409
 21
9.5064010788
 31
0.0
 11
20.92015757
 21
9.5081141425
 31
0.0
 11
20.9196615448
 21
9.5096251805
 31
0.0
 11
20.9188944482
 21
9.5109232544
 31
0.0
 11
20.9178599864
 21
9.5119990778
 31
0.0
 11
20.9165626877
 21
9.5128443899
 31
0.0
 11
20.9150082509
 21
9.5134530639
 31
0.0
 11
20.9132033463
 21
9.513820159
 31
0.0
 11
20.9111573789
 21
9.5139429714
 31
0.0
  0
SPLINE
  5
319
100
AcDbEntity
  8
0
100
AcDbSpline
 62
6
  6
CONTINUOUS
 70
0
 71
3
 72
15
 73
11
 74
9
 42
0.0000001
 43
0.0000001
 44
0.0000000001
 12
-0.0654972919
 22
0.0427315977
 32
0.0
 13
-0.0782041219
 23
-0.0000003283
 33
0.0
 40
0.0
 40
0.0
 40
0.0
 40
0.0
 40
0.1350457811
 40
0.270390474
 40
0.4043611203
 40
0.5353161589
 40
0.6616767968
 40
0.7820039856
 40
0.8950776377
 40
1.0
 40
1.0
 40
1.0
 40
1.0
 10
2.8047298307
 20
9.4871899537
 30
0.0
 10
2.801781453
 20
9.4891135277
 30
0.0
 10
2.7957917969
 20
9.4928346152
 30
0.0
 10
2.7865808633
 20
9.4979685104
 30
0.0
 10
2.7772094384
 20
9.5025686258
 30
0.0
 10
2.767800364
 20
9.5065239355
 30
0.0
 10
2.7584849585
 20
9.5097326211
 30
0.0
 10
2.7494011078
 20
9.5121070754
 30
0.0
 10
2.740693035
 20
9.5135788573
 30
0.0
 10
2.7350072619
 20
9.5139429829
 30
0.0
 10
2.7322721415
 20
9.5139429714
 30
0.0
 11
2.8047298307
 21
9.4871899537
 31
0.0
 11
2.7957561213
 21
9.4927586294
 31
0.0
 11
2.7865064572
 21
9.4979040767
 31
0.0
 11
2.7770958973
 21
9.502509517
 31
0.0
 11
2.7676485161
 21
9.5064629525
 31
0.0
 11
2.758298433
 21
9.5096611307
 31
0.0
 11
2.7491876076
 21
9.5120153833
 31
0.0
 11
2.7404631072
 21
9.5134571392
 31
0.0
 11
2.7322721415
 21
9.5139429714
 31
0.0
  0
SPLINE
  5
31A
100
AcDbEntity
  8
0
100
AcDbSpline
 62
6
  6
CONTINUOUS
 70
0
 71
3
 72
15
 73
11
 74
9
 42
0.0000001
 43
0.0000001
 44
0.0000000001
 12
-0.0526140063
 22
0.00000017
 32
0.0
 13
-0.0043725483
 23
-0.0524319986
 33
0.0
 40
0.0
 40
0.0
 40
0.0
 40
0.0
 40
0.1571065514
 40
0.3025195833
 40
0.4365335766
 40
0.5602355444
 40
0.6755425218
 40
0.7851196061
 40
0.8921639204
 40
1.0
 40
1.0
 40
1.0
 40
1.0
 10
2.8442545908
 20
9.5139429714
 30
0.0
 10
2.8414992558
 20
9.5139429803
 30
0.0
 10
2.836186448
 20
9.5136534137
 30
0.0
 10
2.82863665
 20
9.5122457418
 30
0.0
 10
2.8219291267
 20
9.5099153831
 30
0.0
 10
2.8161785785
 20
9.5067187931
 30
0.0
 10
2.8114854881
 20
9.5027327379
 30
0.0
 10
2.8079374485
 20
9.4980549351
 30
0.0
 10
2.8056030574
 20
9.4928119045
 30
0.0
 10
2.8048870035
 20
9.4890746407
 30
0.0
 10
2.8047298307
 20
9.4871899537
 30
0.0
 11
2.8442545908
 21
9.5139429714
 31
0.0
 11
2.8360028707
 21
9.5134572183
 31
0.0
 11
2.8284891637
 21
9.5120155634
 31
0.0
 11
2.8218427479
 21
9.5096614303
 31
0.0
 11
2.816174189
 21
9.5064633934
 31
0.0
 11
2.8115723538
 21
9.5025100765
 31
0.0
 11
2.808104068
 21
9.4979046931
 31
0.0
 11
2.805814717
 21
9.4927589535
 31
0.0
 11
2.8047298307
 21
9.4871899537
 31
0.0
  0
SPLINE
  5
31B
100
AcDbEntity
  8
0
100
AcDbSpline
 62
6
  6
CONTINUOUS
 70
0
 71
3
 72
16
 73
12
 74
10
 42
0.0000001
 43
0.0000001
 44
0.0000000001
 12
-0.0001031394
 22
0.0207971269
 32
0.0
 13
-0.0207973826
 23
-0.000000091
 33
0.0
 40
0.0
 40
0.0
 40
0.0
 40
0.0
 40
0.1269856744
 40
0.2444269289
 40
0.3562947424
 40
0.4675167712
 40
0.5833110585
 40
0.7083833546
 40
0.7756593139
 40
0.846540931
 40
1.0
 40
1.0
 40
1.0
 40
1.0
 10
20.8597860464
 20
9.502151522
 30
0.0
 10
20.8597816807
 20
9.5030318344
 30
0.0
 10
20.8596405958
 20
9.5047309828
 30
0.0
 10
20.85895541
 20
9.5071227552
 30
0.0
 10
20.8578002639
 20
9.5092072058
 30
0.0
 10
20.8561828543
 20
9.5109429731
 30
0.0
 10
20.854128972
 20
9.5122992712
 30
0.0
 10
20.8521268424
 20
9.5130831477
 30
0.0
 10
20.8503549349
 20
9.5135255176
 30
0.0
 10
20.8483589154
 20
9.513857459
 30
0.0
 10
20.8468001685
 20
9.5139429761
 30
0.0
 10
20.8457363195
 20
9.5139429714
 30
0.0
 11
20.8597860464
 21
9.502151522
 31
0.0
 11
20.8595462961
 21
9.5047815868
 31
0.0
 11
20.8588563284
 21
9.507124578
 31
0.0
 11
20.8577206296
 21
9.5091551097
 31
0.0
 11
20.8561468794
 21
9.5108503581
 31
0.0
 11
20.8541461323
 21
9.5121907033
 31
0.0
 11
20.8517322857
 21
9.5131599625
 31
0.0
 11
20.8503754956
 21
9.5135016935
 31
0.0
 11
20.8489218138
 21
9.5137465074
 31
0.0
 11
20.8457363195
 21
9.5139429714
 31
0.0
  0
SPLINE
  5
31C
100
AcDbEntity
  8
0
100
AcDbSpline
 62
6
  6
CONTINUOUS
 70
0
 71
3
 72
15
 73
11
 74
9
 42
0.0000001
 43
0.0000001
 44
0.0000000001
 12
-0.0043725938
 22
0.0524325443
 32
0.0
 13
-0.0526145539
 23
-0.000000141
 33
0.0
 40
0.0
 40
0.0
 40
0.0
 40
0.0
 40
0.1078302224
 40
0.2148683483
 40
0.3244450149
 40
0.4397532348
 40
0.5634575158
 40
0.6974738731
 40
0.8428902586
 40
1.0
 40
1.0
 40
1.0
 40
1.0
 10
20.5022063494
 20
9.4871899537
 30
0.0
 10
20.5020491835
 20
9.489074558
 30
0.0
 10
20.501333227
 20
9.4928116636
 30
0.0
 10
20.4989989227
 20
9.4980545524
 30
0.0
 10
20.4954510381
 20
9.5027324276
 30
0.0
 10
20.4907578893
 20
9.50671861
 30
0.0
 10
20.4850072154
 20
9.5099153299
 30
0.0
 10
20.4782994887
 20
9.5122457666
 30
0.0
 10
20.4707494518
 20
9.5136534652
 30
0.0
 10
20.4654364716
 20
9.5139429788
 30
0.0
 10
20.462681052
 20
9.5139429714
 30
0.0
 11
20.5022063494
 21
9.4871899537
 31
0.0
 11
20.5011215626
 21
9.4927587191
 31
0.0
 11
20.4988323765
 21
9.4979042399
 31
0.0
 11
20.4953641719
 21
9.502509732
 31
0.0
 11
20.4907622903
 21
9.506463192
 31
0.0
 11
20.4850935897
 21
9.5096613634
 31
0.0
 11
20.4784469915
 21
9.5120155738
 31
0.0
 11
20.4709330284
 21
9.5134572531
 31
0.0
 11
20.462681052
 21
9.5139429714
 31
0.0
  0
SPLINE
  5
31D
100
AcDbEntity
  8
0
100
AcDbSpline
 62
6
  6
CONTINUOUS
 70
0
 71
3
 72
16
 73
12
 74
10
 42
0.0000001
 43
0.0000001
 44
0.0000000001
 12
0.0014205016
 22
0.0295911107
 32
0.0
 13
-0.0296251862
 23
-0.0000001724
 33
0.0
 40
0.0
 40
0.0
 40
0.0
 40
0.0
 40
0.1250461315
 40
0.2412839428
 40
0.3526140461
 40
0.4639030072
 40
0.5802812539
 40
0.7062967835
 40
0.7741154882
 40
0.8455492518
 40
1.0
 40
1.0
 40
1.0
 40
1.0
 10
20.7868501875
 20
9.4969629045
 30
0.0
 10
20.7869093969
 20
9.4981963225
 30
0.0
 10
20.7868261196
 20
9.5005940344
 30
0.0
 10
20.7859893614
 20
9.5040026342
 30
0.0
 10
20.784437468
 20
9.5070056715
 30
0.0
 10
20.7821848327
 20
9.5095291351
 30
0.0
 10
20.7792746566
 20
9.5115152123
 30
0.0
 10
20.7764148064
 20
9.5126701882
 30
0.0
 10
20.773875902
 20
9.5133240887
 30
0.0
 10
20.7710147661
 20
9.5138157365
 30
0.0
 10
20.7687787933
 20
9.5139429802
 30
0.0
 10
20.7672535825
 20
9.5139429714
 30
0.0
 11
20.7868501875
 21
9.4969629045
 31
0.0
 11
20.7866916621
 21
9.500664026
 31
0.0
 11
20.785846694
 21
9.5040023162
 31
0.0
 11
20.7843222986
 21
9.5069270687
 31
0.0
 11
20.782132523
 21
9.5093917803
 31
0.0
 11
20.779298593
 21
9.5113553647
 31
0.0
 11
20.7758494447
 21
9.5127837934
 31
0.0
 11
20.7739048707
 21
9.5132890482
 31
0.0
 11
20.7718199333
 21
9.5136516795
 31
0.0
 11
20.7672535825
 21
9.5139429714
 31
0.0
  0
SPLINE
  5
31E
100
AcDbEntity
  8
0
100
AcDbSpline
 62
6
  6
CONTINUOUS
 70
0
 71
3
 72
15
 73
11
 74
9
 42
0.0000001
 43
0.0000001
 44
0.0000000001
 12
-0.0632721677
 22
0.0408337437
 32
0.0
 13
-0.0753044609
 23
-0.0000002439
 33
0.0
 40
0.0
 40
0.0
 40
0.0
 40
0.0
 40
0.1406353933
 40
0.2801532142
 40
0.4167487442
 40
0.5486725404
 40
0.6742706386
 40
0.7920759152
 40
0.9009071556
 40
1.0
 40
1.0
 40
1.0
 40
1.0
 10
2.6998225588
 20
9.4871899537
 30
0.0
 10
2.6968564567
 20
9.4891041769
 30
0.0
 10
2.6908757345
 20
9.4928073395
 30
0.0
 10
2.6817577262
 20
9.4979418545
 30
0.0
 10
2.6726021131
 20
9.5025429363
 30
0.0
 10
2.6635287939
 20
9.5064999356
 30
0.0
 10
2.654663972
 20
9.5097114999
 30
0.0
 10
2.6461376569
 20
9.5120905758
 30
0.0
 10
2.6380839313
 20
9.5135692487
 30
0.0
 10
2.6328620481
 20
9.5139429795
 30
0.0
 10
2.6303746703
 20
9.5139429714
 30
0.0
 11
2.6998225588
 21
9.4871899537
 31
0.0
 11
2.6908143981
 21
9.4927587191
 31
0.0
 11
2.6816543623
 21
9.4979042399
 31
0.0
 11
2.6724567301
 21
9.502509732
 31
0.0
 11
2.6633428145
 21
9.506463192
 31
0.0
 11
2.6544418426
 21
9.5096613634
 31
0.0
 11
2.6458886562
 21
9.5120155738
 31
0.0
 11
2.6378209788
 21
9.5134572531
 31
0.0
 11
2.6303746703
 21
9.5139429714
 31
0.0
  0
SPLINE
  5
31F
100
AcDbEntity
  8
0
100
AcDbSpline
 62
6
  6
CONTINUOUS
 70
0
 71
3
 72
15
 73
11
 74
9
 42
0.0000001
 43
0.0000001
 44
0.0000000001
 12
-0.0479053297
 22
0.0000001685
 32
0.0
 13
0.0037730381
 23
-0.0477565158
 33
0.0
 40
0.0
 40
0.0
 40
0.0
 40
0.0
 40
0.1571899316
 40
0.3003965449
 40
0.4307535751
 40
0.5505336657
 40
0.6631253595
 40
0.772718364
 40
0.8837110217
 40
1.0
 40
1.0
 40
1.0
 40
1.0
 10
2.7322658117
 20
9.5139429714
 30
0.0
 10
2.7297557332
 20
9.5139429802
 30
0.0
 10
2.724950535
 20
9.5136609925
 30
0.0
 10
2.7181879259
 20
9.5122582325
 30
0.0
 10
2.7123163903
 20
9.5099235906
 30
0.0
 10
2.7074438223
 20
9.5067060812
 30
0.0
 10
2.7036724642
 20
9.5026817727
 30
0.0
 10
2.7010902164
 20
9.4979643249
 30
0.0
 10
2.6997456332
 20
9.4927029741
 30
0.0
 10
2.6996763045
 20
9.4890411391
 30
0.0
 10
2.6998225588
 20
9.4871899537
 30
0.0
 11
2.7322658117
 21
9.5139429714
 31
0.0
 11
2.7247512598
 21
9.5134572183
 31
0.0
 11
2.7180440867
 21
9.5120155634
 31
0.0
 11
2.7122600102
 21
9.5096614303
 31
0.0
 11
2.7074957259
 21
9.5064633933
 31
0.0
 11
2.7038264289
 21
9.5025100764
 31
0.0
 11
2.7013057387
 21
9.4979046931
 31
0.0
 11
2.6999665822
 21
9.4927589535
 31
0.0
 11
2.6998225588
 21
9.4871899537
 31
0.0
  0
SPLINE
  5
320
100
AcDbEntity
  8
0
100
AcDbSpline
 62
6
  6
CONTINUOUS
 70
0
 71
3
 72
15
 73
11
 74
9
 42
0.0000001
 43
0.0000001
 44
0.0000000001
 12
0.0042503387
 22
0.0394417716
 32
0.0
 13
-0.0396701239
 23
-0.0000001285
 33
0.0
 40
0.0
 40
0.0
 40
0.0
 40
0.0
 40
0.1226809795
 40
0.2373608972
 40
0.3479874969
 40
0.4593796828
 40
0.5765420305
 40
0.7038088877
 40
0.8443435955
 40
1.0
 40
1.0
 40
1.0
 40
1.0
 10
20.7022401313
 20
9.4909945135
 30
0.0
 10
20.7024139432
 20
9.4926074319
 30
0.0
 10
20.7024732662
 20
9.4957702337
 30
0.0
 10
20.7015523735
 20
9.5003202111
 30
0.0
 10
20.6996066693
 20
9.5043794236
 30
0.0
 10
20.6966597894
 20
9.5078260529
 30
0.0
 10
20.6927793617
 20
9.5105632393
 30
0.0
 10
20.6880485128
 20
9.5125344389
 30
0.0
 10
20.6825481346
 20
9.513710549
 30
0.0
 10
20.6786241206
 20
9.5139429781
 30
0.0
 10
20.6765658176
 20
9.5139429714
 30
0.0
 11
20.7022401313
 21
9.4909945135
 31
0.0
 11
20.7022916189
 21
9.4958610108
 31
0.0
 11
20.7013588023
 21
9.5003137166
 31
0.0
 11
20.6994507171
 21
9.504265775
 31
0.0
 11
20.696589543
 21
9.507633375
 31
0.0
 11
20.6928118591
 21
9.5103410613
 31
0.0
 11
20.6881692183
 21
9.5123247896
 31
0.0
 11
20.6827272795
 21
9.5135356791
 31
0.0
 11
20.6765658176
 21
9.5139429714
 31
0.0
  0
SPLINE
  5
321
100
AcDbEntity
  8
0
100
AcDbSpline
 62
6
  6
CONTINUOUS
 70
0
 71
3
 72
15
 73
11
 74
9
 42
0.0000001
 43
0.0000001
 44
0.0000000001
 12
-0.0782046777
 22
0.0000002752
 32
0.0
 13
-0.0654977574
 23
-0.0427319014
 33
0.0
 40
0.0
 40
0.0
 40
0.0
 40
0.0
 40
0.1049198785
 40
0.2179903717
 40
0.3383145335
 40
0.4646717023
 40
0.5956242672
 40
0.7295944873
 40
0.8649468615
 40
1.0
 40
1.0
 40
1.0
 40
1.0
 10
20.5746645962
 20
9.5139429714
 30
0.0
 10
20.5719295211
 20
9.513942981
 30
0.0
 10
20.5662438512
 20
9.5135789518
 30
0.0
 10
20.5575359282
 20
9.5121072486
 30
0.0
 10
20.5484522363
 20
9.5097329247
 30
0.0
 10
20.539136959
 20
9.5065243681
 30
0.0
 10
20.5297279439
 20
9.50256916
 30
0.0
 10
20.520356298
 20
9.4979690425
 30
0.0
 10
20.5111449534
 20
9.4928349465
 30
0.0
 10
20.5051549087
 20
9.4891136461
 30
0.0
 10
20.5022063494
 20
9.4871899537
 30
0.0
 11
20.5746645962
 21
9.5139429714
 31
0.0
 11
20.5664737619
 21
9.5134572183
 31
0.0
 11
20.5577494316
 21
9.5120155634
 31
0.0
 11
20.5486387506
 21
9.5096614303
 31
0.0
 11
20.5392888318
 21
9.5064633933
 31
0.0
 11
20.5298415317
 21
9.5025100764
 31
0.0
 11
20.5204308981
 21
9.4979046931
 31
0.0
 11
20.5111806232
 21
9.4927589535
 31
0.0
 11
20.5022063494
 21
9.4871899537
 31
0.0
  0
SPLINE
  5
322
100
AcDbEntity
  8
0
100
AcDbSpline
 62
6
  6
CONTINUOUS
 70
0
 71
3
 72
15
 73
11
 74
9
 42
0.0000001
 43
0.0000001
 44
0.0000000001
 12
-0.0583692536
 22
0.0370390669
 32
0.0
 13
-0.0691293154
 23
-0.0000003301
 33
0.0
 40
0.0
 40
0.0
 40
0.0
 40
0.0
 40
0.1473230382
 40
0.2915631942
 40
0.4309247671
 40
0.5636487059
 40
0.6881187113
 40
0.8029454168
 40
0.9070872624
 40
1.0
 40
1.0
 40
1.0
 40
1.0
 10
2.6031872455
 20
9.488582905
 30
0.0
 10
2.6003208669
 20
9.4904018077
 30
0.0
 10
2.5945920696
 20
9.493914464
 30
0.0
 10
2.5859440648
 20
9.4987992929
 30
0.0
 10
2.5773967846
 20
9.5031630648
 30
0.0
 10
2.5690558257
 20
9.506906529
 30
0.0
 10
2.561031058
 20
9.5099392254
 30
0.0
 10
2.5534325389
 20
9.5121842145
 30
0.0
 10
2.5463717784
 20
9.5135817274
 30
0.0
 10
2.5418290326
 20
9.5139429816
 30
0.0
 10
2.5396880346
 20
9.5139429714
 30
0.0
 11
2.6031872455
 21
9.488582905
 31
0.0
 11
2.5945002365
 21
9.4938986056
 31
0.0
 11
2.5858122814
 21
9.4987919407
 31
0.0
 11
2.57722459
 21
9.5031582821
 31
0.0
 11
2.5688454201
 21
9.5068962289
 31
0.0
 11
2.5607871726
 21
9.509913267
 31
0.0
 11
2.553165162
 21
9.5121302642
 31
0.0
 11
2.5460947751
 21
9.5134863226
 31
0.0
 11
2.5396880346
 21
9.5139429714
 31
0.0
  0
SPLINE
  5
323
100
AcDbEntity
  8
0
100
AcDbSpline
 62
6
  6
CONTINUOUS
 70
0
 71
3
 72
15
 73
11
 74
9
 42
0.0000001
 43
0.0000001
 44
0.0000000001
 12
-0.0396681262
 22
0.0000001688
 32
0.0
 13
0.0042479942
 23
-0.039440015
 33
0.0
 40
0.0
 40
0.0
 40
0.0
 40
0.0
 40
0.1556537161
 40
0.2961856353
 40
0.4234518322
 40
0.5406132378
 40
0.6520045128
 40
0.7626307532
 40
0.8773110826
 40
1.0
 40
1.0
 40
1.0
 40
1.0
 10
2.6303696858
 20
9.5139429714
 30
0.0
 10
2.6283115221
 20
9.5139429802
 30
0.0
 10
2.6243877804
 20
9.5137104928
 30
0.0
 10
2.6188877698
 20
9.5125344457
 30
0.0
 10
2.614157188
 20
9.5105634354
 30
0.0
 10
2.610276921
 20
9.5078265084
 30
0.0
 10
2.6073300381
 20
9.5043802287
 30
0.0
 10
2.6053842043
 20
9.5003213493
 30
0.0
 10
2.6044629973
 20
9.4957715609
 30
0.0
 10
2.6045222094
 20
9.4926088001
 30
0.0
 10
2.6046959366
 20
9.4909958492
 30
0.0
 11
2.6303696858
 21
9.5139429714
 31
0.0
 11
2.6242086445
 21
9.5135356483
 31
0.0
 11
2.6187670903
 21
9.5123248323
 31
0.0
 11
2.6141246806
 21
9.510341277
 31
0.0
 11
2.6103471424
 21
9.5076338532
 31
0.0
 11
2.6074859746
 21
9.5042665872
 31
0.0
 11
2.6055777564
 21
9.5003148543
 31
0.0
 11
2.6046446871
 21
9.4958624188
 31
0.0
 11
2.6046959366
 21
9.4909958492
 31
0.0
  0
SPLINE
  5
324
100
AcDbEntity
  8
0
100
AcDbSpline
 62
6
  6
CONTINUOUS
 70
0
 71
3
 72
11
 73
7
 74
5
 42
0.0000001
 43
0.0000001
 44
0.0000000001
 12
0.0197033686
 22
0.0332272065
 32
0.0
 13
0.0047876012
 23
0.0383320866
 33
0.0
 40
0.0
 40
0.0
 40
0.0
 40
0.0
 40
0.2342711507
 40
0.4805423171
 40
0.7368297616
 40
1.0
 40
1.0
 40
1.0
 40
1.0
 10
20.4903690002
 20
9.4506788999
 30
0.0
 10
20.4919076438
 20
9.4532736252
 30
0.0
 10
20.4947289906
 20
9.4587994161
 30
0.0
 10
20.4981012528
 20
9.4676851582
 30
0.0
 10
20.50065995
 20
9.4772229783
 30
0.0
 10
20.5017863647
 20
9.4838273322
 30
0.0
 10
20.5022063494
 20
9.4871899537
 30
0.0
 11
20.4903690002
 21
9.4506788999
 31
0.0
 11
20.4945106962
 21
9.458725425
 31
0.0
 11
20.4979063454
 21
9.4676122116
 31
0.0
 11
20.5004886206
 21
9.4771698788
 31
0.0
 11
20.5022063494
 21
9.4871899537
 31
0.0
  0
SPLINE
  5
325
100
AcDbEntity
  8
0
100
AcDbSpline
 62
6
  6
CONTINUOUS
 70
0
 71
3
 72
15
 73
11
 74
9
 42
0.0000001
 43
0.0000001
 44
0.0000000001
 12
-0.0136605399
 22
0.0557843237
 32
0.0
 13
-0.0574325789
 23
-0.0000001437
 33
0.0
 40
0.0
 40
0.0
 40
0.0
 40
0.0
 40
0.1031065348
 40
0.2087424751
 40
0.3193799481
 40
0.4370919061
 40
0.5633960205
 40
0.6992057722
 40
0.8448268104
 40
1.0
 40
1.0
 40
1.0
 40
1.0
 10
20.3880001236
 20
9.4871899537
 30
0.0
 10
20.3875306266
 20
9.4891071964
 30
0.0
 10
20.3861574653
 20
9.4928986161
 30
0.0
 10
20.3828793918
 20
9.4981103551
 30
0.0
 10
20.3784249192
 20
9.5027545466
 30
0.0
 10
20.3728681815
 20
9.5067172715
 30
0.0
 10
20.3662983452
 20
9.509903894
 30
0.0
 10
20.3588213443
 20
9.512234136
 30
0.0
 10
20.3505618406
 20
9.5136468784
 30
0.0
 10
20.3447969883
 20
9.5139429789
 30
0.0
 10
20.3418263228
 20
9.5139429714
 30
0.0
 11
20.3880001236
 21
9.4871899537
 31
0.0
 11
20.3859864014
 21
9.4927587191
 31
0.0
 11
20.382772147
 21
9.4979042399
 31
0.0
 11
20.3783943346
 21
9.5025097319
 31
0.0
 11
20.3729103094
 21
9.506463192
 31
0.0
 11
20.3663994112
 21
9.5096613634
 31
0.0
 11
20.3589632697
 21
9.5120155738
 31
0.0
 11
20.3507250732
 21
9.5134572531
 31
0.0
 11
20.3418263228
 21
9.5139429714
 31
0.0
  0
SPLINE
  5
326
100
AcDbEntity
  8
0
100
AcDbSpline
 62
6
  6
CONTINUOUS
 70
0
 71
3
 72
12
 73
8
 74
6
 42
0.0000001
 43
0.0000001
 44
0.0000000001
 12
0.0296838466
 22
0.0392003672
 32
0.0
 13
0.0052842118
 23
0.0488863647
 33
0.0
 40
0.0
 40
0.0
 40
0.0
 40
0.0
 40
0.1070777453
 40
0.2201257006
 40
0.4628281946
 40
0.7247142124
 40
1.0
 40
1.0
 40
1.0
 40
1.0
 10
20.3719169226
 20
9.4412887377
 30
0.0
 10
20.3729764157
 20
9.4426879
 30
0.0
 10
20.375014519
 20
9.4456722135
 30
0.0
 10
20.3787518318
 20
9.4522815797
 30
0.0
 10
20.3826888981
 20
9.4616488313
 30
0.0
 10
20.3861176679
 20
9.4739904978
 30
0.0
 10
20.3875152341
 20
9.4827040465
 30
0.0
 10
20.3880001236
 20
9.4871899537
 30
0.0
 11
20.3719169226
 21
9.4412887377
 31
0.0
 11
20.374897578
 21
9.445628936
 31
0.0
 11
20.3776437888
 21
9.4504618872
 31
0.0
 11
20.382335726
 21
9.4614348085
 31
0.0
 11
20.3858295938
 21
9.4738289984
 31
0.0
 11
20.3880001236
 21
9.4871899537
 31
0.0
  0
SPLINE
  5
327
100
AcDbEntity
  8
0
100
AcDbSpline
 62
6
  6
CONTINUOUS
 70
0
 71
3
 72
15
 73
11
 74
9
 42
0.0000001
 43
0.0000001
 44
0.0000000001
 12
-0.0510755349
 22
0.032027113
 32
0.0
 13
-0.0602863686
 23
-0.0000004021
 33
0.0
 40
0.0
 40
0.0
 40
0.0
 40
0.0
 40
0.1548986302
 40
0.3043200085
 40
0.4465538361
 40
0.5799337871
 40
0.7029783532
 40
0.814463047
 40
0.9135590165
 40
1.0
 40
1.0
 40
1.0
 40
1.0
 10
2.5163252002
 20
9.4910708323
 30
0.0
 10
2.5136880234
 20
9.4927244843
 30
0.0
 10
2.50846549
 20
9.4959080677
 30
0.0
 10
2.5006613266
 20
9.500341158
 30
0.0
 10
2.4930795411
 20
9.5042796172
 30
0.0
 10
2.4858044848
 20
9.5076426106
 30
0.0
 10
2.4789223913
 20
9.5103573282
 30
0.0
 10
2.4725167516
 20
9.5123628079
 30
0.0
 10
2.4666706066
 20
9.5136121733
 30
0.0
 10
2.4629410342
 20
9.513942983
 30
0.0
 10
2.4612039632
 20
9.5139429714
 30
0.0
 11
2.5163252002
 21
9.4910708323
 31
0.0
 11
2.5083466495
 21
9.4959232674
 31
0.0
 11
2.500508033
 21
9.5003618997
 31
0.0
 11
2.4928914499
 21
9.5043007051
 31
0.0
 11
2.4855841628
 21
9.5076564646
 31
0.0
 11
2.4786742531
 21
9.5103543412
 31
0.0
 11
2.4722504118
 21
9.5123307525
 31
0.0
 11
2.46639935
 21
9.5135371435
 31
0.0
 11
2.4612039632
 21
9.5139429714
 31
0.0
  0
SPLINE
  5
328
100
AcDbEntity
  8
0
100
AcDbSpline
 62
6
  6
CONTINUOUS
 70
0
 71
3
 72
16
 73
12
 74
10
 42
0.0000001
 43
0.0000001
 44
0.0000000001
 12
-0.0296372593
 22
0.0000001318
 32
0.0
 13
0.0014361366
 23
-0.0296024433
 33
0.0
 40
0.0
 40
0.0
 40
0.0
 40
0.0
 40
0.1544469131
 40
0.2258757185
 40
0.2936888029
 40
0.4196921339
 40
0.5360581937
 40
0.6473399675
 40
0.7586723844
 40
0.8749256105
 40
1.0
 40
1.0
 40
1.0
 40
1.0
 10
2.5396833013
 20
9.5139429714
 30
0.0
 10
2.5381575069
 20
9.5139429782
 30
0.0
 10
2.5359207031
 20
9.5138157151
 30
0.0
 10
2.5330585636
 20
9.5133237443
 30
0.0
 10
2.5305188951
 20
9.5126694225
 30
0.0
 10
2.5276583173
 20
9.5115136253
 30
0.0
 10
2.5247477313
 20
9.5095261046
 30
0.0
 10
2.5224952558
 20
9.5070008392
 30
0.0
 10
2.5209441177
 20
9.5039957197
 30
0.0
 10
2.5201087339
 20
9.5005848329
 30
0.0
 10
2.5200266665
 20
9.4981856711
 30
0.0
 10
2.5200865411
 20
9.4969515019
 30
0.0
 11
2.5396833013
 21
9.5139429714
 31
0.0
 11
2.5351152051
 21
9.5136515363
 31
0.0
 11
2.533029581
 21
9.5132886776
 31
0.0
 11
2.5310844196
 21
9.5127830898
 31
0.0
 11
2.5276344318
 21
9.5113536571
 31
0.0
 11
2.5248001815
 21
9.5093887022
 31
0.0
 11
2.5226106003
 21
9.506922306
 31
0.0
 11
2.521086929
 21
9.5039955834
 31
0.0
 11
2.5202432429
 21
9.5006550504
 31
0.0
 11
2.5200865411
 21
9.4969515019
 31
0.0
  0
SPLINE
  5
329
100
AcDbEntity
  8
0
100
AcDbSpline
 62
6
  6
CONTINUOUS
 70
0
 71
3
 72
15
 73
11
 74
9
 42
0.0000001
 43
0.0000001
 44
0.0000000001
 12
0.0365982135
 22
0.0415287052
 32
0.0
 13
0.0049673362
 23
0.0551306463
 33
0.0
 40
0.0
 40
0.0
 40
0.0
 40
0.0
 40
0.0966764163
 40
0.2026213376
 40
0.317594308
 40
0.4410384032
 40
0.572142516
 40
0.7098994047
 40
0.8530652828
 40
1.0
 40
1.0
 40
1.0
 40
1.0
 10
20.2480948041
 20
9.435562385
 30
0.0
 10
20.2492741988
 20
9.4369006672
 30
0.0
 10
20.2515482305
 20
9.4398828524
 30
0.0
 10
20.2545590949
 20
9.4449210469
 30
0.0
 10
20.257297428
 20
9.4506637285
 30
0.0
 10
20.2597259763
 20
9.4570416071
 30
0.0
 10
20.261816703
 20
9.4639772998
 30
0.0
 10
20.2635439455
 20
9.4713858242
 30
0.0
 10
20.2648830335
 20
9.4791700188
 30
0.0
 10
20.2655029196
 20
9.4844897517
 30
0.0
 10
20.265746211
 20
9.4871899537
 30
0.0
 11
20.2480948041
 21
9.435562385
 31
0.0
 11
20.2513638174
 21
9.4397992813
 31
0.0
 11
20.2543958567
 21
9.4448191196
 31
0.0
 11
20.2571535674
 21
9.450554816
 31
0.0
 11
20.259601233
 21
9.4569345088
 31
0.0
 11
20.261708542
 21
9.4638789484
 31
0.0
 11
20.2634495092
 21
9.4713029384
 31
0.0
 11
20.2648010827
 21
9.479111633
 31
0.0
 11
20.265746211
 21
9.4871899537
 31
0.0
  0
SPLINE
  5
32A
100
AcDbEntity
  8
0
100
AcDbSpline
 62
6
  6
CONTINUOUS
 70
0
 71
3
 72
15
 73
11
 74
9
 42
0.0000001
 43
0.0000001
 44
0.0000000001
 12
-0.0803746227
 22
0.0000002598
 32
0.0
 13
-0.0668650259
 23
-0.0445998686
 33
0.0
 40
0.0
 40
0.0
 40
0.0
 40
0.0
 40
0.110222785
 40
0.2271363995
 40
0.3497365966
 40
0.4767727074
 40
0.6068356234
 40
0.7384195205
 40
0.8699921055
 40
1.0
 40
1.0
 40
1.0
 40
1.0
 10
20.4626753057
 20
9.5139429714
 30
0.0
 10
20.4597222674
 20
9.513942981
 30
0.0
 10
20.4536336469
 20
9.5135870422
 30
0.0
 10
20.444366601
 20
9.5121215557
 30
0.0
 10
20.4348248829
 20
9.5097517883
 30
0.0
 10
20.4251610409
 20
9.5065463471
 30
0.0
 10
20.415519131
 20
9.5025931784
 30
0.0
 10
20.406033929
 20
9.4979943637
 30
0.0
 10
20.3968299924
 20
9.4928611461
 30
0.0
 10
20.390897784
 20
9.489122732
 30
0.0
 10
20.3880001236
 20
9.4871899537
 30
0.0
 11
20.4626753057
 21
9.5139429714
 31
0.0
 11
20.4538295181
 21
9.5134572183
 31
0.0
 11
20.4445438771
 21
9.5120155634
 31
0.0
 11
20.4349752679
 21
9.5096614303
 31
0.0
 11
20.4252785442
 21
9.5064633934
 31
0.0
 11
20.4156011304
 21
9.5025100764
 31
0.0
 11
20.4060805029
 21
9.4979046931
 31
0.0
 11
20.396841778
 21
9.4927589535
 31
0.0
 11
20.3880001236
 21
9.4871899537
 31
0.0
  0
SPLINE
  5
32B
100
AcDbEntity
  8
0
100
AcDbSpline
 62
6
  6
CONTINUOUS
 70
0
 71
3
 72
15
 73
11
 74
9
 42
0.0000001
 43
0.0000001
 44
0.0000000001
 12
0.0410103495
 22
0.0420946448
 32
0.0
 13
0.0041693301
 23
0.058621025
 33
0.0
 40
0.0
 40
0.0
 40
0.0
 40
0.0
 40
0.0841406629
 40
0.1813856145
 40
0.2917727727
 40
0.4145143374
 40
0.5484220523
 40
0.6919453208
 40
0.8432700461
 40
1.0
 40
1.0
 40
1.0
 40
1.0
 10
20.1198397183
 20
9.4318695225
 30
0.0
 10
20.120989931
 20
9.4330501463
 30
0.0
 10
20.1232049895
 20
9.4358546277
 30
0.0
 10
20.1260832436
 20
9.4408068822
 30
0.0
 10
20.1287116162
 20
9.4467326474
 30
0.0
 10
20.1310542629
 20
9.4535378647
 30
0.0
 10
20.1330691959
 20
9.4611196861
 30
0.0
 10
20.1347276259
 20
9.4693582586
 30
0.0
 10
20.1359969612
 20
9.4781168538
 30
0.0
 10
20.1365662316
 20
9.4841273968
 30
0.0
 10
20.1367840513
 20
9.4871899537
 30
0.0
 11
20.1198397183
 21
9.4318695225
 31
0.0
 11
20.1229533495
 21
9.4357110139
 31
0.0
 11
20.1258666564
 21
9.4406277054
 31
0.0
 11
20.1285311007
 21
9.4465426447
 31
0.0
 11
20.1309038982
 21
9.4533546302
 31
0.0
 11
20.1329453431
 21
9.4609548727
 31
0.0
 11
20.1346235965
 21
9.4692209605
 31
0.0
 11
20.1359101881
 21
9.478020621
 31
0.0
 11
20.1367840513
 21
9.4871899537
 31
0.0
  0
SPLINE
  5
32C
100
AcDbEntity
  8
0
100
AcDbSpline
 62
6
  6
CONTINUOUS
 70
0
 71
3
 72
17
 73
13
 74
11
 42
0.0000001
 43
0.0000001
 44
0.0000000001
 12
-0.0486242303
 22
0.0318632963
 32
0.0
 13
-0.0581342018
 23
-0.0000004033
 33
0.0
 40
0.0
 40
0.0
 40
0.0
 40
0.0
 40
0.162920599
 40
0.3185451739
 40
0.4648779614
 40
0.5999852044
 40
0.722149064
 40
0.82997539
 40
0.8782249487
 40
0.9226245997
 40
0.9631905278
 40
1.0
 40
1.0
 40
1.0
 40
1.0
 10
2.4480040994
 20
9.4897040881
 30
0.0
 10
2.4453634698
 20
9.4914344839
 30
0.0
 10
2.4401686302
 20
9.494769701
 30
0.0
 10
2.432470335
 20
9.4994503561
 30
0.0
 10
2.4250970637
 20
9.5036212197
 30
0.0
 10
2.4181356724
 20
9.5071925835
 30
0.0
 10
2.4116737043
 20
9.5100823198
 30
0.0
 10
2.4066008861
 20
9.5119313817
 30
0.0
 10
2.4028579436
 20
9.512978426
 30
0.0
 10
2.4003331348
 20
9.5135252668
 30
0.0
 10
2.3979949737
 20
9.5138593556
 30
0.0
 10
2.3964951117
 20
9.5139429763
 30
0.0
 10
2.3957818153
 20
9.5139429714
 30
0.0
 11
2.4480040994
 21
9.4897040881
 31
0.0
 11
2.4400286647
 21
9.4948126288
 31
0.0
 11
2.4322915877
 21
9.499501749
 31
0.0
 11
2.4248789216
 21
9.5036755249
 31
0.0
 11
2.4178804088
 21
9.5072408664
 31
0.0
 11
2.4113853845
 21
9.5101134298
 31
0.0
 11
2.4054820282
 21
9.5122213175
 31
0.0
 11
2.402778965
 21
9.5129704446
 31
0.0
 11
2.4002547256
 21
9.5135094163
 31
0.0
 11
2.3979189433
 21
9.513834298
 31
0.0
 11
2.3957818153
 21
9.5139429714
 31
0.0
  0
SPLINE
  5
32D
100
AcDbEntity
  8
0
100
AcDbSpline
 62
6
  6
CONTINUOUS
 70
0
 71
3
 72
16
 73
12
 74
10
 42
0.0000001
 43
0.0000001
 44
0.0000000001
 12
-0.0208025648
 22
0.0000000895
 32
0.0
 13
-0.0000977116
 23
-0.0208023354
 33
0.0
 40
0.0
 40
0.0
 40
0.0
 40
0.0
 40
0.1534630373
 40
0.2243333085
 40
0.2916007096
 40
0.4166677272
 40
0.5324580315
 40
0.643674912
 40
0.7555446011
 40
0.8729954029
 40
1.0
 40
1.0
 40
1.0
 40
1.0
 10
2.4611998877
 20
9.5139429714
 30
0.0
 10
2.4601357461
 20
9.513942976
 30
0.0
 10
2.4585766456
 20
9.5138575448
 30
0.0
 10
2.4565802771
 20
9.5135252963
 30
0.0
 10
2.4548081187
 20
9.5130827696
 30
0.0
 10
2.4528057181
 20
9.5122984641
 30
0.0
 10
2.4507515057
 20
9.5109416982
 30
0.0
 10
2.4491342746
 20
9.5092049841
 30
0.0
 10
2.4479794937
 20
9.5071196216
 30
0.0
 10
2.4472947293
 20
9.5047268527
 30
0.0
 10
2.4471542198
 20
9.5030270328
 30
0.0
 10
2.4471500832
 20
9.5021463688
 30
0.0
 11
2.4611998877
 21
9.5139429714
 31
0.0
 11
2.4580135172
 21
9.5137464553
 31
0.0
 11
2.4565597281
 21
9.5135014878
 31
0.0
 11
2.4552027968
 21
9.5131596189
 31
0.0
 11
2.4527885577
 21
9.5121898926
 31
0.0
 11
2.4507875612
 21
9.5108489904
 31
0.0
 11
2.4492139756
 21
9.5091529489
 31
0.0
 11
2.4480786052
 21
9.5071215247
 31
0.0
 11
2.4473890983
 21
9.5047775565
 31
0.0
 11
2.4471500832
 21
9.5021463688
 31
0.0
  0
SPLINE
  5
32E
100
AcDbEntity
  8
0
100
AcDbSpline
 62
6
  6
CONTINUOUS
 70
0
 71
3
 72
18
 73
14
 74
12
 42
0.0000001
 43
0.0000001
 44
0.0000000001
 12
0.0435287158
 22
0.0417258338
 32
0.0
 13
0.0030931957
 23
0.0602181571
 33
0.0
 40
0.0
 40
0.0
 40
0.0
 40
0.0
 40
0.0323371678
 40
0.0689611458
 40
0.1100756556
 40
0.155746204
 40
0.2059622165
 40
0.2606432382
 40
0.3826390585
 40
0.5200003151
 40
0.6705114034
 40
0.8316044284
 40
1.0
 40
1.0
 40
1.0
 40
1.0
 10
19.9882835955
 20
9.429491247
 30
0.0
 10
19.988752794
 20
9.4299410121
 30
0.0
 10
19.9896776048
 20
9.4309800978
 30
0.0
 10
19.990949053
 20
9.432794785
 30
0.0
 10
19.9921842367
 20
9.4349490269
 30
0.0
 10
19.9933775202
 20
9.4374327765
 30
0.0
 10
19.9945231031
 20
9.4402355186
 30
0.0
 10
19.9960334787
 20
9.4445401255
 30
0.0
 10
19.9977316987
 20
9.4506262164
 30
0.0
 10
19.9994326206
 20
9.458690879
 30
0.0
 10
20.0008292634
 20
9.4676097152
 30
0.0
 10
20.001889728
 20
9.4772016015
 30
0.0
 10
20.0023529539
 20
9.4838097967
 30
0.0
 10
20.0025265807
 20
9.4871899537
 30
0.0
 11
19.9882835955
 21
9.429491247
 31
0.0
 11
19.989591913
 21
9.4309370091
 31
0.0
 11
19.9908705815
 21
9.4327374966
 31
0.0
 11
19.9921133373
 21
9.4348826109
 31
0.0
 11
19.9933139662
 21
9.437360922
 31
0.0
 11
19.9944662544
 21
9.4401609979
 31
0.0
 11
19.9955642398
 21
9.4432699374
 31
0.0
 11
19.9975764316
 21
9.450345426
 31
0.0
 11
19.9993099423
 21
9.4584445324
 31
0.0
 11
20.0007308061
 21
9.4674080658
 31
0.0
 11
20.0018103169
 21
9.4770614081
 31
0.0
 11
20.0025265807
 21
9.4871899537
 31
0.0
  0
SPLINE
  5
32F
100
AcDbEntity
  8
0
100
AcDbSpline
 62
6
  6
CONTINUOUS
 70
0
 71
3
 72
15
 73
11
 74
9
 42
0.0000001
 43
0.0000001
 44
0.0000000001
 12
-0.0232717546
 22
0.0576482936
 32
0.0
 13
-0.0621683224
 23
-0.0000001577
 33
0.0
 40
0.0
 40
0.0
 40
0.0
 40
0.0
 40
0.1011471484
 40
0.2070174692
 40
0.3192261769
 40
0.4389473068
 40
0.5668759206
 40
0.7032414789
 40
0.8478248907
 40
1.0
 40
1.0
 40
1.0
 40
1.0
 10
20.265746211
 20
9.4871899537
 30
0.0
 10
20.2649615872
 20
9.4891336072
 30
0.0
 10
20.2629430289
 20
9.4929561944
 30
0.0
 10
20.2587745086
 20
9.4981383955
 30
0.0
 10
20.2534712891
 20
9.5027592521
 30
0.0
 10
20.2471116276
 20
9.5067088113
 30
0.0
 10
20.2397900279
 20
9.5098912359
 30
0.0
 10
20.2316208255
 20
9.5122232753
 30
0.0
 10
20.2227389021
 20
9.5136409635
 30
0.0
 10
20.2165834896
 20
9.5139429794
 30
0.0
 10
20.2134299992
 20
9.5139429714
 30
0.0
 11
20.265746211
 21
9.4871899537
 31
0.0
 11
20.2628256254
 21
9.492758705
 31
0.0
 11
20.2587215341
 21
9.4979042143
 31
0.0
 11
20.2534820989
 21
9.5025096983
 31
0.0
 11
20.2471760402
 21
9.5064631544
 31
0.0
 11
20.239894309
 21
9.5096613269
 31
0.0
 11
20.231750129
 21
9.5120155439
 31
0.0
 11
20.2228779925
 21
9.5134572353
 31
0.0
 11
20.2134299992
 21
9.5139429714
 31
0.0
  0
SPLINE
  5
330
100
AcDbEntity
  8
0
100
AcDbSpline
 62
6
  6
CONTINUOUS
 70
0
 71
3
 72
19
 73
15
 74
13
 42
0.0000001
 43
0.0000001
 44
0.0000000001
 12
0.0445426391
 22
0.0409794913
 32
0.0
 13
0.0018782226
 23
0.0604965924
 33
0.0
 40
0.0
 40
0.0
 40
0.0
 40
0.0
 40
0.0224250143
 40
0.050498759
 40
0.0846253239
 40
0.1248945168
 40
0.1712320805
 40
0.2234999117
 40
0.2814876267
 40
0.3448813768
 40
0.4865083895
 40
0.6453628827
 40
0.8179598397
 40
1.0
 40
1.0
 40
1.0
 40
1.0
 10
19.854690467
 20
9.4280595721
 30
0.0
 10
19.8550234235
 20
9.428365894
 30
0.0
 10
19.855671415
 20
9.4291644318
 30
0.0
 10
19.8565223121
 20
9.4306482284
 30
0.0
 10
19.857354689
 20
9.4325440756
 30
0.0
 10
19.8581638052
 20
9.4348431406
 30
0.0
 10
19.8589455674
 20
9.4375349055
 30
0.0
 10
19.8596940224
 20
9.4406050675
 30
0.0
 10
19.8604040663
 20
9.4440363831
 30
0.0
 10
19.8613290978
 20
9.4492619829
 30
0.0
 10
19.8623364489
 20
9.4565364031
 30
0.0
 10
19.8632965127
 20
9.4660340705
 30
0.0
 10
19.8640212098
 20
9.4763699187
 30
0.0
 10
19.8643307816
 20
9.4835190172
 30
0.0
 10
19.8644447523
 20
9.4871899537
 30
0.0
 11
19.854690467
 21
9.4280595721
 31
0.0
 11
19.8555712777
 21
9.4290922436
 31
0.0
 11
19.8564369752
 21
9.4305543636
 31
0.0
 11
19.8572825388
 21
9.4324388953
 31
0.0
 11
19.8581030573
 21
9.4347339534
 31
0.0
 11
19.8588936829
 21
9.4374248229
 31
0.0
 11
19.8596495702
 21
9.4404967406
 31
0.0
 11
19.8603661199
 21
9.4439325662
 31
0.0
 11
19.8610392661
 21
9.4477100109
 31
0.0
 11
19.8622394255
 21
9.4561976591
 31
0.0
 11
19.8632215666
 21
9.4657621512
 31
0.0
 11
19.8639626577
 21
9.47618239
 31
0.0
 11
19.8644447523
 21
9.4871899537
 31
0.0
  0
SPLINE
  5
331
100
AcDbEntity
  8
0
100
AcDbSpline
 62
6
  6
CONTINUOUS
 70
0
 71
3
 72
19
 73
15
 74
13
 42
0.0000001
 43
0.0000001
 44
0.0000000001
 12
-0.0402641915
 22
0.0271141808
 32
0.0
 13
-0.048542599
 23
-0.0000005408
 33
0.0
 40
0.0
 40
0.0
 40
0.0
 40
0.0
 40
0.1730873148
 40
0.3358144332
 40
0.4862170166
 40
0.5562104989
 40
0.622442643
 40
0.7428585905
 40
0.7967364402
 40
0.8462285124
 40
0.8912689139
 40
0.9318543936
 40
0.9680464211
 40
1.0
 40
1.0
 40
1.0
 40
1.0
 10
2.3870635972
 20
9.4921890808
 30
0.0
 10
2.3847405237
 20
9.4937534544
 30
0.0
 10
2.3802129281
 20
9.4967584179
 30
0.0
 10
2.3735755571
 20
9.5009833928
 30
0.0
 10
2.3682603973
 20
9.5041761043
 30
0.0
 10
2.3642207007
 20
9.5064551906
 30
0.0
 10
2.3605614052
 20
9.508418591
 30
0.0
 10
2.3570670233
 20
9.5101384146
 30
0.0
 10
2.3537368296
 20
9.5115623815
 30
0.0
 10
2.3514903823
 20
9.5124134857
 30
0.0
 10
2.3494080579
 20
9.5130834177
 30
0.0
 10
2.3474958625
 20
9.513568706
 30
0.0
 10
2.3457598236
 20
9.5138661746
 30
0.0
 10
2.3446568445
 20
9.5139429771
 30
0.0
 10
2.3441398079
 20
9.5139429714
 30
0.0
 11
2.3870635972
 21
9.4921890808
 31
0.0
 11
2.3800582049
 21
9.4968280352
 31
0.0
 11
2.3733885243
 21
9.5010603725
 31
0.0
 11
2.367122219
 21
9.504806975
 31
0.0
 11
2.3641617718
 21
9.5064742732
 31
0.0
 11
2.3613276404
 21
9.5079923119
 31
0.0
 11
2.3560709788
 21
9.5105486913
 31
0.0
 11
2.3536643872
 21
9.5115726454
 31
0.0
 11
2.3514158878
 21
9.5124188904
 31
0.0
 11
2.3493326265
 21
9.5130824202
 31
0.0
 11
2.3474211226
 21
9.5135594359
 31
0.0
 11
2.3456879363
 21
9.513846847
 31
0.0
 11
2.3441398079
 21
9.5139429714
 31
0.0
  0
SPLINE
  5
332
100
AcDbEntity
  8
0
100
AcDbSpline
 62
6
  6
CONTINUOUS
 70
0
 71
3
 72
23
 73
19
 74
17
 42
0.0000001
 43
0.0000001
 44
0.0000000001
 12
-0.0446826135
 22
0.0401490206
 32
0.0
 13
-0.0006239109
 23
0.0600673833
 33
0.0
 40
0.0
 40
0.0
 40
0.0
 40
0.0
 40
0.0043974865
 40
0.0106148506
 40
0.0187852993
 40
0.0289550283
 40
0.0411387385
 40
0.0553374014
 40
0.0897402835
 40
0.1319703826
 40
0.1817479785
 40
0.2387783173
 40
0.3026820993
 40
0.3729924072
 40
0.4492359825
 40
0.6174571815
 40
0.8028524141
 40
1.0
 40
1.0
 40
1.0
 40
1.0
 10
19.5865186628
 20
9.4273847264
 30
0.0
 10
19.5864531658
 20
9.427443578
 30
0.0
 10
19.5863303421
 20
9.4276219907
 30
0.0
 10
19.5861758437
 20
9.427964769
 30
0.0
 10
19.5860201091
 20
9.4284322021
 30
0.0
 10
19.5858646543
 20
9.4290234009
 30
0.0
 10
19.5857097177
 20
9.4297389469
 30
0.0
 10
19.5854905183
 20
9.4309363102
 30
0.0
 10
19.5852305278
 20
9.4327369595
 30
0.0
 10
19.5849418218
 20
9.4352517962
 30
0.0
 10
19.5846634822
 20
9.4382232428
 30
0.0
 10
19.5843980353
 20
9.4416312721
 30
0.0
 10
19.5841477355
 20
9.4454525537
 30
0.0
 10
19.5839141757
 20
9.449660242
 30
0.0
 10
19.5836180381
 20
9.4559562534
 30
0.0
 10
19.583309414
 20
9.4645583117
 30
0.0
 10
19.5830389483
 20
9.4755834143
 30
0.0
 10
19.5829257616
 20
9.4832425738
 30
0.0
 10
19.5828847607
 20
9.4871899537
 30
0.0
 11
19.5865186628
 21
9.4273847264
 31
0.0
 11
19.5863574963
 21
9.4275940246
 31
0.0
 11
19.5861969653
 21
9.4279312453
 31
0.0
 11
19.586037333
 21
9.4283953639
 31
0.0
 11
19.585878863
 21
9.4289853541
 31
0.0
 11
19.5857218184
 21
9.4297001896
 31
0.0
 11
19.5855664626
 21
9.4305388441
 31
0.0
 11
19.5852618659
 21
9.4325828762
 31
0.0
 11
19.5849671285
 21
9.4351024843
 31
0.0
 11
19.5846842799
 21
9.4380792478
 31
0.0
 11
19.5844153431
 21
9.4414945234
 31
0.0
 11
19.584162176
 21
9.445324906
 31
0.0
 11
19.5839264602
 21
9.4495419074
 31
0.0
 11
19.5837098684
 21
9.4541167822
 31
0.0
 11
19.5833399014
 21
9.4642151597
 31
0.0
 11
19.5830622577
 21
9.4753485055
 31
0.0
 11
19.5828847607
 21
9.4871899537
 31
0.0
  0
SPLINE
  5
333
100
AcDbEntity
  8
0
100
AcDbSpline
 62
6
  6
CONTINUOUS
 70
0
 71
3
 72
23
 73
19
 74
17
 42
0.0000001
 43
0.0000001
 44
0.0000000001
 12
0.0446990885
 22
0.0401309738
 32
0.0
 13
0.000623913
 23
0.0600675811
 33
0.0
 40
0.0
 40
0.0
 40
0.0
 40
0.0
 40
0.0043960698
 40
0.0106119182
 40
0.0187808928
 40
0.0289492343
 40
0.0411316612
 40
0.0553291523
 40
0.0897300515
 40
0.1319586827
 40
0.1817353106
 40
0.2387651643
 40
0.3026689486
 40
0.3729797146
 40
0.449224165
 40
0.6174482338
 40
0.8028475366
 40
1.0
 40
1.0
 40
1.0
 40
1.0
 10
19.7204173688
 20
9.4273845931
 30
0.0
 10
19.7204828689
 20
9.4274433993
 30
0.0
 10
19.7206057027
 20
9.4276217404
 30
0.0
 10
19.7207602032
 20
9.4279644215
 30
0.0
 10
19.7209159424
 20
9.4284317634
 30
0.0
 10
19.7210714016
 20
9.4290228772
 30
0.0
 10
19.7212263433
 20
9.4297383459
 30
0.0
 10
19.7214455524
 20
9.4309356213
 30
0.0
 10
19.7217055532
 20
9.4327361818
 30
0.0
 10
19.72199427
 20
9.4352509366
 30
0.0
 10
19.7222726208
 20
9.4382223333
 30
0.0
 10
19.7225380791
 20
9.4416303439
 30
0.0
 10
19.7227883898
 20
9.4454516369
 30
0.0
 10
19.72302196
 20
9.4496593654
 30
0.0
 10
19.7233181116
 20
9.4559554812
 30
0.0
 10
19.7236267496
 20
9.4645577239
 30
0.0
 10
19.7238972267
 20
9.4755830993
 30
0.0
 10
19.7240104174
 20
9.4832424631
 30
0.0
 10
19.7240514194
 20
9.4871899537
 30
0.0
 11
19.7204173688
 21
9.4273845931
 31
0.0
 11
19.7205785404
 21
9.427593781
 31
0.0
 11
19.7207390768
 21
9.4279308997
 31
0.0
 11
19.7208987145
 21
9.4283949245
 31
0.0
 11
19.7210571901
 21
9.428984829
 31
0.0
 11
19.7212142405
 21
9.4296995868
 31
0.0
 11
19.7213696021
 21
9.4305381715
 31
0.0
 11
19.7216742107
 21
9.4325820882
 31
0.0
 11
19.7219689602
 21
9.4351016146
 31
0.0
 11
19.7222518208
 21
9.4380783283
 31
0.0
 11
19.7225207694
 21
9.4414935851
 31
0.0
 11
19.7227739479
 21
9.4453239798
 31
0.0
 11
19.7230096743
 21
9.4495410221
 31
0.0
 11
19.7232262761
 21
9.4541159642
 31
0.0
 11
19.72359626
 21
9.4642145468
 31
0.0
 11
19.7238739158
 21
9.4753481736
 31
0.0
 11
19.7240514194
 21
9.4871899537
 31
0.0
  0
SPLINE
  5
334
100
AcDbEntity
  8
0
100
AcDbSpline
 62
6
  6
CONTINUOUS
 70
0
 71
3
 72
15
 73
11
 74
9
 42
0.0000001
 43
0.0000001
 44
0.0000000001
 12
-0.0134271653
 22
0.0000000863
 32
0.0
 13
-0.0006345594
 23
-0.0134121625
 33
0.0
 40
0.0
 40
0.0
 40
0.0
 40
0.0
 40
0.1526478869
 40
0.2898168584
 40
0.4141401334
 40
0.5294567144
 40
0.6406094374
 40
0.7529022148
 40
0.8713444967
 40
1.0
 40
1.0
 40
1.0
 40
1.0
 10
2.3957785308
 20
9.5139429714
 30
0.0
 10
2.3950953213
 20
9.5139429758
 30
0.0
 10
2.3937961282
 20
9.5138737353
 30
0.0
 10
2.3919697343
 20
9.5135177972
 30
0.0
 10
2.3903848177
 20
9.5129124983
 30
0.0
 10
2.3890531488
 20
9.5120569238
 30
0.0
 10
2.3879908331
 20
9.5109551392
 30
0.0
 10
2.3872109472
 20
9.50962271
 30
0.0
 10
2.386717547
 20
9.5080802689
 30
0.0
 10
2.3865829878
 20
9.5069762346
 30
0.0
 10
2.3865557746
 20
9.5064010518
 30
0.0
 11
2.3957785308
 21
9.5139429714
 31
0.0
 11
2.393732586
 21
9.5138201446
 31
0.0
 11
2.3919277573
 21
9.5134530132
 31
0.0
 11
2.3903733772
 21
9.5128443295
 31
0.0
 11
2.3890761136
 21
9.5119990062
 31
0.0
 11
2.3880416702
 21
9.5109231895
 31
0.0
 11
2.3872746101
 21
9.5096251139
 31
0.0
 11
2.3867785951
 21
9.5081140998
 31
0.0
 11
2.3865557746
 21
9.5064010518
 31
0.0
  0
SPLINE
  5
335
100
AcDbEntity
  8
0
100
AcDbSpline
 62
6
  6
CONTINUOUS
 70
0
 71
3
 72
19
 73
15
 74
13
 42
0.0000001
 43
0.0000001
 44
0.0000000001
 12
-0.0445386599
 22
0.0409832298
 32
0.0
 13
-0.0018782103
 23
0.0604961955
 33
0.0
 40
0.0
 40
0.0
 40
0.0
 40
0.0
 40
0.0224263981
 40
0.0505015186
 40
0.0846293165
 40
0.124899523
 40
0.1712378613
 40
0.2235062242
 40
0.2814942156
 40
0.3448879921
 40
0.4865143744
 40
0.6453674343
 40
0.8179623283
 40
1.0
 40
1.0
 40
1.0
 40
1.0
 10
19.4522454197
 20
9.428059842
 30
0.0
 10
19.4519124725
 20
9.4283662108
 30
0.0
 10
19.4512645024
 20
9.4291648255
 30
0.0
 10
19.4504136275
 20
9.4306487139
 30
0.0
 10
19.4495812734
 20
9.4325446354
 30
0.0
 10
19.4487721797
 20
9.4348437558
 30
0.0
 10
19.4479904406
 20
9.4375355568
 30
0.0
 10
19.4472420087
 20
9.4406057359
 30
0.0
 10
19.446531987
 20
9.4440370497
 30
0.0
 10
19.4456069867
 20
9.4492626129
 30
0.0
 10
19.4445996688
 20
9.4565369474
 30
0.0
 10
19.4436396354
 20
9.4660344711
 30
0.0
 10
19.4429149603
 20
9.4763701316
 30
0.0
 10
19.4426053962
 20
9.4835190915
 30
0.0
 10
19.4424914278
 20
9.4871899537
 30
0.0
 11
19.4522454197
 21
9.428059842
 31
0.0
 11
19.4513646313
 21
9.4290926308
 31
0.0
 11
19.450498957
 21
9.4305548484
 31
0.0
 11
19.4496534171
 21
9.4324394577
 31
0.0
 11
19.4488329228
 21
9.4347345726
 31
0.0
 11
19.4480423212
 21
9.4374254788
 31
0.0
 11
19.4472864575
 21
9.4404974141
 31
0.0
 11
19.4465699308
 21
9.4439332381
 31
0.0
 11
19.4458968065
 21
9.4477106627
 31
0.0
 11
19.4446966866
 21
9.4561982212
 31
0.0
 11
19.4437145777
 21
9.465762566
 31
0.0
 11
19.4429735097
 21
9.4761826125
 31
0.0
 11
19.4424914278
 21
9.4871899537
 31
0.0
  0
SPLINE
  5
336
100
AcDbEntity
  8
0
100
AcDbSpline
 62
6
  6
CONTINUOUS
 70
0
 71
3
 72
15
 73
11
 74
9
 42
0.0000001
 43
0.0000001
 44
0.0000000001
 12
-0.0817854475
 22
0.0000003218
 32
0.0
 13
-0.0673156634
 23
-0.0464484756
 33
0.0
 40
0.0
 40
0.0
 40
0.0
 40
0.0
 40
0.1151281624
 40
0.2355742823
 40
0.3602506881
 40
0.4878873741
 40
0.6171087324
 40
0.7464881722
 40
0.8745879981
 40
1.0
 40
1.0
 40
1.0
 40
1.0
 10
20.3418191514
 20
9.5139429714
 30
0.0
 10
20.3386805486
 20
9.5139429837
 30
0.0
 10
20.3322549123
 20
9.5135938584
 30
0.0
 10
20.3225304599
 20
9.5121341463
 30
0.0
 10
20.3126355643
 20
9.509768924
 30
0.0
 10
20.302729297
 20
9.5065668542
 30
0.0
 10
20.2929600202
 20
9.5026161176
 30
0.0
 10
20.2834648302
 20
9.4980188738
 30
0.0
 10
20.2743681864
 20
9.492886639
 30
0.0
 10
20.2685602751
 20
9.4891316858
 30
0.0
 10
20.265746211
 20
9.4871899537
 30
0.0
 11
20.3418191514
 21
9.5139429714
 31
0.0
 11
20.332415885
 21
9.5134571444
 31
0.0
 11
20.3226711981
 21
9.5120155646
 31
0.0
 11
20.3127499217
 21
9.5096615715
 31
0.0
 11
20.3028129893
 21
9.5064636956
 31
0.0
 11
20.2930117417
 21
9.502510572
 31
0.0
 11
20.2834851978
 21
9.4979051357
 31
0.0
 11
20.2743592166
 21
9.4927594829
 31
0.0
 11
20.265746211
 21
9.4871899537
 31
0.0
  0
SPLINE
  5
337
100
AcDbEntity
  8
0
100
AcDbSpline
 62
6
  6
CONTINUOUS
 70
0
 71
3
 72
18
 73
14
 74
12
 42
0.0000001
 43
0.0000001
 44
0.0000000001
 12
-0.0435295029
 22
0.0417252853
 32
0.0
 13
-0.0030932054
 23
0.0602183455
 33
0.0
 40
0.0
 40
0.0
 40
0.0
 40
0.0
 40
0.0323368642
 40
0.0689605501
 40
0.1100748009
 40
0.1557451332
 40
0.205960977
 40
0.2606418831
 40
0.3826376341
 40
0.5199990221
 40
0.6705104172
 40
0.8316038881
 40
1.0
 40
1.0
 40
1.0
 40
1.0
 10
19.318652721
 20
9.4294911163
 30
0.0
 10
19.3181835184
 20
9.4299408712
 30
0.0
 10
19.317258699
 20
9.4309799394
 30
0.0
 10
19.3159872394
 20
9.4327946063
 30
0.0
 10
19.3147520445
 20
9.434948833
 30
0.0
 10
19.3135587497
 20
9.4374325725
 30
0.0
 10
19.3124131557
 20
9.4402353095
 30
0.0
 10
19.3109027644
 20
9.4445399186
 30
0.0
 10
19.309204527
 20
9.4506260242
 30
0.0
 10
19.307503588
 20
9.4586907172
 30
0.0
 10
19.3061069313
 20
9.4676095979
 30
0.0
 10
19.3050464568
 20
9.4772015397
 30
0.0
 10
19.3045832273
 20
9.4838097753
 30
0.0
 10
19.3044095994
 20
9.4871899537
 30
0.0
 11
19.318652721
 21
9.4294911163
 31
0.0
 11
19.3173443924
 21
9.4309368518
 31
0.0
 11
19.3160657126
 21
9.4327373181
 31
0.0
 11
19.3148229454
 21
9.4348824167
 31
0.0
 11
19.3136223051
 21
9.4373607175
 31
0.0
 11
19.3124700056
 21
9.440160788
 31
0.0
 11
19.3113720093
 21
9.4432697271
 31
0.0
 11
19.309359797
 21
9.4503452294
 31
0.0
 11
19.3076262684
 21
9.4584443666
 31
0.0
 11
19.3062053902
 21
9.4674079452
 31
0.0
 11
19.305125869
 21
9.4770613441
 31
0.0
 11
19.3044095994
 21
9.4871899537
 31
0.0
  0
SPLINE
  5
338
100
AcDbEntity
  8
0
100
AcDbSpline
 62
6
  6
CONTINUOUS
 70
0
 71
3
 72
18
 73
14
 74
12
 42
0.0000001
 43
0.0000001
 44
0.0000000001
 12
-0.0301877677
 22
0.0213541969
 32
0.0
 13
-0.036977061
 23
-0.0000003854
 33
0.0
 40
0.0
 40
0.0
 40
0.0
 40
0.0
 40
0.1855592772
 40
0.3568665348
 40
0.5120741311
 40
0.649509707
 40
0.7677397728
 40
0.8193062887
 40
0.8657050125
 40
0.9069015275
 40
0.9429188702
 40
0.9738675134
 40
1.0
 40
1.0
 40
1.0
 40
1.0
 10
2.3387557073
 20
9.4958047586
 30
0.0
 10
2.3368885005
 20
9.4971255817
 30
0.0
 10
2.3332864419
 20
9.4996502635
 30
0.0
 10
2.3280684431
 20
9.50320172
 30
0.0
 10
2.3232770633
 20
9.5063243609
 30
0.0
 10
2.3189556983
 20
9.5089664669
 30
0.0
 10
2.31564446
 20
9.510807977
 30
0.0
 10
2.3132545238
 20
9.5119878105
 30
0.0
 10
2.3116868003
 20
9.5126852089
 30
0.0
 10
2.3102645769
 20
9.5132338765
 30
0.0
 10
2.3089906298
 20
9.5136314737
 30
0.0
 10
2.3078679766
 20
9.5138764537
 30
0.0
 10
2.3071644068
 20
9.5139429748
 30
0.0
 10
2.3068423059
 20
9.5139429714
 30
0.0
 11
2.3387557073
 21
9.4958047586
 31
0.0
 11
2.3331332913
 21
9.4997376649
 31
0.0
 11
2.3278920374
 21
9.5032949636
 31
0.0
 11
2.323077872
 21
9.5064192745
 31
0.0
 11
2.3187344858
 21
9.5090577118
 31
0.0
 11
2.3149031901
 21
9.5111633735
 31
0.0
 11
2.3131916703
 21
9.512003911
 31
0.0
 11
2.3116222961
 21
9.5126972012
 31
0.0
 11
2.3101989964
 21
9.5132401011
 31
0.0
 11
2.3089254928
 21
9.5136298717
 31
0.0
 11
2.3078054192
 21
9.513864527
 31
0.0
 11
2.3068423059
 21
9.5139429714
 31
0.0
  0
SPLINE
  5
339
100
AcDbEntity
  8
0
100
AcDbSpline
 62
6
  6
CONTINUOUS
 70
0
 71
3
 72
15
 73
11
 74
9
 42
0.0000001
 43
0.0000001
 44
0.0000000001
 12
-0.00759955
 22
0.0000000643
 32
0.0
 13
-0.0006100352
 23
-0.0075750259
 33
0.0
 40
0.0
 40
0.0
 40
0.0
 40
0.0
 40
0.1520056349
 40
0.2884893842
 40
0.412258646
 40
0.5272222964
 40
0.6382981509
 40
0.7508848234
 40
0.8700613887
 40
1.0
 40
1.0
 40
1.0
 40
1.0
 10
2.3441370274
 20
9.5139429714
 30
0.0
 10
2.3437519693
 20
9.5139429747
 30
0.0
 10
2.3430200523
 20
9.5139048823
 30
0.0
 10
2.3419904382
 20
9.5137083084
 30
0.0
 10
2.3410949871
 20
9.5133734767
 30
0.0
 10
2.34033889
 20
9.5128981334
 30
0.0
 10
2.3397292812
 20
9.5122836122
 30
0.0
 10
2.3392728844
 20
9.5115360033
 30
0.0
 10
2.3389705851
 20
9.510664859
 30
0.0
 10
2.3388748843
 20
9.5100377256
 30
0.0
 10
2.3388484619
 20
9.5097096295
 30
0.0
 11
2.3441370274
 21
9.5139429714
 31
0.0
 11
2.3429838416
 21
9.5138752186
 31
0.0
 11
2.3419666291
 21
9.5136725028
 31
0.0
 11
2.3410884123
 21
9.513335685
 31
0.0
 11
2.3403516072
 21
9.5128661948
 31
0.0
 11
2.3397578731
 21
9.5122661703
 31
0.0
 11
2.339308755
 21
9.5115379135
 31
0.0
 11
2.3390053276
 21
9.5106845653
 31
0.0
 11
2.3388484619
 21
9.5097096295
 31
0.0
  0
SPLINE
  5
33A
100
AcDbEntity
  8
0
100
AcDbSpline
 62
6
  6
CONTINUOUS
 70
0
 71
3
 72
15
 73
11
 74
9
 42
0.0000001
 43
0.0000001
 44
0.0000000001
 12
-0.0410120489
 22
0.0420939318
 32
0.0
 13
-0.004169378
 23
0.0586216986
 33
0.0
 40
0.0
 40
0.0
 40
0.0
 40
0.0
 40
0.084139477
 40
0.1813835105
 40
0.291770132
 40
0.4145115682
 40
0.5484195401
 40
0.6919434021
 40
0.8432689942
 40
1.0
 40
1.0
 40
1.0
 40
1.0
 10
19.1870969342
 20
9.4318690376
 30
0.0
 10
19.1859466901
 20
9.4330496248
 30
0.0
 10
19.1837315681
 20
9.4358540587
 30
0.0
 10
19.1808532345
 20
9.4408062844
 30
0.0
 10
19.1782247875
 20
9.4467320651
 30
0.0
 10
19.1758820731
 20
9.4535373385
 30
0.0
 10
19.1738670817
 20
9.4611192527
 30
0.0
 10
19.1722086046
 20
9.4693579488
 30
0.0
 10
19.1709392355
 20
9.4781166917
 30
0.0
 10
19.1703699524
 20
9.4841273411
 30
0.0
 10
19.1701521288
 20
9.4871899537
 30
0.0
 11
19.1870969342
 21
9.4318690376
 31
0.0
 11
19.1839832214
 21
9.4357104462
 31
0.0
 11
19.1810698336
 21
9.4406271034
 31
0.0
 11
19.1784053126
 21
9.4465420554
 31
0.0
 11
19.1760324454
 21
9.4533540963
 31
0.0
 11
19.1739909404
 21
9.4609544319
 31
0.0
 11
19.1723126385
 21
9.4692206444
 31
0.0
 11
19.171026012
 21
9.4780204545
 31
0.0
 11
19.1701521288
 21
9.4871899537
 31
0.0
  0
SPLINE
  5
33B
100
AcDbEntity
  8
0
100
AcDbSpline
 62
6
  6
CONTINUOUS
 70
0
 71
3
 72
15
 73
11
 74
9
 42
0.0000001
 43
0.0000001
 44
0.0000000001
 12
-0.0366002209
 22
0.041528444
 32
0.0
 13
-0.0049674377
 23
0.055131773
 33
0.0
 40
0.0
 40
0.0
 40
0.0
 40
0.0
 40
0.0966752056
 40
0.2026192305
 40
0.3175916913
 40
0.4410356654
 40
0.5721400317
 40
0.7098975074
 40
0.8530642477
 40
1.0
 40
1.0
 40
1.0
 40
1.0
 10
19.0588421251
 20
9.4355615351
 30
0.0
 10
19.0576626805
 20
9.436899792
 30
0.0
 10
19.0553885494
 20
9.4398819508
 30
0.0
 10
19.0523775559
 20
9.4449201528
 30
0.0
 10
19.0496391038
 20
9.4506628913
 30
0.0
 10
19.0472104485
 20
9.4570408715
 30
0.0
 10
19.0451196307
 20
9.4639767058
 30
0.0
 10
19.0433923149
 20
9.4713854053
 30
0.0
 10
19.0420531739
 20
9.4791698014
 30
0.0
 10
19.0414332671
 20
9.4844896775
 30
0.0
 10
19.0411899691
 20
9.4871899537
 30
0.0
 11
19.0588421251
 21
9.4355615351
 31
0.0
 11
19.0555729761
 21
9.4397983802
 31
0.0
 11
19.0525408066
 21
9.4448182218
 31
0.0
 11
19.0497829749
 21
9.4505539731
 31
0.0
 11
19.0473352007
 21
9.4569337667
 31
0.0
 11
19.045227799
 21
9.4638783477
 31
0.0
 11
19.0434867571
 21
9.4713025136
 31
0.0
 11
19.0421351294
 21
9.4791114117
 31
0.0
 11
19.0411899691
 21
9.4871899537
 31
0.0
  0
SPLINE
  5
33C
100
AcDbEntity
  8
0
100
AcDbSpline
 62
6
  6
CONTINUOUS
 70
0
 71
3
 72
12
 73
8
 74
6
 42
0.0000001
 43
0.0000001
 44
0.0000000001
 12
-0.0296841677
 22
0.0392004252
 32
0.0
 13
-0.0052842376
 23
0.0488866033
 33
0.0
 40
0.0
 40
0.0
 40
0.0
 40
0.0
 40
0.1070775891
 40
0.2201254394
 40
0.4628278726
 40
0.7247139872
 40
1.0
 40
1.0
 40
1.0
 40
1.0
 10
18.9350194027
 20
9.4412885459
 30
0.0
 10
18.9339598997
 20
9.4426877082
 30
0.0
 10
18.9319217772
 20
9.4456720249
 30
0.0
 10
18.9281844287
 20
9.4522814076
 30
0.0
 10
18.9242473253
 20
9.4616486968
 30
0.0
 10
18.9208185249
 20
9.4739904246
 30
0.0
 10
18.9194209488
 20
9.482704021
 30
0.0
 10
18.9189360565
 20
9.4871899537
 30
0.0
 11
18.9350194027
 21
9.4412885459
 31
0.0
 11
18.93203872
 21
9.4456287473
 31
0.0
 11
18.9292924834
 21
9.4504617092
 31
0.0
 11
18.9246005021
 21
9.4614346716
 31
0.0
 11
18.9211066028
 21
9.4738289229
 31
0.0
 11
18.9189360565
 21
9.4871899537
 31
0.0
  0
SPLINE
  5
33D
100
AcDbEntity
  8
0
100
AcDbSpline
 62
6
  6
CONTINUOUS
 70
0
 71
3
 72
17
 73
13
 74
11
 42
0.0000001
 43
0.0000001
 44
0.0000000001
 12
-0.0137426316
 22
0.0104099143
 32
0.0
 13
-0.0172402505
 23
-0.0000003575
 33
0.0
 40
0.0
 40
0.0
 40
0.0
 40
0.0
 40
0.2011905433
 40
0.382198748
 40
0.5419860729
 40
0.6796388047
 40
0.7944333869
 40
0.8859136242
 40
0.9228921228
 40
0.9540938278
 40
0.9796826572
 40
1.0
 40
1.0
 40
1.0
 40
1.0
 10
2.2987418312
 20
9.504711103
 30
0.0
 10
2.297820202
 20
9.5054092284
 30
0.0
 10
2.2960644915
 20
9.5067290038
 30
0.0
 10
2.2935534035
 20
9.5085718775
 30
0.0
 10
2.2913101765
 20
9.5101620295
 30
0.0
 10
2.2893453571
 20
9.5114862633
 30
0.0
 10
2.2876684424
 20
9.5125330057
 30
0.0
 10
2.2864441455
 20
9.5132108882
 30
0.0
 10
2.2856105428
 20
9.5135952216
 30
0.0
 10
2.2851068115
 20
9.5137884162
 30
0.0
 10
2.2846795625
 20
9.5139081232
 30
0.0
 10
2.2844160621
 20
9.5139429739
 30
0.0
 10
2.2842993034
 20
9.5139429714
 30
0.0
 11
2.2987418312
 21
9.504711103
 31
0.0
 11
2.2959676057
 21
9.5067930944
 31
0.0
 11
2.2934497561
 21
9.508636663
 31
0.0
 11
2.2911997261
 21
9.5102260472
 31
0.0
 11
2.2892281891
 21
9.5115470189
 31
0.0
 11
2.287544722
 21
9.5125875597
 31
0.0
 11
2.2861575845
 21
9.5133380442
 31
0.0
 11
2.2855773542
 21
9.5136021708
 31
0.0
 11
2.2850737638
 21
9.5137912744
 31
0.0
 11
2.2846475144
 21
9.5139049918
 31
0.0
 11
2.2842993034
 21
9.5139429714
 31
0.0
  0
SPLINE
  5
33E
100
AcDbEntity
  8
0
100
AcDbSpline
 62
6
  6
CONTINUOUS
 70
0
 71
3
 72
11
 73
7
 74
5
 42
0.0000001
 43
0.0000001
 44
0.0000000001
 12
-0.0197024129
 22
0.0332266337
 32
0.0
 13
-0.0047874798
 23
0.038331114
 33
0.0
 40
0.0
 40
0.0
 40
0.0
 40
0.0
 40
0.2342718227
 40
0.480543158
 40
0.7368303366
 40
1.0
 40
1.0
 40
1.0
 40
1.0
 10
18.8165666792
 20
9.4506797443
 30
0.0
 10
18.8150281058
 20
9.4532744323
 30
0.0
 10
18.8122068877
 20
9.4588001229
 30
0.0
 10
18.8088347721
 20
9.4676856695
 30
0.0
 10
18.8062761801
 20
9.4772232485
 30
0.0
 10
18.8051498038
 20
9.4838274249
 30
0.0
 10
18.8047298307
 20
9.4871899537
 30
0.0
 11
18.8165666792
 21
9.4506797443
 31
0.0
 11
18.8124251678
 21
9.4587261353
 31
0.0
 11
18.8090296674
 21
9.4676127274
 31
0.0
 11
18.8064474994
 21
9.4771701528
 31
0.0
 11
18.8047298307
 21
9.4871899537
 31
0.0
  0
SPLINE
  5
33F
100
AcDbEntity
  8
0
100
AcDbSpline
 62
6
  6
CONTINUOUS
 70
0
 71
3
 72
12
 73
8
 74
6
 42
0.0000001
 43
0.0000001
 44
0.0000000001
 12
-0.0033807044
 22
0.0000000491
 32
0.0
 13
-0.0003516063
 23
-0.0033623705
 33
0.0
 40
0.0
 40
0.0
 40
0.0
 40
0.0
 40
0.2876897105
 40
0.525315288
 40
0.6366817752
 40
0.7497888763
 40
1.0
 40
1.0
 40
1.0
 40
1.0
 10
2.3068407041
 20
9.5139429714
 30
0.0
 10
2.3065165061
 20
9.5139429761
 30
0.0
 10
2.3059194346
 20
9.5138894665
 30
0.0
 10
2.3052476209
 20
9.5135824664
 30
0.0
 10
2.3048741625
 20
9.513212779
 30
0.0
 10
2.304586712
 20
9.5127569457
 30
0.0
 10
2.3044881189
 20
9.5123470847
 30
0.0
 10
2.3044587936
 20
9.5120666506
 30
0.0
 11
2.3068407041
 21
9.5139429714
 31
0.0
 11
2.3058753594
 21
9.5138244451
 31
0.0
 11
2.305154359
 21
9.5134701619
 31
0.0
 11
2.3048867641
 21
9.5132053165
 31
0.0
 11
2.3046815045
 21
9.5128826956
 31
0.0
 11
2.3044587936
 21
9.5120666506
 31
0.0
  0
LINE
  5
340
100
AcDbEntity
  8
0
100
AcDbLine
 62
6
  6
CONTINUOUS
 10
2.2831320971
 20
9.507903371
 11
2.2767572006
 21
9.5139429714
  0
SPLINE
  5
341
100
AcDbEntity
  8
0
100
AcDbSpline
 62
6
  6
CONTINUOUS
 70
0
 71
3
 72
15
 73
11
 74
9
 42
0.0000001
 43
0.0000001
 44
0.0000000001
 12
-0.0324827055
 22
0.0582058582
 32
0.0
 13
-0.0666561931
 23
-0.0000001555
 33
0.0
 40
0.0
 40
0.0
 40
0.0
 40
0.0
 40
0.1011036945
 40
0.2082091953
 40
0.3222040958
 40
0.4435841338
 40
0.5724598477
 40
0.7085877311
 40
0.8513912319
 40
1.0
 40
1.0
 40
1.0
 40
1.0
 10
20.1367840513
 20
9.4871899537
 30
0.0
 10
20.1356893441
 20
9.4891515628
 30
0.0
 10
20.1330535359
 20
9.4929875404
 30
0.0
 10
20.1280497137
 20
9.4981476516
 30
0.0
 10
20.1219579927
 20
9.5027540003
 30
0.0
 10
20.1148625535
 20
9.5066968253
 30
0.0
 10
20.1068654156
 20
9.5098782945
 30
0.0
 10
20.0980898934
 20
9.5122131088
 30
0.0
 10
20.0886802524
 20
9.5136355661
 30
0.0
 10
20.0822001847
 20
9.5139429791
 30
0.0
 10
20.0788982864
 20
9.5139429714
 30
0.0
 11
20.1367840513
 21
9.4871899537
 31
0.0
 11
20.1329885865
 21
9.4927587142
 31
0.0
 11
20.1280395991
 21
9.497904231
 31
0.0
 11
20.1219959119
 21
9.5025097202
 31
0.0
 11
20.1149368683
 21
9.5064631789
 31
0.0
 11
20.1069640357
 21
9.5096613507
 31
0.0
 11
20.0982009928
 21
9.5120155634
 31
0.0
 11
20.0887920653
 21
9.5134572469
 31
0.0
 11
20.0788982864
 21
9.5139429714
 31
0.0
  0
SPLINE
  5
342
100
AcDbEntity
  8
0
100
AcDbSpline
 62
6
  6
CONTINUOUS
 70
0
 71
3
 72
14
 73
10
 74
8
 42
0.0000001
 43
0.0000001
 44
0.0000000001
 12
-0.0824034515
 22
0.0000002359
 32
0.0
 13
-0.0667828215
 23
-0.0482740467
 33
0.0
 40
0.0
 40
0.0
 40
0.0
 40
0.0
 40
0.2433115254
 40
0.3699457936
 40
0.4981521732
 40
0.626596076
 40
0.7539252177
 40
0.8788219774
 40
1.0
 40
1.0
 40
1.0
 40
1.0
 10
20.2134233076
 20
9.5139429714
 30
0.0
 10
20.2067400711
 20
9.5139429905
 30
0.0
 10
20.1965564987
 20
9.5128895094
 30
0.0
 10
20.1832227834
 20
9.5097846803
 30
0.0
 10
20.1731798994
 20
9.5065853892
 30
0.0
 10
20.1633901844
 20
9.5026369762
 30
0.0
 10
20.1539883406
 20
9.4980413235
 30
0.0
 10
20.1450988103
 20
9.4929102673
 30
0.0
 10
20.139481588
 20
9.4891398715
 30
0.0
 10
20.1367840513
 20
9.4871899537
 30
0.0
 11
20.2134233076
 21
9.5139429714
 31
0.0
 11
20.1934664555
 21
9.5120155634
 31
0.0
 11
20.1833003655
 21
9.5096614303
 31
0.0
 11
20.1732313858
 21
9.5064633933
 31
0.0
 11
20.1634131875
 21
9.5025100764
 31
0.0
 11
20.1539855644
 21
9.4979046931
 31
0.0
 11
20.1450723682
 21
9.4927589535
 31
0.0
 11
20.1367840513
 21
9.4871899537
 31
0.0
  0
SPLINE
  5
343
100
AcDbEntity
  8
0
100
AcDbSpline
 62
6
  6
CONTINUOUS
 70
0
 71
3
 72
14
 73
10
 74
8
 42
0.0000001
 43
0.0000001
 44
0.0000000001
 12
-0.0408073175
 22
0.0577735249
 32
0.0
 13
-0.0707320107
 23
-0.0000002143
 33
0.0
 40
0.0
 40
0.0
 40
0.0
 40
0.0
 40
0.1023752193
 40
0.2113544954
 40
0.3272506379
 40
0.4500570927
 40
0.5794653883
 40
0.7148991396
 40
1.0
 40
1.0
 40
1.0
 40
1.0
 10
20.0025265807
 20
9.4871899537
 30
0.0
 10
20.001134028
 20
9.4891614794
 30
0.0
 10
19.9979191179
 20
9.4929992901
 30
0.0
 10
19.9921383165
 20
9.4981448317
 30
0.0
 10
19.9853240482
 20
9.5027428381
 30
0.0
 10
19.9775681548
 20
9.5066827392
 30
0.0
 10
19.9689790236
 20
9.5098652378
 30
0.0
 10
19.9563876455
 20
9.5130355315
 30
0.0
 10
19.9464286034
 20
9.5139429918
 30
0.0
 10
19.9397066843
 20
9.5139429714
 30
0.0
 11
20.0025265807
 21
9.4871899537
 31
0.0
 11
19.9978978943
 21
9.4927586441
 31
0.0
 11
19.9921583388
 21
9.4979041035
 31
0.0
 11
19.9853767498
 21
9.5025095523
 31
0.0
 11
19.9776422202
 21
9.5064629918
 31
0.0
 11
19.9690658149
 21
9.5096611689
 31
0.0
 11
19.9597801067
 21
9.5120154146
 31
0.0
 11
19.9397066843
 21
9.5139429714
 31
0.0
  0
SPLINE
  5
344
100
AcDbEntity
  8
0
100
AcDbSpline
 62
6
  6
CONTINUOUS
 70
0
 71
3
 72
13
 73
9
 74
7
 42
0.0000001
 43
0.0000001
 44
0.0000000001
 12
-0.0822501653
 22
0.0000002261
 32
0.0
 13
-0.0652382949
 23
-0.0500904639
 33
0.0
 40
0.0
 40
0.0
 40
0.0
 40
0.0
 40
0.2508957696
 40
0.3793419682
 40
0.5080349623
 40
0.7608712632
 40
0.8827469686
 40
1.0
 40
1.0
 40
1.0
 40
1.0
 10
20.0788914575
 20
9.5139429714
 30
0.0
 10
20.072012718
 20
9.5139429903
 30
0.0
 10
20.0615876786
 20
9.5129158453
 30
0.0
 10
20.0480022155
 20
9.5097990723
 30
0.0
 10
20.0346631912
 20
9.5055643378
 30
0.0
 10
20.0220258521
 20
9.4998556484
 30
0.0
 10
20.0104392277
 20
9.4929333318
 30
0.0
 10
20.0050763766
 20
9.4891477066
 30
0.0
 10
20.0025265807
 20
9.4871899537
 30
0.0
 11
20.0788914575
 21
9.5139429714
 31
0.0
 11
20.0583454454
 21
9.5120155634
 31
0.0
 11
20.0480463489
 21
9.5096614303
 31
0.0
 11
20.0379559967
 21
9.5064633933
 31
0.0
 11
20.0190030261
 21
9.4979046931
 31
0.0
 11
20.0104002421
 21
9.4927589535
 31
0.0
 11
20.0025265807
 21
9.4871899537
 31
0.0
  0
SPLINE
  5
345
100
AcDbEntity
  8
0
100
AcDbSpline
 62
6
  6
CONTINUOUS
 70
0
 71
3
 72
15
 73
11
 74
9
 42
0.0000001
 43
0.0000001
 44
0.0000000001
 12
-0.0654972919
 22
0.0427315977
 32
0.0
 13
-0.0782041219
 23
-0.0000003283
 33
0.0
 40
0.0
 40
0.0
 40
0.0
 40
0.0
 40
0.1350457811
 40
0.270390474
 40
0.4043611203
 40
0.5353161589
 40
0.6616767968
 40
0.7820039856
 40
0.8950776377
 40
1.0
 40
1.0
 40
1.0
 40
1.0
 10
18.8047298307
 20
9.4871899537
 30
0.0
 10
18.801781453
 20
9.4891135277
 30
0.0
 10
18.7957917969
 20
9.4928346152
 30
0.0
 10
18.7865808633
 20
9.4979685104
 30
0.0
 10
18.7772094384
 20
9.5025686258
 30
0.0
 10
18.767800364
 20
9.5065239355
 30
0.0
 10
18.7584849585
 20
9.5097326211
 30
0.0
 10
18.7494011078
 20
9.5121070754
 30
0.0
 10
18.740693035
 20
9.5135788573
 30
0.0
 10
18.7350072619
 20
9.5139429829
 30
0.0
 10
18.7322721415
 20
9.5139429714
 30
0.0
 11
18.8047298307
 21
9.4871899537
 31
0.0
 11
18.7957561213
 21
9.4927586294
 31
0.0
 11
18.7865064572
 21
9.4979040767
 31
0.0
 11
18.7770958973
 21
9.502509517
 31
0.0
 11
18.7676485161
 21
9.5064629525
 31
0.0
 11
18.758298433
 21
9.5096611307
 31
0.0
 11
18.7491876076
 21
9.5120153833
 31
0.0
 11
18.7404631072
 21
9.5134571392
 31
0.0
 11
18.7322721415
 21
9.5139429714
 31
0.0
  0
SPLINE
  5
346
100
AcDbEntity
  8
0
100
AcDbSpline
 62
6
  6
CONTINUOUS
 70
0
 71
3
 72
13
 73
9
 74
7
 42
0.0000001
 43
0.0000001
 44
0.0000000001
 12
-0.0480185737
 22
0.056701881
 32
0.0
 13
-0.0743026698
 23
-0.0000002329
 33
0.0
 40
0.0
 40
0.0
 40
0.0
 40
0.0
 40
0.2152901099
 40
0.3331129927
 40
0.4571512972
 40
0.5867907581
 40
0.7212164302
 40
1.0
 40
1.0
 40
1.0
 40
1.0
 10
19.8644447523
 20
9.4871899537
 30
0.0
 10
19.8609987776
 20
9.4912590717
 30
0.0
 10
19.8547184403
 20
9.4967882842
 30
0.0
 10
19.8450658189
 20
9.502726941
 30
0.0
 10
19.8367289988
 20
9.5066682858
 30
0.0
 10
19.8276411572
 20
9.5098520904
 30
0.0
 10
19.8145561182
 20
9.5130114836
 30
0.0
 10
19.8042829574
 20
9.513942993
 30
0.0
 10
19.7973781695
 20
9.5139429714
 30
0.0
 11
19.8644447523
 21
9.4871899537
 31
0.0
 11
19.8525662115
 21
9.497904077
 31
0.0
 11
19.8451209346
 21
9.5025095174
 31
0.0
 11
19.8367955544
 21
9.5064629529
 31
0.0
 11
19.8277094204
 21
9.5096611311
 31
0.0
 11
19.8180026516
 21
9.5120153837
 31
0.0
 11
19.7973781695
 21
9.5139429714
 31
0.0
  0
SPLINE
  5
347
100
AcDbEntity
  8
0
100
AcDbSpline
 62
6
  6
CONTINUOUS
 70
0
 71
3
 72
13
 73
9
 74
7
 42
0.0000001
 43
0.0000001
 44
0.0000000001
 12
-0.0813412488
 22
0.0000002174
 32
0.0
 13
-0.0626396367
 23
-0.0518909884
 33
0.0
 40
0.0
 40
0.0
 40
0.0
 40
0.0
 40
0.2581557142
 40
0.5171300656
 40
0.6439701622
 40
0.7674133259
 40
0.8864088496
 40
1.0
 40
1.0
 40
1.0
 40
1.0
 10
19.9396985799
 20
9.5139429714
 30
0.0
 10
19.9326990105
 20
9.5139429901
 30
0.0
 10
19.9186520128
 20
9.5126098369
 30
0.0
 10
19.9017305805
 20
9.5079696112
 30
0.0
 10
19.888962854
 20
9.5026767954
 30
0.0
 10
19.8800521793
 20
9.4980838638
 30
0.0
 10
19.8718619719
 20
9.4929541645
 30
0.0
 10
19.8668165217
 20
9.4891547394
 30
0.0
 10
19.8644447523
 20
9.4871899537
 30
0.0
 11
19.9396985799
 21
9.5139429714
 31
0.0
 11
19.9187885143
 21
9.5120155634
 31
0.0
 11
19.8984680775
 21
9.5064633933
 31
0.0
 11
19.888938197
 21
9.5025100764
 31
0.0
 11
19.8800156105
 21
9.4979046931
 31
0.0
 11
19.8718174926
 21
9.4927589535
 31
0.0
 11
19.8644447523
 21
9.4871899537
 31
0.0
  0
SPLINE
  5
348
100
AcDbEntity
  8
0
100
AcDbSpline
 62
6
  6
CONTINUOUS
 70
0
 71
3
 72
13
 73
9
 74
7
 42
0.0000001
 43
0.0000001
 44
0.0000000001
 12
-0.0540710021
 22
0.055281117
 32
0.0
 13
-0.0773283594
 23
-0.0000002412
 33
0.0
 40
0.0
 40
0.0
 40
0.0
 40
0.0
 40
0.1071414291
 40
0.2207875094
 40
0.3404680802
 40
0.4655206819
 40
0.7279376379
 40
1.0
 40
1.0
 40
1.0
 40
1.0
 10
19.7240514194
 20
9.4871899537
 30
0.0
 10
19.7221203379
 20
9.489164253
 30
0.0
 10
19.7178847582
 20
9.4929880024
 30
0.0
 10
19.7107466061
 20
9.4981201248
 30
0.0
 10
19.7027121768
 20
9.5027123816
 30
0.0
 10
19.6907589755
 20
9.5080495969
 30
0.0
 10
19.6742936023
 20
9.5126858349
 30
0.0
 10
19.6604854358
 20
9.5139429933
 30
0.0
 10
19.6534727238
 20
9.5139429714
 30
0.0
 11
19.7240514194
 21
9.4871899537
 31
0.0
 11
19.7179169063
 21
9.4927586294
 31
0.0
 11
19.71079269
 21
9.4979040767
 31
0.0
 11
19.7027652724
 21
9.502509517
 31
0.0
 11
19.6939402272
 21
9.5064629525
 31
0.0
 11
19.6744223676
 21
9.5120153834
 31
0.0
 11
19.6534727238
 21
9.5139429714
 31
0.0
  0
SPLINE
  5
349
100
AcDbEntity
  8
0
100
AcDbSpline
 62
6
  6
CONTINUOUS
 70
0
 71
3
 72
13
 73
9
 74
7
 42
0.0000001
 43
0.0000001
 44
0.0000000001
 12
-0.0796896194
 22
0.0000002095
 32
0.0
 13
-0.0589325918
 23
-0.0536412627
 33
0.0
 40
0.0
 40
0.0
 40
0.0
 40
0.0
 40
0.2651926402
 40
0.5260058438
 40
0.6519843512
 40
0.7735384014
 40
0.8897913781
 40
1.0
 40
1.0
 40
1.0
 40
1.0
 10
19.7973697012
 20
9.5139429714
 30
0.0
 10
19.7903253343
 20
9.5139429899
 30
0.0
 10
19.7763244318
 20
9.5126484321
 30
0.0
 10
19.7595399516
 20
9.5080102272
 30
0.0
 10
19.7471096324
 20
9.5026953258
 30
0.0
 10
19.7385910389
 20
9.4981032198
 30
0.0
 10
19.7308852661
 20
9.4929729952
 30
0.0
 10
19.7262163793
 20
9.4891605302
 30
0.0
 10
19.7240514194
 20
9.4871899537
 30
0.0
 11
19.7973697012
 21
9.5139429714
 31
0.0
 11
19.7763246771
 21
9.5120155634
 31
0.0
 11
19.7562958872
 21
9.5064633933
 31
0.0
 11
19.7470678643
 21
9.5025100764
 31
0.0
 11
19.738546093
 21
9.4979046931
 31
0.0
 11
19.7308424613
 21
9.4927589535
 31
0.0
 11
19.7240514194
 21
9.4871899537
 31
0.0
  0
SPLINE
  5
34A
100
AcDbEntity
  8
0
100
AcDbSpline
 62
6
  6
CONTINUOUS
 70
0
 71
3
 72
15
 73
11
 74
9
 42
0.0000001
 43
0.0000001
 44
0.0000000001
 12
-0.0526140063
 22
0.00000017
 32
0.0
 13
-0.0043725483
 23
-0.0524319986
 33
0.0
 40
0.0
 40
0.0
 40
0.0
 40
0.0
 40
0.1571065514
 40
0.3025195833
 40
0.4365335766
 40
0.5602355444
 40
0.6755425218
 40
0.7851196061
 40
0.8921639204
 40
1.0
 40
1.0
 40
1.0
 40
1.0
 10
18.8442545908
 20
9.5139429714
 30
0.0
 10
18.8414992558
 20
9.5139429803
 30
0.0
 10
18.836186448
 20
9.5136534137
 30
0.0
 10
18.82863665
 20
9.5122457418
 30
0.0
 10
18.8219291267
 20
9.5099153831
 30
0.0
 10
18.8161785785
 20
9.5067187931
 30
0.0
 10
18.8114854881
 20
9.5027327379
 30
0.0
 10
18.8079374485
 20
9.4980549351
 30
0.0
 10
18.8056030574
 20
9.4928119045
 30
0.0
 10
18.8048870035
 20
9.4890746407
 30
0.0
 10
18.8047298307
 20
9.4871899537
 30
0.0
 11
18.8442545908
 21
9.5139429714
 31
0.0
 11
18.8360028707
 21
9.5134572183
 31
0.0
 11
18.8284891637
 21
9.5120155634
 31
0.0
 11
18.8218427479
 21
9.5096614303
 31
0.0
 11
18.816174189
 21
9.5064633934
 31
0.0
 11
18.8115723538
 21
9.5025100765
 31
0.0
 11
18.808104068
 21
9.4979046931
 31
0.0
 11
18.805814717
 21
9.4927589535
 31
0.0
 11
18.8047298307
 21
9.4871899537
 31
0.0
  0
SPLINE
  5
34B
100
AcDbEntity
  8
0
100
AcDbSpline
 62
6
  6
CONTINUOUS
 70
0
 71
3
 72
12
 73
8
 74
6
 42
0.0000001
 43
0.0000001
 44
0.0000000001
 12
-0.0003510411
 22
0.003363333
 32
0.0
 13
-0.003381603
 23
-0.0000000353
 33
0.0
 40
0.0
 40
0.0
 40
0.0
 40
0.0
 40
0.2502291886
 40
0.3633376206
 40
0.4747010714
 40
0.7123195872
 40
1.0
 40
1.0
 40
1.0
 40
1.0
 10
5.0024774563
 20
9.5120660048
 30
0.0
 10
5.0024481761
 20
9.5123465395
 30
0.0
 10
5.0023496456
 20
9.5127565531
 30
0.0
 10
5.0020622001
 20
9.513212584
 30
0.0
 10
5.0016886828
 20
9.513582403
 30
0.0
 10
5.0010166939
 20
9.5138894582
 30
0.0
 10
5.0004194864
 20
9.5139429748
 30
0.0
 10
5.0000952128
 20
9.5139429714
 30
0.0
 11
5.0024774563
 21
9.5120660048
 31
0.0
 11
5.0022548422
 21
9.5128823726
 31
0.0
 11
5.0020495856
 21
9.5132051212
 31
0.0
 11
5.0017819538
 21
9.513470057
 31
0.0
 11
5.0010607838
 21
9.5138244249
 31
0.0
 11
5.0000952128
 21
9.5139429714
 31
0.0
  0
SPLINE
  5
34C
100
AcDbEntity
  8
0
100
AcDbSpline
 62
6
  6
CONTINUOUS
 70
0
 71
3
 72
15
 73
11
 74
9
 42
0.0000001
 43
0.0000001
 44
0.0000000001
 12
-0.0006113704
 22
0.0075739476
 32
0.0
 13
-0.0075985825
 23
-0.0000000533
 33
0.0
 40
0.0
 40
0.0
 40
0.0
 40
0.0
 40
0.1299253068
 40
0.2490952502
 40
0.3616784189
 40
0.4727558931
 40
0.5877250342
 40
0.7115024866
 40
0.8479927972
 40
1.0
 40
1.0
 40
1.0
 40
1.0
 10
4.968087626
 20
9.5097107977
 30
0.0
 10
4.9680611485
 20
9.5100388136
 30
0.0
 10
4.9679653405
 20
9.5106657964
 30
0.0
 10
4.9676629578
 20
9.5115367248
 30
0.0
 10
4.9672064802
 20
9.5122841289
 30
0.0
 10
4.9665968472
 20
9.5128984781
 30
0.0
 10
4.9658407593
 20
9.5133736946
 30
0.0
 10
4.9649453351
 20
9.513708394
 30
0.0
 10
4.9639158044
 20
9.5139048949
 30
0.0
 10
4.9631839604
 20
9.5139429741
 30
0.0
 10
4.9627989473
 20
9.5139429714
 30
0.0
 11
4.968087626
 21
9.5097107977
 31
0.0
 11
4.9679306114
 21
9.5106854799
 31
0.0
 11
4.9676270909
 21
9.5115386192
 31
0.0
 11
4.9671779083
 21
9.512266677
 31
0.0
 11
4.9665841466
 21
9.5128665403
 31
0.0
 11
4.9658473428
 21
9.5133359031
 31
0.0
 11
4.9649691432
 21
9.5136726051
 31
0.0
 11
4.9639519992
 21
9.5138752445
 31
0.0
 11
4.9627989473
 21
9.5139429714
 31
0.0
  0
SPLINE
  5
34D
100
AcDbEntity
  8
0
100
AcDbSpline
 62
6
  6
CONTINUOUS
 70
0
 71
3
 72
15
 73
11
 74
9
 42
0.0000001
 43
0.0000001
 44
0.0000000001
 12
-0.0006346598
 22
0.0134123978
 32
0.0
 13
-0.0134274051
 23
-0.0000000715
 33
0.0
 40
0.0
 40
0.0
 40
0.0
 40
0.0
 40
0.1286545361
 40
0.2470966363
 40
0.3593886757
 40
0.4705407216
 40
0.5858569773
 40
0.7101817038
 40
0.847353224
 40
1.0
 40
1.0
 40
1.0
 40
1.0
 10
4.920380409
 20
9.5064010788
 30
0.0
 10
4.9203531918
 20
9.5069762674
 30
0.0
 10
4.9202186104
 20
9.5080803118
 30
0.0
 10
4.9197252206
 20
9.5096227804
 30
0.0
 10
4.9189452767
 20
9.510955199
 30
0.0
 10
4.9178829555
 20
9.5120570036
 30
0.0
 10
4.9165512365
 20
9.5129125601
 30
0.0
 10
4.9149662692
 20
9.5135178572
 30
0.0
 10
4.913139816
 20
9.5138737364
 30
0.0
 10
4.9118405956
 20
9.5139429751
 30
0.0
 10
4.9111573789
 20
9.5139429714
 30
0.0
 11
4.920380409
 21
9.5064010788
 31
0.0
 11
4.92015757
 21
9.5081141425
 31
0.0
 11
4.9196615448
 21
9.5096251805
 31
0.0
 11
4.9188944482
 21
9.5109232544
 31
0.0
 11
4.9178599864
 21
9.5119990778
 31
0.0
 11
4.9165626877
 21
9.5128443899
 31
0.0
 11
4.9150082509
 21
9.5134530639
 31
0.0
 11
4.9132033463
 21
9.513820159
 31
0.0
 11
4.9111573789
 21
9.5139429714
 31
0.0
  0
SPLINE
  5
34E
100
AcDbEntity
  8
0
100
AcDbSpline
 62
6
  6
CONTINUOUS
 70
0
 71
3
 72
16
 73
12
 74
10
 42
0.0000001
 43
0.0000001
 44
0.0000000001
 12
-0.0001031394
 22
0.0207971269
 32
0.0
 13
-0.0207973826
 23
-0.000000091
 33
0.0
 40
0.0
 40
0.0
 40
0.0
 40
0.0
 40
0.1269856744
 40
0.2444269289
 40
0.3562947424
 40
0.4675167712
 40
0.5833110585
 40
0.7083833546
 40
0.7756593139
 40
0.846540931
 40
1.0
 40
1.0
 40
1.0
 40
1.0
 10
4.8597860464
 20
9.502151522
 30
0.0
 10
4.8597816807
 20
9.5030318344
 30
0.0
 10
4.8596405958
 20
9.5047309828
 30
0.0
 10
4.85895541
 20
9.5071227552
 30
0.0
 10
4.8578002639
 20
9.5092072058
 30
0.0
 10
4.8561828543
 20
9.5109429731
 30
0.0
 10
4.854128972
 20
9.5122992712
 30
0.0
 10
4.8521268424
 20
9.5130831477
 30
0.0
 10
4.8503549349
 20
9.5135255176
 30
0.0
 10
4.8483589154
 20
9.513857459
 30
0.0
 10
4.8468001685
 20
9.5139429761
 30
0.0
 10
4.8457363195
 20
9.5139429714
 30
0.0
 11
4.8597860464
 21
9.502151522
 31
0.0
 11
4.8595462961
 21
9.5047815868
 31
0.0
 11
4.8588563284
 21
9.507124578
 31
0.0
 11
4.8577206296
 21
9.5091551097
 31
0.0
 11
4.8561468794
 21
9.5108503581
 31
0.0
 11
4.8541461323
 21
9.5121907033
 31
0.0
 11
4.8517322857
 21
9.5131599625
 31
0.0
 11
4.8503754956
 21
9.5135016935
 31
0.0
 11
4.8489218138
 21
9.5137465074
 31
0.0
 11
4.8457363195
 21
9.5139429714
 31
0.0
  0
SPLINE
  5
34F
100
AcDbEntity
  8
0
100
AcDbSpline
 62
6
  6
CONTINUOUS
 70
0
 71
3
 72
16
 73
12
 74
10
 42
0.0000001
 43
0.0000001
 44
0.0000000001
 12
0.0014205016
 22
0.0295911107
 32
0.0
 13
-0.0296251862
 23
-0.0000001724
 33
0.0
 40
0.0
 40
0.0
 40
0.0
 40
0.0
 40
0.1250461315
 40
0.2412839428
 40
0.3526140461
 40
0.4639030072
 40
0.5802812539
 40
0.7062967835
 40
0.7741154882
 40
0.8455492518
 40
1.0
 40
1.0
 40
1.0
 40
1.0
 10
4.7868501875
 20
9.4969629045
 30
0.0
 10
4.7869093969
 20
9.4981963225
 30
0.0
 10
4.7868261196
 20
9.5005940344
 30
0.0
 10
4.7859893614
 20
9.5040026342
 30
0.0
 10
4.784437468
 20
9.5070056715
 30
0.0
 10
4.7821848327
 20
9.5095291351
 30
0.0
 10
4.7792746566
 20
9.5115152123
 30
0.0
 10
4.7764148064
 20
9.5126701882
 30
0.0
 10
4.773875902
 20
9.5133240887
 30
0.0
 10
4.7710147661
 20
9.5138157365
 30
0.0
 10
4.7687787933
 20
9.5139429802
 30
0.0
 10
4.7672535825
 20
9.5139429714
 30
0.0
 11
4.7868501875
 21
9.4969629045
 31
0.0
 11
4.7866916621
 21
9.500664026
 31
0.0
 11
4.785846694
 21
9.5040023162
 31
0.0
 11
4.7843222986
 21
9.5069270687
 31
0.0
 11
4.782132523
 21
9.5093917803
 31
0.0
 11
4.779298593
 21
9.5113553647
 31
0.0
 11
4.7758494447
 21
9.5127837934
 31
0.0
 11
4.7739048707
 21
9.5132890482
 31
0.0
 11
4.7718199333
 21
9.5136516795
 31
0.0
 11
4.7672535825
 21
9.5139429714
 31
0.0
  0
SPLINE
  5
350
100
AcDbEntity
  8
0
100
AcDbSpline
 62
6
  6
CONTINUOUS
 70
0
 71
3
 72
15
 73
11
 74
9
 42
0.0000001
 43
0.0000001
 44
0.0000000001
 12
0.0042503387
 22
0.0394417716
 32
0.0
 13
-0.0396701239
 23
-0.0000001285
 33
0.0
 40
0.0
 40
0.0
 40
0.0
 40
0.0
 40
0.1226809795
 40
0.2373608972
 40
0.3479874969
 40
0.4593796828
 40
0.5765420305
 40
0.7038088877
 40
0.8443435955
 40
1.0
 40
1.0
 40
1.0
 40
1.0
 10
4.7022401313
 20
9.4909945135
 30
0.0
 10
4.7024139432
 20
9.4926074319
 30
0.0
 10
4.7024732662
 20
9.4957702337
 30
0.0
 10
4.7015523735
 20
9.5003202111
 30
0.0
 10
4.6996066693
 20
9.5043794236
 30
0.0
 10
4.6966597894
 20
9.5078260529
 30
0.0
 10
4.6927793617
 20
9.5105632393
 30
0.0
 10
4.6880485128
 20
9.5125344389
 30
0.0
 10
4.6825481346
 20
9.513710549
 30
0.0
 10
4.6786241206
 20
9.5139429781
 30
0.0
 10
4.6765658176
 20
9.5139429714
 30
0.0
 11
4.7022401313
 21
9.4909945135
 31
0.0
 11
4.7022916189
 21
9.4958610108
 31
0.0
 11
4.7013588023
 21
9.5003137166
 31
0.0
 11
4.6994507171
 21
9.504265775
 31
0.0
 11
4.696589543
 21
9.507633375
 31
0.0
 11
4.6928118591
 21
9.5103410613
 31
0.0
 11
4.6881692183
 21
9.5123247896
 31
0.0
 11
4.6827272795
 21
9.5135356791
 31
0.0
 11
4.6765658176
 21
9.5139429714
 31
0.0
  0
SPLINE
  5
351
100
AcDbEntity
  8
0
100
AcDbSpline
 62
6
  6
CONTINUOUS
 70
0
 71
3
 72
11
 73
7
 74
5
 42
0.0000001
 43
0.0000001
 44
0.0000000001
 12
0.0197033686
 22
0.0332272065
 32
0.0
 13
0.0047876012
 23
0.0383320866
 33
0.0
 40
0.0
 40
0.0
 40
0.0
 40
0.0
 40
0.2342711507
 40
0.4805423171
 40
0.7368297616
 40
1.0
 40
1.0
 40
1.0
 40
1.0
 10
4.4903690002
 20
9.4506788999
 30
0.0
 10
4.4919076438
 20
9.4532736252
 30
0.0
 10
4.4947289906
 20
9.4587994161
 30
0.0
 10
4.4981012528
 20
9.4676851582
 30
0.0
 10
4.50065995
 20
9.4772229783
 30
0.0
 10
4.5017863647
 20
9.4838273322
 30
0.0
 10
4.5022063494
 20
9.4871899537
 30
0.0
 11
4.4903690002
 21
9.4506788999
 31
0.0
 11
4.4945106962
 21
9.458725425
 31
0.0
 11
4.4979063454
 21
9.4676122116
 31
0.0
 11
4.5004886206
 21
9.4771698788
 31
0.0
 11
4.5022063494
 21
9.4871899537
 31
0.0
  0
SPLINE
  5
352
100
AcDbEntity
  8
0
100
AcDbSpline
 62
6
  6
CONTINUOUS
 70
0
 71
3
 72
12
 73
8
 74
6
 42
0.0000001
 43
0.0000001
 44
0.0000000001
 12
0.0296838466
 22
0.0392003672
 32
0.0
 13
0.0052842118
 23
0.0488863647
 33
0.0
 40
0.0
 40
0.0
 40
0.0
 40
0.0
 40
0.1070777453
 40
0.2201257006
 40
0.4628281946
 40
0.7247142124
 40
1.0
 40
1.0
 40
1.0
 40
1.0
 10
4.3719169226
 20
9.4412887377
 30
0.0
 10
4.3729764157
 20
9.4426879
 30
0.0
 10
4.375014519
 20
9.4456722135
 30
0.0
 10
4.3787518318
 20
9.4522815797
 30
0.0
 10
4.3826888981
 20
9.4616488313
 30
0.0
 10
4.3861176679
 20
9.4739904978
 30
0.0
 10
4.3875152341
 20
9.4827040465
 30
0.0
 10
4.3880001236
 20
9.4871899537
 30
0.0
 11
4.3719169226
 21
9.4412887377
 31
0.0
 11
4.374897578
 21
9.445628936
 31
0.0
 11
4.3776437888
 21
9.4504618872
 31
0.0
 11
4.382335726
 21
9.4614348085
 31
0.0
 11
4.3858295938
 21
9.4738289984
 31
0.0
 11
4.3880001236
 21
9.4871899537
 31
0.0
  0
SPLINE
  5
353
100
AcDbEntity
  8
0
100
AcDbSpline
 62
6
  6
CONTINUOUS
 70
0
 71
3
 72
15
 73
11
 74
9
 42
0.0000001
 43
0.0000001
 44
0.0000000001
 12
0.0365982135
 22
0.0415287052
 32
0.0
 13
0.0049673362
 23
0.0551306463
 33
0.0
 40
0.0
 40
0.0
 40
0.0
 40
0.0
 40
0.0966764163
 40
0.2026213376
 40
0.317594308
 40
0.4410384032
 40
0.572142516
 40
0.7098994047
 40
0.8530652828
 40
1.0
 40
1.0
 40
1.0
 40
1.0
 10
4.2480948041
 20
9.435562385
 30
0.0
 10
4.2492741988
 20
9.4369006672
 30
0.0
 10
4.2515482305
 20
9.4398828524
 30
0.0
 10
4.2545590949
 20
9.4449210469
 30
0.0
 10
4.257297428
 20
9.4506637285
 30
0.0
 10
4.2597259763
 20
9.4570416071
 30
0.0
 10
4.261816703
 20
9.4639772998
 30
0.0
 10
4.2635439455
 20
9.4713858242
 30
0.0
 10
4.2648830335
 20
9.4791700188
 30
0.0
 10
4.2655029196
 20
9.4844897517
 30
0.0
 10
4.265746211
 20
9.4871899537
 30
0.0
 11
4.2480948041
 21
9.435562385
 31
0.0
 11
4.2513638174
 21
9.4397992813
 31
0.0
 11
4.2543958567
 21
9.4448191196
 31
0.0
 11
4.2571535674
 21
9.450554816
 31
0.0
 11
4.259601233
 21
9.4569345088
 31
0.0
 11
4.261708542
 21
9.4638789484
 31
0.0
 11
4.2634495092
 21
9.4713029384
 31
0.0
 11
4.2648010827
 21
9.479111633
 31
0.0
 11
4.265746211
 21
9.4871899537
 31
0.0
  0
SPLINE
  5
354
100
AcDbEntity
  8
0
100
AcDbSpline
 62
6
  6
CONTINUOUS
 70
0
 71
3
 72
15
 73
11
 74
9
 42
0.0000001
 43
0.0000001
 44
0.0000000001
 12
0.0410103495
 22
0.0420946448
 32
0.0
 13
0.0041693301
 23
0.058621025
 33
0.0
 40
0.0
 40
0.0
 40
0.0
 40
0.0
 40
0.0841406629
 40
0.1813856145
 40
0.2917727727
 40
0.4145143374
 40
0.5484220523
 40
0.6919453208
 40
0.8432700461
 40
1.0
 40
1.0
 40
1.0
 40
1.0
 10
4.1198397183
 20
9.4318695225
 30
0.0
 10
4.120989931
 20
9.4330501463
 30
0.0
 10
4.1232049895
 20
9.4358546277
 30
0.0
 10
4.1260832436
 20
9.4408068822
 30
0.0
 10
4.1287116162
 20
9.4467326474
 30
0.0
 10
4.1310542629
 20
9.4535378647
 30
0.0
 10
4.1330691959
 20
9.4611196861
 30
0.0
 10
4.1347276259
 20
9.4693582586
 30
0.0
 10
4.1359969612
 20
9.4781168538
 30
0.0
 10
4.1365662316
 20
9.4841273968
 30
0.0
 10
4.1367840513
 20
9.4871899537
 30
0.0
 11
4.1198397183
 21
9.4318695225
 31
0.0
 11
4.1229533495
 21
9.4357110139
 31
0.0
 11
4.1258666564
 21
9.4406277054
 31
0.0
 11
4.1285311007
 21
9.4465426447
 31
0.0
 11
4.1309038982
 21
9.4533546302
 31
0.0
 11
4.1329453431
 21
9.4609548727
 31
0.0
 11
4.1346235965
 21
9.4692209605
 31
0.0
 11
4.1359101881
 21
9.478020621
 31
0.0
 11
4.1367840513
 21
9.4871899537
 31
0.0
  0
SPLINE
  5
355
100
AcDbEntity
  8
0
100
AcDbSpline
 62
6
  6
CONTINUOUS
 70
0
 71
3
 72
18
 73
14
 74
12
 42
0.0000001
 43
0.0000001
 44
0.0000000001
 12
0.0435287158
 22
0.0417258338
 32
0.0
 13
0.0030931957
 23
0.0602181571
 33
0.0
 40
0.0
 40
0.0
 40
0.0
 40
0.0
 40
0.0323371678
 40
0.0689611458
 40
0.1100756556
 40
0.155746204
 40
0.2059622165
 40
0.2606432382
 40
0.3826390585
 40
0.5200003151
 40
0.6705114034
 40
0.8316044284
 40
1.0
 40
1.0
 40
1.0
 40
1.0
 10
3.9882835955
 20
9.429491247
 30
0.0
 10
3.988752794
 20
9.4299410121
 30
0.0
 10
3.9896776048
 20
9.4309800978
 30
0.0
 10
3.990949053
 20
9.432794785
 30
0.0
 10
3.9921842367
 20
9.4349490269
 30
0.0
 10
3.9933775202
 20
9.4374327765
 30
0.0
 10
3.9945231031
 20
9.4402355186
 30
0.0
 10
3.9960334787
 20
9.4445401255
 30
0.0
 10
3.9977316987
 20
9.4506262164
 30
0.0
 10
3.9994326206
 20
9.458690879
 30
0.0
 10
4.0008292634
 20
9.4676097152
 30
0.0
 10
4.001889728
 20
9.4772016015
 30
0.0
 10
4.0023529539
 20
9.4838097967
 30
0.0
 10
4.0025265807
 20
9.4871899537
 30
0.0
 11
3.9882835955
 21
9.429491247
 31
0.0
 11
3.989591913
 21
9.4309370091
 31
0.0
 11
3.9908705815
 21
9.4327374966
 31
0.0
 11
3.9921133373
 21
9.4348826109
 31
0.0
 11
3.9933139662
 21
9.437360922
 31
0.0
 11
3.9944662544
 21
9.4401609979
 31
0.0
 11
3.9955642398
 21
9.4432699374
 31
0.0
 11
3.9975764316
 21
9.450345426
 31
0.0
 11
3.9993099423
 21
9.4584445324
 31
0.0
 11
4.0007308061
 21
9.4674080658
 31
0.0
 11
4.0018103169
 21
9.4770614081
 31
0.0
 11
4.0025265807
 21
9.4871899537
 31
0.0
  0
SPLINE
  5
356
100
AcDbEntity
  8
0
100
AcDbSpline
 62
6
  6
CONTINUOUS
 70
0
 71
3
 72
19
 73
15
 74
13
 42
0.0000001
 43
0.0000001
 44
0.0000000001
 12
0.0445426391
 22
0.0409794913
 32
0.0
 13
0.0018782226
 23
0.0604965924
 33
0.0
 40
0.0
 40
0.0
 40
0.0
 40
0.0
 40
0.0224250143
 40
0.050498759
 40
0.0846253239
 40
0.1248945168
 40
0.1712320805
 40
0.2234999117
 40
0.2814876267
 40
0.3448813768
 40
0.4865083895
 40
0.6453628827
 40
0.8179598397
 40
1.0
 40
1.0
 40
1.0
 40
1.0
 10
3.854690467
 20
9.4280595721
 30
0.0
 10
3.8550234235
 20
9.428365894
 30
0.0
 10
3.855671415
 20
9.4291644318
 30
0.0
 10
3.8565223121
 20
9.4306482284
 30
0.0
 10
3.857354689
 20
9.4325440756
 30
0.0
 10
3.8581638052
 20
9.4348431406
 30
0.0
 10
3.8589455674
 20
9.4375349055
 30
0.0
 10
3.8596940224
 20
9.4406050675
 30
0.0
 10
3.8604040663
 20
9.4440363831
 30
0.0
 10
3.8613290978
 20
9.4492619829
 30
0.0
 10
3.8623364489
 20
9.4565364031
 30
0.0
 10
3.8632965127
 20
9.4660340705
 30
0.0
 10
3.8640212098
 20
9.4763699187
 30
0.0
 10
3.8643307816
 20
9.4835190172
 30
0.0
 10
3.8644447523
 20
9.4871899537
 30
0.0
 11
3.854690467
 21
9.4280595721
 31
0.0
 11
3.8555712777
 21
9.4290922436
 31
0.0
 11
3.8564369752
 21
9.4305543636
 31
0.0
 11
3.8572825388
 21
9.4324388953
 31
0.0
 11
3.8581030573
 21
9.4347339534
 31
0.0
 11
3.8588936829
 21
9.4374248229
 31
0.0
 11
3.8596495702
 21
9.4404967406
 31
0.0
 11
3.8603661199
 21
9.4439325662
 31
0.0
 11
3.8610392661
 21
9.4477100109
 31
0.0
 11
3.8622394255
 21
9.4561976591
 31
0.0
 11
3.8632215666
 21
9.4657621512
 31
0.0
 11
3.8639626577
 21
9.47618239
 31
0.0
 11
3.8644447523
 21
9.4871899537
 31
0.0
  0
SPLINE
  5
357
100
AcDbEntity
  8
0
100
AcDbSpline
 62
6
  6
CONTINUOUS
 70
0
 71
3
 72
23
 73
19
 74
17
 42
0.0000001
 43
0.0000001
 44
0.0000000001
 12
-0.0446826135
 22
0.0401490206
 32
0.0
 13
-0.0006239109
 23
0.0600673833
 33
0.0
 40
0.0
 40
0.0
 40
0.0
 40
0.0
 40
0.0043974865
 40
0.0106148506
 40
0.0187852993
 40
0.0289550283
 40
0.0411387385
 40
0.0553374014
 40
0.0897402835
 40
0.1319703826
 40
0.1817479785
 40
0.2387783173
 40
0.3026820993
 40
0.3729924072
 40
0.4492359825
 40
0.6174571815
 40
0.8028524141
 40
1.0
 40
1.0
 40
1.0
 40
1.0
 10
3.5865186628
 20
9.4273847264
 30
0.0
 10
3.5864531658
 20
9.427443578
 30
0.0
 10
3.5863303421
 20
9.4276219907
 30
0.0
 10
3.5861758437
 20
9.427964769
 30
0.0
 10
3.5860201091
 20
9.4284322021
 30
0.0
 10
3.5858646543
 20
9.4290234009
 30
0.0
 10
3.5857097177
 20
9.4297389469
 30
0.0
 10
3.5854905183
 20
9.4309363102
 30
0.0
 10
3.5852305278
 20
9.4327369595
 30
0.0
 10
3.5849418218
 20
9.4352517962
 30
0.0
 10
3.5846634822
 20
9.4382232428
 30
0.0
 10
3.5843980353
 20
9.4416312721
 30
0.0
 10
3.5841477355
 20
9.4454525537
 30
0.0
 10
3.5839141757
 20
9.449660242
 30
0.0
 10
3.5836180381
 20
9.4559562534
 30
0.0
 10
3.583309414
 20
9.4645583117
 30
0.0
 10
3.5830389483
 20
9.4755834143
 30
0.0
 10
3.5829257616
 20
9.4832425738
 30
0.0
 10
3.5828847607
 20
9.4871899537
 30
0.0
 11
3.5865186628
 21
9.4273847264
 31
0.0
 11
3.5863574963
 21
9.4275940246
 31
0.0
 11
3.5861969653
 21
9.4279312453
 31
0.0
 11
3.586037333
 21
9.4283953639
 31
0.0
 11
3.585878863
 21
9.4289853541
 31
0.0
 11
3.5857218184
 21
9.4297001896
 31
0.0
 11
3.5855664626
 21
9.4305388441
 31
0.0
 11
3.5852618659
 21
9.4325828762
 31
0.0
 11
3.5849671285
 21
9.4351024843
 31
0.0
 11
3.5846842799
 21
9.4380792478
 31
0.0
 11
3.5844153431
 21
9.4414945234
 31
0.0
 11
3.584162176
 21
9.445324906
 31
0.0
 11
3.5839264602
 21
9.4495419074
 31
0.0
 11
3.5837098684
 21
9.4541167822
 31
0.0
 11
3.5833399014
 21
9.4642151597
 31
0.0
 11
3.5830622577
 21
9.4753485055
 31
0.0
 11
3.5828847607
 21
9.4871899537
 31
0.0
  0
SPLINE
  5
358
100
AcDbEntity
  8
0
100
AcDbSpline
 62
6
  6
CONTINUOUS
 70
0
 71
3
 72
23
 73
19
 74
17
 42
0.0000001
 43
0.0000001
 44
0.0000000001
 12
0.0446990885
 22
0.0401309738
 32
0.0
 13
0.000623913
 23
0.0600675811
 33
0.0
 40
0.0
 40
0.0
 40
0.0
 40
0.0
 40
0.0043960698
 40
0.0106119182
 40
0.0187808928
 40
0.0289492343
 40
0.0411316612
 40
0.0553291523
 40
0.0897300515
 40
0.1319586827
 40
0.1817353106
 40
0.2387651643
 40
0.3026689486
 40
0.3729797146
 40
0.449224165
 40
0.6174482338
 40
0.8028475366
 40
1.0
 40
1.0
 40
1.0
 40
1.0
 10
3.7204173688
 20
9.4273845931
 30
0.0
 10
3.7204828689
 20
9.4274433993
 30
0.0
 10
3.7206057027
 20
9.4276217404
 30
0.0
 10
3.7207602032
 20
9.4279644215
 30
0.0
 10
3.7209159424
 20
9.4284317634
 30
0.0
 10
3.7210714016
 20
9.4290228772
 30
0.0
 10
3.7212263433
 20
9.4297383459
 30
0.0
 10
3.7214455524
 20
9.4309356213
 30
0.0
 10
3.7217055532
 20
9.4327361818
 30
0.0
 10
3.72199427
 20
9.4352509366
 30
0.0
 10
3.7222726208
 20
9.4382223333
 30
0.0
 10
3.7225380791
 20
9.4416303439
 30
0.0
 10
3.7227883898
 20
9.4454516369
 30
0.0
 10
3.72302196
 20
9.4496593654
 30
0.0
 10
3.7233181116
 20
9.4559554812
 30
0.0
 10
3.7236267496
 20
9.4645577239
 30
0.0
 10
3.7238972267
 20
9.4755830993
 30
0.0
 10
3.7240104174
 20
9.4832424631
 30
0.0
 10
3.7240514194
 20
9.4871899537
 30
0.0
 11
3.7204173688
 21
9.4273845931
 31
0.0
 11
3.7205785404
 21
9.427593781
 31
0.0
 11
3.7207390768
 21
9.4279308997
 31
0.0
 11
3.7208987145
 21
9.4283949245
 31
0.0
 11
3.7210571901
 21
9.428984829
 31
0.0
 11
3.7212142405
 21
9.4296995868
 31
0.0
 11
3.7213696021
 21
9.4305381715
 31
0.0
 11
3.7216742107
 21
9.4325820882
 31
0.0
 11
3.7219689602
 21
9.4351016146
 31
0.0
 11
3.7222518208
 21
9.4380783283
 31
0.0
 11
3.7225207694
 21
9.4414935851
 31
0.0
 11
3.7227739479
 21
9.4453239798
 31
0.0
 11
3.7230096743
 21
9.4495410221
 31
0.0
 11
3.7232262761
 21
9.4541159642
 31
0.0
 11
3.72359626
 21
9.4642145468
 31
0.0
 11
3.7238739158
 21
9.4753481736
 31
0.0
 11
3.7240514194
 21
9.4871899537
 31
0.0
  0
SPLINE
  5
359
100
AcDbEntity
  8
0
100
AcDbSpline
 62
6
  6
CONTINUOUS
 70
0
 71
3
 72
19
 73
15
 74
13
 42
0.0000001
 43
0.0000001
 44
0.0000000001
 12
-0.0445386599
 22
0.0409832298
 32
0.0
 13
-0.0018782103
 23
0.0604961955
 33
0.0
 40
0.0
 40
0.0
 40
0.0
 40
0.0
 40
0.0224263981
 40
0.0505015186
 40
0.0846293165
 40
0.124899523
 40
0.1712378613
 40
0.2235062242
 40
0.2814942156
 40
0.3448879921
 40
0.4865143744
 40
0.6453674343
 40
0.8179623283
 40
1.0
 40
1.0
 40
1.0
 40
1.0
 10
3.4522454197
 20
9.428059842
 30
0.0
 10
3.4519124725
 20
9.4283662108
 30
0.0
 10
3.4512645024
 20
9.4291648255
 30
0.0
 10
3.4504136275
 20
9.4306487139
 30
0.0
 10
3.4495812734
 20
9.4325446354
 30
0.0
 10
3.4487721797
 20
9.4348437558
 30
0.0
 10
3.4479904406
 20
9.4375355568
 30
0.0
 10
3.4472420087
 20
9.4406057359
 30
0.0
 10
3.446531987
 20
9.4440370497
 30
0.0
 10
3.4456069867
 20
9.4492626129
 30
0.0
 10
3.4445996688
 20
9.4565369474
 30
0.0
 10
3.4436396354
 20
9.4660344711
 30
0.0
 10
3.4429149603
 20
9.4763701316
 30
0.0
 10
3.4426053962
 20
9.4835190915
 30
0.0
 10
3.4424914278
 20
9.4871899537
 30
0.0
 11
3.4522454197
 21
9.428059842
 31
0.0
 11
3.4513646313
 21
9.4290926308
 31
0.0
 11
3.450498957
 21
9.4305548484
 31
0.0
 11
3.4496534171
 21
9.4324394577
 31
0.0
 11
3.4488329228
 21
9.4347345726
 31
0.0
 11
3.4480423212
 21
9.4374254788
 31
0.0
 11
3.4472864575
 21
9.4404974141
 31
0.0
 11
3.4465699308
 21
9.4439332381
 31
0.0
 11
3.4458968065
 21
9.4477106627
 31
0.0
 11
3.4446966866
 21
9.4561982212
 31
0.0
 11
3.4437145777
 21
9.465762566
 31
0.0
 11
3.4429735097
 21
9.4761826125
 31
0.0
 11
3.4424914278
 21
9.4871899537
 31
0.0
  0
SPLINE
  5
35A
100
AcDbEntity
  8
0
100
AcDbSpline
 62
6
  6
CONTINUOUS
 70
0
 71
3
 72
18
 73
14
 74
12
 42
0.0000001
 43
0.0000001
 44
0.0000000001
 12
-0.0435295029
 22
0.0417252853
 32
0.0
 13
-0.0030932054
 23
0.0602183455
 33
0.0
 40
0.0
 40
0.0
 40
0.0
 40
0.0
 40
0.0323368642
 40
0.0689605501
 40
0.1100748009
 40
0.1557451332
 40
0.205960977
 40
0.2606418831
 40
0.3826376341
 40
0.5199990221
 40
0.6705104172
 40
0.8316038881
 40
1.0
 40
1.0
 40
1.0
 40
1.0
 10
3.318652721
 20
9.4294911163
 30
0.0
 10
3.3181835184
 20
9.4299408712
 30
0.0
 10
3.317258699
 20
9.4309799394
 30
0.0
 10
3.3159872394
 20
9.4327946063
 30
0.0
 10
3.3147520445
 20
9.434948833
 30
0.0
 10
3.3135587497
 20
9.4374325725
 30
0.0
 10
3.3124131557
 20
9.4402353095
 30
0.0
 10
3.3109027644
 20
9.4445399186
 30
0.0
 10
3.309204527
 20
9.4506260242
 30
0.0
 10
3.307503588
 20
9.4586907172
 30
0.0
 10
3.3061069313
 20
9.4676095979
 30
0.0
 10
3.3050464568
 20
9.4772015397
 30
0.0
 10
3.3045832273
 20
9.4838097753
 30
0.0
 10
3.3044095994
 20
9.4871899537
 30
0.0
 11
3.318652721
 21
9.4294911163
 31
0.0
 11
3.3173443924
 21
9.4309368518
 31
0.0
 11
3.3160657126
 21
9.4327373181
 31
0.0
 11
3.3148229454
 21
9.4348824167
 31
0.0
 11
3.3136223051
 21
9.4373607175
 31
0.0
 11
3.3124700056
 21
9.440160788
 31
0.0
 11
3.3113720093
 21
9.4432697271
 31
0.0
 11
3.309359797
 21
9.4503452294
 31
0.0
 11
3.3076262684
 21
9.4584443666
 31
0.0
 11
3.3062053902
 21
9.4674079452
 31
0.0
 11
3.305125869
 21
9.4770613441
 31
0.0
 11
3.3044095994
 21
9.4871899537
 31
0.0
  0
SPLINE
  5
35B
100
AcDbEntity
  8
0
100
AcDbSpline
 62
6
  6
CONTINUOUS
 70
0
 71
3
 72
15
 73
11
 74
9
 42
0.0000001
 43
0.0000001
 44
0.0000000001
 12
-0.0410120489
 22
0.0420939318
 32
0.0
 13
-0.004169378
 23
0.0586216986
 33
0.0
 40
0.0
 40
0.0
 40
0.0
 40
0.0
 40
0.084139477
 40
0.1813835105
 40
0.291770132
 40
0.4145115682
 40
0.5484195401
 40
0.6919434021
 40
0.8432689942
 40
1.0
 40
1.0
 40
1.0
 40
1.0
 10
3.1870969342
 20
9.4318690376
 30
0.0
 10
3.1859466901
 20
9.4330496248
 30
0.0
 10
3.1837315681
 20
9.4358540587
 30
0.0
 10
3.1808532345
 20
9.4408062844
 30
0.0
 10
3.1782247875
 20
9.4467320651
 30
0.0
 10
3.1758820731
 20
9.4535373385
 30
0.0
 10
3.1738670817
 20
9.4611192527
 30
0.0
 10
3.1722086046
 20
9.4693579488
 30
0.0
 10
3.1709392355
 20
9.4781166917
 30
0.0
 10
3.1703699524
 20
9.4841273411
 30
0.0
 10
3.1701521288
 20
9.4871899537
 30
0.0
 11
3.1870969342
 21
9.4318690376
 31
0.0
 11
3.1839832214
 21
9.4357104462
 31
0.0
 11
3.1810698336
 21
9.4406271034
 31
0.0
 11
3.1784053126
 21
9.4465420554
 31
0.0
 11
3.1760324454
 21
9.4533540963
 31
0.0
 11
3.1739909404
 21
9.4609544319
 31
0.0
 11
3.1723126385
 21
9.4692206444
 31
0.0
 11
3.171026012
 21
9.4780204545
 31
0.0
 11
3.1701521288
 21
9.4871899537
 31
0.0
  0
SPLINE
  5
35C
100
AcDbEntity
  8
0
100
AcDbSpline
 62
6
  6
CONTINUOUS
 70
0
 71
3
 72
15
 73
11
 74
9
 42
0.0000001
 43
0.0000001
 44
0.0000000001
 12
-0.0366002209
 22
0.041528444
 32
0.0
 13
-0.0049674377
 23
0.055131773
 33
0.0
 40
0.0
 40
0.0
 40
0.0
 40
0.0
 40
0.0966752056
 40
0.2026192305
 40
0.3175916913
 40
0.4410356654
 40
0.5721400317
 40
0.7098975074
 40
0.8530642477
 40
1.0
 40
1.0
 40
1.0
 40
1.0
 10
3.0588421251
 20
9.4355615351
 30
0.0
 10
3.0576626805
 20
9.436899792
 30
0.0
 10
3.0553885494
 20
9.4398819508
 30
0.0
 10
3.0523775559
 20
9.4449201528
 30
0.0
 10
3.0496391038
 20
9.4506628913
 30
0.0
 10
3.0472104485
 20
9.4570408715
 30
0.0
 10
3.0451196307
 20
9.4639767058
 30
0.0
 10
3.0433923149
 20
9.4713854053
 30
0.0
 10
3.0420531739
 20
9.4791698014
 30
0.0
 10
3.0414332671
 20
9.4844896775
 30
0.0
 10
3.0411899691
 20
9.4871899537
 30
0.0
 11
3.0588421251
 21
9.4355615351
 31
0.0
 11
3.0555729761
 21
9.4397983802
 31
0.0
 11
3.0525408066
 21
9.4448182218
 31
0.0
 11
3.0497829749
 21
9.4505539731
 31
0.0
 11
3.0473352007
 21
9.4569337667
 31
0.0
 11
3.045227799
 21
9.4638783477
 31
0.0
 11
3.0434867571
 21
9.4713025136
 31
0.0
 11
3.0421351294
 21
9.4791114117
 31
0.0
 11
3.0411899691
 21
9.4871899537
 31
0.0
  0
SPLINE
  5
35D
100
AcDbEntity
  8
0
100
AcDbSpline
 62
6
  6
CONTINUOUS
 70
0
 71
3
 72
12
 73
8
 74
6
 42
0.0000001
 43
0.0000001
 44
0.0000000001
 12
-0.0296841677
 22
0.0392004252
 32
0.0
 13
-0.0052842376
 23
0.0488866033
 33
0.0
 40
0.0
 40
0.0
 40
0.0
 40
0.0
 40
0.1070775891
 40
0.2201254394
 40
0.4628278726
 40
0.7247139872
 40
1.0
 40
1.0
 40
1.0
 40
1.0
 10
2.9350194027
 20
9.4412885459
 30
0.0
 10
2.9339598997
 20
9.4426877082
 30
0.0
 10
2.9319217772
 20
9.4456720249
 30
0.0
 10
2.9281844287
 20
9.4522814076
 30
0.0
 10
2.9242473253
 20
9.4616486968
 30
0.0
 10
2.9208185249
 20
9.4739904246
 30
0.0
 10
2.9194209488
 20
9.482704021
 30
0.0
 10
2.9189360565
 20
9.4871899537
 30
0.0
 11
2.9350194027
 21
9.4412885459
 31
0.0
 11
2.93203872
 21
9.4456287473
 31
0.0
 11
2.9292924834
 21
9.4504617092
 31
0.0
 11
2.9246005021
 21
9.4614346716
 31
0.0
 11
2.9211066028
 21
9.4738289229
 31
0.0
 11
2.9189360565
 21
9.4871899537
 31
0.0
  0
SPLINE
  5
35E
100
AcDbEntity
  8
0
100
AcDbSpline
 62
6
  6
CONTINUOUS
 70
0
 71
3
 72
11
 73
7
 74
5
 42
0.0000001
 43
0.0000001
 44
0.0000000001
 12
-0.0197024129
 22
0.0332266337
 32
0.0
 13
-0.0047874798
 23
0.038331114
 33
0.0
 40
0.0
 40
0.0
 40
0.0
 40
0.0
 40
0.2342718227
 40
0.480543158
 40
0.7368303366
 40
1.0
 40
1.0
 40
1.0
 40
1.0
 10
2.8165666792
 20
9.4506797443
 30
0.0
 10
2.8150281058
 20
9.4532744323
 30
0.0
 10
2.8122068877
 20
9.4588001229
 30
0.0
 10
2.8088347721
 20
9.4676856695
 30
0.0
 10
2.8062761801
 20
9.4772232485
 30
0.0
 10
2.8051498038
 20
9.4838274249
 30
0.0
 10
2.8047298307
 20
9.4871899537
 30
0.0
 11
2.8165666792
 21
9.4506797443
 31
0.0
 11
2.8124251678
 21
9.4587261353
 31
0.0
 11
2.8090296674
 21
9.4676127274
 31
0.0
 11
2.8064474994
 21
9.4771701528
 31
0.0
 11
2.8047298307
 21
9.4871899537
 31
0.0
  0
LINE
  5
35F
100
AcDbEntity
  8
0
100
AcDbLine
 62
6
  6
CONTINUOUS
 10
5.0301789795
 20
9.5139429714
 11
5.0244804969
 21
9.5085352249
  0
LINE
  5
360
100
AcDbEntity
  8
0
100
AcDbLine
 62
6
  6
CONTINUOUS
 10
5.0244804969
 20
9.5085352249
 11
5.0237378913
 21
9.5078416643
  0
ENDSEC
  0
SECTION
  2
OBJECTS
  0
DICTIONARY
  5
C
100
AcDbDictionary
280
0
281
1
  3
ACAD_GROUP
350
D
  3
ACAD_MLINESTYLE
350
17
  3
ACAD_LAYOUT
350
1A
  3
ACAD_PLOTSETTINGS
350
19
  3
ACAD_PLOTSTYLENAME
350
E
  0
DICTIONARY
  5
D
102
{ACAD_REACTORS
330
C
102
}
100
AcDbDictionary
280
0
281
1
  0
ACDBDICTIONARYWDFLT
  5
E
102
{ACAD_REACTORS
330
C
102
}
100
AcDbDictionary
281
1
  3
Normal
350
F
100
AcDbDictionaryWithDefault
340
F
  0
DICTIONARY
  5
17
102
{ACAD_REACTORS
330
C
102
}
100
AcDbDictionary
280
0
281
1
  3
Standard
350
18
  0
DICTIONARY
  5
19
102
{ACAD_REACTORS
330
C
102
}
100
AcDbDictionary
281
1
  0
DICTIONARY
  5
1A
102
{ACAD_REACTORS
330
C
102
}
100
AcDbDictionary
281
1
  3
Model
350
361
  3
Layout1
350
362
  0
ACDBPLACEHOLDER
  5
F
102
{ACAD_REACTORS
330
E
102
}
  0
MLINESTYLE
  5
18
102
{ACAD_REACTORS
330
17
102
}
100
AcDbMlineStyle
  2
STANDARD
 70
0
  3

 62
256
 51
90.0
 52
90.0
 71
2
 49
0.5
 62
256
  6
BYLAYER
 49
-0.5
 62
256
  6
BYLAYER
  0
LAYOUT
  5
361
102
{ACAD_REACTORS
330
1A
102
}
100
AcDbPlotSettings
  1

  2
none_device
  4
ISO_A2_(594.00_x_420.00_MM)
  6

 40
0.0
 41
0.0
 42
0.0
 43
0.0
 44
594.0
 45
420.0
 46
0.0
 47
0.0
 48
0.0
 49
0.0
140
0.0
141
0.0
142
1.0
143
1.0
 70
1024
 72
0
 73
0
 74
0
  7

 75
0
147
1.0
148
0.0
149
0.0
100
AcDbLayout
  1
Model
 70
0
 71
0
 10
0.0
 20
0.0
 11
23.3858267717
 21
16.5354330709
 12
0.0
 22
0.0
 32
0.0
 14
0.0
 24
0.0
 34
0.0
 15
0.0
 25
0.0
 35
0.0
146
0.0
 13
0.0
 23
0.0
 33
0.0
 16
1.0
 26
0.0
 36
0.0
 17
0.0
 27
1.0
 37
0.0
 76
0
330
204
345
0
346
0
  0
LAYOUT
  5
362
102
{ACAD_REACTORS
330
1A
102
}
100
AcDbPlotSettings
  1

  2
none_device
  4
ISO_A2_(594.00_x_420.00_MM)
  6

 40
0.0
 41
0.0
 42
0.0
 43
0.0
 44
594.0
 45
420.0
 46
0.0
 47
0.0
 48
0.0
 49
0.0
140
0.0
141
0.0
142
1.0
143
1.0
 70
0
 72
0
 73
0
 74
0
  7

 75
0
147
1.0
148
0.0
149
0.0
100
AcDbLayout
  1
Layout1
 70
0
 71
1
 10
0.0
 20
0.0
 11
23.3858267717
 21
16.5354330709
 12
0.0
 22
0.0
 32
0.0
 14
0.0
 24
0.0
 34
0.0
 15
0.0
 25
0.0
 35
0.0
146
0.0
 13
0.0
 23
0.0
 33
0.0
 16
1.0
 26
0.0
 36
0.0
 17
0.0
 27
1.0
 37
0.0
 76
0
330
205
345
0
346
0
  0
ENDSEC
  0
EOF
