  0
SECTION
  2
HEADER
  9
$ACADVER
  1
AC1015
  9
$DWGCODEPAGE
  3
ANSI_1252
  9
$EXTMAX
 10
46.811023622
 20
33.1102362205
 30
0.0
  9
$EXTMIN
 10
0.0
 20
0.0
 30
0.0
  9
$LIMMIN
 10
0.0
 20
0.0
  9
$LIMMAX
 10
46.811023622
 20
33.1102362205
  9
$VIEWCTR
 10
23.405511811
 20
16.5551181102
  9
$VIEWSIZE
 40
33.1102362205
  9
$CLAYER
  8
0
  9
$LTSCALE
 40
2.5746062992
  9
$CELTYPE
  6
BYLAYER
  9
$DIMSCALE
 40
1.0
  9
$DIMASZ
 40
0.1
  9
$DIMEXO
 40
0.2925688976
  9
$DIMDLI
 40
1.7788188976
  9
$DIMEXE
 40
0.8425984252
  9
$DIMCEN
 40
0.4212992126
  9
$DIMLFAC
 40
1.0
  9
$DIMBLK
  1
_FILLED
  9
$DIMTXT
 40
0.08
  9
$DIMTOL
 70
1
  9
$DIMLIM
 70
0
  9
$DIMTFAC
 40
1.0
  9
$DIMTP
 40
0.01
  9
$DIMTM
 40
0.01
  9
$PDMODE
 70
3
  9
$PDSIZE
 40
0.06
  9
$HANDSEED
  5
339
  9
$TILEMODE
 70
1
  9
$MEASUREMENT
 70
0
  9
$INSUNITS
 70
1
  0
ENDSEC
  0
SECTION
  2
CLASSES
  0
CLASS
  1
ACDBDICTIONARYWDFLT
  2
AcDbDictionaryWithDefault
  3
AutoCAD 2000
 90
0
280
0
281
0
  0
CLASS
  1
ACDBPLACEHOLDER
  2
AcDbPlaceHolder
  3
AutoCAD 2000
 90
0
280
0
281
0
  0
CLASS
  1
LAYOUT
  2
AcDbLayout
  3
AutoCAD 2000
 90
0
280
0
281
0
  0
ENDSEC
  0
SECTION
  2
TABLES
  0
TABLE
  2
VPORT
  5
8
100
AcDbSymbolTable
 70
2
  0
VPORT
  5
1F4
100
AcDbSymbolTableRecord
100
AcDbViewportTableRecord
  2
*ACTIVE
 70
0
 10
0.0
 20
0.0
 11
1.0
 21
1.0
 12
23.405511811
 22
16.5551181102
 13
0.0
 23
0.0
 14
1.0
 24
1.0
 15
0.0
 25
0.0
 16
0.0
 26
0.0
 36
1.0
 17
0.0
 27
0.0
 37
0.0
 40
33.1102362205
 41
1.4137931034
 42
50.0
 43
0.0
 44
0.0
 50
0.0
 51
0.0
 71
0
 72
100
 73
1
 74
1
 75
0
 76
0
 77
0
 78
0
  0
ENDTAB
  0
TABLE
  2
LTYPE
  5
5
100
AcDbSymbolTable
 70
6
  0
LTYPE
  5
14
100
AcDbSymbolTableRecord
100
AcDbLinetypeTableRecord
  2
BYBLOCK
 70
0
  3

 72
65
 73
0
 40
0.0
  0
LTYPE
  5
15
100
AcDbSymbolTableRecord
100
AcDbLinetypeTableRecord
  2
BYLAYER
 70
0
  3

 72
65
 73
0
 40
0.0
  0
LTYPE
  5
16
100
AcDbSymbolTableRecord
100
AcDbLinetypeTableRecord
  2
CONTINUOUS
 70
64
  3
Solid line
 72
65
 73
0
 40
0.0
  0
LTYPE
  5
1F5
100
AcDbSymbolTableRecord
100
AcDbLinetypeTableRecord
  2
CENTER
 70
64
  3
____ _ ____ _ ____ _ ____ _ ____ _ ____ _ ____
 72
65
 73
4
 40
0.6
 49
0.375
 74
0
 49
-0.075
 74
0
 49
0.075
 74
0
 49
-0.075
 74
0
  0
LTYPE
  5
1F6
100
AcDbSymbolTableRecord
100
AcDbLinetypeTableRecord
  2
HIDDEN
 70
64
  3
- - - - - - - - - - - - - - - - - - - -
 72
65
 73
2
 40
0.2
 49
0.1
 74
0
 49
-0.1
 74
0
  0
LTYPE
  5
1F7
100
AcDbSymbolTableRecord
100
AcDbLinetypeTableRecord
  2
PHANTOM
 70
64
  3
_____ _ _ _____ _ _ _____ _ _ _____
 72
65
 73
6
 40
0.8
 49
0.45
 74
0
 49
-0.05
 74
0
 49
0.1
 74
0
 49
-0.05
 74
0
 49
0.1
 74
0
 49
-0.05
 74
0
  0
LTYPE
  5
1F8
100
AcDbSymbolTableRecord
100
AcDbLinetypeTableRecord
  2
DOT
 70
64
  3
. . . . . . . . . . . . . . . . . . . .
 72
65
 73
2
 40
0.2
 49
0.1
 74
0
 49
-0.1
 74
0
  0
LTYPE
  5
1F9
100
AcDbSymbolTableRecord
100
AcDbLinetypeTableRecord
  2
DASHED
 70
64
  3
- - - - - - - - - - - - - - - - - - - -
 72
65
 73
2
 40
0.2
 49
0.1
 74
0
 49
-0.1
 74
0
  0
ENDTAB
  0
TABLE
  2
LAYER
  5
2
100
AcDbSymbolTable
 70
36
  0
LAYER
  5
10
100
AcDbSymbolTableRecord
100
AcDbLayerTableRecord
  2
0
 70
0
 62
7
  6
CONTINUOUS
370
-3
390
F
  0
LAYER
  5
1FA
100
AcDbSymbolTableRecord
100
AcDbLayerTableRecord
  2
DEFAULT_1
 70
0
 62
7
  6
CENTER
370
-3
390
F
  0
LAYER
  5
1FB
100
AcDbSymbolTableRecord
100
AcDbLayerTableRecord
  2
DEFAULT_2
 70
0
 62
8
  6
HIDDEN
370
-3
390
F
  0
LAYER
  5
1FC
100
AcDbSymbolTableRecord
100
AcDbLayerTableRecord
  2
DEFAULT_3
 70
0
 62
7
  6
PHANTOM
370
-3
390
F
  0
LAYER
  5
1FD
100
AcDbSymbolTableRecord
100
AcDbLayerTableRecord
  2
3_ALL_SYMBOLS
 70
0
 62
7
  6
CONTINUOUS
370
-3
390
F
  0
LAYER
  5
1FE
100
AcDbSymbolTableRecord
100
AcDbLayerTableRecord
  2
DEFAULT_COORDINATE_SYSTEM
 70
0
 62
7
  6
CONTINUOUS
370
-3
390
F
  0
LAYER
  5
1FF
100
AcDbSymbolTableRecord
100
AcDbLayerTableRecord
  2
DEFAULT_DATUM_AXES
 70
0
 62
7
  6
CONTINUOUS
370
-3
390
F
  0
LAYER
  5
200
100
AcDbSymbolTableRecord
100
AcDbLayerTableRecord
  2
DEFAULT_DATUM_CURVES
 70
0
 62
7
  6
CONTINUOUS
370
-3
390
F
  0
LAYER
  5
201
100
AcDbSymbolTableRecord
100
AcDbLayerTableRecord
  2
DEFAULT_DATUM_PLANES
 70
0
 62
7
  6
CONTINUOUS
370
-3
390
F
  0
ENDTAB
  0
TABLE
  2
STYLE
  5
3
100
AcDbSymbolTable
 70
1
  0
STYLE
  5
11
100
AcDbSymbolTableRecord
100
AcDbTextStyleTableRecord
  2
STANDARD
 70
0
 40
0.0
 41
0.8
 50
0.0
 71
0
 42
0.2
  3
txt
  4

  0
STYLE
  5
202
100
AcDbSymbolTableRecord
100
AcDbTextStyleTableRecord
  2
TEXTSTYLE_1
 70
0
 40
0.0
 41
0.8
 50
0.0
 71
0
 42
0.2
  3
gdt
  4

  0
ENDTAB
  0
TABLE
  2
VIEW
  5
6
100
AcDbSymbolTable
 70
0
  0
ENDTAB
  0
TABLE
  2
UCS
  5
7
100
AcDbSymbolTable
 70
0
  0
ENDTAB
  0
TABLE
  2
APPID
  5
9
100
AcDbSymbolTable
 70
1
  0
APPID
  5
203
100
AcDbSymbolTableRecord
100
AcDbRegAppTableRecord
  2
ACAD
 70
0
  0
ENDTAB
  0
TABLE
  2
BLOCK_RECORD
  5
1
100
AcDbSymbolTable
 70
0
  0
BLOCK_RECORD
  5
204
100
AcDbSymbolTableRecord
100
AcDbBlockTableRecord
  2
*Model_Space
  0
BLOCK_RECORD
  5
205
100
AcDbSymbolTableRecord
100
AcDbBlockTableRecord
  2
*Paper_Space
  0
ENDTAB
  0
TABLE
  2
DIMSTYLE
  5
A
100
AcDbSymbolTable
 70
1
100
AcDbDimStyleTable
 71
0
  0
DIMSTYLE
105
206
100
AcDbSymbolTableRecord
100
AcDbDimStyleTableRecord
  2
STANDARD
 70
0
  3

  4

 40
1.0
 41
0.1
 42
0.0625
 43
0.38
 44
0.18
 45
0.0
 46
0.0
 47
0.01
 48
0.01
140
0.08
141
0.09
142
0.0
143
25.4
144
1.0
145
0.0
146
1.0
147
0.09
 71
1.0
 72
0.0
 73
1
 74
1
 75
0
 76
0
 77
0
 78
4
170
0
171
2
172
0
173
0
174
0
175
0
176
0
177
0
178
0
270
2
271
2
272
2
273
2
274
2
275
0
280
0
281
0
282
0
283
1
284
4
285
0
286
0
287
3
288
0
340
11
  0
ENDTAB
  0
ENDSEC
  0
SECTION
  2
BLOCKS
  0
BLOCK
  5
20
100
AcDbEntity
  8
0
100
AcDbBlockBegin
  2
*Model_Space
 70
0
 10
0.0
 20
0.0
 30
0.0
  3
*Model_Space
  1

  0
ENDBLK
  5
21
100
AcDbEntity
  8
0
100
AcDbBlockEnd
  0
BLOCK
  5
1C
100
AcDbEntity
  8
0
100
AcDbBlockBegin
  2
*Paper_Space
 70
0
 10
0.0
 20
0.0
 30
0.0
  3
*Paper_Space
  1

  0
ENDBLK
  5
1D
100
AcDbEntity
  8
0
100
AcDbBlockEnd
  0
ENDSEC
  0
SECTION
  2
ENTITIES
  0
LINE
  5
207
100
AcDbEntity
  8
0
100
AcDbLine
 62
6
  6
CONTINUOUS
 10
5.3408871702
 20
17.5098249572
 11
5.3408871702
 21
17.3418249572
  0
LINE
  5
208
100
AcDbEntity
  8
0
100
AcDbLine
 62
6
  6
CONTINUOUS
 10
5.0165445859
 20
17.7728009619
 11
5.012241639
 21
17.7908864958
  0
LINE
  5
209
100
AcDbEntity
  8
0
100
AcDbLine
 62
6
  6
CONTINUOUS
 10
4.9171256433
 20
17.7946977703
 11
4.9177827071
 21
17.7908864958
  0
LINE
  5
20A
100
AcDbEntity
  8
0
100
AcDbLine
 62
6
  6
CONTINUOUS
 10
6.5908871702
 20
17.5098249572
 11
6.5908871702
 21
17.3418249572
  0
LINE
  5
20B
100
AcDbEntity
  8
0
100
AcDbLine
 62
6
  6
CONTINUOUS
 10
7.0139916334
 20
17.7908864958
 11
7.0146545753
 21
17.7947037421
  0
LINE
  5
20C
100
AcDbEntity
  8
0
100
AcDbLine
 62
6
  6
CONTINUOUS
 10
6.9152302049
 20
17.7727968531
 11
6.9195327015
 21
17.7908864958
  0
LINE
  5
20D
100
AcDbEntity
  8
0
100
AcDbLine
 62
9
  6
CONTINUOUS
 10
7.7158871702
 20
16.2168249572
 11
7.7158871702
 21
14.9668249572
  0
LINE
  5
20E
100
AcDbEntity
  8
0
100
AcDbLine
 62
6
  6
CONTINUOUS
 10
4.5967175316
 20
17.8176395135
 11
4.5961176267
 21
17.8171713157
  0
LINE
  5
20F
100
AcDbEntity
  8
0
100
AcDbLine
 62
6
  6
CONTINUOUS
 10
7.33565676
 20
17.8171712124
 11
7.3350568288
 21
17.8176395135
  0
LINE
  5
210
100
AcDbEntity
  8
0
100
AcDbLine
 62
6
  6
CONTINUOUS
 10
7.7158871702
 20
14.9668249572
 11
40.2158871702
 21
14.9668249572
  0
LINE
  5
211
100
AcDbEntity
  8
0
100
AcDbLine
 62
6
  6
CONTINUOUS
 10
41.8992755147
 20
17.7311073272
 11
41.8989355819
 21
17.7310831169
  0
LINE
  5
212
100
AcDbEntity
  8
0
100
AcDbLine
 62
6
  6
CONTINUOUS
 10
7.7158871702
 20
16.2168249572
 11
40.2158871702
 21
16.2168249572
  0
LINE
  5
213
100
AcDbEntity
  8
0
100
AcDbLine
 62
6
  6
CONTINUOUS
 10
6.0324404456
 20
17.7311073114
 11
6.0328339877
 21
17.7310831394
  0
LINE
  5
214
100
AcDbEntity
  8
0
100
AcDbLine
 62
9
  6
CONTINUOUS
 10
6.5908871702
 20
17.3418249572
 11
5.3408871702
 21
17.3418249572
  0
LINE
  5
215
100
AcDbEntity
  8
0
100
AcDbLine
 62
9
  6
CONTINUOUS
 10
41.3408871702
 20
17.3418249572
 11
42.5908871702
 21
17.3418249572
  0
LINE
  5
216
100
AcDbEntity
  8
0
100
AcDbLine
 62
9
  6
CONTINUOUS
 10
5.0098895315
 20
17.5098249572
 11
6.921884809
 21
17.5098249572
  0
LINE
  5
217
100
AcDbEntity
  8
0
100
AcDbLine
 62
9
  6
CONTINUOUS
 10
41.0098895315
 20
17.5098249572
 11
42.921884809
 21
17.5098249572
  0
LINE
  5
218
100
AcDbEntity
  8
0
100
AcDbLine
 62
7
  6
CONTINUOUS
 10
4.7497661848
 20
17.6988249572
 11
7.1820081557
 21
17.6988249572
  0
LINE
  5
219
100
AcDbEntity
  8
0
100
AcDbLine
 62
7
  6
CONTINUOUS
 10
40.7497661848
 20
17.6988249572
 11
43.1820081557
 21
17.6988249572
  0
LINE
  5
21A
100
AcDbEntity
  8
0
100
AcDbLine
 62
7
  6
CONTINUOUS
 10
4.7483871702
 20
17.7000380178
 11
7.1833871702
 21
17.7000380178
  0
LINE
  5
21B
100
AcDbEntity
  8
0
100
AcDbLine
 62
7
  6
CONTINUOUS
 10
40.7483871702
 20
17.7000380178
 11
43.1833871702
 21
17.7000380178
  0
LINE
  5
21C
100
AcDbEntity
  8
0
100
AcDbLine
 62
9
  6
CONTINUOUS
 10
5.1606999872
 20
17.7186134429
 11
5.16552484
 21
17.7186134429
  0
LINE
  5
21D
100
AcDbEntity
  8
0
100
AcDbLine
 62
9
  6
CONTINUOUS
 10
5.264579364
 20
17.7186134429
 11
5.2774244469
 21
17.7186134429
  0
LINE
  5
21E
100
AcDbEntity
  8
0
100
AcDbLine
 62
9
  6
CONTINUOUS
 10
5.3768774489
 20
17.7186134429
 11
5.3966153335
 21
17.7186134429
  0
LINE
  5
21F
100
AcDbEntity
  8
0
100
AcDbLine
 62
9
  6
CONTINUOUS
 10
5.4960018559
 20
17.7186134429
 11
5.5216397974
 21
17.7186134429
  0
LINE
  5
220
100
AcDbEntity
  8
0
100
AcDbLine
 62
9
  6
CONTINUOUS
 10
5.6206691277
 20
17.7186134429
 11
5.650575409
 21
17.7186134429
  0
LINE
  5
221
100
AcDbEntity
  8
0
100
AcDbLine
 62
9
  6
CONTINUOUS
 10
5.7498038643
 20
17.7186134429
 11
5.7828257305
 21
17.7186134429
  0
LINE
  5
222
100
AcDbEntity
  8
0
100
AcDbLine
 62
9
  6
CONTINUOUS
 10
5.8818853127
 20
17.7186134429
 11
5.9162037044
 21
17.7186134429
  0
LINE
  5
223
100
AcDbEntity
  8
0
100
AcDbLine
 62
9
  6
CONTINUOUS
 10
6.0154662927
 20
17.7186134429
 11
6.0498865478
 21
17.7186134429
  0
LINE
  5
224
100
AcDbEntity
  8
0
100
AcDbLine
 62
9
  6
CONTINUOUS
 10
6.1489605183
 20
17.7186134429
 11
6.1819908475
 21
17.7186134429
  0
LINE
  5
225
100
AcDbEntity
  8
0
100
AcDbLine
 62
9
  6
CONTINUOUS
 10
6.2811895826
 20
17.7186134429
 11
6.311097192
 21
17.7186134429
  0
LINE
  5
226
100
AcDbEntity
  8
0
100
AcDbLine
 62
9
  6
CONTINUOUS
 10
6.4102486979
 20
17.7186134429
 11
6.4357687082
 21
17.7186134429
  0
LINE
  5
227
100
AcDbEntity
  8
0
100
AcDbLine
 62
9
  6
CONTINUOUS
 10
6.5350486285
 20
17.7186134429
 11
6.5548770883
 21
17.7186134429
  0
LINE
  5
228
100
AcDbEntity
  8
0
100
AcDbLine
 62
9
  6
CONTINUOUS
 10
6.6543448764
 20
17.7186134429
 11
6.6670308216
 21
17.7186134429
  0
LINE
  5
229
100
AcDbEntity
  8
0
100
AcDbLine
 62
9
  6
CONTINUOUS
 10
6.7663294365
 20
17.7186134429
 11
6.7711146634
 21
17.7186134429
  0
LINE
  5
22A
100
AcDbEntity
  8
0
100
AcDbLine
 62
9
  6
CONTINUOUS
 10
41.1606999872
 20
17.7186134429
 11
41.16552484
 21
17.7186134429
  0
LINE
  5
22B
100
AcDbEntity
  8
0
100
AcDbLine
 62
9
  6
CONTINUOUS
 10
41.264579364
 20
17.7186134429
 11
41.2774244469
 21
17.7186134429
  0
LINE
  5
22C
100
AcDbEntity
  8
0
100
AcDbLine
 62
9
  6
CONTINUOUS
 10
41.3768774489
 20
17.7186134429
 11
41.3966153335
 21
17.7186134429
  0
LINE
  5
22D
100
AcDbEntity
  8
0
100
AcDbLine
 62
9
  6
CONTINUOUS
 10
41.4960018559
 20
17.7186134429
 11
41.5216397974
 21
17.7186134429
  0
LINE
  5
22E
100
AcDbEntity
  8
0
100
AcDbLine
 62
9
  6
CONTINUOUS
 10
41.6206691277
 20
17.7186134429
 11
41.650575409
 21
17.7186134429
  0
LINE
  5
22F
100
AcDbEntity
  8
0
100
AcDbLine
 62
9
  6
CONTINUOUS
 10
41.7498038643
 20
17.7186134429
 11
41.7828257305
 21
17.7186134429
  0
LINE
  5
230
100
AcDbEntity
  8
0
100
AcDbLine
 62
9
  6
CONTINUOUS
 10
41.8818853127
 20
17.7186134429
 11
41.9162037044
 21
17.7186134429
  0
LINE
  5
231
100
AcDbEntity
  8
0
100
AcDbLine
 62
9
  6
CONTINUOUS
 10
42.0154662927
 20
17.7186134429
 11
42.0498865478
 21
17.7186134429
  0
LINE
  5
232
100
AcDbEntity
  8
0
100
AcDbLine
 62
9
  6
CONTINUOUS
 10
42.1489605183
 20
17.7186134429
 11
42.1819908475
 21
17.7186134429
  0
LINE
  5
233
100
AcDbEntity
  8
0
100
AcDbLine
 62
9
  6
CONTINUOUS
 10
42.2811895826
 20
17.7186134429
 11
42.311097192
 21
17.7186134429
  0
LINE
  5
234
100
AcDbEntity
  8
0
100
AcDbLine
 62
9
  6
CONTINUOUS
 10
42.4102486979
 20
17.7186134429
 11
42.4357687082
 21
17.7186134429
  0
LINE
  5
235
100
AcDbEntity
  8
0
100
AcDbLine
 62
9
  6
CONTINUOUS
 10
42.5350486285
 20
17.7186134429
 11
42.5548770883
 21
17.7186134429
  0
LINE
  5
236
100
AcDbEntity
  8
0
100
AcDbLine
 62
9
  6
CONTINUOUS
 10
42.6543448764
 20
17.7186134429
 11
42.6670308216
 21
17.7186134429
  0
LINE
  5
237
100
AcDbEntity
  8
0
100
AcDbLine
 62
9
  6
CONTINUOUS
 10
42.7663294365
 20
17.7186134429
 11
42.7711146634
 21
17.7186134429
  0
LINE
  5
238
100
AcDbEntity
  8
0
100
AcDbLine
 62
9
  6
CONTINUOUS
 10
40.5891762808
 20
17.8176395136
 11
43.3425980597
 21
17.8176395136
  0
LINE
  5
239
100
AcDbEntity
  8
0
100
AcDbLine
 62
9
  6
CONTINUOUS
 10
4.5891762808
 20
17.8176395136
 11
7.3425980597
 21
17.8176395136
  0
LINE
  5
23A
100
AcDbEntity
  8
0
100
AcDbLine
 62
6
  6
CONTINUOUS
 10
4.568389295
 20
17.8238249572
 11
7.3633850455
 21
17.8238249572
  0
LINE
  5
23B
100
AcDbEntity
  8
0
100
AcDbLine
 62
6
  6
CONTINUOUS
 10
40.568389295
 20
17.8238249572
 11
43.3633850455
 21
17.8238249572
  0
LINE
  5
23C
100
AcDbEntity
  8
0
100
AcDbLine
 62
6
  6
CONTINUOUS
 10
5.8992755147
 20
17.7311073272
 11
5.8989355819
 21
17.7310831169
  0
LINE
  5
23D
100
AcDbEntity
  8
0
100
AcDbLine
 62
6
  6
CONTINUOUS
 10
4.543389333
 20
17.9888249572
 11
7.3883850075
 21
17.9888249572
  0
LINE
  5
23E
100
AcDbEntity
  8
0
100
AcDbLine
 62
6
  6
CONTINUOUS
 10
40.543389333
 20
17.9888249572
 11
43.3883850075
 21
17.9888249572
  0
LINE
  5
23F
100
AcDbEntity
  8
0
100
AcDbLine
 62
6
  6
CONTINUOUS
 10
42.0324404456
 20
17.7311073114
 11
42.0328339877
 21
17.7310831394
  0
LINE
  5
240
100
AcDbEntity
  8
0
100
AcDbLine
 62
6
  6
CONTINUOUS
 10
40.5967175316
 20
17.8176395135
 11
40.5961176267
 21
17.8171713157
  0
LINE
  5
241
100
AcDbEntity
  8
0
100
AcDbLine
 62
6
  6
CONTINUOUS
 10
43.33565676
 20
17.8171712124
 11
43.3350568288
 21
17.8176395135
  0
LINE
  5
242
100
AcDbEntity
  8
0
100
AcDbLine
 62
9
  6
CONTINUOUS
 10
40.2158871702
 20
16.2168249572
 11
40.2158871702
 21
14.9668249572
  0
LINE
  5
243
100
AcDbEntity
  8
0
100
AcDbLine
 62
6
  6
CONTINUOUS
 10
41.0165445859
 20
17.7728009619
 11
41.012241639
 21
17.7908864958
  0
LINE
  5
244
100
AcDbEntity
  8
0
100
AcDbLine
 62
6
  6
CONTINUOUS
 10
40.9171256433
 20
17.7946977703
 11
40.9177827071
 21
17.7908864958
  0
LINE
  5
245
100
AcDbEntity
  8
0
100
AcDbLine
 62
6
  6
CONTINUOUS
 10
41.3408871702
 20
17.3418249572
 11
41.3408871702
 21
17.5098249572
  0
LINE
  5
246
100
AcDbEntity
  8
0
100
AcDbLine
 62
6
  6
CONTINUOUS
 10
42.5908871702
 20
17.3418249572
 11
42.5908871702
 21
17.5098249572
  0
LINE
  5
247
100
AcDbEntity
  8
0
100
AcDbLine
 62
6
  6
CONTINUOUS
 10
43.0139916334
 20
17.7908864958
 11
43.0146545753
 21
17.7947037421
  0
LINE
  5
248
100
AcDbEntity
  8
0
100
AcDbLine
 62
6
  6
CONTINUOUS
 10
42.9152302049
 20
17.7727968531
 11
42.9195327015
 21
17.7908864958
  0
ARC
  5
249
100
AcDbEntity
  8
0
100
AcDbCircle
 62
6
  6
CONTINUOUS
 10
4.7365256339
 20
17.5100826539
 40
0.3342228661
100
AcDbArc
 50
57.1580175488
 51
57.602181308
  0
ARC
  5
24A
100
AcDbEntity
  8
0
100
AcDbCircle
 62
6
  6
CONTINUOUS
 10
5.0098871702
 20
17.7288249572
 40
0.219
100
AcDbArc
 50
187.5592365211
 51
270.0
  0
ARC
  5
24B
100
AcDbEntity
  8
0
100
AcDbCircle
 62
6
  6
CONTINUOUS
 10
4.7283871702
 20
17.7000380178
 40
0.02
100
AcDbArc
 50
0.0
 51
15.8626455001
  0
ARC
  5
24C
100
AcDbEntity
  8
0
100
AcDbCircle
 62
6
  6
CONTINUOUS
 10
7.19522301
 20
17.5101224062
 40
0.3341755316
100
AcDbArc
 50
122.3977358678
 51
122.8419771573
  0
ARC
  5
24D
100
AcDbEntity
  8
0
100
AcDbCircle
 62
6
  6
CONTINUOUS
 10
7.7158871702
 20
17.3418249572
 40
2.375
100
AcDbArc
 50
180.0
 51
270.0
  0
ARC
  5
24E
100
AcDbEntity
  8
0
100
AcDbCircle
 62
6
  6
CONTINUOUS
 10
7.7158871702
 20
17.3418249572
 40
1.125
100
AcDbArc
 50
180.0
 51
270.0
  0
ARC
  5
24F
100
AcDbEntity
  8
0
100
AcDbCircle
 62
6
  6
CONTINUOUS
 10
6.9218871702
 20
17.7288249572
 40
0.219
100
AcDbArc
 50
270.0
 51
352.4407634789
  0
ARC
  5
250
100
AcDbEntity
  8
0
100
AcDbCircle
 62
6
  6
CONTINUOUS
 10
7.2033871702
 20
17.7000380178
 40
0.02
100
AcDbArc
 50
164.0416349015
 51
180.0
  0
ARC
  5
251
100
AcDbEntity
  8
0
100
AcDbCircle
 62
6
  6
CONTINUOUS
 10
5.1003871702
 20
17.9888249572
 40
0.557
100
AcDbArc
 50
180.0
 51
197.2312963683
  0
ARC
  5
252
100
AcDbEntity
  8
0
100
AcDbCircle
 62
6
  6
CONTINUOUS
 10
5.3271535284
 20
17.8053630221
 40
0.1000000929
100
AcDbArc
 50
217.1384447786
 51
306.5886648958
  0
ARC
  5
253
100
AcDbEntity
  8
0
100
AcDbCircle
 62
6
  6
CONTINUOUS
 10
5.1110947135
 20
17.8053629684
 40
0.1000000568
100
AcDbArc
 50
199.0028243806
 51
301.3806687956
  0
ARC
  5
254
100
AcDbEntity
  8
0
100
AcDbCircle
 62
6
  6
CONTINUOUS
 10
5.8323554879
 20
17.8053629086
 40
0.1000000085
100
AcDbArc
 50
227.3973260544
 51
311.8686661529
  0
ARC
  5
255
100
AcDbEntity
  8
0
100
AcDbCircle
 62
6
  6
CONTINUOUS
 10
4.6884198424
 20
17.8053628909
 40
0.1
100
AcDbArc
 50
172.9482235284
 51
271.7815027977
  0
ARC
  5
256
100
AcDbEntity
  8
0
100
AcDbCircle
 62
6
  6
CONTINUOUS
 10
4.7163355697
 20
17.8053629146
 40
0.0999999973
100
AcDbArc
 50
174.0304362722
 51
279.8965051385
  0
ARC
  5
257
100
AcDbEntity
  8
0
100
AcDbCircle
 62
6
  6
CONTINUOUS
 10
4.7988627024
 20
17.8053629034
 40
0.099999997
100
AcDbArc
 50
177.2857791152
 51
287.6566755169
  0
ARC
  5
258
100
AcDbEntity
  8
0
100
AcDbCircle
 62
6
  6
CONTINUOUS
 10
5.5711280712
 20
17.8053628771
 40
0.0999999843
100
AcDbArc
 50
224.2637710401
 51
310.2563848398
  0
ARC
  5
259
100
AcDbEntity
  8
0
100
AcDbCircle
 62
6
  6
CONTINUOUS
 10
5.4462944036
 20
17.8053628697
 40
0.0999999799
100
AcDbArc
 50
221.3790188597
 51
308.6271814724
  0
ARC
  5
25A
100
AcDbEntity
  8
0
100
AcDbCircle
 62
6
  6
CONTINUOUS
 10
4.6954179114
 20
17.8053628981
 40
0.0999999658
100
AcDbArc
 50
173.2184274722
 51
275.6998790658
  0
ARC
  5
25B
100
AcDbEntity
  8
0
100
AcDbCircle
 62
6
  6
CONTINUOUS
 10
5.7002868015
 20
17.8053628458
 40
0.0999999547
100
AcDbArc
 50
226.1989511049
 51
311.364960218
  0
ARC
  5
25C
100
AcDbEntity
  8
0
100
AcDbCircle
 62
6
  6
CONTINUOUS
 10
4.9323943929
 20
17.8053628297
 40
0.0999999444
100
AcDbArc
 50
182.6851491735
 51
294.9618361609
  0
ARC
  5
25D
100
AcDbEntity
  8
0
100
AcDbCircle
 62
6
  6
CONTINUOUS
 10
4.8595680005
 20
17.8053627739
 40
0.0999998796
100
AcDbArc
 50
179.7228919208
 51
291.4044660238
  0
ARC
  5
25E
100
AcDbEntity
  8
0
100
AcDbCircle
 62
6
  6
CONTINUOUS
 10
5.215012138
 20
17.805360493
 40
0.0999972066
100
AcDbArc
 50
210.6512401456
 51
304.152780011
  0
ARC
  5
25F
100
AcDbEntity
  8
0
100
AcDbCircle
 62
6
  6
CONTINUOUS
 10
4.7509435618
 20
17.8053629248
 40
0.1000000153
100
AcDbArc
 50
175.3859860209
 51
283.8875677962
  0
ARC
  5
260
100
AcDbEntity
  8
0
100
AcDbCircle
 62
6
  6
CONTINUOUS
 10
5.0165465787
 20
17.8053563276
 40
0.0999929542
100
AcDbArc
 50
186.1189368147
 51
298.2473236909
  0
ARC
  5
261
100
AcDbEntity
  8
0
100
AcDbCircle
 62
6
  6
CONTINUOUS
 10
4.5747139838
 20
17.8038249572
 40
0.02
100
AcDbArc
 50
43.6877494647
 51
82.2816196875
  0
ARC
  5
262
100
AcDbEntity
  8
0
100
AcDbCircle
 62
6
  6
CONTINUOUS
 10
4.9732286303
 20
18.2166007395
 40
0.5537742571
100
AcDbArc
 50
226.7000765315
 51
227.0012908698
  0
ARC
  5
263
100
AcDbEntity
  8
0
100
AcDbCircle
 62
6
  6
CONTINUOUS
 10
6.8313871702
 20
17.9888249572
 40
0.557
100
AcDbArc
 50
342.7687036317
 51
360.0
  0
ARC
  5
264
100
AcDbEntity
  8
0
100
AcDbCircle
 62
6
  6
CONTINUOUS
 10
5.965887169
 20
17.8053629675
 40
0.1000000586
100
AcDbArc
 50
227.9721664417
 51
312.027855613
  0
ARC
  5
265
100
AcDbEntity
  8
0
100
AcDbCircle
 62
6
  6
CONTINUOUS
 10
7.0722063139
 20
17.8053629292
 40
0.1000000265
100
AcDbArc
 50
248.5725553754
 51
0.2752525858
  0
ARC
  5
266
100
AcDbEntity
  8
0
100
AcDbCircle
 62
6
  6
CONTINUOUS
 10
6.8206796421
 20
17.8053629199
 40
0.100000019
100
AcDbArc
 50
238.6240259613
 51
340.9947111954
  0
ARC
  5
267
100
AcDbEntity
  8
0
100
AcDbCircle
 62
6
  6
CONTINUOUS
 10
6.4854799342
 20
17.805362918
 40
0.1000000161
100
AcDbArc
 50
231.3576409224
 51
318.6210528187
  0
ARC
  5
268
100
AcDbEntity
  8
0
100
AcDbCircle
 62
6
  6
CONTINUOUS
 10
6.3606462749
 20
17.8053628962
 40
0.1000000018
100
AcDbArc
 50
229.7442934161
 51
315.7363863887
  0
ARC
  5
269
100
AcDbEntity
  8
0
100
AcDbCircle
 62
6
  6
CONTINUOUS
 10
7.2433544981
 20
17.8053628909
 40
0.1
100
AcDbArc
 50
268.3535211653
 51
7.0517764716
  0
ARC
  5
26A
100
AcDbEntity
  8
0
100
AcDbCircle
 62
6
  6
CONTINUOUS
 10
7.1329116377
 20
17.8053629102
 40
0.0999999998
100
AcDbArc
 50
252.303809749
 51
2.7139118144
  0
ARC
  5
26B
100
AcDbEntity
  8
0
100
AcDbCircle
 62
6
  6
CONTINUOUS
 10
7.236356405
 20
17.8053629138
 40
0.0999999901
100
AcDbArc
 50
263.9880814983
 51
6.7814843889
  0
ARC
  5
26C
100
AcDbEntity
  8
0
100
AcDbCircle
 62
6
  6
CONTINUOUS
 10
7.215438783
 20
17.8053628857
 40
0.0999999858
100
AcDbArc
 50
260.0867126653
 51
5.9696488549
  0
ARC
  5
26D
100
AcDbEntity
  8
0
100
AcDbCircle
 62
6
  6
CONTINUOUS
 10
6.2314875381
 20
17.8053628839
 40
0.0999999839
100
AcDbArc
 50
228.6505162308
 51
313.801058481
  0
ARC
  5
26E
100
AcDbEntity
  8
0
100
AcDbCircle
 62
6
  6
CONTINUOUS
 10
6.6046208279
 20
17.8053628742
 40
0.0999999837
100
AcDbArc
 50
233.4382154425
 51
322.8613657006
  0
ARC
  5
26F
100
AcDbEntity
  8
0
100
AcDbCircle
 62
6
  6
CONTINUOUS
 10
6.9152304051
 20
17.8053628883
 40
0.0999999822
100
AcDbArc
 50
241.7485740539
 51
353.8829463979
  0
ARC
  5
270
100
AcDbEntity
  8
0
100
AcDbCircle
 62
6
  6
CONTINUOUS
 10
6.0994188501
 20
17.8053628555
 40
0.0999999648
100
AcDbArc
 50
228.1311334317
 51
312.6025549543
  0
ARC
  5
271
100
AcDbEntity
  8
0
100
AcDbCircle
 62
6
  6
CONTINUOUS
 10
6.9993799451
 20
17.805362819
 40
0.0999999277
100
AcDbArc
 50
245.0852237023
 51
357.316913043
  0
ARC
  5
272
100
AcDbEntity
  8
0
100
AcDbCircle
 62
6
  6
CONTINUOUS
 10
6.7167636169
 20
17.8053627983
 40
0.099999909
100
AcDbArc
 50
235.8674611088
 51
329.3486848821
  0
ARC
  5
273
100
AcDbEntity
  8
0
100
AcDbCircle
 62
6
  6
CONTINUOUS
 10
7.180830809
 20
17.8053628873
 40
0.0999999813
100
AcDbArc
 50
256.1169983804
 51
4.6140684641
  0
ARC
  5
274
100
AcDbEntity
  8
0
100
AcDbCircle
 62
6
  6
CONTINUOUS
 10
7.3570603567
 20
17.8038249572
 40
0.02
100
AcDbArc
 50
97.7183803149
 51
136.3122505293
  0
ARC
  5
275
100
AcDbEntity
  8
0
100
AcDbCircle
 62
6
  6
CONTINUOUS
 10
6.9578291269
 20
18.2173694841
 40
0.5548251825
100
AcDbArc
 50
312.9991274558
 51
313.3615735189
  0
ARC
  5
276
100
AcDbEntity
  8
0
100
AcDbCircle
 62
6
  6
CONTINUOUS
 10
40.2158871702
 20
17.3418249572
 40
2.375
100
AcDbArc
 50
270.0
 51
360.0
  0
ARC
  5
277
100
AcDbEntity
  8
0
100
AcDbCircle
 62
6
  6
CONTINUOUS
 10
40.2158871702
 20
17.3418249572
 40
1.125
100
AcDbArc
 50
270.0
 51
360.0
  0
ARC
  5
278
100
AcDbEntity
  8
0
100
AcDbCircle
 62
6
  6
CONTINUOUS
 10
40.7365256338
 20
17.5100826538
 40
0.3342228662
100
AcDbArc
 50
57.1580175489
 51
57.6021813079
  0
ARC
  5
279
100
AcDbEntity
  8
0
100
AcDbCircle
 62
6
  6
CONTINUOUS
 10
41.0098871702
 20
17.7288249572
 40
0.219
100
AcDbArc
 50
187.5592365211
 51
270.0
  0
ARC
  5
27A
100
AcDbEntity
  8
0
100
AcDbCircle
 62
6
  6
CONTINUOUS
 10
40.7283871702
 20
17.7000380178
 40
0.02
100
AcDbArc
 50
0.0
 51
15.8626455001
  0
ARC
  5
27B
100
AcDbEntity
  8
0
100
AcDbCircle
 62
6
  6
CONTINUOUS
 10
43.1952230103
 20
17.5101224058
 40
0.334175532
100
AcDbArc
 50
122.3977358681
 51
122.841977157
  0
ARC
  5
27C
100
AcDbEntity
  8
0
100
AcDbCircle
 62
6
  6
CONTINUOUS
 10
42.9218871702
 20
17.7288249572
 40
0.219
100
AcDbArc
 50
270.0
 51
352.4407634789
  0
ARC
  5
27D
100
AcDbEntity
  8
0
100
AcDbCircle
 62
6
  6
CONTINUOUS
 10
43.2033871702
 20
17.7000380178
 40
0.02
100
AcDbArc
 50
164.0416349015
 51
180.0
  0
ARC
  5
27E
100
AcDbEntity
  8
0
100
AcDbCircle
 62
6
  6
CONTINUOUS
 10
41.1003871702
 20
17.9888249572
 40
0.557
100
AcDbArc
 50
180.0
 51
197.2312963683
  0
ARC
  5
27F
100
AcDbEntity
  8
0
100
AcDbCircle
 62
6
  6
CONTINUOUS
 10
41.3271535284
 20
17.8053630221
 40
0.1000000929
100
AcDbArc
 50
217.1384447786
 51
306.5886648958
  0
ARC
  5
280
100
AcDbEntity
  8
0
100
AcDbCircle
 62
6
  6
CONTINUOUS
 10
41.1110947135
 20
17.8053629684
 40
0.1000000568
100
AcDbArc
 50
199.0028243807
 51
301.3806687956
  0
ARC
  5
281
100
AcDbEntity
  8
0
100
AcDbCircle
 62
6
  6
CONTINUOUS
 10
41.8323554879
 20
17.8053629086
 40
0.1000000085
100
AcDbArc
 50
227.3973260544
 51
311.8686661529
  0
ARC
  5
282
100
AcDbEntity
  8
0
100
AcDbCircle
 62
6
  6
CONTINUOUS
 10
40.6884198424
 20
17.8053628909
 40
0.1
100
AcDbArc
 50
172.9482235284
 51
271.7815027977
  0
ARC
  5
283
100
AcDbEntity
  8
0
100
AcDbCircle
 62
6
  6
CONTINUOUS
 10
40.7163355697
 20
17.8053629146
 40
0.0999999973
100
AcDbArc
 50
174.0304362722
 51
279.8965051385
  0
ARC
  5
284
100
AcDbEntity
  8
0
100
AcDbCircle
 62
6
  6
CONTINUOUS
 10
40.7988627024
 20
17.8053629034
 40
0.099999997
100
AcDbArc
 50
177.2857791152
 51
287.6566755169
  0
ARC
  5
285
100
AcDbEntity
  8
0
100
AcDbCircle
 62
6
  6
CONTINUOUS
 10
41.5711280712
 20
17.8053628771
 40
0.0999999843
100
AcDbArc
 50
224.2637710401
 51
310.2563848398
  0
ARC
  5
286
100
AcDbEntity
  8
0
100
AcDbCircle
 62
6
  6
CONTINUOUS
 10
41.4462944036
 20
17.8053628697
 40
0.0999999799
100
AcDbArc
 50
221.3790188597
 51
308.6271814724
  0
ARC
  5
287
100
AcDbEntity
  8
0
100
AcDbCircle
 62
6
  6
CONTINUOUS
 10
40.6954179114
 20
17.8053628981
 40
0.0999999658
100
AcDbArc
 50
173.2184274722
 51
275.6998790658
  0
ARC
  5
288
100
AcDbEntity
  8
0
100
AcDbCircle
 62
6
  6
CONTINUOUS
 10
41.7002868015
 20
17.8053628458
 40
0.0999999547
100
AcDbArc
 50
226.1989511049
 51
311.3649602177
  0
ARC
  5
289
100
AcDbEntity
  8
0
100
AcDbCircle
 62
6
  6
CONTINUOUS
 10
40.9323943929
 20
17.8053628297
 40
0.0999999444
100
AcDbArc
 50
182.6851491735
 51
294.9618361609
  0
ARC
  5
28A
100
AcDbEntity
  8
0
100
AcDbCircle
 62
6
  6
CONTINUOUS
 10
40.8595680005
 20
17.8053627739
 40
0.0999998796
100
AcDbArc
 50
179.7228919208
 51
291.4044660238
  0
ARC
  5
28B
100
AcDbEntity
  8
0
100
AcDbCircle
 62
6
  6
CONTINUOUS
 10
41.215012138
 20
17.805360493
 40
0.0999972066
100
AcDbArc
 50
210.6512401456
 51
304.1527800109
  0
ARC
  5
28C
100
AcDbEntity
  8
0
100
AcDbCircle
 62
6
  6
CONTINUOUS
 10
40.7509435618
 20
17.8053629248
 40
0.1000000153
100
AcDbArc
 50
175.3859860209
 51
283.8875677962
  0
ARC
  5
28D
100
AcDbEntity
  8
0
100
AcDbCircle
 62
6
  6
CONTINUOUS
 10
41.0165465787
 20
17.8053563276
 40
0.0999929542
100
AcDbArc
 50
186.1189368147
 51
298.2473236907
  0
ARC
  5
28E
100
AcDbEntity
  8
0
100
AcDbCircle
 62
6
  6
CONTINUOUS
 10
40.5747139838
 20
17.8038249572
 40
0.02
100
AcDbArc
 50
43.6877494647
 51
82.2816196875
  0
ARC
  5
28F
100
AcDbEntity
  8
0
100
AcDbCircle
 62
6
  6
CONTINUOUS
 10
40.9732286311
 20
18.2166007404
 40
0.5537742583
100
AcDbArc
 50
226.700076532
 51
227.0012908696
  0
ARC
  5
290
100
AcDbEntity
  8
0
100
AcDbCircle
 62
6
  6
CONTINUOUS
 10
42.8313871702
 20
17.9888249572
 40
0.557
100
AcDbArc
 50
342.7687036317
 51
360.0
  0
ARC
  5
291
100
AcDbEntity
  8
0
100
AcDbCircle
 62
6
  6
CONTINUOUS
 10
41.965887169
 20
17.8053629675
 40
0.1000000586
100
AcDbArc
 50
227.9721664417
 51
312.027855613
  0
ARC
  5
292
100
AcDbEntity
  8
0
100
AcDbCircle
 62
6
  6
CONTINUOUS
 10
43.0722063139
 20
17.8053629292
 40
0.1000000265
100
AcDbArc
 50
248.5725553754
 51
0.2752525858
  0
ARC
  5
293
100
AcDbEntity
  8
0
100
AcDbCircle
 62
6
  6
CONTINUOUS
 10
42.8206796421
 20
17.8053629199
 40
0.100000019
100
AcDbArc
 50
238.6240259614
 51
340.9947111954
  0
ARC
  5
294
100
AcDbEntity
  8
0
100
AcDbCircle
 62
6
  6
CONTINUOUS
 10
42.4854799342
 20
17.805362918
 40
0.1000000161
100
AcDbArc
 50
231.3576409224
 51
318.6210528187
  0
ARC
  5
295
100
AcDbEntity
  8
0
100
AcDbCircle
 62
6
  6
CONTINUOUS
 10
42.3606462749
 20
17.8053628962
 40
0.1000000018
100
AcDbArc
 50
229.7442934161
 51
315.7363863887
  0
ARC
  5
296
100
AcDbEntity
  8
0
100
AcDbCircle
 62
6
  6
CONTINUOUS
 10
43.2433544981
 20
17.8053628909
 40
0.1
100
AcDbArc
 50
268.3535211653
 51
7.0517764716
  0
ARC
  5
297
100
AcDbEntity
  8
0
100
AcDbCircle
 62
6
  6
CONTINUOUS
 10
43.1329116377
 20
17.8053629102
 40
0.0999999998
100
AcDbArc
 50
252.303809749
 51
2.7139118144
  0
ARC
  5
298
100
AcDbEntity
  8
0
100
AcDbCircle
 62
6
  6
CONTINUOUS
 10
43.236356405
 20
17.8053629138
 40
0.0999999901
100
AcDbArc
 50
263.9880814983
 51
6.7814843889
  0
ARC
  5
299
100
AcDbEntity
  8
0
100
AcDbCircle
 62
6
  6
CONTINUOUS
 10
43.215438783
 20
17.8053628857
 40
0.0999999858
100
AcDbArc
 50
260.0867126653
 51
5.9696488549
  0
ARC
  5
29A
100
AcDbEntity
  8
0
100
AcDbCircle
 62
6
  6
CONTINUOUS
 10
42.2314875381
 20
17.8053628839
 40
0.0999999839
100
AcDbArc
 50
228.6505162317
 51
313.8010584809
  0
ARC
  5
29B
100
AcDbEntity
  8
0
100
AcDbCircle
 62
6
  6
CONTINUOUS
 10
42.6046208279
 20
17.8053628742
 40
0.0999999837
100
AcDbArc
 50
233.4382154425
 51
322.8613657006
  0
ARC
  5
29C
100
AcDbEntity
  8
0
100
AcDbCircle
 62
6
  6
CONTINUOUS
 10
42.9152304051
 20
17.8053628883
 40
0.0999999822
100
AcDbArc
 50
241.7485740546
 51
353.8829463979
  0
ARC
  5
29D
100
AcDbEntity
  8
0
100
AcDbCircle
 62
6
  6
CONTINUOUS
 10
42.0994188501
 20
17.8053628555
 40
0.0999999648
100
AcDbArc
 50
228.1311334317
 51
312.6025549543
  0
ARC
  5
29E
100
AcDbEntity
  8
0
100
AcDbCircle
 62
6
  6
CONTINUOUS
 10
42.9993799451
 20
17.805362819
 40
0.0999999277
100
AcDbArc
 50
245.0852237023
 51
357.316913043
  0
ARC
  5
29F
100
AcDbEntity
  8
0
100
AcDbCircle
 62
6
  6
CONTINUOUS
 10
42.7167636169
 20
17.8053627983
 40
0.099999909
100
AcDbArc
 50
235.8674611088
 51
329.3486848821
  0
ARC
  5
2A0
100
AcDbEntity
  8
0
100
AcDbCircle
 62
6
  6
CONTINUOUS
 10
43.180830809
 20
17.8053628873
 40
0.0999999813
100
AcDbArc
 50
256.1169983804
 51
4.6140684641
  0
ARC
  5
2A1
100
AcDbEntity
  8
0
100
AcDbCircle
 62
6
  6
CONTINUOUS
 10
43.3570603567
 20
17.8038249572
 40
0.02
100
AcDbArc
 50
97.7183803149
 51
136.3122505293
  0
ARC
  5
2A2
100
AcDbEntity
  8
0
100
AcDbCircle
 62
6
  6
CONTINUOUS
 10
42.9578291264
 20
18.2173694846
 40
0.5548251833
100
AcDbArc
 50
312.999127456
 51
313.3615735187
  0
SPLINE
  5
2A3
100
AcDbEntity
  8
0
100
AcDbSpline
 62
6
  6
CONTINUOUS
 70
0
 71
3
 72
9
 73
5
 74
3
 42
0.0000001
 43
0.0000001
 44
0.0000000001
 12
0.0040893294
 22
0.000865621
 32
0.0
 13
0.0030173254
 23
0.0028926912
 33
0.0
 40
0.0
 40
0.0
 40
0.0
 40
0.0
 40
0.4639146154
 40
1.0
 40
1.0
 40
1.0
 40
1.0
 10
42.297122692
 20
17.7311103592
 30
0.0
 10
42.2977550585
 20
17.7312442172
 30
0.0
 10
42.2990667259
 20
17.7317913967
 30
0.0
 10
42.3001640049
 20
17.7326713688
 30
0.0
 10
42.3007031863
 20
17.7331882786
 30
0.0
 11
42.297122692
 21
17.7311103592
 31
0.0
 11
42.2989259219
 21
17.7318235289
 31
0.0
 11
42.3007031863
 21
17.7331882786
 31
0.0
  0
SPLINE
  5
2A4
100
AcDbEntity
  8
0
100
AcDbSpline
 62
6
  6
CONTINUOUS
 70
0
 71
3
 72
9
 73
5
 74
3
 42
0.0000001
 43
0.0000001
 44
0.0000000001
 12
-0.0040892881
 22
0.0008656122
 32
0.0
 13
-0.0030173051
 23
0.0028926514
 33
0.0
 40
0.0
 40
0.0
 40
0.0
 40
0.0
 40
0.463915022
 40
1.0
 40
1.0
 40
1.0
 40
1.0
 10
41.6346516485
 20
17.7311103592
 30
0.0
 10
41.6340192878
 20
17.731244216
 30
0.0
 10
41.6327076332
 20
17.7317913875
 30
0.0
 10
41.6316103622
 20
17.7326713469
 30
0.0
 10
41.6310711849
 20
17.7331882492
 30
0.0
 11
41.6346516485
 21
17.7311103592
 31
0.0
 11
41.6328484343
 21
17.7318235198
 31
0.0
 11
41.6310711849
 21
17.7331882492
 31
0.0
  0
SPLINE
  5
2A5
100
AcDbEntity
  8
0
100
AcDbSpline
 62
6
  6
CONTINUOUS
 70
0
 71
3
 72
9
 73
5
 74
3
 42
0.0000001
 43
0.0000001
 44
0.0000000001
 12
0.0040893294
 22
0.000865621
 32
0.0
 13
0.0030173254
 23
0.0028926912
 33
0.0
 40
0.0
 40
0.0
 40
0.0
 40
0.0
 40
0.4639146154
 40
1.0
 40
1.0
 40
1.0
 40
1.0
 10
6.297122692
 20
17.7311103592
 30
0.0
 10
6.2977550585
 20
17.7312442172
 30
0.0
 10
6.2990667259
 20
17.7317913967
 30
0.0
 10
6.3001640049
 20
17.7326713688
 30
0.0
 10
6.3007031863
 20
17.7331882786
 30
0.0
 11
6.297122692
 21
17.7311103592
 31
0.0
 11
6.2989259219
 21
17.7318235289
 31
0.0
 11
6.3007031863
 21
17.7331882786
 31
0.0
  0
SPLINE
  5
2A6
100
AcDbEntity
  8
0
100
AcDbSpline
 62
6
  6
CONTINUOUS
 70
0
 71
3
 72
9
 73
5
 74
3
 42
0.0000001
 43
0.0000001
 44
0.0000000001
 12
-0.0040892881
 22
0.0008656122
 32
0.0
 13
-0.0030173051
 23
0.0028926514
 33
0.0
 40
0.0
 40
0.0
 40
0.0
 40
0.0
 40
0.463915022
 40
1.0
 40
1.0
 40
1.0
 40
1.0
 10
5.6346516485
 20
17.7311103592
 30
0.0
 10
5.6340192878
 20
17.731244216
 30
0.0
 10
5.6327076332
 20
17.7317913875
 30
0.0
 10
5.6316103622
 20
17.7326713469
 30
0.0
 10
5.6310711849
 20
17.7331882492
 30
0.0
 11
5.6346516485
 21
17.7311103592
 31
0.0
 11
5.6328484343
 21
17.7318235198
 31
0.0
 11
5.6310711849
 21
17.7331882492
 31
0.0
  0
SPLINE
  5
2A7
100
AcDbEntity
  8
0
100
AcDbSpline
 62
6
  6
CONTINUOUS
 70
0
 71
3
 72
17
 73
13
 74
11
 42
0.0000001
 43
0.0000001
 44
0.0000000001
 12
-0.036923165
 22
0.0000005146
 32
0.0
 13
-0.0301452253
 23
-0.0213210109
 33
0.0
 40
0.0
 40
0.0
 40
0.0
 40
0.0
 40
0.0261444181
 40
0.0571031503
 40
0.0931278594
 40
0.1343287957
 40
0.2322768921
 40
0.3505029804
 40
0.4879302133
 40
0.6431294923
 40
0.8144336946
 40
1.0
 40
1.0
 40
1.0
 40
1.0
 10
7.3125127287
 20
17.8176395135
 30
0.0
 10
7.3121909505
 20
17.817639518
 30
0.0
 10
7.311488133
 20
17.8175731187
 30
0.0
 10
7.3103667399
 20
17.817328539
 30
0.0
 10
7.3090943009
 20
17.8169317204
 30
0.0
 10
7.3070818264
 20
17.8161552021
 30
0.0
 10
7.3042206604
 20
17.8147863279
 30
0.0
 10
7.3004150586
 20
17.8126724541
 30
0.0
 10
7.2960997534
 20
17.810034352
 30
0.0
 10
7.2913151842
 20
17.8069172015
 30
0.0
 10
7.2861044647
 20
17.8033714216
 30
0.0
 10
7.2825074189
 20
17.8008506902
 30
0.0
 10
7.2806427729
 20
17.7995318697
 30
0.0
 11
7.3125127287
 21
17.8176395135
 31
0.0
 11
7.311550576
 21
17.8175611987
 31
0.0
 11
7.3104317432
 21
17.8173269382
 31
0.0
 11
7.3091597755
 21
17.8169378532
 31
0.0
 11
7.3077382981
 21
17.816395948
 31
0.0
 11
7.3044618094
 21
17.8148649083
 31
0.0
 11
7.3006358756
 21
17.8127630253
 31
0.0
 11
7.2962986928
 21
17.8101292368
 31
0.0
 11
7.2914914059
 21
17.8070102572
 31
0.0
 11
7.2862575187
 21
17.8034587462
 31
0.0
 11
7.2806427729
 21
17.7995318697
 31
0.0
  0
SPLINE
  5
2A8
100
AcDbEntity
  8
0
100
AcDbSpline
 62
6
  6
CONTINUOUS
 70
0
 71
3
 72
18
 73
14
 74
12
 42
0.0000001
 43
0.0000001
 44
0.0000000001
 12
-0.0484247053
 22
0.0000004097
 32
0.0
 13
-0.0401715477
 23
-0.0270406887
 33
0.0
 40
0.0
 40
0.0
 40
0.0
 40
0.0
 40
0.0319731474
 40
0.0681790829
 40
0.1087738001
 40
0.1538194463
 40
0.2571655539
 40
0.3775692551
 40
0.4437930202
 40
0.5137776081
 40
0.6641664224
 40
0.8268901177
 40
1.0
 40
1.0
 40
1.0
 40
1.0
 10
7.2752158325
 20
17.8176395136
 30
0.0
 10
7.2746997358
 20
17.8176395179
 30
0.0
 10
7.2735988924
 20
17.8175630386
 30
0.0
 10
7.271866317
 20
17.817266634
 30
0.0
 10
7.2699581329
 20
17.8167831255
 30
0.0
 10
7.2670525629
 20
17.8158488958
 30
0.0
 10
7.2630332138
 20
17.8141991248
 30
0.0
 10
7.2588304762
 20
17.8121339818
 30
0.0
 10
7.2551797512
 20
17.8101765311
 30
0.0
 10
7.2511495901
 20
17.8079046029
 30
0.0
 10
7.2458467626
 20
17.8047213572
 30
0.0
 10
7.2392243744
 20
17.8005082863
 30
0.0
 10
7.234706885
 20
17.7975113952
 30
0.0
 10
7.2323888544
 20
17.7959510584
 30
0.0
 11
7.2752158325
 21
17.8176395136
 31
0.0
 11
7.2736705068
 21
17.8175437479
 31
0.0
 11
7.2719407911
 21
17.8172573734
 31
0.0
 11
7.2700333422
 21
17.8167820227
 31
0.0
 11
7.2679546634
 21
17.8161207659
 31
0.0
 11
7.2633102209
 21
17.8142568393
 31
0.0
 11
7.2580659499
 21
17.8117087985
 31
0.0
 11
7.2552385522
 21
17.8101955854
 31
0.0
 11
7.2522851354
 21
17.8085334978
 31
0.0
 11
7.2460335312
 21
17.8047981602
 31
0.0
 11
7.2393791213
 21
17.8005778737
 31
0.0
 11
7.2323888544
 21
17.7959510584
 31
0.0
  0
SPLINE
  5
2A9
100
AcDbEntity
  8
0
100
AcDbSpline
 62
6
  6
CONTINUOUS
 70
0
 71
3
 72
17
 73
13
 74
11
 42
0.0000001
 43
0.0000001
 44
0.0000000001
 12
-0.0581136442
 22
0.0000003736
 32
0.0
 13
-0.0486083638
 23
-0.0318500018
 33
0.0
 40
0.0
 40
0.0
 40
0.0
 40
0.0
 40
0.0368117284
 40
0.0773784008
 40
0.121777803
 40
0.170026684
 40
0.2778495851
 40
0.400007556
 40
0.5351084121
 40
0.6814373796
 40
0.8370645058
 40
1.0
 40
1.0
 40
1.0
 40
1.0
 10
7.2235735701
 20
17.8176395136
 30
0.0
 10
7.2228604822
 20
17.8176395181
 30
0.0
 10
7.2213610919
 20
17.8175559639
 30
0.0
 10
7.2190236922
 20
17.8172220765
 30
0.0
 10
7.2164997519
 20
17.8166755614
 30
0.0
 10
7.2127581532
 20
17.8156291292
 30
0.0
 10
7.2076871897
 20
17.8137811231
 30
0.0
 10
7.2012275969
 20
17.8108929507
 30
0.0
 10
7.194268721
 20
17.8073234279
 30
0.0
 10
7.1868979461
 20
17.8031545354
 30
0.0
 10
7.179201908
 20
17.7984757914
 30
0.0
 10
7.1740084743
 20
17.795141799
 30
0.0
 10
7.171368465
 20
17.7934119671
 30
0.0
 11
7.2235735701
 21
17.8176395136
 31
0.0
 11
7.2214370647
 21
17.8175309131
 31
0.0
 11
7.2191020531
 21
17.8172062299
 31
0.0
 11
7.2165786932
 21
17.8166675795
 31
0.0
 11
7.2138765804
 21
17.8159188848
 31
0.0
 11
7.2079753643
 21
17.8138121868
 31
0.0
 11
7.2014827644
 21
17.8109411967
 31
0.0
 11
7.1944868354
 21
17.8073777199
 31
0.0
 11
7.187076744
 21
17.803205955
 31
0.0
 11
7.1793420359
 21
17.7985188129
 31
0.0
 11
7.171368465
 21
17.7934119671
 31
0.0
  0
SPLINE
  5
2AA
100
AcDbEntity
  8
0
100
AcDbSpline
 62
6
  6
CONTINUOUS
 70
0
 71
3
 72
15
 73
11
 74
9
 42
0.0000001
 43
0.0000001
 44
0.0000000001
 12
-0.0658898037
 22
0.0000003414
 32
0.0
 13
-0.0553131534
 23
-0.0358039284
 33
0.0
 40
0.0
 40
0.0
 40
0.0
 40
0.0
 40
0.0853549263
 40
0.18404662
 40
0.295705693
 40
0.4192967103
 40
0.5533503221
 40
0.6961153858
 40
0.8456649225
 40
1.0
 40
1.0
 40
1.0
 40
1.0
 10
7.1581518499
 20
17.8176395136
 30
0.0
 10
7.1562771768
 20
17.8176395233
 30
0.0
 10
7.1522339761
 20
17.8172537273
 30
0.0
 10
7.145889691
 20
17.8158146413
 30
0.0
 10
7.138915976
 20
17.8135135784
 30
0.0
 10
7.1314156748
 20
17.810411414
 30
0.0
 10
7.1234920988
 20
17.8065871973
 30
0.0
 10
7.1152511758
 20
17.8021342797
 30
0.0
 10
7.1067966996
 20
17.7971553373
 30
0.0
 10
7.1011489984
 20
17.7935969114
 30
0.0
 10
7.0983034118
 20
17.7917549773
 30
0.0
 11
7.1581518499
 21
17.8176395136
 31
0.0
 11
7.1525472946
 21
17.8171720165
 31
0.0
 11
7.1461943746
 21
17.8157840298
 31
0.0
 11
7.1391955571
 21
17.8135158005
 31
0.0
 11
7.1316590291
 21
17.8104310783
 31
0.0
 11
7.1236943806
 21
17.8066124224
 31
0.0
 11
7.115410165
 21
17.802156085
 31
0.0
 11
7.1069125739
 21
17.797167286
 31
0.0
 11
7.0983034118
 21
17.7917549773
 31
0.0
  0
SPLINE
  5
2AB
100
AcDbEntity
  8
0
100
AcDbSpline
 62
6
  6
CONTINUOUS
 70
0
 71
3
 72
15
 73
11
 74
9
 42
0.0000001
 43
0.0000001
 44
0.0000000001
 12
-0.0691224515
 22
0.0000003075
 32
0.0
 13
-0.0583642917
 23
-0.0370340756
 33
0.0
 40
0.0
 40
0.0
 40
0.0
 40
0.0
 40
0.092911724
 40
0.1970508442
 40
0.3118742594
 40
0.4363399186
 40
0.5690599692
 40
0.7084199596
 40
0.8526653909
 40
1.0
 40
1.0
 40
1.0
 40
1.0
 10
7.0796673933
 20
17.8176395136
 30
0.0
 10
7.0775266313
 20
17.8176395231
 30
0.0
 10
7.0729844209
 20
17.8172783823
 30
0.0
 10
7.0659244947
 20
17.8158811697
 30
0.0
 10
7.0583269039
 20
17.8136366642
 30
0.0
 10
7.0503031014
 20
17.8106045744
 30
0.0
 10
7.0419630751
 20
17.8068618025
 30
0.0
 10
7.0334165251
 20
17.8024987056
 30
0.0
 10
7.0247689521
 20
17.797614401
 30
0.0
 10
7.0190403159
 20
17.7941020155
 30
0.0
 10
7.0161739559
 20
17.7922832151
 30
0.0
 11
7.0796673933
 21
17.8176395136
 31
0.0
 11
7.0732613541
 21
17.8171829827
 31
0.0
 11
7.0661918287
 21
17.8158272276
 31
0.0
 11
7.0585707395
 21
17.8136106987
 31
0.0
 11
7.050513494
 21
17.8105942777
 31
0.0
 11
7.0421352991
 21
17.8068570409
 31
0.0
 11
7.0335484374
 21
17.8024914196
 31
0.0
 11
7.0248609049
 21
17.7975986087
 31
0.0
 11
7.0161739559
 21
17.7922832151
 31
0.0
  0
SPLINE
  5
2AC
100
AcDbEntity
  8
0
100
AcDbSpline
 62
6
  6
CONTINUOUS
 70
0
 71
3
 72
15
 73
11
 74
9
 42
0.0000001
 43
0.0000001
 44
0.0000000001
 12
0.0037730369
 22
0.0477565004
 32
0.0
 13
-0.0479053143
 23
-0.0000001702
 33
0.0
 40
0.0
 40
0.0
 40
0.0
 40
0.0
 40
0.1162831617
 40
0.2272699333
 40
0.3368631225
 40
0.4494562746
 40
0.5692385687
 40
0.6995976637
 40
0.8428072534
 40
1.0
 40
1.0
 40
1.0
 40
1.0
 10
6.9195327015
 20
17.7908864958
 30
0.0
 10
6.9196789484
 20
17.7927375881
 30
0.0
 10
6.9196096892
 20
17.796399235
 30
0.0
 10
6.9182651873
 20
17.8016604057
 30
0.0
 10
6.9156831499
 20
17.8063778849
 30
0.0
 10
6.9119118218
 20
17.8104023145
 30
0.0
 10
6.9070392352
 20
17.8136199593
 30
0.0
 10
6.9011676142
 20
17.815954706
 30
0.0
 10
6.8944048884
 20
17.8173575188
 30
0.0
 10
6.8895995991
 20
17.8176395225
 30
0.0
 10
6.8870894765
 20
17.8176395136
 30
0.0
 11
6.9195327015
 21
17.7908864958
 31
0.0
 11
6.9193887414
 21
17.7964552167
 31
0.0
 11
6.9180497302
 21
17.801600701
 31
0.0
 11
6.9155291769
 21
17.8062061674
 31
0.0
 11
6.9118599208
 21
17.8101596153
 31
0.0
 11
6.9070956041
 21
17.8133577901
 31
0.0
 11
6.901311463
 21
17.8157120215
 31
0.0
 11
6.8946041597
 21
17.8171537388
 31
0.0
 11
6.8870894765
 21
17.8176395136
 31
0.0
  0
SPLINE
  5
2AD
100
AcDbEntity
  8
0
100
AcDbSpline
 62
6
  6
CONTINUOUS
 70
0
 71
3
 72
15
 73
11
 74
9
 42
0.0000001
 43
0.0000001
 44
0.0000000001
 12
-0.0753040158
 22
0.0000002943
 32
0.0
 13
-0.0632717937
 23
-0.0408335024
 33
0.0
 40
0.0
 40
0.0
 40
0.0
 40
0.0
 40
0.0990912333
 40
0.2079198791
 40
0.3257223498
 40
0.4513168687
 40
0.5832378154
 40
0.7198323491
 40
0.8593575258
 40
1.0
 40
1.0
 40
1.0
 40
1.0
 10
6.9889801452
 20
17.8176395136
 30
0.0
 10
6.9864928226
 20
17.8176395233
 30
0.0
 10
6.981271079
 20
17.8172657382
 30
0.0
 10
6.9732175784
 20
17.8157871041
 30
0.0
 10
6.964691529
 20
17.8134081084
 30
0.0
 10
6.955826968
 20
17.8101966703
 30
0.0
 10
6.9467538611
 20
17.8062397976
 30
0.0
 10
6.9375981942
 20
17.8016387613
 30
0.0
 10
6.92847994
 20
17.7965041202
 30
0.0
 10
6.9224989354
 20
17.7928008041
 30
0.0
 10
6.9195327015
 20
17.7908864958
 30
0.0
 11
6.9889801452
 21
17.8176395136
 31
0.0
 11
6.9815340047
 21
17.8171537604
 31
0.0
 11
6.9734665707
 21
17.8157121055
 31
0.0
 11
6.9649136365
 21
17.8133579724
 31
0.0
 11
6.9560129622
 21
17.8101599355
 31
0.0
 11
6.9468992824
 21
17.8062066186
 31
0.0
 11
6.9377017476
 21
17.8016012353
 31
0.0
 11
6.9285412706
 21
17.7964554956
 31
0.0
 11
6.9195327015
 21
17.7908864958
 31
0.0
  0
SPLINE
  5
2AE
100
AcDbEntity
  8
0
100
AcDbSpline
 62
6
  6
CONTINUOUS
 70
0
 71
3
 72
15
 73
11
 74
9
 42
0.0000001
 43
0.0000001
 44
0.0000000001
 12
-0.0043725938
 22
0.0524325443
 32
0.0
 13
-0.0526145539
 23
-0.000000141
 33
0.0
 40
0.0
 40
0.0
 40
0.0
 40
0.0
 40
0.1078302224
 40
0.2148683483
 40
0.3244450149
 40
0.4397532348
 40
0.5634575158
 40
0.6974738731
 40
0.8428902586
 40
1.0
 40
1.0
 40
1.0
 40
1.0
 10
6.8146254296
 20
17.7908864958
 30
0.0
 10
6.8144682637
 20
17.7927711001
 30
0.0
 10
6.8137523072
 20
17.7965082058
 30
0.0
 10
6.8114180029
 20
17.8017510945
 30
0.0
 10
6.8078701183
 20
17.8064289697
 30
0.0
 10
6.8031769695
 20
17.8104151522
 30
0.0
 10
6.7974262956
 20
17.8136118721
 30
0.0
 10
6.7907185689
 20
17.8159423087
 30
0.0
 10
6.783168532
 20
17.8173500074
 30
0.0
 10
6.7778555518
 20
17.817639521
 30
0.0
 10
6.7751001322
 20
17.8176395136
 30
0.0
 11
6.8146254296
 21
17.7908864958
 31
0.0
 11
6.8135406428
 21
17.7964552612
 31
0.0
 11
6.8112514567
 21
17.801600782
 31
0.0
 11
6.8077832521
 21
17.8062062741
 31
0.0
 11
6.8031813705
 21
17.8101597341
 31
0.0
 11
6.7975126699
 21
17.8133579055
 31
0.0
 11
6.7908660717
 21
17.815712116
 31
0.0
 11
6.7833521086
 21
17.8171537953
 31
0.0
 11
6.7751001322
 21
17.8176395136
 31
0.0
  0
SPLINE
  5
2AF
100
AcDbEntity
  8
0
100
AcDbSpline
 62
6
  6
CONTINUOUS
 70
0
 71
3
 72
15
 73
11
 74
9
 42
0.0000001
 43
0.0000001
 44
0.0000000001
 12
-0.0782046777
 22
0.0000002752
 32
0.0
 13
-0.0654977574
 23
-0.0427319014
 33
0.0
 40
0.0
 40
0.0
 40
0.0
 40
0.0
 40
0.1049198785
 40
0.2179903717
 40
0.3383145335
 40
0.4646717023
 40
0.5956242672
 40
0.7295944873
 40
0.8649468615
 40
1.0
 40
1.0
 40
1.0
 40
1.0
 10
6.8870836763
 20
17.8176395136
 30
0.0
 10
6.8843486013
 20
17.8176395232
 30
0.0
 10
6.8786629314
 20
17.817275494
 30
0.0
 10
6.8699550084
 20
17.8158037908
 30
0.0
 10
6.8608713165
 20
17.8134294669
 30
0.0
 10
6.8515560392
 20
17.8102209102
 30
0.0
 10
6.8421470241
 20
17.8062657022
 30
0.0
 10
6.8327753782
 20
17.8016655847
 30
0.0
 10
6.8235640336
 20
17.7965314887
 30
0.0
 10
6.8175739889
 20
17.7928101883
 30
0.0
 10
6.8146254296
 20
17.7908864958
 30
0.0
 11
6.8870836763
 21
17.8176395136
 31
0.0
 11
6.8788928421
 21
17.8171537604
 31
0.0
 11
6.8701685118
 21
17.8157121055
 31
0.0
 11
6.8610578308
 21
17.8133579724
 31
0.0
 11
6.851707912
 21
17.8101599355
 31
0.0
 11
6.8422606119
 21
17.8062066186
 31
0.0
 11
6.8328499783
 21
17.8016012353
 31
0.0
 11
6.8235997034
 21
17.7964554956
 31
0.0
 11
6.8146254296
 21
17.7908864958
 31
0.0
  0
SPLINE
  5
2B0
100
AcDbEntity
  8
0
100
AcDbSpline
 62
6
  6
CONTINUOUS
 70
0
 71
3
 72
15
 73
11
 74
9
 42
0.0000001
 43
0.0000001
 44
0.0000000001
 12
-0.0136605399
 22
0.0557843237
 32
0.0
 13
-0.0574325789
 23
-0.0000001437
 33
0.0
 40
0.0
 40
0.0
 40
0.0
 40
0.0
 40
0.1031065348
 40
0.2087424751
 40
0.3193799481
 40
0.4370919061
 40
0.5633960205
 40
0.6992057722
 40
0.8448268104
 40
1.0
 40
1.0
 40
1.0
 40
1.0
 10
6.7004192038
 20
17.7908864958
 30
0.0
 10
6.6999497068
 20
17.7928037386
 30
0.0
 10
6.6985765455
 20
17.7965951583
 30
0.0
 10
6.695298472
 20
17.8018068973
 30
0.0
 10
6.6908439994
 20
17.8064510888
 30
0.0
 10
6.6852872617
 20
17.8104138137
 30
0.0
 10
6.6787174253
 20
17.8136004362
 30
0.0
 10
6.6712404245
 20
17.8159306781
 30
0.0
 10
6.6629809208
 20
17.8173434206
 30
0.0
 10
6.6572160685
 20
17.817639521
 30
0.0
 10
6.654245403
 20
17.8176395136
 30
0.0
 11
6.7004192038
 21
17.7908864958
 31
0.0
 11
6.6984054816
 21
17.7964552612
 31
0.0
 11
6.6951912272
 21
17.801600782
 31
0.0
 11
6.6908134148
 21
17.8062062741
 31
0.0
 11
6.6853293896
 21
17.8101597341
 31
0.0
 11
6.6788184914
 21
17.8133579055
 31
0.0
 11
6.6713823499
 21
17.8157121159
 31
0.0
 11
6.6631441534
 21
17.8171537953
 31
0.0
 11
6.654245403
 21
17.8176395136
 31
0.0
  0
SPLINE
  5
2B1
100
AcDbEntity
  8
0
100
AcDbSpline
 62
6
  6
CONTINUOUS
 70
0
 71
3
 72
15
 73
11
 74
9
 42
0.0000001
 43
0.0000001
 44
0.0000000001
 12
-0.0803746227
 22
0.0000002598
 32
0.0
 13
-0.0668650259
 23
-0.0445998686
 33
0.0
 40
0.0
 40
0.0
 40
0.0
 40
0.0
 40
0.110222785
 40
0.2271363995
 40
0.3497365966
 40
0.4767727074
 40
0.6068356234
 40
0.7384195205
 40
0.8699921055
 40
1.0
 40
1.0
 40
1.0
 40
1.0
 10
6.7750943859
 20
17.8176395136
 30
0.0
 10
6.7721413476
 20
17.8176395231
 30
0.0
 10
6.7660527271
 20
17.8172835844
 30
0.0
 10
6.7567856812
 20
17.8158180978
 30
0.0
 10
6.7472439631
 20
17.8134483304
 30
0.0
 10
6.7375801211
 20
17.8102428892
 30
0.0
 10
6.7279382112
 20
17.8062897206
 30
0.0
 10
6.7184530092
 20
17.8016909058
 30
0.0
 10
6.7092490726
 20
17.7965576882
 30
0.0
 10
6.7033168642
 20
17.7928192742
 30
0.0
 10
6.7004192038
 20
17.7908864958
 30
0.0
 11
6.7750943859
 21
17.8176395136
 31
0.0
 11
6.7662485983
 21
17.8171537604
 31
0.0
 11
6.7569629573
 21
17.8157121056
 31
0.0
 11
6.7473943481
 21
17.8133579725
 31
0.0
 11
6.7376976244
 21
17.8101599355
 31
0.0
 11
6.7280202106
 21
17.8062066186
 31
0.0
 11
6.7184995831
 21
17.8016012353
 31
0.0
 11
6.7092608582
 21
17.7964554956
 31
0.0
 11
6.7004192038
 21
17.7908864958
 31
0.0
  0
SPLINE
  5
2B2
100
AcDbEntity
  8
0
100
AcDbSpline
 62
6
  6
CONTINUOUS
 70
0
 71
3
 72
15
 73
11
 74
9
 42
0.0000001
 43
0.0000001
 44
0.0000000001
 12
-0.0232717546
 22
0.0576482936
 32
0.0
 13
-0.0621683224
 23
-0.0000001577
 33
0.0
 40
0.0
 40
0.0
 40
0.0
 40
0.0
 40
0.1011471484
 40
0.2070174692
 40
0.3192261769
 40
0.4389473068
 40
0.5668759206
 40
0.7032414789
 40
0.8478248907
 40
1.0
 40
1.0
 40
1.0
 40
1.0
 10
6.5781652912
 20
17.7908864958
 30
0.0
 10
6.5773806674
 20
17.7928301493
 30
0.0
 10
6.5753621091
 20
17.7966527365
 30
0.0
 10
6.5711935888
 20
17.8018349377
 30
0.0
 10
6.5658903692
 20
17.8064557942
 30
0.0
 10
6.5595307078
 20
17.8104053534
 30
0.0
 10
6.5522091081
 20
17.8135877781
 30
0.0
 10
6.5440399057
 20
17.8159198175
 30
0.0
 10
6.5351579823
 20
17.8173375057
 30
0.0
 10
6.5290025698
 20
17.8176395216
 30
0.0
 10
6.5258490794
 20
17.8176395136
 30
0.0
 11
6.5781652912
 21
17.7908864958
 31
0.0
 11
6.5752447056
 21
17.7964552472
 31
0.0
 11
6.5711406143
 21
17.8016007564
 31
0.0
 11
6.5659011791
 21
17.8062062404
 31
0.0
 11
6.5595951204
 21
17.8101596966
 31
0.0
 11
6.5523133892
 21
17.8133578691
 31
0.0
 11
6.5441692091
 21
17.8157120861
 31
0.0
 11
6.5352970727
 21
17.8171537774
 31
0.0
 11
6.5258490794
 21
17.8176395136
 31
0.0
  0
SPLINE
  5
2B3
100
AcDbEntity
  8
0
100
AcDbSpline
 62
6
  6
CONTINUOUS
 70
0
 71
3
 72
14
 73
10
 74
8
 42
0.0000001
 43
0.0000001
 44
0.0000000001
 12
-0.081775932
 22
0.0000003218
 32
0.0
 13
-0.0673078314
 23
-0.0464430714
 33
0.0
 40
0.0
 40
0.0
 40
0.0
 40
0.0
 40
0.1151415589
 40
0.235601694
 40
0.3602926073
 40
0.4879441453
 40
0.6171805399
 40
0.7465750346
 40
1.0
 40
1.0
 40
1.0
 40
1.0
 10
6.6542382316
 20
17.8176395135
 30
0.0
 10
6.6510996288
 20
17.8176395259
 30
0.0
 10
6.6446739903
 20
17.8172903999
 30
0.0
 10
6.6349495484
 20
17.8158306908
 30
0.0
 10
6.6250546121
 20
17.8134654568
 30
0.0
 10
6.6151485018
 20
17.8102634324
 30
0.0
 10
6.605378629
 20
17.8063125231
 30
0.0
 10
6.5928098289
 20
17.8002265711
 30
0.0
 10
6.5838511195
 20
17.7948097737
 30
0.0
 10
6.5781652912
 20
17.7908864958
 30
0.0
 11
6.6542382316
 21
17.8176395135
 31
0.0
 11
6.6448349652
 21
17.8171536865
 31
0.0
 11
6.6350902783
 21
17.8157121067
 31
0.0
 11
6.6251690019
 21
17.8133581137
 31
0.0
 11
6.6152320695
 21
17.8101602377
 31
0.0
 11
6.6054308219
 21
17.8062071141
 31
0.0
 11
6.595904278
 21
17.8016016778
 31
0.0
 11
6.5781652912
 21
17.7908864958
 31
0.0
  0
SPLINE
  5
2B4
100
AcDbEntity
  8
0
100
AcDbSpline
 62
6
  6
CONTINUOUS
 70
0
 71
3
 72
14
 73
10
 74
8
 42
0.0000001
 43
0.0000001
 44
0.0000000001
 12
-0.0324701633
 22
0.0581833837
 32
0.0
 13
-0.0666304558
 23
-0.0000001555
 33
0.0
 40
0.0
 40
0.0
 40
0.0
 40
0.0
 40
0.1011427478
 40
0.2082896201
 40
0.3223285534
 40
0.4437554767
 40
0.5726809714
 40
0.7088614368
 40
1.0
 40
1.0
 40
1.0
 40
1.0
 10
6.4492031315
 20
17.7908864958
 30
0.0
 10
6.4481084243
 20
17.7928481049
 30
0.0
 10
6.4454726129
 20
17.7966840831
 30
0.0
 10
6.4404688063
 20
17.8018441915
 30
0.0
 10
6.4343770225
 20
17.806450552
 30
0.0
 10
6.4272818405
 20
17.8103933282
 30
0.0
 10
6.4192836533
 20
17.8135749967
 30
0.0
 10
6.4073243467
 20
17.8167573289
 30
0.0
 10
6.3977835984
 20
17.8176395287
 30
0.0
 10
6.3913173666
 20
17.8176395136
 30
0.0
 11
6.4492031315
 21
17.7908864958
 31
0.0
 11
6.4454076667
 21
17.7964552563
 31
0.0
 11
6.4404586793
 21
17.8016007731
 31
0.0
 11
6.4344149921
 21
17.8062062624
 31
0.0
 11
6.4273559485
 21
17.810159721
 31
0.0
 11
6.4193831159
 21
17.8133578928
 31
0.0
 11
6.410620073
 21
17.8157121055
 31
0.0
 11
6.3913173666
 21
17.8176395136
 31
0.0
  0
SPLINE
  5
2B5
100
AcDbEntity
  8
0
100
AcDbSpline
 62
6
  6
CONTINUOUS
 70
0
 71
3
 72
14
 73
10
 74
8
 42
0.0000001
 43
0.0000001
 44
0.0000000001
 12
-0.0824034515
 22
0.0000002359
 32
0.0
 13
-0.0667828215
 23
-0.0482740467
 33
0.0
 40
0.0
 40
0.0
 40
0.0
 40
0.0
 40
0.2433115254
 40
0.3699457936
 40
0.4981521732
 40
0.626596076
 40
0.7539252177
 40
0.8788219774
 40
1.0
 40
1.0
 40
1.0
 40
1.0
 10
6.5258423878
 20
17.8176395136
 30
0.0
 10
6.5191591513
 20
17.8176395327
 30
0.0
 10
6.5089755789
 20
17.8165860516
 30
0.0
 10
6.4956418636
 20
17.8134812224
 30
0.0
 10
6.4855989796
 20
17.8102819314
 30
0.0
 10
6.4758092646
 20
17.8063335183
 30
0.0
 10
6.4664074208
 20
17.8017378657
 30
0.0
 10
6.4575178905
 20
17.7966068095
 30
0.0
 10
6.4519006682
 20
17.7928364137
 30
0.0
 10
6.4492031315
 20
17.7908864958
 30
0.0
 11
6.5258423878
 21
17.8176395136
 31
0.0
 11
6.5058855357
 21
17.8157121055
 31
0.0
 11
6.4957194457
 21
17.8133579724
 31
0.0
 11
6.485650466
 21
17.8101599355
 31
0.0
 11
6.4758322677
 21
17.8062066185
 31
0.0
 11
6.4664046446
 21
17.8016012352
 31
0.0
 11
6.4574914484
 21
17.7964554956
 31
0.0
 11
6.4492031315
 21
17.7908864958
 31
0.0
  0
SPLINE
  5
2B6
100
AcDbEntity
  8
0
100
AcDbSpline
 62
6
  6
CONTINUOUS
 70
0
 71
3
 72
13
 73
9
 74
7
 42
0.0000001
 43
0.0000001
 44
0.0000000001
 12
-0.0407913881
 22
0.0577509726
 32
0.0
 13
-0.0707044
 23
-0.0000002142
 33
0.0
 40
0.0
 40
0.0
 40
0.0
 40
0.0
 40
0.1024151978
 40
0.2114370313
 40
0.3273784323
 40
0.4502328442
 40
0.7147878051
 40
1.0
 40
1.0
 40
1.0
 40
1.0
 10
6.3149456609
 20
17.7908864958
 30
0.0
 10
6.3135531082
 20
17.7928580216
 30
0.0
 10
6.3103381856
 20
17.7966958451
 30
0.0
 10
6.3045574449
 20
17.8018413242
 30
0.0
 10
6.297742932
 20
17.8064395823
 30
0.0
 10
6.2871431072
 20
17.811823459
 30
0.0
 10
6.2718424759
 20
17.81645776
 30
0.0
 10
6.2588476836
 20
17.8176395339
 30
0.0
 10
6.2521257645
 20
17.8176395135
 30
0.0
 11
6.3149456609
 21
17.7908864958
 31
0.0
 11
6.3103169745
 21
17.7964551863
 31
0.0
 11
6.304577419
 21
17.8016006456
 31
0.0
 11
6.29779583
 21
17.8062060944
 31
0.0
 11
6.2900613004
 21
17.8101595339
 31
0.0
 11
6.2721991869
 21
17.8157119568
 31
0.0
 11
6.2521257645
 21
17.8176395135
 31
0.0
  0
SPLINE
  5
2B7
100
AcDbEntity
  8
0
100
AcDbSpline
 62
6
  6
CONTINUOUS
 70
0
 71
3
 72
13
 73
9
 74
7
 42
0.0000001
 43
0.0000001
 44
0.0000000001
 12
-0.0822501653
 22
0.0000002261
 32
0.0
 13
-0.0652382949
 23
-0.0500904639
 33
0.0
 40
0.0
 40
0.0
 40
0.0
 40
0.0
 40
0.2508957696
 40
0.3793419682
 40
0.5080349623
 40
0.7608712632
 40
0.8827469686
 40
1.0
 40
1.0
 40
1.0
 40
1.0
 10
6.3913105377
 20
17.8176395136
 30
0.0
 10
6.3844317982
 20
17.8176395325
 30
0.0
 10
6.3740067588
 20
17.8166123874
 30
0.0
 10
6.3604212957
 20
17.8134956144
 30
0.0
 10
6.3470822714
 20
17.8092608799
 30
0.0
 10
6.3344449323
 20
17.8035521905
 30
0.0
 10
6.3228583079
 20
17.7966298739
 30
0.0
 10
6.3174954568
 20
17.7928442487
 30
0.0
 10
6.3149456609
 20
17.7908864958
 30
0.0
 11
6.3913105377
 21
17.8176395136
 31
0.0
 11
6.3707645256
 21
17.8157121055
 31
0.0
 11
6.3604654291
 21
17.8133579724
 31
0.0
 11
6.3503750769
 21
17.8101599355
 31
0.0
 11
6.3314221063
 21
17.8016012353
 31
0.0
 11
6.3228193223
 21
17.7964554956
 31
0.0
 11
6.3149456609
 21
17.7908864958
 31
0.0
  0
SPLINE
  5
2B8
100
AcDbEntity
  8
0
100
AcDbSpline
 62
6
  6
CONTINUOUS
 70
0
 71
3
 72
13
 73
9
 74
7
 42
0.0000001
 43
0.0000001
 44
0.0000000001
 12
-0.0480185737
 22
0.056701881
 32
0.0
 13
-0.0743026698
 23
-0.0000002329
 33
0.0
 40
0.0
 40
0.0
 40
0.0
 40
0.0
 40
0.2152901099
 40
0.3331129927
 40
0.4571512972
 40
0.5867907581
 40
0.7212164302
 40
1.0
 40
1.0
 40
1.0
 40
1.0
 10
6.1768638325
 20
17.7908864958
 30
0.0
 10
6.1734178578
 20
17.7949556139
 30
0.0
 10
6.1671375205
 20
17.8004848263
 30
0.0
 10
6.1574848991
 20
17.8064234832
 30
0.0
 10
6.149148079
 20
17.8103648279
 30
0.0
 10
6.1400602374
 20
17.8135486326
 30
0.0
 10
6.1269751984
 20
17.8167080258
 30
0.0
 10
6.1167020375
 20
17.8176395352
 30
0.0
 10
6.1097972497
 20
17.8176395135
 30
0.0
 11
6.1768638325
 21
17.7908864958
 31
0.0
 11
6.1649852917
 21
17.8016006191
 31
0.0
 11
6.1575400148
 21
17.8062060595
 31
0.0
 11
6.1492146346
 21
17.8101594951
 31
0.0
 11
6.1401285006
 21
17.8133576733
 31
0.0
 11
6.1304217318
 21
17.8157119259
 31
0.0
 11
6.1097972497
 21
17.8176395135
 31
0.0
  0
SPLINE
  5
2B9
100
AcDbEntity
  8
0
100
AcDbSpline
 62
6
  6
CONTINUOUS
 70
0
 71
3
 72
13
 73
9
 74
7
 42
0.0000001
 43
0.0000001
 44
0.0000000001
 12
-0.0813412488
 22
0.0000002174
 32
0.0
 13
-0.0626396367
 23
-0.0518909884
 33
0.0
 40
0.0
 40
0.0
 40
0.0
 40
0.0
 40
0.2581557142
 40
0.5171300656
 40
0.6439701622
 40
0.7674133259
 40
0.8864088496
 40
1.0
 40
1.0
 40
1.0
 40
1.0
 10
6.2521176601
 20
17.8176395136
 30
0.0
 10
6.2451180907
 20
17.8176395323
 30
0.0
 10
6.2310710929
 20
17.8163063791
 30
0.0
 10
6.2141496607
 20
17.8116661533
 30
0.0
 10
6.2013819342
 20
17.8063733375
 30
0.0
 10
6.1924712595
 20
17.8017804059
 30
0.0
 10
6.1842810521
 20
17.7966507066
 30
0.0
 10
6.1792356019
 20
17.7928512815
 30
0.0
 10
6.1768638325
 20
17.7908864958
 30
0.0
 11
6.2521176601
 21
17.8176395136
 31
0.0
 11
6.2312075945
 21
17.8157121055
 31
0.0
 11
6.2108871577
 21
17.8101599355
 31
0.0
 11
6.2013572772
 21
17.8062066185
 31
0.0
 11
6.1924346907
 21
17.8016012352
 31
0.0
 11
6.1842365728
 21
17.7964554956
 31
0.0
 11
6.1768638325
 21
17.7908864958
 31
0.0
  0
SPLINE
  5
2BA
100
AcDbEntity
  8
0
100
AcDbSpline
 62
6
  6
CONTINUOUS
 70
0
 71
3
 72
13
 73
9
 74
7
 42
0.0000001
 43
0.0000001
 44
0.0000000001
 12
-0.0540710021
 22
0.055281117
 32
0.0
 13
-0.0773283594
 23
-0.0000002412
 33
0.0
 40
0.0
 40
0.0
 40
0.0
 40
0.0
 40
0.1071414291
 40
0.2207875094
 40
0.3404680802
 40
0.4655206819
 40
0.7279376379
 40
1.0
 40
1.0
 40
1.0
 40
1.0
 10
6.0364704996
 20
17.7908864958
 30
0.0
 10
6.0345394181
 20
17.7928607951
 30
0.0
 10
6.0303038384
 20
17.7966845446
 30
0.0
 10
6.0231656863
 20
17.801816667
 30
0.0
 10
6.015131257
 20
17.8064089237
 30
0.0
 10
6.0031780557
 20
17.8117461391
 30
0.0
 10
5.9867126825
 20
17.8163823771
 30
0.0
 10
5.972904516
 20
17.8176395354
 30
0.0
 10
5.965891804
 20
17.8176395135
 30
0.0
 11
6.0364704996
 21
17.7908864958
 31
0.0
 11
6.0303359865
 21
17.7964551716
 31
0.0
 11
6.0232117702
 21
17.8016006188
 31
0.0
 11
6.0151843526
 21
17.8062060592
 31
0.0
 11
6.0063593074
 21
17.8101594947
 31
0.0
 11
5.9868414478
 21
17.8157119255
 31
0.0
 11
5.965891804
 21
17.8176395135
 31
0.0
  0
SPLINE
  5
2BB
100
AcDbEntity
  8
0
100
AcDbSpline
 62
6
  6
CONTINUOUS
 70
0
 71
3
 72
13
 73
9
 74
7
 42
0.0000001
 43
0.0000001
 44
0.0000000001
 12
-0.0796896194
 22
0.0000002095
 32
0.0
 13
-0.0589325918
 23
-0.0536412627
 33
0.0
 40
0.0
 40
0.0
 40
0.0
 40
0.0
 40
0.2651926402
 40
0.5260058438
 40
0.6519843512
 40
0.7735384014
 40
0.8897913781
 40
1.0
 40
1.0
 40
1.0
 40
1.0
 10
6.1097887814
 20
17.8176395136
 30
0.0
 10
6.1027444145
 20
17.8176395321
 30
0.0
 10
6.088743512
 20
17.8163449742
 30
0.0
 10
6.0719590318
 20
17.8117067694
 30
0.0
 10
6.0595287126
 20
17.8063918679
 30
0.0
 10
6.0510101191
 20
17.801799762
 30
0.0
 10
6.0433043463
 20
17.7966695374
 30
0.0
 10
6.0386354595
 20
17.7928570724
 30
0.0
 10
6.0364704996
 20
17.7908864958
 30
0.0
 11
6.1097887814
 21
17.8176395136
 31
0.0
 11
6.0887437573
 21
17.8157121055
 31
0.0
 11
6.0687149674
 21
17.8101599355
 31
0.0
 11
6.0594869445
 21
17.8062066186
 31
0.0
 11
6.0509651732
 21
17.8016012352
 31
0.0
 11
6.0432615415
 21
17.7964554956
 31
0.0
 11
6.0364704996
 21
17.7908864958
 31
0.0
  0
SPLINE
  5
2BC
100
AcDbEntity
  8
0
100
AcDbSpline
 62
6
  6
CONTINUOUS
 70
0
 71
3
 72
13
 73
9
 74
7
 42
0.0000001
 43
0.0000001
 44
0.0000000001
 12
-0.0652377334
 22
0.0500900328
 32
0.0
 13
-0.0822494574
 23
-0.0000002696
 33
0.0
 40
0.0
 40
0.0
 40
0.0
 40
0.0
 40
0.1172466101
 40
0.2391152634
 40
0.4919534009
 40
0.6206494589
 40
0.7490984431
 40
1.0
 40
1.0
 40
1.0
 40
1.0
 10
41.6168286796
 20
17.7908864958
 30
0.0
 10
41.6142790452
 20
17.7928441247
 30
0.0
 10
41.6089165657
 20
17.7966295359
 30
0.0
 10
41.5973303448
 20
17.8035516773
 30
0.0
 10
41.5846932354
 20
17.8092604349
 30
0.0
 10
41.5713541609
 20
17.8134953171
 30
0.0
 10
41.5577685311
 20
17.8166122407
 30
0.0
 10
41.5473433516
 20
17.8176395361
 30
0.0
 10
41.5404645127
 20
17.8176395135
 30
0.0
 11
41.6168286796
 21
17.7908864958
 31
0.0
 11
41.6089555377
 21
17.7964551718
 31
0.0
 11
41.6003533554
 21
17.8016006192
 31
0.0
 11
41.5814004948
 21
17.8101594952
 31
0.0
 11
41.5713100186
 21
17.8133576735
 31
0.0
 11
41.5610108076
 21
17.815711926
 31
0.0
 11
41.5404645127
 21
17.8176395135
 31
0.0
  0
SPLINE
  5
2BD
100
AcDbEntity
  8
0
100
AcDbSpline
 62
6
  6
CONTINUOUS
 70
0
 71
3
 72
15
 73
11
 74
9
 42
0.0000001
 43
0.0000001
 44
0.0000000001
 12
-0.0552823327
 22
0.0357762606
 32
0.0
 13
-0.0658488962
 23
-0.0000004392
 33
0.0
 40
0.0
 40
0.0
 40
0.0
 40
0.0
 40
0.154329933
 40
0.3038758772
 40
0.4466348222
 40
0.5806857987
 40
0.7042761253
 40
0.8159373951
 40
0.9146370513
 40
1.0
 40
1.0
 40
1.0
 40
1.0
 10
40.8334370308
 20
17.7917769165
 30
0.0
 10
40.8305931246
 20
17.7936173658
 30
0.0
 10
40.8249487356
 20
17.7971729146
 30
0.0
 10
40.8164992795
 20
17.802147736
 30
0.0
 10
40.8082632268
 20
17.8065968633
 30
0.0
 10
40.8003443554
 20
17.8104177838
 30
0.0
 10
40.7928484096
 20
17.8135172247
 30
0.0
 10
40.7858786129
 20
17.8158162743
 30
0.0
 10
40.7795377654
 20
17.817254026
 30
0.0
 10
40.7754967287
 20
17.817639526
 30
0.0
 10
40.7736230434
 20
17.8176395135
 30
0.0
 11
40.8334370308
 21
17.7917769165
 31
0.0
 11
40.8248329599
 21
17.7971848247
 31
0.0
 11
40.8163403343
 21
17.8021695307
 31
0.0
 11
40.8080611397
 21
17.8066220235
 31
0.0
 11
40.8001011899
 21
17.8104373937
 31
0.0
 11
40.7925690663
 21
17.8135194097
 31
0.0
 11
40.7855742464
 21
17.8157856272
 31
0.0
 11
40.7792246569
 21
17.8171723997
 31
0.0
 11
40.7736230434
 21
17.8176395135
 31
0.0
  0
SPLINE
  5
2BE
100
AcDbEntity
  8
0
100
AcDbSpline
 62
6
  6
CONTINUOUS
 70
0
 71
3
 72
16
 73
12
 74
10
 42
0.0000001
 43
0.0000001
 44
0.0000000001
 12
-0.0296073216
 22
0.0000001317
 32
0.0
 13
0.0013947866
 23
-0.0295744494
 33
0.0
 40
0.0
 40
0.0
 40
0.0
 40
0.0
 40
0.1544608906
 40
0.2259016318
 40
0.2937291754
 40
0.4197656844
 40
0.536162025
 40
0.647459483
 40
0.7587825985
 40
0.8749960008
 40
1.0
 40
1.0
 40
1.0
 40
1.0
 10
40.8521023815
 20
17.8176395136
 30
0.0
 10
40.8505779904
 20
17.8176395203
 30
0.0
 10
40.8483432028
 20
17.817512485
 30
0.0
 10
40.8454834773
 20
17.817021475
 30
0.0
 10
40.8429456217
 20
17.8163683977
 30
0.0
 10
40.8400867363
 20
17.8152148218
 30
0.0
 10
40.8371769792
 20
17.8132311595
 30
0.0
 10
40.8349238307
 20
17.8107106963
 30
0.0
 10
40.8333704444
 20
17.8077110103
 30
0.0
 10
40.8325313554
 20
17.8043059175
 30
0.0
 10
40.8324460669
 20
17.8019103798
 30
0.0
 10
40.8325041849
 20
17.8006780716
 30
0.0
 11
40.8521023815
 21
17.8176395136
 31
0.0
 11
40.8475384678
 21
17.8173486428
 31
0.0
 11
40.8454545337
 21
17.8169864849
 31
0.0
 11
40.8435107753
 21
17.8164818682
 31
0.0
 11
40.8400626812
 21
17.8150551547
 31
0.0
 11
40.8372290363
 21
17.8130938694
 31
0.0
 11
40.8350387144
 21
17.8106319672
 31
0.0
 11
40.8335129263
 21
17.8077104179
 31
0.0
 11
40.8326657426
 21
17.8043755774
 31
0.0
 11
40.8325041849
 21
17.8006780716
 31
0.0
  0
SPLINE
  5
2BF
100
AcDbEntity
  8
0
100
AcDbSpline
 62
6
  6
CONTINUOUS
 70
0
 71
3
 72
13
 73
9
 74
7
 42
0.0000001
 43
0.0000001
 44
0.0000000001
 12
-0.0707049033
 22
0.000000189
 32
0.0
 13
-0.0407916784
 23
-0.0577513837
 33
0.0
 40
0.0
 40
0.0
 40
0.0
 40
0.0
 40
0.2852063073
 40
0.5497561553
 40
0.67260909
 40
0.7885510206
 40
0.8975792175
 40
1.0
 40
1.0
 40
1.0
 40
1.0
 10
41.6796490835
 20
17.8176395136
 30
0.0
 10
41.6729272554
 20
17.8176395315
 30
0.0
 10
41.6599326294
 20
17.8164578914
 30
0.0
 10
41.644632124
 20
17.8118237963
 30
0.0
 10
41.6340322927
 20
17.8064400719
 30
0.0
 10
41.6272175273
 20
17.8018418511
 30
0.0
 10
41.621436495
 20
17.7966961709
 30
0.0
 10
41.6182213181
 20
17.7928581431
 30
0.0
 10
41.6168286796
 20
17.7908864958
 30
0.0
 11
41.6796490835
 21
17.8176395136
 31
0.0
 11
41.6595759209
 21
17.8157121056
 31
0.0
 11
41.6417139679
 21
17.8101599356
 31
0.0
 11
41.6339794235
 21
17.8062066187
 31
0.0
 11
41.6271976742
 21
17.8016012354
 31
0.0
 11
41.6214576921
 21
17.7964554957
 31
0.0
 11
41.6168286796
 21
17.7908864958
 31
0.0
  0
SPLINE
  5
2C0
100
AcDbEntity
  8
0
100
AcDbSpline
 62
6
  6
CONTINUOUS
 70
0
 71
3
 72
17
 73
13
 74
11
 42
0.0000001
 43
0.0000001
 44
0.0000000001
 12
-0.0485339241
 22
0.0317879498
 32
0.0
 13
-0.0580173727
 23
-0.0000004025
 33
0.0
 40
0.0
 40
0.0
 40
0.0
 40
0.0
 40
0.1629307094
 40
0.3185507394
 40
0.4648704692
 40
0.5999621134
 40
0.7221139841
 40
0.8299375057
 40
0.8781906068
 40
0.9225976798
 40
0.9631750687
 40
1.0
 40
1.0
 40
1.0
 40
1.0
 10
40.7603254402
 20
17.7934646623
 30
0.0
 10
40.7576895513
 20
17.7951910734
 30
0.0
 10
40.7525042366
 20
17.7985183646
 30
0.0
 10
40.7448202422
 20
17.8031874136
 30
0.0
 10
40.7374610836
 20
17.8073473492
 30
0.0
 10
40.7305132227
 20
17.8109089207
 30
0.0
 10
40.724063805
 20
17.8137904381
 30
0.0
 10
40.7190007785
 20
17.8156340269
 30
0.0
 10
40.7152648997
 20
17.8166779061
 30
0.0
 10
40.7127446047
 20
17.8172230974
 30
0.0
 10
40.7104104256
 20
17.8175561669
 30
0.0
 10
40.7089130574
 20
17.8176395185
 30
0.0
 10
40.7082008955
 20
17.8176395136
 30
0.0
 11
40.7603254402
 21
17.7934646623
 31
0.0
 11
40.7523642764
 21
17.7985612807
 31
0.0
 11
40.7446416788
 21
17.8032387035
 31
0.0
 11
40.7372433083
 21
17.807401479
 31
0.0
 11
40.7302585158
 21
17.8109569852
 31
0.0
 11
40.7237762244
 21
17.8138213322
 31
0.0
 11
40.7178842052
 21
17.8159230242
 31
0.0
 11
40.7151861587
 21
17.8166699157
 31
0.0
 11
40.7126664374
 21
17.8172072678
 31
0.0
 11
40.7103346323
 21
17.8175311688
 31
0.0
 11
40.7082008955
 21
17.8176395136
 31
0.0
  0
SPLINE
  5
2C1
100
AcDbEntity
  8
0
100
AcDbSpline
 62
6
  6
CONTINUOUS
 70
0
 71
3
 72
16
 73
12
 74
10
 42
0.0000001
 43
0.0000001
 44
0.0000000001
 12
-0.0207989524
 22
0.0000000895
 32
0.0
 13
-0.0001021705
 23
-0.0207987014
 33
0.0
 40
0.0
 40
0.0
 40
0.0
 40
0.0
 40
0.1534658859
 40
0.224338389
 40
0.2916084207
 40
0.4166813074
 40
0.5324768124
 40
0.6436962569
 40
0.7555641388
 40
0.8730078406
 40
1.0
 40
1.0
 40
1.0
 40
1.0
 10
40.7736189679
 20
17.8176395136
 30
0.0
 10
40.7725549914
 20
17.8176395182
 30
0.0
 10
40.7709961277
 20
17.8175541128
 30
0.0
 10
40.7690000438
 20
17.817221974
 30
0.0
 10
40.7672281006
 20
17.81677959
 30
0.0
 10
40.7652259049
 20
17.8159955412
 30
0.0
 10
40.7631718051
 20
17.8146392254
 30
0.0
 10
40.7615545202
 20
17.8129030798
 30
0.0
 10
40.7603995115
 20
17.8108183726
 30
0.0
 10
40.7597143586
 20
17.8084263198
 30
0.0
 10
40.7595735058
 20
17.806726961
 30
0.0
 10
40.7595691808
 20
17.805846537
 30
0.0
 11
40.7736189679
 21
17.8176395136
 31
0.0
 11
40.7704330895
 21
17.8174430618
 31
0.0
 11
40.7689794995
 21
17.8171981743
 31
0.0
 11
40.7676227343
 21
17.8168564167
 31
0.0
 11
40.7652087246
 21
17.8158870039
 31
0.0
 11
40.7632078145
 21
17.8145465299
 31
0.0
 11
40.7616341672
 21
17.8128510211
 31
0.0
 11
40.7604985838
 21
17.8108202219
 31
0.0
 11
40.7598087119
 21
17.8084769573
 31
0.0
 11
40.7595691808
 21
17.805846537
 31
0.0
  0
SPLINE
  5
2C2
100
AcDbEntity
  8
0
100
AcDbSpline
 62
6
  6
CONTINUOUS
 70
0
 71
3
 72
13
 73
9
 74
7
 42
0.0000001
 43
0.0000001
 44
0.0000000001
 12
-0.0667713195
 22
0.0482657325
 32
0.0
 13
-0.0823892593
 23
-0.0000002813
 33
0.0
 40
0.0
 40
0.0
 40
0.0
 40
0.0
 40
0.1211912642
 40
0.2461013078
 40
0.5017543914
 40
0.6299849503
 40
0.7566428244
 40
1.0
 40
1.0
 40
1.0
 40
1.0
 10
41.482571209
 20
17.7908864958
 30
0.0
 10
41.4798738422
 20
17.7928362909
 30
0.0
 10
41.4742566016
 20
17.796606791
 30
0.0
 10
41.4623160478
 20
17.8034984203
 30
0.0
 10
41.4495059488
 20
17.8092204482
 30
0.0
 10
41.4361340606
 20
17.8134808478
 30
0.0
 10
41.4227994228
 20
17.816585946
 30
0.0
 10
41.4126159759
 20
17.8176395364
 30
0.0
 10
41.4059326368
 20
17.8176395135
 30
0.0
 11
41.482571209
 21
17.7908864958
 31
0.0
 11
41.474283432
 21
17.7964551716
 31
0.0
 11
41.4653708501
 21
17.801600619
 31
0.0
 11
41.4461251107
 21
17.8101594948
 31
0.0
 11
41.4360559949
 21
17.813357673
 31
0.0
 11
41.425889781
 21
17.8157119257
 31
0.0
 11
41.4059326368
 21
17.8176395135
 31
0.0
  0
SPLINE
  5
2C3
100
AcDbEntity
  8
0
100
AcDbSpline
 62
6
  6
CONTINUOUS
 70
0
 71
3
 72
18
 73
14
 74
12
 42
0.0000001
 43
0.0000001
 44
0.0000000001
 12
-0.0401089482
 22
0.0269910062
 32
0.0
 13
-0.0483450322
 23
-0.0000005386
 33
0.0
 40
0.0
 40
0.0
 40
0.0
 40
0.0
 40
0.1730987123
 40
0.3358149689
 40
0.4861934583
 40
0.5561735178
 40
0.6223931314
 40
0.7427920478
 40
0.8461406645
 40
0.8911917063
 40
0.9317952818
 40
0.9680131246
 40
1.0
 40
1.0
 40
1.0
 40
1.0
 10
40.6993196961
 20
17.7959953379
 30
0.0
 10
40.697005427
 20
17.7975527074
 30
0.0
 10
40.692495194
 20
17.800543861
 30
0.0
 10
40.6858833942
 20
17.8047486512
 30
0.0
 10
40.6805889792
 20
17.8079254436
 30
0.0
 10
40.6765652489
 20
17.8101926558
 30
0.0
 10
40.672920286
 20
17.812145971
 30
0.0
 10
40.6687240793
 20
17.8142067036
 30
0.0
 10
40.6647109049
 20
17.8158528201
 30
0.0
 10
40.6618096561
 20
17.8167849642
 30
0.0
 10
40.6599041109
 20
17.8172674109
 30
0.0
 10
40.6581738019
 20
17.8175631921
 30
0.0
 10
40.6570743569
 20
17.8176395193
 30
0.0
 10
40.6565588881
 20
17.8176395135
 30
0.0
 11
40.6993196961
 21
17.7959953379
 31
0.0
 11
40.6923407243
 21
17.8006132512
 31
0.0
 11
40.6856968615
 21
17.8048252895
 31
0.0
 11
40.6794552527
 21
17.8085530219
 31
0.0
 11
40.6765065417
 21
17.8102116556
 31
0.0
 11
40.6736836391
 21
17.8117216606
 31
0.0
 11
40.6684476196
 21
17.8142642037
 31
0.0
 11
40.6638102748
 21
17.816124034
 31
0.0
 11
40.6617346259
 21
17.8167838367
 31
0.0
 11
40.6598298118
 21
17.8172581556
 31
0.0
 11
40.6581023381
 21
17.8175439356
 31
0.0
 11
40.6565588881
 21
17.8176395135
 31
0.0
  0
SPLINE
  5
2C4
100
AcDbEntity
  8
0
100
AcDbSpline
 62
6
  6
CONTINUOUS
 70
0
 71
3
 72
15
 73
11
 74
9
 42
0.0000001
 43
0.0000001
 44
0.0000000001
 12
-0.0134264278
 22
0.0000000863
 32
0.0
 13
-0.0006353807
 23
-0.0134113853
 33
0.0
 40
0.0
 40
0.0
 40
0.0
 40
0.0
 40
0.1526488999
 40
0.289819504
 40
0.4141446811
 40
0.5294629115
 40
0.6406164179
 40
0.7529085762
 40
0.8713485427
 40
1.0
 40
1.0
 40
1.0
 40
1.0
 10
40.708197611
 20
17.8176395136
 30
0.0
 10
40.7075144345
 20
17.817639518
 30
0.0
 10
40.7062153011
 20
17.8175702838
 30
0.0
 10
40.7043889846
 20
17.8172143817
 30
0.0
 10
40.7028041204
 20
17.8166091452
 30
0.0
 10
40.7014724765
 20
17.8157536601
 30
0.0
 10
40.7004101542
 20
17.8146519895
 30
0.0
 10
40.699630229
 20
17.8133196938
 30
0.0
 10
40.6991367592
 20
17.8117774014
 30
0.0
 10
40.6990021373
 20
17.8106734648
 30
0.0
 10
40.6989748898
 20
17.8100983334
 30
0.0
 11
40.708197611
 21
17.8176395136
 31
0.0
 11
40.7061517646
 21
17.8175166993
 31
0.0
 11
40.7043470091
 21
17.8171496053
 31
0.0
 11
40.702792676
 21
17.8165409832
 31
0.0
 11
40.7014954321
 21
17.8156957448
 31
0.0
 11
40.7004609805
 21
17.8146200351
 31
0.0
 11
40.6996938839
 21
17.8133220869
 31
0.0
 11
40.6991978039
 21
17.8118112188
 31
0.0
 11
40.6989748898
 21
17.8100983334
 31
0.0
  0
SPLINE
  5
2C5
100
AcDbEntity
  8
0
100
AcDbSpline
 62
6
  6
CONTINUOUS
 70
0
 71
3
 72
14
 73
10
 74
8
 42
0.0000001
 43
0.0000001
 44
0.0000000001
 12
-0.0666298937
 22
0.0000001831
 32
0.0
 13
-0.0324698893
 23
-0.0581828929
 33
0.0
 40
0.0
 40
0.0
 40
0.0
 40
0.0
 40
0.2911324376
 40
0.4273103465
 40
0.5562332264
 40
0.6776587416
 40
0.791698298
 40
0.8988515512
 40
1.0
 40
1.0
 40
1.0
 40
1.0
 10
41.5404564162
 20
17.8176395136
 30
0.0
 10
41.5339903751
 20
17.8176395313
 30
0.0
 10
41.5244499086
 20
17.8167572789
 30
0.0
 10
41.512490943
 20
17.8135750668
 30
0.0
 10
41.5044929405
 20
17.8103935247
 30
0.0
 10
41.4973978626
 20
17.8064508673
 30
0.0
 10
41.4913059413
 20
17.8018445859
 30
0.0
 10
41.4863019624
 20
17.7966843327
 30
0.0
 10
41.4836659687
 20
17.7928481989
 30
0.0
 10
41.482571209
 20
17.7908864958
 30
0.0
 11
41.5404564162
 21
17.8176395136
 31
0.0
 11
41.5211542845
 21
17.8157121056
 31
0.0
 11
41.5123914758
 21
17.8133579726
 31
0.0
 11
41.504418855
 21
17.8101599356
 31
0.0
 11
41.4973599178
 21
17.8062066187
 31
0.0
 11
41.4913161782
 21
17.8016012353
 31
0.0
 11
41.4863668962
 21
17.7964554957
 31
0.0
 11
41.482571209
 21
17.7908864958
 31
0.0
  0
SPLINE
  5
2C6
100
AcDbEntity
  8
0
100
AcDbSpline
 62
6
  6
CONTINUOUS
 70
0
 71
3
 72
17
 73
13
 74
11
 42
0.0000001
 43
0.0000001
 44
0.0000000001
 12
-0.0301104496
 22
0.021293822
 32
0.0
 13
-0.0368790731
 23
-0.0000003844
 33
0.0
 40
0.0
 40
0.0
 40
0.0
 40
0.0
 40
0.1855627065
 40
0.3568617807
 40
0.5120554585
 40
0.6494774166
 40
0.7676998704
 40
0.8656487228
 40
0.9068527697
 40
0.9428819385
 40
0.9738469007
 40
1.0
 40
1.0
 40
1.0
 40
1.0
 10
40.6510953844
 20
17.7995574614
 30
0.0
 10
40.6492329256
 20
17.8008745745
 30
0.0
 10
40.6456400928
 20
17.803391992
 30
0.0
 10
40.640435435
 20
17.8069329894
 30
0.0
 10
40.6356564193
 20
17.810045813
 30
0.0
 10
40.6313460884
 20
17.8126801323
 30
0.0
 10
40.6275448067
 20
17.8147908758
 30
0.0
 10
40.6246868252
 20
17.8161576365
 30
0.0
 10
40.6226765315
 20
17.8169329372
 30
0.0
 10
40.6214053768
 20
17.817329098
 30
0.0
 10
40.6202850495
 20
17.8175732495
 30
0.0
 10
40.6195828868
 20
17.8176395169
 30
0.0
 10
40.6192613861
 20
17.8176395136
 30
0.0
 11
40.6510953844
 21
17.7995574614
 31
0.0
 11
40.6454871879
 21
17.8034791944
 31
0.0
 11
40.6402594005
 21
17.8070259061
 31
0.0
 11
40.6354577002
 21
17.8101405442
 31
0.0
 11
40.631125532
 21
17.8127705415
 31
0.0
 11
40.6273039755
 21
17.8148692876
 31
0.0
 11
40.6240311249
 21
17.8163979772
 31
0.0
 11
40.6226111475
 21
17.8169390395
 31
0.0
 11
40.6213404726
 21
17.817327483
 31
0.0
 11
40.6202227147
 21
17.8175613374
 31
0.0
 11
40.6192613861
 21
17.8176395136
 31
0.0
  0
SPLINE
  5
2C7
100
AcDbEntity
  8
0
100
AcDbSpline
 62
6
  6
CONTINUOUS
 70
0
 71
3
 72
15
 73
11
 74
9
 42
0.0000001
 43
0.0000001
 44
0.0000000001
 12
-0.0075985252
 22
0.0000000643
 32
0.0
 13
-0.0006110829
 23
-0.0075739133
 33
0.0
 40
0.0
 40
0.0
 40
0.0
 40
0.0
 40
0.152008337
 40
0.288496243
 40
0.4122702607
 40
0.5272379867
 40
0.638315739
 40
0.7509008105
 40
0.8700715637
 40
1.0
 40
1.0
 40
1.0
 40
1.0
 10
40.6565561076
 20
17.8176395136
 30
0.0
 10
40.6561710946
 20
17.8176395168
 30
0.0
 10
40.6554392592
 20
17.8176014331
 30
0.0
 10
40.654409751
 20
17.8174049074
 30
0.0
 10
40.6535143729
 20
17.8170701599
 30
0.0
 10
40.6527583125
 20
17.8165949377
 30
0.0
 10
40.6521486993
 20
17.8159805726
 30
0.0
 10
40.6516922554
 20
17.8152331486
 30
0.0
 10
40.6513898702
 20
17.8143622132
 30
0.0
 10
40.6512940904
 20
17.8137352191
 30
0.0
 10
40.6512676248
 20
17.8134071968
 30
0.0
 11
40.6565561076
 21
17.8176395136
 31
0.0
 11
40.6554030563
 21
17.8175717775
 31
0.0
 11
40.6543859442
 21
17.8173691118
 31
0.0
 11
40.6535077927
 21
17.8170323771
 31
0.0
 11
40.6527710172
 21
17.8165630021
 31
0.0
 11
40.6521772765
 21
17.8159631241
 31
0.0
 11
40.651728115
 21
17.8152350438
 31
0.0
 11
40.6514246075
 21
17.8143819007
 31
0.0
 11
40.6512676248
 21
17.8134071968
 31
0.0
  0
SPLINE
  5
2C8
100
AcDbEntity
  8
0
100
AcDbSpline
 62
6
  6
CONTINUOUS
 70
0
 71
3
 72
17
 73
13
 74
11
 42
0.0000001
 43
0.0000001
 44
0.0000000001
 12
-0.0187821834
 22
0.0145030997
 32
0.0
 13
-0.0237299455
 23
-0.000000492
 33
0.0
 40
0.0
 40
0.0
 40
0.0
 40
0.0
 40
0.2021445828
 40
0.3847082453
 40
0.546172622
 40
0.6851819081
 40
0.8005875909
 40
0.8915396455
 40
0.9277264191
 40
0.9577360945
 40
0.9817090918
 40
1.0
 40
1.0
 40
1.0
 40
1.0
 10
40.6163134326
 20
17.8044611181
 30
0.0
 10
40.6150478604
 20
17.8054383591
 30
0.0
 10
40.6126356896
 20
17.8072935087
 30
0.0
 10
40.6091910567
 20
17.8099010862
 30
0.0
 10
40.6061159704
 20
17.8121689676
 30
0.0
 10
40.6034310072
 20
17.8140703441
 30
0.0
 10
40.6011546308
 20
17.8155811749
 30
0.0
 10
40.5995065779
 20
17.8165669324
 30
0.0
 10
40.5983976466
 20
17.8171295555
 30
0.0
 10
40.5977413195
 20
17.8174111292
 30
0.0
 10
40.5971964674
 20
17.8175860642
 30
0.0
 10
40.5968630643
 20
17.8176395166
 30
0.0
 10
40.5967183836
 20
17.8176395136
 30
0.0
 11
40.6163134326
 21
17.8044611181
 31
0.0
 11
40.6125090136
 21
17.8073828391
 31
0.0
 11
40.6090522426
 21
17.8099941441
 31
0.0
 11
40.6059652122
 21
17.8122637143
 31
0.0
 11
40.6032683608
 21
17.814163267
 31
0.0
 11
40.6009803077
 21
17.8156681198
 31
0.0
 11
40.5991174264
 21
17.8167580177
 31
0.0
 11
40.5983496612
 21
17.8171426209
 31
0.0
 11
40.5976930434
 21
17.8174182644
 31
0.0
 11
40.5971488743
 21
17.8175841019
 31
0.0
 11
40.5967183836
 21
17.8176395136
 31
0.0
  0
SPLINE
  5
2C9
100
AcDbEntity
  8
0
100
AcDbSpline
 62
6
  6
CONTINUOUS
 70
0
 71
3
 72
12
 73
8
 74
6
 42
0.0000001
 43
0.0000001
 44
0.0000000001
 12
-0.0033809697
 22
0.0000000491
 32
0.0
 13
-0.0003513512
 23
-0.0033626639
 33
0.0
 40
0.0
 40
0.0
 40
0.0
 40
0.0
 40
0.2876855301
 40
0.5253057597
 40
0.6366711782
 40
0.749779268
 40
1.0
 40
1.0
 40
1.0
 40
1.0
 10
40.6192597843
 20
17.8176395135
 30
0.0
 10
40.6189355656
 20
17.8176395182
 30
0.0
 10
40.6183384567
 20
17.8175860029
 30
0.0
 10
40.6176666102
 20
17.8172789546
 30
0.0
 10
40.6172931541
 20
17.816909214
 30
0.0
 10
40.6170057156
 20
17.8164533099
 30
0.0
 10
40.6169071511
 20
17.8160433955
 30
0.0
 10
40.616877846
 20
17.8157629261
 30
0.0
 11
40.6192597843
 21
17.8176395135
 31
0.0
 11
40.618294379
 21
17.8175209703
 31
0.0
 11
40.6175733535
 21
17.8171666364
 31
0.0
 11
40.6173057595
 21
17.8169017532
 31
0.0
 11
40.6171005097
 21
17.8165790865
 31
0.0
 11
40.616877846
 21
17.8157629261
 31
0.0
  0
LINE
  5
2CA
100
AcDbEntity
  8
0
100
AcDbLine
 62
6
  6
CONTINUOUS
 10
40.5934406197
 20
17.813578414
 11
40.5891762808
 21
17.8176395136
  0
SPLINE
  5
2CB
100
AcDbEntity
  8
0
100
AcDbSpline
 62
6
  6
CONTINUOUS
 70
0
 71
3
 72
14
 73
10
 74
8
 42
0.0000001
 43
0.0000001
 44
0.0000000001
 12
-0.0673088143
 22
0.0464437497
 32
0.0
 13
-0.0817771262
 23
-0.0000002339
 33
0.0
 40
0.0
 40
0.0
 40
0.0
 40
0.0
 40
0.2534154316
 40
0.3828085477
 40
0.5120463351
 40
0.6397003181
 40
0.7643948812
 40
0.8848578011
 40
1.0
 40
1.0
 40
1.0
 40
1.0
 10
41.3536090493
 20
17.7908864958
 30
0.0
 10
41.3479233519
 20
17.7948096834
 30
0.0
 10
41.338964779
 20
17.8002264217
 30
0.0
 10
41.3263960462
 20
17.8063123858
 30
0.0
 10
41.3166259727
 20
17.8102633902
 30
0.0
 10
41.306719512
 20
17.8134654936
 30
0.0
 10
41.2968241911
 20
17.8158307877
 30
0.0
 10
41.2870994099
 20
17.8172905505
 30
0.0
 10
41.2806735774
 20
17.8176395225
 30
0.0
 10
41.2775349113
 20
17.8176395136
 30
0.0
 11
41.3536090493
 21
17.7908864958
 31
0.0
 11
41.3358704888
 21
17.8016014609
 31
0.0
 11
41.3263439202
 21
17.8062069421
 31
0.0
 11
41.3165424275
 21
17.8101601752
 31
0.0
 11
41.3066051524
 21
17.8133581365
 31
0.0
 11
41.2966834348
 21
17.8157122082
 31
0.0
 11
41.2869383734
 21
17.8171537954
 31
0.0
 11
41.2775349113
 21
17.8176395136
 31
0.0
  0
SPLINE
  5
2CC
100
AcDbEntity
  8
0
100
AcDbSpline
 62
6
  6
CONTINUOUS
 70
0
 71
3
 72
15
 73
11
 74
9
 42
0.0000001
 43
0.0000001
 44
0.0000000001
 12
-0.0621679105
 22
0.0000001779
 32
0.0
 13
-0.0232716004
 23
-0.0576479116
 33
0.0
 40
0.0
 40
0.0
 40
0.0
 40
0.0
 40
0.1521721849
 40
0.2967523095
 40
0.4331153931
 40
0.5610415072
 40
0.6807613158
 40
0.7929706436
 40
0.8988472237
 40
1.0
 40
1.0
 40
1.0
 40
1.0
 10
41.4059248572
 20
17.8176395136
 30
0.0
 10
41.4027714483
 20
17.8176395226
 30
0.0
 10
41.3966162069
 20
17.8173374757
 30
0.0
 10
41.3877345227
 20
17.8159198241
 30
0.0
 10
41.3795655348
 20
17.8135878702
 30
0.0
 10
41.3722440789
 20
17.8104055751
 30
0.0
 10
41.3658844876
 20
17.8064561329
 30
0.0
 10
41.3605811095
 20
17.8018353502
 30
0.0
 10
41.3564124313
 20
17.7966529958
 30
0.0
 10
41.3543937116
 20
17.7928302446
 30
0.0
 10
41.3536090493
 20
17.7908864958
 30
0.0
 11
41.4059248572
 21
17.8176395136
 31
0.0
 11
41.3964771096
 21
17.8171537605
 31
0.0
 11
41.3876052346
 21
17.8157121056
 31
0.0
 11
41.3794612489
 21
17.8133579725
 31
0.0
 11
41.3721796855
 21
17.8101599356
 31
0.0
 11
41.3658736947
 21
17.8062066187
 31
0.0
 11
41.3606341812
 21
17.8016012353
 31
0.0
 11
41.3565298247
 21
17.7964554957
 31
0.0
 11
41.3536090493
 21
17.7908864958
 31
0.0
  0
SPLINE
  5
2CD
100
AcDbEntity
  8
0
100
AcDbSpline
 62
6
  6
CONTINUOUS
 70
0
 71
3
 72
13
 73
9
 74
7
 42
0.0000001
 43
0.0000001
 44
0.0000000001
 12
-0.0589320429
 22
0.0536407632
 32
0.0
 13
-0.0796888772
 23
-0.0000002499
 33
0.0
 40
0.0
 40
0.0
 40
0.0
 40
0.0
 40
0.1102025803
 40
0.2264487824
 40
0.3480025075
 40
0.4739827611
 40
0.7348015132
 40
1.0
 40
1.0
 40
1.0
 40
1.0
 10
41.8953038409
 20
17.7908864958
 30
0.0
 10
41.8931390199
 20
17.792856946
 30
0.0
 10
41.8884704731
 20
17.7966691982
 30
0.0
 10
41.8807650861
 20
17.8017992138
 30
0.0
 10
41.8722467692
 20
17.8063913401
 30
0.0
 10
41.859816445
 20
17.8117063888
 30
0.0
 10
41.8430318302
 20
17.8163447915
 30
0.0
 10
41.8290307607
 20
17.8176395356
 30
0.0
 10
41.8219863041
 20
17.8176395135
 30
0.0
 11
41.8953038409
 21
17.7908864958
 31
0.0
 11
41.8885132617
 21
17.7964551716
 31
0.0
 11
41.8808101878
 21
17.8016006189
 31
0.0
 11
41.8722885793
 21
17.8062060593
 31
0.0
 11
41.8630605575
 21
17.8101594948
 31
0.0
 11
41.8430315819
 21
17.8157119256
 31
0.0
 11
41.8219863041
 21
17.8176395135
 31
0.0
  0
SPLINE
  5
2CE
100
AcDbEntity
  8
0
100
AcDbSpline
 62
6
  6
CONTINUOUS
 70
0
 71
3
 72
15
 73
11
 74
9
 42
0.0000001
 43
0.0000001
 44
0.0000000001
 12
-0.0668645224
 22
0.0445995327
 32
0.0
 13
-0.0803740174
 23
-0.00000031
 33
0.0
 40
0.0
 40
0.0
 40
0.0
 40
0.0
 40
0.1300008032
 40
0.2615658821
 40
0.3931500518
 40
0.5232152975
 40
0.6502547639
 40
0.7728579198
 40
0.8897746975
 40
1.0
 40
1.0
 40
1.0
 40
1.0
 10
41.2313551367
 20
17.7908864958
 30
0.0
 10
41.2284576562
 20
17.7928191542
 30
0.0
 10
41.2225258387
 20
17.7965573554
 30
0.0
 10
41.2133223207
 20
17.8016903706
 30
0.0
 10
41.2038373547
 20
17.8062891875
 30
0.0
 10
41.1941953977
 20
17.810242457
 30
0.0
 10
41.1845314361
 20
17.8134480277
 30
0.0
 10
41.1749895633
 20
17.8158179254
 30
0.0
 10
41.1657223693
 20
17.8172834908
 30
0.0
 10
41.1596336454
 20
17.8176395249
 30
0.0
 10
41.1566805619
 20
17.8176395135
 30
0.0
 11
41.2313551367
 21
17.7908864958
 31
0.0
 11
41.2225140448
 21
17.7964551716
 31
0.0
 11
41.2132759388
 21
17.8016006188
 31
0.0
 11
41.2037554029
 21
17.8062060591
 31
0.0
 11
41.1940779203
 21
17.8101594946
 31
0.0
 11
41.1843810402
 21
17.8133576728
 31
0.0
 11
41.174812292
 21
17.8157119255
 31
0.0
 11
41.165526481
 21
17.8171536814
 31
0.0
 11
41.1566805619
 21
17.8176395135
 31
0.0
  0
SPLINE
  5
2CF
100
AcDbEntity
  8
0
100
AcDbSpline
 62
6
  6
CONTINUOUS
 70
0
 71
3
 72
15
 73
11
 74
9
 42
0.0000001
 43
0.0000001
 44
0.0000000001
 12
-0.0574317743
 22
0.0000001848
 32
0.0
 13
-0.0136603485
 23
-0.0557835422
 33
0.0
 40
0.0
 40
0.0
 40
0.0
 40
0.0
 40
0.1551699354
 40
0.30078759
 40
0.436594834
 40
0.5628961743
 40
0.6806067621
 40
0.7912452566
 40
0.8968881322
 40
1.0
 40
1.0
 40
1.0
 40
1.0
 10
41.2775281414
 20
17.8176395136
 30
0.0
 10
41.2745575798
 20
17.8176395231
 30
0.0
 10
41.2687929385
 20
17.8173433442
 30
0.0
 10
41.2605337324
 20
17.8159306209
 30
0.0
 10
41.2530570001
 20
17.8136004503
 30
0.0
 10
41.2464873558
 20
17.8104139605
 30
0.0
 10
41.240930722
 20
17.8064513687
 30
0.0
 10
41.2364761146
 20
17.8018072536
 30
0.0
 10
41.233197928
 20
17.7965953811
 30
0.0
 10
41.2318246514
 20
17.7928038109
 30
0.0
 10
41.2313551367
 20
17.7908864958
 30
0.0
 11
41.2775281414
 21
17.8176395136
 31
0.0
 11
41.2686297062
 21
17.8171537404
 31
0.0
 11
41.260391824
 21
17.815712072
 31
0.0
 11
41.2529559258
 21
17.8133579322
 31
0.0
 11
41.2464452479
 21
17.8101599042
 31
0.0
 11
41.2409613242
 21
17.8062066
 31
0.0
 11
41.2365834465
 21
17.8016012119
 31
0.0
 11
41.2333689772
 21
17.7964554559
 31
0.0
 11
41.2313551367
 21
17.7908864958
 31
0.0
  0
SPLINE
  5
2D0
100
AcDbEntity
  8
0
100
AcDbSpline
 62
6
  6
CONTINUOUS
 70
0
 71
3
 72
13
 73
9
 74
7
 42
0.0000001
 43
0.0000001
 44
0.0000000001
 12
-0.0773294691
 22
0.0000001832
 32
0.0
 13
-0.0540717781
 23
-0.0552819103
 33
0.0
 40
0.0
 40
0.0
 40
0.0
 40
0.0
 40
0.2720564572
 40
0.534468053
 40
0.6595190311
 40
0.7792000257
 40
0.8928527347
 40
1.0
 40
1.0
 40
1.0
 40
1.0
 10
41.9658836506
 20
17.8176395136
 30
0.0
 10
41.9588709901
 20
17.8176395302
 30
0.0
 10
41.9450629071
 20
17.8163826211
 30
0.0
 10
41.9285975596
 20
17.8117465827
 30
0.0
 10
41.9166442796
 20
17.8064095079
 30
0.0
 10
41.908609528
 20
17.8018172613
 30
0.0
 10
41.9014709737
 20
17.7966849098
 30
0.0
 10
41.8972350553
 20
17.792860931
 30
0.0
 10
41.8953038409
 20
17.7908864958
 30
0.0
 11
41.9658836506
 21
17.8176395136
 31
0.0
 11
41.9449341411
 21
17.8157121545
 31
0.0
 11
41.9254163319
 21
17.8101599971
 31
0.0
 11
41.9165912218
 21
17.8062066739
 31
0.0
 11
41.9085635883
 21
17.8016012773
 31
0.0
 11
41.901438809
 21
17.7964555187
 31
0.0
 11
41.8953038409
 21
17.7908864958
 31
0.0
  0
LINE
  5
2D1
100
AcDbEntity
  8
0
100
AcDbLine
 62
6
  6
CONTINUOUS
 10
43.3425980597
 20
17.8176395135
 11
43.3387721335
 21
17.8139919824
  0
SPLINE
  5
2D2
100
AcDbEntity
  8
0
100
AcDbSpline
 62
6
  6
CONTINUOUS
 70
0
 71
3
 72
15
 73
11
 74
9
 42
0.0000001
 43
0.0000001
 44
0.0000000001
 12
-0.0654972919
 22
0.0427315977
 32
0.0
 13
-0.0782041219
 23
-0.0000003283
 33
0.0
 40
0.0
 40
0.0
 40
0.0
 40
0.0
 40
0.1350457811
 40
0.270390474
 40
0.4043611203
 40
0.5353161589
 40
0.6616767968
 40
0.7820039856
 40
0.8950776377
 40
1.0
 40
1.0
 40
1.0
 40
1.0
 10
41.1171489109
 20
17.7908864958
 30
0.0
 10
41.1142005332
 20
17.7928100698
 30
0.0
 10
41.1082108771
 20
17.7965311574
 30
0.0
 10
41.0989999435
 20
17.8016650526
 30
0.0
 10
41.0896285186
 20
17.8062651679
 30
0.0
 10
41.0802194442
 20
17.8102204776
 30
0.0
 10
41.0709040387
 20
17.8134291632
 30
0.0
 10
41.061820188
 20
17.8158036176
 30
0.0
 10
41.0531121152
 20
17.8172753994
 30
0.0
 10
41.0474263421
 20
17.817639525
 30
0.0
 10
41.0446912217
 20
17.8176395135
 30
0.0
 11
41.1171489109
 21
17.7908864958
 31
0.0
 11
41.1081752015
 21
17.7964551716
 31
0.0
 11
41.0989255374
 21
17.8016006188
 31
0.0
 11
41.0895149775
 21
17.8062060591
 31
0.0
 11
41.0800675963
 21
17.8101594946
 31
0.0
 11
41.0707175132
 21
17.8133576728
 31
0.0
 11
41.0616066878
 21
17.8157119255
 31
0.0
 11
41.0528821874
 21
17.8171536814
 31
0.0
 11
41.0446912217
 21
17.8176395135
 31
0.0
  0
SPLINE
  5
2D3
100
AcDbEntity
  8
0
100
AcDbSpline
 62
6
  6
CONTINUOUS
 70
0
 71
3
 72
17
 73
13
 74
11
 42
0.0000001
 43
0.0000001
 44
0.0000000001
 12
-0.0237148644
 22
0.0000005932
 32
0.0
 13
-0.0187704438
 23
-0.0144936274
 33
0.0
 40
0.0
 40
0.0
 40
0.0
 40
0.0
 40
0.0182950878
 40
0.042271906
 40
0.0722846802
 40
0.1084730727
 40
0.1994260697
 40
0.314829607
 40
0.4538354255
 40
0.6152950842
 40
0.7978545805
 40
1.0
 40
1.0
 40
1.0
 40
1.0
 10
43.3350558874
 20
17.8176395136
 30
0.0
 10
43.3349112656
 20
17.8176395172
 30
0.0
 10
43.3345780103
 20
17.8175861021
 30
0.0
 10
43.3340334113
 20
17.8174112798
 30
0.0
 10
43.3333774264
 20
17.817129889
 30
0.0
 10
43.3322691213
 20
17.8165676799
 30
0.0
 10
43.3306220563
 20
17.8155826407
 30
0.0
 10
43.3283470736
 20
17.8140729164
 30
0.0
 10
43.3256638117
 20
17.8121728959
 30
0.0
 10
43.3225906853
 20
17.8099066128
 30
0.0
 10
43.3191482214
 20
17.8073008244
 30
0.0
 10
43.3167375801
 20
17.8054469014
 30
0.0
 10
43.3154727937
 20
17.8044702946
 30
0.0
 11
43.3350558874
 21
17.8176395136
 31
0.0
 11
43.3346255704
 21
17.8175841369
 31
0.0
 11
43.3340816526
 21
17.8174184043
 31
0.0
 11
43.3334253705
 21
17.8171429406
 31
0.0
 11
43.3326580345
 21
17.8167586132
 31
0.0
 11
43.3307962532
 21
17.8156695072
 31
0.0
 11
43.3285096173
 21
17.8141657596
 31
0.0
 11
43.3258144712
 21
17.8122675691
 31
0.0
 11
43.3227294194
 21
17.8099996075
 31
0.0
 11
43.3192748566
 21
17.8073901109
 31
0.0
 11
43.3154727937
 21
17.8044702946
 31
0.0
  0
SPLINE
  5
2D4
100
AcDbEntity
  8
0
100
AcDbSpline
 62
6
  6
CONTINUOUS
 70
0
 71
3
 72
15
 73
11
 74
9
 42
0.0000001
 43
0.0000001
 44
0.0000000001
 12
-0.0526140063
 22
0.00000017
 32
0.0
 13
-0.0043725483
 23
-0.0524319986
 33
0.0
 40
0.0
 40
0.0
 40
0.0
 40
0.0
 40
0.1571065514
 40
0.3025195833
 40
0.4365335766
 40
0.5602355444
 40
0.6755425218
 40
0.7851196061
 40
0.8921639204
 40
1.0
 40
1.0
 40
1.0
 40
1.0
 10
41.156673671
 20
17.8176395136
 30
0.0
 10
41.153918336
 20
17.8176395225
 30
0.0
 10
41.1486055282
 20
17.8173499558
 30
0.0
 10
41.1410557302
 20
17.815942284
 30
0.0
 10
41.1343482069
 20
17.8136119252
 30
0.0
 10
41.1285976587
 20
17.8104153353
 30
0.0
 10
41.1239045683
 20
17.80642928
 30
0.0
 10
41.1203565287
 20
17.8017514773
 30
0.0
 10
41.1180221376
 20
17.7965084467
 30
0.0
 10
41.1173060837
 20
17.7927711829
 30
0.0
 10
41.1171489109
 20
17.7908864958
 30
0.0
 11
41.156673671
 21
17.8176395136
 31
0.0
 11
41.1484219509
 21
17.8171537604
 31
0.0
 11
41.1409082439
 21
17.8157121056
 31
0.0
 11
41.1342618281
 21
17.8133579725
 31
0.0
 11
41.1285932692
 21
17.8101599355
 31
0.0
 11
41.123991434
 21
17.8062066186
 31
0.0
 11
41.1205231482
 21
17.8016012353
 31
0.0
 11
41.1182337972
 21
17.7964554956
 31
0.0
 11
41.1171489109
 21
17.7908864958
 31
0.0
  0
SPLINE
  5
2D5
100
AcDbEntity
  8
0
100
AcDbSpline
 62
6
  6
CONTINUOUS
 70
0
 71
3
 72
17
 73
13
 74
11
 42
0.0000001
 43
0.0000001
 44
0.0000000001
 12
-0.036923165
 22
0.0000005146
 32
0.0
 13
-0.0301452253
 23
-0.0213210109
 33
0.0
 40
0.0
 40
0.0
 40
0.0
 40
0.0
 40
0.0261444181
 40
0.0571031503
 40
0.0931278594
 40
0.1343287957
 40
0.2322768921
 40
0.3505029804
 40
0.4879302133
 40
0.6431294923
 40
0.8144336946
 40
1.0
 40
1.0
 40
1.0
 40
1.0
 10
43.3125127287
 20
17.8176395135
 30
0.0
 10
43.3121909505
 20
17.817639518
 30
0.0
 10
43.311488133
 20
17.8175731187
 30
0.0
 10
43.3103667399
 20
17.817328539
 30
0.0
 10
43.3090943009
 20
17.8169317204
 30
0.0
 10
43.3070818264
 20
17.8161552021
 30
0.0
 10
43.3042206604
 20
17.8147863279
 30
0.0
 10
43.3004150586
 20
17.8126724541
 30
0.0
 10
43.2960997534
 20
17.810034352
 30
0.0
 10
43.2913151842
 20
17.8069172015
 30
0.0
 10
43.2861044647
 20
17.8033714216
 30
0.0
 10
43.2825074189
 20
17.8008506902
 30
0.0
 10
43.2806427729
 20
17.7995318697
 30
0.0
 11
43.3125127287
 21
17.8176395135
 31
0.0
 11
43.311550576
 21
17.8175611987
 31
0.0
 11
43.3104317432
 21
17.8173269382
 31
0.0
 11
43.3091597755
 21
17.8169378532
 31
0.0
 11
43.3077382981
 21
17.816395948
 31
0.0
 11
43.3044618094
 21
17.8148649083
 31
0.0
 11
43.3006358756
 21
17.8127630253
 31
0.0
 11
43.2962986928
 21
17.8101292368
 31
0.0
 11
43.2914914059
 21
17.8070102572
 31
0.0
 11
43.2862575187
 21
17.8034587462
 31
0.0
 11
43.2806427729
 21
17.7995318697
 31
0.0
  0
SPLINE
  5
2D6
100
AcDbEntity
  8
0
100
AcDbSpline
 62
6
  6
CONTINUOUS
 70
0
 71
3
 72
18
 73
14
 74
12
 42
0.0000001
 43
0.0000001
 44
0.0000000001
 12
-0.0484247053
 22
0.0000004097
 32
0.0
 13
-0.0401715477
 23
-0.0270406887
 33
0.0
 40
0.0
 40
0.0
 40
0.0
 40
0.0
 40
0.0319731474
 40
0.0681790829
 40
0.1087738001
 40
0.1538194463
 40
0.2571655539
 40
0.3775692551
 40
0.4437930202
 40
0.5137776081
 40
0.6641664224
 40
0.8268901177
 40
1.0
 40
1.0
 40
1.0
 40
1.0
 10
43.2752158325
 20
17.8176395136
 30
0.0
 10
43.2746997358
 20
17.8176395179
 30
0.0
 10
43.2735988924
 20
17.8175630386
 30
0.0
 10
43.271866317
 20
17.817266634
 30
0.0
 10
43.2699581329
 20
17.8167831255
 30
0.0
 10
43.2670525629
 20
17.8158488958
 30
0.0
 10
43.2630332138
 20
17.8141991248
 30
0.0
 10
43.2588304762
 20
17.8121339818
 30
0.0
 10
43.2551797512
 20
17.8101765311
 30
0.0
 10
43.2511495901
 20
17.8079046029
 30
0.0
 10
43.2458467626
 20
17.8047213572
 30
0.0
 10
43.2392243744
 20
17.8005082863
 30
0.0
 10
43.234706885
 20
17.7975113952
 30
0.0
 10
43.2323888544
 20
17.7959510584
 30
0.0
 11
43.2752158325
 21
17.8176395136
 31
0.0
 11
43.2736705068
 21
17.8175437479
 31
0.0
 11
43.2719407911
 21
17.8172573734
 31
0.0
 11
43.2700333422
 21
17.8167820227
 31
0.0
 11
43.2679546634
 21
17.8161207659
 31
0.0
 11
43.2633102209
 21
17.8142568393
 31
0.0
 11
43.2580659499
 21
17.8117087985
 31
0.0
 11
43.2552385522
 21
17.8101955854
 31
0.0
 11
43.2522851354
 21
17.8085334978
 31
0.0
 11
43.2460335312
 21
17.8047981602
 31
0.0
 11
43.2393791213
 21
17.8005778737
 31
0.0
 11
43.2323888544
 21
17.7959510584
 31
0.0
  0
SPLINE
  5
2D7
100
AcDbEntity
  8
0
100
AcDbSpline
 62
6
  6
CONTINUOUS
 70
0
 71
3
 72
13
 73
9
 74
7
 42
0.0000001
 43
0.0000001
 44
0.0000000001
 12
-0.0626390778
 22
0.0518905254
 32
0.0
 13
-0.0813405231
 23
-0.0000002591
 33
0.0
 40
0.0
 40
0.0
 40
0.0
 40
0.0
 40
0.1135849238
 40
0.2325735349
 40
0.356016473
 40
0.4828584207
 40
0.7418384673
 40
1.0
 40
1.0
 40
1.0
 40
1.0
 10
41.754910508
 20
17.7908864958
 30
0.0
 10
41.7525388897
 20
17.7928511563
 30
0.0
 10
41.7474937974
 20
17.7966503689
 30
0.0
 10
41.7393039912
 20
17.8017798608
 30
0.0
 10
41.7303935887
 20
17.8063728094
 30
0.0
 10
41.7176258388
 20
17.8116657726
 30
0.0
 10
41.7007042517
 20
17.8163061936
 30
0.0
 10
41.6866570732
 20
17.8176395358
 30
0.0
 10
41.6796574085
 20
17.8176395135
 30
0.0
 11
41.754910508
 21
17.7908864958
 31
0.0
 11
41.7475382612
 21
17.7964551719
 31
0.0
 11
41.7393407258
 21
17.8016006195
 31
0.0
 11
41.7304182903
 21
17.80620606
 31
0.0
 11
41.7208883957
 21
17.8101594956
 31
0.0
 11
41.7005677447
 21
17.8157119263
 31
0.0
 11
41.6796574085
 21
17.8176395135
 31
0.0
  0
SPLINE
  5
2D8
100
AcDbEntity
  8
0
100
AcDbSpline
 62
6
  6
CONTINUOUS
 70
0
 71
3
 72
17
 73
13
 74
11
 42
0.0000001
 43
0.0000001
 44
0.0000000001
 12
-0.0581136442
 22
0.0000003736
 32
0.0
 13
-0.0486083638
 23
-0.0318500018
 33
0.0
 40
0.0
 40
0.0
 40
0.0
 40
0.0
 40
0.0368117284
 40
0.0773784008
 40
0.121777803
 40
0.170026684
 40
0.2778495851
 40
0.400007556
 40
0.5351084121
 40
0.6814373796
 40
0.8370645058
 40
1.0
 40
1.0
 40
1.0
 40
1.0
 10
43.2235735701
 20
17.8176395136
 30
0.0
 10
43.2228604822
 20
17.8176395181
 30
0.0
 10
43.2213610919
 20
17.8175559639
 30
0.0
 10
43.2190236922
 20
17.8172220765
 30
0.0
 10
43.2164997519
 20
17.8166755614
 30
0.0
 10
43.2127581532
 20
17.8156291292
 30
0.0
 10
43.2076871897
 20
17.8137811231
 30
0.0
 10
43.2012275969
 20
17.8108929507
 30
0.0
 10
43.194268721
 20
17.8073234279
 30
0.0
 10
43.1868979461
 20
17.8031545354
 30
0.0
 10
43.179201908
 20
17.7984757914
 30
0.0
 10
43.1740084743
 20
17.795141799
 30
0.0
 10
43.171368465
 20
17.7934119671
 30
0.0
 11
43.2235735701
 21
17.8176395136
 31
0.0
 11
43.2214370647
 21
17.8175309131
 31
0.0
 11
43.2191020531
 21
17.8172062299
 31
0.0
 11
43.2165786932
 21
17.8166675795
 31
0.0
 11
43.2138765804
 21
17.8159188848
 31
0.0
 11
43.2079753643
 21
17.8138121868
 31
0.0
 11
43.2014827644
 21
17.8109411967
 31
0.0
 11
43.1944868354
 21
17.8073777199
 31
0.0
 11
43.187076744
 21
17.803205955
 31
0.0
 11
43.1793420359
 21
17.7985188129
 31
0.0
 11
43.171368465
 21
17.7934119671
 31
0.0
  0
SPLINE
  5
2D9
100
AcDbEntity
  8
0
100
AcDbSpline
 62
6
  6
CONTINUOUS
 70
0
 71
3
 72
15
 73
11
 74
9
 42
0.0000001
 43
0.0000001
 44
0.0000000001
 12
-0.0632721677
 22
0.0408337437
 32
0.0
 13
-0.0753044609
 23
-0.0000002439
 33
0.0
 40
0.0
 40
0.0
 40
0.0
 40
0.0
 40
0.1406353933
 40
0.2801532142
 40
0.4167487442
 40
0.5486725404
 40
0.6742706386
 40
0.7920759152
 40
0.9009071556
 40
1.0
 40
1.0
 40
1.0
 40
1.0
 10
41.012241639
 20
17.7908864958
 30
0.0
 10
41.0092755369
 20
17.792800719
 30
0.0
 10
41.0032948147
 20
17.7965038816
 30
0.0
 10
40.9941768064
 20
17.8016383967
 30
0.0
 10
40.9850211933
 20
17.8062394785
 30
0.0
 10
40.975947874
 20
17.8101964777
 30
0.0
 10
40.9670830522
 20
17.8134080421
 30
0.0
 10
40.9585567371
 20
17.815787118
 30
0.0
 10
40.9505030115
 20
17.8172657908
 30
0.0
 10
40.9452811283
 20
17.8176395216
 30
0.0
 10
40.9427937505
 20
17.8176395136
 30
0.0
 11
41.012241639
 21
17.7908864958
 31
0.0
 11
41.0032334783
 21
17.7964552612
 31
0.0
 11
40.9940734425
 21
17.801600782
 31
0.0
 11
40.9848758103
 21
17.8062062741
 31
0.0
 11
40.9757618947
 21
17.8101597342
 31
0.0
 11
40.9668609228
 21
17.8133579056
 31
0.0
 11
40.9583077364
 21
17.815712116
 31
0.0
 11
40.950240059
 21
17.8171537953
 31
0.0
 11
40.9427937505
 21
17.8176395136
 31
0.0
  0
SPLINE
  5
2DA
100
AcDbEntity
  8
0
100
AcDbSpline
 62
6
  6
CONTINUOUS
 70
0
 71
3
 72
15
 73
11
 74
9
 42
0.0000001
 43
0.0000001
 44
0.0000000001
 12
-0.0658898037
 22
0.0000003414
 32
0.0
 13
-0.0553131534
 23
-0.0358039284
 33
0.0
 40
0.0
 40
0.0
 40
0.0
 40
0.0
 40
0.0853549263
 40
0.18404662
 40
0.295705693
 40
0.4192967103
 40
0.5533503221
 40
0.6961153858
 40
0.8456649225
 40
1.0
 40
1.0
 40
1.0
 40
1.0
 10
43.1581518499
 20
17.8176395136
 30
0.0
 10
43.1562771768
 20
17.8176395233
 30
0.0
 10
43.1522339761
 20
17.8172537273
 30
0.0
 10
43.145889691
 20
17.8158146413
 30
0.0
 10
43.138915976
 20
17.8135135784
 30
0.0
 10
43.1314156748
 20
17.810411414
 30
0.0
 10
43.1234920988
 20
17.8065871973
 30
0.0
 10
43.1152511758
 20
17.8021342797
 30
0.0
 10
43.1067966996
 20
17.7971553373
 30
0.0
 10
43.1011489984
 20
17.7935969114
 30
0.0
 10
43.0983034118
 20
17.7917549773
 30
0.0
 11
43.1581518499
 21
17.8176395136
 31
0.0
 11
43.1525472946
 21
17.8171720165
 31
0.0
 11
43.1461943746
 21
17.8157840298
 31
0.0
 11
43.1391955571
 21
17.8135158005
 31
0.0
 11
43.1316590291
 21
17.8104310783
 31
0.0
 11
43.1236943806
 21
17.8066124224
 31
0.0
 11
43.115410165
 21
17.802156085
 31
0.0
 11
43.1069125739
 21
17.797167286
 31
0.0
 11
43.0983034118
 21
17.7917549773
 31
0.0
  0
SPLINE
  5
2DB
100
AcDbEntity
  8
0
100
AcDbSpline
 62
6
  6
CONTINUOUS
 70
0
 71
3
 72
15
 73
11
 74
9
 42
0.0000001
 43
0.0000001
 44
0.0000000001
 12
-0.0479053297
 22
0.0000001685
 32
0.0
 13
0.0037730381
 23
-0.0477565158
 33
0.0
 40
0.0
 40
0.0
 40
0.0
 40
0.0
 40
0.1571899316
 40
0.3003965449
 40
0.4307535751
 40
0.5505336657
 40
0.6631253595
 40
0.772718364
 40
0.8837110217
 40
1.0
 40
1.0
 40
1.0
 40
1.0
 10
41.0446848919
 20
17.8176395136
 30
0.0
 10
41.0421748134
 20
17.8176395224
 30
0.0
 10
41.0373696152
 20
17.8173575346
 30
0.0
 10
41.0306070061
 20
17.8159547746
 30
0.0
 10
41.0247354705
 20
17.8136201328
 30
0.0
 10
41.0198629025
 20
17.8104026233
 30
0.0
 10
41.0160915444
 20
17.8063783149
 30
0.0
 10
41.0135092966
 20
17.801660867
 30
0.0
 10
41.0121647134
 20
17.7963995163
 30
0.0
 10
41.0120953847
 20
17.7927376813
 30
0.0
 10
41.012241639
 20
17.7908864958
 30
0.0
 11
41.0446848919
 21
17.8176395136
 31
0.0
 11
41.03717034
 21
17.8171537604
 31
0.0
 11
41.0304631669
 21
17.8157121055
 31
0.0
 11
41.0246790904
 21
17.8133579725
 31
0.0
 11
41.0199148061
 21
17.8101599355
 31
0.0
 11
41.0162455091
 21
17.8062066186
 31
0.0
 11
41.0137248189
 21
17.8016012353
 31
0.0
 11
41.0123856624
 21
17.7964554956
 31
0.0
 11
41.012241639
 21
17.7908864958
 31
0.0
  0
SPLINE
  5
2DC
100
AcDbEntity
  8
0
100
AcDbSpline
 62
6
  6
CONTINUOUS
 70
0
 71
3
 72
15
 73
11
 74
9
 42
0.0000001
 43
0.0000001
 44
0.0000000001
 12
-0.0691224515
 22
0.0000003075
 32
0.0
 13
-0.0583642917
 23
-0.0370340756
 33
0.0
 40
0.0
 40
0.0
 40
0.0
 40
0.0
 40
0.092911724
 40
0.1970508442
 40
0.3118742594
 40
0.4363399186
 40
0.5690599692
 40
0.7084199596
 40
0.8526653909
 40
1.0
 40
1.0
 40
1.0
 40
1.0
 10
43.0796673933
 20
17.8176395136
 30
0.0
 10
43.0775266313
 20
17.8176395231
 30
0.0
 10
43.0729844209
 20
17.8172783823
 30
0.0
 10
43.0659244947
 20
17.8158811697
 30
0.0
 10
43.0583269039
 20
17.8136366642
 30
0.0
 10
43.0503031014
 20
17.8106045744
 30
0.0
 10
43.0419630751
 20
17.8068618025
 30
0.0
 10
43.0334165251
 20
17.8024987056
 30
0.0
 10
43.0247689521
 20
17.797614401
 30
0.0
 10
43.0190403159
 20
17.7941020155
 30
0.0
 10
43.0161739559
 20
17.7922832151
 30
0.0
 11
43.0796673933
 21
17.8176395136
 31
0.0
 11
43.0732613541
 21
17.8171829827
 31
0.0
 11
43.0661918287
 21
17.8158272276
 31
0.0
 11
43.0585707395
 21
17.8136106987
 31
0.0
 11
43.050513494
 21
17.8105942777
 31
0.0
 11
43.0421352991
 21
17.8068570409
 31
0.0
 11
43.0335484374
 21
17.8024914196
 31
0.0
 11
43.0248609049
 21
17.7975986087
 31
0.0
 11
43.0161739559
 21
17.7922832151
 31
0.0
  0
SPLINE
  5
2DD
100
AcDbEntity
  8
0
100
AcDbSpline
 62
6
  6
CONTINUOUS
 70
0
 71
3
 72
13
 73
9
 74
7
 42
0.0000001
 43
0.0000001
 44
0.0000000001
 12
-0.0589320429
 22
0.0536407632
 32
0.0
 13
-0.0796888772
 23
-0.0000002499
 33
0.0
 40
0.0
 40
0.0
 40
0.0
 40
0.0
 40
0.1102025803
 40
0.2264487824
 40
0.3480025075
 40
0.4739827611
 40
0.7348015132
 40
1.0
 40
1.0
 40
1.0
 40
1.0
 10
5.8953038409
 20
17.7908864958
 30
0.0
 10
5.8931390199
 20
17.792856946
 30
0.0
 10
5.8884704731
 20
17.7966691982
 30
0.0
 10
5.8807650861
 20
17.8017992138
 30
0.0
 10
5.8722467692
 20
17.8063913401
 30
0.0
 10
5.859816445
 20
17.8117063888
 30
0.0
 10
5.8430318302
 20
17.8163447915
 30
0.0
 10
5.8290307607
 20
17.8176395356
 30
0.0
 10
5.8219863041
 20
17.8176395135
 30
0.0
 11
5.8953038409
 21
17.7908864958
 31
0.0
 11
5.8885132617
 21
17.7964551716
 31
0.0
 11
5.8808101878
 21
17.8016006189
 31
0.0
 11
5.8722885793
 21
17.8062060593
 31
0.0
 11
5.8630605575
 21
17.8101594948
 31
0.0
 11
5.8430315819
 21
17.8157119256
 31
0.0
 11
5.8219863041
 21
17.8176395135
 31
0.0
  0
SPLINE
  5
2DE
100
AcDbEntity
  8
0
100
AcDbSpline
 62
6
  6
CONTINUOUS
 70
0
 71
3
 72
13
 73
9
 74
7
 42
0.0000001
 43
0.0000001
 44
0.0000000001
 12
-0.0773294691
 22
0.0000001832
 32
0.0
 13
-0.0540717781
 23
-0.0552819103
 33
0.0
 40
0.0
 40
0.0
 40
0.0
 40
0.0
 40
0.2720564572
 40
0.534468053
 40
0.6595190311
 40
0.7792000257
 40
0.8928527347
 40
1.0
 40
1.0
 40
1.0
 40
1.0
 10
5.9658836506
 20
17.8176395136
 30
0.0
 10
5.9588709901
 20
17.8176395302
 30
0.0
 10
5.9450629071
 20
17.8163826211
 30
0.0
 10
5.9285975596
 20
17.8117465827
 30
0.0
 10
5.9166442796
 20
17.8064095079
 30
0.0
 10
5.908609528
 20
17.8018172613
 30
0.0
 10
5.9014709737
 20
17.7966849098
 30
0.0
 10
5.8972350553
 20
17.792860931
 30
0.0
 10
5.8953038409
 20
17.7908864958
 30
0.0
 11
5.9658836506
 21
17.8176395136
 31
0.0
 11
5.9449341411
 21
17.8157121545
 31
0.0
 11
5.9254163319
 21
17.8101599971
 31
0.0
 11
5.9165912218
 21
17.8062066739
 31
0.0
 11
5.9085635883
 21
17.8016012773
 31
0.0
 11
5.901438809
 21
17.7964555187
 31
0.0
 11
5.8953038409
 21
17.7908864958
 31
0.0
  0
SPLINE
  5
2DF
100
AcDbEntity
  8
0
100
AcDbSpline
 62
6
  6
CONTINUOUS
 70
0
 71
3
 72
13
 73
9
 74
7
 42
0.0000001
 43
0.0000001
 44
0.0000000001
 12
-0.0626390778
 22
0.0518905254
 32
0.0
 13
-0.0813405231
 23
-0.0000002591
 33
0.0
 40
0.0
 40
0.0
 40
0.0
 40
0.0
 40
0.1135849238
 40
0.2325735349
 40
0.356016473
 40
0.4828584207
 40
0.7418384673
 40
1.0
 40
1.0
 40
1.0
 40
1.0
 10
5.754910508
 20
17.7908864958
 30
0.0
 10
5.7525388897
 20
17.7928511563
 30
0.0
 10
5.7474937974
 20
17.7966503689
 30
0.0
 10
5.7393039912
 20
17.8017798608
 30
0.0
 10
5.7303935887
 20
17.8063728094
 30
0.0
 10
5.7176258388
 20
17.8116657726
 30
0.0
 10
5.7007042517
 20
17.8163061936
 30
0.0
 10
5.6866570732
 20
17.8176395358
 30
0.0
 10
5.6796574085
 20
17.8176395135
 30
0.0
 11
5.754910508
 21
17.7908864958
 31
0.0
 11
5.7475382612
 21
17.7964551719
 31
0.0
 11
5.7393407258
 21
17.8016006195
 31
0.0
 11
5.7304182903
 21
17.80620606
 31
0.0
 11
5.7208883957
 21
17.8101594956
 31
0.0
 11
5.7005677447
 21
17.8157119263
 31
0.0
 11
5.6796574085
 21
17.8176395135
 31
0.0
  0
SPLINE
  5
2E0
100
AcDbEntity
  8
0
100
AcDbSpline
 62
6
  6
CONTINUOUS
 70
0
 71
3
 72
13
 73
9
 74
7
 42
0.0000001
 43
0.0000001
 44
0.0000000001
 12
-0.0743034054
 22
0.0000001953
 32
0.0
 13
-0.0480190491
 23
-0.0567024424
 33
0.0
 40
0.0
 40
0.0
 40
0.0
 40
0.0
 40
0.2787777125
 40
0.4132008382
 40
0.5428376008
 40
0.6668743585
 40
0.7846977282
 40
1.0
 40
1.0
 40
1.0
 40
1.0
 10
5.821977835
 20
17.8176395136
 30
0.0
 10
5.8150731239
 20
17.8176395317
 30
0.0
 10
5.8048000658
 20
17.816708166
 30
0.0
 10
5.7917151339
 20
17.8135489261
 30
0.0
 10
5.7826273232
 20
17.810365257
 30
0.0
 10
5.7742904595
 20
17.806424011
 30
0.0
 10
5.7646374049
 20
17.8004853228
 30
0.0
 10
5.7583567115
 20
17.794955884
 30
0.0
 10
5.754910508
 20
17.7908864958
 30
0.0
 11
5.821977835
 21
17.8176395136
 31
0.0
 11
5.8013535673
 21
17.8157121056
 31
0.0
 11
5.7916468624
 21
17.8133579726
 31
0.0
 11
5.7825607902
 21
17.8101599356
 31
0.0
 11
5.7742353798
 21
17.8062066187
 31
0.0
 11
5.7667899232
 21
17.8016012354
 31
0.0
 11
5.754910508
 21
17.7908864958
 31
0.0
  0
SPLINE
  5
2E1
100
AcDbEntity
  8
0
100
AcDbSpline
 62
6
  6
CONTINUOUS
 70
0
 71
3
 72
15
 73
11
 74
9
 42
0.0000001
 43
0.0000001
 44
0.0000000001
 12
0.0037730369
 22
0.0477565004
 32
0.0
 13
-0.0479053143
 23
-0.0000001702
 33
0.0
 40
0.0
 40
0.0
 40
0.0
 40
0.0
 40
0.1162831617
 40
0.2272699333
 40
0.3368631225
 40
0.4494562746
 40
0.5692385687
 40
0.6995976637
 40
0.8428072534
 40
1.0
 40
1.0
 40
1.0
 40
1.0
 10
42.9195327015
 20
17.7908864958
 30
0.0
 10
42.9196789484
 20
17.7927375881
 30
0.0
 10
42.9196096892
 20
17.796399235
 30
0.0
 10
42.9182651873
 20
17.8016604057
 30
0.0
 10
42.9156831499
 20
17.8063778849
 30
0.0
 10
42.9119118218
 20
17.8104023145
 30
0.0
 10
42.9070392352
 20
17.8136199593
 30
0.0
 10
42.9011676142
 20
17.815954706
 30
0.0
 10
42.8944048884
 20
17.8173575188
 30
0.0
 10
42.8895995991
 20
17.8176395225
 30
0.0
 10
42.8870894765
 20
17.8176395136
 30
0.0
 11
42.9195327015
 21
17.7908864958
 31
0.0
 11
42.9193887414
 21
17.7964552167
 31
0.0
 11
42.9180497302
 21
17.801600701
 31
0.0
 11
42.9155291769
 21
17.8062061674
 31
0.0
 11
42.9118599208
 21
17.8101596153
 31
0.0
 11
42.9070956041
 21
17.8133577901
 31
0.0
 11
42.901311463
 21
17.8157120215
 31
0.0
 11
42.8946041597
 21
17.8171537388
 31
0.0
 11
42.8870894765
 21
17.8176395136
 31
0.0
  0
SPLINE
  5
2E2
100
AcDbEntity
  8
0
100
AcDbSpline
 62
6
  6
CONTINUOUS
 70
0
 71
3
 72
15
 73
11
 74
9
 42
0.0000001
 43
0.0000001
 44
0.0000000001
 12
-0.0753040158
 22
0.0000002943
 32
0.0
 13
-0.0632717937
 23
-0.0408335024
 33
0.0
 40
0.0
 40
0.0
 40
0.0
 40
0.0
 40
0.0990912333
 40
0.2079198791
 40
0.3257223498
 40
0.4513168687
 40
0.5832378154
 40
0.7198323491
 40
0.8593575258
 40
1.0
 40
1.0
 40
1.0
 40
1.0
 10
42.9889801452
 20
17.8176395136
 30
0.0
 10
42.9864928226
 20
17.8176395233
 30
0.0
 10
42.981271079
 20
17.8172657382
 30
0.0
 10
42.9732175784
 20
17.8157871041
 30
0.0
 10
42.964691529
 20
17.8134081084
 30
0.0
 10
42.955826968
 20
17.8101966703
 30
0.0
 10
42.9467538611
 20
17.8062397976
 30
0.0
 10
42.9375981942
 20
17.8016387613
 30
0.0
 10
42.92847994
 20
17.7965041202
 30
0.0
 10
42.9224989354
 20
17.7928008041
 30
0.0
 10
42.9195327015
 20
17.7908864958
 30
0.0
 11
42.9889801452
 21
17.8176395136
 31
0.0
 11
42.9815340047
 21
17.8171537604
 31
0.0
 11
42.9734665707
 21
17.8157121055
 31
0.0
 11
42.9649136365
 21
17.8133579724
 31
0.0
 11
42.9560129622
 21
17.8101599355
 31
0.0
 11
42.9468992824
 21
17.8062066186
 31
0.0
 11
42.9377017476
 21
17.8016012353
 31
0.0
 11
42.9285412706
 21
17.7964554956
 31
0.0
 11
42.9195327015
 21
17.7908864958
 31
0.0
  0
SPLINE
  5
2E3
100
AcDbEntity
  8
0
100
AcDbSpline
 62
6
  6
CONTINUOUS
 70
0
 71
3
 72
13
 73
9
 74
7
 42
0.0000001
 43
0.0000001
 44
0.0000000001
 12
-0.0652377334
 22
0.0500900328
 32
0.0
 13
-0.0822494574
 23
-0.0000002696
 33
0.0
 40
0.0
 40
0.0
 40
0.0
 40
0.0
 40
0.1172466101
 40
0.2391152634
 40
0.4919534009
 40
0.6206494589
 40
0.7490984431
 40
1.0
 40
1.0
 40
1.0
 40
1.0
 10
5.6168286796
 20
17.7908864958
 30
0.0
 10
5.6142790452
 20
17.7928441247
 30
0.0
 10
5.6089165657
 20
17.7966295359
 30
0.0
 10
5.5973303448
 20
17.8035516773
 30
0.0
 10
5.5846932354
 20
17.8092604349
 30
0.0
 10
5.5713541609
 20
17.8134953171
 30
0.0
 10
5.5577685311
 20
17.8166122407
 30
0.0
 10
5.5473433516
 20
17.8176395361
 30
0.0
 10
5.5404645127
 20
17.8176395135
 30
0.0
 11
5.6168286796
 21
17.7908864958
 31
0.0
 11
5.6089555377
 21
17.7964551718
 31
0.0
 11
5.6003533554
 21
17.8016006192
 31
0.0
 11
5.5814004948
 21
17.8101594952
 31
0.0
 11
5.5713100186
 21
17.8133576735
 31
0.0
 11
5.5610108076
 21
17.815711926
 31
0.0
 11
5.5404645127
 21
17.8176395135
 31
0.0
  0
SPLINE
  5
2E4
100
AcDbEntity
  8
0
100
AcDbSpline
 62
6
  6
CONTINUOUS
 70
0
 71
3
 72
13
 73
9
 74
7
 42
0.0000001
 43
0.0000001
 44
0.0000000001
 12
-0.0707049033
 22
0.000000189
 32
0.0
 13
-0.0407916784
 23
-0.0577513837
 33
0.0
 40
0.0
 40
0.0
 40
0.0
 40
0.0
 40
0.2852063073
 40
0.5497561553
 40
0.67260909
 40
0.7885510206
 40
0.8975792175
 40
1.0
 40
1.0
 40
1.0
 40
1.0
 10
5.6796490835
 20
17.8176395136
 30
0.0
 10
5.6729272554
 20
17.8176395315
 30
0.0
 10
5.6599326294
 20
17.8164578914
 30
0.0
 10
5.644632124
 20
17.8118237963
 30
0.0
 10
5.6340322927
 20
17.8064400719
 30
0.0
 10
5.6272175273
 20
17.8018418511
 30
0.0
 10
5.621436495
 20
17.7966961709
 30
0.0
 10
5.6182213181
 20
17.7928581431
 30
0.0
 10
5.6168286796
 20
17.7908864958
 30
0.0
 11
5.6796490835
 21
17.8176395136
 31
0.0
 11
5.6595759209
 21
17.8157121056
 31
0.0
 11
5.6417139679
 21
17.8101599356
 31
0.0
 11
5.6339794235
 21
17.8062066187
 31
0.0
 11
5.6271976742
 21
17.8016012354
 31
0.0
 11
5.6214576921
 21
17.7964554957
 31
0.0
 11
5.6168286796
 21
17.7908864958
 31
0.0
  0
SPLINE
  5
2E5
100
AcDbEntity
  8
0
100
AcDbSpline
 62
6
  6
CONTINUOUS
 70
0
 71
3
 72
13
 73
9
 74
7
 42
0.0000001
 43
0.0000001
 44
0.0000000001
 12
-0.0743034054
 22
0.0000001953
 32
0.0
 13
-0.0480190491
 23
-0.0567024424
 33
0.0
 40
0.0
 40
0.0
 40
0.0
 40
0.0
 40
0.2787777125
 40
0.4132008382
 40
0.5428376008
 40
0.6668743585
 40
0.7846977282
 40
1.0
 40
1.0
 40
1.0
 40
1.0
 10
41.821977835
 20
17.8176395136
 30
0.0
 10
41.8150731239
 20
17.8176395317
 30
0.0
 10
41.8048000658
 20
17.816708166
 30
0.0
 10
41.7917151339
 20
17.8135489261
 30
0.0
 10
41.7826273232
 20
17.810365257
 30
0.0
 10
41.7742904595
 20
17.806424011
 30
0.0
 10
41.7646374049
 20
17.8004853228
 30
0.0
 10
41.7583567115
 20
17.794955884
 30
0.0
 10
41.754910508
 20
17.7908864958
 30
0.0
 11
41.821977835
 21
17.8176395136
 31
0.0
 11
41.8013535673
 21
17.8157121056
 31
0.0
 11
41.7916468624
 21
17.8133579726
 31
0.0
 11
41.7825607902
 21
17.8101599356
 31
0.0
 11
41.7742353798
 21
17.8062066187
 31
0.0
 11
41.7667899232
 21
17.8016012354
 31
0.0
 11
41.754910508
 21
17.7908864958
 31
0.0
  0
SPLINE
  5
2E6
100
AcDbEntity
  8
0
100
AcDbSpline
 62
6
  6
CONTINUOUS
 70
0
 71
3
 72
13
 73
9
 74
7
 42
0.0000001
 43
0.0000001
 44
0.0000000001
 12
-0.0667713195
 22
0.0482657325
 32
0.0
 13
-0.0823892593
 23
-0.0000002813
 33
0.0
 40
0.0
 40
0.0
 40
0.0
 40
0.0
 40
0.1211912642
 40
0.2461013078
 40
0.5017543914
 40
0.6299849503
 40
0.7566428244
 40
1.0
 40
1.0
 40
1.0
 40
1.0
 10
5.482571209
 20
17.7908864958
 30
0.0
 10
5.4798738422
 20
17.7928362909
 30
0.0
 10
5.4742566016
 20
17.796606791
 30
0.0
 10
5.4623160478
 20
17.8034984203
 30
0.0
 10
5.4495059488
 20
17.8092204482
 30
0.0
 10
5.4361340606
 20
17.8134808478
 30
0.0
 10
5.4227994228
 20
17.816585946
 30
0.0
 10
5.4126159759
 20
17.8176395364
 30
0.0
 10
5.4059326368
 20
17.8176395135
 30
0.0
 11
5.482571209
 21
17.7908864958
 31
0.0
 11
5.474283432
 21
17.7964551716
 31
0.0
 11
5.4653708501
 21
17.801600619
 31
0.0
 11
5.4461251107
 21
17.8101594948
 31
0.0
 11
5.4360559949
 21
17.813357673
 31
0.0
 11
5.425889781
 21
17.8157119257
 31
0.0
 11
5.4059326368
 21
17.8176395135
 31
0.0
  0
SPLINE
  5
2E7
100
AcDbEntity
  8
0
100
AcDbSpline
 62
6
  6
CONTINUOUS
 70
0
 71
3
 72
14
 73
10
 74
8
 42
0.0000001
 43
0.0000001
 44
0.0000000001
 12
-0.0666298937
 22
0.0000001831
 32
0.0
 13
-0.0324698893
 23
-0.0581828929
 33
0.0
 40
0.0
 40
0.0
 40
0.0
 40
0.0
 40
0.2911324376
 40
0.4273103465
 40
0.5562332264
 40
0.6776587416
 40
0.791698298
 40
0.8988515512
 40
1.0
 40
1.0
 40
1.0
 40
1.0
 10
5.5404564162
 20
17.8176395136
 30
0.0
 10
5.5339903751
 20
17.8176395313
 30
0.0
 10
5.5244499086
 20
17.8167572789
 30
0.0
 10
5.512490943
 20
17.8135750668
 30
0.0
 10
5.5044929405
 20
17.8103935247
 30
0.0
 10
5.4973978626
 20
17.8064508673
 30
0.0
 10
5.4913059413
 20
17.8018445859
 30
0.0
 10
5.4863019624
 20
17.7966843327
 30
0.0
 10
5.4836659687
 20
17.7928481989
 30
0.0
 10
5.482571209
 20
17.7908864958
 30
0.0
 11
5.5404564162
 21
17.8176395136
 31
0.0
 11
5.5211542845
 21
17.8157121056
 31
0.0
 11
5.5123914758
 21
17.8133579726
 31
0.0
 11
5.504418855
 21
17.8101599356
 31
0.0
 11
5.4973599178
 21
17.8062066187
 31
0.0
 11
5.4913161782
 21
17.8016012353
 31
0.0
 11
5.4863668962
 21
17.7964554957
 31
0.0
 11
5.482571209
 21
17.7908864958
 31
0.0
  0
SPLINE
  5
2E8
100
AcDbEntity
  8
0
100
AcDbSpline
 62
6
  6
CONTINUOUS
 70
0
 71
3
 72
15
 73
11
 74
9
 42
0.0000001
 43
0.0000001
 44
0.0000000001
 12
-0.0043725938
 22
0.0524325443
 32
0.0
 13
-0.0526145539
 23
-0.000000141
 33
0.0
 40
0.0
 40
0.0
 40
0.0
 40
0.0
 40
0.1078302224
 40
0.2148683483
 40
0.3244450149
 40
0.4397532348
 40
0.5634575158
 40
0.6974738731
 40
0.8428902586
 40
1.0
 40
1.0
 40
1.0
 40
1.0
 10
42.8146254296
 20
17.7908864958
 30
0.0
 10
42.8144682637
 20
17.7927711001
 30
0.0
 10
42.8137523072
 20
17.7965082058
 30
0.0
 10
42.8114180029
 20
17.8017510945
 30
0.0
 10
42.8078701183
 20
17.8064289697
 30
0.0
 10
42.8031769695
 20
17.8104151522
 30
0.0
 10
42.7974262956
 20
17.8136118721
 30
0.0
 10
42.7907185689
 20
17.8159423087
 30
0.0
 10
42.783168532
 20
17.8173500074
 30
0.0
 10
42.7778555518
 20
17.817639521
 30
0.0
 10
42.7751001322
 20
17.8176395136
 30
0.0
 11
42.8146254296
 21
17.7908864958
 31
0.0
 11
42.8135406428
 21
17.7964552612
 31
0.0
 11
42.8112514567
 21
17.801600782
 31
0.0
 11
42.8077832521
 21
17.8062062741
 31
0.0
 11
42.8031813705
 21
17.8101597341
 31
0.0
 11
42.7975126699
 21
17.8133579055
 31
0.0
 11
42.7908660717
 21
17.815712116
 31
0.0
 11
42.7833521086
 21
17.8171537953
 31
0.0
 11
42.7751001322
 21
17.8176395136
 31
0.0
  0
SPLINE
  5
2E9
100
AcDbEntity
  8
0
100
AcDbSpline
 62
6
  6
CONTINUOUS
 70
0
 71
3
 72
15
 73
11
 74
9
 42
0.0000001
 43
0.0000001
 44
0.0000000001
 12
-0.0782046777
 22
0.0000002752
 32
0.0
 13
-0.0654977574
 23
-0.0427319014
 33
0.0
 40
0.0
 40
0.0
 40
0.0
 40
0.0
 40
0.1049198785
 40
0.2179903717
 40
0.3383145335
 40
0.4646717023
 40
0.5956242672
 40
0.7295944873
 40
0.8649468615
 40
1.0
 40
1.0
 40
1.0
 40
1.0
 10
42.8870836763
 20
17.8176395136
 30
0.0
 10
42.8843486013
 20
17.8176395232
 30
0.0
 10
42.8786629314
 20
17.817275494
 30
0.0
 10
42.8699550084
 20
17.8158037908
 30
0.0
 10
42.8608713165
 20
17.8134294669
 30
0.0
 10
42.8515560392
 20
17.8102209102
 30
0.0
 10
42.8421470241
 20
17.8062657022
 30
0.0
 10
42.8327753782
 20
17.8016655847
 30
0.0
 10
42.8235640336
 20
17.7965314887
 30
0.0
 10
42.8175739889
 20
17.7928101883
 30
0.0
 10
42.8146254296
 20
17.7908864958
 30
0.0
 11
42.8870836763
 21
17.8176395136
 31
0.0
 11
42.8788928421
 21
17.8171537604
 31
0.0
 11
42.8701685118
 21
17.8157121055
 31
0.0
 11
42.8610578308
 21
17.8133579724
 31
0.0
 11
42.851707912
 21
17.8101599355
 31
0.0
 11
42.8422606119
 21
17.8062066186
 31
0.0
 11
42.8328499783
 21
17.8016012353
 31
0.0
 11
42.8235997034
 21
17.7964554956
 31
0.0
 11
42.8146254296
 21
17.7908864958
 31
0.0
  0
SPLINE
  5
2EA
100
AcDbEntity
  8
0
100
AcDbSpline
 62
6
  6
CONTINUOUS
 70
0
 71
3
 72
14
 73
10
 74
8
 42
0.0000001
 43
0.0000001
 44
0.0000000001
 12
-0.0673088143
 22
0.0464437497
 32
0.0
 13
-0.0817771262
 23
-0.0000002339
 33
0.0
 40
0.0
 40
0.0
 40
0.0
 40
0.0
 40
0.2534154316
 40
0.3828085477
 40
0.5120463351
 40
0.6397003181
 40
0.7643948812
 40
0.8848578011
 40
1.0
 40
1.0
 40
1.0
 40
1.0
 10
5.3536090493
 20
17.7908864958
 30
0.0
 10
5.3479233519
 20
17.7948096834
 30
0.0
 10
5.338964779
 20
17.8002264217
 30
0.0
 10
5.3263960462
 20
17.8063123858
 30
0.0
 10
5.3166259727
 20
17.8102633902
 30
0.0
 10
5.306719512
 20
17.8134654936
 30
0.0
 10
5.2968241911
 20
17.8158307877
 30
0.0
 10
5.2870994099
 20
17.8172905505
 30
0.0
 10
5.2806735774
 20
17.8176395225
 30
0.0
 10
5.2775349113
 20
17.8176395136
 30
0.0
 11
5.3536090493
 21
17.7908864958
 31
0.0
 11
5.3358704888
 21
17.8016014609
 31
0.0
 11
5.3263439202
 21
17.8062069421
 31
0.0
 11
5.3165424275
 21
17.8101601752
 31
0.0
 11
5.3066051524
 21
17.8133581365
 31
0.0
 11
5.2966834348
 21
17.8157122082
 31
0.0
 11
5.2869383734
 21
17.8171537954
 31
0.0
 11
5.2775349113
 21
17.8176395136
 31
0.0
  0
SPLINE
  5
2EB
100
AcDbEntity
  8
0
100
AcDbSpline
 62
6
  6
CONTINUOUS
 70
0
 71
3
 72
15
 73
11
 74
9
 42
0.0000001
 43
0.0000001
 44
0.0000000001
 12
-0.0621679105
 22
0.0000001779
 32
0.0
 13
-0.0232716004
 23
-0.0576479116
 33
0.0
 40
0.0
 40
0.0
 40
0.0
 40
0.0
 40
0.1521721849
 40
0.2967523095
 40
0.4331153931
 40
0.5610415072
 40
0.6807613158
 40
0.7929706436
 40
0.8988472237
 40
1.0
 40
1.0
 40
1.0
 40
1.0
 10
5.4059248572
 20
17.8176395136
 30
0.0
 10
5.4027714483
 20
17.8176395226
 30
0.0
 10
5.3966162069
 20
17.8173374757
 30
0.0
 10
5.3877345227
 20
17.8159198241
 30
0.0
 10
5.3795655348
 20
17.8135878702
 30
0.0
 10
5.3722440789
 20
17.8104055751
 30
0.0
 10
5.3658844876
 20
17.8064561329
 30
0.0
 10
5.3605811095
 20
17.8018353502
 30
0.0
 10
5.3564124313
 20
17.7966529958
 30
0.0
 10
5.3543937116
 20
17.7928302446
 30
0.0
 10
5.3536090493
 20
17.7908864958
 30
0.0
 11
5.4059248572
 21
17.8176395136
 31
0.0
 11
5.3964771096
 21
17.8171537605
 31
0.0
 11
5.3876052346
 21
17.8157121056
 31
0.0
 11
5.3794612489
 21
17.8133579725
 31
0.0
 11
5.3721796855
 21
17.8101599356
 31
0.0
 11
5.3658736947
 21
17.8062066187
 31
0.0
 11
5.3606341812
 21
17.8016012353
 31
0.0
 11
5.3565298247
 21
17.7964554957
 31
0.0
 11
5.3536090493
 21
17.7908864958
 31
0.0
  0
SPLINE
  5
2EC
100
AcDbEntity
  8
0
100
AcDbSpline
 62
6
  6
CONTINUOUS
 70
0
 71
3
 72
15
 73
11
 74
9
 42
0.0000001
 43
0.0000001
 44
0.0000000001
 12
-0.0668645224
 22
0.0445995327
 32
0.0
 13
-0.0803740174
 23
-0.00000031
 33
0.0
 40
0.0
 40
0.0
 40
0.0
 40
0.0
 40
0.1300008032
 40
0.2615658821
 40
0.3931500518
 40
0.5232152975
 40
0.6502547639
 40
0.7728579198
 40
0.8897746975
 40
1.0
 40
1.0
 40
1.0
 40
1.0
 10
5.2313551367
 20
17.7908864958
 30
0.0
 10
5.2284576562
 20
17.7928191542
 30
0.0
 10
5.2225258387
 20
17.7965573554
 30
0.0
 10
5.2133223207
 20
17.8016903706
 30
0.0
 10
5.2038373547
 20
17.8062891875
 30
0.0
 10
5.1941953977
 20
17.810242457
 30
0.0
 10
5.1845314361
 20
17.8134480277
 30
0.0
 10
5.1749895633
 20
17.8158179254
 30
0.0
 10
5.1657223693
 20
17.8172834908
 30
0.0
 10
5.1596336454
 20
17.8176395249
 30
0.0
 10
5.1566805619
 20
17.8176395135
 30
0.0
 11
5.2313551367
 21
17.7908864958
 31
0.0
 11
5.2225140448
 21
17.7964551716
 31
0.0
 11
5.2132759388
 21
17.8016006188
 31
0.0
 11
5.2037554029
 21
17.8062060591
 31
0.0
 11
5.1940779203
 21
17.8101594946
 31
0.0
 11
5.1843810402
 21
17.8133576728
 31
0.0
 11
5.174812292
 21
17.8157119255
 31
0.0
 11
5.165526481
 21
17.8171536814
 31
0.0
 11
5.1566805619
 21
17.8176395135
 31
0.0
  0
SPLINE
  5
2ED
100
AcDbEntity
  8
0
100
AcDbSpline
 62
6
  6
CONTINUOUS
 70
0
 71
3
 72
15
 73
11
 74
9
 42
0.0000001
 43
0.0000001
 44
0.0000000001
 12
-0.0574317743
 22
0.0000001848
 32
0.0
 13
-0.0136603485
 23
-0.0557835422
 33
0.0
 40
0.0
 40
0.0
 40
0.0
 40
0.0
 40
0.1551699354
 40
0.30078759
 40
0.436594834
 40
0.5628961743
 40
0.6806067621
 40
0.7912452566
 40
0.8968881322
 40
1.0
 40
1.0
 40
1.0
 40
1.0
 10
5.2775281414
 20
17.8176395136
 30
0.0
 10
5.2745575798
 20
17.8176395231
 30
0.0
 10
5.2687929385
 20
17.8173433442
 30
0.0
 10
5.2605337324
 20
17.8159306209
 30
0.0
 10
5.2530570001
 20
17.8136004503
 30
0.0
 10
5.2464873558
 20
17.8104139605
 30
0.0
 10
5.240930722
 20
17.8064513687
 30
0.0
 10
5.2364761146
 20
17.8018072536
 30
0.0
 10
5.233197928
 20
17.7965953811
 30
0.0
 10
5.2318246514
 20
17.7928038109
 30
0.0
 10
5.2313551367
 20
17.7908864958
 30
0.0
 11
5.2775281414
 21
17.8176395136
 31
0.0
 11
5.2686297062
 21
17.8171537404
 31
0.0
 11
5.260391824
 21
17.815712072
 31
0.0
 11
5.2529559258
 21
17.8133579322
 31
0.0
 11
5.2464452479
 21
17.8101599042
 31
0.0
 11
5.2409613242
 21
17.8062066
 31
0.0
 11
5.2365834465
 21
17.8016012119
 31
0.0
 11
5.2333689772
 21
17.7964554559
 31
0.0
 11
5.2313551367
 21
17.7908864958
 31
0.0
  0
SPLINE
  5
2EE
100
AcDbEntity
  8
0
100
AcDbSpline
 62
6
  6
CONTINUOUS
 70
0
 71
3
 72
15
 73
11
 74
9
 42
0.0000001
 43
0.0000001
 44
0.0000000001
 12
-0.0136605399
 22
0.0557843237
 32
0.0
 13
-0.0574325789
 23
-0.0000001437
 33
0.0
 40
0.0
 40
0.0
 40
0.0
 40
0.0
 40
0.1031065348
 40
0.2087424751
 40
0.3193799481
 40
0.4370919061
 40
0.5633960205
 40
0.6992057722
 40
0.8448268104
 40
1.0
 40
1.0
 40
1.0
 40
1.0
 10
42.7004192038
 20
17.7908864958
 30
0.0
 10
42.6999497068
 20
17.7928037386
 30
0.0
 10
42.6985765455
 20
17.7965951583
 30
0.0
 10
42.695298472
 20
17.8018068973
 30
0.0
 10
42.6908439994
 20
17.8064510888
 30
0.0
 10
42.6852872617
 20
17.8104138137
 30
0.0
 10
42.6787174253
 20
17.8136004362
 30
0.0
 10
42.6712404245
 20
17.8159306781
 30
0.0
 10
42.6629809208
 20
17.8173434206
 30
0.0
 10
42.6572160685
 20
17.817639521
 30
0.0
 10
42.654245403
 20
17.8176395136
 30
0.0
 11
42.7004192038
 21
17.7908864958
 31
0.0
 11
42.6984054816
 21
17.7964552612
 31
0.0
 11
42.6951912272
 21
17.801600782
 31
0.0
 11
42.6908134148
 21
17.8062062741
 31
0.0
 11
42.6853293896
 21
17.8101597341
 31
0.0
 11
42.6788184914
 21
17.8133579055
 31
0.0
 11
42.6713823499
 21
17.8157121159
 31
0.0
 11
42.6631441534
 21
17.8171537953
 31
0.0
 11
42.654245403
 21
17.8176395136
 31
0.0
  0
SPLINE
  5
2EF
100
AcDbEntity
  8
0
100
AcDbSpline
 62
6
  6
CONTINUOUS
 70
0
 71
3
 72
15
 73
11
 74
9
 42
0.0000001
 43
0.0000001
 44
0.0000000001
 12
-0.0803746227
 22
0.0000002598
 32
0.0
 13
-0.0668650259
 23
-0.0445998686
 33
0.0
 40
0.0
 40
0.0
 40
0.0
 40
0.0
 40
0.110222785
 40
0.2271363995
 40
0.3497365966
 40
0.4767727074
 40
0.6068356234
 40
0.7384195205
 40
0.8699921055
 40
1.0
 40
1.0
 40
1.0
 40
1.0
 10
42.7750943859
 20
17.8176395136
 30
0.0
 10
42.7721413476
 20
17.8176395231
 30
0.0
 10
42.7660527271
 20
17.8172835844
 30
0.0
 10
42.7567856812
 20
17.8158180978
 30
0.0
 10
42.7472439631
 20
17.8134483304
 30
0.0
 10
42.7375801211
 20
17.8102428892
 30
0.0
 10
42.7279382112
 20
17.8062897206
 30
0.0
 10
42.7184530092
 20
17.8016909058
 30
0.0
 10
42.7092490726
 20
17.7965576882
 30
0.0
 10
42.7033168642
 20
17.7928192742
 30
0.0
 10
42.7004192038
 20
17.7908864958
 30
0.0
 11
42.7750943859
 21
17.8176395136
 31
0.0
 11
42.7662485983
 21
17.8171537604
 31
0.0
 11
42.7569629573
 21
17.8157121056
 31
0.0
 11
42.7473943481
 21
17.8133579725
 31
0.0
 11
42.7376976244
 21
17.8101599355
 31
0.0
 11
42.7280202106
 21
17.8062066186
 31
0.0
 11
42.7184995831
 21
17.8016012353
 31
0.0
 11
42.7092608582
 21
17.7964554956
 31
0.0
 11
42.7004192038
 21
17.7908864958
 31
0.0
  0
SPLINE
  5
2F0
100
AcDbEntity
  8
0
100
AcDbSpline
 62
6
  6
CONTINUOUS
 70
0
 71
3
 72
15
 73
11
 74
9
 42
0.0000001
 43
0.0000001
 44
0.0000000001
 12
-0.0654972919
 22
0.0427315977
 32
0.0
 13
-0.0782041219
 23
-0.0000003283
 33
0.0
 40
0.0
 40
0.0
 40
0.0
 40
0.0
 40
0.1350457811
 40
0.270390474
 40
0.4043611203
 40
0.5353161589
 40
0.6616767968
 40
0.7820039856
 40
0.8950776377
 40
1.0
 40
1.0
 40
1.0
 40
1.0
 10
5.1171489109
 20
17.7908864958
 30
0.0
 10
5.1142005332
 20
17.7928100698
 30
0.0
 10
5.1082108771
 20
17.7965311574
 30
0.0
 10
5.0989999435
 20
17.8016650526
 30
0.0
 10
5.0896285186
 20
17.8062651679
 30
0.0
 10
5.0802194442
 20
17.8102204776
 30
0.0
 10
5.0709040387
 20
17.8134291632
 30
0.0
 10
5.061820188
 20
17.8158036176
 30
0.0
 10
5.0531121152
 20
17.8172753994
 30
0.0
 10
5.0474263421
 20
17.817639525
 30
0.0
 10
5.0446912217
 20
17.8176395135
 30
0.0
 11
5.1171489109
 21
17.7908864958
 31
0.0
 11
5.1081752015
 21
17.7964551716
 31
0.0
 11
5.0989255374
 21
17.8016006188
 31
0.0
 11
5.0895149775
 21
17.8062060591
 31
0.0
 11
5.0800675963
 21
17.8101594946
 31
0.0
 11
5.0707175132
 21
17.8133576728
 31
0.0
 11
5.0616066878
 21
17.8157119255
 31
0.0
 11
5.0528821874
 21
17.8171536814
 31
0.0
 11
5.0446912217
 21
17.8176395135
 31
0.0
  0
SPLINE
  5
2F1
100
AcDbEntity
  8
0
100
AcDbSpline
 62
6
  6
CONTINUOUS
 70
0
 71
3
 72
15
 73
11
 74
9
 42
0.0000001
 43
0.0000001
 44
0.0000000001
 12
-0.0526140063
 22
0.00000017
 32
0.0
 13
-0.0043725483
 23
-0.0524319986
 33
0.0
 40
0.0
 40
0.0
 40
0.0
 40
0.0
 40
0.1571065514
 40
0.3025195833
 40
0.4365335766
 40
0.5602355444
 40
0.6755425218
 40
0.7851196061
 40
0.8921639204
 40
1.0
 40
1.0
 40
1.0
 40
1.0
 10
5.156673671
 20
17.8176395136
 30
0.0
 10
5.153918336
 20
17.8176395225
 30
0.0
 10
5.1486055282
 20
17.8173499558
 30
0.0
 10
5.1410557302
 20
17.815942284
 30
0.0
 10
5.1343482069
 20
17.8136119252
 30
0.0
 10
5.1285976587
 20
17.8104153353
 30
0.0
 10
5.1239045683
 20
17.80642928
 30
0.0
 10
5.1203565287
 20
17.8017514773
 30
0.0
 10
5.1180221376
 20
17.7965084467
 30
0.0
 10
5.1173060837
 20
17.7927711829
 30
0.0
 10
5.1171489109
 20
17.7908864958
 30
0.0
 11
5.156673671
 21
17.8176395136
 31
0.0
 11
5.1484219509
 21
17.8171537604
 31
0.0
 11
5.1409082439
 21
17.8157121056
 31
0.0
 11
5.1342618281
 21
17.8133579725
 31
0.0
 11
5.1285932692
 21
17.8101599355
 31
0.0
 11
5.123991434
 21
17.8062066186
 31
0.0
 11
5.1205231482
 21
17.8016012353
 31
0.0
 11
5.1182337972
 21
17.7964554956
 31
0.0
 11
5.1171489109
 21
17.7908864958
 31
0.0
  0
SPLINE
  5
2F2
100
AcDbEntity
  8
0
100
AcDbSpline
 62
6
  6
CONTINUOUS
 70
0
 71
3
 72
12
 73
8
 74
6
 42
0.0000001
 43
0.0000001
 44
0.0000000001
 12
-0.000351519
 22
0.0033627837
 32
0.0
 13
-0.0033811063
 23
-0.0000000352
 33
0.0
 40
0.0
 40
0.0
 40
0.0
 40
0.0
 40
0.250211199
 40
0.3633177785
 40
0.4746832304
 40
0.7123117606
 40
1.0
 40
1.0
 40
1.0
 40
1.0
 10
43.3148964844
 20
17.8157630461
 30
0.0
 10
43.3148671664
 20
17.8160435149
 30
0.0
 10
43.3147685824
 20
17.8164534286
 30
0.0
 10
43.3144811144
 20
17.8169093268
 30
0.0
 10
43.3141075927
 20
17.8172790461
 30
0.0
 10
43.3134356654
 20
17.817586011
 30
0.0
 10
43.3128385278
 20
17.817639517
 30
0.0
 10
43.312514293
 20
17.8176395136
 30
0.0
 11
43.3148964844
 21
17.8157630461
 31
0.0
 11
43.3146737821
 21
17.816579198
 31
0.0
 11
43.314468507
 21
17.8169018608
 31
0.0
 11
43.3142008735
 21
17.8171667259
 31
0.0
 11
43.3134797506
 21
17.8175209989
 31
0.0
 11
43.312514293
 21
17.8176395136
 31
0.0
  0
SPLINE
  5
2F3
100
AcDbEntity
  8
0
100
AcDbSpline
 62
6
  6
CONTINUOUS
 70
0
 71
3
 72
15
 73
11
 74
9
 42
0.0000001
 43
0.0000001
 44
0.0000000001
 12
-0.0006112828
 22
0.0075740407
 32
0.0
 13
-0.0075986682
 23
-0.0000000533
 33
0.0
 40
0.0
 40
0.0
 40
0.0
 40
0.0
 40
0.1299261575
 40
0.249096587
 40
0.3616798897
 40
0.4727572051
 40
0.5877260052
 40
0.71150306
 40
0.847993023
 40
1.0
 40
1.0
 40
1.0
 40
1.0
 10
43.2805067131
 20
17.8134072542
 30
0.0
 10
43.2804802392
 20
17.8137352762
 30
0.0
 10
43.2803844378
 20
17.8143622706
 30
0.0
 10
43.2800820623
 20
17.8152332165
 30
0.0
 10
43.2796255886
 20
17.815980636
 30
0.0
 10
43.279015956
 20
17.8165949983
 30
0.0
 10
43.278259865
 20
17.8170702249
 30
0.0
 10
43.2773644348
 20
17.8174049314
 30
0.0
 10
43.2763348952
 20
17.8176014363
 30
0.0
 10
43.2756030444
 20
17.8176395163
 30
0.0
 10
43.2752180275
 20
17.8176395136
 30
0.0
 11
43.2805067131
 21
17.8134072542
 31
0.0
 11
43.2803497083
 21
17.8143819557
 31
0.0
 11
43.2800461945
 21
17.8152351121
 31
0.0
 11
43.2795970156
 21
17.8159631847
 31
0.0
 11
43.2790032544
 21
17.8165630602
 31
0.0
 11
43.2782664481
 21
17.8170324327
 31
0.0
 11
43.2773882431
 21
17.8173691416
 31
0.0
 11
43.2763710907
 21
17.8175717853
 31
0.0
 11
43.2752180275
 21
17.8176395136
 31
0.0
  0
SPLINE
  5
2F4
100
AcDbEntity
  8
0
100
AcDbSpline
 62
6
  6
CONTINUOUS
 70
0
 71
3
 72
15
 73
11
 74
9
 42
0.0000001
 43
0.0000001
 44
0.0000000001
 12
-0.0632721677
 22
0.0408337437
 32
0.0
 13
-0.0753044609
 23
-0.0000002439
 33
0.0
 40
0.0
 40
0.0
 40
0.0
 40
0.0
 40
0.1406353933
 40
0.2801532142
 40
0.4167487442
 40
0.5486725404
 40
0.6742706386
 40
0.7920759152
 40
0.9009071556
 40
1.0
 40
1.0
 40
1.0
 40
1.0
 10
5.012241639
 20
17.7908864958
 30
0.0
 10
5.0092755369
 20
17.792800719
 30
0.0
 10
5.0032948147
 20
17.7965038816
 30
0.0
 10
4.9941768064
 20
17.8016383967
 30
0.0
 10
4.9850211933
 20
17.8062394785
 30
0.0
 10
4.975947874
 20
17.8101964777
 30
0.0
 10
4.9670830522
 20
17.8134080421
 30
0.0
 10
4.9585567371
 20
17.815787118
 30
0.0
 10
4.9505030115
 20
17.8172657908
 30
0.0
 10
4.9452811283
 20
17.8176395216
 30
0.0
 10
4.9427937505
 20
17.8176395136
 30
0.0
 11
5.012241639
 21
17.7908864958
 31
0.0
 11
5.0032334783
 21
17.7964552612
 31
0.0
 11
4.9940734425
 21
17.801600782
 31
0.0
 11
4.9848758103
 21
17.8062062741
 31
0.0
 11
4.9757618947
 21
17.8101597342
 31
0.0
 11
4.9668609228
 21
17.8133579056
 31
0.0
 11
4.9583077364
 21
17.815712116
 31
0.0
 11
4.950240059
 21
17.8171537953
 31
0.0
 11
4.9427937505
 21
17.8176395136
 31
0.0
  0
SPLINE
  5
2F5
100
AcDbEntity
  8
0
100
AcDbSpline
 62
6
  6
CONTINUOUS
 70
0
 71
3
 72
15
 73
11
 74
9
 42
0.0000001
 43
0.0000001
 44
0.0000000001
 12
-0.0479053297
 22
0.0000001685
 32
0.0
 13
0.0037730381
 23
-0.0477565158
 33
0.0
 40
0.0
 40
0.0
 40
0.0
 40
0.0
 40
0.1571899316
 40
0.3003965449
 40
0.4307535751
 40
0.5505336657
 40
0.6631253595
 40
0.772718364
 40
0.8837110217
 40
1.0
 40
1.0
 40
1.0
 40
1.0
 10
5.0446848919
 20
17.8176395136
 30
0.0
 10
5.0421748134
 20
17.8176395224
 30
0.0
 10
5.0373696152
 20
17.8173575346
 30
0.0
 10
5.0306070061
 20
17.8159547746
 30
0.0
 10
5.0247354705
 20
17.8136201328
 30
0.0
 10
5.0198629025
 20
17.8104026233
 30
0.0
 10
5.0160915444
 20
17.8063783149
 30
0.0
 10
5.0135092966
 20
17.801660867
 30
0.0
 10
5.0121647134
 20
17.7963995163
 30
0.0
 10
5.0120953847
 20
17.7927376813
 30
0.0
 10
5.012241639
 20
17.7908864958
 30
0.0
 11
5.0446848919
 21
17.8176395136
 31
0.0
 11
5.03717034
 21
17.8171537604
 31
0.0
 11
5.0304631669
 21
17.8157121055
 31
0.0
 11
5.0246790904
 21
17.8133579725
 31
0.0
 11
5.0199148061
 21
17.8101599355
 31
0.0
 11
5.0162455091
 21
17.8062066186
 31
0.0
 11
5.0137248189
 21
17.8016012353
 31
0.0
 11
5.0123856624
 21
17.7964554956
 31
0.0
 11
5.012241639
 21
17.7908864958
 31
0.0
  0
SPLINE
  5
2F6
100
AcDbEntity
  8
0
100
AcDbSpline
 62
6
  6
CONTINUOUS
 70
0
 71
3
 72
15
 73
11
 74
9
 42
0.0000001
 43
0.0000001
 44
0.0000000001
 12
-0.0006348645
 22
0.0134122042
 32
0.0
 13
-0.0134272214
 23
-0.0000000715
 33
0.0
 40
0.0
 40
0.0
 40
0.0
 40
0.0
 40
0.1286535282
 40
0.2470950514
 40
0.3593869366
 40
0.4705391776
 40
0.5858558443
 40
0.7101810447
 40
0.8473529716
 40
1.0
 40
1.0
 40
1.0
 40
1.0
 10
43.2327994805
 20
17.8100978052
 30
0.0
 10
43.2327722547
 20
17.810672981
 30
0.0
 10
43.2326376577
 20
17.811777001
 30
0.0
 10
43.2321442505
 20
17.8133194326
 30
0.0
 10
43.2313642968
 20
17.814651818
 30
0.0
 10
43.230301974
 20
17.8157535941
 30
0.0
 10
43.2289702613
 20
17.8166091284
 30
0.0
 10
43.2273853071
 20
17.8172144099
 30
0.0
 10
43.2255588731
 20
17.8175702802
 30
0.0
 10
43.2242596676
 20
17.8176395172
 30
0.0
 10
43.2235764591
 20
17.8176395136
 30
0.0
 11
43.2327994805
 21
17.8100978052
 31
0.0
 11
43.2325766181
 21
17.8118108284
 31
0.0
 11
43.2320805767
 21
17.81332183
 31
0.0
 11
43.2313134711
 21
17.8146198721
 31
0.0
 11
43.2302790073
 21
17.8156956689
 31
0.0
 11
43.2289817134
 21
17.8165409598
 31
0.0
 11
43.2274272883
 21
17.8171496184
 31
0.0
 11
43.225622402
 21
17.8175167043
 31
0.0
 11
43.2235764591
 21
17.8176395136
 31
0.0
  0
SPLINE
  5
2F7
100
AcDbEntity
  8
0
100
AcDbSpline
 62
6
  6
CONTINUOUS
 70
0
 71
3
 72
15
 73
11
 74
9
 42
0.0000001
 43
0.0000001
 44
0.0000000001
 12
-0.0232717546
 22
0.0576482936
 32
0.0
 13
-0.0621683224
 23
-0.0000001577
 33
0.0
 40
0.0
 40
0.0
 40
0.0
 40
0.0
 40
0.1011471484
 40
0.2070174692
 40
0.3192261769
 40
0.4389473068
 40
0.5668759206
 40
0.7032414789
 40
0.8478248907
 40
1.0
 40
1.0
 40
1.0
 40
1.0
 10
42.5781652912
 20
17.7908864958
 30
0.0
 10
42.5773806674
 20
17.7928301493
 30
0.0
 10
42.5753621091
 20
17.7966527365
 30
0.0
 10
42.5711935888
 20
17.8018349377
 30
0.0
 10
42.5658903692
 20
17.8064557942
 30
0.0
 10
42.5595307078
 20
17.8104053534
 30
0.0
 10
42.5522091081
 20
17.8135877781
 30
0.0
 10
42.5440399057
 20
17.8159198175
 30
0.0
 10
42.5351579823
 20
17.8173375057
 30
0.0
 10
42.5290025698
 20
17.8176395216
 30
0.0
 10
42.5258490794
 20
17.8176395136
 30
0.0
 11
42.5781652912
 21
17.7908864958
 31
0.0
 11
42.5752447056
 21
17.7964552472
 31
0.0
 11
42.5711406143
 21
17.8016007564
 31
0.0
 11
42.5659011791
 21
17.8062062404
 31
0.0
 11
42.5595951204
 21
17.8101596966
 31
0.0
 11
42.5523133892
 21
17.8133578691
 31
0.0
 11
42.5441692091
 21
17.8157120861
 31
0.0
 11
42.5352970727
 21
17.8171537774
 31
0.0
 11
42.5258490794
 21
17.8176395136
 31
0.0
  0
SPLINE
  5
2F8
100
AcDbEntity
  8
0
100
AcDbSpline
 62
6
  6
CONTINUOUS
 70
0
 71
3
 72
14
 73
10
 74
8
 42
0.0000001
 43
0.0000001
 44
0.0000000001
 12
-0.081775932
 22
0.0000003218
 32
0.0
 13
-0.0673078314
 23
-0.0464430714
 33
0.0
 40
0.0
 40
0.0
 40
0.0
 40
0.0
 40
0.1151415589
 40
0.235601694
 40
0.3602926073
 40
0.4879441453
 40
0.6171805399
 40
0.7465750346
 40
1.0
 40
1.0
 40
1.0
 40
1.0
 10
42.6542382316
 20
17.8176395135
 30
0.0
 10
42.6510996288
 20
17.8176395259
 30
0.0
 10
42.6446739903
 20
17.8172903999
 30
0.0
 10
42.6349495484
 20
17.8158306908
 30
0.0
 10
42.6250546121
 20
17.8134654568
 30
0.0
 10
42.6151485018
 20
17.8102634324
 30
0.0
 10
42.605378629
 20
17.8063125231
 30
0.0
 10
42.5928098289
 20
17.8002265711
 30
0.0
 10
42.5838511195
 20
17.7948097737
 30
0.0
 10
42.5781652912
 20
17.7908864958
 30
0.0
 11
42.6542382316
 21
17.8176395135
 31
0.0
 11
42.6448349652
 21
17.8171536865
 31
0.0
 11
42.6350902783
 21
17.8157121067
 31
0.0
 11
42.6251690019
 21
17.8133581137
 31
0.0
 11
42.6152320695
 21
17.8101602377
 31
0.0
 11
42.6054308219
 21
17.8062071141
 31
0.0
 11
42.595904278
 21
17.8016016778
 31
0.0
 11
42.5781652912
 21
17.7908864958
 31
0.0
  0
SPLINE
  5
2F9
100
AcDbEntity
  8
0
100
AcDbSpline
 62
6
  6
CONTINUOUS
 70
0
 71
3
 72
16
 73
12
 74
10
 42
0.0000001
 43
0.0000001
 44
0.0000000001
 12
-0.0000973427
 22
0.0208018546
 32
0.0
 13
-0.0208020824
 23
-0.0000000911
 33
0.0
 40
0.0
 40
0.0
 40
0.0
 40
0.0
 40
0.1270018594
 40
0.2444523528
 40
0.3563225093
 40
0.4675412014
 40
0.5833287298
 40
0.7083933861
 40
0.775665917
 40
0.8465446327
 40
1.0
 40
1.0
 40
1.0
 40
1.0
 10
43.1722051493
 20
17.8058433467
 30
0.0
 10
43.1722010284
 20
17.8067239715
 30
0.0
 10
43.1720603909
 20
17.8084237197
 30
0.0
 10
43.1713757104
 20
17.8108164238
 30
0.0
 10
43.1702208601
 20
17.8129017267
 30
0.0
 10
43.1686035208
 20
17.8146382339
 30
0.0
 10
43.166549492
 20
17.8159951176
 30
0.0
 10
43.1645470957
 20
17.8167793277
 30
0.0
 10
43.1627749084
 20
17.8172218835
 30
0.0
 10
43.1607785186
 20
17.8175539675
 30
0.0
 10
43.1592194635
 20
17.8176395182
 30
0.0
 10
43.1581553997
 20
17.8176395136
 30
0.0
 11
43.1722051493
 21
17.8058433467
 31
0.0
 11
43.1719660706
 21
17.8084744099
 31
0.0
 11
43.1712765778
 21
17.8108183166
 31
0.0
 11
43.1701411557
 21
17.8128496612
 31
0.0
 11
43.168567486
 21
17.8145456029
 31
0.0
 11
43.1665666263
 21
17.8158865051
 31
0.0
 11
43.1641524813
 21
17.8168561721
 31
0.0
 11
43.1627954751
 21
17.8171980479
 31
0.0
 11
43.1613415343
 21
17.8174429659
 31
0.0
 11
43.1581553997
 21
17.8176395136
 31
0.0
  0
SPLINE
  5
2FA
100
AcDbEntity
  8
0
100
AcDbSpline
 62
6
  6
CONTINUOUS
 70
0
 71
3
 72
15
 73
11
 74
9
 42
0.0000001
 43
0.0000001
 44
0.0000000001
 12
-0.0583641713
 22
0.03703411
 32
0.0
 13
-0.0691223683
 23
-0.0000003301
 33
0.0
 40
0.0
 40
0.0
 40
0.0
 40
0.0
 40
0.1473240376
 40
0.2915642663
 40
0.4309253498
 40
0.5636485321
 40
0.6881178354
 40
0.8029441854
 40
0.9070862736
 40
1.0
 40
1.0
 40
1.0
 40
1.0
 10
4.9156004575
 20
17.7922831709
 30
0.0
 10
4.912734309
 20
17.7941018424
 30
0.0
 10
4.9070059918
 20
17.7976140371
 30
0.0
 10
4.8983587391
 20
17.8024981955
 30
0.0
 10
4.8898122477
 20
17.8068613317
 30
0.0
 10
4.8814720883
 20
17.8106042236
 30
0.0
 10
4.8734481049
 20
17.8136364376
 30
0.0
 10
4.8658503276
 20
17.8158810581
 30
0.0
 10
4.8587902381
 20
17.8172783351
 30
0.0
 10
4.8542479204
 20
17.8176395238
 30
0.0
 10
4.8521071148
 20
17.8176395136
 30
0.0
 11
4.9156004575
 21
17.7922831709
 31
0.0
 11
4.9069141495
 21
17.7975981885
 31
0.0
 11
4.8982269578
 21
17.8024908473
 31
0.0
 11
4.8896400654
 21
17.8068565493
 31
0.0
 11
4.881261706
 21
17.8105939216
 31
0.0
 11
4.8732042533
 21
17.8136104779
 31
0.0
 11
4.865582993
 21
17.8158271108
 31
0.0
 11
4.8585132822
 21
17.817182942
 31
0.0
 11
4.8521071148
 21
17.8176395136
 31
0.0
  0
SPLINE
  5
2FB
100
AcDbEntity
  8
0
100
AcDbSpline
 62
6
  6
CONTINUOUS
 70
0
 71
3
 72
15
 73
11
 74
9
 42
0.0000001
 43
0.0000001
 44
0.0000000001
 12
-0.0396569302
 22
0.0000001688
 32
0.0
 13
0.0042305801
 23
-0.0394306265
 33
0.0
 40
0.0
 40
0.0
 40
0.0
 40
0.0
 40
0.1556567002
 40
0.2961953687
 40
0.4234704849
 40
0.5406403884
 40
0.6520363989
 40
0.7626605737
 40
0.8773303321
 40
1.0
 40
1.0
 40
1.0
 40
1.0
 10
4.942788766
 20
17.8176395135
 30
0.0
 10
4.9407311437
 20
17.8176395223
 30
0.0
 10
4.9368083856
 20
17.8174071527
 30
0.0
 10
4.9313096263
 20
17.8162317458
 30
0.0
 10
4.926579843
 20
17.8142618157
 30
0.0
 10
4.9226998434
 20
17.8115263837
 30
0.0
 10
4.919752612
 20
17.8080819347
 30
0.0
 10
4.9178057813
 20
17.804025082
 30
0.0
 10
4.9168829799
 20
17.7994773923
 30
0.0
 10
4.9169408262
 20
17.796315893
 30
0.0
 10
4.9171138141
 20
17.794703579
 30
0.0
 11
4.942788766
 21
17.8176395135
 31
0.0
 11
4.9366293377
 21
17.8172324158
 31
0.0
 11
4.9311889734
 21
17.8160222637
 31
0.0
 11
4.9265472717
 21
17.8140397779
 31
0.0
 11
4.9227699132
 21
17.8113337768
 31
0.0
 11
4.9199083691
 21
17.8079682211
 31
0.0
 11
4.9179992061
 21
17.8040184111
 31
0.0
 11
4.917064626
 21
17.7995680328
 31
0.0
 11
4.9171138141
 21
17.794703579
 31
0.0
  0
SPLINE
  5
2FC
100
AcDbEntity
  8
0
100
AcDbSpline
 62
6
  6
CONTINUOUS
 70
0
 71
3
 72
16
 73
12
 74
10
 42
0.0000001
 43
0.0000001
 44
0.0000000001
 12
0.0013899058
 22
0.0295703901
 32
0.0
 13
-0.0296030371
 23
-0.0000001723
 33
0.0
 40
0.0
 40
0.0
 40
0.0
 40
0.0
 40
0.1249940771
 40
0.2412024356
 40
0.3525256659
 40
0.4638262339
 40
0.5802268795
 40
0.7062669483
 40
0.7740963451
 40
0.8455389311
 40
1.0
 40
1.0
 40
1.0
 40
1.0
 10
43.099270323
 20
17.8006816626
 30
0.0
 10
43.099328233
 20
17.8019137038
 30
0.0
 10
43.0992425739
 20
17.8043087343
 30
0.0
 10
43.0984030749
 20
17.8077130473
 30
0.0
 10
43.0968495192
 20
17.8107120643
 30
0.0
 10
43.0945963874
 20
17.8132319753
 30
0.0
 10
43.0916868255
 20
17.8152151981
 30
0.0
 10
43.0888282279
 20
17.8163685305
 30
0.0
 10
43.0862906652
 20
17.8170215102
 30
0.0
 10
43.0834313159
 20
17.8175124472
 30
0.0
 10
43.081196835
 20
17.8176395224
 30
0.0
 10
43.0796726627
 20
17.8176395135
 30
0.0
 11
43.099270323
 21
17.8006816626
 31
0.0
 11
43.0991082065
 21
17.8043783138
 31
0.0
 11
43.0982606514
 21
17.8077123921
 31
0.0
 11
43.0967346908
 21
17.810633317
 31
0.0
 11
43.0945443684
 21
17.8130947037
 31
0.0
 11
43.0917108872
 21
17.8150555732
 31
0.0
 11
43.0882631408
 21
17.8164819901
 31
0.0
 11
43.0863196051
 21
17.8169865265
 31
0.0
 11
43.0842359183
 21
17.8173486392
 31
0.0
 11
43.0796726627
 21
17.8176395135
 31
0.0
  0
SPLINE
  5
2FD
100
AcDbEntity
  8
0
100
AcDbSpline
 62
6
  6
CONTINUOUS
 70
0
 71
3
 72
15
 73
11
 74
9
 42
0.0000001
 43
0.0000001
 44
0.0000000001
 12
0.0042257275
 22
0.0394285058
 32
0.0
 13
-0.0396543042
 23
-0.0000001284
 33
0.0
 40
0.0
 40
0.0
 40
0.0
 40
0.0
 40
0.1226537866
 40
0.2373187791
 40
0.34794246
 40
0.4593413358
 40
0.5765156885
 40
0.703795144
 40
0.8443393858
 40
1.0
 40
1.0
 40
1.0
 40
1.0
 10
43.0146609103
 20
17.7947068636
 30
0.0
 10
43.0148336775
 20
17.7963188822
 30
0.0
 10
43.0148910711
 20
17.7994799017
 30
0.0
 10
43.0139679256
 20
17.804026914
 30
0.0
 10
43.0120208124
 20
17.8080832627
 30
0.0
 10
43.0090734399
 20
17.8115273052
 30
0.0
 10
43.0051933901
 20
17.8142623788
 30
0.0
 10
43.0004636696
 20
17.8162320521
 30
0.0
 10
42.9949650599
 20
17.8174072576
 30
0.0
 10
42.9910424356
 20
17.8176395202
 30
0.0
 10
42.9889848978
 20
17.8176395136
 30
0.0
 11
43.0146609103
 21
17.7947068636
 31
0.0
 11
43.0147094854
 21
17.7995703716
 31
0.0
 11
43.0137745342
 21
17.8040201712
 31
0.0
 11
43.0118651138
 21
17.8079695123
 31
0.0
 11
43.0090034078
 21
17.8113346955
 31
0.0
 11
43.0052259777
 21
17.8140403714
 31
0.0
 11
43.0005843375
 21
17.8160225883
 31
0.0
 11
42.9951440802
 21
17.8172325396
 31
0.0
 11
42.9889848978
 21
17.8176395136
 31
0.0
  0
SPLINE
  5
2FE
100
AcDbEntity
  8
0
100
AcDbSpline
 62
6
  6
CONTINUOUS
 70
0
 71
3
 72
15
 73
11
 74
9
 42
0.0000001
 43
0.0000001
 44
0.0000000001
 12
-0.0552823327
 22
0.0357762606
 32
0.0
 13
-0.0658488962
 23
-0.0000004392
 33
0.0
 40
0.0
 40
0.0
 40
0.0
 40
0.0
 40
0.154329933
 40
0.3038758772
 40
0.4466348222
 40
0.5806857987
 40
0.7042761253
 40
0.8159373951
 40
0.9146370513
 40
1.0
 40
1.0
 40
1.0
 40
1.0
 10
4.8334370308
 20
17.7917769165
 30
0.0
 10
4.8305931246
 20
17.7936173658
 30
0.0
 10
4.8249487356
 20
17.7971729146
 30
0.0
 10
4.8164992795
 20
17.802147736
 30
0.0
 10
4.8082632268
 20
17.8065968633
 30
0.0
 10
4.8003443554
 20
17.8104177838
 30
0.0
 10
4.7928484096
 20
17.8135172247
 30
0.0
 10
4.7858786129
 20
17.8158162743
 30
0.0
 10
4.7795377654
 20
17.817254026
 30
0.0
 10
4.7754967287
 20
17.817639526
 30
0.0
 10
4.7736230434
 20
17.8176395135
 30
0.0
 11
4.8334370308
 21
17.7917769165
 31
0.0
 11
4.8248329599
 21
17.7971848247
 31
0.0
 11
4.8163403343
 21
17.8021695307
 31
0.0
 11
4.8080611397
 21
17.8066220235
 31
0.0
 11
4.8001011899
 21
17.8104373937
 31
0.0
 11
4.7925690663
 21
17.8135194097
 31
0.0
 11
4.7855742464
 21
17.8157856272
 31
0.0
 11
4.7792246569
 21
17.8171723997
 31
0.0
 11
4.7736230434
 21
17.8176395135
 31
0.0
  0
SPLINE
  5
2FF
100
AcDbEntity
  8
0
100
AcDbSpline
 62
6
  6
CONTINUOUS
 70
0
 71
3
 72
16
 73
12
 74
10
 42
0.0000001
 43
0.0000001
 44
0.0000000001
 12
-0.0296073216
 22
0.0000001317
 32
0.0
 13
0.0013947866
 23
-0.0295744494
 33
0.0
 40
0.0
 40
0.0
 40
0.0
 40
0.0
 40
0.1544608906
 40
0.2259016318
 40
0.2937291754
 40
0.4197656844
 40
0.536162025
 40
0.647459483
 40
0.7587825985
 40
0.8749960008
 40
1.0
 40
1.0
 40
1.0
 40
1.0
 10
4.8521023815
 20
17.8176395136
 30
0.0
 10
4.8505779904
 20
17.8176395203
 30
0.0
 10
4.8483432028
 20
17.817512485
 30
0.0
 10
4.8454834773
 20
17.817021475
 30
0.0
 10
4.8429456217
 20
17.8163683977
 30
0.0
 10
4.8400867363
 20
17.8152148218
 30
0.0
 10
4.8371769792
 20
17.8132311595
 30
0.0
 10
4.8349238307
 20
17.8107106963
 30
0.0
 10
4.8333704444
 20
17.8077110103
 30
0.0
 10
4.8325313554
 20
17.8043059175
 30
0.0
 10
4.8324460669
 20
17.8019103798
 30
0.0
 10
4.8325041849
 20
17.8006780716
 30
0.0
 11
4.8521023815
 21
17.8176395136
 31
0.0
 11
4.8475384678
 21
17.8173486428
 31
0.0
 11
4.8454545337
 21
17.8169864849
 31
0.0
 11
4.8435107753
 21
17.8164818682
 31
0.0
 11
4.8400626812
 21
17.8150551547
 31
0.0
 11
4.8372290363
 21
17.8130938694
 31
0.0
 11
4.8350387144
 21
17.8106319672
 31
0.0
 11
4.8335129263
 21
17.8077104179
 31
0.0
 11
4.8326657426
 21
17.8043755774
 31
0.0
 11
4.8325041849
 21
17.8006780716
 31
0.0
  0
SPLINE
  5
300
100
AcDbEntity
  8
0
100
AcDbSpline
 62
6
  6
CONTINUOUS
 70
0
 71
3
 72
14
 73
10
 74
8
 42
0.0000001
 43
0.0000001
 44
0.0000000001
 12
-0.0324701633
 22
0.0581833837
 32
0.0
 13
-0.0666304558
 23
-0.0000001555
 33
0.0
 40
0.0
 40
0.0
 40
0.0
 40
0.0
 40
0.1011427478
 40
0.2082896201
 40
0.3223285534
 40
0.4437554767
 40
0.5726809714
 40
0.7088614368
 40
1.0
 40
1.0
 40
1.0
 40
1.0
 10
42.4492031315
 20
17.7908864958
 30
0.0
 10
42.4481084243
 20
17.7928481049
 30
0.0
 10
42.4454726129
 20
17.7966840831
 30
0.0
 10
42.4404688063
 20
17.8018441915
 30
0.0
 10
42.4343770225
 20
17.806450552
 30
0.0
 10
42.4272818405
 20
17.8103933282
 30
0.0
 10
42.4192836533
 20
17.8135749967
 30
0.0
 10
42.4073243467
 20
17.8167573289
 30
0.0
 10
42.3977835984
 20
17.8176395287
 30
0.0
 10
42.3913173666
 20
17.8176395136
 30
0.0
 11
42.4492031315
 21
17.7908864958
 31
0.0
 11
42.4454076667
 21
17.7964552563
 31
0.0
 11
42.4404586793
 21
17.8016007731
 31
0.0
 11
42.4344149921
 21
17.8062062624
 31
0.0
 11
42.4273559485
 21
17.810159721
 31
0.0
 11
42.4193831159
 21
17.8133578928
 31
0.0
 11
42.410620073
 21
17.8157121055
 31
0.0
 11
42.3913173666
 21
17.8176395136
 31
0.0
  0
SPLINE
  5
301
100
AcDbEntity
  8
0
100
AcDbSpline
 62
6
  6
CONTINUOUS
 70
0
 71
3
 72
14
 73
10
 74
8
 42
0.0000001
 43
0.0000001
 44
0.0000000001
 12
-0.0824034515
 22
0.0000002359
 32
0.0
 13
-0.0667828215
 23
-0.0482740467
 33
0.0
 40
0.0
 40
0.0
 40
0.0
 40
0.0
 40
0.2433115254
 40
0.3699457936
 40
0.4981521732
 40
0.626596076
 40
0.7539252177
 40
0.8788219774
 40
1.0
 40
1.0
 40
1.0
 40
1.0
 10
42.5258423878
 20
17.8176395136
 30
0.0
 10
42.5191591513
 20
17.8176395327
 30
0.0
 10
42.5089755789
 20
17.8165860516
 30
0.0
 10
42.4956418636
 20
17.8134812224
 30
0.0
 10
42.4855989796
 20
17.8102819314
 30
0.0
 10
42.4758092646
 20
17.8063335183
 30
0.0
 10
42.4664074208
 20
17.8017378657
 30
0.0
 10
42.4575178905
 20
17.7966068095
 30
0.0
 10
42.4519006682
 20
17.7928364137
 30
0.0
 10
42.4492031315
 20
17.7908864958
 30
0.0
 11
42.5258423878
 21
17.8176395136
 31
0.0
 11
42.5058855357
 21
17.8157121055
 31
0.0
 11
42.4957194457
 21
17.8133579724
 31
0.0
 11
42.485650466
 21
17.8101599355
 31
0.0
 11
42.4758322677
 21
17.8062066185
 31
0.0
 11
42.4664046446
 21
17.8016012352
 31
0.0
 11
42.4574914484
 21
17.7964554956
 31
0.0
 11
42.4492031315
 21
17.7908864958
 31
0.0
  0
SPLINE
  5
302
100
AcDbEntity
  8
0
100
AcDbSpline
 62
6
  6
CONTINUOUS
 70
0
 71
3
 72
11
 73
7
 74
5
 42
0.0000001
 43
0.0000001
 44
0.0000000001
 12
0.0196959961
 22
0.0332227872
 32
0.0
 13
0.0047866641
 23
0.0383245835
 33
0.0
 40
0.0
 40
0.0
 40
0.0
 40
0.0
 40
0.2342763345
 40
0.4805488033
 40
0.7368341977
 40
1.0
 40
1.0
 40
1.0
 40
1.0
 10
42.8027919429
 20
17.7543819565
 30
0.0
 10
42.8043300448
 20
17.7569763941
 30
0.0
 10
42.8071503989
 20
17.762501411
 30
0.0
 10
42.8105215305
 20
17.7713856447
 30
0.0
 10
42.8130794161
 20
17.7809216048
 30
0.0
 10
42.8142055342
 20
17.7875245892
 30
0.0
 10
42.8146254296
 20
17.7908864958
 30
0.0
 11
42.8027919429
 21
17.7543819565
 31
0.0
 11
42.8069322151
 21
17.7624274473
 31
0.0
 11
42.8103267157
 21
17.7713127332
 31
0.0
 11
42.8129081647
 21
17.7808685343
 31
0.0
 11
42.8146254296
 21
17.7908864958
 31
0.0
  0
SPLINE
  5
303
100
AcDbEntity
  8
0
100
AcDbSpline
 62
6
  6
CONTINUOUS
 70
0
 71
3
 72
17
 73
13
 74
11
 42
0.0000001
 43
0.0000001
 44
0.0000000001
 12
-0.0485339241
 22
0.0317879498
 32
0.0
 13
-0.0580173727
 23
-0.0000004025
 33
0.0
 40
0.0
 40
0.0
 40
0.0
 40
0.0
 40
0.1629307094
 40
0.3185507394
 40
0.4648704692
 40
0.5999621134
 40
0.7221139841
 40
0.8299375057
 40
0.8781906068
 40
0.9225976798
 40
0.9631750687
 40
1.0
 40
1.0
 40
1.0
 40
1.0
 10
4.7603254402
 20
17.7934646623
 30
0.0
 10
4.7576895513
 20
17.7951910734
 30
0.0
 10
4.7525042366
 20
17.7985183646
 30
0.0
 10
4.7448202422
 20
17.8031874136
 30
0.0
 10
4.7374610836
 20
17.8073473492
 30
0.0
 10
4.7305132227
 20
17.8109089207
 30
0.0
 10
4.724063805
 20
17.8137904381
 30
0.0
 10
4.7190007785
 20
17.8156340269
 30
0.0
 10
4.7152648997
 20
17.8166779061
 30
0.0
 10
4.7127446047
 20
17.8172230974
 30
0.0
 10
4.7104104256
 20
17.8175561669
 30
0.0
 10
4.7089130574
 20
17.8176395185
 30
0.0
 10
4.7082008955
 20
17.8176395136
 30
0.0
 11
4.7603254402
 21
17.7934646623
 31
0.0
 11
4.7523642764
 21
17.7985612807
 31
0.0
 11
4.7446416788
 21
17.8032387035
 31
0.0
 11
4.7372433083
 21
17.807401479
 31
0.0
 11
4.7302585158
 21
17.8109569852
 31
0.0
 11
4.7237762244
 21
17.8138213322
 31
0.0
 11
4.7178842052
 21
17.8159230242
 31
0.0
 11
4.7151861587
 21
17.8166699157
 31
0.0
 11
4.7126664374
 21
17.8172072678
 31
0.0
 11
4.7103346323
 21
17.8175311688
 31
0.0
 11
4.7082008955
 21
17.8176395136
 31
0.0
  0
SPLINE
  5
304
100
AcDbEntity
  8
0
100
AcDbSpline
 62
6
  6
CONTINUOUS
 70
0
 71
3
 72
16
 73
12
 74
10
 42
0.0000001
 43
0.0000001
 44
0.0000000001
 12
-0.0207989524
 22
0.0000000895
 32
0.0
 13
-0.0001021705
 23
-0.0207987014
 33
0.0
 40
0.0
 40
0.0
 40
0.0
 40
0.0
 40
0.1534658859
 40
0.224338389
 40
0.2916084207
 40
0.4166813074
 40
0.5324768124
 40
0.6436962569
 40
0.7555641388
 40
0.8730078406
 40
1.0
 40
1.0
 40
1.0
 40
1.0
 10
4.7736189679
 20
17.8176395136
 30
0.0
 10
4.7725549914
 20
17.8176395182
 30
0.0
 10
4.7709961277
 20
17.8175541128
 30
0.0
 10
4.7690000438
 20
17.817221974
 30
0.0
 10
4.7672281006
 20
17.81677959
 30
0.0
 10
4.7652259049
 20
17.8159955412
 30
0.0
 10
4.7631718051
 20
17.8146392254
 30
0.0
 10
4.7615545202
 20
17.8129030798
 30
0.0
 10
4.7603995115
 20
17.8108183726
 30
0.0
 10
4.7597143586
 20
17.8084263198
 30
0.0
 10
4.7595735058
 20
17.806726961
 30
0.0
 10
4.7595691808
 20
17.805846537
 30
0.0
 11
4.7736189679
 21
17.8176395136
 31
0.0
 11
4.7704330895
 21
17.8174430618
 31
0.0
 11
4.7689794995
 21
17.8171981743
 31
0.0
 11
4.7676227343
 21
17.8168564167
 31
0.0
 11
4.7652087246
 21
17.8158870039
 31
0.0
 11
4.7632078145
 21
17.8145465299
 31
0.0
 11
4.7616341672
 21
17.8128510211
 31
0.0
 11
4.7604985838
 21
17.8108202219
 31
0.0
 11
4.7598087119
 21
17.8084769573
 31
0.0
 11
4.7595691808
 21
17.805846537
 31
0.0
  0
SPLINE
  5
305
100
AcDbEntity
  8
0
100
AcDbSpline
 62
6
  6
CONTINUOUS
 70
0
 71
3
 72
12
 73
8
 74
6
 42
0.0000001
 43
0.0000001
 44
0.0000000001
 12
0.0296784428
 22
0.0391993923
 32
0.0
 13
0.0052837777
 23
0.0488823487
 33
0.0
 40
0.0
 40
0.0
 40
0.0
 40
0.0
 40
0.1070804525
 40
0.2201302909
 40
0.4628340558
 40
0.7247182549
 40
1.0
 40
1.0
 40
1.0
 40
1.0
 10
42.6843384469
 20
17.7449885077
 30
0.0
 10
42.6853977739
 20
17.7463876706
 30
0.0
 10
42.6874355549
 20
17.7493719333
 30
0.0
 10
42.6911722693
 20
17.7559810291
 30
0.0
 10
42.6951087093
 20
17.7653476505
 30
0.0
 10
42.6985369681
 20
17.7776882826
 30
0.0
 10
42.6999343613
 20
17.7864010231
 30
0.0
 10
42.7004192038
 20
17.7908864958
 30
0.0
 11
42.6843384469
 21
17.7449885077
 31
0.0
 11
42.6873186432
 21
17.7493286581
 31
0.0
 11
42.6900644239
 21
17.754161435
 31
0.0
 11
42.6947556205
 21
17.7651336746
 31
0.0
 11
42.6982489557
 21
17.7775268227
 31
0.0
 11
42.7004192038
 21
17.7908864958
 31
0.0
  0
SPLINE
  5
306
100
AcDbEntity
  8
0
100
AcDbSpline
 62
6
  6
CONTINUOUS
 70
0
 71
3
 72
15
 73
11
 74
9
 42
0.0000001
 43
0.0000001
 44
0.0000000001
 12
0.0365949205
 22
0.041529133
 32
0.0
 13
0.0049671696
 23
0.0551287975
 33
0.0
 40
0.0
 40
0.0
 40
0.0
 40
0.0
 40
0.0966784017
 40
0.2026247878
 40
0.3175985836
 40
0.4410428652
 40
0.5721465534
 40
0.7099024899
 40
0.8530669727
 40
1.0
 40
1.0
 40
1.0
 40
1.0
 10
42.5605151133
 20
17.7392603219
 30
0.0
 10
42.5616944261
 20
17.7405986453
 30
0.0
 10
42.5639682947
 20
17.7435808739
 30
0.0
 10
42.5669789472
 20
17.7486190557
 30
0.0
 10
42.5697170849
 20
17.7543616433
 30
0.0
 10
42.5721454574
 20
17.7607393545
 30
0.0
 10
42.5742360349
 20
17.7676748149
 30
0.0
 10
42.575963157
 20
17.7750830523
 30
0.0
 10
42.5773021583
 20
17.7828669171
 30
0.0
 10
42.5779220108
 20
17.7881864154
 30
0.0
 10
42.5781652912
 20
17.7908864958
 30
0.0
 11
42.5605151133
 21
17.7392603219
 31
0.0
 11
42.563783904
 21
17.7434973021
 31
0.0
 11
42.5668157295
 21
17.7485171345
 31
0.0
 11
42.5695732416
 21
17.7542527402
 31
0.0
 11
42.5720207289
 21
17.7606322671
 31
0.0
 11
42.5741278857
 21
17.767576474
 31
0.0
 11
42.5758687305
 21
17.7750001759
 31
0.0
 11
42.5772202154
 21
17.7828085378
 31
0.0
 11
42.5781652912
 21
17.7908864958
 31
0.0
  0
SPLINE
  5
307
100
AcDbEntity
  8
0
100
AcDbSpline
 62
6
  6
CONTINUOUS
 70
0
 71
3
 72
18
 73
14
 74
12
 42
0.0000001
 43
0.0000001
 44
0.0000000001
 12
-0.0401089482
 22
0.0269910062
 32
0.0
 13
-0.0483450322
 23
-0.0000005386
 33
0.0
 40
0.0
 40
0.0
 40
0.0
 40
0.0
 40
0.1730987123
 40
0.3358149689
 40
0.4861934583
 40
0.5561735178
 40
0.6223931314
 40
0.7427920478
 40
0.8461406645
 40
0.8911917063
 40
0.9317952818
 40
0.9680131246
 40
1.0
 40
1.0
 40
1.0
 40
1.0
 10
4.6993196961
 20
17.7959953379
 30
0.0
 10
4.697005427
 20
17.7975527074
 30
0.0
 10
4.692495194
 20
17.800543861
 30
0.0
 10
4.6858833942
 20
17.8047486512
 30
0.0
 10
4.6805889792
 20
17.8079254436
 30
0.0
 10
4.6765652489
 20
17.8101926558
 30
0.0
 10
4.672920286
 20
17.812145971
 30
0.0
 10
4.6687240793
 20
17.8142067036
 30
0.0
 10
4.6647109049
 20
17.8158528201
 30
0.0
 10
4.6618096561
 20
17.8167849642
 30
0.0
 10
4.6599041109
 20
17.8172674109
 30
0.0
 10
4.6581738019
 20
17.8175631921
 30
0.0
 10
4.6570743569
 20
17.8176395193
 30
0.0
 10
4.6565588881
 20
17.8176395135
 30
0.0
 11
4.6993196961
 21
17.7959953379
 31
0.0
 11
4.6923407243
 21
17.8006132512
 31
0.0
 11
4.6856968615
 21
17.8048252895
 31
0.0
 11
4.6794552527
 21
17.8085530219
 31
0.0
 11
4.6765065417
 21
17.8102116556
 31
0.0
 11
4.6736836391
 21
17.8117216606
 31
0.0
 11
4.6684476196
 21
17.8142642037
 31
0.0
 11
4.6638102748
 21
17.816124034
 31
0.0
 11
4.6617346259
 21
17.8167838367
 31
0.0
 11
4.6598298118
 21
17.8172581556
 31
0.0
 11
4.6581023381
 21
17.8175439356
 31
0.0
 11
4.6565588881
 21
17.8176395135
 31
0.0
  0
SPLINE
  5
308
100
AcDbEntity
  8
0
100
AcDbSpline
 62
6
  6
CONTINUOUS
 70
0
 71
3
 72
15
 73
11
 74
9
 42
0.0000001
 43
0.0000001
 44
0.0000000001
 12
-0.0134264278
 22
0.0000000863
 32
0.0
 13
-0.0006353807
 23
-0.0134113853
 33
0.0
 40
0.0
 40
0.0
 40
0.0
 40
0.0
 40
0.1526488999
 40
0.289819504
 40
0.4141446811
 40
0.5294629115
 40
0.6406164179
 40
0.7529085762
 40
0.8713485427
 40
1.0
 40
1.0
 40
1.0
 40
1.0
 10
4.708197611
 20
17.8176395136
 30
0.0
 10
4.7075144345
 20
17.817639518
 30
0.0
 10
4.7062153011
 20
17.8175702838
 30
0.0
 10
4.7043889846
 20
17.8172143817
 30
0.0
 10
4.7028041204
 20
17.8166091452
 30
0.0
 10
4.7014724765
 20
17.8157536601
 30
0.0
 10
4.7004101542
 20
17.8146519895
 30
0.0
 10
4.699630229
 20
17.8133196938
 30
0.0
 10
4.6991367592
 20
17.8117774014
 30
0.0
 10
4.6990021373
 20
17.8106734648
 30
0.0
 10
4.6989748898
 20
17.8100983334
 30
0.0
 11
4.708197611
 21
17.8176395136
 31
0.0
 11
4.7061517646
 21
17.8175166993
 31
0.0
 11
4.7043470091
 21
17.8171496053
 31
0.0
 11
4.702792676
 21
17.8165409832
 31
0.0
 11
4.7014954321
 21
17.8156957448
 31
0.0
 11
4.7004609805
 21
17.8146200351
 31
0.0
 11
4.6996938839
 21
17.8133220869
 31
0.0
 11
4.6991978039
 21
17.8118112188
 31
0.0
 11
4.6989748898
 21
17.8100983334
 31
0.0
  0
SPLINE
  5
309
100
AcDbEntity
  8
0
100
AcDbSpline
 62
6
  6
CONTINUOUS
 70
0
 71
3
 72
15
 73
11
 74
9
 42
0.0000001
 43
0.0000001
 44
0.0000000001
 12
0.0410065715
 22
0.0420962295
 32
0.0
 13
0.0041692236
 23
0.0586195276
 33
0.0
 40
0.0
 40
0.0
 40
0.0
 40
0.0
 40
0.0841432995
 40
0.1813902921
 40
0.2917786434
 40
0.4145204937
 40
0.5484276374
 40
0.6919495864
 40
0.8432723846
 40
1.0
 40
1.0
 40
1.0
 40
1.0
 10
42.4322598488
 20
17.7355671428
 30
0.0
 10
42.4334099915
 20
17.736747848
 30
0.0
 10
42.4356249089
 20
17.7395524349
 30
0.0
 10
42.4385029861
 20
17.7445047535
 30
0.0
 10
42.4411311934
 20
17.7504304841
 30
0.0
 10
42.4434736898
 20
17.7572355766
 30
0.0
 10
42.4454884929
 20
17.7648171919
 30
0.0
 10
42.4471468183
 20
17.7730554896
 30
0.0
 10
42.4484160782
 20
17.7818137564
 30
0.0
 10
42.4489853206
 20
17.7878240629
 30
0.0
 10
42.4492031315
 20
17.7908864958
 30
0.0
 11
42.4322598488
 21
17.7355671428
 31
0.0
 11
42.4353732984
 21
17.7394088182
 31
0.0
 11
42.4382864256
 21
17.744325586
 31
0.0
 11
42.4409506995
 21
17.7502404972
 31
0.0
 11
42.4433233419
 21
17.7570523593
 31
0.0
 11
42.445364653
 21
17.7646523948
 31
0.0
 11
42.4470427988
 21
17.7729182055
 31
0.0
 11
42.4483293128
 21
17.7817175333
 31
0.0
 11
42.4492031315
 21
17.7908864958
 31
0.0
  0
SPLINE
  5
30A
100
AcDbEntity
  8
0
100
AcDbSpline
 62
6
  6
CONTINUOUS
 70
0
 71
3
 72
13
 73
9
 74
7
 42
0.0000001
 43
0.0000001
 44
0.0000000001
 12
-0.0407913881
 22
0.0577509726
 32
0.0
 13
-0.0707044
 23
-0.0000002142
 33
0.0
 40
0.0
 40
0.0
 40
0.0
 40
0.0
 40
0.1024151978
 40
0.2114370313
 40
0.3273784323
 40
0.4502328442
 40
0.7147878051
 40
1.0
 40
1.0
 40
1.0
 40
1.0
 10
42.3149456609
 20
17.7908864958
 30
0.0
 10
42.3135531082
 20
17.7928580216
 30
0.0
 10
42.3103381856
 20
17.7966958451
 30
0.0
 10
42.3045574449
 20
17.8018413242
 30
0.0
 10
42.297742932
 20
17.8064395823
 30
0.0
 10
42.2871431072
 20
17.811823459
 30
0.0
 10
42.2718424759
 20
17.81645776
 30
0.0
 10
42.2588476836
 20
17.8176395339
 30
0.0
 10
42.2521257645
 20
17.8176395135
 30
0.0
 11
42.3149456609
 21
17.7908864958
 31
0.0
 11
42.3103169745
 21
17.7964551863
 31
0.0
 11
42.304577419
 21
17.8016006456
 31
0.0
 11
42.29779583
 21
17.8062060944
 31
0.0
 11
42.2900613004
 21
17.8101595339
 31
0.0
 11
42.2721991869
 21
17.8157119568
 31
0.0
 11
42.2521257645
 21
17.8176395135
 31
0.0
  0
SPLINE
  5
30B
100
AcDbEntity
  8
0
100
AcDbSpline
 62
6
  6
CONTINUOUS
 70
0
 71
3
 72
18
 73
14
 74
12
 42
0.0000001
 43
0.0000001
 44
0.0000000001
 12
0.0435257703
 22
0.0417278862
 32
0.0
 13
0.0030931595
 23
0.0602174521
 33
0.0
 40
0.0
 40
0.0
 40
0.0
 40
0.0
 40
0.032338304
 40
0.0689633753
 40
0.1100788538
 40
0.1557502111
 40
0.2059668551
 40
0.2606483095
 40
0.382644389
 40
0.5200051536
 40
0.6705150939
 40
0.8316064504
 40
1.0
 40
1.0
 40
1.0
 40
1.0
 10
42.3007031863
 20
17.7331882786
 30
0.0
 10
42.3011723695
 20
17.7336380816
 30
0.0
 10
42.3020971479
 20
17.7346772329
 30
0.0
 10
42.3033685535
 20
17.736491996
 30
0.0
 10
42.304603695
 20
17.7386462945
 30
0.0
 10
42.3057969367
 20
17.7411300819
 30
0.0
 10
42.3069424779
 20
17.7439328432
 30
0.0
 10
42.3084527947
 20
17.7482374421
 30
0.0
 10
42.3101509497
 20
17.7543234778
 30
0.0
 10
42.3118518074
 20
17.7623880266
 30
0.0
 10
42.3132483986
 20
17.7713066963
 30
0.0
 10
42.3143088257
 20
17.7808983751
 30
0.0
 10
42.3147720382
 20
17.787506419
 30
0.0
 10
42.3149456609
 20
17.7908864958
 30
0.0
 11
42.3007031863
 21
17.7331882786
 31
0.0
 11
42.3020114622
 21
17.7346341398
 31
0.0
 11
42.3032900884
 21
17.7364347065
 31
0.0
 11
42.3045328014
 21
17.7385798795
 31
0.0
 11
42.3057333877
 21
17.7410582297
 31
0.0
 11
42.3068856338
 21
17.7438583258
 31
0.0
 11
42.3079835783
 21
17.7469672664
 31
0.0
 11
42.3099956934
 21
17.7540427035
 31
0.0
 11
42.3117291371
 21
17.7621416948
 31
0.0
 11
42.3131499469
 21
17.7711050591
 31
0.0
 11
42.3142294188
 21
17.7807581902
 31
0.0
 11
42.3149456609
 21
17.7908864958
 31
0.0
  0
SPLINE
  5
30C
100
AcDbEntity
  8
0
100
AcDbSpline
 62
6
  6
CONTINUOUS
 70
0
 71
3
 72
17
 73
13
 74
11
 42
0.0000001
 43
0.0000001
 44
0.0000000001
 12
-0.0301104496
 22
0.021293822
 32
0.0
 13
-0.0368790731
 23
-0.0000003844
 33
0.0
 40
0.0
 40
0.0
 40
0.0
 40
0.0
 40
0.1855627065
 40
0.3568617807
 40
0.5120554585
 40
0.6494774166
 40
0.7676998704
 40
0.8656487228
 40
0.9068527697
 40
0.9428819385
 40
0.9738469007
 40
1.0
 40
1.0
 40
1.0
 40
1.0
 10
4.6510953844
 20
17.7995574614
 30
0.0
 10
4.6492329256
 20
17.8008745745
 30
0.0
 10
4.6456400928
 20
17.803391992
 30
0.0
 10
4.640435435
 20
17.8069329894
 30
0.0
 10
4.6356564193
 20
17.810045813
 30
0.0
 10
4.6313460884
 20
17.8126801323
 30
0.0
 10
4.6275448067
 20
17.8147908758
 30
0.0
 10
4.6246868252
 20
17.8161576365
 30
0.0
 10
4.6226765315
 20
17.8169329372
 30
0.0
 10
4.6214053768
 20
17.817329098
 30
0.0
 10
4.6202850495
 20
17.8175732495
 30
0.0
 10
4.6195828868
 20
17.8176395169
 30
0.0
 10
4.6192613861
 20
17.8176395136
 30
0.0
 11
4.6510953844
 21
17.7995574614
 31
0.0
 11
4.6454871879
 21
17.8034791944
 31
0.0
 11
4.6402594005
 21
17.8070259061
 31
0.0
 11
4.6354577002
 21
17.8101405442
 31
0.0
 11
4.631125532
 21
17.8127705415
 31
0.0
 11
4.6273039755
 21
17.8148692876
 31
0.0
 11
4.6240311249
 21
17.8163979772
 31
0.0
 11
4.6226111475
 21
17.8169390395
 31
0.0
 11
4.6213404726
 21
17.817327483
 31
0.0
 11
4.6202227147
 21
17.8175613374
 31
0.0
 11
4.6192613861
 21
17.8176395136
 31
0.0
  0
SPLINE
  5
30D
100
AcDbEntity
  8
0
100
AcDbSpline
 62
6
  6
CONTINUOUS
 70
0
 71
3
 72
15
 73
11
 74
9
 42
0.0000001
 43
0.0000001
 44
0.0000000001
 12
-0.0075985252
 22
0.0000000643
 32
0.0
 13
-0.0006110829
 23
-0.0075739133
 33
0.0
 40
0.0
 40
0.0
 40
0.0
 40
0.0
 40
0.152008337
 40
0.288496243
 40
0.4122702607
 40
0.5272379867
 40
0.638315739
 40
0.7509008105
 40
0.8700715637
 40
1.0
 40
1.0
 40
1.0
 40
1.0
 10
4.6565561076
 20
17.8176395136
 30
0.0
 10
4.6561710946
 20
17.8176395168
 30
0.0
 10
4.6554392592
 20
17.8176014331
 30
0.0
 10
4.654409751
 20
17.8174049074
 30
0.0
 10
4.6535143729
 20
17.8170701599
 30
0.0
 10
4.6527583125
 20
17.8165949377
 30
0.0
 10
4.6521486993
 20
17.8159805726
 30
0.0
 10
4.6516922554
 20
17.8152331486
 30
0.0
 10
4.6513898702
 20
17.8143622132
 30
0.0
 10
4.6512940904
 20
17.8137352191
 30
0.0
 10
4.6512676248
 20
17.8134071968
 30
0.0
 11
4.6565561076
 21
17.8176395136
 31
0.0
 11
4.6554030563
 21
17.8175717775
 31
0.0
 11
4.6543859442
 21
17.8173691118
 31
0.0
 11
4.6535077927
 21
17.8170323771
 31
0.0
 11
4.6527710172
 21
17.8165630021
 31
0.0
 11
4.6521772765
 21
17.8159631241
 31
0.0
 11
4.651728115
 21
17.8152350438
 31
0.0
 11
4.6514246075
 21
17.8143819007
 31
0.0
 11
4.6512676248
 21
17.8134071968
 31
0.0
  0
SPLINE
  5
30E
100
AcDbEntity
  8
0
100
AcDbSpline
 62
6
  6
CONTINUOUS
 70
0
 71
3
 72
19
 73
15
 74
13
 42
0.0000001
 43
0.0000001
 44
0.0000000001
 12
0.0445403054
 22
0.0409816839
 32
0.0
 13
0.0018782154
 23
0.0604963596
 33
0.0
 40
0.0
 40
0.0
 40
0.0
 40
0.0
 40
0.0224258258
 40
0.0505003774
 40
0.0846276654
 40
0.1248974528
 40
0.1712354708
 40
0.2235036138
 40
0.2814914909
 40
0.3448852565
 40
0.4865118995
 40
0.6453655521
 40
0.8179612992
 40
1.0
 40
1.0
 40
1.0
 40
1.0
 10
42.1671097192
 20
17.7317562726
 30
0.0
 10
42.1674426703
 20
17.7320626219
 30
0.0
 10
42.1680906493
 20
17.7328612048
 30
0.0
 10
42.1689415333
 20
17.7343450553
 30
0.0
 10
42.1697738969
 20
17.7362409461
 30
0.0
 10
42.1705829999
 20
17.7385400435
 30
0.0
 10
42.1713647486
 20
17.7412318296
 30
0.0
 10
42.17211319
 20
17.7443020016
 30
0.0
 10
42.1728232208
 20
17.7477333162
 30
0.0
 10
42.1737482341
 20
17.7529588945
 30
0.0
 10
42.1747555657
 20
17.7602332645
 30
0.0
 10
42.1757156117
 20
17.7697308475
 30
0.0
 10
42.1764402959
 20
17.7800665857
 30
0.0
 10
42.1767498632
 20
17.7872156029
 30
0.0
 10
42.1768638325
 20
17.7908864958
 30
0.0
 11
42.1671097192
 21
17.7317562726
 31
0.0
 11
42.1679905169
 21
17.7327890128
 31
0.0
 11
42.1688562008
 21
17.73425119
 31
0.0
 11
42.1697017505
 21
17.7361357672
 31
0.0
 11
42.1705222548
 21
17.7384308587
 31
0.0
 11
42.1713128663
 21
17.7411217497
 31
0.0
 11
42.1720687397
 21
17.7441936777
 31
0.0
 11
42.172785276
 21
17.7476295024
 31
0.0
 11
42.1734584093
 21
17.7514069353
 31
0.0
 11
42.1746585456
 21
17.7598945309
 31
0.0
 11
42.1756406678
 21
17.7694589366
 31
0.0
 11
42.1763817453
 21
17.7798790626
 31
0.0
 11
42.1768638325
 21
17.7908864958
 31
0.0
  0
SPLINE
  5
30F
100
AcDbEntity
  8
0
100
AcDbSpline
 62
6
  6
CONTINUOUS
 70
0
 71
3
 72
23
 73
19
 74
17
 42
0.0000001
 43
0.0000001
 44
0.0000000001
 12
-0.0447085756
 22
0.0401205746
 32
0.0
 13
-0.0006239142
 23
0.0600676949
 33
0.0
 40
0.0
 40
0.0
 40
0.0
 40
0.0
 40
0.0043952543
 40
0.0106102301
 40
0.0187783559
 40
0.0289458986
 40
0.0411275865
 40
0.0553244031
 40
0.0897241605
 40
0.1319519466
 40
0.1817280172
 40
0.2387575916
 40
0.3026613771
 40
0.3729724068
 40
0.4492173612
 40
0.6174430821
 40
0.8028447284
 40
1.0
 40
1.0
 40
1.0
 40
1.0
 10
41.8989379769
 20
17.7310810585
 30
0.0
 10
41.8988724751
 20
17.7311398386
 30
0.0
 10
41.8987496356
 20
17.7313181385
 30
0.0
 10
41.8985951338
 20
17.7316607636
 30
0.0
 10
41.8984393919
 20
17.732128053
 30
0.0
 10
41.8982839302
 20
17.7327191178
 30
0.0
 10
41.8981289856
 20
17.7334345422
 30
0.0
 10
41.8979097709
 20
17.7346317668
 30
0.0
 10
41.8976497642
 20
17.7364322763
 30
0.0
 10
41.8973610411
 20
17.7389469839
 30
0.0
 10
41.8970826839
 20
17.7419183519
 30
0.0
 10
41.8968172191
 20
17.7453263517
 30
0.0
 10
41.8965669021
 20
17.7491476513
 30
0.0
 10
41.8963333259
 20
17.7533554028
 30
0.0
 10
41.8960371663
 20
17.7596515787
 30
0.0
 10
41.8957285202
 20
17.7682539277
 30
0.0
 10
41.8954580365
 20
17.7792794601
 30
0.0
 10
41.8953448436
 20
17.7869389416
 30
0.0
 10
41.8953038409
 20
17.7908864958
 30
0.0
 11
41.8989379769
 21
17.7310810585
 31
0.0
 11
41.8987768024
 21
17.731290183
 31
0.0
 11
41.898616263
 21
17.731627243
 31
0.0
 11
41.8984566222
 21
17.7320912137
 31
0.0
 11
41.8982981433
 21
17.7326810688
 31
0.0
 11
41.8981410896
 21
17.7333957819
 31
0.0
 11
41.8979857246
 21
17.7342343264
 31
0.0
 11
41.8976811091
 21
17.7362781767
 31
0.0
 11
41.8973863527
 21
17.738797656
 31
0.0
 11
41.8971034852
 21
17.7417743412
 31
0.0
 11
41.8968345298
 21
17.7451895871
 31
0.0
 11
41.8965813448
 21
17.7490199888
 31
0.0
 11
41.8963456122
 21
17.7532370545
 31
0.0
 11
41.8961290047
 21
17.7578120353
 31
0.0
 11
41.8957590111
 21
17.7679107361
 31
0.0
 11
41.8954813482
 21
17.7790445246
 31
0.0
 11
41.8953038409
 21
17.7908864958
 31
0.0
  0
SPLINE
  5
310
100
AcDbEntity
  8
0
100
AcDbSpline
 62
6
  6
CONTINUOUS
 70
0
 71
3
 72
23
 73
19
 74
17
 42
0.0000001
 43
0.0000001
 44
0.0000000001
 12
0.0447055658
 22
0.0401238743
 32
0.0
 13
0.0006239138
 23
0.0600676588
 33
0.0
 40
0.0
 40
0.0
 40
0.0
 40
0.0
 40
0.004395513
 40
0.0106107656
 40
0.0187791607
 40
0.0289469568
 40
0.0411288791
 40
0.0553259097
 40
0.0897260293
 40
0.1319540836
 40
0.1817303309
 40
0.2387599939
 40
0.3026637791
 40
0.3729747251
 40
0.4492195196
 40
0.6174447164
 40
0.8028456193
 40
1.0
 40
1.0
 40
1.0
 40
1.0
 10
42.0328363907
 20
17.7310810829
 30
0.0
 10
42.032901892
 20
17.7311398712
 30
0.0
 10
42.0330247296
 20
17.7313181842
 30
0.0
 10
42.033179231
 20
17.731660827
 30
0.0
 10
42.033334972
 20
17.7321281331
 30
0.0
 10
42.033490433
 20
17.7327192135
 30
0.0
 10
42.0336453767
 20
17.7334346519
 30
0.0
 10
42.0338645896
 20
17.7346318926
 30
0.0
 10
42.0341245944
 20
17.7364324183
 30
0.0
 10
42.0344133155
 20
17.7389471409
 30
0.0
 10
42.0346916707
 20
17.741918518
 30
0.0
 10
42.0349571334
 20
17.7453265212
 30
0.0
 10
42.0352074484
 20
17.7491478187
 30
0.0
 10
42.0354410227
 20
17.7533555629
 30
0.0
 10
42.0357371798
 20
17.7596517198
 30
0.0
 10
42.0360458233
 20
17.768254035
 30
0.0
 10
42.0363163049
 20
17.7792795176
 30
0.0
 10
42.0364294971
 20
17.7869389618
 30
0.0
 10
42.0364704996
 20
17.7908864958
 30
0.0
 11
42.0328363907
 21
17.7310810829
 31
0.0
 11
42.0329975643
 21
17.7312902275
 31
0.0
 11
42.0331581027
 21
17.7316273061
 31
0.0
 11
42.0333177425
 21
17.732091294
 31
0.0
 11
42.0334762204
 21
17.7326811647
 31
0.0
 11
42.033633273
 21
17.733395892
 31
0.0
 11
42.033788637
 21
17.7342344492
 31
0.0
 11
42.0340932503
 21
17.7362783206
 31
0.0
 11
42.0343880045
 21
17.7387978148
 31
0.0
 11
42.0346708698
 21
17.7417745091
 31
0.0
 11
42.034939823
 21
17.7451897585
 31
0.0
 11
42.035193006
 21
17.7490201579
 31
0.0
 11
42.0354287366
 21
17.7532372162
 31
0.0
 11
42.0356453423
 21
17.7578121847
 31
0.0
 11
42.0360153328
 21
17.767910848
 31
0.0
 11
42.0362929934
 21
17.7790445852
 31
0.0
 11
42.0364704996
 21
17.7908864958
 31
0.0
  0
SPLINE
  5
311
100
AcDbEntity
  8
0
100
AcDbSpline
 62
6
  6
CONTINUOUS
 70
0
 71
3
 72
13
 73
9
 74
7
 42
0.0000001
 43
0.0000001
 44
0.0000000001
 12
-0.0822501653
 22
0.0000002261
 32
0.0
 13
-0.0652382949
 23
-0.0500904639
 33
0.0
 40
0.0
 40
0.0
 40
0.0
 40
0.0
 40
0.2508957696
 40
0.3793419682
 40
0.5080349623
 40
0.7608712632
 40
0.8827469686
 40
1.0
 40
1.0
 40
1.0
 40
1.0
 10
42.3913105377
 20
17.8176395136
 30
0.0
 10
42.3844317982
 20
17.8176395325
 30
0.0
 10
42.3740067588
 20
17.8166123874
 30
0.0
 10
42.3604212957
 20
17.8134956144
 30
0.0
 10
42.3470822714
 20
17.8092608799
 30
0.0
 10
42.3344449323
 20
17.8035521905
 30
0.0
 10
42.3228583079
 20
17.7966298739
 30
0.0
 10
42.3174954568
 20
17.7928442487
 30
0.0
 10
42.3149456609
 20
17.7908864958
 30
0.0
 11
42.3913105377
 21
17.8176395136
 31
0.0
 11
42.3707645256
 21
17.8157121055
 31
0.0
 11
42.3604654291
 21
17.8133579724
 31
0.0
 11
42.3503750769
 21
17.8101599355
 31
0.0
 11
42.3314221063
 21
17.8016012353
 31
0.0
 11
42.3228193223
 21
17.7964554956
 31
0.0
 11
42.3149456609
 21
17.7908864958
 31
0.0
  0
SPLINE
  5
312
100
AcDbEntity
  8
0
100
AcDbSpline
 62
6
  6
CONTINUOUS
 70
0
 71
3
 72
19
 73
15
 74
13
 42
0.0000001
 43
0.0000001
 44
0.0000000001
 12
-0.0445378553
 22
0.0409839855
 32
0.0
 13
-0.0018782078
 23
0.0604961153
 33
0.0
 40
0.0
 40
0.0
 40
0.0
 40
0.0
 40
0.0224266778
 40
0.0505020765
 40
0.0846301237
 40
0.1249005352
 40
0.1712390301
 40
0.2235075005
 40
0.2814955477
 40
0.3448893296
 40
0.4865155844
 40
0.6453683545
 40
0.8179628315
 40
1.0
 40
1.0
 40
1.0
 40
1.0
 10
41.7646644406
 20
17.7317564388
 30
0.0
 10
41.7643314953
 20
17.732062817
 30
0.0
 10
41.7636835295
 20
17.7328614472
 30
0.0
 10
41.762832659
 20
17.7343453542
 30
0.0
 10
41.7620003096
 20
17.7362412907
 30
0.0
 10
41.7611912205
 20
17.7385404223
 30
0.0
 10
41.760409486
 20
17.7412322306
 30
0.0
 10
41.7596610587
 20
17.7443024131
 30
0.0
 10
41.7589510416
 20
17.7477337266
 30
0.0
 10
41.7580260475
 20
17.7529592824
 30
0.0
 10
41.7570187364
 20
17.7602335996
 30
0.0
 10
41.7560587091
 20
17.7697310942
 30
0.0
 10
41.7553340385
 20
17.7800667168
 30
0.0
 10
41.7550244759
 20
17.7872156486
 30
0.0
 10
41.754910508
 20
17.7908864958
 30
0.0
 11
41.7646644406
 21
17.7317564388
 31
0.0
 11
41.7637836566
 21
17.7327892513
 31
0.0
 11
41.762917987
 21
17.7342514885
 31
0.0
 11
41.762072452
 21
17.7361361135
 31
0.0
 11
41.7612519625
 21
17.7384312399
 31
0.0
 11
41.7604613658
 21
17.7411221536
 31
0.0
 11
41.7597055069
 21
17.7441940924
 31
0.0
 11
41.7589889848
 21
17.7476299161
 31
0.0
 11
41.7583158649
 21
17.7514073367
 31
0.0
 11
41.7571157531
 21
17.759894877
 31
0.0
 11
41.7561336507
 21
17.769459192
 31
0.0
 11
41.7553925873
 21
17.7798791997
 31
0.0
 11
41.754910508
 21
17.7908864958
 31
0.0
  0
SPLINE
  5
313
100
AcDbEntity
  8
0
100
AcDbSpline
 62
6
  6
CONTINUOUS
 70
0
 71
3
 72
17
 73
13
 74
11
 42
0.0000001
 43
0.0000001
 44
0.0000000001
 12
-0.0187821834
 22
0.0145030997
 32
0.0
 13
-0.0237299455
 23
-0.000000492
 33
0.0
 40
0.0
 40
0.0
 40
0.0
 40
0.0
 40
0.2021445828
 40
0.3847082453
 40
0.546172622
 40
0.6851819081
 40
0.8005875909
 40
0.8915396455
 40
0.9277264191
 40
0.9577360945
 40
0.9817090918
 40
1.0
 40
1.0
 40
1.0
 40
1.0
 10
4.6163134326
 20
17.8044611181
 30
0.0
 10
4.6150478604
 20
17.8054383591
 30
0.0
 10
4.6126356896
 20
17.8072935087
 30
0.0
 10
4.6091910567
 20
17.8099010862
 30
0.0
 10
4.6061159704
 20
17.8121689676
 30
0.0
 10
4.6034310072
 20
17.8140703441
 30
0.0
 10
4.6011546308
 20
17.8155811749
 30
0.0
 10
4.5995065779
 20
17.8165669324
 30
0.0
 10
4.5983976466
 20
17.8171295555
 30
0.0
 10
4.5977413195
 20
17.8174111292
 30
0.0
 10
4.5971964674
 20
17.8175860642
 30
0.0
 10
4.5968630643
 20
17.8176395166
 30
0.0
 10
4.5967183836
 20
17.8176395136
 30
0.0
 11
4.6163134326
 21
17.8044611181
 31
0.0
 11
4.6125090136
 21
17.8073828391
 31
0.0
 11
4.6090522426
 21
17.8099941441
 31
0.0
 11
4.6059652122
 21
17.8122637143
 31
0.0
 11
4.6032683608
 21
17.814163267
 31
0.0
 11
4.6009803077
 21
17.8156681198
 31
0.0
 11
4.5991174264
 21
17.8167580177
 31
0.0
 11
4.5983496612
 21
17.8171426209
 31
0.0
 11
4.5976930434
 21
17.8174182644
 31
0.0
 11
4.5971488743
 21
17.8175841019
 31
0.0
 11
4.5967183836
 21
17.8176395136
 31
0.0
  0
SPLINE
  5
314
100
AcDbEntity
  8
0
100
AcDbSpline
 62
6
  6
CONTINUOUS
 70
0
 71
3
 72
12
 73
8
 74
6
 42
0.0000001
 43
0.0000001
 44
0.0000000001
 12
-0.0033809697
 22
0.0000000491
 32
0.0
 13
-0.0003513512
 23
-0.0033626639
 33
0.0
 40
0.0
 40
0.0
 40
0.0
 40
0.0
 40
0.2876855301
 40
0.5253057597
 40
0.6366711782
 40
0.749779268
 40
1.0
 40
1.0
 40
1.0
 40
1.0
 10
4.6192597843
 20
17.8176395135
 30
0.0
 10
4.6189355656
 20
17.8176395182
 30
0.0
 10
4.6183384567
 20
17.8175860029
 30
0.0
 10
4.6176666102
 20
17.8172789546
 30
0.0
 10
4.6172931541
 20
17.816909214
 30
0.0
 10
4.6170057156
 20
17.8164533099
 30
0.0
 10
4.6169071511
 20
17.8160433955
 30
0.0
 10
4.616877846
 20
17.8157629261
 30
0.0
 11
4.6192597843
 21
17.8176395135
 31
0.0
 11
4.618294379
 21
17.8175209703
 31
0.0
 11
4.6175733535
 21
17.8171666364
 31
0.0
 11
4.6173057595
 21
17.8169017532
 31
0.0
 11
4.6171005097
 21
17.8165790865
 31
0.0
 11
4.616877846
 21
17.8157629261
 31
0.0
  0
SPLINE
  5
315
100
AcDbEntity
  8
0
100
AcDbSpline
 62
6
  6
CONTINUOUS
 70
0
 71
3
 72
18
 73
14
 74
12
 42
0.0000001
 43
0.0000001
 44
0.0000000001
 12
-0.0435259473
 22
0.0417277629
 32
0.0
 13
-0.0030931617
 23
0.0602174945
 33
0.0
 40
0.0
 40
0.0
 40
0.0
 40
0.0
 40
0.0323382357
 40
0.0689632413
 40
0.1100786616
 40
0.1557499703
 40
0.2059665764
 40
0.2606480048
 40
0.3826440687
 40
0.5200048629
 40
0.6705148721
 40
0.8316063289
 40
1.0
 40
1.0
 40
1.0
 40
1.0
 10
41.6310711849
 20
17.7331882492
 30
0.0
 10
41.6306020008
 20
17.7336380499
 30
0.0
 10
41.6296772204
 20
17.7346771973
 30
0.0
 10
41.6284058122
 20
17.7364919558
 30
0.0
 10
41.6271706682
 20
17.7386462509
 30
0.0
 10
41.625977424
 20
17.741130036
 30
0.0
 10
41.6248318803
 20
17.7439327962
 30
0.0
 10
41.62332156
 20
17.7482373956
 30
0.0
 10
41.6216234011
 20
17.7543234346
 30
0.0
 10
41.6199225395
 20
17.7623879902
 30
0.0
 10
41.6185259452
 20
17.77130667
 30
0.0
 10
41.6174655158
 20
17.7808983612
 30
0.0
 10
41.6170023025
 20
17.7875064142
 30
0.0
 10
41.6168286796
 20
17.7908864958
 30
0.0
 11
41.6310711849
 21
17.7331882492
 31
0.0
 11
41.6297629064
 21
17.7346341045
 31
0.0
 11
41.6284842777
 21
17.7364346664
 31
0.0
 11
41.6272415621
 21
17.7385798359
 31
0.0
 11
41.6260409733
 21
17.7410581837
 31
0.0
 11
41.6248887247
 21
17.7438582786
 31
0.0
 11
41.6237907778
 21
17.7469672192
 31
0.0
 11
41.621778658
 21
17.7540426594
 31
0.0
 11
41.6200452103
 21
17.7621416575
 31
0.0
 11
41.6186243972
 21
17.771105032
 31
0.0
 11
41.617544923
 21
17.7807581757
 31
0.0
 11
41.6168286796
 21
17.7908864958
 31
0.0
  0
SPLINE
  5
316
100
AcDbEntity
  8
0
100
AcDbSpline
 62
6
  6
CONTINUOUS
 70
0
 71
3
 72
15
 73
11
 74
9
 42
0.0000001
 43
0.0000001
 44
0.0000000001
 12
-0.0410073057
 22
0.0420959216
 32
0.0
 13
-0.0041692443
 23
0.0586198186
 33
0.0
 40
0.0
 40
0.0
 40
0.0
 40
0.0
 40
0.0841427871
 40
0.1813893831
 40
0.2917775024
 40
0.4145192972
 40
0.548426552
 40
0.6919487574
 40
0.8432719301
 40
1.0
 40
1.0
 40
1.0
 40
1.0
 10
41.4995146958
 20
17.7355669333
 30
0.0
 10
41.4983645395
 20
17.7367476227
 30
0.0
 10
41.4961495947
 20
17.739552189
 30
0.0
 10
41.4932714831
 20
17.7445044952
 30
0.0
 10
41.4906432436
 20
17.7504302325
 30
0.0
 10
41.4883007181
 20
17.7572353492
 30
0.0
 10
41.4862858897
 20
17.7648170046
 30
0.0
 10
41.484627544
 20
17.7730553557
 30
0.0
 10
41.4833582694
 20
17.7818136863
 30
0.0
 10
41.4827890216
 20
17.7878240388
 30
0.0
 10
41.482571209
 20
17.7908864958
 30
0.0
 11
41.4995146958
 21
17.7355669333
 31
0.0
 11
41.4964012109
 21
17.7394085729
 31
0.0
 11
41.4934880488
 21
17.7443253258
 31
0.0
 11
41.4908237418
 21
17.7502402425
 31
0.0
 11
41.4884510692
 21
17.7570521286
 31
0.0
 11
41.4864097321
 21
17.7646522044
 31
0.0
 11
41.4847315654
 21
17.7729180689
 31
0.0
 11
41.4834450364
 21
17.7817174614
 31
0.0
 11
41.482571209
 21
17.7908864958
 31
0.0
  0
LINE
  5
317
100
AcDbEntity
  8
0
100
AcDbLine
 62
6
  6
CONTINUOUS
 10
4.5934406197
 20
17.813578414
 11
4.5891762808
 21
17.8176395136
  0
SPLINE
  5
318
100
AcDbEntity
  8
0
100
AcDbSpline
 62
6
  6
CONTINUOUS
 70
0
 71
3
 72
15
 73
11
 74
9
 42
0.0000001
 43
0.0000001
 44
0.0000000001
 12
-0.0365952035
 22
0.041529096
 32
0.0
 13
-0.0049671839
 23
0.0551289562
 33
0.0
 40
0.0
 40
0.0
 40
0.0
 40
0.0
 40
0.0966782305
 40
0.2026244874
 40
0.3175982059
 40
0.441042464
 40
0.5721461833
 40
0.7099022081
 40
0.8530668224
 40
1.0
 40
1.0
 40
1.0
 40
1.0
 10
41.3712593327
 20
17.7392602022
 30
0.0
 10
41.3700800129
 20
17.740598522
 30
0.0
 10
41.3678061303
 20
17.7435807469
 30
0.0
 10
41.3647954597
 20
17.7486189296
 30
0.0
 10
41.3620573053
 20
17.7543615249
 30
0.0
 10
41.3596289179
 20
17.7607392502
 30
0.0
 10
41.3575383274
 20
17.7676747303
 30
0.0
 10
41.355811195
 20
17.7750829926
 30
0.0
 10
41.3544721861
 20
17.7828668861
 30
0.0
 10
41.3538523306
 20
17.7881864049
 30
0.0
 10
41.3536090493
 20
17.7908864958
 30
0.0
 11
41.3712593327
 21
17.7392602022
 31
0.0
 11
41.3679905229
 21
17.7434971751
 31
0.0
 11
41.3649586791
 21
17.7485170079
 31
0.0
 11
41.3622011501
 21
17.7542526211
 31
0.0
 11
41.3597536476
 21
17.7606321618
 31
0.0
 11
41.3576464777
 21
17.7675763883
 31
0.0
 11
41.3559056223
 21
17.7750001153
 31
0.0
 11
41.3545541297
 21
17.7828085064
 31
0.0
 11
41.3536090493
 21
17.7908864958
 31
0.0
  0
SPLINE
  5
319
100
AcDbEntity
  8
0
100
AcDbSpline
 62
6
  6
CONTINUOUS
 70
0
 71
3
 72
12
 73
8
 74
6
 42
0.0000001
 43
0.0000001
 44
0.0000000001
 12
-0.0296778565
 22
0.0391992866
 32
0.0
 13
-0.0052837306
 23
0.0488819131
 33
0.0
 40
0.0
 40
0.0
 40
0.0
 40
0.0
 40
0.1070807509
 40
0.2201308005
 40
0.4628347178
 40
0.7247187085
 40
1.0
 40
1.0
 40
1.0
 40
1.0
 10
41.2474356285
 20
17.7449888579
 30
0.0
 10
41.2463763195
 20
17.7463880209
 30
0.0
 10
41.2443385734
 20
17.7493722782
 30
0.0
 10
41.2406019237
 20
17.7559813451
 30
0.0
 10
41.2366655518
 20
17.7653478984
 30
0.0
 10
41.2332373483
 20
17.777688418
 30
0.0
 10
41.2318399741
 20
17.7864010704
 30
0.0
 10
41.2313551367
 20
17.7908864958
 30
0.0
 11
41.2474356285
 21
17.7449888579
 31
0.0
 11
41.2444554819
 21
17.7493290032
 31
0.0
 11
41.2417097477
 21
17.7541617616
 31
0.0
 11
41.2370186313
 21
17.765133928
 31
0.0
 11
41.233525354
 21
17.7775269625
 31
0.0
 11
41.2313551367
 21
17.7908864958
 31
0.0
  0
SPLINE
  5
31A
100
AcDbEntity
  8
0
100
AcDbSpline
 62
6
  6
CONTINUOUS
 70
0
 71
3
 72
11
 73
7
 74
5
 42
0.0000001
 43
0.0000001
 44
0.0000000001
 12
-0.0196958637
 22
0.0332227079
 32
0.0
 13
-0.0047866473
 23
0.0383244487
 33
0.0
 40
0.0
 40
0.0
 40
0.0
 40
0.0
 40
0.2342764276
 40
0.4805489198
 40
0.7368342773
 40
1.0
 40
1.0
 40
1.0
 40
1.0
 10
41.1289823282
 20
17.7543820735
 30
0.0
 10
41.127444236
 20
17.7569765059
 30
0.0
 10
41.1246238997
 20
17.7625015089
 30
0.0
 10
41.1212527885
 20
17.7713857156
 30
0.0
 10
41.1186949175
 20
17.7809216422
 30
0.0
 10
41.1175688047
 20
17.7875246021
 30
0.0
 10
41.1171489109
 20
17.7908864958
 30
0.0
 11
41.1289823282
 21
17.7543820735
 31
0.0
 11
41.1248420816
 21
17.7624275457
 31
0.0
 11
41.1214476017
 21
17.7713128046
 31
0.0
 11
41.1188661675
 21
17.7808685722
 31
0.0
 11
41.1171489109
 21
17.7908864958
 31
0.0
  0
SPLINE
  5
31B
100
AcDbEntity
  8
0
100
AcDbSpline
 62
6
  6
CONTINUOUS
 70
0
 71
3
 72
13
 73
9
 74
7
 42
0.0000001
 43
0.0000001
 44
0.0000000001
 12
-0.0480185737
 22
0.056701881
 32
0.0
 13
-0.0743026698
 23
-0.0000002329
 33
0.0
 40
0.0
 40
0.0
 40
0.0
 40
0.0
 40
0.2152901099
 40
0.3331129927
 40
0.4571512972
 40
0.5867907581
 40
0.7212164302
 40
1.0
 40
1.0
 40
1.0
 40
1.0
 10
42.1768638325
 20
17.7908864958
 30
0.0
 10
42.1734178578
 20
17.7949556139
 30
0.0
 10
42.1671375205
 20
17.8004848263
 30
0.0
 10
42.1574848991
 20
17.8064234832
 30
0.0
 10
42.149148079
 20
17.8103648279
 30
0.0
 10
42.1400602374
 20
17.8135486326
 30
0.0
 10
42.1269751984
 20
17.8167080258
 30
0.0
 10
42.1167020375
 20
17.8176395352
 30
0.0
 10
42.1097972497
 20
17.8176395135
 30
0.0
 11
42.1768638325
 21
17.7908864958
 31
0.0
 11
42.1649852917
 21
17.8016006191
 31
0.0
 11
42.1575400148
 21
17.8062060595
 31
0.0
 11
42.1492146346
 21
17.8101594951
 31
0.0
 11
42.1401285006
 21
17.8133576733
 31
0.0
 11
42.1304217318
 21
17.8157119259
 31
0.0
 11
42.1097972497
 21
17.8176395135
 31
0.0
  0
SPLINE
  5
31C
100
AcDbEntity
  8
0
100
AcDbSpline
 62
6
  6
CONTINUOUS
 70
0
 71
3
 72
13
 73
9
 74
7
 42
0.0000001
 43
0.0000001
 44
0.0000000001
 12
-0.0813412488
 22
0.0000002174
 32
0.0
 13
-0.0626396367
 23
-0.0518909884
 33
0.0
 40
0.0
 40
0.0
 40
0.0
 40
0.0
 40
0.2581557142
 40
0.5171300656
 40
0.6439701622
 40
0.7674133259
 40
0.8864088496
 40
1.0
 40
1.0
 40
1.0
 40
1.0
 10
42.2521176601
 20
17.8176395136
 30
0.0
 10
42.2451180907
 20
17.8176395323
 30
0.0
 10
42.2310710929
 20
17.8163063791
 30
0.0
 10
42.2141496607
 20
17.8116661533
 30
0.0
 10
42.2013819342
 20
17.8063733375
 30
0.0
 10
42.1924712595
 20
17.8017804059
 30
0.0
 10
42.1842810521
 20
17.7966507066
 30
0.0
 10
42.1792356019
 20
17.7928512815
 30
0.0
 10
42.1768638325
 20
17.7908864958
 30
0.0
 11
42.2521176601
 21
17.8176395136
 31
0.0
 11
42.2312075945
 21
17.8157121055
 31
0.0
 11
42.2108871577
 21
17.8101599355
 31
0.0
 11
42.2013572772
 21
17.8062066185
 31
0.0
 11
42.1924346907
 21
17.8016012352
 31
0.0
 11
42.1842365728
 21
17.7964554956
 31
0.0
 11
42.1768638325
 21
17.7908864958
 31
0.0
  0
SPLINE
  5
31D
100
AcDbEntity
  8
0
100
AcDbSpline
 62
6
  6
CONTINUOUS
 70
0
 71
3
 72
15
 73
11
 74
9
 42
0.0000001
 43
0.0000001
 44
0.0000000001
 12
-0.0583641713
 22
0.03703411
 32
0.0
 13
-0.0691223683
 23
-0.0000003301
 33
0.0
 40
0.0
 40
0.0
 40
0.0
 40
0.0
 40
0.1473240376
 40
0.2915642663
 40
0.4309253498
 40
0.5636485321
 40
0.6881178354
 40
0.8029441854
 40
0.9070862736
 40
1.0
 40
1.0
 40
1.0
 40
1.0
 10
40.9156004575
 20
17.7922831709
 30
0.0
 10
40.912734309
 20
17.7941018424
 30
0.0
 10
40.9070059918
 20
17.7976140371
 30
0.0
 10
40.8983587391
 20
17.8024981955
 30
0.0
 10
40.8898122477
 20
17.8068613317
 30
0.0
 10
40.8814720883
 20
17.8106042236
 30
0.0
 10
40.8734481049
 20
17.8136364376
 30
0.0
 10
40.8658503276
 20
17.8158810581
 30
0.0
 10
40.8587902381
 20
17.8172783351
 30
0.0
 10
40.8542479204
 20
17.8176395238
 30
0.0
 10
40.8521071148
 20
17.8176395136
 30
0.0
 11
40.9156004575
 21
17.7922831709
 31
0.0
 11
40.9069141495
 21
17.7975981885
 31
0.0
 11
40.8982269578
 21
17.8024908473
 31
0.0
 11
40.8896400654
 21
17.8068565493
 31
0.0
 11
40.881261706
 21
17.8105939216
 31
0.0
 11
40.8732042533
 21
17.8136104779
 31
0.0
 11
40.865582993
 21
17.8158271108
 31
0.0
 11
40.8585132822
 21
17.817182942
 31
0.0
 11
40.8521071148
 21
17.8176395136
 31
0.0
  0
SPLINE
  5
31E
100
AcDbEntity
  8
0
100
AcDbSpline
 62
6
  6
CONTINUOUS
 70
0
 71
3
 72
13
 73
9
 74
7
 42
0.0000001
 43
0.0000001
 44
0.0000000001
 12
-0.0540710021
 22
0.055281117
 32
0.0
 13
-0.0773283594
 23
-0.0000002412
 33
0.0
 40
0.0
 40
0.0
 40
0.0
 40
0.0
 40
0.1071414291
 40
0.2207875094
 40
0.3404680802
 40
0.4655206819
 40
0.7279376379
 40
1.0
 40
1.0
 40
1.0
 40
1.0
 10
42.0364704996
 20
17.7908864958
 30
0.0
 10
42.0345394181
 20
17.7928607951
 30
0.0
 10
42.0303038384
 20
17.7966845446
 30
0.0
 10
42.0231656863
 20
17.801816667
 30
0.0
 10
42.015131257
 20
17.8064089237
 30
0.0
 10
42.0031780557
 20
17.8117461391
 30
0.0
 10
41.9867126825
 20
17.8163823771
 30
0.0
 10
41.972904516
 20
17.8176395354
 30
0.0
 10
41.965891804
 20
17.8176395135
 30
0.0
 11
42.0364704996
 21
17.7908864958
 31
0.0
 11
42.0303359865
 21
17.7964551716
 31
0.0
 11
42.0232117702
 21
17.8016006188
 31
0.0
 11
42.0151843526
 21
17.8062060592
 31
0.0
 11
42.0063593074
 21
17.8101594947
 31
0.0
 11
41.9868414478
 21
17.8157119255
 31
0.0
 11
41.965891804
 21
17.8176395135
 31
0.0
  0
SPLINE
  5
31F
100
AcDbEntity
  8
0
100
AcDbSpline
 62
6
  6
CONTINUOUS
 70
0
 71
3
 72
13
 73
9
 74
7
 42
0.0000001
 43
0.0000001
 44
0.0000000001
 12
-0.0796896194
 22
0.0000002095
 32
0.0
 13
-0.0589325918
 23
-0.0536412627
 33
0.0
 40
0.0
 40
0.0
 40
0.0
 40
0.0
 40
0.2651926402
 40
0.5260058438
 40
0.6519843512
 40
0.7735384014
 40
0.8897913781
 40
1.0
 40
1.0
 40
1.0
 40
1.0
 10
42.1097887814
 20
17.8176395136
 30
0.0
 10
42.1027444145
 20
17.8176395321
 30
0.0
 10
42.088743512
 20
17.8163449742
 30
0.0
 10
42.0719590318
 20
17.8117067694
 30
0.0
 10
42.0595287126
 20
17.8063918679
 30
0.0
 10
42.0510101191
 20
17.801799762
 30
0.0
 10
42.0433043463
 20
17.7966695374
 30
0.0
 10
42.0386354595
 20
17.7928570724
 30
0.0
 10
42.0364704996
 20
17.7908864958
 30
0.0
 11
42.1097887814
 21
17.8176395136
 31
0.0
 11
42.0887437573
 21
17.8157121055
 31
0.0
 11
42.0687149674
 21
17.8101599355
 31
0.0
 11
42.0594869445
 21
17.8062066186
 31
0.0
 11
42.0509651732
 21
17.8016012352
 31
0.0
 11
42.0432615415
 21
17.7964554956
 31
0.0
 11
42.0364704996
 21
17.7908864958
 31
0.0
  0
SPLINE
  5
320
100
AcDbEntity
  8
0
100
AcDbSpline
 62
6
  6
CONTINUOUS
 70
0
 71
3
 72
12
 73
8
 74
6
 42
0.0000001
 43
0.0000001
 44
0.0000000001
 12
-0.000351519
 22
0.0033627837
 32
0.0
 13
-0.0033811063
 23
-0.0000000352
 33
0.0
 40
0.0
 40
0.0
 40
0.0
 40
0.0
 40
0.250211199
 40
0.3633177785
 40
0.4746832305
 40
0.7123117606
 40
1.0
 40
1.0
 40
1.0
 40
1.0
 10
7.3148964844
 20
17.8157630461
 30
0.0
 10
7.3148671664
 20
17.8160435149
 30
0.0
 10
7.3147685824
 20
17.8164534286
 30
0.0
 10
7.3144811144
 20
17.8169093268
 30
0.0
 10
7.3141075927
 20
17.8172790461
 30
0.0
 10
7.3134356654
 20
17.817586011
 30
0.0
 10
7.3128385278
 20
17.817639517
 30
0.0
 10
7.312514293
 20
17.8176395136
 30
0.0
 11
7.3148964844
 21
17.8157630461
 31
0.0
 11
7.3146737821
 21
17.816579198
 31
0.0
 11
7.314468507
 21
17.8169018608
 31
0.0
 11
7.3142008735
 21
17.8171667259
 31
0.0
 11
7.3134797506
 21
17.8175209989
 31
0.0
 11
7.312514293
 21
17.8176395136
 31
0.0
  0
SPLINE
  5
321
100
AcDbEntity
  8
0
100
AcDbSpline
 62
6
  6
CONTINUOUS
 70
0
 71
3
 72
15
 73
11
 74
9
 42
0.0000001
 43
0.0000001
 44
0.0000000001
 12
-0.0006112828
 22
0.0075740407
 32
0.0
 13
-0.0075986682
 23
-0.0000000533
 33
0.0
 40
0.0
 40
0.0
 40
0.0
 40
0.0
 40
0.1299261575
 40
0.249096587
 40
0.3616798897
 40
0.4727572051
 40
0.5877260052
 40
0.71150306
 40
0.847993023
 40
1.0
 40
1.0
 40
1.0
 40
1.0
 10
7.2805067131
 20
17.8134072542
 30
0.0
 10
7.2804802392
 20
17.8137352762
 30
0.0
 10
7.2803844378
 20
17.8143622706
 30
0.0
 10
7.2800820623
 20
17.8152332165
 30
0.0
 10
7.2796255886
 20
17.815980636
 30
0.0
 10
7.279015956
 20
17.8165949983
 30
0.0
 10
7.278259865
 20
17.8170702249
 30
0.0
 10
7.2773644348
 20
17.8174049314
 30
0.0
 10
7.2763348952
 20
17.8176014363
 30
0.0
 10
7.2756030444
 20
17.8176395163
 30
0.0
 10
7.2752180275
 20
17.8176395136
 30
0.0
 11
7.2805067131
 21
17.8134072542
 31
0.0
 11
7.2803497083
 21
17.8143819557
 31
0.0
 11
7.2800461945
 21
17.8152351121
 31
0.0
 11
7.2795970156
 21
17.8159631847
 31
0.0
 11
7.2790032544
 21
17.8165630602
 31
0.0
 11
7.2782664481
 21
17.8170324327
 31
0.0
 11
7.2773882431
 21
17.8173691416
 31
0.0
 11
7.2763710907
 21
17.8175717853
 31
0.0
 11
7.2752180275
 21
17.8176395136
 31
0.0
  0
SPLINE
  5
322
100
AcDbEntity
  8
0
100
AcDbSpline
 62
6
  6
CONTINUOUS
 70
0
 71
3
 72
15
 73
11
 74
9
 42
0.0000001
 43
0.0000001
 44
0.0000000001
 12
-0.0006348645
 22
0.0134122042
 32
0.0
 13
-0.0134272214
 23
-0.0000000715
 33
0.0
 40
0.0
 40
0.0
 40
0.0
 40
0.0
 40
0.1286535282
 40
0.2470950514
 40
0.3593869366
 40
0.4705391776
 40
0.5858558443
 40
0.7101810447
 40
0.8473529716
 40
1.0
 40
1.0
 40
1.0
 40
1.0
 10
7.2327994805
 20
17.8100978052
 30
0.0
 10
7.2327722547
 20
17.810672981
 30
0.0
 10
7.2326376577
 20
17.811777001
 30
0.0
 10
7.2321442505
 20
17.8133194326
 30
0.0
 10
7.2313642968
 20
17.814651818
 30
0.0
 10
7.230301974
 20
17.8157535941
 30
0.0
 10
7.2289702613
 20
17.8166091284
 30
0.0
 10
7.2273853071
 20
17.8172144099
 30
0.0
 10
7.2255588731
 20
17.8175702802
 30
0.0
 10
7.2242596676
 20
17.8176395172
 30
0.0
 10
7.2235764591
 20
17.8176395136
 30
0.0
 11
7.2327994805
 21
17.8100978052
 31
0.0
 11
7.2325766181
 21
17.8118108284
 31
0.0
 11
7.2320805767
 21
17.81332183
 31
0.0
 11
7.2313134711
 21
17.8146198721
 31
0.0
 11
7.2302790073
 21
17.8156956689
 31
0.0
 11
7.2289817134
 21
17.8165409598
 31
0.0
 11
7.2274272883
 21
17.8171496184
 31
0.0
 11
7.225622402
 21
17.8175167043
 31
0.0
 11
7.2235764591
 21
17.8176395136
 31
0.0
  0
SPLINE
  5
323
100
AcDbEntity
  8
0
100
AcDbSpline
 62
6
  6
CONTINUOUS
 70
0
 71
3
 72
16
 73
12
 74
10
 42
0.0000001
 43
0.0000001
 44
0.0000000001
 12
-0.0000973427
 22
0.0208018546
 32
0.0
 13
-0.0208020824
 23
-0.0000000911
 33
0.0
 40
0.0
 40
0.0
 40
0.0
 40
0.0
 40
0.1270018594
 40
0.2444523528
 40
0.3563225093
 40
0.4675412014
 40
0.5833287298
 40
0.7083933861
 40
0.775665917
 40
0.8465446327
 40
1.0
 40
1.0
 40
1.0
 40
1.0
 10
7.1722051493
 20
17.8058433467
 30
0.0
 10
7.1722010284
 20
17.8067239715
 30
0.0
 10
7.1720603909
 20
17.8084237197
 30
0.0
 10
7.1713757104
 20
17.8108164238
 30
0.0
 10
7.1702208601
 20
17.8129017267
 30
0.0
 10
7.1686035208
 20
17.8146382339
 30
0.0
 10
7.166549492
 20
17.8159951176
 30
0.0
 10
7.1645470957
 20
17.8167793277
 30
0.0
 10
7.1627749084
 20
17.8172218835
 30
0.0
 10
7.1607785186
 20
17.8175539675
 30
0.0
 10
7.1592194635
 20
17.8176395182
 30
0.0
 10
7.1581553997
 20
17.8176395136
 30
0.0
 11
7.1722051493
 21
17.8058433467
 31
0.0
 11
7.1719660706
 21
17.8084744099
 31
0.0
 11
7.1712765778
 21
17.8108183166
 31
0.0
 11
7.1701411557
 21
17.8128496612
 31
0.0
 11
7.168567486
 21
17.8145456029
 31
0.0
 11
7.1665666263
 21
17.8158865051
 31
0.0
 11
7.1641524813
 21
17.8168561721
 31
0.0
 11
7.1627954751
 21
17.8171980479
 31
0.0
 11
7.1613415343
 21
17.8174429659
 31
0.0
 11
7.1581553997
 21
17.8176395136
 31
0.0
  0
SPLINE
  5
324
100
AcDbEntity
  8
0
100
AcDbSpline
 62
6
  6
CONTINUOUS
 70
0
 71
3
 72
16
 73
12
 74
10
 42
0.0000001
 43
0.0000001
 44
0.0000000001
 12
0.0013899058
 22
0.0295703901
 32
0.0
 13
-0.0296030371
 23
-0.0000001723
 33
0.0
 40
0.0
 40
0.0
 40
0.0
 40
0.0
 40
0.1249940771
 40
0.2412024356
 40
0.3525256659
 40
0.4638262339
 40
0.5802268795
 40
0.7062669483
 40
0.7740963451
 40
0.8455389311
 40
1.0
 40
1.0
 40
1.0
 40
1.0
 10
7.099270323
 20
17.8006816626
 30
0.0
 10
7.099328233
 20
17.8019137038
 30
0.0
 10
7.0992425739
 20
17.8043087343
 30
0.0
 10
7.0984030749
 20
17.8077130473
 30
0.0
 10
7.0968495192
 20
17.8107120643
 30
0.0
 10
7.0945963874
 20
17.8132319753
 30
0.0
 10
7.0916868255
 20
17.8152151981
 30
0.0
 10
7.0888282279
 20
17.8163685305
 30
0.0
 10
7.0862906652
 20
17.8170215102
 30
0.0
 10
7.0834313159
 20
17.8175124472
 30
0.0
 10
7.081196835
 20
17.8176395224
 30
0.0
 10
7.0796726627
 20
17.8176395135
 30
0.0
 11
7.099270323
 21
17.8006816626
 31
0.0
 11
7.0991082065
 21
17.8043783138
 31
0.0
 11
7.0982606514
 21
17.8077123921
 31
0.0
 11
7.0967346908
 21
17.810633317
 31
0.0
 11
7.0945443684
 21
17.8130947037
 31
0.0
 11
7.0917108872
 21
17.8150555732
 31
0.0
 11
7.0882631408
 21
17.8164819901
 31
0.0
 11
7.0863196051
 21
17.8169865265
 31
0.0
 11
7.0842359183
 21
17.8173486392
 31
0.0
 11
7.0796726627
 21
17.8176395135
 31
0.0
  0
SPLINE
  5
325
100
AcDbEntity
  8
0
100
AcDbSpline
 62
6
  6
CONTINUOUS
 70
0
 71
3
 72
15
 73
11
 74
9
 42
0.0000001
 43
0.0000001
 44
0.0000000001
 12
0.0042257275
 22
0.0394285058
 32
0.0
 13
-0.0396543042
 23
-0.0000001284
 33
0.0
 40
0.0
 40
0.0
 40
0.0
 40
0.0
 40
0.1226537866
 40
0.2373187791
 40
0.34794246
 40
0.4593413358
 40
0.5765156885
 40
0.703795144
 40
0.8443393858
 40
1.0
 40
1.0
 40
1.0
 40
1.0
 10
7.0146609103
 20
17.7947068636
 30
0.0
 10
7.0148336775
 20
17.7963188822
 30
0.0
 10
7.0148910711
 20
17.7994799017
 30
0.0
 10
7.0139679256
 20
17.804026914
 30
0.0
 10
7.0120208124
 20
17.8080832627
 30
0.0
 10
7.0090734399
 20
17.8115273052
 30
0.0
 10
7.0051933901
 20
17.8142623788
 30
0.0
 10
7.0004636696
 20
17.8162320521
 30
0.0
 10
6.9949650599
 20
17.8174072576
 30
0.0
 10
6.9910424356
 20
17.8176395202
 30
0.0
 10
6.9889848978
 20
17.8176395136
 30
0.0
 11
7.0146609103
 21
17.7947068636
 31
0.0
 11
7.0147094854
 21
17.7995703716
 31
0.0
 11
7.0137745342
 21
17.8040201712
 31
0.0
 11
7.0118651138
 21
17.8079695123
 31
0.0
 11
7.0090034078
 21
17.8113346955
 31
0.0
 11
7.0052259777
 21
17.8140403714
 31
0.0
 11
7.0005843375
 21
17.8160225883
 31
0.0
 11
6.9951440802
 21
17.8172325396
 31
0.0
 11
6.9889848978
 21
17.8176395136
 31
0.0
  0
SPLINE
  5
326
100
AcDbEntity
  8
0
100
AcDbSpline
 62
6
  6
CONTINUOUS
 70
0
 71
3
 72
11
 73
7
 74
5
 42
0.0000001
 43
0.0000001
 44
0.0000000001
 12
0.0196959961
 22
0.0332227872
 32
0.0
 13
0.0047866641
 23
0.0383245835
 33
0.0
 40
0.0
 40
0.0
 40
0.0
 40
0.0
 40
0.2342763345
 40
0.4805488033
 40
0.7368341977
 40
1.0
 40
1.0
 40
1.0
 40
1.0
 10
6.8027919429
 20
17.7543819565
 30
0.0
 10
6.8043300448
 20
17.7569763941
 30
0.0
 10
6.8071503989
 20
17.762501411
 30
0.0
 10
6.8105215305
 20
17.7713856447
 30
0.0
 10
6.8130794161
 20
17.7809216048
 30
0.0
 10
6.8142055342
 20
17.7875245892
 30
0.0
 10
6.8146254296
 20
17.7908864958
 30
0.0
 11
6.8027919429
 21
17.7543819565
 31
0.0
 11
6.8069322151
 21
17.7624274473
 31
0.0
 11
6.8103267157
 21
17.7713127332
 31
0.0
 11
6.8129081647
 21
17.7808685343
 31
0.0
 11
6.8146254296
 21
17.7908864958
 31
0.0
  0
SPLINE
  5
327
100
AcDbEntity
  8
0
100
AcDbSpline
 62
6
  6
CONTINUOUS
 70
0
 71
3
 72
12
 73
8
 74
6
 42
0.0000001
 43
0.0000001
 44
0.0000000001
 12
0.0296784428
 22
0.0391993923
 32
0.0
 13
0.0052837777
 23
0.0488823487
 33
0.0
 40
0.0
 40
0.0
 40
0.0
 40
0.0
 40
0.1070804525
 40
0.2201302909
 40
0.4628340558
 40
0.7247182549
 40
1.0
 40
1.0
 40
1.0
 40
1.0
 10
6.6843384469
 20
17.7449885077
 30
0.0
 10
6.6853977739
 20
17.7463876706
 30
0.0
 10
6.6874355549
 20
17.7493719333
 30
0.0
 10
6.6911722693
 20
17.7559810291
 30
0.0
 10
6.6951087093
 20
17.7653476505
 30
0.0
 10
6.6985369681
 20
17.7776882826
 30
0.0
 10
6.6999343613
 20
17.7864010231
 30
0.0
 10
6.7004192038
 20
17.7908864958
 30
0.0
 11
6.6843384469
 21
17.7449885077
 31
0.0
 11
6.6873186432
 21
17.7493286581
 31
0.0
 11
6.6900644239
 21
17.754161435
 31
0.0
 11
6.6947556205
 21
17.7651336746
 31
0.0
 11
6.6982489557
 21
17.7775268227
 31
0.0
 11
6.7004192038
 21
17.7908864958
 31
0.0
  0
SPLINE
  5
328
100
AcDbEntity
  8
0
100
AcDbSpline
 62
6
  6
CONTINUOUS
 70
0
 71
3
 72
15
 73
11
 74
9
 42
0.0000001
 43
0.0000001
 44
0.0000000001
 12
0.0365949205
 22
0.041529133
 32
0.0
 13
0.0049671696
 23
0.0551287975
 33
0.0
 40
0.0
 40
0.0
 40
0.0
 40
0.0
 40
0.0966784017
 40
0.2026247878
 40
0.3175985836
 40
0.4410428652
 40
0.5721465534
 40
0.7099024899
 40
0.8530669727
 40
1.0
 40
1.0
 40
1.0
 40
1.0
 10
6.5605151133
 20
17.7392603219
 30
0.0
 10
6.5616944261
 20
17.7405986453
 30
0.0
 10
6.5639682947
 20
17.7435808739
 30
0.0
 10
6.5669789472
 20
17.7486190557
 30
0.0
 10
6.5697170849
 20
17.7543616433
 30
0.0
 10
6.5721454574
 20
17.7607393545
 30
0.0
 10
6.5742360349
 20
17.7676748149
 30
0.0
 10
6.575963157
 20
17.7750830523
 30
0.0
 10
6.5773021583
 20
17.7828669171
 30
0.0
 10
6.5779220108
 20
17.7881864154
 30
0.0
 10
6.5781652912
 20
17.7908864958
 30
0.0
 11
6.5605151133
 21
17.7392603219
 31
0.0
 11
6.563783904
 21
17.7434973021
 31
0.0
 11
6.5668157295
 21
17.7485171345
 31
0.0
 11
6.5695732416
 21
17.7542527402
 31
0.0
 11
6.5720207289
 21
17.7606322671
 31
0.0
 11
6.5741278857
 21
17.767576474
 31
0.0
 11
6.5758687305
 21
17.7750001759
 31
0.0
 11
6.5772202154
 21
17.7828085378
 31
0.0
 11
6.5781652912
 21
17.7908864958
 31
0.0
  0
SPLINE
  5
329
100
AcDbEntity
  8
0
100
AcDbSpline
 62
6
  6
CONTINUOUS
 70
0
 71
3
 72
15
 73
11
 74
9
 42
0.0000001
 43
0.0000001
 44
0.0000000001
 12
0.0410065715
 22
0.0420962295
 32
0.0
 13
0.0041692236
 23
0.0586195276
 33
0.0
 40
0.0
 40
0.0
 40
0.0
 40
0.0
 40
0.0841432995
 40
0.1813902921
 40
0.2917786434
 40
0.4145204937
 40
0.5484276374
 40
0.6919495864
 40
0.8432723846
 40
1.0
 40
1.0
 40
1.0
 40
1.0
 10
6.4322598488
 20
17.7355671428
 30
0.0
 10
6.4334099915
 20
17.736747848
 30
0.0
 10
6.4356249089
 20
17.7395524349
 30
0.0
 10
6.4385029861
 20
17.7445047535
 30
0.0
 10
6.4411311934
 20
17.7504304841
 30
0.0
 10
6.4434736898
 20
17.7572355766
 30
0.0
 10
6.4454884929
 20
17.7648171919
 30
0.0
 10
6.4471468183
 20
17.7730554896
 30
0.0
 10
6.4484160782
 20
17.7818137564
 30
0.0
 10
6.4489853206
 20
17.7878240629
 30
0.0
 10
6.4492031315
 20
17.7908864958
 30
0.0
 11
6.4322598488
 21
17.7355671428
 31
0.0
 11
6.4353732984
 21
17.7394088182
 31
0.0
 11
6.4382864256
 21
17.744325586
 31
0.0
 11
6.4409506995
 21
17.7502404972
 31
0.0
 11
6.4433233419
 21
17.7570523593
 31
0.0
 11
6.445364653
 21
17.7646523948
 31
0.0
 11
6.4470427988
 21
17.7729182055
 31
0.0
 11
6.4483293128
 21
17.7817175333
 31
0.0
 11
6.4492031315
 21
17.7908864958
 31
0.0
  0
SPLINE
  5
32A
100
AcDbEntity
  8
0
100
AcDbSpline
 62
6
  6
CONTINUOUS
 70
0
 71
3
 72
18
 73
14
 74
12
 42
0.0000001
 43
0.0000001
 44
0.0000000001
 12
0.0435257703
 22
0.0417278862
 32
0.0
 13
0.0030931595
 23
0.0602174521
 33
0.0
 40
0.0
 40
0.0
 40
0.0
 40
0.0
 40
0.032338304
 40
0.0689633753
 40
0.1100788538
 40
0.1557502111
 40
0.2059668551
 40
0.2606483095
 40
0.382644389
 40
0.5200051536
 40
0.6705150939
 40
0.8316064504
 40
1.0
 40
1.0
 40
1.0
 40
1.0
 10
6.3007031863
 20
17.7331882786
 30
0.0
 10
6.3011723695
 20
17.7336380816
 30
0.0
 10
6.3020971479
 20
17.7346772329
 30
0.0
 10
6.3033685535
 20
17.736491996
 30
0.0
 10
6.304603695
 20
17.7386462945
 30
0.0
 10
6.3057969367
 20
17.7411300819
 30
0.0
 10
6.3069424779
 20
17.7439328432
 30
0.0
 10
6.3084527947
 20
17.7482374421
 30
0.0
 10
6.3101509497
 20
17.7543234778
 30
0.0
 10
6.3118518074
 20
17.7623880266
 30
0.0
 10
6.3132483986
 20
17.7713066963
 30
0.0
 10
6.3143088257
 20
17.7808983751
 30
0.0
 10
6.3147720382
 20
17.787506419
 30
0.0
 10
6.3149456609
 20
17.7908864958
 30
0.0
 11
6.3007031863
 21
17.7331882786
 31
0.0
 11
6.3020114622
 21
17.7346341398
 31
0.0
 11
6.3032900884
 21
17.7364347065
 31
0.0
 11
6.3045328014
 21
17.7385798795
 31
0.0
 11
6.3057333877
 21
17.7410582297
 31
0.0
 11
6.3068856338
 21
17.7438583258
 31
0.0
 11
6.3079835783
 21
17.7469672664
 31
0.0
 11
6.3099956934
 21
17.7540427035
 31
0.0
 11
6.3117291371
 21
17.7621416948
 31
0.0
 11
6.3131499469
 21
17.7711050591
 31
0.0
 11
6.3142294188
 21
17.7807581902
 31
0.0
 11
6.3149456609
 21
17.7908864958
 31
0.0
  0
SPLINE
  5
32B
100
AcDbEntity
  8
0
100
AcDbSpline
 62
6
  6
CONTINUOUS
 70
0
 71
3
 72
19
 73
15
 74
13
 42
0.0000001
 43
0.0000001
 44
0.0000000001
 12
0.0445403054
 22
0.0409816839
 32
0.0
 13
0.0018782154
 23
0.0604963596
 33
0.0
 40
0.0
 40
0.0
 40
0.0
 40
0.0
 40
0.0224258258
 40
0.0505003774
 40
0.0846276654
 40
0.1248974528
 40
0.1712354708
 40
0.2235036138
 40
0.2814914909
 40
0.3448852565
 40
0.4865118995
 40
0.6453655521
 40
0.8179612992
 40
1.0
 40
1.0
 40
1.0
 40
1.0
 10
6.1671097192
 20
17.7317562726
 30
0.0
 10
6.1674426703
 20
17.7320626219
 30
0.0
 10
6.1680906493
 20
17.7328612048
 30
0.0
 10
6.1689415333
 20
17.7343450553
 30
0.0
 10
6.1697738969
 20
17.7362409461
 30
0.0
 10
6.1705829999
 20
17.7385400435
 30
0.0
 10
6.1713647486
 20
17.7412318296
 30
0.0
 10
6.17211319
 20
17.7443020016
 30
0.0
 10
6.1728232208
 20
17.7477333162
 30
0.0
 10
6.1737482341
 20
17.7529588945
 30
0.0
 10
6.1747555657
 20
17.7602332645
 30
0.0
 10
6.1757156117
 20
17.7697308475
 30
0.0
 10
6.1764402959
 20
17.7800665857
 30
0.0
 10
6.1767498632
 20
17.7872156029
 30
0.0
 10
6.1768638325
 20
17.7908864958
 30
0.0
 11
6.1671097192
 21
17.7317562726
 31
0.0
 11
6.1679905169
 21
17.7327890128
 31
0.0
 11
6.1688562008
 21
17.73425119
 31
0.0
 11
6.1697017505
 21
17.7361357672
 31
0.0
 11
6.1705222548
 21
17.7384308587
 31
0.0
 11
6.1713128663
 21
17.7411217497
 31
0.0
 11
6.1720687397
 21
17.7441936777
 31
0.0
 11
6.172785276
 21
17.7476295024
 31
0.0
 11
6.1734584093
 21
17.7514069353
 31
0.0
 11
6.1746585456
 21
17.7598945309
 31
0.0
 11
6.1756406678
 21
17.7694589366
 31
0.0
 11
6.1763817453
 21
17.7798790626
 31
0.0
 11
6.1768638325
 21
17.7908864958
 31
0.0
  0
SPLINE
  5
32C
100
AcDbEntity
  8
0
100
AcDbSpline
 62
6
  6
CONTINUOUS
 70
0
 71
3
 72
23
 73
19
 74
17
 42
0.0000001
 43
0.0000001
 44
0.0000000001
 12
-0.0447085756
 22
0.0401205746
 32
0.0
 13
-0.0006239142
 23
0.0600676949
 33
0.0
 40
0.0
 40
0.0
 40
0.0
 40
0.0
 40
0.0043952543
 40
0.0106102301
 40
0.0187783559
 40
0.0289458986
 40
0.0411275865
 40
0.0553244031
 40
0.0897241605
 40
0.1319519466
 40
0.1817280172
 40
0.2387575916
 40
0.3026613771
 40
0.3729724068
 40
0.4492173612
 40
0.6174430821
 40
0.8028447284
 40
1.0
 40
1.0
 40
1.0
 40
1.0
 10
5.8989379769
 20
17.7310810585
 30
0.0
 10
5.8988724751
 20
17.7311398386
 30
0.0
 10
5.8987496356
 20
17.7313181385
 30
0.0
 10
5.8985951338
 20
17.7316607636
 30
0.0
 10
5.8984393919
 20
17.732128053
 30
0.0
 10
5.8982839302
 20
17.7327191178
 30
0.0
 10
5.8981289856
 20
17.7334345422
 30
0.0
 10
5.8979097709
 20
17.7346317668
 30
0.0
 10
5.8976497642
 20
17.7364322763
 30
0.0
 10
5.8973610411
 20
17.7389469839
 30
0.0
 10
5.8970826839
 20
17.7419183519
 30
0.0
 10
5.8968172191
 20
17.7453263517
 30
0.0
 10
5.8965669021
 20
17.7491476513
 30
0.0
 10
5.8963333259
 20
17.7533554028
 30
0.0
 10
5.8960371663
 20
17.7596515787
 30
0.0
 10
5.8957285202
 20
17.7682539277
 30
0.0
 10
5.8954580365
 20
17.7792794601
 30
0.0
 10
5.8953448436
 20
17.7869389416
 30
0.0
 10
5.8953038409
 20
17.7908864958
 30
0.0
 11
5.8989379769
 21
17.7310810585
 31
0.0
 11
5.8987768024
 21
17.731290183
 31
0.0
 11
5.898616263
 21
17.731627243
 31
0.0
 11
5.8984566222
 21
17.7320912137
 31
0.0
 11
5.8982981433
 21
17.7326810688
 31
0.0
 11
5.8981410896
 21
17.7333957819
 31
0.0
 11
5.8979857246
 21
17.7342343264
 31
0.0
 11
5.8976811091
 21
17.7362781767
 31
0.0
 11
5.8973863527
 21
17.738797656
 31
0.0
 11
5.8971034852
 21
17.7417743412
 31
0.0
 11
5.8968345298
 21
17.7451895871
 31
0.0
 11
5.8965813448
 21
17.7490199888
 31
0.0
 11
5.8963456122
 21
17.7532370545
 31
0.0
 11
5.8961290047
 21
17.7578120353
 31
0.0
 11
5.8957590111
 21
17.7679107361
 31
0.0
 11
5.8954813482
 21
17.7790445246
 31
0.0
 11
5.8953038409
 21
17.7908864958
 31
0.0
  0
SPLINE
  5
32D
100
AcDbEntity
  8
0
100
AcDbSpline
 62
6
  6
CONTINUOUS
 70
0
 71
3
 72
23
 73
19
 74
17
 42
0.0000001
 43
0.0000001
 44
0.0000000001
 12
0.0447055658
 22
0.0401238743
 32
0.0
 13
0.0006239138
 23
0.0600676588
 33
0.0
 40
0.0
 40
0.0
 40
0.0
 40
0.0
 40
0.004395513
 40
0.0106107656
 40
0.0187791607
 40
0.0289469568
 40
0.0411288791
 40
0.0553259097
 40
0.0897260293
 40
0.1319540836
 40
0.1817303309
 40
0.2387599939
 40
0.3026637791
 40
0.3729747251
 40
0.4492195196
 40
0.6174447164
 40
0.8028456193
 40
1.0
 40
1.0
 40
1.0
 40
1.0
 10
6.0328363907
 20
17.7310810829
 30
0.0
 10
6.032901892
 20
17.7311398712
 30
0.0
 10
6.0330247296
 20
17.7313181842
 30
0.0
 10
6.033179231
 20
17.731660827
 30
0.0
 10
6.033334972
 20
17.7321281331
 30
0.0
 10
6.033490433
 20
17.7327192135
 30
0.0
 10
6.0336453767
 20
17.7334346519
 30
0.0
 10
6.0338645896
 20
17.7346318926
 30
0.0
 10
6.0341245944
 20
17.7364324183
 30
0.0
 10
6.0344133155
 20
17.7389471409
 30
0.0
 10
6.0346916707
 20
17.741918518
 30
0.0
 10
6.0349571334
 20
17.7453265212
 30
0.0
 10
6.0352074484
 20
17.7491478187
 30
0.0
 10
6.0354410227
 20
17.7533555629
 30
0.0
 10
6.0357371798
 20
17.7596517198
 30
0.0
 10
6.0360458233
 20
17.768254035
 30
0.0
 10
6.0363163049
 20
17.7792795176
 30
0.0
 10
6.0364294971
 20
17.7869389618
 30
0.0
 10
6.0364704996
 20
17.7908864958
 30
0.0
 11
6.0328363907
 21
17.7310810829
 31
0.0
 11
6.0329975643
 21
17.7312902275
 31
0.0
 11
6.0331581027
 21
17.7316273061
 31
0.0
 11
6.0333177425
 21
17.732091294
 31
0.0
 11
6.0334762204
 21
17.7326811647
 31
0.0
 11
6.033633273
 21
17.733395892
 31
0.0
 11
6.033788637
 21
17.7342344492
 31
0.0
 11
6.0340932503
 21
17.7362783206
 31
0.0
 11
6.0343880045
 21
17.7387978148
 31
0.0
 11
6.0346708698
 21
17.7417745091
 31
0.0
 11
6.034939823
 21
17.7451897585
 31
0.0
 11
6.035193006
 21
17.7490201579
 31
0.0
 11
6.0354287366
 21
17.7532372162
 31
0.0
 11
6.0356453423
 21
17.7578121847
 31
0.0
 11
6.0360153328
 21
17.767910848
 31
0.0
 11
6.0362929934
 21
17.7790445852
 31
0.0
 11
6.0364704996
 21
17.7908864958
 31
0.0
  0
SPLINE
  5
32E
100
AcDbEntity
  8
0
100
AcDbSpline
 62
6
  6
CONTINUOUS
 70
0
 71
3
 72
19
 73
15
 74
13
 42
0.0000001
 43
0.0000001
 44
0.0000000001
 12
-0.0445378553
 22
0.0409839855
 32
0.0
 13
-0.0018782078
 23
0.0604961153
 33
0.0
 40
0.0
 40
0.0
 40
0.0
 40
0.0
 40
0.0224266778
 40
0.0505020765
 40
0.0846301237
 40
0.1249005352
 40
0.1712390301
 40
0.2235075005
 40
0.2814955477
 40
0.3448893296
 40
0.4865155844
 40
0.6453683545
 40
0.8179628315
 40
1.0
 40
1.0
 40
1.0
 40
1.0
 10
5.7646644406
 20
17.7317564388
 30
0.0
 10
5.7643314953
 20
17.732062817
 30
0.0
 10
5.7636835295
 20
17.7328614472
 30
0.0
 10
5.762832659
 20
17.7343453542
 30
0.0
 10
5.7620003096
 20
17.7362412907
 30
0.0
 10
5.7611912205
 20
17.7385404223
 30
0.0
 10
5.760409486
 20
17.7412322306
 30
0.0
 10
5.7596610587
 20
17.7443024131
 30
0.0
 10
5.7589510416
 20
17.7477337266
 30
0.0
 10
5.7580260475
 20
17.7529592824
 30
0.0
 10
5.7570187364
 20
17.7602335996
 30
0.0
 10
5.7560587091
 20
17.7697310942
 30
0.0
 10
5.7553340385
 20
17.7800667168
 30
0.0
 10
5.7550244759
 20
17.7872156486
 30
0.0
 10
5.754910508
 20
17.7908864958
 30
0.0
 11
5.7646644406
 21
17.7317564388
 31
0.0
 11
5.7637836566
 21
17.7327892513
 31
0.0
 11
5.762917987
 21
17.7342514885
 31
0.0
 11
5.762072452
 21
17.7361361135
 31
0.0
 11
5.7612519625
 21
17.7384312399
 31
0.0
 11
5.7604613658
 21
17.7411221536
 31
0.0
 11
5.7597055069
 21
17.7441940924
 31
0.0
 11
5.7589889848
 21
17.7476299161
 31
0.0
 11
5.7583158649
 21
17.7514073367
 31
0.0
 11
5.7571157531
 21
17.759894877
 31
0.0
 11
5.7561336507
 21
17.769459192
 31
0.0
 11
5.7553925873
 21
17.7798791997
 31
0.0
 11
5.754910508
 21
17.7908864958
 31
0.0
  0
SPLINE
  5
32F
100
AcDbEntity
  8
0
100
AcDbSpline
 62
6
  6
CONTINUOUS
 70
0
 71
3
 72
18
 73
14
 74
12
 42
0.0000001
 43
0.0000001
 44
0.0000000001
 12
-0.0435259473
 22
0.0417277629
 32
0.0
 13
-0.0030931617
 23
0.0602174945
 33
0.0
 40
0.0
 40
0.0
 40
0.0
 40
0.0
 40
0.0323382357
 40
0.0689632413
 40
0.1100786616
 40
0.1557499703
 40
0.2059665764
 40
0.2606480048
 40
0.3826440687
 40
0.5200048629
 40
0.6705148721
 40
0.8316063289
 40
1.0
 40
1.0
 40
1.0
 40
1.0
 10
5.6310711849
 20
17.7331882492
 30
0.0
 10
5.6306020008
 20
17.7336380499
 30
0.0
 10
5.6296772204
 20
17.7346771973
 30
0.0
 10
5.6284058122
 20
17.7364919558
 30
0.0
 10
5.6271706682
 20
17.7386462509
 30
0.0
 10
5.625977424
 20
17.741130036
 30
0.0
 10
5.6248318803
 20
17.7439327962
 30
0.0
 10
5.62332156
 20
17.7482373956
 30
0.0
 10
5.6216234011
 20
17.7543234346
 30
0.0
 10
5.6199225395
 20
17.7623879902
 30
0.0
 10
5.6185259452
 20
17.77130667
 30
0.0
 10
5.6174655158
 20
17.7808983612
 30
0.0
 10
5.6170023025
 20
17.7875064142
 30
0.0
 10
5.6168286796
 20
17.7908864958
 30
0.0
 11
5.6310711849
 21
17.7331882492
 31
0.0
 11
5.6297629064
 21
17.7346341045
 31
0.0
 11
5.6284842777
 21
17.7364346664
 31
0.0
 11
5.6272415621
 21
17.7385798359
 31
0.0
 11
5.6260409733
 21
17.7410581837
 31
0.0
 11
5.6248887247
 21
17.7438582786
 31
0.0
 11
5.6237907778
 21
17.7469672192
 31
0.0
 11
5.621778658
 21
17.7540426594
 31
0.0
 11
5.6200452103
 21
17.7621416575
 31
0.0
 11
5.6186243972
 21
17.771105032
 31
0.0
 11
5.617544923
 21
17.7807581757
 31
0.0
 11
5.6168286796
 21
17.7908864958
 31
0.0
  0
SPLINE
  5
330
100
AcDbEntity
  8
0
100
AcDbSpline
 62
6
  6
CONTINUOUS
 70
0
 71
3
 72
15
 73
11
 74
9
 42
0.0000001
 43
0.0000001
 44
0.0000000001
 12
-0.0410073057
 22
0.0420959216
 32
0.0
 13
-0.0041692443
 23
0.0586198186
 33
0.0
 40
0.0
 40
0.0
 40
0.0
 40
0.0
 40
0.0841427871
 40
0.1813893831
 40
0.2917775024
 40
0.4145192972
 40
0.548426552
 40
0.6919487574
 40
0.8432719301
 40
1.0
 40
1.0
 40
1.0
 40
1.0
 10
5.4995146958
 20
17.7355669333
 30
0.0
 10
5.4983645395
 20
17.7367476227
 30
0.0
 10
5.4961495947
 20
17.739552189
 30
0.0
 10
5.4932714831
 20
17.7445044952
 30
0.0
 10
5.4906432436
 20
17.7504302325
 30
0.0
 10
5.4883007181
 20
17.7572353492
 30
0.0
 10
5.4862858897
 20
17.7648170046
 30
0.0
 10
5.484627544
 20
17.7730553557
 30
0.0
 10
5.4833582694
 20
17.7818136863
 30
0.0
 10
5.4827890216
 20
17.7878240388
 30
0.0
 10
5.482571209
 20
17.7908864958
 30
0.0
 11
5.4995146958
 21
17.7355669333
 31
0.0
 11
5.4964012109
 21
17.7394085729
 31
0.0
 11
5.4934880488
 21
17.7443253258
 31
0.0
 11
5.4908237418
 21
17.7502402425
 31
0.0
 11
5.4884510692
 21
17.7570521286
 31
0.0
 11
5.4864097321
 21
17.7646522044
 31
0.0
 11
5.4847315654
 21
17.7729180689
 31
0.0
 11
5.4834450364
 21
17.7817174614
 31
0.0
 11
5.482571209
 21
17.7908864958
 31
0.0
  0
LINE
  5
331
100
AcDbEntity
  8
0
100
AcDbLine
 62
6
  6
CONTINUOUS
 10
7.3425980597
 20
17.8176395135
 11
7.3387721335
 21
17.8139919824
  0
SPLINE
  5
332
100
AcDbEntity
  8
0
100
AcDbSpline
 62
6
  6
CONTINUOUS
 70
0
 71
3
 72
15
 73
11
 74
9
 42
0.0000001
 43
0.0000001
 44
0.0000000001
 12
-0.0365952035
 22
0.041529096
 32
0.0
 13
-0.0049671839
 23
0.0551289562
 33
0.0
 40
0.0
 40
0.0
 40
0.0
 40
0.0
 40
0.0966782305
 40
0.2026244874
 40
0.3175982059
 40
0.441042464
 40
0.5721461833
 40
0.7099022081
 40
0.8530668224
 40
1.0
 40
1.0
 40
1.0
 40
1.0
 10
5.3712593327
 20
17.7392602022
 30
0.0
 10
5.3700800129
 20
17.740598522
 30
0.0
 10
5.3678061303
 20
17.7435807469
 30
0.0
 10
5.3647954597
 20
17.7486189296
 30
0.0
 10
5.3620573053
 20
17.7543615249
 30
0.0
 10
5.3596289179
 20
17.7607392502
 30
0.0
 10
5.3575383274
 20
17.7676747303
 30
0.0
 10
5.355811195
 20
17.7750829926
 30
0.0
 10
5.3544721861
 20
17.7828668861
 30
0.0
 10
5.3538523306
 20
17.7881864049
 30
0.0
 10
5.3536090493
 20
17.7908864958
 30
0.0
 11
5.3712593327
 21
17.7392602022
 31
0.0
 11
5.3679905229
 21
17.7434971751
 31
0.0
 11
5.3649586791
 21
17.7485170079
 31
0.0
 11
5.3622011501
 21
17.7542526211
 31
0.0
 11
5.3597536476
 21
17.7606321618
 31
0.0
 11
5.3576464777
 21
17.7675763883
 31
0.0
 11
5.3559056223
 21
17.7750001153
 31
0.0
 11
5.3545541297
 21
17.7828085064
 31
0.0
 11
5.3536090493
 21
17.7908864958
 31
0.0
  0
SPLINE
  5
333
100
AcDbEntity
  8
0
100
AcDbSpline
 62
6
  6
CONTINUOUS
 70
0
 71
3
 72
12
 73
8
 74
6
 42
0.0000001
 43
0.0000001
 44
0.0000000001
 12
-0.0296778565
 22
0.0391992866
 32
0.0
 13
-0.0052837306
 23
0.0488819131
 33
0.0
 40
0.0
 40
0.0
 40
0.0
 40
0.0
 40
0.1070807509
 40
0.2201308005
 40
0.4628347178
 40
0.7247187085
 40
1.0
 40
1.0
 40
1.0
 40
1.0
 10
5.2474356285
 20
17.7449888579
 30
0.0
 10
5.2463763195
 20
17.7463880209
 30
0.0
 10
5.2443385734
 20
17.7493722782
 30
0.0
 10
5.2406019237
 20
17.7559813451
 30
0.0
 10
5.2366655518
 20
17.7653478984
 30
0.0
 10
5.2332373483
 20
17.777688418
 30
0.0
 10
5.2318399741
 20
17.7864010704
 30
0.0
 10
5.2313551367
 20
17.7908864958
 30
0.0
 11
5.2474356285
 21
17.7449888579
 31
0.0
 11
5.2444554819
 21
17.7493290032
 31
0.0
 11
5.2417097477
 21
17.7541617616
 31
0.0
 11
5.2370186313
 21
17.765133928
 31
0.0
 11
5.233525354
 21
17.7775269625
 31
0.0
 11
5.2313551367
 21
17.7908864958
 31
0.0
  0
SPLINE
  5
334
100
AcDbEntity
  8
0
100
AcDbSpline
 62
6
  6
CONTINUOUS
 70
0
 71
3
 72
11
 73
7
 74
5
 42
0.0000001
 43
0.0000001
 44
0.0000000001
 12
-0.0196958637
 22
0.0332227079
 32
0.0
 13
-0.0047866473
 23
0.0383244487
 33
0.0
 40
0.0
 40
0.0
 40
0.0
 40
0.0
 40
0.2342764276
 40
0.4805489198
 40
0.7368342773
 40
1.0
 40
1.0
 40
1.0
 40
1.0
 10
5.1289823282
 20
17.7543820735
 30
0.0
 10
5.127444236
 20
17.7569765059
 30
0.0
 10
5.1246238997
 20
17.7625015089
 30
0.0
 10
5.1212527885
 20
17.7713857156
 30
0.0
 10
5.1186949175
 20
17.7809216422
 30
0.0
 10
5.1175688047
 20
17.7875246021
 30
0.0
 10
5.1171489109
 20
17.7908864958
 30
0.0
 11
5.1289823282
 21
17.7543820735
 31
0.0
 11
5.1248420816
 21
17.7624275457
 31
0.0
 11
5.1214476017
 21
17.7713128046
 31
0.0
 11
5.1188661675
 21
17.7808685722
 31
0.0
 11
5.1171489109
 21
17.7908864958
 31
0.0
  0
SPLINE
  5
335
100
AcDbEntity
  8
0
100
AcDbSpline
 62
6
  6
CONTINUOUS
 70
0
 71
3
 72
17
 73
13
 74
11
 42
0.0000001
 43
0.0000001
 44
0.0000000001
 12
-0.0237148644
 22
0.0000005932
 32
0.0
 13
-0.0187704438
 23
-0.0144936274
 33
0.0
 40
0.0
 40
0.0
 40
0.0
 40
0.0
 40
0.0182950878
 40
0.042271906
 40
0.0722846802
 40
0.1084730727
 40
0.1994260697
 40
0.314829607
 40
0.4538354255
 40
0.6152950842
 40
0.7978545805
 40
1.0
 40
1.0
 40
1.0
 40
1.0
 10
7.3350558874
 20
17.8176395136
 30
0.0
 10
7.3349112656
 20
17.8176395172
 30
0.0
 10
7.3345780103
 20
17.8175861021
 30
0.0
 10
7.3340334113
 20
17.8174112798
 30
0.0
 10
7.3333774264
 20
17.817129889
 30
0.0
 10
7.3322691213
 20
17.8165676799
 30
0.0
 10
7.3306220563
 20
17.8155826407
 30
0.0
 10
7.3283470736
 20
17.8140729164
 30
0.0
 10
7.3256638117
 20
17.8121728959
 30
0.0
 10
7.3225906853
 20
17.8099066128
 30
0.0
 10
7.3191482214
 20
17.8073008244
 30
0.0
 10
7.3167375801
 20
17.8054469014
 30
0.0
 10
7.3154727937
 20
17.8044702946
 30
0.0
 11
7.3350558874
 21
17.8176395136
 31
0.0
 11
7.3346255704
 21
17.8175841369
 31
0.0
 11
7.3340816526
 21
17.8174184043
 31
0.0
 11
7.3334253705
 21
17.8171429406
 31
0.0
 11
7.3326580345
 21
17.8167586132
 31
0.0
 11
7.3307962532
 21
17.8156695072
 31
0.0
 11
7.3285096173
 21
17.8141657596
 31
0.0
 11
7.3258144712
 21
17.8122675691
 31
0.0
 11
7.3227294194
 21
17.8099996075
 31
0.0
 11
7.3192748566
 21
17.8073901109
 31
0.0
 11
7.3154727937
 21
17.8044702946
 31
0.0
  0
SPLINE
  5
336
100
AcDbEntity
  8
0
100
AcDbSpline
 62
6
  6
CONTINUOUS
 70
0
 71
3
 72
15
 73
11
 74
9
 42
0.0000001
 43
0.0000001
 44
0.0000000001
 12
-0.0396569302
 22
0.0000001688
 32
0.0
 13
0.0042305801
 23
-0.0394306265
 33
0.0
 40
0.0
 40
0.0
 40
0.0
 40
0.0
 40
0.1556567002
 40
0.2961953687
 40
0.4234704849
 40
0.5406403884
 40
0.6520363989
 40
0.7626605737
 40
0.8773303321
 40
1.0
 40
1.0
 40
1.0
 40
1.0
 10
40.942788766
 20
17.8176395135
 30
0.0
 10
40.9407311437
 20
17.8176395223
 30
0.0
 10
40.9368083856
 20
17.8174071527
 30
0.0
 10
40.9313096263
 20
17.8162317458
 30
0.0
 10
40.926579843
 20
17.8142618157
 30
0.0
 10
40.9226998434
 20
17.8115263837
 30
0.0
 10
40.919752612
 20
17.8080819347
 30
0.0
 10
40.9178057813
 20
17.804025082
 30
0.0
 10
40.9168829799
 20
17.7994773923
 30
0.0
 10
40.9169408262
 20
17.796315893
 30
0.0
 10
40.9171138141
 20
17.794703579
 30
0.0
 11
40.942788766
 21
17.8176395135
 31
0.0
 11
40.9366293377
 21
17.8172324158
 31
0.0
 11
40.9311889734
 21
17.8160222637
 31
0.0
 11
40.9265472717
 21
17.8140397779
 31
0.0
 11
40.9227699132
 21
17.8113337768
 31
0.0
 11
40.9199083691
 21
17.8079682211
 31
0.0
 11
40.9179992061
 21
17.8040184111
 31
0.0
 11
40.917064626
 21
17.7995680328
 31
0.0
 11
40.9171138141
 21
17.794703579
 31
0.0
  0
ENDSEC
  0
SECTION
  2
OBJECTS
  0
DICTIONARY
  5
C
100
AcDbDictionary
280
0
281
1
  3
ACAD_GROUP
350
D
  3
ACAD_MLINESTYLE
350
17
  3
ACAD_LAYOUT
350
1A
  3
ACAD_PLOTSETTINGS
350
19
  3
ACAD_PLOTSTYLENAME
350
E
  0
DICTIONARY
  5
D
102
{ACAD_REACTORS
330
C
102
}
100
AcDbDictionary
280
0
281
1
  0
ACDBDICTIONARYWDFLT
  5
E
102
{ACAD_REACTORS
330
C
102
}
100
AcDbDictionary
281
1
  3
Normal
350
F
100
AcDbDictionaryWithDefault
340
F
  0
DICTIONARY
  5
17
102
{ACAD_REACTORS
330
C
102
}
100
AcDbDictionary
280
0
281
1
  3
Standard
350
18
  0
DICTIONARY
  5
19
102
{ACAD_REACTORS
330
C
102
}
100
AcDbDictionary
281
1
  0
DICTIONARY
  5
1A
102
{ACAD_REACTORS
330
C
102
}
100
AcDbDictionary
281
1
  3
Model
350
337
  3
Layout1
350
338
  0
ACDBPLACEHOLDER
  5
F
102
{ACAD_REACTORS
330
E
102
}
  0
MLINESTYLE
  5
18
102
{ACAD_REACTORS
330
17
102
}
100
AcDbMlineStyle
  2
STANDARD
 70
0
  3

 62
256
 51
90.0
 52
90.0
 71
2
 49
0.5
 62
256
  6
BYLAYER
 49
-0.5
 62
256
  6
BYLAYER
  0
LAYOUT
  5
337
102
{ACAD_REACTORS
330
1A
102
}
100
AcDbPlotSettings
  1

  2
none_device
  4
ISO_A0_(1189.00_x_841.00_MM)
  6

 40
0.0
 41
0.0
 42
0.0
 43
0.0
 44
1189.0
 45
841.0
 46
0.0
 47
0.0
 48
0.0
 49
0.0
140
0.0
141
0.0
142
1.0
143
1.0
 70
1024
 72
0
 73
0
 74
0
  7

 75
0
147
1.0
148
0.0
149
0.0
100
AcDbLayout
  1
Model
 70
0
 71
0
 10
0.0
 20
0.0
 11
46.811023622
 21
33.1102362205
 12
0.0
 22
0.0
 32
0.0
 14
0.0
 24
0.0
 34
0.0
 15
0.0
 25
0.0
 35
0.0
146
0.0
 13
0.0
 23
0.0
 33
0.0
 16
1.0
 26
0.0
 36
0.0
 17
0.0
 27
1.0
 37
0.0
 76
0
330
204
345
0
346
0
  0
LAYOUT
  5
338
102
{ACAD_REACTORS
330
1A
102
}
100
AcDbPlotSettings
  1

  2
none_device
  4
ISO_A0_(1189.00_x_841.00_MM)
  6

 40
0.0
 41
0.0
 42
0.0
 43
0.0
 44
1189.0
 45
841.0
 46
0.0
 47
0.0
 48
0.0
 49
0.0
140
0.0
141
0.0
142
1.0
143
1.0
 70
0
 72
0
 73
0
 74
0
  7

 75
0
147
1.0
148
0.0
149
0.0
100
AcDbLayout
  1
Layout1
 70
0
 71
1
 10
0.0
 20
0.0
 11
46.811023622
 21
33.1102362205
 12
0.0
 22
0.0
 32
0.0
 14
0.0
 24
0.0
 34
0.0
 15
0.0
 25
0.0
 35
0.0
146
0.0
 13
0.0
 23
0.0
 33
0.0
 16
1.0
 26
0.0
 36
0.0
 17
0.0
 27
1.0
 37
0.0
 76
0
330
205
345
0
346
0
  0
ENDSEC
  0
EOF
