999
DXF file: 231_FRONT.dxf
999
Pro/ENGINEER 2018400 by Parametric Technology Corporation
  0
SECTION
  2
HEADER
  9
$ACADVER
  1
AC1027
  9
$DWGCODEPAGE
  3
ANSI_1252
  9
$EXTMAX
 10
11.0
 20
8.5
 30
0.0
  9
$EXTMIN
 10
0.0
 20
0.0
 30
0.0
  9
$LIMMIN
 10
0.0
 20
0.0
  9
$LIMMAX
 10
11.0
 20
8.5
  9
$VIEWCTR
 10
5.5
 20
4.25
  9
$VIEWSIZE
 40
8.5
  9
$CLAYER
  8
0
  9
$LTSCALE
 40
0.605
  9
$CELTYPE
  6
BYLAYER
  9
$DIMSCALE
 40
1.0
  9
$DIMASZ
 40
0.1
  9
$DIMEXO
 40
0.0625
  9
$DIMDLI
 40
0.418
  9
$DIMEXE
 40
0.125
  9
$DIMCEN
 40
0.099
  9
$DIMLFAC
 40
1.0
  9
$DIMBLK
  1
_FILLED
  9
$DIMALT
 70
1
  9
$DIMALTD
 70
1
  9
$DIMALTTD
 70
2
  9
$DIMALTF
 40
25.4
  9
$DIMTXT
 40
0.08
  9
$DIMTOL
 70
1
  9
$DIMLIM
 70
0
  9
$DIMTFAC
 40
1.0
  9
$DIMTP
 40
0.01
  9
$DIMTM
 40
0.01
  9
$DIMGAP
 40
0.09
  9
$DIMDSEP
 70
46
  9
$AUNITS
 70
0
  9
$PDMODE
 70
3
  9
$PDSIZE
 40
0.3125
  9
$HANDSEED
  5
2A3
  9
$TILEMODE
 70
1
  9
$MEASUREMENT
 70
0
  9
$INSUNITS
 70
1
  0
ENDSEC
  0
SECTION
  2
CLASSES
  0
CLASS
  1
ACDBDICTIONARYWDFLT
  2
AcDbDictionaryWithDefault
  3
AutoCAD 2000
 90
0
 91
1
280
0
281
0
  0
CLASS
  1
ACDBPLACEHOLDER
  2
AcDbPlaceHolder
  3
AutoCAD 2000
 90
0
 91
1
280
0
281
0
  0
CLASS
  1
LAYOUT
  2
AcDbLayout
  3
AutoCAD 2000
 90
0
 91
0
280
0
281
0
  0
ENDSEC
  0
SECTION
  2
TABLES
  0
TABLE
  2
VPORT
  5
8
100
AcDbSymbolTable
 70
2
  0
VPORT
  5
1F4
100
AcDbSymbolTableRecord
100
AcDbViewportTableRecord
  2
*ACTIVE
 70
0
 10
0.0
 20
0.0
 11
1.0
 21
1.0
 12
5.5
 22
4.25
 13
0.0
 23
0.0
 14
1.0
 24
1.0
 15
0.0
 25
0.0
 16
0.0
 26
0.0
 36
1.0
 17
0.0
 27
0.0
 37
0.0
 40
8.5
 41
1.2941176471
 42
50.0
 43
0.0
 44
0.0
 50
0.0
 51
0.0
 71
0
 72
100
 73
1
 74
1
 75
0
 76
0
 77
0
 78
0
  0
ENDTAB
  0
TABLE
  2
LTYPE
  5
5
100
AcDbSymbolTable
 70
6
  0
LTYPE
  5
14
100
AcDbSymbolTableRecord
100
AcDbLinetypeTableRecord
  2
BYBLOCK
 70
0
  3

 72
65
 73
0
 40
0.0
  0
LTYPE
  5
15
100
AcDbSymbolTableRecord
100
AcDbLinetypeTableRecord
  2
BYLAYER
 70
0
  3

 72
65
 73
0
 40
0.0
  0
LTYPE
  5
16
100
AcDbSymbolTableRecord
100
AcDbLinetypeTableRecord
  2
CONTINUOUS
 70
64
  3
Solid line
 72
65
 73
0
 40
0.0
  0
LTYPE
  5
1F5
100
AcDbSymbolTableRecord
100
AcDbLinetypeTableRecord
  2
CENTER
 70
64
  3
____ _ ____ _ ____ _ ____ _ ____ _ ____ _ ____
 72
65
 73
4
 40
0.6
 49
0.375
 74
0
 49
-0.075
 74
0
 49
0.075
 74
0
 49
-0.075
 74
0
  0
LTYPE
  5
1F6
100
AcDbSymbolTableRecord
100
AcDbLinetypeTableRecord
  2
HIDDEN
 70
64
  3
- - - - - - - - - - - - - - - - - - - -
 72
65
 73
2
 40
0.2
 49
0.1
 74
0
 49
-0.1
 74
0
  0
LTYPE
  5
1F7
100
AcDbSymbolTableRecord
100
AcDbLinetypeTableRecord
  2
PHANTOM
 70
64
  3
_____ _ _ _____ _ _ _____ _ _ _____
 72
65
 73
6
 40
0.8
 49
0.45
 74
0
 49
-0.05
 74
0
 49
0.1
 74
0
 49
-0.05
 74
0
 49
0.1
 74
0
 49
-0.05
 74
0
  0
LTYPE
  5
1F8
100
AcDbSymbolTableRecord
100
AcDbLinetypeTableRecord
  2
DOT
 70
64
  3
. . . . . . . . . . . . . . . . . . . .
 72
65
 73
2
 40
0.2
 49
0.1
 74
0
 49
-0.1
 74
0
  0
LTYPE
  5
1F9
100
AcDbSymbolTableRecord
100
AcDbLinetypeTableRecord
  2
DASHED
 70
64
  3
- - - - - - - - - - - - - - - - - - - -
 72
65
 73
2
 40
0.2
 49
0.1
 74
0
 49
-0.1
 74
0
  0
ENDTAB
  0
TABLE
  2
LAYER
  5
2
100
AcDbSymbolTable
 70
36
  0
LAYER
  5
10
100
AcDbSymbolTableRecord
100
AcDbLayerTableRecord
  2
0
 70
0
 62
7
  6
CONTINUOUS
370
-3
390
F
  0
LAYER
  5
1FA
100
AcDbSymbolTableRecord
100
AcDbLayerTableRecord
  2
DEFAULT_1
 70
0
 62
7
  6
CENTER
370
-3
390
F
  0
LAYER
  5
1FB
100
AcDbSymbolTableRecord
100
AcDbLayerTableRecord
  2
DEFAULT_2
 70
0
 62
8
  6
HIDDEN
370
-3
390
F
  0
LAYER
  5
1FC
100
AcDbSymbolTableRecord
100
AcDbLayerTableRecord
  2
DEFAULT_3
 70
0
 62
7
  6
PHANTOM
370
-3
390
F
  0
LAYER
  5
1FD
100
AcDbSymbolTableRecord
100
AcDbLayerTableRecord
  2
ALL_FEATURES
 70
0
 62
7
  6
CONTINUOUS
370
-3
390
F
  0
LAYER
  5
1FE
100
AcDbSymbolTableRecord
100
AcDbLayerTableRecord
  2
AXES_FEATURES
 70
0
 62
7
  6
CONTINUOUS
370
-3
390
F
  0
LAYER
  5
1FF
100
AcDbSymbolTableRecord
100
AcDbLayerTableRecord
  2
DEFAULT_COORDINATE_SYSTEM
 70
0
 62
7
  6
CONTINUOUS
370
-3
390
F
  0
LAYER
  5
200
100
AcDbSymbolTableRecord
100
AcDbLayerTableRecord
  2
DEFAULT_DATUM_AXES
 70
0
 62
7
  6
CONTINUOUS
370
-3
390
F
  0
LAYER
  5
201
100
AcDbSymbolTableRecord
100
AcDbLayerTableRecord
  2
DEFAULT_DATUM_PLANES
 70
0
 62
7
  6
CONTINUOUS
370
-3
390
F
  0
LAYER
  5
202
100
AcDbSymbolTableRecord
100
AcDbLayerTableRecord
  2
DEFAULT_SURFACES
 70
0
 62
7
  6
CONTINUOUS
370
-3
390
F
  0
LAYER
  5
203
100
AcDbSymbolTableRecord
100
AcDbLayerTableRecord
  2
DIMENSIONS
 70
0
 62
7
  6
CONTINUOUS
370
-3
390
F
  0
LAYER
  5
204
100
AcDbSymbolTableRecord
100
AcDbLayerTableRecord
  2
PLATED_SURFACE_AREA
 70
0
 62
7
  6
CONTINUOUS
370
-3
390
F
  0
LAYER
  5
205
100
AcDbSymbolTableRecord
100
AcDbLayerTableRecord
  2
QUILT
 70
0
 62
7
  6
CONTINUOUS
370
-3
390
F
  0
ENDTAB
  0
TABLE
  2
STYLE
  5
3
100
AcDbSymbolTable
 70
1
  0
STYLE
  5
11
100
AcDbSymbolTableRecord
100
AcDbTextStyleTableRecord
  2
STANDARD
 70
0
 40
0.0
 41
0.8
 50
0.0
 71
0
 42
0.2
  3
txt
  4

  0
STYLE
  5
206
100
AcDbSymbolTableRecord
100
AcDbTextStyleTableRecord
  2
TEXTSTYLE_1
 70
0
 40
0.0
 41
0.8
 50
0.0
 71
0
 42
0.2
  3
gdt
  4

  0
ENDTAB
  0
TABLE
  2
VIEW
  5
6
100
AcDbSymbolTable
 70
0
  0
ENDTAB
  0
TABLE
  2
UCS
  5
7
100
AcDbSymbolTable
 70
0
  0
ENDTAB
  0
TABLE
  2
APPID
  5
9
100
AcDbSymbolTable
 70
1
  0
APPID
  5
207
100
AcDbSymbolTableRecord
100
AcDbRegAppTableRecord
  2
ACAD
 70
0
  0
ENDTAB
  0
TABLE
  2
BLOCK_RECORD
  5
1
100
AcDbSymbolTable
 70
0
  0
BLOCK_RECORD
  5
208
100
AcDbSymbolTableRecord
100
AcDbBlockTableRecord
  2
*Model_Space
  0
BLOCK_RECORD
  5
209
100
AcDbSymbolTableRecord
100
AcDbBlockTableRecord
  2
*Paper_Space
  0
BLOCK_RECORD
  5
20A
100
AcDbSymbolTableRecord
100
AcDbBlockTableRecord
  2
_FILLED
  0
ENDTAB
  0
TABLE
  2
DIMSTYLE
  5
A
100
AcDbSymbolTable
 70
1
100
AcDbDimStyleTable
 71
0
  0
DIMSTYLE
105
20B
100
AcDbSymbolTableRecord
100
AcDbDimStyleTableRecord
  2
STANDARD
 70
0
  3

  4

 40
1.0
 41
0.1
 42
0.0625
 43
0.38
 44
0.125
 45
0.0
 46
0.0
 47
0.01
 48
0.01
140
0.08
141
0.09
142
0.0
143
25.4
144
1.0
145
0.0
146
1.0
147
0.09
 71
1.0
 72
0.0
 73
1
 74
1
 75
0
 76
0
 77
0
 78
4
 79
1
170
1
171
1
172
0
173
0
174
0
175
0
176
0
177
0
178
0
270
2
179
2
271
2
272
2
273
2
274
2
275
0
280
0
281
0
282
0
283
1
284
4
285
0
286
0
287
3
288
0
340
11
278
46
341
20A
342
20A
343
20A
344
20A
  0
ENDTAB
  0
ENDSEC
  0
SECTION
  2
BLOCKS
  0
BLOCK
  5
20
100
AcDbEntity
  8
0
100
AcDbBlockBegin
  2
*Model_Space
 70
0
 10
0.0
 20
0.0
 30
0.0
  3
*Model_Space
  1

  0
ENDBLK
  5
21
100
AcDbEntity
  8
0
100
AcDbBlockEnd
  0
BLOCK
  5
1C
100
AcDbEntity
  8
0
100
AcDbBlockBegin
  2
*Paper_Space
 70
0
 10
0.0
 20
0.0
 30
0.0
  3
*Paper_Space
  1

  0
ENDBLK
  5
1D
100
AcDbEntity
  8
0
100
AcDbBlockEnd
  0
BLOCK
  5
20C
100
AcDbEntity
  8
0
100
AcDbBlockBegin
  2
_FILLED
 70
64
 10
0.0
 20
0.0
  3
_FILLED
  1

  0
SOLID
  5
20D
100
AcDbEntity
  8
0
  6
BYBLOCK
 62
0
100
AcDbTrace
 10
0.0
 20
0.0
 11
-1.0
 21
0.2
 12
-1.0
 22
-0.2
 13
-1.0
 23
-0.2
  0
ENDBLK
  5
20E
100
AcDbEntity
  8
0
  6
BYBLOCK
 62
0
100
AcDbBlockEnd
  0
ENDSEC
  0
SECTION
  2
ENTITIES
  0
MTEXT
  5
20F
100
AcDbEntity
  8
0
100
AcDbMText
 62
2
  6
CONTINUOUS
  7
STANDARD
 71
3
 72
1
 10
5.719060559
 20
2.9045504658
 30
0.0
 11
1.0
 21
0.0
 31
0.0
 73
2
 44
0.9
  1
SCALE  1.000
 40
0.08
 41
0.768
  0
LINE
  5
210
100
AcDbEntity
  8
0
100
AcDbLine
 62
7
  6
CONTINUOUS
 10
0.0
 20
0.0
 11
0.0
 21
8.5
  0
LINE
  5
211
100
AcDbEntity
  8
0
100
AcDbLine
 62
7
  6
CONTINUOUS
 10
0.0
 20
0.0
 11
11.0
 21
0.0
  0
LINE
  5
212
100
AcDbEntity
  8
0
100
AcDbLine
 62
7
  6
CONTINUOUS
 10
0.0
 20
8.5
 11
11.0
 21
8.5
  0
LINE
  5
213
100
AcDbEntity
  8
0
100
AcDbLine
 62
7
  6
CONTINUOUS
 10
11.0
 20
0.0
 11
11.0
 21
8.5
  0
LINE
  5
214
100
AcDbEntity
  8
0
100
AcDbLine
 62
7
  6
CONTINUOUS
 10
3.2238506871
 20
3.9045965362
 11
3.2238506871
 21
3.784517796
  0
LINE
  5
215
100
AcDbEntity
  8
0
100
AcDbLine
 62
7
  6
CONTINUOUS
 10
3.2438506871
 20
3.9211497135
 11
3.2438506871
 21
3.784517796
  0
LINE
  5
216
100
AcDbEntity
  8
0
100
AcDbLine
 62
7
  6
CONTINUOUS
 10
3.5516459627
 20
3.6698951059
 11
3.5516459627
 21
3.6439666149
  0
LINE
  5
217
100
AcDbEntity
  8
0
100
AcDbLine
 62
7
  6
CONTINUOUS
 10
3.5159639377
 20
3.6698951059
 11
3.4787382225
 21
3.7780064329
  0
LINE
  5
218
100
AcDbEntity
  8
0
100
AcDbLine
 62
7
  6
CONTINUOUS
 10
3.8836459627
 20
3.5746856371
 11
3.8836459627
 21
3.582499651
  0
LINE
  5
219
100
AcDbEntity
  8
0
100
AcDbLine
 62
7
  6
CONTINUOUS
 10
3.8836459627
 20
3.6059356371
 11
3.8836459627
 21
3.613749651
  0
LINE
  5
21A
100
AcDbEntity
  8
0
100
AcDbLine
 62
7
  6
CONTINUOUS
 10
3.8836459627
 20
3.6371856371
 11
3.8836459627
 21
3.6439666149
  0
LINE
  5
21B
100
AcDbEntity
  8
0
100
AcDbLine
 62
7
  6
CONTINUOUS
 10
3.9005559627
 20
3.627422644
 11
3.9005559627
 21
3.6238605076
  0
LINE
  5
21C
100
AcDbEntity
  8
0
100
AcDbLine
 62
7
  6
CONTINUOUS
 10
3.9005559627
 20
3.596172644
 11
3.9005559627
 21
3.5926105076
  0
LINE
  5
21D
100
AcDbEntity
  8
0
100
AcDbLine
 62
7
  6
CONTINUOUS
 10
3.9005559627
 20
3.564922644
 11
3.9005559627
 21
3.5613605076
  0
LINE
  5
21E
100
AcDbEntity
  8
0
100
AcDbLine
 62
7
  6
CONTINUOUS
 10
3.2346329586
 20
3.9316657137
 11
3.3636144667
 21
3.784517796
  0
LINE
  5
21F
100
AcDbEntity
  8
0
100
AcDbLine
 62
7
  6
CONTINUOUS
 10
4.0227359627
 20
3.576637644
 11
4.0227359627
 21
3.580199784
  0
LINE
  5
220
100
AcDbEntity
  8
0
100
AcDbLine
 62
7
  6
CONTINUOUS
 10
4.0227359627
 20
3.607887644
 11
4.0227359627
 21
3.611449784
  0
LINE
  5
221
100
AcDbEntity
  8
0
100
AcDbLine
 62
7
  6
CONTINUOUS
 10
4.0227359627
 20
3.639137644
 11
4.0227359627
 21
3.642699784
  0
LINE
  5
222
100
AcDbEntity
  8
0
100
AcDbLine
 62
7
  6
CONTINUOUS
 10
4.0396459627
 20
3.5903106371
 11
4.0396459627
 21
3.598124651
  0
LINE
  5
223
100
AcDbEntity
  8
0
100
AcDbLine
 62
7
  6
CONTINUOUS
 10
4.0396459627
 20
3.6215606371
 11
4.0396459627
 21
3.629374651
  0
LINE
  5
224
100
AcDbEntity
  8
0
100
AcDbLine
 62
7
  6
CONTINUOUS
 10
3.383299506
 20
3.784517796
 11
3.2361515883
 21
3.9316657137
  0
LINE
  5
225
100
AcDbEntity
  8
0
100
AcDbLine
 62
7
  6
CONTINUOUS
 10
3.89864599
 20
3.5529666149
 11
3.8942441117
 21
3.5573684951
  0
LINE
  5
226
100
AcDbEntity
  8
0
100
AcDbLine
 62
7
  6
CONTINUOUS
 10
3.8841173495
 20
3.5741385638
 11
3.9005559627
 21
3.564574784
  0
LINE
  5
227
100
AcDbEntity
  8
0
100
AcDbLine
 62
7
  6
CONTINUOUS
 10
3.8841173495
 20
3.6053885638
 11
3.9005559627
 21
3.595824784
  0
LINE
  5
228
100
AcDbEntity
  8
0
100
AcDbLine
 62
7
  6
CONTINUOUS
 10
3.8900945181
 20
3.6331649375
 11
3.9005559627
 21
3.627074784
  0
LINE
  5
229
100
AcDbEntity
  8
0
100
AcDbLine
 62
7
  6
CONTINUOUS
 10
4.0246459355
 20
3.5529666149
 11
4.0389536641
 21
3.5672743498
  0
LINE
  5
22A
100
AcDbEntity
  8
0
100
AcDbLine
 62
7
  6
CONTINUOUS
 10
3.8841173495
 20
3.6366385638
 11
3.8900945181
 21
3.6331649375
  0
LINE
  5
22B
100
AcDbEntity
  8
0
100
AcDbLine
 62
7
  6
CONTINUOUS
 10
4.038828584
 20
3.5676227027
 11
4.0227359627
 21
3.5769855076
  0
LINE
  5
22C
100
AcDbEntity
  8
0
100
AcDbLine
 62
7
  6
CONTINUOUS
 10
4.0391745765
 20
3.5986717239
 11
4.0227359627
 21
3.6082355076
  0
LINE
  5
22D
100
AcDbEntity
  8
0
100
AcDbLine
 62
7
  6
CONTINUOUS
 10
4.0391745765
 20
3.6299217239
 11
4.0227359627
 21
3.6394855076
  0
LINE
  5
22E
100
AcDbEntity
  8
0
100
AcDbLine
 62
7
  6
CONTINUOUS
 10
4.0221374995
 20
3.6423508988
 11
4.0249097871
 21
3.6439666149
  0
LINE
  5
22F
100
AcDbEntity
  8
0
100
AcDbLine
 62
7
  6
CONTINUOUS
 10
3.9011544264
 20
3.5617093895
 11
3.8943863522
 21
3.5577669897
  0
LINE
  5
230
100
AcDbEntity
  8
0
100
AcDbLine
 62
7
  6
CONTINUOUS
 10
3.9011544264
 20
3.6242093895
 11
3.8841173489
 21
3.6142967239
  0
LINE
  5
231
100
AcDbEntity
  8
0
100
AcDbLine
 62
7
  6
CONTINUOUS
 10
3.9011544264
 20
3.5929593895
 11
3.8841173489
 21
3.5830467239
  0
LINE
  5
232
100
AcDbEntity
  8
0
100
AcDbLine
 62
7
  6
CONTINUOUS
 10
4.0221374995
 20
3.6111008988
 11
4.0391745759
 21
3.6210135638
  0
LINE
  5
233
100
AcDbEntity
  8
0
100
AcDbLine
 62
7
  6
CONTINUOUS
 10
3.4787382225
 20
3.7780064329
 11
3.497648594
 21
3.784517796
  0
LINE
  5
234
100
AcDbEntity
  8
0
100
AcDbLine
 62
7
  6
CONTINUOUS
 10
4.0221374995
 20
3.5798508988
 11
4.0391745759
 21
3.5897635638
  0
LINE
  5
235
100
AcDbEntity
  8
0
100
AcDbLine
 62
7
  6
CONTINUOUS
 10
6.8246455684
 20
3.5529666149
 11
6.6986469459
 21
3.5529666149
  0
LINE
  5
236
100
AcDbEntity
  8
0
100
AcDbLine
 62
7
  6
CONTINUOUS
 10
4.0246455684
 20
3.5529666149
 11
3.8986469459
 21
3.5529666149
  0
LINE
  5
237
100
AcDbEntity
  8
0
100
AcDbLine
 62
7
  6
CONTINUOUS
 10
3.5516487146
 20
3.6439666149
 11
7.1716432109
 21
3.6439666149
  0
LINE
  5
238
100
AcDbEntity
  8
0
100
AcDbLine
 62
7
  6
CONTINUOUS
 10
7.2073279878
 20
3.6698951059
 11
3.5159639377
 21
3.6698951059
  0
LINE
  5
239
100
AcDbEntity
  8
0
100
AcDbLine
 62
7
  6
CONTINUOUS
 10
7.244553703
 20
3.7780064329
 11
3.4787382225
 21
3.7780064329
  0
LINE
  5
23A
100
AcDbEntity
  8
0
100
AcDbLine
 62
7
  6
CONTINUOUS
 10
7.4994412383
 20
3.784517796
 11
7.4794412383
 21
3.784517796
  0
LINE
  5
23B
100
AcDbEntity
  8
0
100
AcDbLine
 62
7
  6
CONTINUOUS
 10
3.2238506871
 20
3.784517796
 11
3.2438506871
 21
3.784517796
  0
LINE
  5
23C
100
AcDbEntity
  8
0
100
AcDbLine
 62
7
  6
CONTINUOUS
 10
3.3636144667
 20
3.784517796
 11
7.3596774588
 21
3.784517796
  0
LINE
  5
23D
100
AcDbEntity
  8
0
100
AcDbLine
 62
7
  6
CONTINUOUS
 10
3.2632207659
 20
3.9045965362
 11
7.4600711596
 21
3.9045965362
  0
LINE
  5
23E
100
AcDbEntity
  8
0
100
AcDbLine
 62
7
  6
CONTINUOUS
 10
7.4886589669
 20
3.9316657137
 11
7.4871403371
 21
3.9316657137
  0
LINE
  5
23F
100
AcDbEntity
  8
0
100
AcDbLine
 62
7
  6
CONTINUOUS
 10
3.2361515883
 20
3.9316657137
 11
3.2346329586
 21
3.9316657137
  0
LINE
  5
240
100
AcDbEntity
  8
0
100
AcDbLine
 62
7
  6
CONTINUOUS
 10
3.2632207659
 20
3.9439666149
 11
7.4600711596
 21
3.9439666149
  0
LINE
  5
241
100
AcDbEntity
  8
0
100
AcDbLine
 62
7
  6
CONTINUOUS
 10
6.6841173495
 20
3.5741385638
 11
6.6856811503
 21
3.573230102
  0
LINE
  5
242
100
AcDbEntity
  8
0
100
AcDbLine
 62
7
  6
CONTINUOUS
 10
6.6841173495
 20
3.6053885638
 11
6.6856811503
 21
3.604480102
  0
LINE
  5
243
100
AcDbEntity
  8
0
100
AcDbLine
 62
7
  6
CONTINUOUS
 10
6.6841173495
 20
3.6366385638
 11
6.6856811503
 21
3.635730102
  0
LINE
  5
244
100
AcDbEntity
  8
0
100
AcDbLine
 62
7
  6
CONTINUOUS
 10
6.838828584
 20
3.5676227027
 11
6.8376767546
 21
3.5682918519
  0
LINE
  5
245
100
AcDbEntity
  8
0
100
AcDbLine
 62
7
  6
CONTINUOUS
 10
6.6856811503
 20
3.573230102
 11
6.7005559627
 21
3.564574784
  0
LINE
  5
246
100
AcDbEntity
  8
0
100
AcDbLine
 62
7
  6
CONTINUOUS
 10
6.6856811503
 20
3.604480102
 11
6.7005559627
 21
3.595824784
  0
LINE
  5
247
100
AcDbEntity
  8
0
100
AcDbLine
 62
7
  6
CONTINUOUS
 10
6.6856811503
 20
3.635730102
 11
6.7005559627
 21
3.627074784
  0
LINE
  5
248
100
AcDbEntity
  8
0
100
AcDbLine
 62
7
  6
CONTINUOUS
 10
6.8376767546
 20
3.5682918519
 11
6.8227359627
 21
3.5769855076
  0
LINE
  5
249
100
AcDbEntity
  8
0
100
AcDbLine
 62
7
  6
CONTINUOUS
 10
7.244553703
 20
3.7780064329
 11
7.2256433315
 21
3.784517796
  0
LINE
  5
24A
100
AcDbEntity
  8
0
100
AcDbLine
 62
7
  6
CONTINUOUS
 10
6.8391745765
 20
3.5986717239
 11
6.8376767546
 21
3.5995418519
  0
LINE
  5
24B
100
AcDbEntity
  8
0
100
AcDbLine
 62
7
  6
CONTINUOUS
 10
6.8391745765
 20
3.6299217239
 11
6.8376767546
 21
3.6307918519
  0
LINE
  5
24C
100
AcDbEntity
  8
0
100
AcDbLine
 62
7
  6
CONTINUOUS
 10
6.8376767546
 20
3.5995418519
 11
6.8227359627
 21
3.6082355076
  0
LINE
  5
24D
100
AcDbEntity
  8
0
100
AcDbLine
 62
7
  6
CONTINUOUS
 10
6.8376767546
 20
3.6307918519
 11
6.8227359627
 21
3.6394855076
  0
LINE
  5
24E
100
AcDbEntity
  8
0
100
AcDbLine
 62
7
  6
CONTINUOUS
 10
6.8221374995
 20
3.6423508988
 11
6.8249097871
 21
3.6439666149
  0
LINE
  5
24F
100
AcDbEntity
  8
0
100
AcDbLine
 62
7
  6
CONTINUOUS
 10
6.7011544264
 20
3.5617093895
 11
6.6943863522
 21
3.5577669897
  0
LINE
  5
250
100
AcDbEntity
  8
0
100
AcDbLine
 62
7
  6
CONTINUOUS
 10
6.7011544264
 20
3.6242093895
 11
6.6841173489
 21
3.6142967239
  0
LINE
  5
251
100
AcDbEntity
  8
0
100
AcDbLine
 62
7
  6
CONTINUOUS
 10
6.7011544264
 20
3.5929593895
 11
6.6841173489
 21
3.5830467239
  0
LINE
  5
252
100
AcDbEntity
  8
0
100
AcDbLine
 62
7
  6
CONTINUOUS
 10
6.8221374995
 20
3.6111008988
 11
6.8391745759
 21
3.6210135638
  0
LINE
  5
253
100
AcDbEntity
  8
0
100
AcDbLine
 62
7
  6
CONTINUOUS
 10
6.69864599
 20
3.5529666149
 11
6.6942441117
 21
3.5573684951
  0
LINE
  5
254
100
AcDbEntity
  8
0
100
AcDbLine
 62
7
  6
CONTINUOUS
 10
6.8221374995
 20
3.5798508988
 11
6.8391745759
 21
3.5897635638
  0
LINE
  5
255
100
AcDbEntity
  8
0
100
AcDbLine
 62
7
  6
CONTINUOUS
 10
6.8246459355
 20
3.5529666149
 11
6.8389536641
 21
3.5672743498
  0
LINE
  5
256
100
AcDbEntity
  8
0
100
AcDbLine
 62
7
  6
CONTINUOUS
 10
6.6836459627
 20
3.5746856371
 11
6.6836459627
 21
3.582499651
  0
LINE
  5
257
100
AcDbEntity
  8
0
100
AcDbLine
 62
7
  6
CONTINUOUS
 10
6.6836459627
 20
3.6059356371
 11
6.6836459627
 21
3.613749651
  0
LINE
  5
258
100
AcDbEntity
  8
0
100
AcDbLine
 62
7
  6
CONTINUOUS
 10
6.6836459627
 20
3.6371856371
 11
6.6836459627
 21
3.6439666149
  0
LINE
  5
259
100
AcDbEntity
  8
0
100
AcDbLine
 62
7
  6
CONTINUOUS
 10
6.7005559627
 20
3.627422644
 11
6.7005559627
 21
3.6238605076
  0
LINE
  5
25A
100
AcDbEntity
  8
0
100
AcDbLine
 62
7
  6
CONTINUOUS
 10
6.7005559627
 20
3.596172644
 11
6.7005559627
 21
3.5926105076
  0
LINE
  5
25B
100
AcDbEntity
  8
0
100
AcDbLine
 62
7
  6
CONTINUOUS
 10
6.7005559627
 20
3.564922644
 11
6.7005559627
 21
3.5613605076
  0
LINE
  5
25C
100
AcDbEntity
  8
0
100
AcDbLine
 62
7
  6
CONTINUOUS
 10
7.4871403371
 20
3.9316657137
 11
7.3399924194
 21
3.784517796
  0
LINE
  5
25D
100
AcDbEntity
  8
0
100
AcDbLine
 62
7
  6
CONTINUOUS
 10
6.8227359627
 20
3.576637644
 11
6.8227359627
 21
3.580199784
  0
LINE
  5
25E
100
AcDbEntity
  8
0
100
AcDbLine
 62
7
  6
CONTINUOUS
 10
6.8227359627
 20
3.607887644
 11
6.8227359627
 21
3.611449784
  0
LINE
  5
25F
100
AcDbEntity
  8
0
100
AcDbLine
 62
7
  6
CONTINUOUS
 10
6.8227359627
 20
3.639137644
 11
6.8227359627
 21
3.642699784
  0
LINE
  5
260
100
AcDbEntity
  8
0
100
AcDbLine
 62
7
  6
CONTINUOUS
 10
6.8396459627
 20
3.5903106371
 11
6.8396459627
 21
3.598124651
  0
LINE
  5
261
100
AcDbEntity
  8
0
100
AcDbLine
 62
7
  6
CONTINUOUS
 10
6.8396459627
 20
3.6215606371
 11
6.8396459627
 21
3.629374651
  0
LINE
  5
262
100
AcDbEntity
  8
0
100
AcDbLine
 62
7
  6
CONTINUOUS
 10
7.4886589669
 20
3.9316657137
 11
7.3596774588
 21
3.784517796
  0
LINE
  5
263
100
AcDbEntity
  8
0
100
AcDbLine
 62
7
  6
CONTINUOUS
 10
7.1716459627
 20
3.6698951059
 11
7.1716459627
 21
3.6439666149
  0
LINE
  5
264
100
AcDbEntity
  8
0
100
AcDbLine
 62
7
  6
CONTINUOUS
 10
7.2073279878
 20
3.6698951059
 11
7.244553703
 21
3.7780064329
  0
LINE
  5
265
100
AcDbEntity
  8
0
100
AcDbLine
 62
7
  6
CONTINUOUS
 10
7.4794412383
 20
3.9211497135
 11
7.4794412383
 21
3.784517796
  0
LINE
  5
266
100
AcDbEntity
  8
0
100
AcDbLine
 62
7
  6
CONTINUOUS
 10
7.4994412383
 20
3.9045965362
 11
7.4994412383
 21
3.784517796
  0
ARC
  5
267
100
AcDbEntity
  8
0
100
AcDbCircle
 62
7
  6
CONTINUOUS
 10
3.2632207659
 20
3.9045965362
 40
0.0393700787
100
AcDbArc
 50
90.0
 51
180.0
  0
ARC
  5
268
100
AcDbEntity
  8
0
100
AcDbCircle
 62
7
  6
CONTINUOUS
 10
7.4600711596
 20
3.9045965362
 40
0.0393700787
100
AcDbArc
 50
0.0
 51
90.0
  0
LINE
  5
269
100
AcDbEntity
  8
0
100
AcDbLine
 62
7
  6
CONTINUOUS
 10
6.6841175298
 20
3.6366385641
 11
6.6836459627
 21
3.6371856371
  0
LINE
  5
26A
100
AcDbEntity
  8
0
100
AcDbLine
 62
7
  6
CONTINUOUS
 10
6.6841175292
 20
3.6053885641
 11
6.6836459628
 21
3.6059356371
  0
LINE
  5
26B
100
AcDbEntity
  8
0
100
AcDbLine
 62
7
  6
CONTINUOUS
 10
6.6836459822
 20
3.5824996506
 11
6.6841175273
 21
3.5830467237
  0
LINE
  5
26C
100
AcDbEntity
  8
0
100
AcDbLine
 62
7
  6
CONTINUOUS
 10
6.6841174433
 20
3.5741385644
 11
6.6836460036
 21
3.5746856365
  0
LINE
  5
26D
100
AcDbEntity
  8
0
100
AcDbLine
 62
7
  6
CONTINUOUS
 10
6.8391745265
 20
3.6210135633
 11
6.8396458189
 21
3.621560637
  0
LINE
  5
26E
100
AcDbEntity
  8
0
100
AcDbLine
 62
7
  6
CONTINUOUS
 10
6.8391744022
 20
3.5897635641
 11
6.8396459626
 21
3.590310637
  0
LINE
  5
26F
100
AcDbEntity
  8
0
100
AcDbLine
 62
7
  6
CONTINUOUS
 10
6.6841175295
 20
3.6142967236
 11
6.6836459627
 21
3.613749651
  0
SPLINE
  5
270
100
AcDbEntity
  8
0
100
AcDbSpline
 62
7
  6
CONTINUOUS
 70
0
 71
3
 72
15
 73
11
 74
0
 42
0.0000001
 43
0.0000001
 44
0.0000000001
 40
0.0
 40
0.0
 40
0.0
 40
0.0
 40
0.1264743155
 40
0.2347788909
 40
0.3329963551
 40
0.431735459
 40
0.5414159875
 40
0.6697697944
 40
0.8216605892
 40
1.0
 40
1.0
 40
1.0
 40
1.0
 10
6.6942442008
 20
3.5573684953
 30
0.0
 10
6.6942288843
 20
3.5573837968
 30
0.0
 10
6.6942024739
 20
3.5574144751
 30
0.0
 10
6.6941759771
 20
3.55746574
 30
0.0
 10
6.694167479
 20
3.5575183569
 30
0.0
 10
6.6941779713
 20
3.5575708265
 30
0.0
 10
6.6942062527
 20
3.5576218391
 30
0.0
 10
6.6942511102
 20
3.557671787
 30
0.0
 10
6.6943123357
 20
3.5577212785
 30
0.0
 10
6.6943601435
 20
3.5577516356
 30
0.0
 10
6.6943865294
 20
3.5577669909
 30
0.0
  0
SPLINE
  5
271
100
AcDbEntity
  8
0
100
AcDbSpline
 62
7
  6
CONTINUOUS
 70
0
 71
3
 72
15
 73
11
 74
0
 42
0.0000001
 43
0.0000001
 44
0.0000000001
 40
0.0
 40
0.0
 40
0.0
 40
0.0
 40
0.1261892868
 40
0.2342633959
 40
0.3323278206
 40
0.431007821
 40
0.5407419093
 40
0.669250311
 40
0.82137311
 40
1.0
 40
1.0
 40
1.0
 40
1.0
 10
6.8389536996
 20
3.5672743494
 30
0.0
 10
6.8389670674
 20
3.5672877124
 30
0.0
 10
6.8389901137
 20
3.5673145103
 30
0.0
 10
6.8390131991
 20
3.5673593083
 30
0.0
 10
6.839020541
 20
3.5674052987
 30
0.0
 10
6.8390112538
 20
3.5674511664
 30
0.0
 10
6.8389863832
 20
3.5674957589
 30
0.0
 10
6.8389470002
 20
3.5675394313
 30
0.0
 10
6.8388932814
 20
3.5675827158
 30
0.0
 10
6.8388513523
 20
3.5676092707
 30
0.0
 10
6.8388282131
 20
3.5676227042
 30
0.0
  0
LINE
  5
272
100
AcDbEntity
  8
0
100
AcDbLine
 62
7
  6
CONTINUOUS
 10
6.8391744093
 20
3.6299217236
 11
6.8396459627
 21
3.629374651
  0
LINE
  5
273
100
AcDbEntity
  8
0
100
AcDbLine
 62
7
  6
CONTINUOUS
 10
6.8391745257
 20
3.5986717244
 11
6.8396458189
 21
3.5981246509
  0
SPLINE
  5
274
100
AcDbEntity
  8
0
100
AcDbSpline
 62
7
  6
CONTINUOUS
 70
0
 71
3
 72
31
 73
27
 74
0
 42
0.0000001
 43
0.0000001
 44
0.0000000001
 40
0.0
 40
0.0
 40
0.0
 40
0.0
 40
0.1820062157
 40
0.2711271391
 40
0.3579849808
 40
0.4418805659
 40
0.5221159555
 40
0.5980182826
 40
0.6689664151
 40
0.7343761347
 40
0.7937125136
 40
0.8209489404
 40
0.8464921029
 40
0.8702891978
 40
0.892290834
 40
0.9124578215
 40
0.930753955
 40
0.9471446325
 40
0.9616025588
 40
0.9741136692
 40
0.9796372355
 40
0.9846727205
 40
0.9892215119
 40
0.9932868899
 40
0.9968759074
 40
1.0
 40
1.0
 40
1.0
 40
1.0
 10
6.7616459627
 20
3.621562151
 30
0.0
 10
6.7569245163
 20
3.6212610927
 30
0.0
 10
6.7498911645
 20
3.6208127062
 30
0.0
 10
6.7406055917
 20
3.6202056267
 30
0.0
 10
6.7338656025
 20
3.6197536161
 30
0.0
 10
6.7273571064
 20
3.6193017442
 30
0.0
 10
6.7211340809
 20
3.618850096
 30
0.0
 10
6.7152485187
 20
3.6183986984
 30
0.0
 10
6.7097494944
 20
3.617947726
 30
0.0
 10
6.7046825986
 20
3.6174972216
 30
0.0
 10
6.7007507077
 20
3.6171122917
 30
0.0
 10
6.6978529892
 20
3.6168014699
 30
0.0
 10
6.695875356
 20
3.6165751653
 30
0.0
 10
6.6940347274
 20
3.6163489859
 30
0.0
 10
6.6923349628
 20
3.6161229053
 30
0.0
 10
6.6907795247
 20
3.6158970117
 30
0.0
 10
6.6893715706
 20
3.615671372
 30
0.0
 10
6.688114039
 20
3.6154460651
 30
0.0
 10
6.6870095171
 20
3.6152210989
 30
0.0
 10
6.6861872915
 20
3.61502697
 30
0.0
 10
6.6856085778
 20
3.614869573
 30
0.0
 10
6.6852324238
 20
3.6147565554
 30
0.0
 10
6.6848959903
 20
3.6146436355
 30
0.0
 10
6.6845994134
 20
3.6145307945
 30
0.0
 10
6.6843427801
 20
3.6144180651
 30
0.0
 10
6.6841877454
 20
3.6143375196
 30
0.0
 10
6.6841175295
 20
3.6142967236
 30
0.0
  0
SPLINE
  5
275
100
AcDbEntity
  8
0
100
AcDbSpline
 62
7
  6
CONTINUOUS
 70
0
 71
3
 72
38
 73
34
 74
0
 42
0.0000001
 43
0.0000001
 44
0.0000000001
 40
0.0
 40
0.0
 40
0.0
 40
0.0
 40
0.0007787681
 40
0.0015855498
 40
0.0024456252
 40
0.0033799588
 40
0.0055304311
 40
0.0081296685
 40
0.0112264448
 40
0.0148479444
 40
0.0190100512
 40
0.0237222845
 40
0.0289903788
 40
0.0348177045
 40
0.041205769
 40
0.0481535329
 40
0.0637183046
 40
0.0814891017
 40
0.1014367054
 40
0.1235192177
 40
0.1476857658
 40
0.1738840556
 40
0.2020561136
 40
0.2321331019
 40
0.2640444281
 40
0.2977179388
 40
0.3700210876
 40
0.4483547744
 40
0.5319728003
 40
0.6200807058
 40
0.7118214679
 40
0.8063275847
 40
1.0
 40
1.0
 40
1.0
 40
1.0
 10
6.8396458189
 20
3.5981246509
 30
0.0
 10
6.8396458189
 20
3.5981042124
 30
0.0
 10
6.8396417373
 20
3.5980624971
 30
0.0
 10
6.8396235669
 20
3.5980005995
 30
0.0
 10
6.8395935108
 20
3.5979389888
 30
0.0
 10
6.8395350092
 20
3.5978532132
 30
0.0
 10
6.8394287815
 20
3.5977468484
 30
0.0
 10
6.8392615992
 20
3.5976258013
 30
0.0
 10
6.8390486423
 20
3.5975048417
 30
0.0
 10
6.8387897765
 20
3.5973838243
 30
0.0
 10
6.8384848769
 20
3.5972626503
 30
0.0
 10
6.8381339943
 20
3.5971413396
 30
0.0
 10
6.8377372226
 20
3.597019908
 30
0.0
 10
6.8372947058
 20
3.5968983827
 30
0.0
 10
6.836806655
 20
3.5967767858
 30
0.0
 10
6.8360671189
 20
3.5966081151
 30
0.0
 10
6.8350304684
 20
3.5963997052
 30
0.0
 10
6.8336531003
 20
3.5961575557
 30
0.0
 10
6.8321024099
 20
3.5959150858
 30
0.0
 10
6.8303820949
 20
3.5956723196
 30
0.0
 10
6.828496293
 20
3.5954293085
 30
0.0
 10
6.8264494844
 20
3.5951861344
 30
0.0
 10
6.8242465621
 20
3.5949428606
 30
0.0
 10
6.8218928673
 20
3.5946994658
 30
0.0
 10
6.8193940766
 20
3.5944559704
 30
0.0
 10
6.8157905593
 20
3.5941233215
 30
0.0
 10
6.8109709711
 20
3.5937107009
 30
0.0
 10
6.8048421361
 20
3.5932259867
 30
0.0
 10
6.7982973373
 20
3.5927408439
 30
0.0
 10
6.7913997866
 20
3.5922554287
 30
0.0
 10
6.7842158241
 20
3.5917697736
 30
0.0
 10
6.7742663669
 20
3.5911167571
 30
0.0
 10
6.7667185313
 20
3.5906355982
 30
0.0
 10
6.7616459627
 20
3.590312151
 30
0.0
  0
SPLINE
  5
276
100
AcDbEntity
  8
0
100
AcDbSpline
 62
7
  6
CONTINUOUS
 70
0
 71
3
 72
58
 73
54
 74
0
 42
0.0000001
 43
0.0000001
 44
0.0000000001
 40
0.0
 40
0.0
 40
0.0
 40
0.0
 40
0.0009579202
 40
0.0019905682
 40
0.0031585589
 40
0.004504323
 40
0.0060551659
 40
0.0078283525
 40
0.0098349905
 40
0.0120823491
 40
0.0145752512
 40
0.0173169151
 40
0.0235535839
 40
0.0307977854
 40
0.0390432597
 40
0.0482797962
 40
0.0584946147
 40
0.0696689561
 40
0.0817796617
 40
0.0948028119
 40
0.108713585
 40
0.1234823603
 40
0.1390766018
 40
0.1726095913
 40
0.2090271152
 40
0.2480133021
 40
0.2892312858
 40
0.3323217072
 40
0.3769099765
 40
0.4690132332
 40
0.5623321348
 40
0.6084292736
 40
0.6536141406
 40
0.6974912819
 40
0.739679747
 40
0.7798104782
 40
0.817537192
 40
0.852530765
 40
0.8844930986
 40
0.9131482954
 40
0.9261608702
 40
0.9382606226
 40
0.9494215075
 40
0.9596228337
 40
0.9688478818
 40
0.9770814353
 40
0.9843112153
 40
0.9875485551
 40
0.9905345903
 40
0.9932703493
 40
0.9957576281
 40
0.9979993295
 40
1.0
 40
1.0
 40
1.0
 40
1.0
 10
6.7005561304
 20
3.6274226435
 30
0.0
 10
6.7005561184
 20
3.6274619177
 30
0.0
 10
6.7005683777
 20
3.627543927
 30
0.0
 10
6.7006217786
 20
3.6276632457
 30
0.0
 10
6.7007087243
 20
3.6277808552
 30
0.0
 10
6.7008285684
 20
3.6278974108
 30
0.0
 10
6.7009812091
 20
3.6280135564
 30
0.0
 10
6.7011666956
 20
3.6281295783
 30
0.0
 10
6.7013850537
 20
3.6282456038
 30
0.0
 10
6.7016362662
 20
3.6283616747
 30
0.0
 10
6.7019202748
 20
3.628477814
 30
0.0
 10
6.7023619092
 20
3.6286397797
 30
0.0
 10
6.7029967191
 20
3.6288393924
 30
0.0
 10
6.7038571901
 20
3.6290703752
 30
0.0
 10
6.7048443244
 20
3.6293018044
 30
0.0
 10
6.7059560586
 20
3.6295335975
 30
0.0
 10
6.7071901426
 20
3.6297655962
 30
0.0
 10
6.7085438983
 20
3.6299977765
 30
0.0
 10
6.7100143038
 20
3.6302301282
 30
0.0
 10
6.7115981665
 20
3.6304626107
 30
0.0
 10
6.7132920858
 20
3.6306951569
 30
0.0
 10
6.7150923343
 20
3.6309277808
 30
0.0
 10
6.7176926749
 20
3.631245801
 30
0.0
 10
6.7211777742
 20
3.6316402942
 30
0.0
 10
6.7256200688
 20
3.6321035126
 30
0.0
 10
6.7303789887
 20
3.6325671382
 30
0.0
 10
6.73541268
 20
3.6330310426
 30
0.0
 10
6.7406769567
 20
3.6334951839
 30
0.0
 10
6.748021307
 20
3.6341209664
 30
0.0
 10
6.7574199755
 20
3.6348927733
 30
0.0
 10
6.7668810791
 20
3.6356599111
 30
0.0
 10
6.7744240297
 20
3.6362816534
 30
0.0
 10
6.7799459914
 20
3.6367459836
 30
0.0
 10
6.7853071303
 20
3.6372102072
 30
0.0
 10
6.790460271
 20
3.637674218
 30
0.0
 10
6.795360204
 20
3.6381380158
 30
0.0
 10
6.799963799
 20
3.6386014207
 30
0.0
 10
6.80423074
 20
3.6390643954
 30
0.0
 10
6.8081234624
 20
3.6395266743
 30
0.0
 10
6.8111162982
 20
3.6399228103
 30
0.0
 10
6.8132973704
 20
3.6402431603
 30
0.0
 10
6.8147663274
 20
3.6404754907
 30
0.0
 10
6.8161185042
 20
3.6407076916
 30
0.0
 10
6.8173509759
 20
3.6409397221
 30
0.0
 10
6.8184611817
 20
3.6411714731
 30
0.0
 10
6.819446703
 20
3.641402882
 30
0.0
 10
6.8201873242
 20
3.6416020207
 30
0.0
 10
6.8207149129
 20
3.6417630643
 30
0.0
 10
6.8210634044
 20
3.6418793075
 30
0.0
 10
6.8213793472
 20
3.6419954896
 30
0.0
 10
6.8216626048
 20
3.6421116146
 30
0.0
 10
6.8219130311
 20
3.6422276708
 30
0.0
 10
6.8220666321
 20
3.6423095858
 30
0.0
 10
6.8221374952
 20
3.6423508985
 30
0.0
  0
SPLINE
  5
277
100
AcDbEntity
  8
0
100
AcDbSpline
 62
7
  6
CONTINUOUS
 70
0
 71
3
 72
38
 73
34
 74
0
 42
0.0000001
 43
0.0000001
 44
0.0000000001
 40
0.0
 40
0.0
 40
0.0
 40
0.0
 40
0.0007788135
 40
0.0015857982
 40
0.002446283
 40
0.0033811807
 40
0.0055327527
 40
0.0081320292
 40
0.0112276687
 40
0.0148477324
 40
0.0190091318
 40
0.0237222312
 40
0.0289920884
 40
0.0348207455
 40
0.0412086696
 40
0.0481552667
 40
0.0637182067
 40
0.0814917026
 40
0.1014399799
 40
0.1235199788
 40
0.1476866835
 40
0.1738873807
 40
0.2020581611
 40
0.2321335804
 40
0.2640467393
 40
0.2977208054
 40
0.3700217765
 40
0.4483551437
 40
0.5319726894
 40
0.6200775763
 40
0.7118157723
 40
0.8063268703
 40
1.0
 40
1.0
 40
1.0
 40
1.0
 10
6.8396459627
 20
3.629374651
 30
0.0
 10
6.8396459629
 20
3.6293542113
 30
0.0
 10
6.8396418651
 20
3.629312489
 30
0.0
 10
6.8396236378
 20
3.6292505889
 30
0.0
 10
6.8395935083
 20
3.6291889796
 30
0.0
 10
6.8395349014
 20
3.6291032108
 30
0.0
 10
6.8394285933
 20
3.6289968713
 30
0.0
 10
6.8392614264
 20
3.628875809
 30
0.0
 10
6.8390485598
 20
3.628754825
 30
0.0
 10
6.838789796
 20
3.628633791
 30
0.0
 10
6.8384849354
 20
3.6285126071
 30
0.0
 10
6.8381339939
 20
3.6283913107
 30
0.0
 10
6.8377371089
 20
3.6282698945
 30
0.0
 10
6.8372945093
 20
3.6281483787
 30
0.0
 10
6.83680646
 20
3.6280267741
 30
0.0
 10
6.8360670116
 20
3.6278580891
 30
0.0
 10
6.835030375
 20
3.6276496458
 30
0.0
 10
6.8336529546
 20
3.6274075579
 30
0.0
 10
6.8321022422
 20
3.6271650857
 30
0.0
 10
6.8303819764
 20
3.626922284
 30
0.0
 10
6.8284961716
 20
3.6266792819
 30
0.0
 10
6.8264493248
 20
3.626436142
 30
0.0
 10
6.8242464162
 20
3.6261928474
 30
0.0
 10
6.8218927495
 20
3.6259494372
 30
0.0
 10
6.8193939345
 20
3.625705966
 30
0.0
 10
6.8157904113
 20
3.6253733179
 30
0.0
 10
6.8109708748
 20
3.6249606835
 30
0.0
 10
6.8048421159
 20
3.6244759892
 30
0.0
 10
6.7982974164
 20
3.6239908526
 30
0.0
 10
6.7914000241
 20
3.6235054429
 30
0.0
 10
6.7842160763
 20
3.6230197925
 30
0.0
 10
6.7742665364
 20
3.6223667664
 30
0.0
 10
6.7667185506
 20
3.6218855995
 30
0.0
 10
6.7616459627
 20
3.621562151
 30
0.0
  0
SPLINE
  5
278
100
AcDbEntity
  8
0
100
AcDbSpline
 62
7
  6
CONTINUOUS
 70
0
 71
3
 72
57
 73
53
 74
0
 42
0.0000001
 43
0.0000001
 44
0.0000000001
 40
0.0
 40
0.0
 40
0.0
 40
0.0
 40
0.0009580178
 40
0.0019908426
 40
0.0031587853
 40
0.0045039997
 40
0.0060541533
 40
0.007827136
 40
0.0098340765
 40
0.0120820163
 40
0.0145755216
 40
0.0173175388
 40
0.0203099218
 40
0.0235537662
 40
0.0307971021
 40
0.0390435674
 40
0.048280978
 40
0.0584947275
 40
0.0696684168
 40
0.0817801045
 40
0.0948039779
 40
0.1087136749
 40
0.1390769862
 40
0.1726095415
 40
0.2090275941
 40
0.2480133574
 40
0.2892318265
 40
0.3323219314
 40
0.3769105433
 40
0.4690137913
 40
0.5623326544
 40
0.6536145677
 40
0.6974924864
 40
0.7396801016
 40
0.7798119227
 40
0.8175374742
 40
0.8525324096
 40
0.8844933211
 40
0.8992512921
 40
0.9131503173
 40
0.9261619211
 40
0.9382610401
 40
0.9494231658
 40
0.9596249418
 40
0.9688488835
 40
0.9770818589
 40
0.9843130537
 40
0.9905361878
 40
0.9932714139
 40
0.9957580748
 40
0.9979993389
 40
1.0
 40
1.0
 40
1.0
 40
1.0
 10
6.7005561137
 20
3.5961726447
 30
0.0
 10
6.7005561307
 20
3.5962119228
 30
0.0
 10
6.7005684549
 20
3.5962939324
 30
0.0
 10
6.700621906
 20
3.5964132332
 30
0.0
 10
6.7007088278
 20
3.5965308329
 30
0.0
 10
6.7008285736
 20
3.5966474114
 30
0.0
 10
6.7009811258
 20
3.5967635791
 30
0.0
 10
6.7011665893
 20
3.5968795941
 30
0.0
 10
6.7013849838
 20
3.5969956104
 30
0.0
 10
6.7016362659
 20
3.5971116757
 30
0.0
 10
6.7019203464
 20
3.5972278028
 30
0.0
 10
6.7022371109
 20
3.5973439884
 30
0.0
 10
6.7025864263
 20
3.5974602339
 30
0.0
 10
6.7031151478
 20
3.5976212726
 30
0.0
 10
6.7038571738
 20
3.5978203843
 30
0.0
 10
6.7048443249
 20
3.5980518068
 30
0.0
 10
6.7059561054
 20
3.5982835691
 30
0.0
 10
6.7071901424
 20
3.5985156063
 30
0.0
 10
6.7085438654
 20
3.5987477953
 30
0.0
 10
6.7100143162
 20
3.5989801237
 30
0.0
 10
6.7115982044
 20
3.5992125984
 30
0.0
 10
6.7139255381
 20
3.5995321069
 30
0.0
 10
6.7170910198
 20
3.5999276048
 30
0.0
 10
6.7211777748
 20
3.60039033
 30
0.0
 10
6.725620063
 20
3.600853496
 30
0.0
 10
6.7303789965
 20
3.6013171497
 30
0.0
 10
6.7354126738
 20
3.6017810351
 30
0.0
 10
6.7406769638
 20
3.6022451897
 30
0.0
 10
6.7480213066
 20
3.6028709636
 30
0.0
 10
6.7574199783
 20
3.6036427555
 30
0.0
 10
6.7687275434
 20
3.6045597018
 30
0.0
 10
6.7780630745
 20
3.605332992
 30
0.0
 10
6.7853071169
 20
3.6059601866
 30
0.0
 10
6.7904602898
 20
3.6064242378
 30
0.0
 10
6.7953601821
 20
3.6068879942
 30
0.0
 10
6.7999638231
 20
3.6073514414
 30
0.0
 10
6.8042307027
 20
3.6078143863
 30
0.0
 10
6.8075576341
 20
3.608209438
 30
0.0
 10
6.8100224338
 20
3.6085281266
 30
0.0
 10
6.8117149378
 20
3.6087606907
 30
0.0
 10
6.813297354
 20
3.6089931672
 30
0.0
 10
6.8147662916
 20
3.6092255121
 30
0.0
 10
6.8161185148
 20
3.6094576838
 30
0.0
 10
6.8173510154
 20
3.6096896979
 30
0.0
 10
6.8184611531
 20
3.609921482
 30
0.0
 10
6.8194466855
 20
3.6101528978
 30
0.0
 10
6.8203055037
 20
3.6103838639
 30
0.0
 10
6.8209388885
 20
3.6105835082
 30
0.0
 10
6.8213793738
 20
3.6107454801
 30
0.0
 10
6.8216625561
 20
3.610861618
 30
0.0
 10
6.8219129307
 20
3.6109776805
 30
0.0
 10
6.8220665121
 20
3.6110595915
 30
0.0
 10
6.8221373783
 20
3.6111008979
 30
0.0
  0
SPLINE
  5
279
100
AcDbEntity
  8
0
100
AcDbSpline
 62
7
  6
CONTINUOUS
 70
0
 71
3
 72
31
 73
27
 74
0
 42
0.0000001
 43
0.0000001
 44
0.0000000001
 40
0.0
 40
0.0
 40
0.0
 40
0.0
 40
0.1820043672
 40
0.2711165126
 40
0.3579722651
 40
0.4418687297
 40
0.5221012403
 40
0.5980053356
 40
0.6689547082
 40
0.7343697453
 40
0.7937075192
 40
0.820947128
 40
0.8464909089
 40
0.8702864477
 40
0.892289974
 40
0.9124593504
 40
0.9307540161
 40
0.9471427342
 40
0.9616026293
 40
0.9741149064
 40
0.9796372761
 40
0.9846710445
 40
0.9892186958
 40
0.9932843408
 40
0.9968745818
 40
1.0
 40
1.0
 40
1.0
 40
1.0
 10
6.7616459627
 20
3.6137481371
 30
0.0
 10
6.766367368
 20
3.6140491928
 30
0.0
 10
6.7734004541
 20
3.6144975648
 30
0.0
 10
6.7826857109
 20
3.6151046167
 30
0.0
 10
6.7894254502
 20
3.6155566191
 30
0.0
 10
6.7959338511
 20
3.6160084645
 30
0.0
 10
6.8021568781
 20
3.6164601314
 30
0.0
 10
6.8080424546
 20
3.6169114984
 30
0.0
 10
6.8135417002
 20
3.6173625172
 30
0.0
 10
6.8186088135
 20
3.6178129936
 30
0.0
 10
6.8225409619
 20
3.6181979901
 30
0.0
 10
6.8254388228
 20
3.6185087898
 30
0.0
 10
6.827416517
 20
3.618735101
 30
0.0
 10
6.8292571679
 20
3.6189613226
 30
0.0
 10
6.8309570074
 20
3.6191873954
 30
0.0
 10
6.8325125255
 20
3.6194132626
 30
0.0
 10
6.8339204517
 20
3.6196389216
 30
0.0
 10
6.8351779386
 20
3.6198642718
 30
0.0
 10
6.8362824995
 20
3.6200892029
 30
0.0
 10
6.8371047865
 20
3.6202833006
 30
0.0
 10
6.8376834484
 20
3.6204407198
 30
0.0
 10
6.83805949
 20
3.620553748
 30
0.0
 10
6.8383958483
 20
3.6206666807
 30
0.0
 10
6.8386924366
 20
3.6207795166
 30
0.0
 10
6.8389491558
 20
3.6208922319
 30
0.0
 10
6.8391042707
 20
3.6209727672
 30
0.0
 10
6.8391745265
 20
3.6210135633
 30
0.0
  0
SPLINE
  5
27A
100
AcDbEntity
  8
0
100
AcDbSpline
 62
7
  6
CONTINUOUS
 70
0
 71
3
 72
59
 73
55
 74
0
 42
0.0000001
 43
0.0000001
 44
0.0000000001
 40
0.0
 40
0.0
 40
0.0
 40
0.0
 40
0.0009580599
 40
0.0019911338
 40
0.0031594673
 40
0.0045049786
 40
0.0060550343
 40
0.0078273375
 40
0.0098335279
 40
0.0120812803
 40
0.0145751158
 40
0.0173177305
 40
0.0203107134
 40
0.0235548868
 40
0.0307971962
 40
0.0390428457
 40
0.0482812427
 40
0.0584958059
 40
0.0696683847
 40
0.0817794723
 40
0.0948042991
 40
0.1087146476
 40
0.1390764724
 40
0.1726103657
 40
0.2090272102
 40
0.248014006
 40
0.2892315688
 40
0.3323223949
 40
0.376910395
 40
0.4226073098
 40
0.4690137432
 40
0.5623326518
 40
0.65361457
 40
0.6974925054
 40
0.7396800677
 40
0.7798119537
 40
0.8175373661
 40
0.8525325028
 40
0.8844931082
 40
0.8992504305
 40
0.9131505099
 40
0.9261626188
 40
0.9382607029
 40
0.9494221929
 40
0.9596252522
 40
0.9688495705
 40
0.9770813952
 40
0.9843120326
 40
0.9875503924
 40
0.9905371179
 40
0.9932727505
 40
0.9957592091
 40
0.9979999361
 40
1.0
 40
1.0
 40
1.0
 40
1.0
 10
6.7005559876
 20
3.5649226446
 30
0.0
 10
6.7005560059
 20
3.5649619244
 30
0.0
 10
6.7005683646
 20
3.5650439455
 30
0.0
 10
6.7006219026
 20
3.5651632382
 30
0.0
 10
6.7007089026
 20
3.5652808254
 30
0.0
 10
6.7008286887
 20
3.5653973942
 30
0.0
 10
6.7009812159
 20
3.5655135592
 30
0.0
 10
6.7011665913
 20
3.5656295962
 30
0.0
 10
6.7013849031
 20
3.565745629
 30
0.0
 10
6.7016361617
 20
3.5658616876
 30
0.0
 10
6.7019202782
 20
3.5659778074
 30
0.0
 10
6.7022371118
 20
3.5660939871
 30
0.0
 10
6.7025864947
 20
3.5662102282
 30
0.0
 10
6.7031152179
 20
3.566371247
 30
0.0
 10
6.7038571696
 20
3.5665703948
 30
0.0
 10
6.7048442822
 20
3.5668018332
 30
0.0
 10
6.7059561111
 20
3.5670335639
 30
0.0
 10
6.7071901806
 20
3.5672655819
 30
0.0
 10
6.7085438609
 20
3.5674978043
 30
0.0
 10
6.71001428
 20
3.5677301396
 30
0.0
 10
6.7115982134
 20
3.5679625939
 30
0.0
 10
6.7139255548
 20
3.5682820864
 30
0.0
 10
6.7170910517
 20
3.5686776384
 30
0.0
 10
6.7211777595
 20
3.5691403011
 30
0.0
 10
6.7256200915
 20
3.5696035203
 30
0.0
 10
6.7303789865
 20
3.5700671301
 30
0.0
 10
6.735412697
 20
3.5705310521
 30
0.0
 10
6.7406769591
 20
3.5709951736
 30
0.0
 10
6.7461255415
 20
3.5714594599
 30
0.0
 10
6.7517105313
 20
3.5719238418
 30
0.0
 10
6.7592873742
 20
3.5725442285
 30
0.0
 10
6.7687275423
 20
3.5733096877
 30
0.0
 10
6.7780630774
 20
3.5740829946
 30
0.0
 10
6.7853071215
 20
3.5747101863
 30
0.0
 10
6.7904602971
 20
3.5751742397
 30
0.0
 10
6.7953601863
 20
3.5756379929
 30
0.0
 10
6.7999638338
 20
3.5761014445
 30
0.0
 10
6.804230705
 20
3.5765643864
 30
0.0
 10
6.8075576082
 20
3.5769594258
 30
0.0
 10
6.8100224089
 20
3.5772781449
 30
0.0
 10
6.8117149541
 20
3.5775106868
 30
0.0
 10
6.8132973945
 20
3.5777431516
 30
0.0
 10
6.8147662813
 20
3.5779755146
 30
0.0
 10
6.8161184853
 20
3.5782077104
 30
0.0
 10
6.8173510326
 20
3.5784396904
 30
0.0
 10
6.8184612058
 20
3.578671452
 30
0.0
 10
6.8194466434
 20
3.578902925
 30
0.0
 10
6.8201872747
 20
3.579102042
 30
0.0
 10
6.8207149807
 20
3.5792630604
 30
0.0
 10
6.8210635446
 20
3.5793792913
 30
0.0
 10
6.8213794767
 20
3.5794954726
 30
0.0
 10
6.8216626449
 20
3.5796116084
 30
0.0
 10
6.8219129566
 20
3.5797276779
 30
0.0
 10
6.8220664832
 20
3.579809593
 30
0.0
 10
6.8221373214
 20
3.5798508989
 30
0.0
  0
SPLINE
  5
27B
100
AcDbEntity
  8
0
100
AcDbSpline
 62
7
  6
CONTINUOUS
 70
0
 71
3
 72
31
 73
27
 74
0
 42
0.0000001
 43
0.0000001
 44
0.0000000001
 40
0.0
 40
0.0
 40
0.0
 40
0.0
 40
0.1820043774
 40
0.2711240622
 40
0.3579810961
 40
0.4418760969
 40
0.5221106446
 40
0.5980125785
 40
0.6689614408
 40
0.7343735374
 40
0.7937122778
 40
0.8209494593
 40
0.8464932066
 40
0.8702908392
 40
0.8922927044
 40
0.9124595272
 40
0.9307554048
 40
0.9471460104
 40
0.9616036736
 40
0.9741143138
 40
0.9796376551
 40
0.9846729681
 40
0.9892216735
 40
0.9932870215
 40
0.9968759806
 40
1.0
 40
1.0
 40
1.0
 40
1.0
 10
6.7616459627
 20
3.5824981371
 30
0.0
 10
6.7663673619
 20
3.5827991924
 30
0.0
 10
6.7734006343
 20
3.5832475739
 30
0.0
 10
6.782686107
 20
3.5838546461
 30
0.0
 10
6.7894260285
 20
3.5843066523
 30
0.0
 10
6.7959344673
 20
3.5847585186
 30
0.0
 10
6.8021574461
 20
3.5852101631
 30
0.0
 10
6.8080429959
 20
3.5856615555
 30
0.0
 10
6.8135420909
 20
3.5861125342
 30
0.0
 10
6.818609129
 20
3.5865630485
 30
0.0
 10
6.8225411625
 20
3.5869479899
 30
0.0
 10
6.8254389768
 20
3.5872588234
 30
0.0
 10
6.8274166584
 20
3.5874851349
 30
0.0
 10
6.8292573221
 20
3.5877113176
 30
0.0
 10
6.8309571023
 20
3.5879374006
 30
0.0
 10
6.832512535
 20
3.5881632973
 30
0.0
 10
6.8339204759
 20
3.5883889397
 30
0.0
 10
6.8351779927
 20
3.588614242
 30
0.0
 10
6.8362824941
 20
3.5888392045
 30
0.0
 10
6.8371046946
 20
3.589033332
 30
0.0
 10
6.8376833856
 20
3.5891907265
 30
0.0
 10
6.8380595271
 20
3.5893037423
 30
0.0
 10
6.8383959535
 20
3.5894166597
 30
0.0
 10
6.8386925269
 20
3.5895294971
 30
0.0
 10
6.8389491567
 20
3.5896422245
 30
0.0
 10
6.8391041882
 20
3.5897227687
 30
0.0
 10
6.8391744022
 20
3.5897635641
 30
0.0
  0
SPLINE
  5
27C
100
AcDbEntity
  8
0
100
AcDbSpline
 62
7
  6
CONTINUOUS
 70
0
 71
3
 72
59
 73
55
 74
0
 42
0.0000001
 43
0.0000001
 44
0.0000000001
 40
0.0
 40
0.0
 40
0.0
 40
0.0
 40
0.0019999877
 40
0.0042406809
 40
0.006727186
 40
0.0094629535
 40
0.0124497463
 40
0.015688099
 40
0.0229186099
 40
0.0311503493
 40
0.0403748167
 40
0.0505779121
 40
0.0617393108
 40
0.0738373389
 40
0.0868495502
 40
0.1007496505
 40
0.1155069183
 40
0.1474675464
 40
0.1824626751
 40
0.220188087
 40
0.2603199872
 40
0.3025075327
 40
0.3463854942
 40
0.4376674149
 40
0.530986317
 40
0.5773927789
 40
0.6230896488
 40
0.6676777297
 40
0.7107684492
 40
0.7519861604
 40
0.7909727743
 40
0.8273898449
 40
0.8609234741
 40
0.8912856052
 40
0.9051957279
 40
0.9182204361
 40
0.9303318589
 40
0.9415044826
 40
0.9517187593
 40
0.9609570307
 40
0.9692031028
 40
0.9764454254
 40
0.979689439
 40
0.982682247
 40
0.9854247425
 40
0.9879185822
 40
0.9901665254
 40
0.992172988
 40
0.9939453541
 40
0.9954953282
 40
0.9968407001
 40
0.9980089136
 40
0.9990419358
 40
1.0
 40
1.0
 40
1.0
 40
1.0
 10
6.7011546042
 20
3.6242093892
 30
0.0
 10
6.7012254386
 20
3.6242506954
 30
0.0
 10
6.7013789596
 20
3.6243326116
 30
0.0
 10
6.7016292681
 20
3.6244486817
 30
0.0
 10
6.7019124429
 20
3.6245648176
 30
0.0
 10
6.7022283873
 20
3.6246809948
 30
0.0
 10
6.7025769593
 20
3.6247972264
 30
0.0
 10
6.7031046623
 20
3.6249582447
 30
0.0
 10
6.7038452836
 20
3.6251573641
 30
0.0
 10
6.7048307179
 20
3.6253888398
 30
0.0
 10
6.7059408963
 20
3.6256205954
 30
0.0
 10
6.7071734471
 20
3.6258525764
 30
0.0
 10
6.7085256459
 20
3.6260847739
 30
0.0
 10
6.7099945305
 20
3.6263171383
 30
0.0
 10
6.7115769739
 20
3.6265496002
 30
0.0
 10
6.7132695216
 20
3.6267821425
 30
0.0
 10
6.7157343213
 20
3.6271008634
 30
0.0
 10
6.7190612225
 20
3.6274959011
 30
0.0
 10
6.7233280936
 20
3.6279588438
 30
0.0
 10
6.7279317407
 20
3.6284222952
 30
0.0
 10
6.7328316291
 20
3.6288860481
 30
0.0
 10
6.7379848049
 20
3.629350102
 30
0.0
 10
6.7452288484
 20
3.629977293
 30
0.0
 10
6.7545643831
 20
3.6307506002
 30
0.0
 10
6.7640045509
 20
3.6315160599
 30
0.0
 10
6.7715813917
 20
3.6321364455
 30
0.0
 10
6.7771663832
 20
3.6326008291
 30
0.0
 10
6.7826149622
 20
3.6330651125
 30
0.0
 10
6.7878792283
 20
3.6335292383
 30
0.0
 10
6.7929129328
 20
3.6339931544
 30
0.0
 10
6.7976718342
 20
3.634456772
 30
0.0
 10
6.8021141577
 20
3.634919981
 30
0.0
 10
6.8062008744
 20
3.6353826567
 30
0.0
 10
6.8093663649
 20
3.6357781955
 30
0.0
 10
6.8116937035
 20
3.6360976944
 30
0.0
 10
6.8132776356
 20
3.6363301538
 30
0.0
 10
6.8147480666
 20
3.6365624803
 30
0.0
 10
6.8161017509
 20
3.6367947019
 30
0.0
 10
6.817335804
 20
3.6370267245
 30
0.0
 10
6.8184476311
 20
3.6372584645
 30
0.0
 10
6.8194347604
 20
3.6374898865
 30
0.0
 10
6.8201767236
 20
3.6376890356
 30
0.0
 10
6.8207054316
 20
3.637850059
 30
0.0
 10
6.8210547944
 20
3.6379663015
 30
0.0
 10
6.8213716146
 20
3.6380824829
 30
0.0
 10
6.8216557333
 20
3.6381986051
 30
0.0
 10
6.821907013
 20
3.6383146629
 30
0.0
 10
6.822125355
 20
3.638430685
 30
0.0
 10
6.8223107422
 20
3.6385467235
 30
0.0
 10
6.8224632602
 20
3.6386628904
 30
0.0
 10
6.8225830245
 20
3.6387794623
 30
0.0
 10
6.822669999
 20
3.6388970527
 30
0.0
 10
6.8227235168
 20
3.6390163461
 30
0.0
 10
6.8227358754
 20
3.6390983632
 30
0.0
 10
6.8227358995
 20
3.6391376432
 30
0.0
  0
SPLINE
  5
27D
100
AcDbEntity
  8
0
100
AcDbSpline
 62
7
  6
CONTINUOUS
 70
0
 71
3
 72
31
 73
27
 74
0
 42
0.0000001
 43
0.0000001
 44
0.0000000001
 40
0.0
 40
0.0
 40
0.0
 40
0.0
 40
0.0031243052
 40
0.0067133391
 40
0.010778384
 40
0.0153267115
 40
0.0203621064
 40
0.0258858582
 40
0.0383976506
 40
0.0528557918
 40
0.0692458864
 40
0.0875423969
 40
0.107710072
 40
0.129711773
 40
0.1535084751
 40
0.1790520707
 40
0.2062891534
 40
0.2656261902
 40
0.3310383843
 40
0.4019883768
 40
0.4778925063
 40
0.5581270595
 40
0.6420214261
 40
0.7288764749
 40
0.8179938444
 40
1.0
 40
1.0
 40
1.0
 40
1.0
 10
6.6841175273
 20
3.5830467237
 30
0.0
 10
6.6841877507
 20
3.5830875178
 30
0.0
 10
6.6843427943
 20
3.5831680587
 30
0.0
 10
6.6845994261
 20
3.5832807844
 30
0.0
 10
6.68489598
 20
3.5833936284
 30
0.0
 10
6.6852323871
 20
3.5835065546
 30
0.0
 10
6.6856085321
 20
3.5836195695
 30
0.0
 10
6.6861872666
 20
3.5837769671
 30
0.0
 10
6.6870095222
 20
3.5839710914
 30
0.0
 10
6.6881140517
 20
3.5841960597
 30
0.0
 10
6.6893715804
 20
3.5844213844
 30
0.0
 10
6.6907795483
 20
3.5846470181
 30
0.0
 10
6.6923350165
 20
3.5848729084
 30
0.0
 10
6.6940347903
 20
3.5850989912
 30
0.0
 10
6.6958754206
 20
3.5853251787
 30
0.0
 10
6.6978530725
 20
3.58555148
 30
0.0
 10
6.7007508368
 20
3.5858623005
 30
0.0
 10
6.7046828249
 20
3.5862472485
 30
0.0
 10
6.7097498512
 20
3.5866977516
 30
0.0
 10
6.7152490341
 20
3.5871487431
 30
0.0
 10
6.7211346704
 20
3.5876001364
 30
0.0
 10
6.727357689
 20
3.5880517888
 30
0.0
 10
6.73386606
 20
3.5885036453
 30
0.0
 10
6.7406058529
 20
3.5889556449
 30
0.0
 10
6.7498912597
 20
3.5895627116
 30
0.0
 10
6.7569245178
 20
3.5900110927
 30
0.0
 10
6.7616459627
 20
3.590312151
 30
0.0
  0
SPLINE
  5
27E
100
AcDbEntity
  8
0
100
AcDbSpline
 62
7
  6
CONTINUOUS
 70
0
 71
3
 72
59
 73
55
 74
0
 42
0.0000001
 43
0.0000001
 44
0.0000000001
 40
0.0
 40
0.0
 40
0.0
 40
0.0
 40
0.0020000429
 40
0.0042407548
 40
0.006727213
 40
0.0094628665
 40
0.0124496101
 40
0.0156879799
 40
0.0229186177
 40
0.0311504268
 40
0.0403747277
 40
0.0505778047
 40
0.0617393254
 40
0.0738374111
 40
0.0868494651
 40
0.1007495591
 40
0.115506937
 40
0.1474674709
 40
0.1824626948
 40
0.2201880262
 40
0.2603200046
 40
0.3025074909
 40
0.346385506
 40
0.437667418
 40
0.5309863088
 40
0.5773928087
 40
0.6230896277
 40
0.667677784
 40
0.7107684141
 40
0.7519862371
 40
0.7909727255
 40
0.8273899409
 40
0.8609234128
 40
0.8912857164
 40
0.9051957403
 40
0.9182203646
 40
0.930331908
 40
0.9415046041
 40
0.9517187677
 40
0.9609569527
 40
0.9692031676
 40
0.9764455508
 40
0.9796895126
 40
0.9826822516
 40
0.9854246882
 40
0.9879185057
 40
0.9901664884
 40
0.9921730592
 40
0.9939454776
 40
0.9954954412
 40
0.9968407713
 40
0.9980089408
 40
0.9990419385
 40
1.0
 40
1.0
 40
1.0
 40
1.0
 10
6.7011546083
 20
3.5929593893
 30
0.0
 10
6.7012254455
 20
3.5930006953
 30
0.0
 10
6.7013789703
 20
3.5930826105
 30
0.0
 10
6.7016292802
 20
3.5931986802
 30
0.0
 10
6.7019124486
 20
3.5933148161
 30
0.0
 10
6.7022283825
 20
3.5934309968
 30
0.0
 10
6.7025769485
 20
3.5935472277
 30
0.0
 10
6.7031046555
 20
3.593708246
 30
0.0
 10
6.7038452865
 20
3.593907363
 30
0.0
 10
6.7048307225
 20
3.5941388362
 30
0.0
 10
6.7059408946
 20
3.5943705983
 30
0.0
 10
6.707173443
 20
3.5946025778
 30
0.0
 10
6.7085256489
 20
3.5948347733
 30
0.0
 10
6.7099945345
 20
3.5950671359
 30
0.0
 10
6.7115769728
 20
3.5952996022
 30
0.0
 10
6.7132695183
 20
3.5955321435
 30
0.0
 10
6.7157343186
 20
3.5958508609
 30
0.0
 10
6.7190612237
 20
3.5962459037
 30
0.0
 10
6.7233280917
 20
3.5967088418
 30
0.0
 10
6.727931742
 20
3.5971722969
 30
0.0
 10
6.7328316278
 20
3.5976360468
 30
0.0
 10
6.737984806
 20
3.5981001031
 30
0.0
 10
6.7452288487
 20
3.5987272922
 30
0.0
 10
6.754564384
 20
3.5995006003
 30
0.0
 10
6.7640045519
 20
3.6002660606
 30
0.0
 10
6.7715813914
 20
3.6008864448
 30
0.0
 10
6.7771663849
 20
3.6013508303
 30
0.0
 10
6.7826149611
 20
3.6018151111
 30
0.0
 10
6.7878792305
 20
3.6022792402
 30
0.0
 10
6.7929129309
 20
3.602743152
 30
0.0
 10
6.7976718369
 20
3.603206775
 30
0.0
 10
6.8021141551
 20
3.6036699775
 30
0.0
 10
6.8062008772
 20
3.6041326608
 30
0.0
 10
6.8093663649
 20
3.6045281926
 30
0.0
 10
6.8116937026
 20
3.6048476943
 30
0.0
 10
6.8132776316
 20
3.605080156
 30
0.0
 10
6.8147480675
 20
3.6053124799
 30
0.0
 10
6.8161017553
 20
3.6055446996
 30
0.0
 10
6.8173358028
 20
3.6057767244
 30
0.0
 10
6.8184476265
 20
3.6060084682
 30
0.0
 10
6.8194347617
 20
3.6062398856
 30
0.0
 10
6.8201767319
 20
3.6064390331
 30
0.0
 10
6.8207054366
 20
3.6066000586
 30
0.0
 10
6.8210547914
 20
3.6067163015
 30
0.0
 10
6.8213716048
 20
3.6068324836
 30
0.0
 10
6.8216557214
 20
3.6069486064
 30
0.0
 10
6.821907006
 20
3.6070646655
 30
0.0
 10
6.8221253594
 20
3.6071806834
 30
0.0
 10
6.8223107544
 20
3.6072967213
 30
0.0
 10
6.8224632721
 20
3.6074128889
 30
0.0
 10
6.8225830301
 20
3.6075294618
 30
0.0
 10
6.8226699956
 20
3.6076470534
 30
0.0
 10
6.8227235046
 20
3.6077663475
 30
0.0
 10
6.8227358607
 20
3.6078483633
 30
0.0
 10
6.8227358853
 20
3.6078876432
 30
0.0
  0
LINE
  5
27F
100
AcDbEntity
  8
0
100
AcDbLine
 62
7
  6
CONTINUOUS
 10
6.6943865294
 20
3.5577669909
 11
6.694598836
 21
3.5578695986
  0
SPLINE
  5
280
100
AcDbEntity
  8
0
100
AcDbSpline
 62
7
  6
CONTINUOUS
 70
0
 71
3
 72
56
 73
52
 74
0
 42
0.0000001
 43
0.0000001
 44
0.0000000001
 40
0.0
 40
0.0
 40
0.0
 40
0.0
 40
0.0015549162
 40
0.0033831725
 40
0.0054879609
 40
0.0078703439
 40
0.0105300264
 40
0.0134661575
 40
0.020162555
 40
0.0279476347
 40
0.0368045593
 40
0.0467098123
 40
0.0576384979
 40
0.0695649925
 40
0.0824591107
 40
0.1110156641
 40
0.1430292761
 40
0.1781846951
 40
0.2161464024
 40
0.2565522192
 40
0.2990254328
 40
0.3431726725
 40
0.3885919495
 40
0.4348736616
 40
0.5283792631
 40
0.5747865971
 40
0.6204291254
 40
0.6649218251
 40
0.7078901362
 40
0.7489814189
 40
0.787857761
 40
0.8242092589
 40
0.8577448286
 40
0.8882058024
 40
0.9153563827
 40
0.9276273426
 40
0.9389964178
 40
0.9494437599
 40
0.9589526556
 40
0.9675067358
 40
0.9750906078
 40
0.9816943734
 40
0.9873118058
 40
0.9897493762
 40
0.9919391669
 40
0.9938814733
 40
0.9955777454
 40
0.9970308079
 40
0.9982453591
 40
0.9992297252
 40
1.0
 40
1.0
 40
1.0
 40
1.0
 10
6.694598836
 20
3.5578695986
 30
0.0
 10
6.6946682001
 20
3.5578982627
 30
0.0
 10
6.6948217057
 20
3.5579543817
 30
0.0
 10
6.6950750546
 20
3.5580319858
 30
0.0
 10
6.695369899
 20
3.5581096514
 30
0.0
 10
6.6957060433
 20
3.5581873477
 30
0.0
 10
6.696083247
 20
3.5582650594
 30
0.0
 10
6.6966666163
 20
3.5583734614
 30
0.0
 10
6.6974968334
 20
3.5585066914
 30
0.0
 10
6.6986128428
 20
3.558660556
 30
0.0
 10
6.6998850229
 20
3.5588143627
 30
0.0
 10
6.7013099142
 20
3.5589681122
 30
0.0
 10
6.7028837557
 20
3.5591217072
 30
0.0
 10
6.704602506
 20
3.559275087
 30
0.0
 10
6.7071702651
 20
3.5594865365
 30
0.0
 10
6.7107067762
 20
3.5597467746
 30
0.0
 10
6.7153174533
 20
3.5600488192
 30
0.0
 10
6.7203830269
 20
3.5603501024
 30
0.0
 10
6.7258543831
 20
3.5606504523
 30
0.0
 10
6.7316795035
 20
3.5609498199
 30
0.0
 10
6.7378036138
 20
3.56124811
 30
0.0
 10
6.7441700409
 20
3.5615453097
 30
0.0
 10
6.7507205428
 20
3.5618413776
 30
0.0
 10
6.7596514727
 20
3.5622359481
 30
0.0
 10
6.7686303998
 20
3.5626245737
 30
0.0
 10
6.7775784052
 20
3.5630141111
 30
0.0
 10
6.7841627131
 20
3.5633043709
 30
0.0
 10
6.7905809147
 20
3.5635934187
 30
0.0
 10
6.7967792603
 20
3.5638812856
 30
0.0
 10
6.8027062703
 20
3.5641678951
 30
0.0
 10
6.8083135677
 20
3.5644532802
 30
0.0
 10
6.8135557341
 20
3.5647373261
 30
0.0
 10
6.8183911445
 20
3.5650200279
 30
0.0
 10
6.8227817075
 20
3.5653012315
 30
0.0
 10
6.8261463042
 20
3.565541611
 30
0.0
 10
6.8285902239
 20
3.5657354902
 30
0.0
 10
6.8302296034
 20
3.5658756264
 30
0.0
 10
6.8317351698
 20
3.5660154071
 30
0.0
 10
6.8331042653
 20
3.5661547891
 30
0.0
 10
6.8343344085
 20
3.5662937247
 30
0.0
 10
6.8354234006
 20
3.5664321752
 30
0.0
 10
6.8363694211
 20
3.5665700712
 30
0.0
 10
6.8370669976
 20
3.5666892332
 30
0.0
 10
6.8375519604
 20
3.5667860482
 30
0.0
 10
6.8378615056
 20
3.5668550409
 30
0.0
 10
6.8381343277
 20
3.5669238697
 30
0.0
 10
6.838370388
 20
3.5669925164
 30
0.0
 10
6.8385697054
 20
3.567060918
 30
0.0
 10
6.8387325079
 20
3.5671290882
 30
0.0
 10
6.8388589644
 20
3.5671969325
 30
0.0
 10
6.8389274047
 20
3.5672480639
 30
0.0
 10
6.8389536996
 20
3.5672743494
 30
0.0
  0
SPLINE
  5
281
100
AcDbEntity
  8
0
100
AcDbSpline
 62
7
  6
CONTINUOUS
 70
0
 71
3
 72
59
 73
55
 74
0
 42
0.0000001
 43
0.0000001
 44
0.0000000001
 40
0.0
 40
0.0
 40
0.0
 40
0.0
 40
0.0020001022
 40
0.0042408425
 40
0.0067272691
 40
0.0094628121
 40
0.0124494906
 40
0.0156878663
 40
0.0229186246
 40
0.0311505186
 40
0.0403746684
 40
0.0505777021
 40
0.0617393395
 40
0.073837498
 40
0.0868494058
 40
0.100749472
 40
0.115506956
 40
0.147467417
 40
0.1824627157
 40
0.2201879828
 40
0.2603200239
 40
0.3025074627
 40
0.3463855202
 40
0.4376674239
 40
0.5309863036
 40
0.5773928432
 40
0.6230896092
 40
0.667677841
 40
0.7107683812
 40
0.7519863153
 40
0.7909726778
 40
0.8273900377
 40
0.8609233513
 40
0.8912858281
 40
0.9051957615
 40
0.9182202913
 40
0.9303319285
 40
0.9415047261
 40
0.9517187849
 40
0.9609568712
 40
0.9692032029
 40
0.9764456767
 40
0.9796895933
 40
0.9826822644
 40
0.9854246379
 40
0.987918424
 40
0.9901664319
 40
0.9921731034
 40
0.9939455898
 40
0.9954955527
 40
0.9968408455
 40
0.9980089716
 40
0.9990419427
 40
1.0
 40
1.0
 40
1.0
 40
1.0
 10
6.7011546106
 20
3.5617093894
 30
0.0
 10
6.7012254507
 20
3.5617506952
 30
0.0
 10
6.70137898
 20
3.5618326096
 30
0.0
 10
6.7016292925
 20
3.5619486789
 30
0.0
 10
6.701912456
 20
3.5620648144
 30
0.0
 10
6.7022283797
 20
3.5621809983
 30
0.0
 10
6.7025769384
 20
3.5622972291
 30
0.0
 10
6.703104648
 20
3.5624582474
 30
0.0
 10
6.7038452886
 20
3.5626573622
 30
0.0
 10
6.7048307274
 20
3.5628888326
 30
0.0
 10
6.7059408936
 20
3.5631206005
 30
0.0
 10
6.7071734389
 20
3.5633525796
 30
0.0
 10
6.7085256511
 20
3.5635847729
 30
0.0
 10
6.7099945387
 20
3.5638171336
 30
0.0
 10
6.7115769722
 20
3.5640496038
 30
0.0
 10
6.7132695149
 20
3.5642821448
 30
0.0
 10
6.7157343158
 20
3.5646008585
 30
0.0
 10
6.7190612246
 20
3.5649959059
 30
0.0
 10
6.7233280903
 20
3.5654588403
 30
0.0
 10
6.727931743
 20
3.5659222983
 30
0.0
 10
6.7328316268
 20
3.5663860458
 30
0.0
 10
6.737984807
 20
3.566850104
 30
0.0
 10
6.7452288489
 20
3.5674772915
 30
0.0
 10
6.7545643847
 20
3.5682506004
 30
0.0
 10
6.764004553
 20
3.5690160613
 30
0.0
 10
6.7715813912
 20
3.569636444
 30
0.0
 10
6.7771663869
 20
3.5701008314
 30
0.0
 10
6.7826149603
 20
3.5705651096
 30
0.0
 10
6.7878792332
 20
3.5710292422
 30
0.0
 10
6.7929129294
 20
3.5714931496
 30
0.0
 10
6.79767184
 20
3.5719567779
 30
0.0
 10
6.8021141529
 20
3.572419974
 30
0.0
 10
6.8062008806
 20
3.5728826648
 30
0.0
 10
6.8093663659
 20
3.5732781899
 30
0.0
 10
6.8116937026
 20
3.573597694
 30
0.0
 10
6.8132776275
 20
3.5738301581
 30
0.0
 10
6.8147480677
 20
3.5740624803
 30
0.0
 10
6.8161017597
 20
3.574294697
 30
0.0
 10
6.8173358025
 20
3.574526724
 30
0.0
 10
6.8184476217
 20
3.5747584716
 30
0.0
 10
6.8194347621
 20
3.5749898858
 30
0.0
 10
6.82017674
 20
3.5751890303
 30
0.0
 10
6.8207054431
 20
3.5753500581
 30
0.0
 10
6.8210547901
 20
3.5754663015
 30
0.0
 10
6.8213715961
 20
3.5755824842
 30
0.0
 10
6.8216557095
 20
3.5756986076
 30
0.0
 10
6.8219069975
 20
3.5758146682
 30
0.0
 10
6.8221253616
 20
3.5759306827
 30
0.0
 10
6.8223107659
 20
3.5760467189
 30
0.0
 10
6.8224632848
 20
3.5761628872
 30
0.0
 10
6.8225830375
 20
3.5762794611
 30
0.0
 10
6.8226699941
 20
3.576397054
 30
0.0
 10
6.8227234939
 20
3.5765163489
 30
0.0
 10
6.8227358464
 20
3.5765983634
 30
0.0
 10
6.8227358709
 20
3.5766376431
 30
0.0
  0
SPLINE
  5
282
100
AcDbEntity
  8
0
100
AcDbSpline
 62
7
  6
CONTINUOUS
 70
0
 71
3
 72
38
 73
34
 74
0
 42
0.0000001
 43
0.0000001
 44
0.0000000001
 40
0.0
 40
0.0
 40
0.0
 40
0.0
 40
0.0007787607
 40
0.0015855911
 40
0.0024459244
 40
0.003380742
 40
0.0055324347
 40
0.0081321332
 40
0.0112282597
 40
0.0148485806
 40
0.0190096937
 40
0.0237218786
 40
0.028991201
 40
0.0348198125
 40
0.0412079581
 40
0.0481548156
 40
0.0637174643
 40
0.0814896526
 40
0.101438095
 40
0.1235184324
 40
0.147684189
 40
0.1738842755
 40
0.2020551949
 40
0.2321303826
 40
0.264042479
 40
0.2977162072
 40
0.370016653
 40
0.448349579
 40
0.5319678387
 40
0.6200756248
 40
0.71181654
 40
0.8063275936
 40
1.0
 40
1.0
 40
1.0
 40
1.0
 10
6.6836460036
 20
3.5746856365
 30
0.0
 10
6.6836459915
 20
3.5747060749
 30
0.0
 10
6.6836500563
 20
3.5747477944
 30
0.0
 10
6.6836682377
 20
3.5748096993
 30
0.0
 10
6.6836983432
 20
3.5748713104
 30
0.0
 10
6.6837569406
 20
3.5749570831
 30
0.0
 10
6.6838632709
 20
3.5750634204
 30
0.0
 10
6.6840304765
 20
3.5751844746
 30
0.0
 10
6.6842433815
 20
3.5753054525
 30
0.0
 10
6.6845021604
 20
3.5754264818
 30
0.0
 10
6.6848069947
 20
3.5755476642
 30
0.0
 10
6.6851578831
 20
3.5756689751
 30
0.0
 10
6.6855547288
 20
3.5757903873
 30
0.0
 10
6.6859973202
 20
3.5759118983
 30
0.0
 10
6.6864853826
 20
3.5760334986
 30
0.0
 10
6.6872248384
 20
3.5762021746
 30
0.0
 10
6.6882614402
 20
3.5764106134
 30
0.0
 10
6.6896388199
 20
3.5766527195
 30
0.0
 10
6.6911895139
 20
3.5768951773
 30
0.0
 10
6.6929097696
 20
3.5771379712
 30
0.0
 10
6.6947955415
 20
3.5773809838
 30
0.0
 10
6.6968423517
 20
3.5776241232
 30
0.0
 10
6.6990452433
 20
3.5778674108
 30
0.0
 10
6.7013988809
 20
3.5781108173
 30
0.0
 10
6.7038976533
 20
3.5783542945
 30
0.0
 10
6.7075011277
 20
3.5786869358
 30
0.0
 10
6.7123206318
 20
3.5790995701
 30
0.0
 10
6.7184493862
 20
3.5795842667
 30
0.0
 10
6.724994171
 20
3.5800694123
 30
0.0
 10
6.7318917319
 20
3.5805548323
 30
0.0
 10
6.7390758283
 20
3.5810404951
 30
0.0
 10
6.7490254233
 20
3.5816935231
 30
0.0
 10
6.7565733918
 20
3.5821746897
 30
0.0
 10
6.7616459627
 20
3.5824981371
 30
0.0
  0
SPLINE
  5
283
100
AcDbEntity
  8
0
100
AcDbSpline
 62
7
  6
CONTINUOUS
 70
0
 71
3
 72
38
 73
34
 74
0
 42
0.0000001
 43
0.0000001
 44
0.0000000001
 40
0.0
 40
0.0
 40
0.0
 40
0.0
 40
0.0007788285
 40
0.0015858277
 40
0.0024463299
 40
0.0033812497
 40
0.005532882
 40
0.0081322375
 40
0.0112279669
 40
0.0148481219
 40
0.0190096034
 40
0.0237227965
 40
0.028992797
 40
0.034821616
 40
0.0412096874
 40
0.0481563836
 40
0.063719241
 40
0.08149225
 40
0.1014398508
 40
0.1235190091
 40
0.1476847068
 40
0.1738840404
 40
0.2020533332
 40
0.2321274927
 40
0.2640396059
 40
0.297712377
 40
0.3700115321
 40
0.4483440154
 40
0.5319631193
 40
0.6200708106
 40
0.7118117772
 40
0.8063252442
 40
1.0
 40
1.0
 40
1.0
 40
1.0
 10
6.6836459628
 20
3.6059356371
 30
0.0
 10
6.6836459622
 20
3.6059560772
 30
0.0
 10
6.6836500594
 20
3.6059978003
 30
0.0
 10
6.6836682868
 20
3.6060597017
 30
0.0
 10
6.6836984173
 20
3.6061213122
 30
0.0
 10
6.6837570266
 20
3.6062070825
 30
0.0
 10
6.6838633392
 20
3.6063134235
 30
0.0
 10
6.6840305125
 20
3.6064344872
 30
0.0
 10
6.6842433862
 20
3.6065554726
 30
0.0
 10
6.684502157
 20
3.6066765079
 30
0.0
 10
6.6848070245
 20
3.6067976935
 30
0.0
 10
6.6851579742
 20
3.6069189917
 30
0.0
 10
6.68555487
 20
3.6070404086
 30
0.0
 10
6.6859974817
 20
3.6071619251
 30
0.0
 10
6.686485542
 20
3.60728353
 30
0.0
 10
6.6872249951
 20
3.6074522136
 30
0.0
 10
6.6882616195
 20
3.6076606545
 30
0.0
 10
6.6896390074
 20
3.6079027388
 30
0.0
 10
6.6911896679
 20
3.6081452024
 30
0.0
 10
6.6929098682
 20
3.6083879942
 30
0.0
 10
6.6947955896
 20
3.6086309845
 30
0.0
 10
6.6968423355
 20
3.6088741159
 30
0.0
 10
6.6990451364
 20
3.6091174025
 30
0.0
 10
6.7013987039
 20
3.6093608044
 30
0.0
 10
6.7038974249
 20
3.6096042664
 30
0.0
 10
6.7075008389
 20
3.6099369117
 30
0.0
 10
6.7123202708
 20
3.6103495393
 30
0.0
 10
6.7184489993
 20
3.6108342384
 30
0.0
 10
6.7249937899
 20
3.6113193821
 30
0.0
 10
6.7318913687
 20
3.6118048089
 30
0.0
 10
6.7390755245
 20
3.612290474
 30
0.0
 10
6.7490252417
 20
3.6129435123
 30
0.0
 10
6.7565733322
 20
3.6134246859
 30
0.0
 10
6.7616459627
 20
3.6137481371
 30
0.0
  0
SPLINE
  5
284
100
AcDbEntity
  8
0
100
AcDbSpline
 62
7
  6
CONTINUOUS
 70
0
 71
3
 72
36
 73
32
 74
0
 42
0.0000001
 43
0.0000001
 44
0.0000000001
 40
0.0
 40
0.0
 40
0.0
 40
0.0
 40
0.0008487312
 40
0.0017207513
 40
0.0036132751
 40
0.0058174707
 40
0.0084190778
 40
0.0114699238
 40
0.0150016041
 40
0.0190339803
 40
0.02357996
 40
0.0286480449
 40
0.034242807
 40
0.040366327
 40
0.0470194049
 40
0.0619126943
 40
0.0789158091
 40
0.0980138421
 40
0.119178628
 40
0.1423752011
 40
0.1675670527
 40
0.1947157939
 40
0.2237737226
 40
0.2874034377
 40
0.3580168422
 40
0.4351054271
 40
0.5181236425
 40
0.6064735889
 40
0.6995267215
 40
0.796603227
 40
1.0
 40
1.0
 40
1.0
 40
1.0
 10
6.6836459627
 20
3.6371856371
 30
0.0
 10
6.683645963
 20
3.6372033584
 30
0.0
 10
6.683649021
 20
3.6372393566
 30
0.0
 10
6.6836676918
 20
3.6373127561
 30
0.0
 10
6.683716512
 20
3.6374058938
 30
0.0
 10
6.6838084805
 20
3.6375122945
 30
0.0
 10
6.6839347098
 20
3.6376178698
 30
0.0
 10
6.6840953738
 20
3.6377231166
 30
0.0
 10
6.6842906633
 20
3.6378283508
 30
0.0
 10
6.684520702
 20
3.6379336411
 30
0.0
 10
6.6847855388
 20
3.6380390134
 30
0.0
 10
6.6850851533
 20
3.638144451
 30
0.0
 10
6.6854194458
 20
3.6382499547
 30
0.0
 10
6.6857882621
 20
3.6383555263
 30
0.0
 10
6.686347189
 20
3.6385019195
 30
0.0
 10
6.6871316609
 20
3.6386828776
 30
0.0
 10
6.6881755443
 20
3.6388931216
 30
0.0
 10
6.6893526485
 20
3.6391036179
 30
0.0
 10
6.6906608495
 20
3.639314369
 30
0.0
 10
6.6920977412
 20
3.6395253179
 30
0.0
 10
6.6936607776
 20
3.6397364172
 30
0.0
 10
6.6953472103
 20
3.6399476076
 30
0.0
 10
6.6978324602
 20
3.6402381752
 30
0.0
 10
6.7012232065
 20
3.6405979834
 30
0.0
 10
6.7056157434
 20
3.6410183906
 30
0.0
 10
6.7104147411
 20
3.6414393489
 30
0.0
 10
6.7155853497
 20
3.6418606548
 30
0.0
 10
6.7210902992
 20
3.6422822856
 30
0.0
 10
6.7268895784
 20
3.6427041118
 30
0.0
 10
6.7350864235
 20
3.6432756856
 30
0.0
 10
6.7413465272
 20
3.6436904635
 30
0.0
 10
6.7455844173
 20
3.6439666084
 30
0.0
  0
LINE
  5
285
100
AcDbEntity
  8
0
100
AcDbLine
 62
7
  6
CONTINUOUS
 10
3.8841175298
 20
3.6366385641
 11
3.8836459627
 21
3.6371856371
  0
LINE
  5
286
100
AcDbEntity
  8
0
100
AcDbLine
 62
7
  6
CONTINUOUS
 10
3.8841175292
 20
3.6053885641
 11
3.8836459628
 21
3.6059356371
  0
LINE
  5
287
100
AcDbEntity
  8
0
100
AcDbLine
 62
7
  6
CONTINUOUS
 10
3.8836459822
 20
3.5824996506
 11
3.8841175273
 21
3.5830467237
  0
LINE
  5
288
100
AcDbEntity
  8
0
100
AcDbLine
 62
7
  6
CONTINUOUS
 10
3.8841174433
 20
3.5741385644
 11
3.8836460036
 21
3.5746856365
  0
LINE
  5
289
100
AcDbEntity
  8
0
100
AcDbLine
 62
7
  6
CONTINUOUS
 10
4.0391745265
 20
3.6210135633
 11
4.0396458189
 21
3.621560637
  0
LINE
  5
28A
100
AcDbEntity
  8
0
100
AcDbLine
 62
7
  6
CONTINUOUS
 10
4.0391744022
 20
3.5897635641
 11
4.0396459626
 21
3.590310637
  0
LINE
  5
28B
100
AcDbEntity
  8
0
100
AcDbLine
 62
7
  6
CONTINUOUS
 10
3.8841175295
 20
3.6142967236
 11
3.8836459627
 21
3.613749651
  0
SPLINE
  5
28C
100
AcDbEntity
  8
0
100
AcDbSpline
 62
7
  6
CONTINUOUS
 70
0
 71
3
 72
15
 73
11
 74
0
 42
0.0000001
 43
0.0000001
 44
0.0000000001
 40
0.0
 40
0.0
 40
0.0
 40
0.0
 40
0.1264743155
 40
0.2347788909
 40
0.3329963551
 40
0.431735459
 40
0.5414159875
 40
0.6697697944
 40
0.8216605892
 40
1.0
 40
1.0
 40
1.0
 40
1.0
 10
3.8942442008
 20
3.5573684953
 30
0.0
 10
3.8942288843
 20
3.5573837968
 30
0.0
 10
3.8942024739
 20
3.5574144751
 30
0.0
 10
3.8941759771
 20
3.55746574
 30
0.0
 10
3.894167479
 20
3.5575183569
 30
0.0
 10
3.8941779713
 20
3.5575708265
 30
0.0
 10
3.8942062527
 20
3.5576218391
 30
0.0
 10
3.8942511102
 20
3.557671787
 30
0.0
 10
3.8943123357
 20
3.5577212785
 30
0.0
 10
3.8943601435
 20
3.5577516356
 30
0.0
 10
3.8943865294
 20
3.5577669909
 30
0.0
  0
SPLINE
  5
28D
100
AcDbEntity
  8
0
100
AcDbSpline
 62
7
  6
CONTINUOUS
 70
0
 71
3
 72
15
 73
11
 74
0
 42
0.0000001
 43
0.0000001
 44
0.0000000001
 40
0.0
 40
0.0
 40
0.0
 40
0.0
 40
0.1261892868
 40
0.2342633959
 40
0.3323278206
 40
0.431007821
 40
0.5407419093
 40
0.669250311
 40
0.82137311
 40
1.0
 40
1.0
 40
1.0
 40
1.0
 10
4.0389536996
 20
3.5672743494
 30
0.0
 10
4.0389670674
 20
3.5672877124
 30
0.0
 10
4.0389901137
 20
3.5673145103
 30
0.0
 10
4.0390131991
 20
3.5673593083
 30
0.0
 10
4.039020541
 20
3.5674052987
 30
0.0
 10
4.0390112538
 20
3.5674511664
 30
0.0
 10
4.0389863832
 20
3.5674957589
 30
0.0
 10
4.0389470002
 20
3.5675394313
 30
0.0
 10
4.0388932814
 20
3.5675827158
 30
0.0
 10
4.0388513523
 20
3.5676092707
 30
0.0
 10
4.0388282131
 20
3.5676227042
 30
0.0
  0
LINE
  5
28E
100
AcDbEntity
  8
0
100
AcDbLine
 62
7
  6
CONTINUOUS
 10
4.0391744093
 20
3.6299217236
 11
4.0396459627
 21
3.629374651
  0
LINE
  5
28F
100
AcDbEntity
  8
0
100
AcDbLine
 62
7
  6
CONTINUOUS
 10
4.0391745257
 20
3.5986717244
 11
4.0396458189
 21
3.5981246509
  0
SPLINE
  5
290
100
AcDbEntity
  8
0
100
AcDbSpline
 62
7
  6
CONTINUOUS
 70
0
 71
3
 72
31
 73
27
 74
0
 42
0.0000001
 43
0.0000001
 44
0.0000000001
 40
0.0
 40
0.0
 40
0.0
 40
0.0
 40
0.1820062157
 40
0.2711271391
 40
0.3579849808
 40
0.4418805659
 40
0.5221159555
 40
0.5980182826
 40
0.6689664151
 40
0.7343761347
 40
0.7937125136
 40
0.8209489404
 40
0.8464921029
 40
0.8702891978
 40
0.892290834
 40
0.9124578215
 40
0.930753955
 40
0.9471446325
 40
0.9616025588
 40
0.9741136692
 40
0.9796372355
 40
0.9846727205
 40
0.9892215119
 40
0.9932868899
 40
0.9968759074
 40
1.0
 40
1.0
 40
1.0
 40
1.0
 10
3.9616459627
 20
3.621562151
 30
0.0
 10
3.9569245163
 20
3.6212610927
 30
0.0
 10
3.9498911645
 20
3.6208127062
 30
0.0
 10
3.9406055917
 20
3.6202056267
 30
0.0
 10
3.9338656025
 20
3.6197536161
 30
0.0
 10
3.9273571064
 20
3.6193017442
 30
0.0
 10
3.9211340809
 20
3.618850096
 30
0.0
 10
3.9152485187
 20
3.6183986984
 30
0.0
 10
3.9097494944
 20
3.617947726
 30
0.0
 10
3.9046825986
 20
3.6174972216
 30
0.0
 10
3.9007507077
 20
3.6171122917
 30
0.0
 10
3.8978529892
 20
3.6168014699
 30
0.0
 10
3.895875356
 20
3.6165751653
 30
0.0
 10
3.8940347274
 20
3.6163489859
 30
0.0
 10
3.8923349628
 20
3.6161229053
 30
0.0
 10
3.8907795247
 20
3.6158970117
 30
0.0
 10
3.8893715706
 20
3.615671372
 30
0.0
 10
3.888114039
 20
3.6154460651
 30
0.0
 10
3.8870095171
 20
3.6152210989
 30
0.0
 10
3.8861872915
 20
3.61502697
 30
0.0
 10
3.8856085778
 20
3.614869573
 30
0.0
 10
3.8852324238
 20
3.6147565554
 30
0.0
 10
3.8848959903
 20
3.6146436355
 30
0.0
 10
3.8845994134
 20
3.6145307945
 30
0.0
 10
3.8843427801
 20
3.6144180651
 30
0.0
 10
3.8841877454
 20
3.6143375196
 30
0.0
 10
3.8841175295
 20
3.6142967236
 30
0.0
  0
SPLINE
  5
291
100
AcDbEntity
  8
0
100
AcDbSpline
 62
7
  6
CONTINUOUS
 70
0
 71
3
 72
38
 73
34
 74
0
 42
0.0000001
 43
0.0000001
 44
0.0000000001
 40
0.0
 40
0.0
 40
0.0
 40
0.0
 40
0.0007787681
 40
0.0015855498
 40
0.0024456252
 40
0.0033799588
 40
0.0055304311
 40
0.0081296685
 40
0.0112264448
 40
0.0148479444
 40
0.0190100512
 40
0.0237222845
 40
0.0289903788
 40
0.0348177045
 40
0.041205769
 40
0.0481535329
 40
0.0637183046
 40
0.0814891017
 40
0.1014367054
 40
0.1235192177
 40
0.1476857658
 40
0.1738840556
 40
0.2020561136
 40
0.2321331019
 40
0.2640444281
 40
0.2977179388
 40
0.3700210876
 40
0.4483547744
 40
0.5319728003
 40
0.6200807058
 40
0.7118214679
 40
0.8063275847
 40
1.0
 40
1.0
 40
1.0
 40
1.0
 10
4.0396458189
 20
3.5981246509
 30
0.0
 10
4.0396458189
 20
3.5981042124
 30
0.0
 10
4.0396417373
 20
3.5980624971
 30
0.0
 10
4.0396235669
 20
3.5980005995
 30
0.0
 10
4.0395935108
 20
3.5979389888
 30
0.0
 10
4.0395350092
 20
3.5978532132
 30
0.0
 10
4.0394287815
 20
3.5977468484
 30
0.0
 10
4.0392615992
 20
3.5976258013
 30
0.0
 10
4.0390486423
 20
3.5975048417
 30
0.0
 10
4.0387897765
 20
3.5973838243
 30
0.0
 10
4.0384848769
 20
3.5972626503
 30
0.0
 10
4.0381339943
 20
3.5971413396
 30
0.0
 10
4.0377372226
 20
3.597019908
 30
0.0
 10
4.0372947058
 20
3.5968983827
 30
0.0
 10
4.036806655
 20
3.5967767858
 30
0.0
 10
4.0360671189
 20
3.5966081151
 30
0.0
 10
4.0350304684
 20
3.5963997052
 30
0.0
 10
4.0336531003
 20
3.5961575557
 30
0.0
 10
4.0321024099
 20
3.5959150858
 30
0.0
 10
4.0303820949
 20
3.5956723196
 30
0.0
 10
4.028496293
 20
3.5954293085
 30
0.0
 10
4.0264494844
 20
3.5951861344
 30
0.0
 10
4.0242465621
 20
3.5949428606
 30
0.0
 10
4.0218928673
 20
3.5946994658
 30
0.0
 10
4.0193940766
 20
3.5944559704
 30
0.0
 10
4.0157905593
 20
3.5941233215
 30
0.0
 10
4.0109709711
 20
3.5937107009
 30
0.0
 10
4.0048421361
 20
3.5932259867
 30
0.0
 10
3.9982973373
 20
3.5927408439
 30
0.0
 10
3.9913997866
 20
3.5922554287
 30
0.0
 10
3.9842158241
 20
3.5917697736
 30
0.0
 10
3.9742663669
 20
3.5911167571
 30
0.0
 10
3.9667185313
 20
3.5906355982
 30
0.0
 10
3.9616459627
 20
3.590312151
 30
0.0
  0
SPLINE
  5
292
100
AcDbEntity
  8
0
100
AcDbSpline
 62
7
  6
CONTINUOUS
 70
0
 71
3
 72
58
 73
54
 74
0
 42
0.0000001
 43
0.0000001
 44
0.0000000001
 40
0.0
 40
0.0
 40
0.0
 40
0.0
 40
0.0009579202
 40
0.0019905682
 40
0.0031585589
 40
0.004504323
 40
0.0060551659
 40
0.0078283525
 40
0.0098349905
 40
0.0120823491
 40
0.0145752512
 40
0.0173169151
 40
0.0235535839
 40
0.0307977854
 40
0.0390432597
 40
0.0482797962
 40
0.0584946147
 40
0.0696689561
 40
0.0817796617
 40
0.0948028119
 40
0.108713585
 40
0.1234823603
 40
0.1390766018
 40
0.1726095913
 40
0.2090271152
 40
0.2480133021
 40
0.2892312858
 40
0.3323217072
 40
0.3769099765
 40
0.4690132332
 40
0.5623321348
 40
0.6084292736
 40
0.6536141406
 40
0.6974912819
 40
0.739679747
 40
0.7798104782
 40
0.817537192
 40
0.852530765
 40
0.8844930986
 40
0.9131482954
 40
0.9261608702
 40
0.9382606226
 40
0.9494215075
 40
0.9596228337
 40
0.9688478818
 40
0.9770814353
 40
0.9843112153
 40
0.9875485551
 40
0.9905345903
 40
0.9932703493
 40
0.9957576281
 40
0.9979993295
 40
1.0
 40
1.0
 40
1.0
 40
1.0
 10
3.9005561304
 20
3.6274226435
 30
0.0
 10
3.9005561184
 20
3.6274619177
 30
0.0
 10
3.9005683777
 20
3.627543927
 30
0.0
 10
3.9006217786
 20
3.6276632457
 30
0.0
 10
3.9007087243
 20
3.6277808552
 30
0.0
 10
3.9008285684
 20
3.6278974108
 30
0.0
 10
3.9009812091
 20
3.6280135564
 30
0.0
 10
3.9011666956
 20
3.6281295783
 30
0.0
 10
3.9013850537
 20
3.6282456038
 30
0.0
 10
3.9016362662
 20
3.6283616747
 30
0.0
 10
3.9019202748
 20
3.628477814
 30
0.0
 10
3.9023619092
 20
3.6286397797
 30
0.0
 10
3.9029967191
 20
3.6288393924
 30
0.0
 10
3.9038571901
 20
3.6290703752
 30
0.0
 10
3.9048443244
 20
3.6293018044
 30
0.0
 10
3.9059560586
 20
3.6295335975
 30
0.0
 10
3.9071901426
 20
3.6297655962
 30
0.0
 10
3.9085438983
 20
3.6299977765
 30
0.0
 10
3.9100143038
 20
3.6302301282
 30
0.0
 10
3.9115981665
 20
3.6304626107
 30
0.0
 10
3.9132920858
 20
3.6306951569
 30
0.0
 10
3.9150923343
 20
3.6309277808
 30
0.0
 10
3.9176926749
 20
3.631245801
 30
0.0
 10
3.9211777742
 20
3.6316402942
 30
0.0
 10
3.9256200688
 20
3.6321035126
 30
0.0
 10
3.9303789887
 20
3.6325671382
 30
0.0
 10
3.93541268
 20
3.6330310426
 30
0.0
 10
3.9406769567
 20
3.6334951839
 30
0.0
 10
3.948021307
 20
3.6341209664
 30
0.0
 10
3.9574199755
 20
3.6348927733
 30
0.0
 10
3.9668810791
 20
3.6356599111
 30
0.0
 10
3.9744240297
 20
3.6362816534
 30
0.0
 10
3.9799459914
 20
3.6367459836
 30
0.0
 10
3.9853071303
 20
3.6372102072
 30
0.0
 10
3.990460271
 20
3.637674218
 30
0.0
 10
3.995360204
 20
3.6381380158
 30
0.0
 10
3.999963799
 20
3.6386014207
 30
0.0
 10
4.00423074
 20
3.6390643954
 30
0.0
 10
4.0081234624
 20
3.6395266743
 30
0.0
 10
4.0111162982
 20
3.6399228103
 30
0.0
 10
4.0132973704
 20
3.6402431603
 30
0.0
 10
4.0147663274
 20
3.6404754907
 30
0.0
 10
4.0161185042
 20
3.6407076916
 30
0.0
 10
4.0173509759
 20
3.6409397221
 30
0.0
 10
4.0184611817
 20
3.6411714731
 30
0.0
 10
4.019446703
 20
3.641402882
 30
0.0
 10
4.0201873242
 20
3.6416020207
 30
0.0
 10
4.0207149129
 20
3.6417630643
 30
0.0
 10
4.0210634044
 20
3.6418793075
 30
0.0
 10
4.0213793472
 20
3.6419954896
 30
0.0
 10
4.0216626048
 20
3.6421116146
 30
0.0
 10
4.0219130311
 20
3.6422276708
 30
0.0
 10
4.0220666321
 20
3.6423095858
 30
0.0
 10
4.0221374952
 20
3.6423508985
 30
0.0
  0
SPLINE
  5
293
100
AcDbEntity
  8
0
100
AcDbSpline
 62
7
  6
CONTINUOUS
 70
0
 71
3
 72
38
 73
34
 74
0
 42
0.0000001
 43
0.0000001
 44
0.0000000001
 40
0.0
 40
0.0
 40
0.0
 40
0.0
 40
0.0007788135
 40
0.0015857982
 40
0.002446283
 40
0.0033811807
 40
0.0055327527
 40
0.0081320292
 40
0.0112276687
 40
0.0148477324
 40
0.0190091318
 40
0.0237222312
 40
0.0289920884
 40
0.0348207455
 40
0.0412086696
 40
0.0481552667
 40
0.0637182067
 40
0.0814917026
 40
0.1014399799
 40
0.1235199788
 40
0.1476866835
 40
0.1738873807
 40
0.2020581611
 40
0.2321335804
 40
0.2640467393
 40
0.2977208054
 40
0.3700217765
 40
0.4483551437
 40
0.5319726894
 40
0.6200775763
 40
0.7118157723
 40
0.8063268703
 40
1.0
 40
1.0
 40
1.0
 40
1.0
 10
4.0396459627
 20
3.629374651
 30
0.0
 10
4.0396459629
 20
3.6293542113
 30
0.0
 10
4.0396418651
 20
3.629312489
 30
0.0
 10
4.0396236378
 20
3.6292505889
 30
0.0
 10
4.0395935083
 20
3.6291889796
 30
0.0
 10
4.0395349014
 20
3.6291032108
 30
0.0
 10
4.0394285933
 20
3.6289968713
 30
0.0
 10
4.0392614264
 20
3.628875809
 30
0.0
 10
4.0390485598
 20
3.628754825
 30
0.0
 10
4.038789796
 20
3.628633791
 30
0.0
 10
4.0384849354
 20
3.6285126071
 30
0.0
 10
4.0381339939
 20
3.6283913107
 30
0.0
 10
4.0377371089
 20
3.6282698945
 30
0.0
 10
4.0372945093
 20
3.6281483787
 30
0.0
 10
4.03680646
 20
3.6280267741
 30
0.0
 10
4.0360670116
 20
3.6278580891
 30
0.0
 10
4.035030375
 20
3.6276496458
 30
0.0
 10
4.0336529546
 20
3.6274075579
 30
0.0
 10
4.0321022422
 20
3.6271650857
 30
0.0
 10
4.0303819764
 20
3.626922284
 30
0.0
 10
4.0284961716
 20
3.6266792819
 30
0.0
 10
4.0264493248
 20
3.626436142
 30
0.0
 10
4.0242464162
 20
3.6261928474
 30
0.0
 10
4.0218927495
 20
3.6259494372
 30
0.0
 10
4.0193939345
 20
3.625705966
 30
0.0
 10
4.0157904113
 20
3.6253733179
 30
0.0
 10
4.0109708748
 20
3.6249606835
 30
0.0
 10
4.0048421159
 20
3.6244759892
 30
0.0
 10
3.9982974164
 20
3.6239908526
 30
0.0
 10
3.9914000241
 20
3.6235054429
 30
0.0
 10
3.9842160763
 20
3.6230197925
 30
0.0
 10
3.9742665364
 20
3.6223667664
 30
0.0
 10
3.9667185506
 20
3.6218855995
 30
0.0
 10
3.9616459627
 20
3.621562151
 30
0.0
  0
SPLINE
  5
294
100
AcDbEntity
  8
0
100
AcDbSpline
 62
7
  6
CONTINUOUS
 70
0
 71
3
 72
57
 73
53
 74
0
 42
0.0000001
 43
0.0000001
 44
0.0000000001
 40
0.0
 40
0.0
 40
0.0
 40
0.0
 40
0.0009580178
 40
0.0019908426
 40
0.0031587853
 40
0.0045039997
 40
0.0060541533
 40
0.007827136
 40
0.0098340765
 40
0.0120820163
 40
0.0145755216
 40
0.0173175388
 40
0.0203099218
 40
0.0235537662
 40
0.0307971021
 40
0.0390435674
 40
0.048280978
 40
0.0584947275
 40
0.0696684168
 40
0.0817801045
 40
0.0948039779
 40
0.1087136749
 40
0.1390769862
 40
0.1726095415
 40
0.2090275941
 40
0.2480133574
 40
0.2892318265
 40
0.3323219314
 40
0.3769105433
 40
0.4690137913
 40
0.5623326544
 40
0.6536145677
 40
0.6974924864
 40
0.7396801016
 40
0.7798119227
 40
0.8175374742
 40
0.8525324096
 40
0.8844933211
 40
0.8992512921
 40
0.9131503173
 40
0.9261619211
 40
0.9382610401
 40
0.9494231658
 40
0.9596249418
 40
0.9688488835
 40
0.9770818589
 40
0.9843130537
 40
0.9905361878
 40
0.9932714139
 40
0.9957580748
 40
0.9979993389
 40
1.0
 40
1.0
 40
1.0
 40
1.0
 10
3.9005561137
 20
3.5961726447
 30
0.0
 10
3.9005561307
 20
3.5962119228
 30
0.0
 10
3.9005684549
 20
3.5962939324
 30
0.0
 10
3.900621906
 20
3.5964132332
 30
0.0
 10
3.9007088278
 20
3.5965308329
 30
0.0
 10
3.9008285736
 20
3.5966474114
 30
0.0
 10
3.9009811258
 20
3.5967635791
 30
0.0
 10
3.9011665893
 20
3.5968795941
 30
0.0
 10
3.9013849838
 20
3.5969956104
 30
0.0
 10
3.9016362659
 20
3.5971116757
 30
0.0
 10
3.9019203464
 20
3.5972278028
 30
0.0
 10
3.9022371109
 20
3.5973439884
 30
0.0
 10
3.9025864263
 20
3.5974602339
 30
0.0
 10
3.9031151478
 20
3.5976212726
 30
0.0
 10
3.9038571738
 20
3.5978203843
 30
0.0
 10
3.9048443249
 20
3.5980518068
 30
0.0
 10
3.9059561054
 20
3.5982835691
 30
0.0
 10
3.9071901424
 20
3.5985156063
 30
0.0
 10
3.9085438654
 20
3.5987477953
 30
0.0
 10
3.9100143162
 20
3.5989801237
 30
0.0
 10
3.9115982044
 20
3.5992125984
 30
0.0
 10
3.9139255381
 20
3.5995321069
 30
0.0
 10
3.9170910198
 20
3.5999276048
 30
0.0
 10
3.9211777748
 20
3.60039033
 30
0.0
 10
3.925620063
 20
3.600853496
 30
0.0
 10
3.9303789965
 20
3.6013171497
 30
0.0
 10
3.9354126738
 20
3.6017810351
 30
0.0
 10
3.9406769638
 20
3.6022451897
 30
0.0
 10
3.9480213066
 20
3.6028709636
 30
0.0
 10
3.9574199783
 20
3.6036427555
 30
0.0
 10
3.9687275434
 20
3.6045597018
 30
0.0
 10
3.9780630745
 20
3.605332992
 30
0.0
 10
3.9853071169
 20
3.6059601866
 30
0.0
 10
3.9904602898
 20
3.6064242378
 30
0.0
 10
3.9953601821
 20
3.6068879942
 30
0.0
 10
3.9999638231
 20
3.6073514414
 30
0.0
 10
4.0042307027
 20
3.6078143863
 30
0.0
 10
4.0075576341
 20
3.608209438
 30
0.0
 10
4.0100224338
 20
3.6085281266
 30
0.0
 10
4.0117149378
 20
3.6087606907
 30
0.0
 10
4.013297354
 20
3.6089931672
 30
0.0
 10
4.0147662916
 20
3.6092255121
 30
0.0
 10
4.0161185148
 20
3.6094576838
 30
0.0
 10
4.0173510154
 20
3.6096896979
 30
0.0
 10
4.0184611531
 20
3.609921482
 30
0.0
 10
4.0194466855
 20
3.6101528978
 30
0.0
 10
4.0203055037
 20
3.6103838639
 30
0.0
 10
4.0209388885
 20
3.6105835082
 30
0.0
 10
4.0213793738
 20
3.6107454801
 30
0.0
 10
4.0216625561
 20
3.610861618
 30
0.0
 10
4.0219129307
 20
3.6109776805
 30
0.0
 10
4.0220665121
 20
3.6110595915
 30
0.0
 10
4.0221373783
 20
3.6111008979
 30
0.0
  0
SPLINE
  5
295
100
AcDbEntity
  8
0
100
AcDbSpline
 62
7
  6
CONTINUOUS
 70
0
 71
3
 72
31
 73
27
 74
0
 42
0.0000001
 43
0.0000001
 44
0.0000000001
 40
0.0
 40
0.0
 40
0.0
 40
0.0
 40
0.1820043672
 40
0.2711165126
 40
0.3579722651
 40
0.4418687297
 40
0.5221012403
 40
0.5980053356
 40
0.6689547082
 40
0.7343697453
 40
0.7937075192
 40
0.820947128
 40
0.8464909089
 40
0.8702864477
 40
0.892289974
 40
0.9124593504
 40
0.9307540161
 40
0.9471427342
 40
0.9616026293
 40
0.9741149064
 40
0.9796372761
 40
0.9846710445
 40
0.9892186958
 40
0.9932843408
 40
0.9968745818
 40
1.0
 40
1.0
 40
1.0
 40
1.0
 10
3.9616459627
 20
3.6137481371
 30
0.0
 10
3.966367368
 20
3.6140491928
 30
0.0
 10
3.9734004541
 20
3.6144975648
 30
0.0
 10
3.9826857109
 20
3.6151046167
 30
0.0
 10
3.9894254502
 20
3.6155566191
 30
0.0
 10
3.9959338511
 20
3.6160084645
 30
0.0
 10
4.0021568781
 20
3.6164601314
 30
0.0
 10
4.0080424546
 20
3.6169114984
 30
0.0
 10
4.0135417002
 20
3.6173625172
 30
0.0
 10
4.0186088135
 20
3.6178129936
 30
0.0
 10
4.0225409619
 20
3.6181979901
 30
0.0
 10
4.0254388228
 20
3.6185087898
 30
0.0
 10
4.027416517
 20
3.618735101
 30
0.0
 10
4.0292571679
 20
3.6189613226
 30
0.0
 10
4.0309570074
 20
3.6191873954
 30
0.0
 10
4.0325125255
 20
3.6194132626
 30
0.0
 10
4.0339204517
 20
3.6196389216
 30
0.0
 10
4.0351779386
 20
3.6198642718
 30
0.0
 10
4.0362824995
 20
3.6200892029
 30
0.0
 10
4.0371047865
 20
3.6202833006
 30
0.0
 10
4.0376834484
 20
3.6204407198
 30
0.0
 10
4.03805949
 20
3.620553748
 30
0.0
 10
4.0383958483
 20
3.6206666807
 30
0.0
 10
4.0386924366
 20
3.6207795166
 30
0.0
 10
4.0389491558
 20
3.6208922319
 30
0.0
 10
4.0391042707
 20
3.6209727672
 30
0.0
 10
4.0391745265
 20
3.6210135633
 30
0.0
  0
SPLINE
  5
296
100
AcDbEntity
  8
0
100
AcDbSpline
 62
7
  6
CONTINUOUS
 70
0
 71
3
 72
59
 73
55
 74
0
 42
0.0000001
 43
0.0000001
 44
0.0000000001
 40
0.0
 40
0.0
 40
0.0
 40
0.0
 40
0.0009580599
 40
0.0019911338
 40
0.0031594673
 40
0.0045049786
 40
0.0060550343
 40
0.0078273375
 40
0.0098335279
 40
0.0120812803
 40
0.0145751158
 40
0.0173177305
 40
0.0203107134
 40
0.0235548868
 40
0.0307971962
 40
0.0390428457
 40
0.0482812427
 40
0.0584958059
 40
0.0696683847
 40
0.0817794723
 40
0.0948042991
 40
0.1087146476
 40
0.1390764724
 40
0.1726103657
 40
0.2090272102
 40
0.248014006
 40
0.2892315688
 40
0.3323223949
 40
0.376910395
 40
0.4226073098
 40
0.4690137432
 40
0.5623326518
 40
0.65361457
 40
0.6974925054
 40
0.7396800677
 40
0.7798119537
 40
0.8175373661
 40
0.8525325028
 40
0.8844931082
 40
0.8992504305
 40
0.9131505099
 40
0.9261626188
 40
0.9382607029
 40
0.9494221929
 40
0.9596252522
 40
0.9688495705
 40
0.9770813952
 40
0.9843120326
 40
0.9875503924
 40
0.9905371179
 40
0.9932727505
 40
0.9957592091
 40
0.9979999361
 40
1.0
 40
1.0
 40
1.0
 40
1.0
 10
3.9005559876
 20
3.5649226446
 30
0.0
 10
3.9005560059
 20
3.5649619244
 30
0.0
 10
3.9005683646
 20
3.5650439455
 30
0.0
 10
3.9006219026
 20
3.5651632382
 30
0.0
 10
3.9007089026
 20
3.5652808254
 30
0.0
 10
3.9008286887
 20
3.5653973942
 30
0.0
 10
3.9009812159
 20
3.5655135592
 30
0.0
 10
3.9011665913
 20
3.5656295962
 30
0.0
 10
3.9013849031
 20
3.565745629
 30
0.0
 10
3.9016361617
 20
3.5658616876
 30
0.0
 10
3.9019202782
 20
3.5659778074
 30
0.0
 10
3.9022371118
 20
3.5660939871
 30
0.0
 10
3.9025864947
 20
3.5662102282
 30
0.0
 10
3.9031152179
 20
3.566371247
 30
0.0
 10
3.9038571696
 20
3.5665703948
 30
0.0
 10
3.9048442822
 20
3.5668018332
 30
0.0
 10
3.9059561111
 20
3.5670335639
 30
0.0
 10
3.9071901806
 20
3.5672655819
 30
0.0
 10
3.9085438609
 20
3.5674978043
 30
0.0
 10
3.91001428
 20
3.5677301396
 30
0.0
 10
3.9115982134
 20
3.5679625939
 30
0.0
 10
3.9139255548
 20
3.5682820864
 30
0.0
 10
3.9170910517
 20
3.5686776384
 30
0.0
 10
3.9211777595
 20
3.5691403011
 30
0.0
 10
3.9256200915
 20
3.5696035203
 30
0.0
 10
3.9303789865
 20
3.5700671301
 30
0.0
 10
3.935412697
 20
3.5705310521
 30
0.0
 10
3.9406769591
 20
3.5709951736
 30
0.0
 10
3.9461255415
 20
3.5714594599
 30
0.0
 10
3.9517105313
 20
3.5719238418
 30
0.0
 10
3.9592873742
 20
3.5725442285
 30
0.0
 10
3.9687275423
 20
3.5733096877
 30
0.0
 10
3.9780630774
 20
3.5740829946
 30
0.0
 10
3.9853071215
 20
3.5747101863
 30
0.0
 10
3.9904602971
 20
3.5751742397
 30
0.0
 10
3.9953601863
 20
3.5756379929
 30
0.0
 10
3.9999638338
 20
3.5761014445
 30
0.0
 10
4.004230705
 20
3.5765643864
 30
0.0
 10
4.0075576082
 20
3.5769594258
 30
0.0
 10
4.0100224089
 20
3.5772781449
 30
0.0
 10
4.0117149541
 20
3.5775106868
 30
0.0
 10
4.0132973945
 20
3.5777431516
 30
0.0
 10
4.0147662813
 20
3.5779755146
 30
0.0
 10
4.0161184853
 20
3.5782077104
 30
0.0
 10
4.0173510326
 20
3.5784396904
 30
0.0
 10
4.0184612058
 20
3.578671452
 30
0.0
 10
4.0194466434
 20
3.578902925
 30
0.0
 10
4.0201872747
 20
3.579102042
 30
0.0
 10
4.0207149807
 20
3.5792630604
 30
0.0
 10
4.0210635446
 20
3.5793792913
 30
0.0
 10
4.0213794767
 20
3.5794954726
 30
0.0
 10
4.0216626449
 20
3.5796116084
 30
0.0
 10
4.0219129566
 20
3.5797276779
 30
0.0
 10
4.0220664832
 20
3.579809593
 30
0.0
 10
4.0221373214
 20
3.5798508989
 30
0.0
  0
SPLINE
  5
297
100
AcDbEntity
  8
0
100
AcDbSpline
 62
7
  6
CONTINUOUS
 70
0
 71
3
 72
31
 73
27
 74
0
 42
0.0000001
 43
0.0000001
 44
0.0000000001
 40
0.0
 40
0.0
 40
0.0
 40
0.0
 40
0.1820043774
 40
0.2711240622
 40
0.3579810961
 40
0.4418760969
 40
0.5221106446
 40
0.5980125785
 40
0.6689614408
 40
0.7343735374
 40
0.7937122778
 40
0.8209494593
 40
0.8464932066
 40
0.8702908392
 40
0.8922927044
 40
0.9124595272
 40
0.9307554048
 40
0.9471460104
 40
0.9616036736
 40
0.9741143138
 40
0.9796376551
 40
0.9846729681
 40
0.9892216735
 40
0.9932870215
 40
0.9968759806
 40
1.0
 40
1.0
 40
1.0
 40
1.0
 10
3.9616459627
 20
3.5824981371
 30
0.0
 10
3.9663673619
 20
3.5827991924
 30
0.0
 10
3.9734006343
 20
3.5832475739
 30
0.0
 10
3.982686107
 20
3.5838546461
 30
0.0
 10
3.9894260285
 20
3.5843066523
 30
0.0
 10
3.9959344673
 20
3.5847585186
 30
0.0
 10
4.0021574461
 20
3.5852101631
 30
0.0
 10
4.0080429959
 20
3.5856615555
 30
0.0
 10
4.0135420909
 20
3.5861125342
 30
0.0
 10
4.018609129
 20
3.5865630485
 30
0.0
 10
4.0225411625
 20
3.5869479899
 30
0.0
 10
4.0254389768
 20
3.5872588234
 30
0.0
 10
4.0274166584
 20
3.5874851349
 30
0.0
 10
4.0292573221
 20
3.5877113176
 30
0.0
 10
4.0309571023
 20
3.5879374006
 30
0.0
 10
4.032512535
 20
3.5881632973
 30
0.0
 10
4.0339204759
 20
3.5883889397
 30
0.0
 10
4.0351779927
 20
3.588614242
 30
0.0
 10
4.0362824941
 20
3.5888392045
 30
0.0
 10
4.0371046946
 20
3.589033332
 30
0.0
 10
4.0376833856
 20
3.5891907265
 30
0.0
 10
4.0380595271
 20
3.5893037423
 30
0.0
 10
4.0383959535
 20
3.5894166597
 30
0.0
 10
4.0386925269
 20
3.5895294971
 30
0.0
 10
4.0389491567
 20
3.5896422245
 30
0.0
 10
4.0391041882
 20
3.5897227687
 30
0.0
 10
4.0391744022
 20
3.5897635641
 30
0.0
  0
SPLINE
  5
298
100
AcDbEntity
  8
0
100
AcDbSpline
 62
7
  6
CONTINUOUS
 70
0
 71
3
 72
59
 73
55
 74
0
 42
0.0000001
 43
0.0000001
 44
0.0000000001
 40
0.0
 40
0.0
 40
0.0
 40
0.0
 40
0.0019999877
 40
0.0042406809
 40
0.006727186
 40
0.0094629535
 40
0.0124497463
 40
0.015688099
 40
0.0229186099
 40
0.0311503493
 40
0.0403748167
 40
0.0505779121
 40
0.0617393108
 40
0.0738373389
 40
0.0868495502
 40
0.1007496505
 40
0.1155069183
 40
0.1474675464
 40
0.1824626751
 40
0.220188087
 40
0.2603199872
 40
0.3025075327
 40
0.3463854942
 40
0.4376674149
 40
0.530986317
 40
0.5773927789
 40
0.6230896488
 40
0.6676777297
 40
0.7107684492
 40
0.7519861604
 40
0.7909727743
 40
0.8273898449
 40
0.8609234741
 40
0.8912856052
 40
0.9051957279
 40
0.9182204361
 40
0.9303318589
 40
0.9415044826
 40
0.9517187593
 40
0.9609570307
 40
0.9692031028
 40
0.9764454254
 40
0.979689439
 40
0.982682247
 40
0.9854247425
 40
0.9879185822
 40
0.9901665254
 40
0.992172988
 40
0.9939453541
 40
0.9954953282
 40
0.9968407001
 40
0.9980089136
 40
0.9990419358
 40
1.0
 40
1.0
 40
1.0
 40
1.0
 10
3.9011546042
 20
3.6242093892
 30
0.0
 10
3.9012254386
 20
3.6242506954
 30
0.0
 10
3.9013789596
 20
3.6243326116
 30
0.0
 10
3.9016292681
 20
3.6244486817
 30
0.0
 10
3.9019124429
 20
3.6245648176
 30
0.0
 10
3.9022283873
 20
3.6246809948
 30
0.0
 10
3.9025769593
 20
3.6247972264
 30
0.0
 10
3.9031046623
 20
3.6249582447
 30
0.0
 10
3.9038452836
 20
3.6251573641
 30
0.0
 10
3.9048307179
 20
3.6253888398
 30
0.0
 10
3.9059408963
 20
3.6256205954
 30
0.0
 10
3.9071734471
 20
3.6258525764
 30
0.0
 10
3.9085256459
 20
3.6260847739
 30
0.0
 10
3.9099945305
 20
3.6263171383
 30
0.0
 10
3.9115769739
 20
3.6265496002
 30
0.0
 10
3.9132695216
 20
3.6267821425
 30
0.0
 10
3.9157343213
 20
3.6271008634
 30
0.0
 10
3.9190612225
 20
3.6274959011
 30
0.0
 10
3.9233280936
 20
3.6279588438
 30
0.0
 10
3.9279317407
 20
3.6284222952
 30
0.0
 10
3.9328316291
 20
3.6288860481
 30
0.0
 10
3.9379848049
 20
3.629350102
 30
0.0
 10
3.9452288484
 20
3.629977293
 30
0.0
 10
3.9545643831
 20
3.6307506002
 30
0.0
 10
3.9640045509
 20
3.6315160599
 30
0.0
 10
3.9715813917
 20
3.6321364455
 30
0.0
 10
3.9771663832
 20
3.6326008291
 30
0.0
 10
3.9826149622
 20
3.6330651125
 30
0.0
 10
3.9878792283
 20
3.6335292383
 30
0.0
 10
3.9929129328
 20
3.6339931544
 30
0.0
 10
3.9976718342
 20
3.634456772
 30
0.0
 10
4.0021141577
 20
3.634919981
 30
0.0
 10
4.0062008744
 20
3.6353826567
 30
0.0
 10
4.0093663649
 20
3.6357781955
 30
0.0
 10
4.0116937035
 20
3.6360976944
 30
0.0
 10
4.0132776356
 20
3.6363301538
 30
0.0
 10
4.0147480666
 20
3.6365624803
 30
0.0
 10
4.0161017509
 20
3.6367947019
 30
0.0
 10
4.017335804
 20
3.6370267245
 30
0.0
 10
4.0184476311
 20
3.6372584645
 30
0.0
 10
4.0194347604
 20
3.6374898865
 30
0.0
 10
4.0201767236
 20
3.6376890356
 30
0.0
 10
4.0207054316
 20
3.637850059
 30
0.0
 10
4.0210547944
 20
3.6379663015
 30
0.0
 10
4.0213716146
 20
3.6380824829
 30
0.0
 10
4.0216557333
 20
3.6381986051
 30
0.0
 10
4.021907013
 20
3.6383146629
 30
0.0
 10
4.022125355
 20
3.638430685
 30
0.0
 10
4.0223107422
 20
3.6385467235
 30
0.0
 10
4.0224632602
 20
3.6386628904
 30
0.0
 10
4.0225830245
 20
3.6387794623
 30
0.0
 10
4.022669999
 20
3.6388970527
 30
0.0
 10
4.0227235168
 20
3.6390163461
 30
0.0
 10
4.0227358754
 20
3.6390983632
 30
0.0
 10
4.0227358995
 20
3.6391376432
 30
0.0
  0
SPLINE
  5
299
100
AcDbEntity
  8
0
100
AcDbSpline
 62
7
  6
CONTINUOUS
 70
0
 71
3
 72
31
 73
27
 74
0
 42
0.0000001
 43
0.0000001
 44
0.0000000001
 40
0.0
 40
0.0
 40
0.0
 40
0.0
 40
0.0031243052
 40
0.0067133391
 40
0.010778384
 40
0.0153267115
 40
0.0203621064
 40
0.0258858582
 40
0.0383976506
 40
0.0528557918
 40
0.0692458864
 40
0.0875423969
 40
0.107710072
 40
0.129711773
 40
0.1535084751
 40
0.1790520707
 40
0.2062891534
 40
0.2656261902
 40
0.3310383843
 40
0.4019883768
 40
0.4778925063
 40
0.5581270595
 40
0.6420214261
 40
0.7288764749
 40
0.8179938444
 40
1.0
 40
1.0
 40
1.0
 40
1.0
 10
3.8841175273
 20
3.5830467237
 30
0.0
 10
3.8841877507
 20
3.5830875178
 30
0.0
 10
3.8843427943
 20
3.5831680587
 30
0.0
 10
3.8845994261
 20
3.5832807844
 30
0.0
 10
3.88489598
 20
3.5833936284
 30
0.0
 10
3.8852323871
 20
3.5835065546
 30
0.0
 10
3.8856085321
 20
3.5836195695
 30
0.0
 10
3.8861872666
 20
3.5837769671
 30
0.0
 10
3.8870095222
 20
3.5839710914
 30
0.0
 10
3.8881140517
 20
3.5841960597
 30
0.0
 10
3.8893715804
 20
3.5844213844
 30
0.0
 10
3.8907795483
 20
3.5846470181
 30
0.0
 10
3.8923350165
 20
3.5848729084
 30
0.0
 10
3.8940347903
 20
3.5850989912
 30
0.0
 10
3.8958754206
 20
3.5853251787
 30
0.0
 10
3.8978530725
 20
3.58555148
 30
0.0
 10
3.9007508368
 20
3.5858623005
 30
0.0
 10
3.9046828249
 20
3.5862472485
 30
0.0
 10
3.9097498512
 20
3.5866977516
 30
0.0
 10
3.9152490341
 20
3.5871487431
 30
0.0
 10
3.9211346704
 20
3.5876001364
 30
0.0
 10
3.927357689
 20
3.5880517888
 30
0.0
 10
3.93386606
 20
3.5885036453
 30
0.0
 10
3.9406058529
 20
3.5889556449
 30
0.0
 10
3.9498912597
 20
3.5895627116
 30
0.0
 10
3.9569245178
 20
3.5900110927
 30
0.0
 10
3.9616459627
 20
3.590312151
 30
0.0
  0
SPLINE
  5
29A
100
AcDbEntity
  8
0
100
AcDbSpline
 62
7
  6
CONTINUOUS
 70
0
 71
3
 72
59
 73
55
 74
0
 42
0.0000001
 43
0.0000001
 44
0.0000000001
 40
0.0
 40
0.0
 40
0.0
 40
0.0
 40
0.0020000429
 40
0.0042407548
 40
0.006727213
 40
0.0094628665
 40
0.0124496101
 40
0.0156879799
 40
0.0229186177
 40
0.0311504268
 40
0.0403747277
 40
0.0505778047
 40
0.0617393254
 40
0.0738374111
 40
0.0868494651
 40
0.1007495591
 40
0.115506937
 40
0.1474674709
 40
0.1824626948
 40
0.2201880262
 40
0.2603200046
 40
0.3025074909
 40
0.346385506
 40
0.437667418
 40
0.5309863088
 40
0.5773928087
 40
0.6230896277
 40
0.667677784
 40
0.7107684141
 40
0.7519862371
 40
0.7909727255
 40
0.8273899409
 40
0.8609234128
 40
0.8912857164
 40
0.9051957403
 40
0.9182203646
 40
0.930331908
 40
0.9415046041
 40
0.9517187677
 40
0.9609569527
 40
0.9692031676
 40
0.9764455508
 40
0.9796895126
 40
0.9826822516
 40
0.9854246882
 40
0.9879185057
 40
0.9901664884
 40
0.9921730592
 40
0.9939454776
 40
0.9954954412
 40
0.9968407713
 40
0.9980089408
 40
0.9990419385
 40
1.0
 40
1.0
 40
1.0
 40
1.0
 10
3.9011546083
 20
3.5929593893
 30
0.0
 10
3.9012254455
 20
3.5930006953
 30
0.0
 10
3.9013789703
 20
3.5930826105
 30
0.0
 10
3.9016292802
 20
3.5931986802
 30
0.0
 10
3.9019124486
 20
3.5933148161
 30
0.0
 10
3.9022283825
 20
3.5934309968
 30
0.0
 10
3.9025769485
 20
3.5935472277
 30
0.0
 10
3.9031046555
 20
3.593708246
 30
0.0
 10
3.9038452865
 20
3.593907363
 30
0.0
 10
3.9048307225
 20
3.5941388362
 30
0.0
 10
3.9059408946
 20
3.5943705983
 30
0.0
 10
3.907173443
 20
3.5946025778
 30
0.0
 10
3.9085256489
 20
3.5948347733
 30
0.0
 10
3.9099945345
 20
3.5950671359
 30
0.0
 10
3.9115769728
 20
3.5952996022
 30
0.0
 10
3.9132695183
 20
3.5955321435
 30
0.0
 10
3.9157343186
 20
3.5958508609
 30
0.0
 10
3.9190612237
 20
3.5962459037
 30
0.0
 10
3.9233280917
 20
3.5967088418
 30
0.0
 10
3.927931742
 20
3.5971722969
 30
0.0
 10
3.9328316278
 20
3.5976360468
 30
0.0
 10
3.937984806
 20
3.5981001031
 30
0.0
 10
3.9452288487
 20
3.5987272922
 30
0.0
 10
3.954564384
 20
3.5995006003
 30
0.0
 10
3.9640045519
 20
3.6002660606
 30
0.0
 10
3.9715813914
 20
3.6008864448
 30
0.0
 10
3.9771663849
 20
3.6013508303
 30
0.0
 10
3.9826149611
 20
3.6018151111
 30
0.0
 10
3.9878792305
 20
3.6022792402
 30
0.0
 10
3.9929129309
 20
3.602743152
 30
0.0
 10
3.9976718369
 20
3.603206775
 30
0.0
 10
4.0021141551
 20
3.6036699775
 30
0.0
 10
4.0062008772
 20
3.6041326608
 30
0.0
 10
4.0093663649
 20
3.6045281926
 30
0.0
 10
4.0116937026
 20
3.6048476943
 30
0.0
 10
4.0132776316
 20
3.605080156
 30
0.0
 10
4.0147480675
 20
3.6053124799
 30
0.0
 10
4.0161017553
 20
3.6055446996
 30
0.0
 10
4.0173358028
 20
3.6057767244
 30
0.0
 10
4.0184476265
 20
3.6060084682
 30
0.0
 10
4.0194347617
 20
3.6062398856
 30
0.0
 10
4.0201767319
 20
3.6064390331
 30
0.0
 10
4.0207054366
 20
3.6066000586
 30
0.0
 10
4.0210547914
 20
3.6067163015
 30
0.0
 10
4.0213716048
 20
3.6068324836
 30
0.0
 10
4.0216557214
 20
3.6069486064
 30
0.0
 10
4.021907006
 20
3.6070646655
 30
0.0
 10
4.0221253594
 20
3.6071806834
 30
0.0
 10
4.0223107544
 20
3.6072967213
 30
0.0
 10
4.0224632721
 20
3.6074128889
 30
0.0
 10
4.0225830301
 20
3.6075294618
 30
0.0
 10
4.0226699956
 20
3.6076470534
 30
0.0
 10
4.0227235046
 20
3.6077663475
 30
0.0
 10
4.0227358607
 20
3.6078483633
 30
0.0
 10
4.0227358853
 20
3.6078876432
 30
0.0
  0
LINE
  5
29B
100
AcDbEntity
  8
0
100
AcDbLine
 62
7
  6
CONTINUOUS
 10
3.8943865294
 20
3.5577669909
 11
3.894598836
 21
3.5578695986
  0
SPLINE
  5
29C
100
AcDbEntity
  8
0
100
AcDbSpline
 62
7
  6
CONTINUOUS
 70
0
 71
3
 72
56
 73
52
 74
0
 42
0.0000001
 43
0.0000001
 44
0.0000000001
 40
0.0
 40
0.0
 40
0.0
 40
0.0
 40
0.0015549162
 40
0.0033831725
 40
0.0054879609
 40
0.0078703439
 40
0.0105300264
 40
0.0134661575
 40
0.020162555
 40
0.0279476347
 40
0.0368045593
 40
0.0467098123
 40
0.0576384979
 40
0.0695649925
 40
0.0824591107
 40
0.1110156641
 40
0.1430292761
 40
0.1781846951
 40
0.2161464024
 40
0.2565522192
 40
0.2990254328
 40
0.3431726725
 40
0.3885919495
 40
0.4348736616
 40
0.5283792631
 40
0.5747865971
 40
0.6204291254
 40
0.6649218251
 40
0.7078901362
 40
0.7489814189
 40
0.787857761
 40
0.8242092589
 40
0.8577448286
 40
0.8882058024
 40
0.9153563827
 40
0.9276273426
 40
0.9389964178
 40
0.9494437599
 40
0.9589526556
 40
0.9675067358
 40
0.9750906078
 40
0.9816943734
 40
0.9873118058
 40
0.9897493762
 40
0.9919391669
 40
0.9938814733
 40
0.9955777454
 40
0.9970308079
 40
0.9982453591
 40
0.9992297252
 40
1.0
 40
1.0
 40
1.0
 40
1.0
 10
3.894598836
 20
3.5578695986
 30
0.0
 10
3.8946682001
 20
3.5578982627
 30
0.0
 10
3.8948217057
 20
3.5579543817
 30
0.0
 10
3.8950750546
 20
3.5580319858
 30
0.0
 10
3.895369899
 20
3.5581096514
 30
0.0
 10
3.8957060433
 20
3.5581873477
 30
0.0
 10
3.896083247
 20
3.5582650594
 30
0.0
 10
3.8966666163
 20
3.5583734614
 30
0.0
 10
3.8974968334
 20
3.5585066914
 30
0.0
 10
3.8986128428
 20
3.558660556
 30
0.0
 10
3.8998850229
 20
3.5588143627
 30
0.0
 10
3.9013099142
 20
3.5589681122
 30
0.0
 10
3.9028837557
 20
3.5591217072
 30
0.0
 10
3.904602506
 20
3.559275087
 30
0.0
 10
3.9071702651
 20
3.5594865365
 30
0.0
 10
3.9107067762
 20
3.5597467746
 30
0.0
 10
3.9153174533
 20
3.5600488192
 30
0.0
 10
3.9203830269
 20
3.5603501024
 30
0.0
 10
3.9258543831
 20
3.5606504523
 30
0.0
 10
3.9316795035
 20
3.5609498199
 30
0.0
 10
3.9378036138
 20
3.56124811
 30
0.0
 10
3.9441700409
 20
3.5615453097
 30
0.0
 10
3.9507205428
 20
3.5618413776
 30
0.0
 10
3.9596514727
 20
3.5622359481
 30
0.0
 10
3.9686303998
 20
3.5626245737
 30
0.0
 10
3.9775784052
 20
3.5630141111
 30
0.0
 10
3.9841627131
 20
3.5633043709
 30
0.0
 10
3.9905809147
 20
3.5635934187
 30
0.0
 10
3.9967792603
 20
3.5638812856
 30
0.0
 10
4.0027062703
 20
3.5641678951
 30
0.0
 10
4.0083135677
 20
3.5644532802
 30
0.0
 10
4.0135557341
 20
3.5647373261
 30
0.0
 10
4.0183911445
 20
3.5650200279
 30
0.0
 10
4.0227817075
 20
3.5653012315
 30
0.0
 10
4.0261463042
 20
3.565541611
 30
0.0
 10
4.0285902239
 20
3.5657354902
 30
0.0
 10
4.0302296034
 20
3.5658756264
 30
0.0
 10
4.0317351698
 20
3.5660154071
 30
0.0
 10
4.0331042653
 20
3.5661547891
 30
0.0
 10
4.0343344085
 20
3.5662937247
 30
0.0
 10
4.0354234006
 20
3.5664321752
 30
0.0
 10
4.0363694211
 20
3.5665700712
 30
0.0
 10
4.0370669976
 20
3.5666892332
 30
0.0
 10
4.0375519604
 20
3.5667860482
 30
0.0
 10
4.0378615056
 20
3.5668550409
 30
0.0
 10
4.0381343277
 20
3.5669238697
 30
0.0
 10
4.038370388
 20
3.5669925164
 30
0.0
 10
4.0385697054
 20
3.567060918
 30
0.0
 10
4.0387325079
 20
3.5671290882
 30
0.0
 10
4.0388589644
 20
3.5671969325
 30
0.0
 10
4.0389274047
 20
3.5672480639
 30
0.0
 10
4.0389536996
 20
3.5672743494
 30
0.0
  0
SPLINE
  5
29D
100
AcDbEntity
  8
0
100
AcDbSpline
 62
7
  6
CONTINUOUS
 70
0
 71
3
 72
59
 73
55
 74
0
 42
0.0000001
 43
0.0000001
 44
0.0000000001
 40
0.0
 40
0.0
 40
0.0
 40
0.0
 40
0.0020001022
 40
0.0042408425
 40
0.0067272691
 40
0.0094628121
 40
0.0124494906
 40
0.0156878663
 40
0.0229186246
 40
0.0311505186
 40
0.0403746684
 40
0.0505777021
 40
0.0617393395
 40
0.073837498
 40
0.0868494058
 40
0.100749472
 40
0.115506956
 40
0.147467417
 40
0.1824627157
 40
0.2201879828
 40
0.2603200239
 40
0.3025074627
 40
0.3463855202
 40
0.4376674239
 40
0.5309863036
 40
0.5773928432
 40
0.6230896092
 40
0.667677841
 40
0.7107683812
 40
0.7519863153
 40
0.7909726778
 40
0.8273900377
 40
0.8609233513
 40
0.8912858281
 40
0.9051957615
 40
0.9182202913
 40
0.9303319285
 40
0.9415047261
 40
0.9517187849
 40
0.9609568712
 40
0.9692032029
 40
0.9764456767
 40
0.9796895933
 40
0.9826822644
 40
0.9854246379
 40
0.987918424
 40
0.9901664319
 40
0.9921731034
 40
0.9939455898
 40
0.9954955527
 40
0.9968408455
 40
0.9980089716
 40
0.9990419427
 40
1.0
 40
1.0
 40
1.0
 40
1.0
 10
3.9011546106
 20
3.5617093894
 30
0.0
 10
3.9012254507
 20
3.5617506952
 30
0.0
 10
3.90137898
 20
3.5618326096
 30
0.0
 10
3.9016292925
 20
3.5619486789
 30
0.0
 10
3.901912456
 20
3.5620648144
 30
0.0
 10
3.9022283797
 20
3.5621809983
 30
0.0
 10
3.9025769384
 20
3.5622972291
 30
0.0
 10
3.903104648
 20
3.5624582474
 30
0.0
 10
3.9038452886
 20
3.5626573622
 30
0.0
 10
3.9048307274
 20
3.5628888326
 30
0.0
 10
3.9059408936
 20
3.5631206005
 30
0.0
 10
3.9071734389
 20
3.5633525796
 30
0.0
 10
3.9085256511
 20
3.5635847729
 30
0.0
 10
3.9099945387
 20
3.5638171336
 30
0.0
 10
3.9115769722
 20
3.5640496038
 30
0.0
 10
3.9132695149
 20
3.5642821448
 30
0.0
 10
3.9157343158
 20
3.5646008585
 30
0.0
 10
3.9190612246
 20
3.5649959059
 30
0.0
 10
3.9233280903
 20
3.5654588403
 30
0.0
 10
3.927931743
 20
3.5659222983
 30
0.0
 10
3.9328316268
 20
3.5663860458
 30
0.0
 10
3.937984807
 20
3.566850104
 30
0.0
 10
3.9452288489
 20
3.5674772915
 30
0.0
 10
3.9545643847
 20
3.5682506004
 30
0.0
 10
3.964004553
 20
3.5690160613
 30
0.0
 10
3.9715813912
 20
3.569636444
 30
0.0
 10
3.9771663869
 20
3.5701008314
 30
0.0
 10
3.9826149603
 20
3.5705651096
 30
0.0
 10
3.9878792332
 20
3.5710292422
 30
0.0
 10
3.9929129294
 20
3.5714931496
 30
0.0
 10
3.99767184
 20
3.5719567779
 30
0.0
 10
4.0021141529
 20
3.572419974
 30
0.0
 10
4.0062008806
 20
3.5728826648
 30
0.0
 10
4.0093663659
 20
3.5732781899
 30
0.0
 10
4.0116937026
 20
3.573597694
 30
0.0
 10
4.0132776275
 20
3.5738301581
 30
0.0
 10
4.0147480677
 20
3.5740624803
 30
0.0
 10
4.0161017597
 20
3.574294697
 30
0.0
 10
4.0173358025
 20
3.574526724
 30
0.0
 10
4.0184476217
 20
3.5747584716
 30
0.0
 10
4.0194347621
 20
3.5749898858
 30
0.0
 10
4.02017674
 20
3.5751890303
 30
0.0
 10
4.0207054431
 20
3.5753500581
 30
0.0
 10
4.0210547901
 20
3.5754663015
 30
0.0
 10
4.0213715961
 20
3.5755824842
 30
0.0
 10
4.0216557095
 20
3.5756986076
 30
0.0
 10
4.0219069975
 20
3.5758146682
 30
0.0
 10
4.0221253616
 20
3.5759306827
 30
0.0
 10
4.0223107659
 20
3.5760467189
 30
0.0
 10
4.0224632848
 20
3.5761628872
 30
0.0
 10
4.0225830375
 20
3.5762794611
 30
0.0
 10
4.0226699941
 20
3.576397054
 30
0.0
 10
4.0227234939
 20
3.5765163489
 30
0.0
 10
4.0227358464
 20
3.5765983634
 30
0.0
 10
4.0227358709
 20
3.5766376431
 30
0.0
  0
SPLINE
  5
29E
100
AcDbEntity
  8
0
100
AcDbSpline
 62
7
  6
CONTINUOUS
 70
0
 71
3
 72
38
 73
34
 74
0
 42
0.0000001
 43
0.0000001
 44
0.0000000001
 40
0.0
 40
0.0
 40
0.0
 40
0.0
 40
0.0007787607
 40
0.0015855911
 40
0.0024459244
 40
0.003380742
 40
0.0055324347
 40
0.0081321332
 40
0.0112282597
 40
0.0148485806
 40
0.0190096937
 40
0.0237218786
 40
0.028991201
 40
0.0348198125
 40
0.0412079581
 40
0.0481548156
 40
0.0637174643
 40
0.0814896526
 40
0.101438095
 40
0.1235184324
 40
0.147684189
 40
0.1738842755
 40
0.2020551949
 40
0.2321303826
 40
0.264042479
 40
0.2977162072
 40
0.370016653
 40
0.448349579
 40
0.5319678387
 40
0.6200756248
 40
0.71181654
 40
0.8063275936
 40
1.0
 40
1.0
 40
1.0
 40
1.0
 10
3.8836460036
 20
3.5746856365
 30
0.0
 10
3.8836459915
 20
3.5747060749
 30
0.0
 10
3.8836500563
 20
3.5747477944
 30
0.0
 10
3.8836682377
 20
3.5748096993
 30
0.0
 10
3.8836983432
 20
3.5748713104
 30
0.0
 10
3.8837569406
 20
3.5749570831
 30
0.0
 10
3.8838632709
 20
3.5750634204
 30
0.0
 10
3.8840304765
 20
3.5751844746
 30
0.0
 10
3.8842433815
 20
3.5753054525
 30
0.0
 10
3.8845021604
 20
3.5754264818
 30
0.0
 10
3.8848069947
 20
3.5755476642
 30
0.0
 10
3.8851578831
 20
3.5756689751
 30
0.0
 10
3.8855547288
 20
3.5757903873
 30
0.0
 10
3.8859973202
 20
3.5759118983
 30
0.0
 10
3.8864853826
 20
3.5760334986
 30
0.0
 10
3.8872248384
 20
3.5762021746
 30
0.0
 10
3.8882614402
 20
3.5764106134
 30
0.0
 10
3.8896388199
 20
3.5766527195
 30
0.0
 10
3.8911895139
 20
3.5768951773
 30
0.0
 10
3.8929097696
 20
3.5771379712
 30
0.0
 10
3.8947955415
 20
3.5773809838
 30
0.0
 10
3.8968423517
 20
3.5776241232
 30
0.0
 10
3.8990452433
 20
3.5778674108
 30
0.0
 10
3.9013988809
 20
3.5781108173
 30
0.0
 10
3.9038976533
 20
3.5783542945
 30
0.0
 10
3.9075011277
 20
3.5786869358
 30
0.0
 10
3.9123206318
 20
3.5790995701
 30
0.0
 10
3.9184493862
 20
3.5795842667
 30
0.0
 10
3.924994171
 20
3.5800694123
 30
0.0
 10
3.9318917319
 20
3.5805548323
 30
0.0
 10
3.9390758283
 20
3.5810404951
 30
0.0
 10
3.9490254233
 20
3.5816935231
 30
0.0
 10
3.9565733918
 20
3.5821746897
 30
0.0
 10
3.9616459627
 20
3.5824981371
 30
0.0
  0
SPLINE
  5
29F
100
AcDbEntity
  8
0
100
AcDbSpline
 62
7
  6
CONTINUOUS
 70
0
 71
3
 72
38
 73
34
 74
0
 42
0.0000001
 43
0.0000001
 44
0.0000000001
 40
0.0
 40
0.0
 40
0.0
 40
0.0
 40
0.0007788285
 40
0.0015858277
 40
0.0024463299
 40
0.0033812497
 40
0.005532882
 40
0.0081322375
 40
0.0112279669
 40
0.0148481219
 40
0.0190096034
 40
0.0237227965
 40
0.028992797
 40
0.034821616
 40
0.0412096874
 40
0.0481563836
 40
0.063719241
 40
0.08149225
 40
0.1014398508
 40
0.1235190091
 40
0.1476847068
 40
0.1738840404
 40
0.2020533332
 40
0.2321274927
 40
0.2640396059
 40
0.297712377
 40
0.3700115321
 40
0.4483440154
 40
0.5319631193
 40
0.6200708106
 40
0.7118117772
 40
0.8063252442
 40
1.0
 40
1.0
 40
1.0
 40
1.0
 10
3.8836459628
 20
3.6059356371
 30
0.0
 10
3.8836459622
 20
3.6059560772
 30
0.0
 10
3.8836500594
 20
3.6059978003
 30
0.0
 10
3.8836682868
 20
3.6060597017
 30
0.0
 10
3.8836984173
 20
3.6061213122
 30
0.0
 10
3.8837570266
 20
3.6062070825
 30
0.0
 10
3.8838633392
 20
3.6063134235
 30
0.0
 10
3.8840305125
 20
3.6064344872
 30
0.0
 10
3.8842433862
 20
3.6065554726
 30
0.0
 10
3.884502157
 20
3.6066765079
 30
0.0
 10
3.8848070245
 20
3.6067976935
 30
0.0
 10
3.8851579742
 20
3.6069189917
 30
0.0
 10
3.88555487
 20
3.6070404086
 30
0.0
 10
3.8859974817
 20
3.6071619251
 30
0.0
 10
3.886485542
 20
3.60728353
 30
0.0
 10
3.8872249951
 20
3.6074522136
 30
0.0
 10
3.8882616195
 20
3.6076606545
 30
0.0
 10
3.8896390074
 20
3.6079027388
 30
0.0
 10
3.8911896679
 20
3.6081452024
 30
0.0
 10
3.8929098682
 20
3.6083879942
 30
0.0
 10
3.8947955896
 20
3.6086309845
 30
0.0
 10
3.8968423355
 20
3.6088741159
 30
0.0
 10
3.8990451364
 20
3.6091174025
 30
0.0
 10
3.9013987039
 20
3.6093608044
 30
0.0
 10
3.9038974249
 20
3.6096042664
 30
0.0
 10
3.9075008389
 20
3.6099369117
 30
0.0
 10
3.9123202708
 20
3.6103495393
 30
0.0
 10
3.9184489993
 20
3.6108342384
 30
0.0
 10
3.9249937899
 20
3.6113193821
 30
0.0
 10
3.9318913687
 20
3.6118048089
 30
0.0
 10
3.9390755245
 20
3.612290474
 30
0.0
 10
3.9490252417
 20
3.6129435123
 30
0.0
 10
3.9565733322
 20
3.6134246859
 30
0.0
 10
3.9616459627
 20
3.6137481371
 30
0.0
  0
SPLINE
  5
2A0
100
AcDbEntity
  8
0
100
AcDbSpline
 62
7
  6
CONTINUOUS
 70
0
 71
3
 72
36
 73
32
 74
0
 42
0.0000001
 43
0.0000001
 44
0.0000000001
 40
0.0
 40
0.0
 40
0.0
 40
0.0
 40
0.0008487312
 40
0.0017207513
 40
0.0036132751
 40
0.0058174707
 40
0.0084190778
 40
0.0114699238
 40
0.0150016041
 40
0.0190339803
 40
0.02357996
 40
0.0286480449
 40
0.034242807
 40
0.040366327
 40
0.0470194049
 40
0.0619126943
 40
0.0789158091
 40
0.0980138421
 40
0.119178628
 40
0.1423752011
 40
0.1675670527
 40
0.1947157939
 40
0.2237737226
 40
0.2874034377
 40
0.3580168422
 40
0.4351054271
 40
0.5181236425
 40
0.6064735889
 40
0.6995267215
 40
0.796603227
 40
1.0
 40
1.0
 40
1.0
 40
1.0
 10
3.8836459627
 20
3.6371856371
 30
0.0
 10
3.883645963
 20
3.6372033584
 30
0.0
 10
3.883649021
 20
3.6372393566
 30
0.0
 10
3.8836676918
 20
3.6373127561
 30
0.0
 10
3.883716512
 20
3.6374058938
 30
0.0
 10
3.8838084805
 20
3.6375122945
 30
0.0
 10
3.8839347098
 20
3.6376178698
 30
0.0
 10
3.8840953738
 20
3.6377231166
 30
0.0
 10
3.8842906633
 20
3.6378283508
 30
0.0
 10
3.884520702
 20
3.6379336411
 30
0.0
 10
3.8847855388
 20
3.6380390134
 30
0.0
 10
3.8850851533
 20
3.638144451
 30
0.0
 10
3.8854194458
 20
3.6382499547
 30
0.0
 10
3.8857882621
 20
3.6383555263
 30
0.0
 10
3.886347189
 20
3.6385019195
 30
0.0
 10
3.8871316609
 20
3.6386828776
 30
0.0
 10
3.8881755443
 20
3.6388931216
 30
0.0
 10
3.8893526485
 20
3.6391036179
 30
0.0
 10
3.8906608495
 20
3.639314369
 30
0.0
 10
3.8920977412
 20
3.6395253179
 30
0.0
 10
3.8936607776
 20
3.6397364172
 30
0.0
 10
3.8953472103
 20
3.6399476076
 30
0.0
 10
3.8978324602
 20
3.6402381752
 30
0.0
 10
3.9012232065
 20
3.6405979834
 30
0.0
 10
3.9056157434
 20
3.6410183906
 30
0.0
 10
3.9104147411
 20
3.6414393489
 30
0.0
 10
3.9155853497
 20
3.6418606548
 30
0.0
 10
3.9210902992
 20
3.6422822856
 30
0.0
 10
3.9268895784
 20
3.6427041118
 30
0.0
 10
3.9350864235
 20
3.6432756856
 30
0.0
 10
3.9413465272
 20
3.6436904635
 30
0.0
 10
3.9455844173
 20
3.6439666084
 30
0.0
  0
ENDSEC
  0
SECTION
  2
OBJECTS
  0
DICTIONARY
  5
C
100
AcDbDictionary
280
0
281
1
  3
ACAD_GROUP
350
D
  3
ACAD_MLINESTYLE
350
17
  3
ACAD_LAYOUT
350
1A
  3
ACAD_PLOTSETTINGS
350
19
  3
ACAD_PLOTSTYLENAME
350
E
  0
DICTIONARY
  5
D
102
{ACAD_REACTORS
330
C
102
}
100
AcDbDictionary
280
0
281
1
  0
ACDBDICTIONARYWDFLT
  5
E
102
{ACAD_REACTORS
330
C
102
}
100
AcDbDictionary
281
1
  3
Normal
350
F
100
AcDbDictionaryWithDefault
340
F
  0
DICTIONARY
  5
17
102
{ACAD_REACTORS
330
C
102
}
100
AcDbDictionary
280
0
281
1
  3
Standard
350
18
  0
DICTIONARY
  5
19
102
{ACAD_REACTORS
330
C
102
}
100
AcDbDictionary
281
1
  0
DICTIONARY
  5
1A
102
{ACAD_REACTORS
330
C
102
}
100
AcDbDictionary
281
1
  3
Model
350
2A1
  3
Layout1
350
2A2
  0
ACDBPLACEHOLDER
  5
F
102
{ACAD_REACTORS
330
E
102
}
  0
MLINESTYLE
  5
18
102
{ACAD_REACTORS
330
17
102
}
100
AcDbMlineStyle
  2
STANDARD
 70
0
  3

 62
256
 51
90.0
 52
90.0
 71
2
 49
0.5
 62
256
  6
BYLAYER
 49
-0.5
 62
256
  6
BYLAYER
  0
LAYOUT
  5
2A1
102
{ACAD_REACTORS
330
1A
102
}
100
AcDbPlotSettings
  1

  2
none_device
  4
ANSI_A_(11.00_x_8.50_Inches)
  6

 40
0.0
 41
0.0
 42
0.0
 43
0.0
 44
279.4
 45
215.9
 46
0.0
 47
0.0
 48
0.0
 49
0.0
140
0.0
141
0.0
142
1.0
143
1.0
 70
1024
 72
0
 73
0
 74
0
  7

 75
0
147
1.0
148
0.0
149
0.0
100
AcDbLayout
  1
Model
 70
0
 71
0
 10
0.0
 20
0.0
 11
11.0
 21
8.5
 12
0.0
 22
0.0
 32
0.0
 14
0.0
 24
0.0
 34
0.0
 15
0.0
 25
0.0
 35
0.0
146
0.0
 13
0.0
 23
0.0
 33
0.0
 16
1.0
 26
0.0
 36
0.0
 17
0.0
 27
1.0
 37
0.0
 76
0
330
208
345
0
346
0
  0
LAYOUT
  5
2A2
102
{ACAD_REACTORS
330
1A
102
}
100
AcDbPlotSettings
  1

  2
none_device
  4
ANSI_A_(11.00_x_8.50_Inches)
  6

 40
0.0
 41
0.0
 42
0.0
 43
0.0
 44
279.4
 45
215.9
 46
0.0
 47
0.0
 48
0.0
 49
0.0
140
0.0
141
0.0
142
1.0
143
1.0
 70
0
 72
0
 73
0
 74
0
  7

 75
0
147
1.0
148
0.0
149
0.0
100
AcDbLayout
  1
Layout1
 70
0
 71
1
 10
0.0
 20
0.0
 11
11.0
 21
8.5
 12
0.0
 22
0.0
 32
0.0
 14
0.0
 24
0.0
 34
0.0
 15
0.0
 25
0.0
 35
0.0
146
0.0
 13
0.0
 23
0.0
 33
0.0
 16
1.0
 26
0.0
 36
0.0
 17
0.0
 27
1.0
 37
0.0
 76
0
330
209
345
0
346
0
  0
ENDSEC
  0
EOF
