999
DXF file: 233-405_front.dxf
999
Pro/ENGINEER 2018400 by Parametric Technology Corporation
  0
SECTION
  2
HEADER
  9
$ACADVER
  1
AC1027
  9
$DWGCODEPAGE
  3
ANSI_1252
  9
$EXTMAX
 10
11.0
 20
8.5
 30
0.0
  9
$EXTMIN
 10
0.0
 20
0.0
 30
0.0
  9
$LIMMIN
 10
0.0
 20
0.0
  9
$LIMMAX
 10
11.0
 20
8.5
  9
$VIEWCTR
 10
5.5
 20
4.25
  9
$VIEWSIZE
 40
8.5
  9
$CLAYER
  8
0
  9
$LTSCALE
 40
0.605
  9
$CELTYPE
  6
BYLAYER
  9
$DIMSCALE
 40
1.0
  9
$DIMASZ
 40
0.1
  9
$DIMEXO
 40
0.0625
  9
$DIMDLI
 40
0.418
  9
$DIMEXE
 40
0.125
  9
$DIMCEN
 40
0.099
  9
$DIMLFAC
 40
1.0
  9
$DIMBLK
  1
_FILLED
  9
$DIMALT
 70
1
  9
$DIMALTD
 70
1
  9
$DIMALTTD
 70
2
  9
$DIMALTF
 40
25.4
  9
$DIMTXT
 40
0.08
  9
$DIMTOL
 70
1
  9
$DIMLIM
 70
0
  9
$DIMTFAC
 40
1.0
  9
$DIMTP
 40
0.01
  9
$DIMTM
 40
0.01
  9
$DIMGAP
 40
0.09
  9
$DIMDSEP
 70
46
  9
$AUNITS
 70
0
  9
$PDMODE
 70
3
  9
$PDSIZE
 40
0.3125
  9
$HANDSEED
  5
2FD
  9
$TILEMODE
 70
1
  9
$MEASUREMENT
 70
0
  9
$INSUNITS
 70
1
  0
ENDSEC
  0
SECTION
  2
CLASSES
  0
CLASS
  1
ACDBDICTIONARYWDFLT
  2
AcDbDictionaryWithDefault
  3
AutoCAD 2000
 90
0
 91
1
280
0
281
0
  0
CLASS
  1
ACDBPLACEHOLDER
  2
AcDbPlaceHolder
  3
AutoCAD 2000
 90
0
 91
1
280
0
281
0
  0
CLASS
  1
LAYOUT
  2
AcDbLayout
  3
AutoCAD 2000
 90
0
 91
0
280
0
281
0
  0
ENDSEC
  0
SECTION
  2
TABLES
  0
TABLE
  2
VPORT
  5
8
100
AcDbSymbolTable
 70
2
  0
VPORT
  5
1F4
100
AcDbSymbolTableRecord
100
AcDbViewportTableRecord
  2
*ACTIVE
 70
0
 10
0.0
 20
0.0
 11
1.0
 21
1.0
 12
5.5
 22
4.25
 13
0.0
 23
0.0
 14
1.0
 24
1.0
 15
0.0
 25
0.0
 16
0.0
 26
0.0
 36
1.0
 17
0.0
 27
0.0
 37
0.0
 40
8.5
 41
1.2941176471
 42
50.0
 43
0.0
 44
0.0
 50
0.0
 51
0.0
 71
0
 72
100
 73
1
 74
1
 75
0
 76
0
 77
0
 78
0
  0
ENDTAB
  0
TABLE
  2
LTYPE
  5
5
100
AcDbSymbolTable
 70
6
  0
LTYPE
  5
14
100
AcDbSymbolTableRecord
100
AcDbLinetypeTableRecord
  2
BYBLOCK
 70
0
  3

 72
65
 73
0
 40
0.0
  0
LTYPE
  5
15
100
AcDbSymbolTableRecord
100
AcDbLinetypeTableRecord
  2
BYLAYER
 70
0
  3

 72
65
 73
0
 40
0.0
  0
LTYPE
  5
16
100
AcDbSymbolTableRecord
100
AcDbLinetypeTableRecord
  2
CONTINUOUS
 70
64
  3
Solid line
 72
65
 73
0
 40
0.0
  0
LTYPE
  5
1F5
100
AcDbSymbolTableRecord
100
AcDbLinetypeTableRecord
  2
CENTER
 70
64
  3
____ _ ____ _ ____ _ ____ _ ____ _ ____ _ ____
 72
65
 73
4
 40
0.6
 49
0.375
 74
0
 49
-0.075
 74
0
 49
0.075
 74
0
 49
-0.075
 74
0
  0
LTYPE
  5
1F6
100
AcDbSymbolTableRecord
100
AcDbLinetypeTableRecord
  2
HIDDEN
 70
64
  3
- - - - - - - - - - - - - - - - - - - -
 72
65
 73
2
 40
0.2
 49
0.1
 74
0
 49
-0.1
 74
0
  0
LTYPE
  5
1F7
100
AcDbSymbolTableRecord
100
AcDbLinetypeTableRecord
  2
PHANTOM
 70
64
  3
_____ _ _ _____ _ _ _____ _ _ _____
 72
65
 73
6
 40
0.8
 49
0.45
 74
0
 49
-0.05
 74
0
 49
0.1
 74
0
 49
-0.05
 74
0
 49
0.1
 74
0
 49
-0.05
 74
0
  0
LTYPE
  5
1F8
100
AcDbSymbolTableRecord
100
AcDbLinetypeTableRecord
  2
DOT
 70
64
  3
. . . . . . . . . . . . . . . . . . . .
 72
65
 73
2
 40
0.2
 49
0.1
 74
0
 49
-0.1
 74
0
  0
LTYPE
  5
1F9
100
AcDbSymbolTableRecord
100
AcDbLinetypeTableRecord
  2
DASHED
 70
64
  3
- - - - - - - - - - - - - - - - - - - -
 72
65
 73
2
 40
0.2
 49
0.1
 74
0
 49
-0.1
 74
0
  0
ENDTAB
  0
TABLE
  2
LAYER
  5
2
100
AcDbSymbolTable
 70
36
  0
LAYER
  5
10
100
AcDbSymbolTableRecord
100
AcDbLayerTableRecord
  2
0
 70
0
 62
7
  6
CONTINUOUS
370
-3
390
F
  0
LAYER
  5
1FA
100
AcDbSymbolTableRecord
100
AcDbLayerTableRecord
  2
DEFAULT_1
 70
0
 62
7
  6
CENTER
370
-3
390
F
  0
LAYER
  5
1FB
100
AcDbSymbolTableRecord
100
AcDbLayerTableRecord
  2
DEFAULT_2
 70
0
 62
8
  6
HIDDEN
370
-3
390
F
  0
LAYER
  5
1FC
100
AcDbSymbolTableRecord
100
AcDbLayerTableRecord
  2
DEFAULT_3
 70
0
 62
7
  6
PHANTOM
370
-3
390
F
  0
LAYER
  5
1FD
100
AcDbSymbolTableRecord
100
AcDbLayerTableRecord
  2
DEFAULT_COORDINATE_SYSTEM
 70
0
 62
7
  6
CONTINUOUS
370
-3
390
F
  0
LAYER
  5
1FE
100
AcDbSymbolTableRecord
100
AcDbLayerTableRecord
  2
DEFAULT_DATUM_AXES
 70
0
 62
7
  6
CONTINUOUS
370
-3
390
F
  0
LAYER
  5
1FF
100
AcDbSymbolTableRecord
100
AcDbLayerTableRecord
  2
DEFAULT_DATUM_CURVES
 70
0
 62
7
  6
CONTINUOUS
370
-3
390
F
  0
LAYER
  5
200
100
AcDbSymbolTableRecord
100
AcDbLayerTableRecord
  2
DEFAULT_DATUM_PLANES
 70
0
 62
7
  6
CONTINUOUS
370
-3
390
F
  0
LAYER
  5
201
100
AcDbSymbolTableRecord
100
AcDbLayerTableRecord
  2
DEFAULT_SURFACES
 70
0
 62
7
  6
CONTINUOUS
370
-3
390
F
  0
LAYER
  5
202
100
AcDbSymbolTableRecord
100
AcDbLayerTableRecord
  2
INTF_1
 70
0
 62
7
  6
CONTINUOUS
370
-3
390
F
  0
LAYER
  5
203
100
AcDbSymbolTableRecord
100
AcDbLayerTableRecord
  2
PLATTED_SURFACE_AREA
 70
0
 62
7
  6
CONTINUOUS
370
-3
390
F
  0
LAYER
  5
204
100
AcDbSymbolTableRecord
100
AcDbLayerTableRecord
  2
RGB____0____0____0__
 70
0
 62
7
  6
CONTINUOUS
370
-3
390
F
  0
ENDTAB
  0
TABLE
  2
STYLE
  5
3
100
AcDbSymbolTable
 70
1
  0
STYLE
  5
11
100
AcDbSymbolTableRecord
100
AcDbTextStyleTableRecord
  2
STANDARD
 70
0
 40
0.0
 41
0.8
 50
0.0
 71
0
 42
0.2
  3
txt
  4

  0
STYLE
  5
205
100
AcDbSymbolTableRecord
100
AcDbTextStyleTableRecord
  2
TEXTSTYLE_1
 70
0
 40
0.0
 41
0.8
 50
0.0
 71
0
 42
0.2
  3
gdt
  4

  0
ENDTAB
  0
TABLE
  2
VIEW
  5
6
100
AcDbSymbolTable
 70
0
  0
ENDTAB
  0
TABLE
  2
UCS
  5
7
100
AcDbSymbolTable
 70
0
  0
ENDTAB
  0
TABLE
  2
APPID
  5
9
100
AcDbSymbolTable
 70
1
  0
APPID
  5
206
100
AcDbSymbolTableRecord
100
AcDbRegAppTableRecord
  2
ACAD
 70
0
  0
ENDTAB
  0
TABLE
  2
BLOCK_RECORD
  5
1
100
AcDbSymbolTable
 70
0
  0
BLOCK_RECORD
  5
207
100
AcDbSymbolTableRecord
100
AcDbBlockTableRecord
  2
*Model_Space
  0
BLOCK_RECORD
  5
208
100
AcDbSymbolTableRecord
100
AcDbBlockTableRecord
  2
*Paper_Space
  0
BLOCK_RECORD
  5
209
100
AcDbSymbolTableRecord
100
AcDbBlockTableRecord
  2
_FILLED
  0
ENDTAB
  0
TABLE
  2
DIMSTYLE
  5
A
100
AcDbSymbolTable
 70
1
100
AcDbDimStyleTable
 71
0
  0
DIMSTYLE
105
20A
100
AcDbSymbolTableRecord
100
AcDbDimStyleTableRecord
  2
STANDARD
 70
0
  3

  4

 40
1.0
 41
0.1
 42
0.0625
 43
0.38
 44
0.125
 45
0.0
 46
0.0
 47
0.01
 48
0.01
140
0.08
141
0.09
142
0.0
143
25.4
144
1.0
145
0.0
146
1.0
147
0.09
 71
1.0
 72
0.0
 73
1
 74
1
 75
0
 76
0
 77
0
 78
4
 79
1
170
1
171
1
172
0
173
0
174
0
175
0
176
0
177
0
178
0
270
2
179
2
271
2
272
2
273
2
274
2
275
0
280
0
281
0
282
0
283
1
284
4
285
0
286
0
287
3
288
0
340
11
278
46
341
209
342
209
343
209
344
209
  0
ENDTAB
  0
ENDSEC
  0
SECTION
  2
BLOCKS
  0
BLOCK
  5
20
100
AcDbEntity
  8
0
100
AcDbBlockBegin
  2
*Model_Space
 70
0
 10
0.0
 20
0.0
 30
0.0
  3
*Model_Space
  1

  0
ENDBLK
  5
21
100
AcDbEntity
  8
0
100
AcDbBlockEnd
  0
BLOCK
  5
1C
100
AcDbEntity
  8
0
100
AcDbBlockBegin
  2
*Paper_Space
 70
0
 10
0.0
 20
0.0
 30
0.0
  3
*Paper_Space
  1

  0
ENDBLK
  5
1D
100
AcDbEntity
  8
0
100
AcDbBlockEnd
  0
BLOCK
  5
20B
100
AcDbEntity
  8
0
100
AcDbBlockBegin
  2
_FILLED
 70
64
 10
0.0
 20
0.0
  3
_FILLED
  1

  0
SOLID
  5
20C
100
AcDbEntity
  8
0
  6
BYBLOCK
 62
0
100
AcDbTrace
 10
0.0
 20
0.0
 11
-1.0
 21
0.2
 12
-1.0
 22
-0.2
 13
-1.0
 23
-0.2
  0
ENDBLK
  5
20D
100
AcDbEntity
  8
0
  6
BYBLOCK
 62
0
100
AcDbBlockEnd
  0
ENDSEC
  0
SECTION
  2
ENTITIES
  0
MTEXT
  5
20E
100
AcDbEntity
  8
0
100
AcDbMText
 62
2
  6
CONTINUOUS
  7
STANDARD
 71
3
 72
1
 10
5.4077639752
 20
1.6079076087
 30
0.0
 11
1.0
 21
0.0
 31
0.0
 73
2
 44
0.9
  1
SCALE  1.000
 40
0.08
 41
0.768
  0
LINE
  5
20F
100
AcDbEntity
  8
0
100
AcDbLine
 62
7
  6
CONTINUOUS
 10
0.0
 20
0.0
 11
0.0
 21
8.5
  0
LINE
  5
210
100
AcDbEntity
  8
0
100
AcDbLine
 62
7
  6
CONTINUOUS
 10
0.0
 20
0.0
 11
11.0
 21
0.0
  0
LINE
  5
211
100
AcDbEntity
  8
0
100
AcDbLine
 62
7
  6
CONTINUOUS
 10
0.0
 20
8.5
 11
11.0
 21
8.5
  0
LINE
  5
212
100
AcDbEntity
  8
0
100
AcDbLine
 62
7
  6
CONTINUOUS
 10
11.0
 20
0.0
 11
11.0
 21
8.5
  0
LINE
  5
213
100
AcDbEntity
  8
0
100
AcDbLine
 62
7
  6
CONTINUOUS
 10
2.9702018634
 20
6.5441498447
 11
2.9702018634
 21
2.6591498447
  0
LINE
  5
214
100
AcDbEntity
  8
0
100
AcDbLine
 62
7
  6
CONTINUOUS
 10
3.0502018634
 20
2.5791498447
 11
6.9352018634
 21
2.5791498447
  0
LINE
  5
215
100
AcDbEntity
  8
0
100
AcDbLine
 62
7
  6
CONTINUOUS
 10
3.2722018634
 20
6.2901498447
 11
3.2722018634
 21
6.0312858287
  0
LINE
  5
216
100
AcDbEntity
  8
0
100
AcDbLine
 62
7
  6
CONTINUOUS
 10
3.2722018634
 20
5.8283059974
 11
3.2722018634
 21
5.6269592977
  0
LINE
  5
217
100
AcDbEntity
  8
0
100
AcDbLine
 62
7
  6
CONTINUOUS
 10
3.2722018634
 20
4.7659923277
 11
3.2722018634
 21
4.4363073618
  0
LINE
  5
218
100
AcDbEntity
  8
0
100
AcDbLine
 62
7
  6
CONTINUOUS
 10
3.2722018634
 20
3.7413205335
 11
3.2722018634
 21
3.5284230865
  0
LINE
  5
219
100
AcDbEntity
  8
0
100
AcDbLine
 62
7
  6
CONTINUOUS
 10
5.1570443463
 20
2.8811498447
 11
4.8273593804
 21
2.8811498447
  0
LINE
  5
21A
100
AcDbEntity
  8
0
100
AcDbLine
 62
7
  6
CONTINUOUS
 10
3.3032018634
 20
2.8811498447
 11
3.5620658794
 21
2.8811498447
  0
LINE
  5
21B
100
AcDbEntity
  8
0
100
AcDbLine
 62
7
  6
CONTINUOUS
 10
3.7650457106
 20
2.8811498447
 11
3.9663924104
 21
2.8811498447
  0
LINE
  5
21C
100
AcDbEntity
  8
0
100
AcDbLine
 62
7
  6
CONTINUOUS
 10
5.8520311746
 20
2.8811498447
 11
6.0649286215
 21
2.8811498447
  0
LINE
  5
21D
100
AcDbEntity
  8
0
100
AcDbLine
 62
7
  6
CONTINUOUS
 10
6.7122018634
 20
4.7659923277
 11
6.7122018634
 21
4.4363073618
  0
LINE
  5
21E
100
AcDbEntity
  8
0
100
AcDbLine
 62
7
  6
CONTINUOUS
 10
6.7122018634
 20
2.9121498447
 11
6.7122018634
 21
3.1710138608
  0
LINE
  5
21F
100
AcDbEntity
  8
0
100
AcDbLine
 62
7
  6
CONTINUOUS
 10
6.7122018634
 20
3.373993692
 11
6.7122018634
 21
3.5753403918
  0
LINE
  5
220
100
AcDbEntity
  8
0
100
AcDbLine
 62
7
  6
CONTINUOUS
 10
6.7122018634
 20
5.4609791559
 11
6.7122018634
 21
5.6738766029
  0
LINE
  5
221
100
AcDbEntity
  8
0
100
AcDbLine
 62
7
  6
CONTINUOUS
 10
6.6812018634
 20
6.3211498447
 11
6.4223378473
 21
6.3211498447
  0
LINE
  5
222
100
AcDbEntity
  8
0
100
AcDbLine
 62
7
  6
CONTINUOUS
 10
6.2193580161
 20
6.3211498447
 11
6.0180113163
 21
6.3211498447
  0
LINE
  5
223
100
AcDbEntity
  8
0
100
AcDbLine
 62
7
  6
CONTINUOUS
 10
4.1323725521
 20
6.3211498447
 11
3.9194751052
 21
6.3211498447
  0
LINE
  5
224
100
AcDbEntity
  8
0
100
AcDbLine
 62
7
  6
CONTINUOUS
 10
4.8273593804
 20
6.3211498447
 11
5.1570443463
 21
6.3211498447
  0
LINE
  5
225
100
AcDbEntity
  8
0
100
AcDbLine
 62
7
  6
CONTINUOUS
 10
7.0152018634
 20
2.6591498447
 11
7.0152018634
 21
6.5441498447
  0
LINE
  5
226
100
AcDbEntity
  8
0
100
AcDbLine
 62
7
  6
CONTINUOUS
 10
6.9352018634
 20
6.6241498447
 11
3.0502018634
 21
6.6241498447
  0
ARC
  5
227
100
AcDbEntity
  8
0
100
AcDbCircle
 62
7
  6
CONTINUOUS
 10
4.179052898
 20
3.2985274704
 40
1.4227066319
100
AcDbArc
 50
115.4514969874
 51
127.937283286
  0
ARC
  5
228
100
AcDbEntity
  8
0
100
AcDbCircle
 62
7
  6
CONTINUOUS
 10
3.689579489
 20
3.7880008793
 40
1.4227066319
100
AcDbArc
 50
322.062716714
 51
334.5485030126
  0
ARC
  5
229
100
AcDbEntity
  8
0
100
AcDbCircle
 62
7
  6
CONTINUOUS
 10
3.0502018634
 20
2.6591498447
 40
0.08
100
AcDbArc
 50
180.0
 51
270.0
  0
ARC
  5
22A
100
AcDbEntity
  8
0
100
AcDbCircle
 62
7
  6
CONTINUOUS
 10
3.3032018634
 20
2.9121498447
 40
0.031
100
AcDbArc
 50
110.0298789941
 51
270.0
  0
ARC
  5
22B
100
AcDbEntity
  8
0
100
AcDbCircle
 62
7
  6
CONTINUOUS
 10
3.5620658794
 20
2.9011498447
 40
0.02
100
AcDbArc
 50
270.0
 51
337.806085351
  0
ARC
  5
22C
100
AcDbEntity
  8
0
100
AcDbCircle
 62
7
  6
CONTINUOUS
 10
3.4209407981
 20
3.2916472813
 40
0.02
100
AcDbArc
 50
68.4886982759
 51
207.3456722113
  0
ARC
  5
22D
100
AcDbEntity
  8
0
100
AcDbCircle
 62
7
  6
CONTINUOUS
 10
3.2922018634
 20
3.5284230865
 40
0.02
100
AcDbArc
 50
180.0
 51
260.852074814
  0
ARC
  5
22E
100
AcDbEntity
  8
0
100
AcDbCircle
 62
7
  6
CONTINUOUS
 10
3.6806658569
 20
3.2412306177
 40
0.02
100
AcDbArc
 50
207.2409211961
 51
351.5371461389
  0
ARC
  5
22F
100
AcDbEntity
  8
0
100
AcDbCircle
 62
7
  6
CONTINUOUS
 10
3.2922018634
 20
3.7413205335
 40
0.02
100
AcDbArc
 50
39.3853540258
 51
180.0
  0
ARC
  5
230
100
AcDbEntity
  8
0
100
AcDbCircle
 62
7
  6
CONTINUOUS
 10
3.7650457106
 20
2.9011498447
 40
0.02
100
AcDbArc
 50
159.8122224644
 51
270.0
  0
ARC
  5
231
100
AcDbEntity
  8
0
100
AcDbCircle
 62
7
  6
CONTINUOUS
 10
3.9663924104
 20
2.9011498447
 40
0.02
100
AcDbArc
 50
270.0
 51
20.9239427892
  0
ARC
  5
232
100
AcDbEntity
  8
0
100
AcDbCircle
 62
7
  6
CONTINUOUS
 10
3.722881894
 20
3.5963492795
 40
0.02
100
AcDbArc
 50
95.8949132003
 51
226.5980831597
  0
ARC
  5
233
100
AcDbEntity
  8
0
100
AcDbCircle
 62
7
  6
CONTINUOUS
 10
3.7166070549
 20
3.7446183227
 40
0.02
100
AcDbArc
 50
280.2195025467
 51
65.8531281955
  0
ARC
  5
234
100
AcDbEntity
  8
0
100
AcDbCircle
 62
7
  6
CONTINUOUS
 10
3.7539289239
 20
4.2121143974
 40
0.02
100
AcDbArc
 50
270.2971725374
 51
13.7471019486
  0
ARC
  5
235
100
AcDbEntity
  8
0
100
AcDbCircle
 62
7
  6
CONTINUOUS
 10
3.8546410302
 20
4.5016543934
 40
0.02
100
AcDbArc
 50
314.1835391093
 51
94.4227777961
  0
ARC
  5
236
100
AcDbEntity
  8
0
100
AcDbCircle
 62
7
  6
CONTINUOUS
 10
3.9386320505
 20
4.0378540585
 40
0.02
100
AcDbArc
 50
83.6527335989
 51
178.8805515523
  0
ARC
  5
237
100
AcDbEntity
  8
0
100
AcDbCircle
 62
7
  6
CONTINUOUS
 10
4.4291274939
 20
3.5547955343
 40
0.02
100
AcDbArc
 50
270.6200845756
 51
5.7515511617
  0
ARC
  5
238
100
AcDbEntity
  8
0
100
AcDbCircle
 62
7
  6
CONTINUOUS
 10
4.1354090959
 20
3.3321399667
 40
0.02
100
AcDbArc
 50
23.9866950149
 51
169.4435076145
  0
ARC
  5
239
100
AcDbEntity
  8
0
100
AcDbCircle
 62
7
  6
CONTINUOUS
 10
4.6031660427
 20
3.368806382
 40
0.02
100
AcDbArc
 50
76.1253964926
 51
179.690587151
  0
ARC
  5
23A
100
AcDbEntity
  8
0
100
AcDbCircle
 62
7
  6
CONTINUOUS
 10
4.8925605878
 20
3.468654336
 40
0.02
100
AcDbArc
 50
355.4298052774
 51
135.6608920482
  0
ARC
  5
23B
100
AcDbEntity
  8
0
100
AcDbCircle
 62
7
  6
CONTINUOUS
 10
4.179052898
 20
5.9037722191
 40
1.4227066319
100
AcDbArc
 50
232.062716714
 51
244.5485030126
  0
ARC
  5
23C
100
AcDbEntity
  8
0
100
AcDbCircle
 62
7
  6
CONTINUOUS
 10
3.689579489
 20
5.4142988101
 40
1.4227066319
100
AcDbArc
 50
25.4514969874
 51
37.937283286
  0
ARC
  5
23D
100
AcDbEntity
  8
0
100
AcDbCircle
 62
7
  6
CONTINUOUS
 10
3.0502018634
 20
6.5441498447
 40
0.08
100
AcDbArc
 50
90.0
 51
180.0
  0
ARC
  5
23E
100
AcDbEntity
  8
0
100
AcDbCircle
 62
7
  6
CONTINUOUS
 10
3.3032018634
 20
6.2901498447
 40
0.031
100
AcDbArc
 50
20.0298789941
 51
180.0
  0
ARC
  5
23F
100
AcDbEntity
  8
0
100
AcDbCircle
 62
7
  6
CONTINUOUS
 10
3.2922018634
 20
6.0312858287
 40
0.02
100
AcDbArc
 50
180.0
 51
247.806085351
  0
ARC
  5
240
100
AcDbEntity
  8
0
100
AcDbCircle
 62
7
  6
CONTINUOUS
 10
3.6826992999
 20
6.17241091
 40
0.02
100
AcDbArc
 50
338.4886982759
 51
117.3456722113
  0
ARC
  5
241
100
AcDbEntity
  8
0
100
AcDbCircle
 62
7
  6
CONTINUOUS
 10
3.9194751052
 20
6.3011498447
 40
0.02
100
AcDbArc
 50
90.0
 51
170.852074814
  0
ARC
  5
242
100
AcDbEntity
  8
0
100
AcDbCircle
 62
7
  6
CONTINUOUS
 10
3.6322826363
 20
5.9126858512
 40
0.02
100
AcDbArc
 50
117.2409211961
 51
261.5371461389
  0
ARC
  5
243
100
AcDbEntity
  8
0
100
AcDbCircle
 62
7
  6
CONTINUOUS
 10
4.1323725521
 20
6.3011498447
 40
0.02
100
AcDbArc
 50
309.3853540258
 51
90.0
  0
ARC
  5
244
100
AcDbEntity
  8
0
100
AcDbCircle
 62
7
  6
CONTINUOUS
 10
3.2922018634
 20
5.8283059974
 40
0.02
100
AcDbArc
 50
69.8122224644
 51
180.0
  0
ARC
  5
245
100
AcDbEntity
  8
0
100
AcDbCircle
 62
7
  6
CONTINUOUS
 10
3.2922018634
 20
5.6269592977
 40
0.02
100
AcDbArc
 50
180.0
 51
290.9239427892
  0
ARC
  5
246
100
AcDbEntity
  8
0
100
AcDbCircle
 62
7
  6
CONTINUOUS
 10
3.9874012981
 20
5.8704698141
 40
0.02
100
AcDbArc
 50
5.8949132003
 51
136.5980831597
  0
ARC
  5
247
100
AcDbEntity
  8
0
100
AcDbCircle
 62
7
  6
CONTINUOUS
 10
4.1356703413
 20
5.8767446532
 40
0.02
100
AcDbArc
 50
190.2195025467
 51
335.8531281955
  0
ARC
  5
248
100
AcDbEntity
  8
0
100
AcDbCircle
 62
7
  6
CONTINUOUS
 10
4.603166416
 20
5.8394227842
 40
0.02
100
AcDbArc
 50
180.2971725374
 51
283.7471019486
  0
ARC
  5
249
100
AcDbEntity
  8
0
100
AcDbCircle
 62
7
  6
CONTINUOUS
 10
4.892706412
 20
5.7387106779
 40
0.02
100
AcDbArc
 50
224.1835391093
 51
4.4227777961
  0
ARC
  5
24A
100
AcDbEntity
  8
0
100
AcDbCircle
 62
7
  6
CONTINUOUS
 10
4.4289060771
 20
5.6547196575
 40
0.02
100
AcDbArc
 50
353.6527335989
 51
88.8805515523
  0
ARC
  5
24B
100
AcDbEntity
  8
0
100
AcDbCircle
 62
7
  6
CONTINUOUS
 10
3.9458475529
 20
5.1642242142
 40
0.02
100
AcDbArc
 50
180.6200845756
 51
275.7515511617
  0
ARC
  5
24C
100
AcDbEntity
  8
0
100
AcDbCircle
 62
7
  6
CONTINUOUS
 10
3.7231919853
 20
5.4579426121
 40
0.02
100
AcDbArc
 50
293.9866950149
 51
79.4435076145
  0
ARC
  5
24D
100
AcDbEntity
  8
0
100
AcDbCircle
 62
7
  6
CONTINUOUS
 10
3.7598584006
 20
4.9901856654
 40
0.02
100
AcDbArc
 50
346.1253964926
 51
89.690587151
  0
ARC
  5
24E
100
AcDbEntity
  8
0
100
AcDbCircle
 62
7
  6
CONTINUOUS
 10
3.8597063546
 20
4.7007911203
 40
0.02
100
AcDbArc
 50
265.4298052774
 51
45.6608920482
  0
ARC
  5
24F
100
AcDbEntity
  8
0
100
AcDbCircle
 62
7
  6
CONTINUOUS
 10
5.8053508287
 20
3.2985274704
 40
1.4227066319
100
AcDbArc
 50
52.062716714
 51
64.5485030126
  0
ARC
  5
250
100
AcDbEntity
  8
0
100
AcDbCircle
 62
7
  6
CONTINUOUS
 10
6.2948242377
 20
3.7880008793
 40
1.4227066319
100
AcDbArc
 50
205.4514969874
 51
217.937283286
  0
ARC
  5
251
100
AcDbEntity
  8
0
100
AcDbCircle
 62
7
  6
CONTINUOUS
 10
6.9352018634
 20
2.6591498447
 40
0.08
100
AcDbArc
 50
270.0
 51
360.0
  0
ARC
  5
252
100
AcDbEntity
  8
0
100
AcDbCircle
 62
7
  6
CONTINUOUS
 10
6.6812018634
 20
2.9121498447
 40
0.031
100
AcDbArc
 50
200.0298789941
 51
360.0
  0
ARC
  5
253
100
AcDbEntity
  8
0
100
AcDbCircle
 62
7
  6
CONTINUOUS
 10
6.6922018634
 20
3.1710138608
 40
0.02
100
AcDbArc
 50
0.0
 51
67.806085351
  0
ARC
  5
254
100
AcDbEntity
  8
0
100
AcDbCircle
 62
7
  6
CONTINUOUS
 10
6.3017044268
 20
3.0298887794
 40
0.02
100
AcDbArc
 50
158.4886982759
 51
297.3456722113
  0
ARC
  5
255
100
AcDbEntity
  8
0
100
AcDbCircle
 62
7
  6
CONTINUOUS
 10
6.0649286215
 20
2.9011498447
 40
0.02
100
AcDbArc
 50
270.0
 51
350.852074814
  0
ARC
  5
256
100
AcDbEntity
  8
0
100
AcDbCircle
 62
7
  6
CONTINUOUS
 10
6.3521210904
 20
3.2896138383
 40
0.02
100
AcDbArc
 50
297.2409211961
 51
81.5371461389
  0
ARC
  5
257
100
AcDbEntity
  8
0
100
AcDbCircle
 62
7
  6
CONTINUOUS
 10
5.8520311746
 20
2.9011498447
 40
0.02
100
AcDbArc
 50
129.3853540258
 51
270.0
  0
ARC
  5
258
100
AcDbEntity
  8
0
100
AcDbCircle
 62
7
  6
CONTINUOUS
 10
6.6922018634
 20
3.373993692
 40
0.02
100
AcDbArc
 50
249.8122224644
 51
360.0
  0
ARC
  5
259
100
AcDbEntity
  8
0
100
AcDbCircle
 62
7
  6
CONTINUOUS
 10
6.6922018634
 20
3.5753403918
 40
0.02
100
AcDbArc
 50
0.0
 51
110.9239427892
  0
ARC
  5
25A
100
AcDbEntity
  8
0
100
AcDbCircle
 62
7
  6
CONTINUOUS
 10
5.9970024286
 20
3.3318298753
 40
0.02
100
AcDbArc
 50
185.8949132003
 51
316.5980831597
  0
ARC
  5
25B
100
AcDbEntity
  8
0
100
AcDbCircle
 62
7
  6
CONTINUOUS
 10
5.8487333854
 20
3.3255550363
 40
0.02
100
AcDbArc
 50
10.2195025467
 51
155.8531281955
  0
ARC
  5
25C
100
AcDbEntity
  8
0
100
AcDbCircle
 62
7
  6
CONTINUOUS
 10
5.3812373107
 20
3.3628769052
 40
0.02
100
AcDbArc
 50
0.2971725374
 51
103.7471019486
  0
ARC
  5
25D
100
AcDbEntity
  8
0
100
AcDbCircle
 62
7
  6
CONTINUOUS
 10
5.0916973147
 20
3.4635890115
 40
0.02
100
AcDbArc
 50
44.1835391093
 51
184.4227777961
  0
ARC
  5
25E
100
AcDbEntity
  8
0
100
AcDbCircle
 62
7
  6
CONTINUOUS
 10
5.5554976496
 20
3.5475800319
 40
0.02
100
AcDbArc
 50
173.6527335989
 51
268.8805515523
  0
ARC
  5
25F
100
AcDbEntity
  8
0
100
AcDbCircle
 62
7
  6
CONTINUOUS
 10
6.0385561738
 20
4.0380754752
 40
0.02
100
AcDbArc
 50
0.6200845756
 51
95.7515511617
  0
ARC
  5
260
100
AcDbEntity
  8
0
100
AcDbCircle
 62
7
  6
CONTINUOUS
 10
6.2612117414
 20
3.7443570773
 40
0.02
100
AcDbArc
 50
113.9866950149
 51
259.4435076145
  0
ARC
  5
261
100
AcDbEntity
  8
0
100
AcDbCircle
 62
7
  6
CONTINUOUS
 10
6.2245453261
 20
4.2121140241
 40
0.02
100
AcDbArc
 50
166.1253964926
 51
269.690587151
  0
ARC
  5
262
100
AcDbEntity
  8
0
100
AcDbCircle
 62
7
  6
CONTINUOUS
 10
6.1246973721
 20
4.5015085692
 40
0.02
100
AcDbArc
 50
85.4298052774
 51
225.6608920482
  0
ARC
  5
263
100
AcDbEntity
  8
0
100
AcDbCircle
 62
7
  6
CONTINUOUS
 10
6.2948242377
 20
5.4142988101
 40
1.4227066319
100
AcDbArc
 50
142.062716714
 51
154.5485030126
  0
ARC
  5
264
100
AcDbEntity
  8
0
100
AcDbCircle
 62
7
  6
CONTINUOUS
 10
5.8053508287
 20
5.9037722191
 40
1.4227066319
100
AcDbArc
 50
295.4514969874
 51
307.937283286
  0
ARC
  5
265
100
AcDbEntity
  8
0
100
AcDbCircle
 62
7
  6
CONTINUOUS
 10
6.9352018634
 20
6.5441498447
 40
0.08
100
AcDbArc
 50
0.0
 51
90.0
  0
ARC
  5
266
100
AcDbEntity
  8
0
100
AcDbCircle
 62
7
  6
CONTINUOUS
 10
6.6812018634
 20
6.2901498447
 40
0.031
100
AcDbArc
 50
290.0298789941
 51
90.0
  0
ARC
  5
267
100
AcDbEntity
  8
0
100
AcDbCircle
 62
7
  6
CONTINUOUS
 10
6.4223378473
 20
6.3011498447
 40
0.02
100
AcDbArc
 50
90.0
 51
157.806085351
  0
ARC
  5
268
100
AcDbEntity
  8
0
100
AcDbCircle
 62
7
  6
CONTINUOUS
 10
6.5634629286
 20
5.9106524081
 40
0.02
100
AcDbArc
 50
248.4886982759
 51
27.3456722113
  0
ARC
  5
269
100
AcDbEntity
  8
0
100
AcDbCircle
 62
7
  6
CONTINUOUS
 10
6.6922018634
 20
5.6738766029
 40
0.02
100
AcDbArc
 50
0.0
 51
80.852074814
  0
ARC
  5
26A
100
AcDbEntity
  8
0
100
AcDbCircle
 62
7
  6
CONTINUOUS
 10
6.3037378698
 20
5.9610690718
 40
0.02
100
AcDbArc
 50
27.2409211961
 51
171.5371461389
  0
ARC
  5
26B
100
AcDbEntity
  8
0
100
AcDbCircle
 62
7
  6
CONTINUOUS
 10
6.6922018634
 20
5.4609791559
 40
0.02
100
AcDbArc
 50
219.3853540258
 51
360.0
  0
ARC
  5
26C
100
AcDbEntity
  8
0
100
AcDbCircle
 62
7
  6
CONTINUOUS
 10
6.2193580161
 20
6.3011498447
 40
0.02
100
AcDbArc
 50
339.8122224644
 51
90.0
  0
ARC
  5
26D
100
AcDbEntity
  8
0
100
AcDbCircle
 62
7
  6
CONTINUOUS
 10
6.0180113163
 20
6.3011498447
 40
0.02
100
AcDbArc
 50
90.0
 51
200.9239427892
  0
ARC
  5
26E
100
AcDbEntity
  8
0
100
AcDbCircle
 62
7
  6
CONTINUOUS
 10
6.2615218327
 20
5.60595041
 40
0.02
100
AcDbArc
 50
275.8949132003
 51
46.5980831597
  0
ARC
  5
26F
100
AcDbEntity
  8
0
100
AcDbCircle
 62
7
  6
CONTINUOUS
 10
6.2677966718
 20
5.4576813667
 40
0.02
100
AcDbArc
 50
100.2195025467
 51
245.8531281955
  0
ARC
  5
270
100
AcDbEntity
  8
0
100
AcDbCircle
 62
7
  6
CONTINUOUS
 10
6.2304748028
 20
4.990185292
 40
0.02
100
AcDbArc
 50
90.2971725374
 51
193.7471019486
  0
ARC
  5
271
100
AcDbEntity
  8
0
100
AcDbCircle
 62
7
  6
CONTINUOUS
 10
6.1297626965
 20
4.7006452961
 40
0.02
100
AcDbArc
 50
134.1835391093
 51
274.4227777961
  0
ARC
  5
272
100
AcDbEntity
  8
0
100
AcDbCircle
 62
7
  6
CONTINUOUS
 10
6.0457716762
 20
5.164445631
 40
0.02
100
AcDbArc
 50
263.6527335989
 51
358.8805515523
  0
ARC
  5
273
100
AcDbEntity
  8
0
100
AcDbCircle
 62
7
  6
CONTINUOUS
 10
5.5552762329
 20
5.6475041552
 40
0.02
100
AcDbArc
 50
90.6200845756
 51
185.7515511617
  0
ARC
  5
274
100
AcDbEntity
  8
0
100
AcDbCircle
 62
7
  6
CONTINUOUS
 10
5.8489946308
 20
5.8701597227
 40
0.02
100
AcDbArc
 50
203.9866950149
 51
349.4435076145
  0
ARC
  5
275
100
AcDbEntity
  8
0
100
AcDbCircle
 62
7
  6
CONTINUOUS
 10
5.381237684
 20
5.8334933074
 40
0.02
100
AcDbArc
 50
256.1253964926
 51
359.690587151
  0
ARC
  5
276
100
AcDbEntity
  8
0
100
AcDbCircle
 62
7
  6
CONTINUOUS
 10
5.0918431389
 20
5.7336453535
 40
0.02
100
AcDbArc
 50
175.4298052774
 51
315.6608920482
  0
SPLINE
  5
277
100
AcDbEntity
  8
0
100
AcDbSpline
 62
7
  6
CONTINUOUS
 70
0
 71
3
 72
21
 73
17
 74
0
 42
0.0000001
 43
0.0000001
 44
0.0000000001
 40
0.0
 40
0.0
 40
0.0
 40
0.0
 40
0.1265892958
 40
0.252931342
 40
0.3783842873
 40
0.4407587107
 40
0.5029403173
 40
0.5650352477
 40
0.6271479015
 40
0.6892747906
 40
0.751402932
 40
0.8135359726
 40
0.8446175549
 40
0.8757083905
 40
0.9378802404
 40
1.0
 40
1.0
 40
1.0
 40
1.0
 10
3.8736844272
 20
4.7150954374
 30
0.0
 10
3.8646230632
 20
4.723950135
 30
0.0
 10
3.8472349497
 20
4.7423993115
 30
0.0
 10
3.8238876149
 20
4.7722879402
 30
0.0
 10
3.8072274669
 20
4.799044951
 30
0.0
 10
3.7960011233
 20
4.8214232026
 30
0.0
 10
3.788729617
 20
4.8386463294
 30
0.0
 10
3.7826892494
 20
4.8563127679
 30
0.0
 10
3.7779679981
 20
4.8743717486
 30
0.0
 10
3.7745918643
 20
4.8927333795
 30
0.0
 10
3.7725995551
 20
4.9112983417
 30
0.0
 10
3.7721235709
 20
4.9268550681
 30
0.0
 10
3.7724725504
 20
4.9392937968
 30
0.0
 10
3.773311787
 20
4.9517130714
 30
0.0
 10
3.7752681496
 20
4.9671569798
 30
0.0
 10
3.7777840067
 20
4.9793539885
 30
0.0
 10
3.779274858
 20
4.9853897104
 30
0.0
  0
SPLINE
  5
278
100
AcDbEntity
  8
0
100
AcDbSpline
 62
7
  6
CONTINUOUS
 70
0
 71
3
 72
42
 73
38
 74
0
 42
0.0000001
 43
0.0000001
 44
0.0000000001
 40
0.0
 40
0.0
 40
0.0
 40
0.0
 40
0.0313960076
 40
0.0627574881
 40
0.0939719152
 40
0.1250182799
 40
0.1405082459
 40
0.1560012197
 40
0.1870037382
 40
0.2025055335
 40
0.2179969445
 40
0.2334836792
 40
0.2489751051
 40
0.2644734648
 40
0.2799744201
 40
0.2954684155
 40
0.3109487049
 40
0.3419318598
 40
0.3730429891
 40
0.3886478536
 40
0.4042666634
 40
0.4354574559
 40
0.4664681812
 40
0.4973650367
 40
0.5282660512
 40
0.5592682801
 40
0.5748334428
 40
0.5904491552
 40
0.621801337
 40
0.6532552882
 40
0.6847468365
 40
0.7162271866
 40
0.7476659311
 40
0.8103678551
 40
0.8731326923
 40
0.9364892614
 40
1.0
 40
1.0
 40
1.0
 40
1.0
 10
3.7599664056
 20
5.0101853737
 30
0.0
 10
3.7537955221
 20
5.0102186985
 30
0.0
 10
3.7414581979
 20
5.0106529698
 30
0.0
 10
3.7230722583
 20
5.0125885302
 30
0.0
 10
3.7049663176
 20
5.0159996661
 30
0.0
 10
3.6902542309
 20
5.0202398639
 30
0.0
 10
3.6788453673
 20
5.0245563987
 30
0.0
 10
3.6677123101
 20
5.0295177727
 30
0.0
 10
3.657041119
 20
5.0354788473
 30
0.0
 10
3.6470168182
 20
5.0424189529
 30
0.0
 10
3.639862704
 20
5.04811263
 30
0.0
 10
3.6331263164
 20
5.0542920024
 30
0.0
 10
3.6268415527
 20
5.0609317073
 30
0.0
 10
3.6210191873
 20
5.0679833034
 30
0.0
 10
3.6156744303
 20
5.0754036142
 30
0.0
 10
3.6108202298
 20
5.083149556
 30
0.0
 10
3.6050172037
 20
5.0938637859
 30
0.0
 10
3.5989755178
 20
5.1079017766
 30
0.0
 10
3.5944370626
 20
5.1225099233
 30
0.0
 10
3.5916097514
 20
5.1344345598
 30
0.0
 10
3.5892897894
 20
5.1464842884
 30
0.0
 10
3.5872923875
 20
5.1616644819
 30
0.0
 10
3.5861596064
 20
5.179941236
 30
0.0
 10
3.5862372505
 20
5.1981957849
 30
0.0
 10
3.5874585347
 20
5.2164059804
 30
0.0
 10
3.5893704524
 20
5.2315209846
 30
0.0
 10
3.5914005622
 20
5.2435746751
 30
0.0
 10
3.5937593806
 20
5.2556384848
 30
0.0
 10
3.5973177351
 20
5.2706444353
 30
0.0
 10
3.6025808217
 20
5.2884259532
 30
0.0
 10
3.6088647426
 20
5.3059006501
 30
0.0
 10
3.6161927458
 20
5.3229630336
 30
0.0
 10
3.6273711681
 20
5.3449940126
 30
0.0
 10
3.6441018516
 20
5.3710350877
 30
0.0
 10
3.6687951898
 20
5.3989640944
 30
0.0
 10
3.6979977392
 20
5.4224033681
 30
0.0
 10
3.719917313
 20
5.4345950822
 30
0.0
 10
3.7313224752
 20
5.4396698145
 30
0.0
  0
SPLINE
  5
279
100
AcDbEntity
  8
0
100
AcDbSpline
 62
7
  6
CONTINUOUS
 70
0
 71
3
 72
15
 73
11
 74
0
 42
0.0000001
 43
0.0000001
 44
0.0000000001
 40
0.0
 40
0.0
 40
0.0
 40
0.0
 40
0.1249396057
 40
0.2500752439
 40
0.3754654074
 40
0.5010801426
 40
0.6265167866
 40
0.7514575207
 40
0.8758564389
 40
1.0
 40
1.0
 40
1.0
 40
1.0
 10
3.7268560834
 20
5.4776041071
 30
0.0
 10
3.7214973787
 20
5.4786027504
 30
0.0
 10
3.7107279979
 20
5.4803757515
 30
0.0
 10
3.6944598947
 20
5.482338863
 30
0.0
 10
3.6780914571
 20
5.4835849884
 30
0.0
 10
3.6616691831
 20
5.4840953646
 30
0.0
 10
3.6452599189
 20
5.4837062107
 30
0.0
 10
3.6289600898
 20
5.4822447401
 30
0.0
 10
3.6128741863
 20
5.4795377341
 30
0.0
 10
3.6023653243
 20
5.4767851593
 30
0.0
 10
3.5972018634
 20
5.4751498447
 30
0.0
  0
SPLINE
  5
27A
100
AcDbEntity
  8
0
100
AcDbSpline
 62
7
  6
CONTINUOUS
 70
0
 71
3
 72
44
 73
40
 74
0
 42
0.0000001
 43
0.0000001
 44
0.0000000001
 40
0.0
 40
0.0
 40
0.0
 40
0.0
 40
0.0311833632
 40
0.062541857
 40
0.0782595095
 40
0.0939741117
 40
0.1096669051
 40
0.1253267036
 40
0.1409670391
 40
0.1566016024
 40
0.1878675626
 40
0.2191366132
 40
0.2503677598
 40
0.2815866607
 40
0.3128132654
 40
0.3440405478
 40
0.3752586266
 40
0.4064742886
 40
0.4376937032
 40
0.4689239416
 40
0.5001636014
 40
0.5314023863
 40
0.5470234224
 40
0.5626436134
 40
0.5782643869
 40
0.5938879886
 40
0.6095159349
 40
0.625148423
 40
0.6564155443
 40
0.6876792532
 40
0.7033051215
 40
0.7189202734
 40
0.750129612
 40
0.7813573511
 40
0.8126189881
 40
0.8438996526
 40
0.8751597762
 40
0.9375814322
 40
1.0
 40
1.0
 40
1.0
 40
1.0
 10
3.5972018634
 20
5.4751498447
 30
0.0
 10
3.5856304127
 20
5.471485062
 30
0.0
 10
3.5629017996
 20
5.4625363719
 30
0.0
 10
3.5361492149
 20
5.4477966535
 30
0.0
 10
3.5159175829
 20
5.4340606178
 30
0.0
 10
3.5013955859
 20
5.4228345942
 30
0.0
 10
3.4876097413
 20
5.4107506082
 30
0.0
 10
3.4746208561
 20
5.3978552222
 30
0.0
 10
3.4624419063
 20
5.3842234125
 30
0.0
 10
3.4472877154
 20
5.3651576897
 30
0.0
 10
3.4303625132
 20
5.3397957085
 30
0.0
 10
3.4133003624
 20
5.3074658595
 30
0.0
 10
3.399442077
 20
5.2736621101
 30
0.0
 10
3.3887748124
 20
5.2387421352
 30
0.0
 10
3.3812521895
 20
5.2030177299
 30
0.0
 10
3.376822803
 20
5.1667825919
 30
0.0
 10
3.3754518125
 20
5.1303088312
 30
0.0
 10
3.3771302763
 20
5.0938512519
 30
0.0
 10
3.3818415691
 20
5.057655494
 30
0.0
 10
3.3895755049
 20
5.0219726028
 30
0.0
 10
3.4002900877
 20
4.9870620672
 30
0.0
 10
3.4116528908
 20
4.9588223329
 30
0.0
 10
3.4221689484
 20
4.9368866098
 30
0.0
 10
3.4307634394
 20
4.9207906645
 30
0.0
 10
3.4400569436
 20
4.9050869349
 30
0.0
 10
3.4500398067
 20
4.8898085942
 30
0.0
 10
3.4606825418
 20
4.8749766731
 30
0.0
 10
3.4757137582
 20
4.8558265488
 30
0.0
 10
3.4960119145
 20
4.8331112388
 30
0.0
 10
3.5181317305
 20
4.8121717198
 30
0.0
 10
3.5368081232
 20
4.7965699539
 30
0.0
 10
3.556098638
 20
4.7817688366
 30
0.0
 10
3.5813154806
 20
4.7647617508
 30
0.0
 10
3.6130480186
 20
4.7467180763
 30
0.0
 10
3.6460117183
 20
4.7309784026
 30
0.0
 10
3.6799658136
 20
4.7174814541
 30
0.0
 10
3.7262383122
 20
4.7023991616
 30
0.0
 10
3.7855902306
 20
4.6887713009
 30
0.0
 10
3.8338939779
 20
4.6827906272
 30
0.0
 10
3.8581127468
 20
4.680854711
 30
0.0
  0
SPLINE
  5
27B
100
AcDbEntity
  8
0
100
AcDbSpline
 62
7
  6
CONTINUOUS
 70
0
 71
3
 72
71
 73
67
 74
0
 42
0.0000001
 43
0.0000001
 44
0.0000000001
 40
0.0
 40
0.0
 40
0.0
 40
0.0
 40
0.0189647564
 40
0.0363022701
 40
0.0521980008
 40
0.0668274524
 40
0.080351961
 40
0.0929146111
 40
0.1046457139
 40
0.1156711564
 40
0.1261080069
 40
0.1360610059
 40
0.1456195247
 40
0.1548553159
 40
0.1638213311
 40
0.1725561009
 40
0.181109645
 40
0.1895317322
 40
0.206116917
 40
0.2225260839
 40
0.2388196088
 40
0.2550675751
 40
0.2713573974
 40
0.2877046335
 40
0.3203990008
 40
0.3528412842
 40
0.3844538142
 40
0.3997771825
 40
0.4146937275
 40
0.4291474864
 40
0.4431104719
 40
0.4565736805
 40
0.4695477841
 40
0.4820673135
 40
0.494184308
 40
0.5059721625
 40
0.517529286
 40
0.528961259
 40
0.5403467245
 40
0.5517609098
 40
0.5632793424
 40
0.5749540537
 40
0.5867976406
 40
0.5988159418
 40
0.6110145511
 40
0.6233983093
 40
0.6359659906
 40
0.6616075665
 40
0.6747049768
 40
0.6879833024
 40
0.7014579843
 40
0.7151579216
 40
0.7291302012
 40
0.7434125585
 40
0.7729506285
 40
0.7882226272
 40
0.8038026972
 40
0.8196652467
 40
0.835779806
 40
0.8521123513
 40
0.8686198133
 40
0.9019389178
 40
0.9352574058
 40
0.9517452606
 40
0.9680397776
 40
1.0
 40
1.0
 40
1.0
 40
1.0
 10
3.9258487241
 20
5.1640077681
 30
0.0
 10
3.9258184979
 20
5.1668005611
 30
0.0
 10
3.9255749185
 20
5.1721472716
 30
0.0
 10
3.924622388
 20
5.1797834872
 30
0.0
 10
3.9231647239
 20
5.1866889036
 30
0.0
 10
3.921267193
 20
5.1929016516
 30
0.0
 10
3.9189942753
 20
5.1984597302
 30
0.0
 10
3.9164147188
 20
5.2034050591
 30
0.0
 10
3.9135740423
 20
5.2077723763
 30
0.0
 10
3.9105043239
 20
5.2115877748
 30
0.0
 10
3.9072410649
 20
5.2148792642
 30
0.0
 10
3.9038194069
 20
5.2176749475
 30
0.0
 10
3.9002747916
 20
5.2200035761
 30
0.0
 10
3.8966424702
 20
5.2218945139
 30
0.0
 10
3.8929566948
 20
5.223377471
 30
0.0
 10
3.8892465214
 20
5.2244845488
 30
0.0
 10
3.8855299908
 20
5.2252353672
 30
0.0
 10
3.8806128927
 20
5.2257858611
 30
0.0
 10
3.8744851418
 20
5.2256965311
 30
0.0
 10
3.8673033375
 20
5.2244915664
 30
0.0
 10
3.8603966283
 20
5.2223603371
 30
0.0
 10
3.8538098661
 20
5.2194377811
 30
0.0
 10
3.8475547112
 20
5.2158515567
 30
0.0
 10
3.839650845
 20
5.2103477648
 30
0.0
 10
3.8305932088
 20
5.2024232797
 30
0.0
 10
3.8208231935
 20
5.1920382058
 30
0.0
 10
3.8132543392
 20
5.1831271254
 30
0.0
 10
3.8074042469
 20
5.1761451465
 30
0.0
 10
3.8031411505
 20
5.1711299245
 30
0.0
 10
3.798913203
 20
5.1663488088
 30
0.0
 10
3.794688185
 20
5.1618537015
 30
0.0
 10
3.7904321493
 20
5.1576927395
 30
0.0
 10
3.7861095663
 20
5.1539145206
 30
0.0
 10
3.781688694
 20
5.1505687065
 30
0.0
 10
3.7771597554
 20
5.1476818926
 30
0.0
 10
3.7725122455
 20
5.1452820484
 30
0.0
 10
3.7677383106
 20
5.143400835
 30
0.0
 10
3.7628449133
 20
5.1420647216
 30
0.0
 10
3.7578557985
 20
5.1412740023
 30
0.0
 10
3.7527972459
 20
5.1410343168
 30
0.0
 10
3.7477004207
 20
5.1413512632
 30
0.0
 10
3.7426048442
 20
5.1422221327
 30
0.0
 10
3.7375563742
 20
5.1436357592
 30
0.0
 10
3.7326057414
 20
5.1455829125
 30
0.0
 10
3.7278061257
 20
5.1480556613
 30
0.0
 10
3.7232067266
 20
5.1510354225
 30
0.0
 10
3.717362955
 20
5.155671602
 30
0.0
 10
3.7121322074
 20
5.1611976224
 30
0.0
 10
3.707685147
 20
5.1674455466
 30
0.0
 10
3.7047439084
 20
5.1725350111
 30
0.0
 10
3.7022670483
 20
5.1779635815
 30
0.0
 10
3.7003042426
 20
5.1837067024
 30
0.0
 10
3.6988585272
 20
5.1897226075
 30
0.0
 10
3.6975843842
 20
5.1981461911
 30
0.0
 10
3.6973198695
 20
5.2068825704
 30
0.0
 10
3.697948823
 20
5.2157578054
 30
0.0
 10
3.6988740054
 20
5.2225800457
 30
0.0
 10
3.7002344634
 20
5.2294544806
 30
0.0
 10
3.7020176755
 20
5.2363457819
 30
0.0
 10
3.7041898736
 20
5.2432235993
 30
0.0
 10
3.7075706385
 20
5.2523648931
 30
0.0
 10
3.7125813428
 20
5.2635544799
 30
0.0
 10
3.7184365019
 20
5.2743181286
 30
0.0
 10
3.7235339415
 20
5.2826136428
 30
0.0
 10
3.7288039271
 20
5.2905610754
 30
0.0
 10
3.733044046
 20
5.296274394
 30
0.0
 10
3.7359907966
 20
5.2999446428
 30
0.0
  0
SPLINE
  5
27C
100
AcDbEntity
  8
0
100
AcDbSpline
 62
7
  6
CONTINUOUS
 70
0
 71
3
 72
55
 73
51
 74
0
 42
0.0000001
 43
0.0000001
 44
0.0000000001
 40
0.0
 40
0.0
 40
0.0
 40
0.0
 40
0.0163195389
 40
0.0326192869
 40
0.0407957359
 40
0.0489857742
 40
0.0571792264
 40
0.0653629141
 40
0.0735297343
 40
0.0816826354
 40
0.0979612129
 40
0.1142275924
 40
0.1305118493
 40
0.146828964
 40
0.1631683757
 40
0.1958656042
 40
0.2285198785
 40
0.2610631028
 40
0.2934518806
 40
0.3256823392
 40
0.3577959286
 40
0.3738388658
 40
0.3898891183
 40
0.4220222037
 40
0.4542281615
 40
0.4865406342
 40
0.5189969873
 40
0.5515541725
 40
0.584111622
 40
0.6165678005
 40
0.6488073276
 40
0.6806036141
 40
0.7117209109
 40
0.7419866258
 40
0.7713062678
 40
0.7996606145
 40
0.8135256251
 40
0.8272243241
 40
0.8408133214
 40
0.8543666498
 40
0.8679624376
 40
0.8816693232
 40
0.8955552672
 40
0.9096864409
 40
0.9240997167
 40
0.9388012696
 40
0.9537868415
 40
0.9690387222
 40
0.9844800301
 40
1.0
 40
1.0
 40
1.0
 40
1.0
 10
4.2632018634
 20
4.7041498447
 30
0.0
 10
4.2597038267
 20
4.7032297765
 30
0.0
 10
4.2525688141
 20
4.701915881
 30
0.0
 10
4.2435403464
 20
4.7012675242
 30
0.0
 10
4.2363015681
 20
4.7011089763
 30
0.0
 10
4.2308578282
 20
4.701112729
 30
0.0
 10
4.2254132921
 20
4.7011832438
 30
0.0
 10
4.21997395
 20
4.7012584509
 30
0.0
 10
4.214543245
 20
4.7013025756
 30
0.0
 10
4.2073183609
 20
4.7013417318
 30
0.0
 10
4.1982982698
 20
4.7013732168
 30
0.0
 10
4.1874761389
 20
4.7014579091
 30
0.0
 10
4.17664691
 20
4.7016689907
 30
0.0
 10
4.1658063143
 20
4.7020601046
 30
0.0
 10
4.1513412506
 20
4.7028263952
 30
0.0
 10
4.1332885949
 20
4.7042713383
 30
0.0
 10
4.1117409757
 20
4.706866936
 30
0.0
 10
4.0903953004
 20
4.7104029379
 30
0.0
 10
4.0693424441
 20
4.7149834365
 30
0.0
 10
4.0486822392
 20
4.7207617762
 30
0.0
 10
4.031866799
 20
4.7267002903
 30
0.0
 10
4.0187335343
 20
4.7321884993
 30
0.0
 10
4.0058232212
 20
4.738192376
 30
0.0
 10
3.9901238545
 20
4.7466606933
 30
0.0
 10
3.9721249938
 20
4.7583179693
 30
0.0
 10
3.9550717382
 20
4.7714401341
 30
0.0
 10
3.9391052081
 20
4.7859811031
 30
0.0
 10
3.9243436772
 20
4.801817124
 30
0.0
 10
3.9109095251
 20
4.8187936351
 30
0.0
 10
3.8989421203
 20
4.8367503446
 30
0.0
 10
3.8885916478
 20
4.8554943436
 30
0.0
 10
3.8800356873
 20
4.8748018422
 30
0.0
 10
3.8734813894
 20
4.8944219293
 30
0.0
 10
3.8691449459
 20
4.9140953695
 30
0.0
 10
3.8672453361
 20
4.9335441127
 30
0.0
 10
3.8678830344
 20
4.9494518757
 30
0.0
 10
3.8698631503
 20
4.9616989443
 30
0.0
 10
3.8720848519
 20
4.9705576632
 30
0.0
 10
3.8750809112
 20
4.9791134281
 30
0.0
 10
3.8788812331
 20
4.9873199814
 30
0.0
 10
3.8834907343
 20
4.995131405
 30
0.0
 10
3.8888889058
 20
5.0025112917
 30
0.0
 10
3.895058405
 20
5.009419571
 30
0.0
 10
3.9019779747
 20
5.0158087211
 30
0.0
 10
3.9095976446
 20
5.0216444513
 30
0.0
 10
3.9178537048
 20
5.0268982616
 30
0.0
 10
3.9266809769
 20
5.0315355467
 30
0.0
 10
3.9360017111
 20
5.0355145387
 30
0.0
 10
3.9457073593
 20
5.0388148498
 30
0.0
 10
3.9523544191
 20
5.0405477184
 30
0.0
 10
3.9557120694
 20
5.0412949831
 30
0.0
  0
SPLINE
  5
27D
100
AcDbEntity
  8
0
100
AcDbSpline
 62
7
  6
CONTINUOUS
 70
0
 71
3
 72
51
 73
47
 74
0
 42
0.0000001
 43
0.0000001
 44
0.0000000001
 40
0.0
 40
0.0
 40
0.0
 40
0.0
 40
0.0163793137
 40
0.0326835558
 40
0.0489523699
 40
0.065216108
 40
0.0814930181
 40
0.0977886197
 40
0.1141057663
 40
0.1304455942
 40
0.1468019675
 40
0.1631634755
 40
0.1958607876
 40
0.2284747954
 40
0.260971919
 40
0.2933328746
 40
0.3255569596
 40
0.3576879874
 40
0.3737490638
 40
0.3898180979
 40
0.4219867277
 40
0.4542326636
 40
0.4866006257
 40
0.5191174234
 40
0.5517023562
 40
0.584246281
 40
0.616642011
 40
0.6487201091
 40
0.6802201245
 40
0.7109246152
 40
0.7406970395
 40
0.769475003
 40
0.7973270131
 40
0.8110026664
 40
0.8245819772
 40
0.8381460152
 40
0.8517736716
 40
0.8655363491
 40
0.8795053908
 40
0.8937443614
 40
0.9082764717
 40
0.9231032319
 40
0.9382166959
 40
0.9535761366
 40
0.9690769616
 40
1.0
 40
1.0
 40
1.0
 40
1.0
 10
4.8892018634
 20
5.3301498447
 30
0.0
 10
4.8897408634
 20
5.3338560417
 30
0.0
 10
4.8906621782
 20
5.3412745382
 30
0.0
 10
4.8916414181
 20
5.3524266107
 30
0.0
 10
4.8922861784
 20
5.3635760186
 30
0.0
 10
4.8926725294
 20
5.3747304941
 30
0.0
 10
4.8928620825
 20
5.3858959652
 30
0.0
 10
4.8928733356
 20
5.3970751718
 30
0.0
 10
4.8927293313
 20
5.4082677095
 30
0.0
 10
4.8924573008
 20
5.4194716882
 30
0.0
 10
4.8920566759
 20
5.4306820713
 30
0.0
 10
4.8913169611
 20
5.445621538
 30
0.0
 10
4.8899570338
 20
5.4642507397
 30
0.0
 10
4.8874554019
 20
5.486481598
 30
0.0
 10
4.8839098969
 20
5.5084950887
 30
0.0
 10
4.8791675962
 20
5.5301941785
 30
0.0
 10
4.8730922732
 20
5.5514741914
 30
0.0
 10
4.8668004711
 20
5.5687718396
 30
0.0
 10
4.8609700555
 20
5.5822630008
 30
0.0
 10
4.8545975691
 20
5.5955160397
 30
0.0
 10
4.845622102
 20
5.611606978
 30
0.0
 10
4.8332795093
 20
5.6300047186
 30
0.0
 10
4.8193915929
 20
5.6473703852
 30
0.0
 10
4.8040253409
 20
5.6635492625
 30
0.0
 10
4.7873389519
 20
5.6784220128
 30
0.0
 10
4.7694987388
 20
5.6918437381
 30
0.0
 10
4.7506908825
 20
5.7036572465
 30
0.0
 10
4.7311401572
 20
5.7136882256
 30
0.0
 10
4.7110993617
 20
5.7217238558
 30
0.0
 10
4.6908440966
 20
5.7275321578
 30
0.0
 10
4.6706578081
 20
5.7308712785
 30
0.0
 10
4.6508485153
 20
5.731505494
 30
0.0
 10
4.6348098391
 20
5.7295491287
 30
0.0
 10
4.6226028365
 20
5.7263622417
 30
0.0
 10
4.6138207413
 20
5.7231571367
 30
0.0
 10
4.6054138914
 20
5.7190913124
 30
0.0
 10
4.5974269742
 20
5.7141719431
 30
0.0
 10
4.5899009532
 20
5.7084194741
 30
0.0
 10
4.5828809676
 20
5.7018530315
 30
0.0
 10
4.576418812
 20
5.694502238
 30
0.0
 10
4.5705446315
 20
5.6864316169
 30
0.0
 10
4.5652934884
 20
5.677709119
 30
0.0
 10
4.5607074929
 20
5.6684089924
 30
0.0
 10
4.5568252082
 20
5.6586276659
 30
0.0
 10
4.5526191122
 20
5.6451326096
 30
0.0
 10
4.5505834364
 20
5.6346616419
 30
0.0
 10
4.5497660545
 20
5.6276383882
 30
0.0
  0
SPLINE
  5
27E
100
AcDbEntity
  8
0
100
AcDbSpline
 62
7
  6
CONTINUOUS
 70
0
 71
3
 72
69
 73
65
 74
0
 42
0.0000001
 43
0.0000001
 44
0.0000000001
 40
0.0
 40
0.0
 40
0.0
 40
0.0
 40
0.0189841705
 40
0.036329816
 40
0.0522246072
 40
0.0668461032
 40
0.0803574405
 40
0.0929031842
 40
0.1046150849
 40
0.1156203384
 40
0.1260370693
 40
0.1359707561
 40
0.1455111391
 40
0.1547299583
 40
0.1636797946
 40
0.1723995939
 40
0.180940724
 40
0.1893528548
 40
0.2059240685
 40
0.2223234979
 40
0.2386081761
 40
0.2548533043
 40
0.2711435311
 40
0.2874901119
 40
0.3201741484
 40
0.3525848646
 40
0.3841313737
 40
0.3994087532
 40
0.4142697064
 40
0.4286602712
 40
0.4425552596
 40
0.4688406895
 40
0.4812942179
 40
0.4933525493
 40
0.5050937055
 40
0.5166209948
 40
0.528037171
 40
0.5394197051
 40
0.5508448619
 40
0.5623879887
 40
0.5740924565
 40
0.5859681117
 40
0.5980205317
 40
0.6102556033
 40
0.6226771032
 40
0.6352827246
 40
0.6610000929
 40
0.6741375588
 40
0.6874598069
 40
0.7009852262
 40
0.714748226
 40
0.7287969755
 40
0.7431645203
 40
0.7728831245
 40
0.78824314
 40
0.803906155
 40
0.8198443965
 40
0.8360263469
 40
0.8524151112
 40
0.8689642221
 40
0.9023114877
 40
0.935567913
 40
0.9682019176
 40
1.0
 40
1.0
 40
1.0
 40
1.0
 10
4.4292968135
 20
5.6747158403
 30
0.0
 10
4.4264624781
 20
5.6747712248
 30
0.0
 10
4.4210392992
 20
5.6750664687
 30
0.0
 10
4.4133016455
 20
5.6761045355
 30
0.0
 10
4.4063144835
 20
5.6776506568
 30
0.0
 10
4.4000380523
 20
5.6796382781
 30
0.0
 10
4.3944327437
 20
5.6820016457
 30
0.0
 10
4.3894547969
 20
5.6846706739
 30
0.0
 10
4.3850683848
 20
5.6875995646
 30
0.0
 10
4.381246403
 20
5.6907555846
 30
0.0
 10
4.3779597683
 20
5.6941026005
 30
0.0
 10
4.3751792872
 20
5.6976048249
 30
0.0
 10
4.3728750771
 20
5.7012261794
 30
0.0
 10
4.3710166616
 20
5.7049308151
 30
0.0
 10
4.3695730348
 20
5.7086840183
 30
0.0
 10
4.3685113021
 20
5.7124569231
 30
0.0
 10
4.3678117355
 20
5.7162316904
 30
0.0
 10
4.3673357247
 20
5.7212205777
 30
0.0
 10
4.3675296211
 20
5.7274266031
 30
0.0
 10
4.3688719686
 20
5.7346825114
 30
0.0
 10
4.3711482037
 20
5.7416457167
 30
0.0
 10
4.3742207733
 20
5.7482730522
 30
0.0
 10
4.3779586853
 20
5.7545555984
 30
0.0
 10
4.3836630909
 20
5.7624802231
 30
0.0
 10
4.3918288493
 20
5.771538981
 30
0.0
 10
4.402477444
 20
5.7812933582
 30
0.0
 10
4.4115837683
 20
5.7888499564
 30
0.0
 10
4.4187014718
 20
5.794696674
 30
0.0
 10
4.4238033548
 20
5.7989613246
 30
0.0
 10
4.4286595039
 20
5.803197568
 30
0.0
 10
4.4346254738
 20
5.8087480262
 30
0.0
 10
4.4400372529
 20
5.814478241
 30
0.0
 10
4.4446116054
 20
5.8205385789
 30
0.0
 10
4.4475097718
 20
5.8251192642
 30
0.0
 10
4.4499082
 20
5.8298273606
 30
0.0
 10
4.4517728354
 20
5.8346702052
 30
0.0
 10
4.453082017
 20
5.8396368164
 30
0.0
 10
4.4538352121
 20
5.8447020536
 30
0.0
 10
4.454026179
 20
5.8498384978
 30
0.0
 10
4.4536490429
 20
5.8550126047
 30
0.0
 10
4.4527092861
 20
5.8601825
 30
0.0
 10
4.4512173084
 20
5.8652997241
 30
0.0
 10
4.4491821536
 20
5.8703118627
 30
0.0
 10
4.4466115138
 20
5.8751637434
 30
0.0
 10
4.4435285413
 20
5.8798070422
 30
0.0
 10
4.438746248
 20
5.8856962247
 30
0.0
 10
4.4330633022
 20
5.8909495403
 30
0.0
 10
4.4266506422
 20
5.8953902911
 30
0.0
 10
4.4214318321
 20
5.8983113919
 30
0.0
 10
4.415868684
 20
5.9007498651
 30
0.0
 10
4.4099886046
 20
5.9026593293
 30
0.0
 10
4.4038369586
 20
5.904050028
 30
0.0
 10
4.3952300452
 20
5.9052440523
 30
0.0
 10
4.3863174008
 20
5.9054215186
 30
0.0
 10
4.3772720365
 20
5.9046983036
 30
0.0
 10
4.3703260866
 20
5.9036977454
 30
0.0
 10
4.3633337168
 20
5.9022565153
 30
0.0
 10
4.3563300666
 20
5.9003929868
 30
0.0
 10
4.3493452936
 20
5.8981436703
 30
0.0
 10
4.3400749409
 20
5.8946658096
 30
0.0
 10
4.3287454783
 20
5.8895463546
 30
0.0
 10
4.3157344027
 20
5.8824273587
 30
0.0
 10
4.3034432085
 20
5.8745499926
 30
0.0
 10
4.2957274406
 20
5.868784296
 30
0.0
 10
4.2920368446
 20
5.8657965871
 30
0.0
  0
SPLINE
  5
27F
100
AcDbEntity
  8
0
100
AcDbSpline
 62
7
  6
CONTINUOUS
 70
0
 71
3
 72
21
 73
17
 74
0
 42
0.0000001
 43
0.0000001
 44
0.0000000001
 40
0.0
 40
0.0
 40
0.0
 40
0.0
 40
0.1265890529
 40
0.2529314829
 40
0.3783845578
 40
0.4407589035
 40
0.5029404009
 40
0.5650353367
 40
0.6271480604
 40
0.689274986
 40
0.7514031506
 40
0.813536261
 40
0.8446179322
 40
0.8757088375
 40
0.93788063
 40
1.0
 40
1.0
 40
1.0
 40
1.0
 10
4.8783641946
 20
5.7247714957
 30
0.0
 10
4.8695210325
 20
5.7338703476
 30
0.0
 10
4.8510915348
 20
5.7513341737
 30
0.0
 10
4.8212209502
 20
5.7747960264
 30
0.0
 10
4.7944679673
 20
5.7915512414
 30
0.0
 10
4.7720855357
 20
5.8028520315
 30
0.0
 10
4.7548554186
 20
5.8101782224
 30
0.0
 10
4.7371779391
 20
5.81627189
 30
0.0
 10
4.7191038362
 20
5.8210448106
 30
0.0
 10
4.7007231819
 20
5.8244707084
 30
0.0
 10
4.6821354424
 20
5.8265105065
 30
0.0
 10
4.6665567343
 20
5.8270238836
 30
0.0
 10
4.6540987242
 20
5.8267032955
 30
0.0
 10
4.6416590846
 20
5.825891468
 30
0.0
 10
4.6261878313
 20
5.8239674673
 30
0.0
 10
4.6139671091
 20
5.821475304
 30
0.0
 10
4.6079191512
 20
5.8199957024
 30
0.0
  0
SPLINE
  5
280
100
AcDbEntity
  8
0
100
AcDbSpline
 62
7
  6
CONTINUOUS
 70
0
 71
3
 72
44
 73
40
 74
0
 42
0.0000001
 43
0.0000001
 44
0.0000000001
 40
0.0
 40
0.0
 40
0.0
 40
0.0
 40
0.0311833612
 40
0.0625418518
 40
0.0782595034
 40
0.0939741064
 40
0.1096669028
 40
0.1253267044
 40
0.1409670411
 40
0.1566016041
 40
0.1878675623
 40
0.2191366148
 40
0.2503677648
 40
0.2815866647
 40
0.3128132674
 40
0.3440405507
 40
0.37525863
 40
0.406474291
 40
0.4376937033
 40
0.4689239378
 40
0.500163596
 40
0.5314023814
 40
0.5470234178
 40
0.5626436085
 40
0.5782643805
 40
0.5938879793
 40
0.6095159222
 40
0.625148407
 40
0.6564155251
 40
0.687679239
 40
0.7033051138
 40
0.7189202735
 40
0.7501296115
 40
0.7813573368
 40
0.8126189597
 40
0.8438996223
 40
0.8751597637
 40
0.9375814253
 40
1.0
 40
1.0
 40
1.0
 40
1.0
 10
4.1192018634
 20
6.0031498447
 30
0.0
 10
4.1228958299
 20
6.0147090913
 30
0.0
 10
4.1319014087
 20
6.0374091972
 30
0.0
 10
4.1467070544
 20
6.064117344
 30
0.0
 10
4.1604923164
 20
6.0843086799
 30
0.0
 10
4.171753343
 20
6.0987982252
 30
0.0
 10
4.1838702115
 20
6.1125495815
 30
0.0
 10
4.1967962164
 20
6.1255020754
 30
0.0
 10
4.2104563688
 20
6.1376429245
 30
0.0
 10
4.2295568575
 20
6.1527442745
 30
0.0
 10
4.2549567066
 20
6.1695999592
 30
0.0
 10
4.2873231426
 20
6.1865745752
 30
0.0
 10
4.3211548404
 20
6.2003422967
 30
0.0
 10
4.356094247
 20
6.2109168912
 30
0.0
 10
4.3918297667
 20
6.2183455329
 30
0.0
 10
4.4280679105
 20
6.2226803746
 30
0.0
 10
4.4645367273
 20
6.2239569611
 30
0.0
 10
4.5009815012
 20
6.2221848927
 30
0.0
 10
4.5371567005
 20
6.2173814278
 30
0.0
 10
4.5728113759
 20
6.2095574015
 30
0.0
 10
4.6076862161
 20
6.1987554597
 30
0.0
 10
4.6358901578
 20
6.1873226637
 30
0.0
 10
4.6577937485
 20
6.176752661
 30
0.0
 10
4.6738638661
 20
6.1681188064
 30
0.0
 10
4.6895400731
 20
6.1587871281
 30
0.0
 10
4.7047892243
 20
6.1487673534
 30
0.0
 10
4.7195903674
 20
6.1380890107
 30
0.0
 10
4.7386974474
 20
6.1230121263
 30
0.0
 10
4.7613553765
 20
6.1026603851
 30
0.0
 10
4.7822332763
 20
6.0804919839
 30
0.0
 10
4.7977835193
 20
6.0617799115
 30
0.0
 10
4.8125317376
 20
6.0424559256
 30
0.0
 10
4.8294701983
 20
6.0172013297
 30
0.0
 10
4.847428271
 20
5.9854298899
 30
0.0
 10
4.8630796959
 20
5.9524334741
 30
0.0
 10
4.8764863561
 20
5.918452627
 30
0.0
 10
4.8914463534
 20
5.8721521559
 30
0.0
 10
4.9049185959
 20
5.8127790122
 30
0.0
 10
4.9107736874
 20
5.7644711074
 30
0.0
 10
4.9126468555
 20
5.7402529859
 30
0.0
  0
SPLINE
  5
281
100
AcDbEntity
  8
0
100
AcDbSpline
 62
7
  6
CONTINUOUS
 70
0
 71
3
 72
15
 73
11
 74
0
 42
0.0000001
 43
0.0000001
 44
0.0000000001
 40
0.0
 40
0.0
 40
0.0
 40
0.0
 40
0.1249540681
 40
0.250091377
 40
0.3754692827
 40
0.5010589429
 40
0.6264744246
 40
0.751413602
 40
0.8758322928
 40
1.0
 40
1.0
 40
1.0
 40
1.0
 10
4.1159876358
 20
5.8731962585
 30
0.0
 10
4.1150181527
 20
5.8785739161
 30
0.0
 10
4.1133048522
 20
5.8893795464
 30
0.0
 10
4.1114364308
 20
5.9056975935
 30
0.0
 10
4.1102911606
 20
5.9221104121
 30
0.0
 10
4.1098896753
 20
5.938571663
 30
0.0
 10
4.1103893984
 20
5.9550141796
 30
0.0
 10
4.1119549843
 20
5.9713423667
 30
0.0
 10
4.1147516619
 20
5.9874530109
 30
0.0
 10
4.1175489699
 20
5.9979775719
 30
0.0
 10
4.1192018634
 20
6.0031498447
 30
0.0
  0
SPLINE
  5
282
100
AcDbEntity
  8
0
100
AcDbSpline
 62
7
  6
CONTINUOUS
 70
0
 71
3
 72
47
 73
43
 74
0
 42
0.0000001
 43
0.0000001
 44
0.0000000001
 40
0.0
 40
0.0
 40
0.0
 40
0.0
 40
0.0313894719
 40
0.0627451207
 40
0.0939542388
 40
0.1249952684
 40
0.1404822416
 40
0.1559718447
 40
0.1869680521
 40
0.2024668951
 40
0.2179553391
 40
0.2334389269
 40
0.2489270712
 40
0.2644221689
 40
0.279920015
 40
0.2954111753
 40
0.310888508
 40
0.3418641886
 40
0.3729671745
 40
0.3885682542
 40
0.4041837416
 40
0.4353700636
 40
0.4663774132
 40
0.4972688931
 40
0.5281626538
 40
0.5591559354
 40
0.5747160606
 40
0.5903266389
 40
0.6216696292
 40
0.6531157619
 40
0.6846006919
 40
0.7160753456
 40
0.7475089148
 40
0.7788920812
 40
0.8102403863
 40
0.8415975925
 40
0.87303878
 40
0.8888268347
 40
0.90466613
 40
0.9364385997
 40
0.9682518577
 40
1.0
 40
1.0
 40
1.0
 40
1.0
 10
4.583166685
 20
5.8393190519
 30
0.0
 10
4.5831347064
 20
5.8454845677
 30
0.0
 10
4.5827039658
 20
5.8578113649
 30
0.0
 10
4.5807767587
 20
5.876182309
 30
0.0
 10
4.5773775491
 20
5.8942746882
 30
0.0
 10
4.5731507239
 20
5.9089771648
 30
0.0
 10
4.5688470824
 20
5.9203797742
 30
0.0
 10
4.5639001596
 20
5.9315076762
 30
0.0
 10
4.5579552655
 20
5.9421756443
 30
0.0
 10
4.5510329271
 20
5.9521994556
 30
0.0
 10
4.5453533151
 20
5.9593546922
 30
0.0
 10
4.5391888099
 20
5.9660939551
 30
0.0
 10
4.5325638016
 20
5.9723826458
 30
0.0
 10
4.5255267037
 20
5.9782100472
 30
0.0
 10
4.5181205485
 20
5.9835609629
 30
0.0
 10
4.51038844
 20
5.9884225008
 30
0.0
 10
4.4996922765
 20
5.9942364283
 30
0.0
 10
4.4856755278
 20
6.0002927007
 30
0.0
 10
4.4710867113
 20
6.0048464593
 30
0.0
 10
4.4591764375
 20
6.0076861335
 30
0.0
 10
4.4471397236
 20
6.0100186357
 30
0.0
 10
4.431973975
 20
6.0120313805
 30
0.0
 10
4.4137131688
 20
6.0131829767
 30
0.0
 10
4.3954737961
 20
6.0131254861
 30
0.0
 10
4.3772785806
 20
6.0119250769
 30
0.0
 10
4.3621756986
 20
6.0100310742
 30
0.0
 10
4.3501315994
 20
6.0080154465
 30
0.0
 10
4.3380770934
 20
6.0056713873
 30
0.0
 10
4.3230814252
 20
6.0021329444
 30
0.0
 10
4.3053099631
 20
5.9968959361
 30
0.0
 10
4.2878422397
 20
5.990640199
 30
0.0
 10
4.2707846477
 20
5.983343303
 30
0.0
 10
4.2542432868
 20
5.9749825465
 30
0.0
 10
4.2383246767
 20
5.9655349587
 30
0.0
 10
4.2231354696
 20
5.9549770929
 30
0.0
 10
4.2087837667
 20
5.9432859726
 30
0.0
 10
4.1976251393
 20
5.9325922948
 30
0.0
 10
4.189240766
 20
5.9234681592
 30
0.0
 10
4.1812126881
 20
5.9139439282
 30
0.0
 10
4.1719238067
 20
5.9013843229
 30
0.0
 10
4.1620903671
 20
5.8854238087
 30
0.0
 10
4.1564713629
 20
5.8742535058
 30
0.0
 10
4.1539203379
 20
5.8685631115
 30
0.0
  0
SPLINE
  5
283
100
AcDbEntity
  8
0
100
AcDbSpline
 62
7
  6
CONTINUOUS
 70
0
 71
3
 72
45
 73
41
 74
0
 42
0.0000001
 43
0.0000001
 44
0.0000000001
 40
0.0
 40
0.0
 40
0.0
 40
0.0
 40
0.0619270358
 40
0.1238539123
 40
0.15491923
 40
0.186178563
 40
0.2175398611
 40
0.2488583047
 40
0.2800657898
 40
0.2956387582
 40
0.3112043023
 40
0.32678458
 40
0.3423989965
 40
0.3580484988
 40
0.3737287545
 40
0.4051386598
 40
0.4365689689
 40
0.4522732154
 40
0.4679537664
 40
0.4836040161
 40
0.499229306
 40
0.5304517495
 40
0.5617178929
 40
0.5930565805
 40
0.6244547888
 40
0.6558707751
 40
0.6872534721
 40
0.7185695682
 40
0.7498186069
 40
0.7810459758
 40
0.7966883904
 40
0.8123631909
 40
0.8437751461
 40
0.8752209535
 40
0.9066105882
 40
0.9222657769
 40
0.9378802175
 40
0.9534502714
 40
0.9689839865
 40
1.0
 40
1.0
 40
1.0
 40
1.0
 10
4.4902018634
 20
4.9051498447
 30
0.0
 10
4.4949224631
 20
4.8963221057
 30
0.0
 10
4.5044745766
 20
4.8787242345
 30
0.0
 10
4.5178455169
 20
4.85750115
 30
0.0
 10
4.5300108555
 20
4.8415009683
 30
0.0
 10
4.5400225944
 20
4.8301186431
 30
0.0
 10
4.5509307919
 20
4.8195289777
 30
0.0
 10
4.5627160117
 20
4.8099331675
 30
0.0
 10
4.5732573306
 20
4.8029403323
 30
0.0
 10
4.5820877225
 20
4.7980730566
 30
0.0
 10
4.5889045566
 20
4.7948119075
 30
0.0
 10
4.595913554
 20
4.7919685832
 30
0.0
 10
4.6030995405
 20
4.7895651184
 30
0.0
 10
4.6104336063
 20
4.7875977355
 30
0.0
 10
4.6203733508
 20
4.7855572943
 30
0.0
 10
4.6330135127
 20
4.7841036531
 30
0.0
 10
4.6457404752
 20
4.7841150477
 30
0.0
 10
4.655860261
 20
4.7850074214
 30
0.0
 10
4.6633865601
 20
4.7861187347
 30
0.0
 10
4.670820615
 20
4.7876753567
 30
0.0
 10
4.6805722445
 20
4.790335424
 30
0.0
 10
4.6924467
 20
4.794716946
 30
0.0
 10
4.7060354834
 20
4.8015184929
 30
0.0
 10
4.7188562144
 20
4.8097265205
 30
0.0
 10
4.7307956508
 20
4.8192064067
 30
0.0
 10
4.7417465064
 20
4.8298223146
 30
0.0
 10
4.7515813231
 20
4.8414636781
 30
0.0
 10
4.7601578119
 20
4.854030856
 30
0.0
 10
4.7673341523
 20
4.8674200774
 30
0.0
 10
4.7720268515
 20
4.8791768179
 30
0.0
 10
4.7749303607
 20
4.8888670319
 30
0.0
 10
4.7772515068
 20
4.8987435123
 30
0.0
 10
4.7790563636
 20
4.9113413887
 30
0.0
 10
4.7794666557
 20
4.92660305
 30
0.0
 10
4.7783418296
 20
4.9392731017
 30
0.0
 10
4.776555366
 20
4.9492483957
 30
0.0
 10
4.7747739232
 20
4.9566125385
 30
0.0
 10
4.7725463602
 20
4.9638340899
 30
0.0
 10
4.768993088
 20
4.9732312162
 30
0.0
 10
4.7657138308
 20
4.9800268619
 30
0.0
 10
4.7633002482
 20
4.9844215066
 30
0.0
  0
SPLINE
  5
284
100
AcDbEntity
  8
0
100
AcDbSpline
 62
7
  6
CONTINUOUS
 70
0
 71
3
 72
26
 73
22
 74
0
 42
0.0000001
 43
0.0000001
 44
0.0000000001
 40
0.0
 40
0.0
 40
0.0
 40
0.0
 40
0.0628587772
 40
0.0943771119
 40
0.1258776715
 40
0.1573064059
 40
0.1886234527
 40
0.2198713984
 40
0.251105484
 40
0.3136278899
 40
0.3762619414
 40
0.4075690104
 40
0.438813303
 40
0.4699984538
 40
0.5011497643
 40
0.5634223597
 40
0.6257531664
 40
0.6881900979
 40
0.7507233112
 40
0.8757782772
 40
1.0
 40
1.0
 40
1.0
 40
1.0
 10
3.9728702644
 20
5.8842120505
 30
0.0
 10
3.9625907323
 20
5.8733424785
 30
0.0
 10
3.9459965719
 20
5.8580708297
 30
0.0
 10
3.922050272
 20
5.8400451932
 30
0.0
 10
3.9032355771
 20
5.8277132703
 30
0.0
 10
3.8837050582
 20
5.8166498182
 30
0.0
 10
3.863546327
 20
5.8069149882
 30
0.0
 10
3.8428642331
 20
5.7984742926
 30
0.0
 10
3.8146964135
 20
5.7888539708
 30
0.0
 10
3.7785400935
 20
5.7797229313
 30
0.0
 10
3.7416944821
 20
5.7740123982
 30
0.0
 10
3.7120262244
 20
5.7712153366
 30
0.0
 10
3.6897485243
 20
5.769935251
 30
0.0
 10
3.6674773957
 20
5.7694337326
 30
0.0
 10
3.637817415
 20
5.7697599867
 30
0.0
 10
3.600786599
 20
5.7719480535
 30
0.0
 10
3.5565536679
 20
5.777146413
 30
0.0
 10
3.5125916036
 20
5.7846393306
 30
0.0
 10
3.4544346196
 20
5.7973203958
 30
0.0
 10
3.3829417185
 20
5.8174706483
 30
0.0
 10
3.326852525
 20
5.8368745165
 30
0.0
 10
3.2991038231
 20
5.8470773307
 30
0.0
  0
SPLINE
  5
285
100
AcDbEntity
  8
0
100
AcDbSpline
 62
7
  6
CONTINUOUS
 70
0
 71
3
 72
51
 73
47
 74
0
 42
0.0000001
 43
0.0000001
 44
0.0000000001
 40
0.0
 40
0.0
 40
0.0
 40
0.0
 40
0.0312414225
 40
0.0624952044
 40
0.0781245993
 40
0.0937519502
 40
0.1093767746
 40
0.1249994534
 40
0.1406215302
 40
0.1562438247
 40
0.1718654027
 40
0.1874838878
 40
0.2031005994
 40
0.2187197641
 40
0.2343420073
 40
0.249964331
 40
0.2655811012
 40
0.2811924972
 40
0.3124144809
 40
0.3280322689
 40
0.343655622
 40
0.359283989
 40
0.3749136584
 40
0.3905408144
 40
0.4061632101
 40
0.4217803236
 40
0.4373935078
 40
0.4530061406
 40
0.468622856
 40
0.4842459604
 40
0.4998761827
 40
0.5311535419
 40
0.5624449197
 40
0.5937245192
 40
0.6249791694
 40
0.6562296687
 40
0.6874897207
 40
0.7187618259
 40
0.7500383673
 40
0.7656737927
 40
0.7813048667
 40
0.8125576677
 40
0.8438052571
 40
0.8750520521
 40
0.9375411065
 40
1.0
 40
1.0
 40
1.0
 40
1.0
 10
3.2993444304
 20
5.6082781913
 30
0.0
 10
3.3140372775
 20
5.6138958803
 30
0.0
 10
3.343872396
 20
5.624008236
 30
0.0
 10
3.3820291049
 20
5.633735946
 30
0.0
 10
3.4129374997
 20
5.6397139853
 30
0.0
 10
3.4362780125
 20
5.6432804912
 30
0.0
 10
3.4597384688
 20
5.6459152473
 30
0.0
 10
3.4832837803
 20
5.6475992503
 30
0.0
 10
3.5068760806
 20
5.6483383843
 30
0.0
 10
3.5304783663
 20
5.6481585351
 30
0.0
 10
3.5540547682
 20
5.6470824826
 30
0.0
 10
3.5775716209
 20
5.6451289702
 30
0.0
 10
3.6010019119
 20
5.6423375512
 30
0.0
 10
3.6243287669
 20
5.6387761871
 30
0.0
 10
3.6475388312
 20
5.6345071071
 30
0.0
 10
3.6706190565
 20
5.6295929245
 30
0.0
 10
3.6935620608
 20
5.6240982164
 30
0.0
 10
3.7239619358
 20
5.6160540448
 30
0.0
 10
3.7540829339
 20
5.6069885317
 30
0.0
 10
3.7839168249
 20
5.5970313298
 30
0.0
 10
3.8061600006
 20
5.5891435591
 30
0.0
 10
3.8282702207
 20
5.5808739983
 30
0.0
 10
3.8502278334
 20
5.5722012862
 30
0.0
 10
3.8720045203
 20
5.563090919
 30
0.0
 10
3.8935727244
 20
5.5535122655
 30
0.0
 10
3.9149044624
 20
5.5434336658
 30
0.0
 10
3.9359718875
 20
5.5328238573
 30
0.0
 10
3.956746532
 20
5.521651112
 30
0.0
 10
3.9771981361
 20
5.5098873698
 30
0.0
 10
3.9973238864
 20
5.4975577031
 30
0.0
 10
4.023721522
 20
5.4803928991
 30
0.0
 10
4.0558798577
 20
5.4576426233
 30
0.0
 10
4.0930801274
 20
5.4284770465
 30
0.0
 10
4.1288755275
 20
5.3976227563
 30
0.0
 10
4.1632681407
 20
5.3652454628
 30
0.0
 10
4.1963113696
 20
5.3315088492
 30
0.0
 10
4.2280766735
 20
5.296556939
 30
0.0
 10
4.2586377807
 20
5.2605326171
 30
0.0
 10
4.2831653572
 20
5.229733997
 30
0.0
 10
4.3022637621
 20
5.2046948329
 30
0.0
 10
4.3210211752
 20
5.1794140286
 30
0.0
 10
4.3438491646
 20
5.1473698671
 30
0.0
 10
4.3703024642
 20
5.1082718239
 30
0.0
 10
4.4043862424
 20
5.0553662581
 30
0.0
 10
4.4448964048
 20
4.9879329064
 30
0.0
 10
4.4753721788
 20
4.9328820379
 30
0.0
 10
4.4902018634
 20
4.9051498447
 30
0.0
  0
SPLINE
  5
286
100
AcDbEntity
  8
0
100
AcDbSpline
 62
7
  6
CONTINUOUS
 70
0
 71
3
 72
33
 73
29
 74
0
 42
0.0000001
 43
0.0000001
 44
0.0000000001
 40
0.0
 40
0.0
 40
0.0
 40
0.0
 40
0.0629195435
 40
0.0946070039
 40
0.1263751053
 40
0.1899172806
 40
0.2216256574
 40
0.2532204373
 40
0.3158988936
 40
0.3469922863
 40
0.3779172909
 40
0.3933321294
 40
0.4087359417
 40
0.4395844244
 40
0.4705757406
 40
0.5017492295
 40
0.5330912638
 40
0.5645500812
 40
0.5960499129
 40
0.627516906
 40
0.658925734
 40
0.6902647088
 40
0.7215244488
 40
0.7526987471
 40
0.8147841404
 40
0.8765697495
 40
0.938211457
 40
1.0
 40
1.0
 40
1.0
 40
1.0
 10
3.6293392727
 20
5.8929036215
 30
0.0
 10
3.6435887
 20
5.890783474
 30
0.0
 10
3.6652786894
 20
5.8891329658
 30
0.0
 10
3.6942196039
 20
5.8898540702
 30
0.0
 10
3.7231943672
 20
5.8925037829
 30
0.0
 10
3.7518532164
 20
5.8980069503
 30
0.0
 10
3.7797061821
 20
5.9063002394
 30
0.0
 10
3.8067468628
 20
5.9163903741
 30
0.0
 10
3.8325589108
 20
5.9292187035
 30
0.0
 10
3.85655258
 20
5.9447334492
 30
0.0
 10
3.8706584377
 20
5.9555102794
 30
0.0
 10
3.8813408566
 20
5.9647749073
 30
0.0
 10
3.8916422122
 20
5.9744357224
 30
0.0
 10
3.903886137
 20
5.9872175387
 30
0.0
 10
3.9176961819
 20
6.0034415405
 30
0.0
 10
3.9308146486
 20
6.020368473
 30
0.0
 10
3.9434213096
 20
6.0378083911
 30
0.0
 10
3.9556953448
 20
6.055572709
 30
0.0
 10
3.9678164929
 20
6.0734753245
 30
0.0
 10
3.9799710623
 20
6.0913414879
 30
0.0
 10
3.9921970523
 20
6.1091143108
 30
0.0
 10
4.0045408142
 20
6.1267478225
 30
0.0
 10
4.0170502138
 20
6.1441986393
 30
0.0
 10
4.0339898896
 20
6.1671318419
 30
0.0
 10
4.0558225885
 20
6.1951367888
 30
0.0
 10
4.0835049792
 20
6.2273799607
 30
0.0
 10
4.1130266451
 20
6.2578643694
 30
0.0
 10
4.1341287977
 20
6.27671498
 30
0.0
 10
4.1450632115
 20
6.2856919288
 30
0.0
  0
SPLINE
  5
287
100
AcDbEntity
  8
0
100
AcDbSpline
 62
7
  6
CONTINUOUS
 70
0
 71
3
 72
22
 73
18
 74
0
 42
0.0000001
 43
0.0000001
 44
0.0000000001
 40
0.0
 40
0.0
 40
0.0
 40
0.0
 40
0.0652445552
 40
0.1290914971
 40
0.1917398384
 40
0.2534001986
 40
0.3142934499
 40
0.3746488867
 40
0.4347019644
 40
0.4946916985
 40
0.5548578595
 40
0.6154381232
 40
0.6766653429
 40
0.7387650949
 40
0.8019536116
 40
0.8664361733
 40
1.0
 40
1.0
 40
1.0
 40
1.0
 10
3.8997294818
 20
6.3043295234
 30
0.0
 10
3.8980558238
 20
6.2939362027
 30
0.0
 10
3.89421254
 20
6.2734530474
 30
0.0
 10
3.8868492192
 20
6.2433889792
 30
0.0
 10
3.8779539836
 20
6.214344434
 30
0.0
 10
3.8675263724
 20
6.1863214651
 30
0.0
 10
3.8555659157
 20
6.1593209677
 30
0.0
 10
3.8420724917
 20
6.1333443203
 30
0.0
 10
3.8270462934
 20
6.108392848
 30
0.0
 10
3.8104878592
 20
6.0844678348
 30
0.0
 10
3.7923980247
 20
6.0615703837
 30
0.0
 10
3.7727778953
 20
6.03970136
 30
0.0
 10
3.7516285996
 20
6.0188612563
 30
0.0
 10
3.7289517662
 20
5.9990504849
 30
0.0
 10
3.7047472158
 20
5.9802682281
 30
0.0
 10
3.6700412803
 20
5.9563205708
 30
0.0
 10
3.6422883338
 20
5.9403320367
 30
0.0
 10
3.6231279755
 20
5.9304676448
 30
0.0
  0
SPLINE
  5
288
100
AcDbEntity
  8
0
100
AcDbSpline
 62
7
  6
CONTINUOUS
 70
0
 71
3
 72
30
 73
26
 74
0
 42
0.0000001
 43
0.0000001
 44
0.0000000001
 40
0.0
 40
0.0
 40
0.0
 40
0.0
 40
0.0311908
 40
0.0623641182
 40
0.0935300095
 40
0.1247146408
 40
0.1559223185
 40
0.18713732
 40
0.2183455052
 40
0.2495361543
 40
0.2807034744
 40
0.3118535368
 40
0.3430250916
 40
0.3742556873
 40
0.4369522922
 40
0.5000046874
 40
0.5632779177
 40
0.6265043675
 40
0.657994681
 40
0.6893539154
 40
0.7517146028
 40
0.813740687
 40
0.8756253944
 40
0.9376128822
 40
1.0
 40
1.0
 40
1.0
 40
1.0
 10
3.7013062051
 20
6.1650772151
 30
0.0
 10
3.6994283298
 20
6.1603127073
 30
0.0
 10
3.6954523247
 20
6.1508715482
 30
0.0
 10
3.6887881571
 20
6.1370288566
 30
0.0
 10
3.681388578
 20
6.1235642832
 30
0.0
 10
3.6732153228
 20
6.1105472251
 30
0.0
 10
3.6642814883
 20
6.0980300007
 30
0.0
 10
3.6546213107
 20
6.0860593877
 30
0.0
 10
3.6442662573
 20
6.0746879793
 30
0.0
 10
3.6332487933
 20
6.0639680628
 30
0.0
 10
3.6216010666
 20
6.0539502573
 30
0.0
 10
3.6093484046
 20
6.0446875901
 30
0.0
 10
3.5965480522
 20
6.0361801727
 30
0.0
 10
3.5788051633
 20
6.0258134079
 30
0.0
 10
3.5555050179
 20
6.0146717413
 30
0.0
 10
3.5262677455
 20
6.0041264209
 30
0.0
 10
3.4961152403
 20
5.9962599088
 30
0.0
 10
3.470524324
 20
5.9918334984
 30
0.0
 10
3.4499496663
 20
5.9895152377
 30
0.0
 10
3.4294420917
 20
5.9880097444
 30
0.0
 10
3.4038417365
 20
5.9876658131
 30
0.0
 10
3.3732966294
 20
5.9898072429
 30
0.0
 10
3.3431088059
 20
5.9945838133
 30
0.0
 10
3.3134164372
 20
6.0020739839
 30
0.0
 10
3.2941314481
 20
6.0088982638
 30
0.0
 10
3.2846470144
 20
6.0127676145
 30
0.0
  0
SPLINE
  5
289
100
AcDbEntity
  8
0
100
AcDbSpline
 62
7
  6
CONTINUOUS
 70
0
 71
3
 72
35
 73
31
 74
0
 42
0.0000001
 43
0.0000001
 44
0.0000000001
 40
0.0
 40
0.0
 40
0.0
 40
0.0
 40
0.0335393914
 40
0.0663690249
 40
0.0984688466
 40
0.1298376569
 40
0.1605137726
 40
0.1905978198
 40
0.2202764893
 40
0.2350554981
 40
0.2498535416
 40
0.2647265265
 40
0.2797286418
 40
0.2948777937
 40
0.3101763786
 40
0.3411947835
 40
0.3727050016
 40
0.4045542586
 40
0.4365415349
 40
0.4684317921
 40
0.5000837244
 40
0.531547986
 40
0.5628841796
 40
0.6253314204
 40
0.6877026369
 40
0.7500894963
 40
0.812481532
 40
0.8749307353
 40
0.9374554495
 40
1.0
 40
1.0
 40
1.0
 40
1.0
 10
3.3323268015
 20
6.3007676589
 30
0.0
 10
3.3339457346
 20
6.2963268835
 30
0.0
 10
3.3370935077
 20
6.2875190655
 30
0.0
 10
3.341763313
 20
6.274451268
 30
0.0
 10
3.3465040583
 20
6.2617340375
 30
0.0
 10
3.3514886656
 20
6.2494353233
 30
0.0
 10
3.3568917138
 20
6.2376228013
 30
0.0
 10
3.3628890599
 20
6.2263657775
 30
0.0
 10
3.3685407179
 20
6.2174933063
 30
0.0
 10
3.3735138818
 20
6.2107810722
 30
0.0
 10
3.3774942548
 20
6.2059401758
 30
0.0
 10
3.3817506414
 20
6.2012968467
 30
0.0
 10
3.3862975207
 20
6.1968664324
 30
0.0
 10
3.3911173459
 20
6.1926435646
 30
0.0
 10
3.3979108025
 20
6.187264287
 30
0.0
 10
3.4069797193
 20
6.1810675091
 30
0.0
 10
3.4185550813
 20
6.1744901915
 30
0.0
 10
3.4307079024
 20
6.1687308891
 30
0.0
 10
3.4432701226
 20
6.1637868753
 30
0.0
 10
3.4560901211
 20
6.1596488763
 30
0.0
 10
3.4690635684
 20
6.1563070332
 30
0.0
 10
3.4821338861
 20
6.1537466218
 30
0.0
 10
3.4996278457
 20
6.151339201
 30
0.0
 10
3.521646457
 20
6.1501325425
 30
0.0
 10
3.5480405711
 20
6.1513563722
 30
0.0
 10
3.574195577
 20
6.1550163331
 30
0.0
 10
3.5999494933
 20
6.1608903995
 30
0.0
 10
3.6251726359
 20
6.1687898891
 30
0.0
 10
3.649762845
 20
6.1785273179
 30
0.0
 10
3.6656827958
 20
6.1861270017
 30
0.0
 10
3.6735121449
 20
6.1901759369
 30
0.0
  0
SPLINE
  5
28A
100
AcDbEntity
  8
0
100
AcDbSpline
 62
7
  6
CONTINUOUS
 70
0
 71
3
 72
21
 73
17
 74
0
 42
0.0000001
 43
0.0000001
 44
0.0000000001
 40
0.0
 40
0.0
 40
0.0
 40
0.0
 40
0.1265892958
 40
0.252931342
 40
0.3783842873
 40
0.4407587107
 40
0.5029403173
 40
0.5650352477
 40
0.6271479015
 40
0.6892747906
 40
0.751402932
 40
0.8135359726
 40
0.8446175549
 40
0.8757083905
 40
0.9378802404
 40
1.0
 40
1.0
 40
1.0
 40
1.0
 10
5.106147456
 20
5.7196672809
 30
0.0
 10
5.1150021536
 20
5.7287286449
 30
0.0
 10
5.1334513301
 20
5.7461167584
 30
0.0
 10
5.1633399588
 20
5.7694640932
 30
0.0
 10
5.1900969696
 20
5.7861242412
 30
0.0
 10
5.2124752212
 20
5.7973505848
 30
0.0
 10
5.2296983481
 20
5.8046220911
 30
0.0
 10
5.2473647865
 20
5.8106624587
 30
0.0
 10
5.2654237673
 20
5.81538371
 30
0.0
 10
5.2837853981
 20
5.8187598438
 30
0.0
 10
5.3023503603
 20
5.820752153
 30
0.0
 10
5.3179070867
 20
5.8212281372
 30
0.0
 10
5.3303458155
 20
5.8208791577
 30
0.0
 10
5.3427650901
 20
5.820039921
 30
0.0
 10
5.3582089984
 20
5.8180835584
 30
0.0
 10
5.3704060072
 20
5.8155677014
 30
0.0
 10
5.3764417291
 20
5.8140768501
 30
0.0
  0
SPLINE
  5
28B
100
AcDbEntity
  8
0
100
AcDbSpline
 62
7
  6
CONTINUOUS
 70
0
 71
3
 72
42
 73
38
 74
0
 42
0.0000001
 43
0.0000001
 44
0.0000000001
 40
0.0
 40
0.0
 40
0.0
 40
0.0
 40
0.0313960076
 40
0.0627574881
 40
0.0939719152
 40
0.1250182799
 40
0.1405082459
 40
0.1560012197
 40
0.1870037382
 40
0.2025055335
 40
0.2179969445
 40
0.2334836792
 40
0.2489751051
 40
0.2644734648
 40
0.2799744201
 40
0.2954684155
 40
0.3109487049
 40
0.3419318598
 40
0.3730429891
 40
0.3886478536
 40
0.4042666634
 40
0.4354574559
 40
0.4664681812
 40
0.4973650367
 40
0.5282660512
 40
0.5592682801
 40
0.5748334428
 40
0.5904491552
 40
0.621801337
 40
0.6532552882
 40
0.6847468365
 40
0.7162271866
 40
0.7476659311
 40
0.8103678551
 40
0.8731326923
 40
0.9364892614
 40
1.0
 40
1.0
 40
1.0
 40
1.0
 10
5.4012373924
 20
5.8333853025
 30
0.0
 10
5.4012707171
 20
5.839556186
 30
0.0
 10
5.4017049884
 20
5.8518935102
 30
0.0
 10
5.4036405488
 20
5.8702794498
 30
0.0
 10
5.4070516847
 20
5.8883853904
 30
0.0
 10
5.4112918825
 20
5.9030974772
 30
0.0
 10
5.4156084174
 20
5.9145063408
 30
0.0
 10
5.4205697913
 20
5.925639398
 30
0.0
 10
5.4265308659
 20
5.936310589
 30
0.0
 10
5.4334709715
 20
5.9463348899
 30
0.0
 10
5.4391646486
 20
5.9534890041
 30
0.0
 10
5.4453440211
 20
5.9602253917
 30
0.0
 10
5.4519837259
 20
5.9665101553
 30
0.0
 10
5.4590353221
 20
5.9723325208
 30
0.0
 10
5.4664556329
 20
5.9776772777
 30
0.0
 10
5.4742015746
 20
5.9825314783
 30
0.0
 10
5.4849158046
 20
5.9883345044
 30
0.0
 10
5.4989537952
 20
5.9943761903
 30
0.0
 10
5.5135619419
 20
5.9989146454
 30
0.0
 10
5.5254865784
 20
6.0017419567
 30
0.0
 10
5.5375363071
 20
6.0040619186
 30
0.0
 10
5.5527165005
 20
6.0060593205
 30
0.0
 10
5.5709932546
 20
6.0071921017
 30
0.0
 10
5.5892478036
 20
6.0071144576
 30
0.0
 10
5.607457999
 20
6.0058931734
 30
0.0
 10
5.6225730032
 20
6.0039812556
 30
0.0
 10
5.6346266937
 20
6.0019511459
 30
0.0
 10
5.6466905034
 20
5.9995923275
 30
0.0
 10
5.6616964539
 20
5.996033973
 30
0.0
 10
5.6794779718
 20
5.9907708864
 30
0.0
 10
5.6969526687
 20
5.9844869655
 30
0.0
 10
5.7140150522
 20
5.9771589623
 30
0.0
 10
5.7360460312
 20
5.96598054
 30
0.0
 10
5.7620871064
 20
5.9492498564
 30
0.0
 10
5.790016113
 20
5.9245565183
 30
0.0
 10
5.8134553868
 20
5.8953539689
 30
0.0
 10
5.8256471009
 20
5.8734343951
 30
0.0
 10
5.8307218331
 20
5.8620292329
 30
0.0
  0
SPLINE
  5
28C
100
AcDbEntity
  8
0
100
AcDbSpline
 62
7
  6
CONTINUOUS
 70
0
 71
3
 72
15
 73
11
 74
0
 42
0.0000001
 43
0.0000001
 44
0.0000000001
 40
0.0
 40
0.0
 40
0.0
 40
0.0
 40
0.1249396057
 40
0.2500752439
 40
0.3754654074
 40
0.5010801426
 40
0.6265167866
 40
0.7514575207
 40
0.8758564389
 40
1.0
 40
1.0
 40
1.0
 40
1.0
 10
5.8686561258
 20
5.8664956246
 30
0.0
 10
5.869654769
 20
5.8718543294
 30
0.0
 10
5.8714277701
 20
5.8826237102
 30
0.0
 10
5.8733908817
 20
5.8988918133
 30
0.0
 10
5.8746370071
 20
5.9152602509
 30
0.0
 10
5.8751473833
 20
5.931682525
 30
0.0
 10
5.8747582294
 20
5.9480917892
 30
0.0
 10
5.8732967587
 20
5.9643916183
 30
0.0
 10
5.8705897527
 20
5.9804775218
 30
0.0
 10
5.867837178
 20
5.9909863838
 30
0.0
 10
5.8662018634
 20
5.9961498447
 30
0.0
  0
SPLINE
  5
28D
100
AcDbEntity
  8
0
100
AcDbSpline
 62
7
  6
CONTINUOUS
 70
0
 71
3
 72
44
 73
40
 74
0
 42
0.0000001
 43
0.0000001
 44
0.0000000001
 40
0.0
 40
0.0
 40
0.0
 40
0.0
 40
0.0311833632
 40
0.062541857
 40
0.0782595095
 40
0.0939741117
 40
0.1096669051
 40
0.1253267036
 40
0.1409670391
 40
0.1566016024
 40
0.1878675626
 40
0.2191366132
 40
0.2503677598
 40
0.2815866607
 40
0.3128132654
 40
0.3440405478
 40
0.3752586266
 40
0.4064742886
 40
0.4376937032
 40
0.4689239416
 40
0.5001636014
 40
0.5314023863
 40
0.5470234224
 40
0.5626436134
 40
0.5782643869
 40
0.5938879886
 40
0.6095159349
 40
0.625148423
 40
0.6564155443
 40
0.6876792532
 40
0.7033051215
 40
0.7189202734
 40
0.750129612
 40
0.7813573511
 40
0.8126189881
 40
0.8438996526
 40
0.8751597762
 40
0.9375814322
 40
1.0
 40
1.0
 40
1.0
 40
1.0
 10
5.8662018634
 20
5.9961498447
 30
0.0
 10
5.8625370807
 20
6.0077212954
 30
0.0
 10
5.8535883905
 20
6.0304499085
 30
0.0
 10
5.8388486721
 20
6.0572024932
 30
0.0
 10
5.8251126364
 20
6.0774341252
 30
0.0
 10
5.8138866128
 20
6.0919561222
 30
0.0
 10
5.8018026269
 20
6.1057419668
 30
0.0
 10
5.7889072408
 20
6.118730852
 30
0.0
 10
5.7752754311
 20
6.1309098018
 30
0.0
 10
5.7562097084
 20
6.1460639927
 30
0.0
 10
5.7308477272
 20
6.1629891949
 30
0.0
 10
5.6985178782
 20
6.1800513457
 30
0.0
 10
5.6647141288
 20
6.1939096311
 30
0.0
 10
5.6297941538
 20
6.2045768956
 30
0.0
 10
5.5940697486
 20
6.2120995186
 30
0.0
 10
5.5578346106
 20
6.2165289051
 30
0.0
 10
5.5213608498
 20
6.2178998956
 30
0.0
 10
5.4849032705
 20
6.2162214318
 30
0.0
 10
5.4487075126
 20
6.2115101389
 30
0.0
 10
5.4130246214
 20
6.2037762032
 30
0.0
 10
5.3781140859
 20
6.1930616204
 30
0.0
 10
5.3498743516
 20
6.1816988173
 30
0.0
 10
5.3279386284
 20
6.1711827597
 30
0.0
 10
5.3118426831
 20
6.1625882687
 30
0.0
 10
5.2961389535
 20
6.1532947645
 30
0.0
 10
5.2808606129
 20
6.1433119014
 30
0.0
 10
5.2660286917
 20
6.1326691663
 30
0.0
 10
5.2468785674
 20
6.1176379498
 30
0.0
 10
5.2241632574
 20
6.0973397936
 30
0.0
 10
5.2032237384
 20
6.0752199776
 30
0.0
 10
5.1876219725
 20
6.0565435849
 30
0.0
 10
5.1728208552
 20
6.0372530701
 30
0.0
 10
5.1558137694
 20
6.0120362275
 30
0.0
 10
5.1377700949
 20
5.9803036894
 30
0.0
 10
5.1220304212
 20
5.9473399898
 30
0.0
 10
5.1085334728
 20
5.9133858945
 30
0.0
 10
5.0934511802
 20
5.8671133958
 30
0.0
 10
5.0798233196
 20
5.8077614775
 30
0.0
 10
5.0738426459
 20
5.7594577302
 30
0.0
 10
5.0719067296
 20
5.7352389612
 30
0.0
  0
SPLINE
  5
28E
100
AcDbEntity
  8
0
100
AcDbSpline
 62
7
  6
CONTINUOUS
 70
0
 71
3
 72
71
 73
67
 74
0
 42
0.0000001
 43
0.0000001
 44
0.0000000001
 40
0.0
 40
0.0
 40
0.0
 40
0.0
 40
0.0189647495
 40
0.0363022467
 40
0.0521979537
 40
0.0668273765
 40
0.0803518532
 40
0.0929144693
 40
0.1046455378
 40
0.115670947
 40
0.1261077663
 40
0.1360607367
 40
0.1456192298
 40
0.1548549977
 40
0.1638209913
 40
0.1725557416
 40
0.18110927
 40
0.1895313453
 40
0.2061165146
 40
0.2225256723
 40
0.2388191891
 40
0.2550671551
 40
0.2713569815
 40
0.2877042205
 40
0.3203985821
 40
0.352840834
 40
0.38445329
 40
0.3997766056
 40
0.4146930861
 40
0.4291467712
 40
0.443109677
 40
0.4565728024
 40
0.4695468236
 40
0.4820662752
 40
0.4941832003
 40
0.5059709995
 40
0.5175280878
 40
0.5289600429
 40
0.5403455057
 40
0.5517597049
 40
0.5632781682
 40
0.5749529171
 40
0.5867965444
 40
0.5988148884
 40
0.6110135433
 40
0.6233973488
 40
0.6359650777
 40
0.6616067486
 40
0.6747042087
 40
0.6879825881
 40
0.7014573316
 40
0.7151573439
 40
0.7291297149
 40
0.7434121746
 40
0.7729504632
 40
0.7882225694
 40
0.8038027412
 40
0.8196653844
 40
0.8357800278
 40
0.8521126448
 40
0.8686201621
 40
0.9019393139
 40
0.9352577453
 40
0.9517455277
 40
0.96803996
 40
1.0
 40
1.0
 40
1.0
 40
1.0
 10
5.5550597867
 20
5.6675029839
 30
0.0
 10
5.5578525977
 20
5.6675332104
 30
0.0
 10
5.5631993412
 20
5.6677767925
 30
0.0
 10
5.5708356011
 20
5.6687293347
 30
0.0
 10
5.5777410526
 20
5.6701870164
 30
0.0
 10
5.5839538271
 20
5.6720845696
 30
0.0
 10
5.5895119243
 20
5.6743575131
 30
0.0
 10
5.594457265
 20
5.6769370972
 30
0.0
 10
5.5988245873
 20
5.6797778037
 30
0.0
 10
5.6026399846
 20
5.6828475536
 30
0.0
 10
5.6059314673
 20
5.6861108448
 30
0.0
 10
5.6087271388
 20
5.6895325351
 30
0.0
 10
5.6110557513
 20
5.6930771819
 30
0.0
 10
5.6129466691
 20
5.6967095334
 30
0.0
 10
5.6144296033
 20
5.7003953369
 30
0.0
 10
5.6155366555
 20
5.7041055367
 30
0.0
 10
5.6162874451
 20
5.7078220924
 30
0.0
 10
5.6168378977
 20
5.7127392226
 30
0.0
 10
5.6167485106
 20
5.718867009
 30
0.0
 10
5.6155434731
 20
5.7260488463
 30
0.0
 10
5.6134121686
 20
5.7329555809
 30
0.0
 10
5.6104895363
 20
5.739542362
 30
0.0
 10
5.6069032368
 20
5.7457975313
 30
0.0
 10
5.6013993494
 20
5.7537014109
 30
0.0
 10
5.5934747579
 20
5.7627590548
 30
0.0
 10
5.5830895843
 20
5.7725290806
 30
0.0
 10
5.5741784465
 20
5.7800979535
 30
0.0
 10
5.5671964425
 20
5.7859480685
 30
0.0
 10
5.5621812159
 20
5.7902111852
 30
0.0
 10
5.5574001077
 20
5.7944391584
 30
0.0
 10
5.5529050191
 20
5.798664207
 30
0.0
 10
5.5487440879
 20
5.8029202791
 30
0.0
 10
5.544965914
 20
5.8072429061
 30
0.0
 10
5.5416201569
 20
5.8116638268
 30
0.0
 10
5.538733411
 20
5.8161928171
 30
0.0
 10
5.5363336465
 20
5.8208403822
 30
0.0
 10
5.5344525272
 20
5.8256143748
 30
0.0
 10
5.5331165167
 20
5.8305078276
 30
0.0
 10
5.5323259084
 20
5.8354969939
 30
0.0
 10
5.5320863426
 20
5.840555593
 30
0.0
 10
5.5324034173
 20
5.8456524572
 30
0.0
 10
5.53327442
 20
5.8507480628
 30
0.0
 10
5.534688185
 20
5.8557965496
 30
0.0
 10
5.5366354815
 20
5.8607471854
 30
0.0
 10
5.5391083786
 20
5.8655467886
 30
0.0
 10
5.5420882873
 20
5.8701461613
 30
0.0
 10
5.5467246635
 20
5.8759898773
 30
0.0
 10
5.5522508772
 20
5.8812205382
 30
0.0
 10
5.5584989878
 20
5.8856674776
 30
0.0
 10
5.5635885902
 20
5.8886086065
 30
0.0
 10
5.5690172956
 20
5.8910853368
 30
0.0
 10
5.5747605464
 20
5.8930479938
 30
0.0
 10
5.5807765708
 20
5.8944935603
 30
0.0
 10
5.5892003052
 20
5.8957674984
 30
0.0
 10
5.5979368122
 20
5.8960318061
 30
0.0
 10
5.6068121562
 20
5.8954026442
 30
0.0
 10
5.6136344671
 20
5.8944773024
 30
0.0
 10
5.6205089605
 20
5.8931166827
 30
0.0
 10
5.6274003083
 20
5.8913333113
 30
0.0
 10
5.6342781618
 20
5.8891609619
 30
0.0
 10
5.6434194831
 20
5.8857800068
 30
0.0
 10
5.6546090726
 20
5.8807690893
 30
0.0
 10
5.6653726984
 20
5.8749137397
 30
0.0
 10
5.6736681707
 20
5.8698161654
 30
0.0
 10
5.6816155391
 20
5.8645460562
 30
0.0
 10
5.6873287997
 20
5.8603058435
 30
0.0
 10
5.6909990046
 20
5.8573590301
 30
0.0
  0
SPLINE
  5
28F
100
AcDbEntity
  8
0
100
AcDbSpline
 62
7
  6
CONTINUOUS
 70
0
 71
3
 72
55
 73
51
 74
0
 42
0.0000001
 43
0.0000001
 44
0.0000000001
 40
0.0
 40
0.0
 40
0.0
 40
0.0
 40
0.0163195387
 40
0.0326192863
 40
0.040795735
 40
0.048985773
 40
0.0571792252
 40
0.065362913
 40
0.0735297333
 40
0.0816826345
 40
0.0979612121
 40
0.1142275913
 40
0.1305118473
 40
0.1468289612
 40
0.1631683723
 40
0.1958656003
 40
0.2285198752
 40
0.2610631014
 40
0.2934518816
 40
0.3256823428
 40
0.3577959335
 40
0.3738388704
 40
0.3898891221
 40
0.4220222053
 40
0.4542281599
 40
0.486540628
 40
0.5189969756
 40
0.5515541584
 40
0.5841116094
 40
0.6165677936
 40
0.6488073338
 40
0.6806036459
 40
0.7117209796
 40
0.7419867397
 40
0.7713064325
 40
0.7996608293
 40
0.813525861
 40
0.827224576
 40
0.8408135819
 40
0.8543669095
 40
0.8679626877
 40
0.8816695551
 40
0.895555472
 40
0.9096866105
 40
0.9240998486
 40
0.938801363
 40
0.953786897
 40
0.9690387445
 40
0.9844800333
 40
1.0
 40
1.0
 40
1.0
 40
1.0
 10
5.0952018634
 20
5.3301498447
 30
0.0
 10
5.0942817971
 20
5.3336478736
 30
0.0
 10
5.0929679034
 20
5.34078287
 30
0.0
 10
5.0923195452
 20
5.3498113173
 30
0.0
 10
5.0921609956
 20
5.3570500793
 30
0.0
 10
5.0921647471
 20
5.3624938069
 30
0.0
 10
5.0922352611
 20
5.3679383309
 30
0.0
 10
5.0923104685
 20
5.3733776611
 30
0.0
 10
5.0923545935
 20
5.3788083541
 30
0.0
 10
5.0923937499
 20
5.3860332223
 30
0.0
 10
5.0924252348
 20
5.3950532934
 30
0.0
 10
5.0925099257
 20
5.4058754001
 30
0.0
 10
5.0927210041
 20
5.4167046046
 30
0.0
 10
5.0931121137
 20
5.4275451759
 30
0.0
 10
5.0938783972
 20
5.4420102074
 30
0.0
 10
5.0953233288
 20
5.4600628237
 30
0.0
 10
5.0979189076
 20
5.4816103971
 30
0.0
 10
5.1014548854
 20
5.5029560289
 30
0.0
 10
5.1060353526
 20
5.5240088447
 30
0.0
 10
5.1118136525
 20
5.5446690127
 30
0.0
 10
5.1177521258
 20
5.5614844261
 30
0.0
 10
5.1232402971
 20
5.5746176724
 30
0.0
 10
5.1292441333
 20
5.5875279687
 30
0.0
 10
5.1377123964
 20
5.6032273181
 30
0.0
 10
5.1493696016
 20
5.6212261652
 30
0.0
 10
5.1624916903
 20
5.6382794155
 30
0.0
 10
5.1770325793
 20
5.6542459498
 30
0.0
 10
5.1928685201
 20
5.6690074942
 30
0.0
 10
5.2098449518
 20
5.6824416708
 30
0.0
 10
5.2278015846
 20
5.6944091125
 30
0.0
 10
5.2465455123
 20
5.7047596358
 30
0.0
 10
5.2658529478
 20
5.713315664
 30
0.0
 10
5.2854729825
 20
5.7198700482
 30
0.0
 10
5.3051463828
 20
5.7242065987
 30
0.0
 10
5.3245951017
 20
5.7261063373
 30
0.0
 10
5.3405028604
 20
5.7254687676
 30
0.0
 10
5.3527499391
 20
5.7234887669
 30
0.0
 10
5.3616086706
 20
5.7212671578
 30
0.0
 10
5.3701644541
 20
5.7182711975
 30
0.0
 10
5.3783710339
 20
5.7144709816
 30
0.0
 10
5.38618249
 20
5.7098615877
 30
0.0
 10
5.3935624161
 20
5.7044635251
 30
0.0
 10
5.4004707422
 20
5.6982941358
 30
0.0
 10
5.4068599475
 20
5.6913746756
 30
0.0
 10
5.4126957384
 20
5.6837551099
 30
0.0
 10
5.4179496166
 20
5.6754991485
 30
0.0
 10
5.4225869773
 20
5.6666719684
 30
0.0
 10
5.4265660528
 20
5.6573513159
 30
0.0
 10
5.4298664525
 20
5.6476457348
 30
0.0
 10
5.4315993839
 20
5.6409987122
 30
0.0
 10
5.4323466814
 20
5.6376410778
 30
0.0
  0
SPLINE
  5
290
100
AcDbEntity
  8
0
100
AcDbSpline
 62
7
  6
CONTINUOUS
 70
0
 71
3
 72
51
 73
47
 74
0
 42
0.0000001
 43
0.0000001
 44
0.0000000001
 40
0.0
 40
0.0
 40
0.0
 40
0.0
 40
0.0163793134
 40
0.0326835553
 40
0.0489523691
 40
0.0652161068
 40
0.0814930166
 40
0.0977886177
 40
0.1141057639
 40
0.1304455912
 40
0.1468019641
 40
0.1631634718
 40
0.1958607836
 40
0.2284747914
 40
0.2609719152
 40
0.2933328715
 40
0.325556957
 40
0.3576879847
 40
0.3737490606
 40
0.3898180942
 40
0.4219867226
 40
0.4542326566
 40
0.4866006159
 40
0.5191174111
 40
0.5517023431
 40
0.5842462689
 40
0.6166420022
 40
0.6487201083
 40
0.6802201372
 40
0.7109246461
 40
0.7406970916
 40
0.7694750776
 40
0.7973271071
 40
0.8110027667
 40
0.8245820803
 40
0.8381461166
 40
0.8517737675
 40
0.8655364355
 40
0.8795054636
 40
0.8937444178
 40
0.908276511
 40
0.9231032539
 40
0.9382167013
 40
0.9535761297
 40
0.9690769494
 40
1.0
 40
1.0
 40
1.0
 40
1.0
 10
5.7212018634
 20
4.7041498447
 30
0.0
 10
5.7249080567
 20
4.7036108452
 30
0.0
 10
5.7323265458
 20
4.7026895312
 30
0.0
 10
5.7434786073
 20
4.7017102917
 30
0.0
 10
5.7546280041
 20
4.7010655313
 30
0.0
 10
5.7657824685
 20
4.7006791799
 30
0.0
 10
5.7769479285
 20
4.7004896261
 30
0.0
 10
5.7881271239
 20
4.7004783721
 30
0.0
 10
5.7993196505
 20
4.7006223754
 30
0.0
 10
5.810523618
 20
4.7008944047
 30
0.0
 10
5.82173399
 20
4.701295028
 30
0.0
 10
5.836673442
 20
4.70203474
 30
0.0
 10
5.8553026257
 20
4.7033946624
 30
0.0
 10
5.8775334631
 20
4.7058962857
 30
0.0
 10
5.899546934
 20
4.709441779
 30
0.0
 10
5.9212460053
 20
4.7141840643
 30
0.0
 10
5.9425260015
 20
4.7202593681
 30
0.0
 10
5.9598236377
 20
4.7265511507
 30
0.0
 10
5.9733147909
 20
4.7323815485
 30
0.0
 10
5.9865678224
 20
4.738754016
 30
0.0
 10
6.0026587533
 20
4.7477294576
 30
0.0
 10
6.0210564884
 20
4.7600720172
 30
0.0
 10
6.0384221538
 20
4.7739598979
 30
0.0
 10
6.0546010343
 20
4.7893261131
 30
0.0
 10
6.0694737923
 20
4.8060124653
 30
0.0
 10
6.0828955308
 20
4.8238526423
 30
0.0
 10
6.0947090585
 20
4.8426604642
 30
0.0
 10
6.104740064
 20
4.8622111583
 30
0.0
 10
6.1127757291
 20
4.8822519268
 30
0.0
 10
6.1185840752
 20
4.9025071702
 30
0.0
 10
6.1219232502
 20
4.9226934437
 30
0.0
 10
6.1225575307
 20
4.942502729
 30
0.0
 10
6.1206012302
 20
4.9585414078
 30
0.0
 10
6.1174144007
 20
4.9707484193
 30
0.0
 10
6.1142093421
 20
4.9795305234
 30
0.0
 10
6.1101435669
 20
4.9879373857
 30
0.0
 10
6.1052242471
 20
4.9959243183
 30
0.0
 10
6.0994718284
 20
5.0034503578
 30
0.0
 10
6.0929054366
 20
5.0104703658
 30
0.0
 10
6.0855546926
 20
5.0169325472
 30
0.0
 10
6.0774841187
 20
5.0228067562
 30
0.0
 10
6.0687616651
 20
5.0280579313
 30
0.0
 10
6.0594615793
 20
5.032643963
 30
0.0
 10
6.0496802876
 20
5.0365262866
 30
0.0
 10
6.0361852647
 20
5.0407324393
 30
0.0
 10
6.025714315
 20
5.0427681611
 30
0.0
 10
6.0186910693
 20
5.0435855765
 30
0.0
  0
SPLINE
  5
291
100
AcDbEntity
  8
0
100
AcDbSpline
 62
7
  6
CONTINUOUS
 70
0
 71
3
 72
69
 73
65
 74
0
 42
0.0000001
 43
0.0000001
 44
0.0000000001
 40
0.0
 40
0.0
 40
0.0
 40
0.0
 40
0.0189841641
 40
0.0363297931
 40
0.0522245603
 40
0.066846027
 40
0.0803573317
 40
0.0929030406
 40
0.1046149062
 40
0.1156201257
 40
0.1260368248
 40
0.1359704826
 40
0.1455108395
 40
0.154729635
 40
0.1636794494
 40
0.1723992291
 40
0.1809403436
 40
0.1893524627
 40
0.2059236615
 40
0.222323082
 40
0.2386077528
 40
0.2548528818
 40
0.2711431135
 40
0.2874896977
 40
0.320173729
 40
0.3525844118
 40
0.3841308435
 40
0.3994081677
 40
0.4142690535
 40
0.4286595417
 40
0.4425544477
 40
0.4688397067
 40
0.4812931562
 40
0.4933514183
 40
0.5050925207
 40
0.5166197775
 40
0.5280359382
 40
0.539418473
 40
0.5508436478
 40
0.5623868091
 40
0.5740913169
 40
0.5859670149
 40
0.5980194801
 40
0.6102545998
 40
0.6226761493
 40
0.6352818204
 40
0.660999288
 40
0.6741368066
 40
0.6874591125
 40
0.7009845985
 40
0.7147476812
 40
0.7287965292
 40
0.7431641826
 40
0.7728830144
 40
0.7882431401
 40
0.8039062587
 40
0.8198445947
 40
0.8360266292
 40
0.8524154634
 40
0.8689646258
 40
0.9023119256
 40
0.9355682734
 40
0.9682021078
 40
1.0
 40
1.0
 40
1.0
 40
1.0
 10
6.0657678589
 20
5.1640548946
 30
0.0
 10
6.0658232438
 20
5.1668892489
 30
0.0
 10
6.0661184908
 20
5.1723124622
 30
0.0
 10
6.0671565703
 20
5.1800501623
 30
0.0
 10
6.0687027105
 20
5.1870373607
 30
0.0
 10
6.0706903556
 20
5.1933138194
 30
0.0
 10
6.0730537503
 20
5.1989191471
 30
0.0
 10
6.0757228077
 20
5.2038971057
 30
0.0
 10
6.07865173
 20
5.2082835226
 30
0.0
 10
6.081807783
 20
5.2121055027
 30
0.0
 10
6.0851548327
 20
5.2153921297
 30
0.0
 10
6.0886570907
 20
5.2181725979
 30
0.0
 10
6.092278478
 20
5.2204767906
 30
0.0
 10
6.0959831449
 20
5.2223351846
 30
0.0
 10
6.0997363772
 20
5.223778787
 30
0.0
 10
6.1035093094
 20
5.2248404923
 30
0.0
 10
6.1072841025
 20
5.2255400282
 30
0.0
 10
6.1122730229
 20
5.2260159952
 30
0.0
 10
6.1184790845
 20
5.2258220382
 30
0.0
 10
6.1257350262
 20
5.2244796139
 30
0.0
 10
6.1326982569
 20
5.2222032998
 30
0.0
 10
6.1393256111
 20
5.2191306499
 30
0.0
 10
6.1456081712
 20
5.2153926592
 30
0.0
 10
6.1535328085
 20
5.2096881538
 30
0.0
 10
6.1625915731
 20
5.2015222849
 30
0.0
 10
6.1723459606
 20
5.1908735873
 30
0.0
 10
6.1799025781
 20
5.1817672042
 30
0.0
 10
6.1857493199
 20
5.1746494759
 30
0.0
 10
6.1900139926
 20
5.1695475896
 30
0.0
 10
6.1942502636
 20
5.1646914494
 30
0.0
 10
6.1998007635
 20
5.1587255078
 30
0.0
 10
6.2055310383
 20
5.1533137815
 30
0.0
 10
6.2115914463
 20
5.1487395122
 30
0.0
 10
6.216172187
 20
5.1458414183
 30
0.0
 10
6.2208803426
 20
5.1434430753
 30
0.0
 10
6.2257232488
 20
5.1415785401
 30
0.0
 10
6.2306899185
 20
5.1402694669
 30
0.0
 10
6.23575521
 20
5.1395163893
 30
0.0
 10
6.2408917029
 20
5.1393255489
 30
0.0
 10
6.2460658502
 20
5.1397028204
 30
0.0
 10
6.2512357751
 20
5.1406427175
 30
0.0
 10
6.2563530155
 20
5.1421348411
 30
0.0
 10
6.2613651555
 20
5.1441701473
 30
0.0
 10
6.2662170213
 20
5.1467409429
 30
0.0
 10
6.2708602906
 20
5.14982407
 30
0.0
 10
6.2767494121
 20
5.1546065696
 30
0.0
 10
6.2820026335
 20
5.1602897184
 30
0.0
 10
6.2864432532
 20
5.166702574
 30
0.0
 10
6.2893642357
 20
5.1719215288
 30
0.0
 10
6.2918025676
 20
5.1774848193
 30
0.0
 10
6.2937118768
 20
5.1833650331
 30
0.0
 10
6.2951024199
 20
5.1895168035
 30
0.0
 10
6.2962962301
 20
5.1981238732
 30
0.0
 10
6.2964734802
 20
5.2070366498
 30
0.0
 10
6.2957500472
 20
5.2160821263
 30
0.0
 10
6.2947493224
 20
5.2230281482
 30
0.0
 10
6.2933079227
 20
5.2300205769
 30
0.0
 10
6.2914442307
 20
5.2370242742
 30
0.0
 10
6.2891947583
 20
5.244009083
 30
0.0
 10
6.2857167024
 20
5.2532794609
 30
0.0
 10
6.2805970293
 20
5.2646089209
 30
0.0
 10
6.2734778069
 20
5.277619954
 30
0.0
 10
6.2656002408
 20
5.2899110638
 30
0.0
 10
6.2598344101
 20
5.2976267489
 30
0.0
 10
6.2568466352
 20
5.3013172976
 30
0.0
  0
SPLINE
  5
292
100
AcDbEntity
  8
0
100
AcDbSpline
 62
7
  6
CONTINUOUS
 70
0
 71
3
 72
21
 73
17
 74
0
 42
0.0000001
 43
0.0000001
 44
0.0000000001
 40
0.0
 40
0.0
 40
0.0
 40
0.0
 40
0.1265890529
 40
0.2529314829
 40
0.3783845578
 40
0.4407589035
 40
0.5029404009
 40
0.5650353367
 40
0.6271480604
 40
0.689274986
 40
0.7514031506
 40
0.813536261
 40
0.8446179322
 40
0.8757088375
 40
0.93788063
 40
1.0
 40
1.0
 40
1.0
 40
1.0
 10
6.1158235144
 20
4.7149875135
 30
0.0
 10
6.1249223663
 20
4.7238306756
 30
0.0
 10
6.1423861923
 20
4.7422601733
 30
0.0
 10
6.1658480451
 20
4.7721307578
 30
0.0
 10
6.18260326
 20
4.7988837408
 30
0.0
 10
6.1939040501
 20
4.8212661724
 30
0.0
 10
6.201230241
 20
4.8384962895
 30
0.0
 10
6.2073239086
 20
4.856173769
 30
0.0
 10
6.2120968293
 20
4.8742478719
 30
0.0
 10
6.215522727
 20
4.8926285262
 30
0.0
 10
6.2175625251
 20
4.9112162657
 30
0.0
 10
6.2180759023
 20
4.9267949737
 30
0.0
 10
6.2177553141
 20
4.9392529839
 30
0.0
 10
6.2169434866
 20
4.9516926235
 30
0.0
 10
6.215019486
 20
4.9671638768
 30
0.0
 10
6.2125273227
 20
4.979384599
 30
0.0
 10
6.211047721
 20
4.9854325568
 30
0.0
  0
SPLINE
  5
293
100
AcDbEntity
  8
0
100
AcDbSpline
 62
7
  6
CONTINUOUS
 70
0
 71
3
 72
44
 73
40
 74
0
 42
0.0000001
 43
0.0000001
 44
0.0000000001
 40
0.0
 40
0.0
 40
0.0
 40
0.0
 40
0.0311833612
 40
0.0625418518
 40
0.0782595034
 40
0.0939741064
 40
0.1096669028
 40
0.1253267044
 40
0.1409670411
 40
0.1566016041
 40
0.1878675623
 40
0.2191366148
 40
0.2503677648
 40
0.2815866647
 40
0.3128132674
 40
0.3440405507
 40
0.37525863
 40
0.406474291
 40
0.4376937033
 40
0.4689239378
 40
0.500163596
 40
0.5314023814
 40
0.5470234178
 40
0.5626436085
 40
0.5782643805
 40
0.5938879793
 40
0.6095159222
 40
0.625148407
 40
0.6564155251
 40
0.687679239
 40
0.7033051138
 40
0.7189202735
 40
0.7501296115
 40
0.7813573368
 40
0.8126189597
 40
0.8438996223
 40
0.8751597637
 40
0.9375814253
 40
1.0
 40
1.0
 40
1.0
 40
1.0
 10
6.3942018634
 20
5.4741498447
 30
0.0
 10
6.40576111
 20
5.4704558781
 30
0.0
 10
6.4284612158
 20
5.4614502994
 30
0.0
 10
6.4551693626
 20
5.4466446537
 30
0.0
 10
6.4753606986
 20
5.4328593917
 30
0.0
 10
6.4898502438
 20
5.4215983651
 30
0.0
 10
6.5036016002
 20
5.4094814966
 30
0.0
 10
6.516554094
 20
5.3965554917
 30
0.0
 10
6.5286949431
 20
5.3828953393
 30
0.0
 10
6.5437962932
 20
5.3637948506
 30
0.0
 10
6.5606519778
 20
5.3383950015
 30
0.0
 10
6.5776265939
 20
5.3060285655
 30
0.0
 10
6.5913943153
 20
5.2721968676
 30
0.0
 10
6.6019689098
 20
5.2372574611
 30
0.0
 10
6.6093975516
 20
5.2015219414
 30
0.0
 10
6.6137323932
 20
5.1652837975
 30
0.0
 10
6.6150089797
 20
5.1288149808
 30
0.0
 10
6.6132369113
 20
5.0923702069
 30
0.0
 10
6.6084334465
 20
5.0561950076
 30
0.0
 10
6.6006094202
 20
5.0205403322
 30
0.0
 10
6.5898074783
 20
4.985665492
 30
0.0
 10
6.5783746823
 20
4.9574615503
 30
0.0
 10
6.5678046797
 20
4.9355579596
 30
0.0
 10
6.559170825
 20
4.919487842
 30
0.0
 10
6.5498391467
 20
4.903811635
 30
0.0
 10
6.539819372
 20
4.8885624838
 30
0.0
 10
6.5291410293
 20
4.8737613406
 30
0.0
 10
6.5140641449
 20
4.8546542607
 30
0.0
 10
6.4937124037
 20
4.8319963316
 30
0.0
 10
6.4715440026
 20
4.8111184318
 30
0.0
 10
6.4528319301
 20
4.7955681888
 30
0.0
 10
6.4335079443
 20
4.7808199705
 30
0.0
 10
6.4082533484
 20
4.7638815098
 30
0.0
 10
6.3764819085
 20
4.7459234371
 30
0.0
 10
6.3434854927
 20
4.7302720122
 30
0.0
 10
6.3095046456
 20
4.7168653519
 30
0.0
 10
6.2632041746
 20
4.7019053547
 30
0.0
 10
6.2038310308
 20
4.6884331122
 30
0.0
 10
6.155523126
 20
4.6825780207
 30
0.0
 10
6.1313050045
 20
4.6807048526
 30
0.0
  0
SPLINE
  5
294
100
AcDbEntity
  8
0
100
AcDbSpline
 62
7
  6
CONTINUOUS
 70
0
 71
3
 72
15
 73
11
 74
0
 42
0.0000001
 43
0.0000001
 44
0.0000000001
 40
0.0
 40
0.0
 40
0.0
 40
0.0
 40
0.1249540681
 40
0.250091377
 40
0.3754692827
 40
0.5010589429
 40
0.6264744246
 40
0.751413602
 40
0.8758322928
 40
1.0
 40
1.0
 40
1.0
 40
1.0
 10
6.2642482771
 20
5.4773640722
 30
0.0
 10
6.2696259348
 20
5.4783335554
 30
0.0
 10
6.2804315651
 20
5.4800468559
 30
0.0
 10
6.2967496121
 20
5.4819152773
 30
0.0
 10
6.3131624307
 20
5.4830605475
 30
0.0
 10
6.3296236817
 20
5.4834620328
 30
0.0
 10
6.3460661982
 20
5.4829623097
 30
0.0
 10
6.3623943853
 20
5.4813967238
 30
0.0
 10
6.3785050295
 20
5.4786000462
 30
0.0
 10
6.3890295905
 20
5.4758027382
 30
0.0
 10
6.3942018634
 20
5.4741498447
 30
0.0
  0
SPLINE
  5
295
100
AcDbEntity
  8
0
100
AcDbSpline
 62
7
  6
CONTINUOUS
 70
0
 71
3
 72
47
 73
43
 74
0
 42
0.0000001
 43
0.0000001
 44
0.0000000001
 40
0.0
 40
0.0
 40
0.0
 40
0.0
 40
0.0313894719
 40
0.0627451207
 40
0.0939542388
 40
0.1249952684
 40
0.1404822416
 40
0.1559718447
 40
0.1869680521
 40
0.2024668951
 40
0.2179553391
 40
0.2334389269
 40
0.2489270712
 40
0.2644221689
 40
0.279920015
 40
0.2954111753
 40
0.310888508
 40
0.3418641886
 40
0.3729671745
 40
0.3885682542
 40
0.4041837416
 40
0.4353700636
 40
0.4663774132
 40
0.4972688931
 40
0.5281626538
 40
0.5591559354
 40
0.5747160606
 40
0.5903266389
 40
0.6216696292
 40
0.6531157619
 40
0.6846006919
 40
0.7160753456
 40
0.7475089148
 40
0.7788920812
 40
0.8102403863
 40
0.8415975925
 40
0.87303878
 40
0.8888268347
 40
0.90466613
 40
0.9364385997
 40
0.9682518577
 40
1.0
 40
1.0
 40
1.0
 40
1.0
 10
6.2303710705
 20
5.010185023
 30
0.0
 10
6.2365365863
 20
5.0102170016
 30
0.0
 10
6.2488633835
 20
5.0106477423
 30
0.0
 10
6.2672343276
 20
5.0125749494
 30
0.0
 10
6.2853267068
 20
5.015974159
 30
0.0
 10
6.3000291834
 20
5.0202009842
 30
0.0
 10
6.3114317928
 20
5.0245046257
 30
0.0
 10
6.3225596949
 20
5.0294515485
 30
0.0
 10
6.3332276629
 20
5.0353964426
 30
0.0
 10
6.3432514742
 20
5.042318781
 30
0.0
 10
6.3504067108
 20
5.047998393
 30
0.0
 10
6.3571459737
 20
5.0541628981
 30
0.0
 10
6.3634346644
 20
5.0607879065
 30
0.0
 10
6.3692620658
 20
5.0678250043
 30
0.0
 10
6.3746129816
 20
5.0752311596
 30
0.0
 10
6.3794745195
 20
5.0829632681
 30
0.0
 10
6.385288447
 20
5.0936594316
 30
0.0
 10
6.3913447194
 20
5.1076761803
 30
0.0
 10
6.3958984779
 20
5.1222649968
 30
0.0
 10
6.3987381522
 20
5.1341752705
 30
0.0
 10
6.4010706543
 20
5.1462119845
 30
0.0
 10
6.4030833991
 20
5.1613777331
 30
0.0
 10
6.4042349954
 20
5.1796385393
 30
0.0
 10
6.4041775047
 20
5.197877912
 30
0.0
 10
6.4029770955
 20
5.2160731274
 30
0.0
 10
6.4010830928
 20
5.2311760095
 30
0.0
 10
6.3990674651
 20
5.2432201086
 30
0.0
 10
6.3967234059
 20
5.2552746147
 30
0.0
 10
6.393184963
 20
5.2702702829
 30
0.0
 10
6.3879479547
 20
5.2880417449
 30
0.0
 10
6.3816922176
 20
5.3055094684
 30
0.0
 10
6.3743953217
 20
5.3225670604
 30
0.0
 10
6.3660345651
 20
5.3391084213
 30
0.0
 10
6.3565869774
 20
5.3550270314
 30
0.0
 10
6.3460291116
 20
5.3702162385
 30
0.0
 10
6.3343379912
 20
5.3845679414
 30
0.0
 10
6.3236443134
 20
5.3957265688
 30
0.0
 10
6.3145201778
 20
5.4041109421
 30
0.0
 10
6.3049959468
 20
5.41213902
 30
0.0
 10
6.2924363415
 20
5.4214279014
 30
0.0
 10
6.2764758273
 20
5.431261341
 30
0.0
 10
6.2653055244
 20
5.4368803451
 30
0.0
 10
6.2596151301
 20
5.4394313701
 30
0.0
  0
SPLINE
  5
296
100
AcDbEntity
  8
0
100
AcDbSpline
 62
7
  6
CONTINUOUS
 70
0
 71
3
 72
45
 73
41
 74
0
 42
0.0000001
 43
0.0000001
 44
0.0000000001
 40
0.0
 40
0.0
 40
0.0
 40
0.0
 40
0.0619270379
 40
0.1238539166
 40
0.1549192381
 40
0.1861785762
 40
0.2175398757
 40
0.2488583175
 40
0.2800657996
 40
0.2956387673
 40
0.3112043121
 40
0.3267845926
 40
0.3423990128
 40
0.3580485187
 40
0.3737287775
 40
0.4051386867
 40
0.4365689956
 40
0.4522732403
 40
0.4679537885
 40
0.4836040349
 40
0.4992293232
 40
0.5304517684
 40
0.5617179175
 40
0.5930566113
 40
0.6244548239
 40
0.6558708104
 40
0.6872535036
 40
0.7185695939
 40
0.7498186285
 40
0.7810460003
 40
0.7966884212
 40
0.812363229
 40
0.8437751933
 40
0.8752210003
 40
0.9066106244
 40
0.9222658047
 40
0.9378802354
 40
0.953450279
 40
0.9689839882
 40
1.0
 40
1.0
 40
1.0
 40
1.0
 10
5.2962018634
 20
5.1031498447
 30
0.0
 10
5.2873740886
 20
5.0984292259
 30
0.0
 10
5.2697761465
 20
5.0888770732
 30
0.0
 10
5.2485529818
 20
5.0755060677
 30
0.0
 10
5.2325527487
 20
5.0633406602
 30
0.0
 10
5.2211703932
 20
5.0533288608
 30
0.0
 10
5.2105807083
 20
5.042420596
 30
0.0
 10
5.2009848925
 20
5.0306353023
 30
0.0
 10
5.1939920668
 20
5.0200939169
 30
0.0
 10
5.1891248089
 20
5.0112634695
 30
0.0
 10
5.1858636782
 20
5.0044465924
 30
0.0
 10
5.1830203784
 20
4.997437551
 30
0.0
 10
5.1806169419
 20
4.9902515211
 30
0.0
 10
5.1786495908
 20
4.9829174136
 30
0.0
 10
5.176609197
 20
4.972977616
 30
0.0
 10
5.1751556238
 20
4.9603373936
 30
0.0
 10
5.1751670986
 20
4.9476103796
 30
0.0
 10
5.1760595438
 20
4.9374905598
 30
0.0
 10
5.1771709145
 20
4.9299642396
 30
0.0
 10
5.1787275979
 20
4.9225301677
 30
0.0
 10
5.181387749
 20
4.9127785195
 30
0.0
 10
5.1857693788
 20
4.9009040486
 30
0.0
 10
5.1925710578
 20
4.8873152607
 30
0.0
 10
5.2007792189
 20
4.8744945395
 30
0.0
 10
5.2102592385
 20
4.8625551285
 30
0.0
 10
5.2208752785
 20
4.8516043153
 30
0.0
 10
5.2325167742
 20
4.841769562
 30
0.0
 10
5.2450840825
 20
4.8331931593
 30
0.0
 10
5.2584734317
 20
4.8260169297
 30
0.0
 10
5.2702302741
 20
4.8213243449
 30
0.0
 10
5.2799205653
 20
4.8184209424
 30
0.0
 10
5.2897971177
 20
4.8160999091
 30
0.0
 10
5.3023950697
 20
4.8142952015
 30
0.0
 10
5.3176567975
 20
4.813885103
 30
0.0
 10
5.3303268823
 20
4.8150101032
 30
0.0
 10
5.3403021866
 20
4.8167967139
 30
0.0
 10
5.3476663285
 20
4.8185782703
 30
0.0
 10
5.3548878705
 20
4.8208059525
 30
0.0
 10
5.3642849781
 20
4.8243593794
 30
0.0
 10
5.3710806031
 20
4.8276387455
 30
0.0
 10
5.3754752323
 20
4.8300523974
 30
0.0
  0
SPLINE
  5
297
100
AcDbEntity
  8
0
100
AcDbSpline
 62
7
  6
CONTINUOUS
 70
0
 71
3
 72
26
 73
22
 74
0
 42
0.0000001
 43
0.0000001
 44
0.0000000001
 40
0.0
 40
0.0
 40
0.0
 40
0.0
 40
0.0628587772
 40
0.0943771119
 40
0.1258776715
 40
0.1573064059
 40
0.1886234527
 40
0.2198713984
 40
0.251105484
 40
0.3136278899
 40
0.3762619414
 40
0.4075690104
 40
0.438813303
 40
0.4699984538
 40
0.5011497643
 40
0.5634223597
 40
0.6257531664
 40
0.6881900979
 40
0.7507233112
 40
0.8757782772
 40
1.0
 40
1.0
 40
1.0
 40
1.0
 10
6.2752640691
 20
5.6204814437
 30
0.0
 10
6.2643944972
 20
5.6307609757
 30
0.0
 10
6.2491228483
 20
5.6473551362
 30
0.0
 10
6.2310972118
 20
5.6713014361
 30
0.0
 10
6.218765289
 20
5.690116131
 30
0.0
 10
6.2077018368
 20
5.7096466499
 30
0.0
 10
6.1979670069
 20
5.729805381
 30
0.0
 10
6.1895263112
 20
5.750487475
 30
0.0
 10
6.1799059894
 20
5.7786552946
 30
0.0
 10
6.17077495
 20
5.8148116146
 30
0.0
 10
6.1650644168
 20
5.851657226
 30
0.0
 10
6.1622673553
 20
5.8813254837
 30
0.0
 10
6.1609872696
 20
5.9036031838
 30
0.0
 10
6.1604857513
 20
5.9258743124
 30
0.0
 10
6.1608120054
 20
5.955534293
 30
0.0
 10
6.1630000721
 20
5.9925651091
 30
0.0
 10
6.1681984317
 20
6.0367980402
 30
0.0
 10
6.1756913493
 20
6.0807601045
 30
0.0
 10
6.1883724144
 20
6.1389170885
 30
0.0
 10
6.2085226669
 20
6.2104099896
 30
0.0
 10
6.2279265351
 20
6.2664991831
 30
0.0
 10
6.2381293493
 20
6.2942478849
 30
0.0
  0
SPLINE
  5
298
100
AcDbEntity
  8
0
100
AcDbSpline
 62
7
  6
CONTINUOUS
 70
0
 71
3
 72
51
 73
47
 74
0
 42
0.0000001
 43
0.0000001
 44
0.0000000001
 40
0.0
 40
0.0
 40
0.0
 40
0.0
 40
0.0312414225
 40
0.0624952044
 40
0.0781245993
 40
0.0937519502
 40
0.1093767746
 40
0.1249994534
 40
0.1406215302
 40
0.1562438247
 40
0.1718654027
 40
0.1874838878
 40
0.2031005994
 40
0.2187197641
 40
0.2343420073
 40
0.249964331
 40
0.2655811012
 40
0.2811924972
 40
0.3124144809
 40
0.3280322689
 40
0.343655622
 40
0.359283989
 40
0.3749136584
 40
0.3905408144
 40
0.4061632101
 40
0.4217803236
 40
0.4373935078
 40
0.4530061406
 40
0.468622856
 40
0.4842459604
 40
0.4998761827
 40
0.5311535419
 40
0.5624449197
 40
0.5937245192
 40
0.6249791694
 40
0.6562296687
 40
0.6874897207
 40
0.7187618259
 40
0.7500383673
 40
0.7656737927
 40
0.7813048667
 40
0.8125576677
 40
0.8438052571
 40
0.8750520521
 40
0.9375411065
 40
1.0
 40
1.0
 40
1.0
 40
1.0
 10
5.9993302099
 20
6.2940072776
 30
0.0
 10
6.0049478989
 20
6.2793144306
 30
0.0
 10
6.0150602546
 20
6.249479312
 30
0.0
 10
6.0247879646
 20
6.2113226031
 30
0.0
 10
6.0307660039
 20
6.1804142084
 30
0.0
 10
6.0343325099
 20
6.1570736956
 30
0.0
 10
6.0369672659
 20
6.1336132393
 30
0.0
 10
6.038651269
 20
6.1100679278
 30
0.0
 10
6.0393904029
 20
6.0864756275
 30
0.0
 10
6.0392105537
 20
6.0628733418
 30
0.0
 10
6.0381345012
 20
6.0392969399
 30
0.0
 10
6.0361809888
 20
6.0157800872
 30
0.0
 10
6.0333895698
 20
5.9923497961
 30
0.0
 10
6.0298282058
 20
5.9690229412
 30
0.0
 10
6.0255591257
 20
5.9458128769
 30
0.0
 10
6.0206449431
 20
5.9227326516
 30
0.0
 10
6.0151502351
 20
5.8997896472
 30
0.0
 10
6.0071060635
 20
5.8693897722
 30
0.0
 10
5.9980405503
 20
5.8392687741
 30
0.0
 10
5.9880833485
 20
5.8094348832
 30
0.0
 10
5.9801955777
 20
5.7871917074
 30
0.0
 10
5.9719260169
 20
5.7650814873
 30
0.0
 10
5.9632533049
 20
5.7431238747
 30
0.0
 10
5.9541429377
 20
5.7213471878
 30
0.0
 10
5.9445642842
 20
5.6997789836
 30
0.0
 10
5.9344856845
 20
5.6784472457
 30
0.0
 10
5.9238758759
 20
5.6573798206
 30
0.0
 10
5.9127031307
 20
5.636605176
 30
0.0
 10
5.9009393884
 20
5.616153572
 30
0.0
 10
5.8886097218
 20
5.5960278216
 30
0.0
 10
5.8714449178
 20
5.5696301861
 30
0.0
 10
5.8486946419
 20
5.5374718504
 30
0.0
 10
5.8195290651
 20
5.5002715806
 30
0.0
 10
5.788674775
 20
5.4644761806
 30
0.0
 10
5.7562974815
 20
5.4300835674
 30
0.0
 10
5.7225608679
 20
5.3970403385
 30
0.0
 10
5.6876089577
 20
5.3652750345
 30
0.0
 10
5.6515846358
 20
5.3347139274
 30
0.0
 10
5.6207860157
 20
5.3101863509
 30
0.0
 10
5.5957468515
 20
5.291087946
 30
0.0
 10
5.5704660472
 20
5.2723305328
 30
0.0
 10
5.5384218858
 20
5.2495025435
 30
0.0
 10
5.4993238425
 20
5.2230492439
 30
0.0
 10
5.4464182768
 20
5.1889654656
 30
0.0
 10
5.378984925
 20
5.1484553033
 30
0.0
 10
5.3239340566
 20
5.1179795292
 30
0.0
 10
5.2962018634
 20
5.1031498447
 30
0.0
  0
SPLINE
  5
299
100
AcDbEntity
  8
0
100
AcDbSpline
 62
7
  6
CONTINUOUS
 70
0
 71
3
 72
33
 73
29
 74
0
 42
0.0000001
 43
0.0000001
 44
0.0000000001
 40
0.0
 40
0.0
 40
0.0
 40
0.0
 40
0.0629195435
 40
0.0946070039
 40
0.1263751053
 40
0.1899172806
 40
0.2216256574
 40
0.2532204373
 40
0.3158988936
 40
0.3469922863
 40
0.3779172909
 40
0.3933321294
 40
0.4087359417
 40
0.4395844244
 40
0.4705757406
 40
0.5017492295
 40
0.5330912638
 40
0.5645500812
 40
0.5960499129
 40
0.627516906
 40
0.658925734
 40
0.6902647088
 40
0.7215244488
 40
0.7526987471
 40
0.8147841404
 40
0.8765697495
 40
0.938211457
 40
1.0
 40
1.0
 40
1.0
 40
1.0
 10
6.2839556401
 20
5.9640124353
 30
0.0
 10
6.2818354926
 20
5.949763008
 30
0.0
 10
6.2801849844
 20
5.9280730187
 30
0.0
 10
6.2809060888
 20
5.8991321042
 30
0.0
 10
6.2835558016
 20
5.8701573408
 30
0.0
 10
6.289058969
 20
5.8414984917
 30
0.0
 10
6.297352258
 20
5.813645526
 30
0.0
 10
6.3074423927
 20
5.7866048453
 30
0.0
 10
6.3202707222
 20
5.7607927973
 30
0.0
 10
6.3357854678
 20
5.7367991281
 30
0.0
 10
6.3465622981
 20
5.7226932704
 30
0.0
 10
6.355826926
 20
5.7120108515
 30
0.0
 10
6.365487741
 20
5.7017094958
 30
0.0
 10
6.3782695573
 20
5.689465571
 30
0.0
 10
6.3944935591
 20
5.6756555262
 30
0.0
 10
6.4114204916
 20
5.6625370595
 30
0.0
 10
6.4288604098
 20
5.6499303985
 30
0.0
 10
6.4466247277
 20
5.6376563633
 30
0.0
 10
6.4645273432
 20
5.6255352152
 30
0.0
 10
6.4823935066
 20
5.6133806458
 30
0.0
 10
6.5001663294
 20
5.6011546557
 30
0.0
 10
6.5177998411
 20
5.5888108939
 30
0.0
 10
6.5352506579
 20
5.5763014943
 30
0.0
 10
6.5581838605
 20
5.5593618184
 30
0.0
 10
6.5861888074
 20
5.5375291196
 30
0.0
 10
6.6184319794
 20
5.5098467288
 30
0.0
 10
6.648916388
 20
5.480325063
 30
0.0
 10
6.6677669986
 20
5.4592229104
 30
0.0
 10
6.6767439474
 20
5.4482884966
 30
0.0
  0
SPLINE
  5
29A
100
AcDbEntity
  8
0
100
AcDbSpline
 62
7
  6
CONTINUOUS
 70
0
 71
3
 72
22
 73
18
 74
0
 42
0.0000001
 43
0.0000001
 44
0.0000000001
 40
0.0
 40
0.0
 40
0.0
 40
0.0
 40
0.0652445552
 40
0.1290914971
 40
0.1917398384
 40
0.2534001986
 40
0.3142934499
 40
0.3746488867
 40
0.4347019644
 40
0.4946916985
 40
0.5548578595
 40
0.6154381232
 40
0.6766653429
 40
0.7387650949
 40
0.8019536116
 40
0.8664361733
 40
1.0
 40
1.0
 40
1.0
 40
1.0
 10
6.6953815421
 20
5.6936222263
 30
0.0
 10
6.6849882213
 20
5.6952958843
 30
0.0
 10
6.664505066
 20
5.699139168
 30
0.0
 10
6.6344409978
 20
5.7065024888
 30
0.0
 10
6.6053964526
 20
5.7153977245
 30
0.0
 10
6.5773734837
 20
5.7258253357
 30
0.0
 10
6.5503729863
 20
5.7377857924
 30
0.0
 10
6.5243963389
 20
5.7512792163
 30
0.0
 10
6.4994448666
 20
5.7663054147
 30
0.0
 10
6.4755198535
 20
5.7828638489
 30
0.0
 10
6.4526224023
 20
5.8009536834
 30
0.0
 10
6.4307533786
 20
5.8205738128
 30
0.0
 10
6.4099132749
 20
5.8417231085
 30
0.0
 10
6.3901025035
 20
5.8643999419
 30
0.0
 10
6.3713202468
 20
5.8886044923
 30
0.0
 10
6.3473725894
 20
5.9233104278
 30
0.0
 10
6.3313840553
 20
5.9510633743
 30
0.0
 10
6.3215196635
 20
5.9702237326
 30
0.0
  0
SPLINE
  5
29B
100
AcDbEntity
  8
0
100
AcDbSpline
 62
7
  6
CONTINUOUS
 70
0
 71
3
 72
30
 73
26
 74
0
 42
0.0000001
 43
0.0000001
 44
0.0000000001
 40
0.0
 40
0.0
 40
0.0
 40
0.0
 40
0.0311908
 40
0.0623641182
 40
0.0935300095
 40
0.1247146408
 40
0.1559223185
 40
0.18713732
 40
0.2183455052
 40
0.2495361543
 40
0.2807034744
 40
0.3118535368
 40
0.3430250916
 40
0.3742556873
 40
0.4369522922
 40
0.5000046874
 40
0.5632779177
 40
0.6265043675
 40
0.657994681
 40
0.6893539154
 40
0.7517146028
 40
0.813740687
 40
0.8756253944
 40
0.9376128822
 40
1.0
 40
1.0
 40
1.0
 40
1.0
 10
6.5561292337
 20
5.892045503
 30
0.0
 10
6.5513647259
 20
5.8939233782
 30
0.0
 10
6.5419235668
 20
5.8978993834
 30
0.0
 10
6.5280808753
 20
5.904563551
 30
0.0
 10
6.5146163018
 20
5.9119631301
 30
0.0
 10
6.5015992437
 20
5.9201363852
 30
0.0
 10
6.4890820193
 20
5.9290702198
 30
0.0
 10
6.4771114063
 20
5.9387303974
 30
0.0
 10
6.465739998
 20
5.9490854508
 30
0.0
 10
6.4550200814
 20
5.9601029148
 30
0.0
 10
6.445002276
 20
5.9717506414
 30
0.0
 10
6.4357396088
 20
5.9840033035
 30
0.0
 10
6.4272321914
 20
5.9968036558
 30
0.0
 10
6.4168654266
 20
6.0145465448
 30
0.0
 10
6.4057237599
 20
6.0378466902
 30
0.0
 10
6.3951784396
 20
6.0670839626
 30
0.0
 10
6.3873119275
 20
6.0972364678
 30
0.0
 10
6.382885517
 20
6.1228273841
 30
0.0
 10
6.3805672563
 20
6.1434020418
 30
0.0
 10
6.379061763
 20
6.1639096163
 30
0.0
 10
6.3787178317
 20
6.1895099715
 30
0.0
 10
6.3808592615
 20
6.2200550787
 30
0.0
 10
6.3856358319
 20
6.2502429021
 30
0.0
 10
6.3931260025
 20
6.2799352709
 30
0.0
 10
6.3999502824
 20
6.2992202599
 30
0.0
 10
6.4038196331
 20
6.3087046937
 30
0.0
  0
SPLINE
  5
29C
100
AcDbEntity
  8
0
100
AcDbSpline
 62
7
  6
CONTINUOUS
 70
0
 71
3
 72
35
 73
31
 74
0
 42
0.0000001
 43
0.0000001
 44
0.0000000001
 40
0.0
 40
0.0
 40
0.0
 40
0.0
 40
0.0335393914
 40
0.0663690249
 40
0.0984688466
 40
0.1298376569
 40
0.1605137726
 40
0.1905978198
 40
0.2202764893
 40
0.2350554981
 40
0.2498535416
 40
0.2647265265
 40
0.2797286418
 40
0.2948777937
 40
0.3101763786
 40
0.3411947835
 40
0.3727050016
 40
0.4045542586
 40
0.4365415349
 40
0.4684317921
 40
0.5000837244
 40
0.531547986
 40
0.5628841796
 40
0.6253314204
 40
0.6877026369
 40
0.7500894963
 40
0.812481532
 40
0.8749307353
 40
0.9374554495
 40
1.0
 40
1.0
 40
1.0
 40
1.0
 10
6.6918196775
 20
6.2610249066
 30
0.0
 10
6.6873789022
 20
6.2594059734
 30
0.0
 10
6.6785710841
 20
6.2562582004
 30
0.0
 10
6.6655032866
 20
6.2515883951
 30
0.0
 10
6.6527860561
 20
6.2468476498
 30
0.0
 10
6.640487342
 20
6.2418630425
 30
0.0
 10
6.6286748199
 20
6.2364599943
 30
0.0
 10
6.6174177962
 20
6.2304626482
 30
0.0
 10
6.608545325
 20
6.2248109902
 30
0.0
 10
6.6018330908
 20
6.2198378263
 30
0.0
 10
6.5969921944
 20
6.2158574533
 30
0.0
 10
6.5923488654
 20
6.2116010667
 30
0.0
 10
6.5879184511
 20
6.2070541874
 30
0.0
 10
6.5836955832
 20
6.2022343621
 30
0.0
 10
6.5783163057
 20
6.1954409056
 30
0.0
 10
6.5721195278
 20
6.1863719887
 30
0.0
 10
6.5655422102
 20
6.1747966267
 30
0.0
 10
6.5597829078
 20
6.1626438057
 30
0.0
 10
6.5548388939
 20
6.1500815855
 30
0.0
 10
6.550700895
 20
6.137261587
 30
0.0
 10
6.5473590518
 20
6.1242881397
 30
0.0
 10
6.5447986405
 20
6.111217822
 30
0.0
 10
6.5423912196
 20
6.0937238624
 30
0.0
 10
6.5411845611
 20
6.0717052511
 30
0.0
 10
6.5424083908
 20
6.0453111369
 30
0.0
 10
6.5460683518
 20
6.0191561311
 30
0.0
 10
6.5519424182
 20
5.9934022148
 30
0.0
 10
6.5598419077
 20
5.9681790722
 30
0.0
 10
6.5695793366
 20
5.9435888631
 30
0.0
 10
6.5771790203
 20
5.9276689123
 30
0.0
 10
6.5812279556
 20
5.9198395632
 30
0.0
  0
SPLINE
  5
29D
100
AcDbEntity
  8
0
100
AcDbSpline
 62
7
  6
CONTINUOUS
 70
0
 71
3
 72
21
 73
17
 74
0
 42
0.0000001
 43
0.0000001
 44
0.0000000001
 40
0.0
 40
0.0
 40
0.0
 40
0.0
 40
0.1265892958
 40
0.252931342
 40
0.3783842873
 40
0.4407587107
 40
0.5029403173
 40
0.5650352477
 40
0.6271479015
 40
0.6892747906
 40
0.751402932
 40
0.8135359726
 40
0.8446175549
 40
0.8757083905
 40
0.9378802404
 40
1.0
 40
1.0
 40
1.0
 40
1.0
 10
6.1107192995
 20
4.4872042521
 30
0.0
 10
6.1197806635
 20
4.4783495544
 30
0.0
 10
6.137168777
 20
4.4599003779
 30
0.0
 10
6.1605161118
 20
4.4300117493
 30
0.0
 10
6.1771762598
 20
4.4032547384
 30
0.0
 10
6.1884026034
 20
4.3808764868
 30
0.0
 10
6.1956741097
 20
4.36365336
 30
0.0
 10
6.2017144773
 20
4.3459869216
 30
0.0
 10
6.2064357286
 20
4.3279279408
 30
0.0
 10
6.2098118624
 20
4.30956631
 30
0.0
 10
6.2118041716
 20
4.2910013478
 30
0.0
 10
6.2122801558
 20
4.2754446214
 30
0.0
 10
6.2119311763
 20
4.2630058926
 30
0.0
 10
6.2110919397
 20
4.250586618
 30
0.0
 10
6.2091355771
 20
4.2351427097
 30
0.0
 10
6.20661972
 20
4.2229457009
 30
0.0
 10
6.2051288687
 20
4.216909979
 30
0.0
  0
SPLINE
  5
29E
100
AcDbEntity
  8
0
100
AcDbSpline
 62
7
  6
CONTINUOUS
 70
0
 71
3
 72
42
 73
38
 74
0
 42
0.0000001
 43
0.0000001
 44
0.0000000001
 40
0.0
 40
0.0
 40
0.0
 40
0.0
 40
0.0313960076
 40
0.0627574881
 40
0.0939719152
 40
0.1250182799
 40
0.1405082459
 40
0.1560012197
 40
0.1870037382
 40
0.2025055335
 40
0.2179969445
 40
0.2334836792
 40
0.2489751051
 40
0.2644734648
 40
0.2799744201
 40
0.2954684155
 40
0.3109487049
 40
0.3419318598
 40
0.3730429891
 40
0.3886478536
 40
0.4042666634
 40
0.4354574559
 40
0.4664681812
 40
0.4973650367
 40
0.5282660512
 40
0.5592682801
 40
0.5748334428
 40
0.5904491552
 40
0.621801337
 40
0.6532552882
 40
0.6847468365
 40
0.7162271866
 40
0.7476659311
 40
0.8103678551
 40
0.8731326923
 40
0.9364892614
 40
1.0
 40
1.0
 40
1.0
 40
1.0
 10
6.2244373211
 20
4.1921143157
 30
0.0
 10
6.2306082046
 20
4.1920809909
 30
0.0
 10
6.2429455288
 20
4.1916467197
 30
0.0
 10
6.2613314684
 20
4.1897111592
 30
0.0
 10
6.2794374091
 20
4.1863000234
 30
0.0
 10
6.2941494958
 20
4.1820598255
 30
0.0
 10
6.3055583594
 20
4.1777432907
 30
0.0
 10
6.3166914166
 20
4.1727819168
 30
0.0
 10
6.3273626077
 20
4.1668208422
 30
0.0
 10
6.3373869085
 20
4.1598807366
 30
0.0
 10
6.3445410227
 20
4.1541870595
 30
0.0
 10
6.3512774103
 20
4.148007687
 30
0.0
 10
6.357562174
 20
4.1413679822
 30
0.0
 10
6.3633845394
 20
4.134316386
 30
0.0
 10
6.3687292964
 20
4.1268960752
 30
0.0
 10
6.3735834969
 20
4.1191501335
 30
0.0
 10
6.379386523
 20
4.1084359035
 30
0.0
 10
6.3854282089
 20
4.0943979129
 30
0.0
 10
6.3899666641
 20
4.0797897662
 30
0.0
 10
6.3927939753
 20
4.0678651296
 30
0.0
 10
6.3951139373
 20
4.055815401
 30
0.0
 10
6.3971113392
 20
4.0406352076
 30
0.0
 10
6.3982441203
 20
4.0223584535
 30
0.0
 10
6.3981664762
 20
4.0041039045
 30
0.0
 10
6.396945192
 20
3.9858937091
 30
0.0
 10
6.3950332743
 20
3.9707787049
 30
0.0
 10
6.3930031645
 20
3.9587250144
 30
0.0
 10
6.3906443461
 20
3.9466612047
 30
0.0
 10
6.3870859916
 20
3.9316552542
 30
0.0
 10
6.381822905
 20
3.9138737363
 30
0.0
 10
6.3755389841
 20
3.8963990394
 30
0.0
 10
6.3682109809
 20
3.8793366559
 30
0.0
 10
6.3570325586
 20
3.8573056769
 30
0.0
 10
6.3403018751
 20
3.8312646017
 30
0.0
 10
6.315608537
 20
3.8033355951
 30
0.0
 10
6.2864059875
 20
3.7798963213
 30
0.0
 10
6.2644864137
 20
3.7677046072
 30
0.0
 10
6.2530812515
 20
3.762629875
 30
0.0
  0
SPLINE
  5
29F
100
AcDbEntity
  8
0
100
AcDbSpline
 62
7
  6
CONTINUOUS
 70
0
 71
3
 72
15
 73
11
 74
0
 42
0.0000001
 43
0.0000001
 44
0.0000000001
 40
0.0
 40
0.0
 40
0.0
 40
0.0
 40
0.1249396057
 40
0.2500752439
 40
0.3754654074
 40
0.5010801426
 40
0.6265167866
 40
0.7514575207
 40
0.8758564389
 40
1.0
 40
1.0
 40
1.0
 40
1.0
 10
6.2575476433
 20
3.7246955823
 30
0.0
 10
6.262906348
 20
3.723696939
 30
0.0
 10
6.2736757289
 20
3.721923938
 30
0.0
 10
6.289943832
 20
3.7199608264
 30
0.0
 10
6.3063122696
 20
3.718714701
 30
0.0
 10
6.3227345436
 20
3.7182043248
 30
0.0
 10
6.3391438078
 20
3.7185934787
 30
0.0
 10
6.3554436369
 20
3.7200549494
 30
0.0
 10
6.3715295404
 20
3.7227619553
 30
0.0
 10
6.3820384024
 20
3.7255145301
 30
0.0
 10
6.3872018634
 20
3.7271498447
 30
0.0
  0
SPLINE
  5
2A0
100
AcDbEntity
  8
0
100
AcDbSpline
 62
7
  6
CONTINUOUS
 70
0
 71
3
 72
44
 73
40
 74
0
 42
0.0000001
 43
0.0000001
 44
0.0000000001
 40
0.0
 40
0.0
 40
0.0
 40
0.0
 40
0.0311833632
 40
0.062541857
 40
0.0782595095
 40
0.0939741117
 40
0.1096669051
 40
0.1253267036
 40
0.1409670391
 40
0.1566016024
 40
0.1878675626
 40
0.2191366132
 40
0.2503677598
 40
0.2815866607
 40
0.3128132654
 40
0.3440405478
 40
0.3752586266
 40
0.4064742886
 40
0.4376937032
 40
0.4689239416
 40
0.5001636014
 40
0.5314023863
 40
0.5470234224
 40
0.5626436134
 40
0.5782643869
 40
0.5938879886
 40
0.6095159349
 40
0.625148423
 40
0.6564155443
 40
0.6876792532
 40
0.7033051215
 40
0.7189202734
 40
0.750129612
 40
0.7813573511
 40
0.8126189881
 40
0.8438996526
 40
0.8751597762
 40
0.9375814322
 40
1.0
 40
1.0
 40
1.0
 40
1.0
 10
6.3872018634
 20
3.7271498447
 30
0.0
 10
6.398773314
 20
3.7308146274
 30
0.0
 10
6.4215019271
 20
3.7397633176
 30
0.0
 10
6.4482545118
 20
3.754503036
 30
0.0
 10
6.4684861438
 20
3.7682390717
 30
0.0
 10
6.4830081409
 20
3.7794650953
 30
0.0
 10
6.4967939854
 20
3.7915490812
 30
0.0
 10
6.5097828706
 20
3.8044444672
 30
0.0
 10
6.5219618204
 20
3.818076277
 30
0.0
 10
6.5371160113
 20
3.8371419997
 30
0.0
 10
6.5540412135
 20
3.8625039809
 30
0.0
 10
6.5711033644
 20
3.8948338299
 30
0.0
 10
6.5849616497
 20
3.9286375793
 30
0.0
 10
6.5956289143
 20
3.9635575543
 30
0.0
 10
6.6031515372
 20
3.9992819595
 30
0.0
 10
6.6075809237
 20
4.0355170975
 30
0.0
 10
6.6089519142
 20
4.0719908583
 30
0.0
 10
6.6072734504
 20
4.1084484375
 30
0.0
 10
6.6025621576
 20
4.1446441954
 30
0.0
 10
6.5948282218
 20
4.1803270867
 30
0.0
 10
6.584113639
 20
4.2152376222
 30
0.0
 10
6.5727508359
 20
4.2434773565
 30
0.0
 10
6.5622347783
 20
4.2654130797
 30
0.0
 10
6.5536402873
 20
4.2815090249
 30
0.0
 10
6.5443467831
 20
4.2972127546
 30
0.0
 10
6.53436392
 20
4.3124910952
 30
0.0
 10
6.5237211849
 20
4.3273230164
 30
0.0
 10
6.5086899685
 20
4.3464731406
 30
0.0
 10
6.4883918122
 20
4.3691884507
 30
0.0
 10
6.4662719962
 20
4.3901279697
 30
0.0
 10
6.4475956035
 20
4.4057297356
 30
0.0
 10
6.4283050887
 20
4.4205308529
 30
0.0
 10
6.4030882461
 20
4.4375379387
 30
0.0
 10
6.3713557081
 20
4.4555816132
 30
0.0
 10
6.3383920085
 20
4.4713212868
 30
0.0
 10
6.3044379132
 20
4.4848182353
 30
0.0
 10
6.2581654145
 20
4.4999005279
 30
0.0
 10
6.1988134961
 20
4.5135283885
 30
0.0
 10
6.1505097488
 20
4.5195090622
 30
0.0
 10
6.1262909799
 20
4.5214449784
 30
0.0
  0
SPLINE
  5
2A1
100
AcDbEntity
  8
0
100
AcDbSpline
 62
7
  6
CONTINUOUS
 70
0
 71
3
 72
71
 73
67
 74
0
 42
0.0000001
 43
0.0000001
 44
0.0000000001
 40
0.0
 40
0.0
 40
0.0
 40
0.0
 40
0.0189647495
 40
0.0363022467
 40
0.0521979537
 40
0.0668273765
 40
0.0803518532
 40
0.0929144693
 40
0.1046455378
 40
0.115670947
 40
0.1261077663
 40
0.1360607367
 40
0.1456192298
 40
0.1548549977
 40
0.1638209913
 40
0.1725557416
 40
0.18110927
 40
0.1895313453
 40
0.2061165146
 40
0.2225256723
 40
0.2388191891
 40
0.2550671551
 40
0.2713569815
 40
0.2877042205
 40
0.3203985821
 40
0.352840834
 40
0.38445329
 40
0.3997766056
 40
0.4146930861
 40
0.4291467712
 40
0.443109677
 40
0.4565728024
 40
0.4695468236
 40
0.4820662752
 40
0.4941832003
 40
0.5059709995
 40
0.5175280878
 40
0.5289600429
 40
0.5403455057
 40
0.5517597049
 40
0.5632781682
 40
0.5749529171
 40
0.5867965444
 40
0.5988148884
 40
0.6110135433
 40
0.6233973488
 40
0.6359650777
 40
0.6616067486
 40
0.6747042087
 40
0.6879825881
 40
0.7014573316
 40
0.7151573439
 40
0.7291297149
 40
0.7434121746
 40
0.7729504632
 40
0.7882225694
 40
0.8038027412
 40
0.8196653844
 40
0.8357800278
 40
0.8521126448
 40
0.8686201621
 40
0.9019393139
 40
0.9352577453
 40
0.9517455277
 40
0.96803996
 40
1.0
 40
1.0
 40
1.0
 40
1.0
 10
6.0585550026
 20
4.0382919213
 30
0.0
 10
6.058585229
 20
4.0354991104
 30
0.0
 10
6.0588288111
 20
4.0301523669
 30
0.0
 10
6.0597813533
 20
4.022516107
 30
0.0
 10
6.061239035
 20
4.0156106554
 30
0.0
 10
6.0631365882
 20
4.0093978809
 30
0.0
 10
6.0654095317
 20
4.0038397838
 30
0.0
 10
6.0679891159
 20
3.998894443
 30
0.0
 10
6.0708298223
 20
3.9945271208
 30
0.0
 10
6.0738995722
 20
3.9907117235
 30
0.0
 10
6.0771628635
 20
3.9874202408
 30
0.0
 10
6.0805845537
 20
3.9846245692
 30
0.0
 10
6.0841292006
 20
3.9822959568
 30
0.0
 10
6.087761552
 20
3.980405039
 30
0.0
 10
6.0914473556
 20
3.9789221048
 30
0.0
 10
6.0951575554
 20
3.9778150525
 30
0.0
 10
6.098874111
 20
3.977064263
 30
0.0
 10
6.1037912413
 20
3.9765138103
 30
0.0
 10
6.1099190276
 20
3.9766031975
 30
0.0
 10
6.1171008649
 20
3.977808235
 30
0.0
 10
6.1240075995
 20
3.9799395394
 30
0.0
 10
6.1305943806
 20
3.9828621718
 30
0.0
 10
6.13684955
 20
3.9864484713
 30
0.0
 10
6.1447534295
 20
3.9919523587
 30
0.0
 10
6.1538110735
 20
3.9998769501
 30
0.0
 10
6.1635810993
 20
4.0102621237
 30
0.0
 10
6.1711499721
 20
4.0191732616
 30
0.0
 10
6.1770000871
 20
4.0261552656
 30
0.0
 10
6.1812632039
 20
4.0311704921
 30
0.0
 10
6.185491177
 20
4.0359516003
 30
0.0
 10
6.1897162256
 20
4.040446689
 30
0.0
 10
6.1939722978
 20
4.0446076202
 30
0.0
 10
6.1982949247
 20
4.0483857941
 30
0.0
 10
6.2027158455
 20
4.0517315511
 30
0.0
 10
6.2072448357
 20
4.0546182971
 30
0.0
 10
6.2118924008
 20
4.0570180616
 30
0.0
 10
6.2166663935
 20
4.0588991809
 30
0.0
 10
6.2215598462
 20
4.0602351914
 30
0.0
 10
6.2265490125
 20
4.0610257997
 30
0.0
 10
6.2316076116
 20
4.0612653655
 30
0.0
 10
6.2367044758
 20
4.0609482908
 30
0.0
 10
6.2418000814
 20
4.0600772881
 30
0.0
 10
6.2468485683
 20
4.0586635231
 30
0.0
 10
6.2517992041
 20
4.0567162266
 30
0.0
 10
6.2565988072
 20
4.0542433295
 30
0.0
 10
6.2611981799
 20
4.0512634208
 30
0.0
 10
6.2670418959
 20
4.0466270446
 30
0.0
 10
6.2722725568
 20
4.0411008309
 30
0.0
 10
6.2767194963
 20
4.0348527203
 30
0.0
 10
6.2796606251
 20
4.0297631179
 30
0.0
 10
6.2821373555
 20
4.0243344125
 30
0.0
 10
6.2841000124
 20
4.0185911617
 30
0.0
 10
6.2855455789
 20
4.0125751373
 30
0.0
 10
6.286819517
 20
4.0041514028
 30
0.0
 10
6.2870838247
 20
3.9954148959
 30
0.0
 10
6.2864546629
 20
3.9865395519
 30
0.0
 10
6.2855293211
 20
3.979717241
 30
0.0
 10
6.2841687013
 20
3.9728427476
 30
0.0
 10
6.2823853299
 20
3.9659513998
 30
0.0
 10
6.2802129806
 20
3.9590735462
 30
0.0
 10
6.2768320254
 20
3.949932225
 30
0.0
 10
6.2718211079
 20
3.9387426355
 30
0.0
 10
6.2659657583
 20
3.9279790097
 30
0.0
 10
6.2608681841
 20
3.9196835374
 30
0.0
 10
6.2555980748
 20
3.911736169
 30
0.0
 10
6.2513578621
 20
3.9060229084
 30
0.0
 10
6.2484110488
 20
3.9023527034
 30
0.0
  0
SPLINE
  5
2A2
100
AcDbEntity
  8
0
100
AcDbSpline
 62
7
  6
CONTINUOUS
 70
0
 71
3
 72
55
 73
51
 74
0
 42
0.0000001
 43
0.0000001
 44
0.0000000001
 40
0.0
 40
0.0
 40
0.0
 40
0.0
 40
0.0163195387
 40
0.0326192863
 40
0.040795735
 40
0.048985773
 40
0.0571792252
 40
0.065362913
 40
0.0735297333
 40
0.0816826345
 40
0.0979612121
 40
0.1142275913
 40
0.1305118473
 40
0.1468289612
 40
0.1631683723
 40
0.1958656003
 40
0.2285198752
 40
0.2610631014
 40
0.2934518816
 40
0.3256823428
 40
0.3577959335
 40
0.3738388704
 40
0.3898891221
 40
0.4220222053
 40
0.4542281599
 40
0.486540628
 40
0.5189969756
 40
0.5515541584
 40
0.5841116094
 40
0.6165677936
 40
0.6488073338
 40
0.6806036459
 40
0.7117209796
 40
0.7419867397
 40
0.7713064325
 40
0.7996608293
 40
0.813525861
 40
0.827224576
 40
0.8408135819
 40
0.8543669095
 40
0.8679626877
 40
0.8816695551
 40
0.895555472
 40
0.9096866105
 40
0.9240998486
 40
0.938801363
 40
0.953786897
 40
0.9690387445
 40
0.9844800333
 40
1.0
 40
1.0
 40
1.0
 40
1.0
 10
5.7212018634
 20
4.4981498447
 30
0.0
 10
5.7246998922
 20
4.4990699109
 30
0.0
 10
5.7318348886
 20
4.5003838047
 30
0.0
 10
5.7408633359
 20
4.5010321629
 30
0.0
 10
5.7481020979
 20
4.5011907125
 30
0.0
 10
5.7535458256
 20
4.501186961
 30
0.0
 10
5.7589903495
 20
4.5011164469
 30
0.0
 10
5.7644296797
 20
4.5010412396
 30
0.0
 10
5.7698603728
 20
4.5009971146
 30
0.0
 10
5.7770852409
 20
4.5009579582
 30
0.0
 10
5.786105312
 20
4.5009264733
 30
0.0
 10
5.7969274187
 20
4.5008417824
 30
0.0
 10
5.8077566232
 20
4.5006307039
 30
0.0
 10
5.8185971945
 20
4.5002395943
 30
0.0
 10
5.833062226
 20
4.4994733109
 30
0.0
 10
5.8511148423
 20
4.4980283793
 30
0.0
 10
5.8726624157
 20
4.4954328005
 30
0.0
 10
5.8940080475
 20
4.4918968227
 30
0.0
 10
5.9150608633
 20
4.4873163555
 30
0.0
 10
5.9357210314
 20
4.4815380556
 30
0.0
 10
5.9525364447
 20
4.4755995823
 30
0.0
 10
5.965669691
 20
4.470111411
 30
0.0
 10
5.9785799873
 20
4.4641075748
 30
0.0
 10
5.9942793367
 20
4.4556393116
 30
0.0
 10
6.0122781839
 20
4.4439821065
 30
0.0
 10
6.0293314341
 20
4.4308600178
 30
0.0
 10
6.0452979684
 20
4.4163191288
 30
0.0
 10
6.0600595128
 20
4.400483188
 30
0.0
 10
6.0734936894
 20
4.3835067563
 30
0.0
 10
6.0854611312
 20
4.3655501235
 30
0.0
 10
6.0958116545
 20
4.3468061958
 30
0.0
 10
6.1043676826
 20
4.3274987603
 30
0.0
 10
6.1109220668
 20
4.3078787256
 30
0.0
 10
6.1152586173
 20
4.2882053253
 30
0.0
 10
6.117158356
 20
4.2687566064
 30
0.0
 10
6.1165207863
 20
4.2528488477
 30
0.0
 10
6.1145407856
 20
4.240601769
 30
0.0
 10
6.1123191765
 20
4.2317430375
 30
0.0
 10
6.1093232162
 20
4.223187254
 30
0.0
 10
6.1055230003
 20
4.2149806742
 30
0.0
 10
6.1009136064
 20
4.2071692181
 30
0.0
 10
6.0955155437
 20
4.1997892919
 30
0.0
 10
6.0893461544
 20
4.1928809659
 30
0.0
 10
6.0824266942
 20
4.1864917606
 30
0.0
 10
6.0748071285
 20
4.1806559697
 30
0.0
 10
6.0665511671
 20
4.1754020915
 30
0.0
 10
6.057723987
 20
4.1707647308
 30
0.0
 10
6.0484033345
 20
4.1667856553
 30
0.0
 10
6.0386977534
 20
4.1634852556
 30
0.0
 10
6.0320507308
 20
4.1617523242
 30
0.0
 10
6.0286930964
 20
4.1610050266
 30
0.0
  0
SPLINE
  5
2A3
100
AcDbEntity
  8
0
100
AcDbSpline
 62
7
  6
CONTINUOUS
 70
0
 71
3
 72
51
 73
47
 74
0
 42
0.0000001
 43
0.0000001
 44
0.0000000001
 40
0.0
 40
0.0
 40
0.0
 40
0.0
 40
0.0163793134
 40
0.0326835553
 40
0.0489523691
 40
0.0652161068
 40
0.0814930166
 40
0.0977886177
 40
0.1141057639
 40
0.1304455912
 40
0.1468019641
 40
0.1631634718
 40
0.1958607836
 40
0.2284747914
 40
0.2609719152
 40
0.2933328715
 40
0.325556957
 40
0.3576879847
 40
0.3737490606
 40
0.3898180942
 40
0.4219867226
 40
0.4542326566
 40
0.4866006159
 40
0.5191174111
 40
0.5517023431
 40
0.5842462689
 40
0.6166420022
 40
0.6487201083
 40
0.6802201372
 40
0.7109246461
 40
0.7406970916
 40
0.7694750776
 40
0.7973271071
 40
0.8110027667
 40
0.8245820803
 40
0.8381461166
 40
0.8517737675
 40
0.8655364355
 40
0.8795054636
 40
0.8937444178
 40
0.908276511
 40
0.9231032539
 40
0.9382167013
 40
0.9535761297
 40
0.9690769494
 40
1.0
 40
1.0
 40
1.0
 40
1.0
 10
5.0952018634
 20
3.8721498447
 30
0.0
 10
5.0946628638
 20
3.8684436514
 30
0.0
 10
5.0937415498
 20
3.8610251623
 30
0.0
 10
5.0927623103
 20
3.8498731008
 30
0.0
 10
5.0921175499
 20
3.838723704
 30
0.0
 10
5.0917311985
 20
3.8275692396
 30
0.0
 10
5.0915416447
 20
3.8164037796
 30
0.0
 10
5.0915303907
 20
3.8052245842
 30
0.0
 10
5.091674394
 20
3.7940320576
 30
0.0
 10
5.0919464233
 20
3.7828280901
 30
0.0
 10
5.0923470466
 20
3.7716177181
 30
0.0
 10
5.0930867586
 20
3.756678266
 30
0.0
 10
5.094446681
 20
3.7380490823
 30
0.0
 10
5.0969483044
 20
3.7158182449
 30
0.0
 10
5.1004937976
 20
3.6938047741
 30
0.0
 10
5.1052360829
 20
3.6721057028
 30
0.0
 10
5.1113113868
 20
3.6508257066
 30
0.0
 10
5.1176031693
 20
3.6335280703
 30
0.0
 10
5.1234335671
 20
3.6200369172
 30
0.0
 10
5.1298060346
 20
3.6067838857
 30
0.0
 10
5.1387814763
 20
3.5906929548
 30
0.0
 10
5.1511240359
 20
3.5722952197
 30
0.0
 10
5.1650119166
 20
3.5549295543
 30
0.0
 10
5.1803781317
 20
3.5387506738
 30
0.0
 10
5.197064484
 20
3.5238779158
 30
0.0
 10
5.2149046609
 20
3.5104561773
 30
0.0
 10
5.2337124828
 20
3.4986426496
 30
0.0
 10
5.2532631769
 20
3.4886116441
 30
0.0
 10
5.2733039454
 20
3.480575979
 30
0.0
 10
5.2935591889
 20
3.4747676329
 30
0.0
 10
5.3137454623
 20
3.4714284579
 30
0.0
 10
5.3335547476
 20
3.4707941774
 30
0.0
 10
5.3495934264
 20
3.4727504778
 30
0.0
 10
5.361800438
 20
3.4759373073
 30
0.0
 10
5.370582542
 20
3.479142366
 30
0.0
 10
5.3789894044
 20
3.4832081412
 30
0.0
 10
5.3869763369
 20
3.488127461
 30
0.0
 10
5.3945023764
 20
3.4938798797
 30
0.0
 10
5.4015223844
 20
3.5004462715
 30
0.0
 10
5.4079845658
 20
3.5077970155
 30
0.0
 10
5.4138587749
 20
3.5158675894
 30
0.0
 10
5.41910995
 20
3.5245900429
 30
0.0
 10
5.4236959816
 20
3.5338901287
 30
0.0
 10
5.4275783052
 20
3.5436714205
 30
0.0
 10
5.431784458
 20
3.5571664434
 30
0.0
 10
5.4338201798
 20
3.5676373931
 30
0.0
 10
5.4346375952
 20
3.5746606388
 30
0.0
  0
SPLINE
  5
2A4
100
AcDbEntity
  8
0
100
AcDbSpline
 62
7
  6
CONTINUOUS
 70
0
 71
3
 72
69
 73
65
 74
0
 42
0.0000001
 43
0.0000001
 44
0.0000000001
 40
0.0
 40
0.0
 40
0.0
 40
0.0
 40
0.0189841641
 40
0.0363297931
 40
0.0522245603
 40
0.066846027
 40
0.0803573317
 40
0.0929030406
 40
0.1046149062
 40
0.1156201257
 40
0.1260368248
 40
0.1359704826
 40
0.1455108395
 40
0.154729635
 40
0.1636794494
 40
0.1723992291
 40
0.1809403436
 40
0.1893524627
 40
0.2059236615
 40
0.222323082
 40
0.2386077528
 40
0.2548528818
 40
0.2711431135
 40
0.2874896977
 40
0.320173729
 40
0.3525844118
 40
0.3841308435
 40
0.3994081677
 40
0.4142690535
 40
0.4286595417
 40
0.4425544477
 40
0.4688397067
 40
0.4812931562
 40
0.4933514183
 40
0.5050925207
 40
0.5166197775
 40
0.5280359382
 40
0.539418473
 40
0.5508436478
 40
0.5623868091
 40
0.5740913169
 40
0.5859670149
 40
0.5980194801
 40
0.6102545998
 40
0.6226761493
 40
0.6352818204
 40
0.660999288
 40
0.6741368066
 40
0.6874591125
 40
0.7009845985
 40
0.7147476812
 40
0.7287965292
 40
0.7431641826
 40
0.7728830144
 40
0.7882431401
 40
0.8039062587
 40
0.8198445947
 40
0.8360266292
 40
0.8524154634
 40
0.8689646258
 40
0.9023119256
 40
0.9355682734
 40
0.9682021078
 40
1.0
 40
1.0
 40
1.0
 40
1.0
 10
5.5551069132
 20
3.5275838491
 30
0.0
 10
5.5579412675
 20
3.5275284643
 30
0.0
 10
5.5633644809
 20
3.5272332173
 30
0.0
 10
5.5711021809
 20
3.5261951378
 30
0.0
 10
5.5780893794
 20
3.5246489976
 30
0.0
 10
5.584365838
 20
3.5226613525
 30
0.0
 10
5.5899711657
 20
3.5202979578
 30
0.0
 10
5.5949491244
 20
3.5176289003
 30
0.0
 10
5.5993355413
 20
3.5146999781
 30
0.0
 10
5.6031575213
 20
3.511543925
 30
0.0
 10
5.6064441484
 20
3.5081968754
 30
0.0
 10
5.6092246166
 20
3.5046946174
 30
0.0
 10
5.6115288092
 20
3.50107323
 30
0.0
 10
5.6133872032
 20
3.4973685632
 30
0.0
 10
5.6148308056
 20
3.4936153308
 30
0.0
 10
5.6158925109
 20
3.4898423987
 30
0.0
 10
5.6165920468
 20
3.4860676056
 30
0.0
 10
5.6170680138
 20
3.4810786852
 30
0.0
 10
5.6168740569
 20
3.4748726236
 30
0.0
 10
5.6155316326
 20
3.4676166819
 30
0.0
 10
5.6132553184
 20
3.4606534512
 30
0.0
 10
5.6101826686
 20
3.454026097
 30
0.0
 10
5.6064446779
 20
3.4477435368
 30
0.0
 10
5.6007401724
 20
3.4398188995
 30
0.0
 10
5.5925743035
 20
3.430760135
 30
0.0
 10
5.5819256059
 20
3.4210057475
 30
0.0
 10
5.5728192228
 20
3.41344913
 30
0.0
 10
5.5657014945
 20
3.4076023882
 30
0.0
 10
5.5605996082
 20
3.4033377154
 30
0.0
 10
5.555743468
 20
3.3991014445
 30
0.0
 10
5.5497775264
 20
3.3935509446
 30
0.0
 10
5.5443658001
 20
3.3878206698
 30
0.0
 10
5.5397915309
 20
3.3817602618
 30
0.0
 10
5.536893437
 20
3.3771795211
 30
0.0
 10
5.5344950939
 20
3.3724713654
 30
0.0
 10
5.5326305587
 20
3.3676284593
 30
0.0
 10
5.5313214856
 20
3.3626617896
 30
0.0
 10
5.530568408
 20
3.3575964981
 30
0.0
 10
5.5303775676
 20
3.3524600052
 30
0.0
 10
5.530754839
 20
3.3472858578
 30
0.0
 10
5.5316947361
 20
3.342115933
 30
0.0
 10
5.5331868597
 20
3.3369986926
 30
0.0
 10
5.5352221659
 20
3.3319865526
 30
0.0
 10
5.5377929615
 20
3.3271346868
 30
0.0
 10
5.5408760887
 20
3.3224914175
 30
0.0
 10
5.5456585882
 20
3.316602296
 30
0.0
 10
5.551341737
 20
3.3113490745
 30
0.0
 10
5.5577545926
 20
3.3069084549
 30
0.0
 10
5.5629735475
 20
3.3039874723
 30
0.0
 10
5.5685368379
 20
3.3015491405
 30
0.0
 10
5.5744170517
 20
3.2996398313
 30
0.0
 10
5.5805688221
 20
3.2982492882
 30
0.0
 10
5.5891758918
 20
3.2970554779
 30
0.0
 10
5.5980886684
 20
3.2968782279
 30
0.0
 10
5.6071341449
 20
3.2976016609
 30
0.0
 10
5.6140801669
 20
3.2986023857
 30
0.0
 10
5.6210725956
 20
3.3000437854
 30
0.0
 10
5.6280762928
 20
3.3019074774
 30
0.0
 10
5.6350611016
 20
3.3041569498
 30
0.0
 10
5.6443314796
 20
3.3076350057
 30
0.0
 10
5.6556609396
 20
3.3127546788
 30
0.0
 10
5.6686719726
 20
3.3198739012
 30
0.0
 10
5.6809630824
 20
3.3277514673
 30
0.0
 10
5.6886787675
 20
3.333517298
 30
0.0
 10
5.6923693162
 20
3.3365050729
 30
0.0
  0
SPLINE
  5
2A5
100
AcDbEntity
  8
0
100
AcDbSpline
 62
7
  6
CONTINUOUS
 70
0
 71
3
 72
21
 73
17
 74
0
 42
0.0000001
 43
0.0000001
 44
0.0000000001
 40
0.0
 40
0.0
 40
0.0
 40
0.0
 40
0.1265890529
 40
0.2529314829
 40
0.3783845578
 40
0.4407589035
 40
0.5029404009
 40
0.5650353367
 40
0.6271480604
 40
0.689274986
 40
0.7514031506
 40
0.813536261
 40
0.8446179322
 40
0.8757088375
 40
0.93788063
 40
1.0
 40
1.0
 40
1.0
 40
1.0
 10
5.1060395321
 20
3.4775281937
 30
0.0
 10
5.1148826943
 20
3.4684293418
 30
0.0
 10
5.1333121919
 20
3.4509655158
 30
0.0
 10
5.1631827765
 20
3.427503663
 30
0.0
 10
5.1899357594
 20
3.410748448
 30
0.0
 10
5.212318191
 20
3.3994476579
 30
0.0
 10
5.2295483081
 20
3.392121467
 30
0.0
 10
5.2472257876
 20
3.3860277995
 30
0.0
 10
5.2652998905
 20
3.3812548788
 30
0.0
 10
5.2836805448
 20
3.377828981
 30
0.0
 10
5.3022682843
 20
3.375789183
 30
0.0
 10
5.3178469924
 20
3.3752758058
 30
0.0
 10
5.3303050026
 20
3.375596394
 30
0.0
 10
5.3427446421
 20
3.3764082215
 30
0.0
 10
5.3582158954
 20
3.3783322221
 30
0.0
 10
5.3704366176
 20
3.3808243854
 30
0.0
 10
5.3764845755
 20
3.3823039871
 30
0.0
  0
SPLINE
  5
2A6
100
AcDbEntity
  8
0
100
AcDbSpline
 62
7
  6
CONTINUOUS
 70
0
 71
3
 72
44
 73
40
 74
0
 42
0.0000001
 43
0.0000001
 44
0.0000000001
 40
0.0
 40
0.0
 40
0.0
 40
0.0
 40
0.0311833612
 40
0.0625418518
 40
0.0782595034
 40
0.0939741064
 40
0.1096669028
 40
0.1253267044
 40
0.1409670411
 40
0.1566016041
 40
0.1878675623
 40
0.2191366148
 40
0.2503677648
 40
0.2815866647
 40
0.3128132674
 40
0.3440405507
 40
0.37525863
 40
0.406474291
 40
0.4376937033
 40
0.4689239378
 40
0.500163596
 40
0.5314023814
 40
0.5470234178
 40
0.5626436085
 40
0.5782643805
 40
0.5938879793
 40
0.6095159222
 40
0.625148407
 40
0.6564155251
 40
0.687679239
 40
0.7033051138
 40
0.7189202735
 40
0.7501296115
 40
0.7813573368
 40
0.8126189597
 40
0.8438996223
 40
0.8751597637
 40
0.9375814253
 40
1.0
 40
1.0
 40
1.0
 40
1.0
 10
5.8652018634
 20
3.1991498447
 30
0.0
 10
5.8615078968
 20
3.1875905981
 30
0.0
 10
5.852502318
 20
3.1648904923
 30
0.0
 10
5.8376966723
 20
3.1381823454
 30
0.0
 10
5.8239114103
 20
3.1179910095
 30
0.0
 10
5.8126503838
 20
3.1035014643
 30
0.0
 10
5.8005335152
 20
3.0897501079
 30
0.0
 10
5.7876075103
 20
3.076797614
 30
0.0
 10
5.7739473579
 20
3.064656765
 30
0.0
 10
5.7548468693
 20
3.0495554149
 30
0.0
 10
5.7294470201
 20
3.0326997302
 30
0.0
 10
5.6970805841
 20
3.0157251142
 30
0.0
 10
5.6632488863
 20
3.0019573928
 30
0.0
 10
5.6283094797
 20
2.9913827982
 30
0.0
 10
5.59257396
 20
2.9839541565
 30
0.0
 10
5.5563358162
 20
2.9796193149
 30
0.0
 10
5.5198669994
 20
2.9783427284
 30
0.0
 10
5.4834222255
 20
2.9801147967
 30
0.0
 10
5.4472470262
 20
2.9849182616
 30
0.0
 10
5.4115923508
 20
2.9927422879
 30
0.0
 10
5.3767175106
 20
3.0035442298
 30
0.0
 10
5.3485135689
 20
3.0149770258
 30
0.0
 10
5.3266099782
 20
3.0255470284
 30
0.0
 10
5.3105398606
 20
3.0341808831
 30
0.0
 10
5.2948636537
 20
3.0435125613
 30
0.0
 10
5.2796145024
 20
3.053532336
 30
0.0
 10
5.2648133593
 20
3.0642106788
 30
0.0
 10
5.2457062793
 20
3.0792875632
 30
0.0
 10
5.2230483502
 20
3.0996393044
 30
0.0
 10
5.2021704504
 20
3.1218077055
 30
0.0
 10
5.1866202074
 20
3.1405197779
 30
0.0
 10
5.1718719891
 20
3.1598437638
 30
0.0
 10
5.1549335284
 20
3.1850983597
 30
0.0
 10
5.1369754557
 20
3.2168697996
 30
0.0
 10
5.1213240308
 20
3.2498662154
 30
0.0
 10
5.1079173706
 20
3.2838470625
 30
0.0
 10
5.0929573733
 20
3.3301475335
 30
0.0
 10
5.0794851308
 20
3.3895206772
 30
0.0
 10
5.0736300393
 20
3.4378285821
 30
0.0
 10
5.0717568712
 20
3.4620467036
 30
0.0
  0
SPLINE
  5
2A7
100
AcDbEntity
  8
0
100
AcDbSpline
 62
7
  6
CONTINUOUS
 70
0
 71
3
 72
15
 73
11
 74
0
 42
0.0000001
 43
0.0000001
 44
0.0000000001
 40
0.0
 40
0.0
 40
0.0
 40
0.0
 40
0.1249540681
 40
0.250091377
 40
0.3754692827
 40
0.5010589429
 40
0.6264744246
 40
0.751413602
 40
0.8758322928
 40
1.0
 40
1.0
 40
1.0
 40
1.0
 10
5.8684160909
 20
3.3291034309
 30
0.0
 10
5.869385574
 20
3.3237257733
 30
0.0
 10
5.8710988746
 20
3.312920143
 30
0.0
 10
5.8729672959
 20
3.296602096
 30
0.0
 10
5.8741125661
 20
3.2801892774
 30
0.0
 10
5.8745140514
 20
3.2637280264
 30
0.0
 10
5.8740143283
 20
3.2472855099
 30
0.0
 10
5.8724487424
 20
3.2309573228
 30
0.0
 10
5.8696520648
 20
3.2148466785
 30
0.0
 10
5.8668547568
 20
3.2043221176
 30
0.0
 10
5.8652018634
 20
3.1991498447
 30
0.0
  0
SPLINE
  5
2A8
100
AcDbEntity
  8
0
100
AcDbSpline
 62
7
  6
CONTINUOUS
 70
0
 71
3
 72
47
 73
43
 74
0
 42
0.0000001
 43
0.0000001
 44
0.0000000001
 40
0.0
 40
0.0
 40
0.0
 40
0.0
 40
0.0313894719
 40
0.0627451207
 40
0.0939542388
 40
0.1249952684
 40
0.1404822416
 40
0.1559718447
 40
0.1869680521
 40
0.2024668951
 40
0.2179553391
 40
0.2334389269
 40
0.2489270712
 40
0.2644221689
 40
0.279920015
 40
0.2954111753
 40
0.310888508
 40
0.3418641886
 40
0.3729671745
 40
0.3885682542
 40
0.4041837416
 40
0.4353700636
 40
0.4663774132
 40
0.4972688931
 40
0.5281626538
 40
0.5591559354
 40
0.5747160606
 40
0.5903266389
 40
0.6216696292
 40
0.6531157619
 40
0.6846006919
 40
0.7160753456
 40
0.7475089148
 40
0.7788920812
 40
0.8102403863
 40
0.8415975925
 40
0.87303878
 40
0.8888268347
 40
0.90466613
 40
0.9364385997
 40
0.9682518577
 40
1.0
 40
1.0
 40
1.0
 40
1.0
 10
5.4012370417
 20
3.3629806376
 30
0.0
 10
5.4012690203
 20
3.3568151218
 30
0.0
 10
5.4016997609
 20
3.3444883246
 30
0.0
 10
5.403626968
 20
3.3261173805
 30
0.0
 10
5.4070261776
 20
3.3080250012
 30
0.0
 10
5.4112530029
 20
3.2933225247
 30
0.0
 10
5.4155566443
 20
3.2819199153
 30
0.0
 10
5.4205035671
 20
3.2707920132
 30
0.0
 10
5.4264484612
 20
3.2601240451
 30
0.0
 10
5.4333707996
 20
3.2501002339
 30
0.0
 10
5.4390504116
 20
3.2429449972
 30
0.0
 10
5.4452149168
 20
3.2362057344
 30
0.0
 10
5.4518399251
 20
3.2299170437
 30
0.0
 10
5.458877023
 20
3.2240896422
 30
0.0
 10
5.4662831782
 20
3.2187387265
 30
0.0
 10
5.4740152867
 20
3.2138771886
 30
0.0
 10
5.4847114502
 20
3.2080632611
 30
0.0
 10
5.4987281989
 20
3.2020069887
 30
0.0
 10
5.5133170154
 20
3.1974532302
 30
0.0
 10
5.5252272892
 20
3.1946135559
 30
0.0
 10
5.5372640031
 20
3.1922810538
 30
0.0
 10
5.5524297517
 20
3.190268309
 30
0.0
 10
5.570690558
 20
3.1891167127
 30
0.0
 10
5.5889299307
 20
3.1891742033
 30
0.0
 10
5.6071251461
 20
3.1903746125
 30
0.0
 10
5.6222280281
 20
3.1922686153
 30
0.0
 10
5.6342721273
 20
3.1942842429
 30
0.0
 10
5.6463266333
 20
3.1966283021
 30
0.0
 10
5.6613223016
 20
3.200166745
 30
0.0
 10
5.6790937636
 20
3.2054037534
 30
0.0
 10
5.696561487
 20
3.2116594904
 30
0.0
 10
5.713619079
 20
3.2189563864
 30
0.0
 10
5.7301604399
 20
3.2273171429
 30
0.0
 10
5.74607905
 20
3.2367647307
 30
0.0
 10
5.7612682571
 20
3.2473225965
 30
0.0
 10
5.77561996
 20
3.2590137169
 30
0.0
 10
5.7867785874
 20
3.2697073946
 30
0.0
 10
5.7951629607
 20
3.2788315302
 30
0.0
 10
5.8031910386
 20
3.2883557612
 30
0.0
 10
5.81247992
 20
3.3009153666
 30
0.0
 10
5.8223133596
 20
3.3168758808
 30
0.0
 10
5.8279323638
 20
3.3280461837
 30
0.0
 10
5.8304833888
 20
3.3337365779
 30
0.0
  0
SPLINE
  5
2A9
100
AcDbEntity
  8
0
100
AcDbSpline
 62
7
  6
CONTINUOUS
 70
0
 71
3
 72
45
 73
41
 74
0
 42
0.0000001
 43
0.0000001
 44
0.0000000001
 40
0.0
 40
0.0
 40
0.0
 40
0.0
 40
0.0619270379
 40
0.1238539166
 40
0.1549192381
 40
0.1861785762
 40
0.2175398757
 40
0.2488583175
 40
0.2800657996
 40
0.2956387673
 40
0.3112043121
 40
0.3267845926
 40
0.3423990128
 40
0.3580485187
 40
0.3737287775
 40
0.4051386867
 40
0.4365689956
 40
0.4522732403
 40
0.4679537885
 40
0.4836040349
 40
0.4992293232
 40
0.5304517684
 40
0.5617179175
 40
0.5930566113
 40
0.6244548239
 40
0.6558708104
 40
0.6872535036
 40
0.7185695939
 40
0.7498186285
 40
0.7810460003
 40
0.7966884212
 40
0.812363229
 40
0.8437751933
 40
0.8752210003
 40
0.9066106244
 40
0.9222658047
 40
0.9378802354
 40
0.953450279
 40
0.9689839882
 40
1.0
 40
1.0
 40
1.0
 40
1.0
 10
5.4942018634
 20
4.2971498447
 30
0.0
 10
5.4894812445
 20
4.3059776194
 30
0.0
 10
5.4799290919
 20
4.3235755616
 30
0.0
 10
5.4665580863
 20
4.3447987263
 30
0.0
 10
5.4543926789
 20
4.3607989594
 30
0.0
 10
5.4443808794
 20
4.3721813148
 30
0.0
 10
5.4334726146
 20
4.3827709998
 30
0.0
 10
5.421687321
 20
4.3923668156
 30
0.0
 10
5.4111459355
 20
4.3993596413
 30
0.0
 10
5.4023154881
 20
4.4042268992
 30
0.0
 10
5.395498611
 20
4.4074880299
 30
0.0
 10
5.3884895696
 20
4.4103313297
 30
0.0
 10
5.3813035398
 20
4.4127347662
 30
0.0
 10
5.3739694322
 20
4.4147021173
 30
0.0
 10
5.3640296347
 20
4.4167425111
 30
0.0
 10
5.3513894122
 20
4.4181960842
 30
0.0
 10
5.3386623982
 20
4.4181846095
 30
0.0
 10
5.3285425785
 20
4.4172921642
 30
0.0
 10
5.3210162583
 20
4.4161807936
 30
0.0
 10
5.3135821863
 20
4.4146241102
 30
0.0
 10
5.3038305382
 20
4.4119639591
 30
0.0
 10
5.2919560673
 20
4.4075823293
 30
0.0
 10
5.2783672793
 20
4.4007806502
 30
0.0
 10
5.2655465581
 20
4.3925724891
 30
0.0
 10
5.2536071471
 20
4.3830924696
 30
0.0
 10
5.2426563339
 20
4.3724764296
 30
0.0
 10
5.2328215807
 20
4.3608349339
 30
0.0
 10
5.2242451779
 20
4.3482676255
 30
0.0
 10
5.2170689483
 20
4.3348782764
 30
0.0
 10
5.2123763636
 20
4.323121434
 30
0.0
 10
5.209472961
 20
4.3134311428
 30
0.0
 10
5.2071519277
 20
4.3035545904
 30
0.0
 10
5.2053472201
 20
4.2909566383
 30
0.0
 10
5.2049371216
 20
4.2756949105
 30
0.0
 10
5.2060621218
 20
4.2630248258
 30
0.0
 10
5.2078487326
 20
4.2530495215
 30
0.0
 10
5.2096302889
 20
4.2456853796
 30
0.0
 10
5.2118579712
 20
4.2384638376
 30
0.0
 10
5.215411398
 20
4.22906673
 30
0.0
 10
5.2186907641
 20
4.2222711049
 30
0.0
 10
5.2211044161
 20
4.2178764758
 30
0.0
  0
SPLINE
  5
2AA
100
AcDbEntity
  8
0
100
AcDbSpline
 62
7
  6
CONTINUOUS
 70
0
 71
3
 72
26
 73
22
 74
0
 42
0.0000001
 43
0.0000001
 44
0.0000000001
 40
0.0
 40
0.0
 40
0.0
 40
0.0
 40
0.0628587772
 40
0.0943771119
 40
0.1258776715
 40
0.1573064059
 40
0.1886234527
 40
0.2198713984
 40
0.251105484
 40
0.3136278899
 40
0.3762619414
 40
0.4075690104
 40
0.438813303
 40
0.4699984538
 40
0.5011497643
 40
0.5634223597
 40
0.6257531664
 40
0.6881900979
 40
0.7507233112
 40
0.8757782772
 40
1.0
 40
1.0
 40
1.0
 40
1.0
 10
6.0115334623
 20
3.318087639
 30
0.0
 10
6.0218129944
 20
3.3289572109
 30
0.0
 10
6.0384071548
 20
3.3442288598
 30
0.0
 10
6.0623534547
 20
3.3622544962
 30
0.0
 10
6.0811681496
 20
3.3745864191
 30
0.0
 10
6.1006986685
 20
3.3856498713
 30
0.0
 10
6.1208573997
 20
3.3953847012
 30
0.0
 10
6.1415394936
 20
3.4038253969
 30
0.0
 10
6.1697073132
 20
3.4134457186
 30
0.0
 10
6.2058636332
 20
3.4225767581
 30
0.0
 10
6.2427092446
 20
3.4282872913
 30
0.0
 10
6.2723775023
 20
3.4310843528
 30
0.0
 10
6.2946552024
 20
3.4323644385
 30
0.0
 10
6.316926331
 20
3.4328659568
 30
0.0
 10
6.3465863117
 20
3.4325397027
 30
0.0
 10
6.3836171277
 20
3.430351636
 30
0.0
 10
6.4278500588
 20
3.4251532764
 30
0.0
 10
6.4718121231
 20
3.4176603588
 30
0.0
 10
6.5299691071
 20
3.4049792936
 30
0.0
 10
6.6014620083
 20
3.3848290411
 30
0.0
 10
6.6575512017
 20
3.365425173
 30
0.0
 10
6.6852999036
 20
3.3552223588
 30
0.0
  0
SPLINE
  5
2AB
100
AcDbEntity
  8
0
100
AcDbSpline
 62
7
  6
CONTINUOUS
 70
0
 71
3
 72
51
 73
47
 74
0
 42
0.0000001
 43
0.0000001
 44
0.0000000001
 40
0.0
 40
0.0
 40
0.0
 40
0.0
 40
0.0312414225
 40
0.0624952044
 40
0.0781245993
 40
0.0937519502
 40
0.1093767746
 40
0.1249994534
 40
0.1406215302
 40
0.1562438247
 40
0.1718654027
 40
0.1874838878
 40
0.2031005994
 40
0.2187197641
 40
0.2343420073
 40
0.249964331
 40
0.2655811012
 40
0.2811924972
 40
0.3124144809
 40
0.3280322689
 40
0.343655622
 40
0.359283989
 40
0.3749136584
 40
0.3905408144
 40
0.4061632101
 40
0.4217803236
 40
0.4373935078
 40
0.4530061406
 40
0.468622856
 40
0.4842459604
 40
0.4998761827
 40
0.5311535419
 40
0.5624449197
 40
0.5937245192
 40
0.6249791694
 40
0.6562296687
 40
0.6874897207
 40
0.7187618259
 40
0.7500383673
 40
0.7656737927
 40
0.7813048667
 40
0.8125576677
 40
0.8438052571
 40
0.8750520521
 40
0.9375411065
 40
1.0
 40
1.0
 40
1.0
 40
1.0
 10
6.6850592963
 20
3.5940214982
 30
0.0
 10
6.6703664492
 20
3.5884038092
 30
0.0
 10
6.6405313307
 20
3.5782914535
 30
0.0
 10
6.6023746218
 20
3.5685637435
 30
0.0
 10
6.571466227
 20
3.5625857042
 30
0.0
 10
6.5481257142
 20
3.5590191982
 30
0.0
 10
6.524665258
 20
3.5563844422
 30
0.0
 10
6.5011199464
 20
3.5547004391
 30
0.0
 10
6.4775276461
 20
3.5539613051
 30
0.0
 10
6.4539253604
 20
3.5541411543
 30
0.0
 10
6.4303489585
 20
3.5552172069
 30
0.0
 10
6.4068321058
 20
3.5571707193
 30
0.0
 10
6.3834018148
 20
3.5599621383
 30
0.0
 10
6.3600749598
 20
3.5635235023
 30
0.0
 10
6.3368648955
 20
3.5677925824
 30
0.0
 10
6.3137846702
 20
3.572706765
 30
0.0
 10
6.2908416659
 20
3.578201473
 30
0.0
 10
6.2604417909
 20
3.5862456446
 30
0.0
 10
6.2303207928
 20
3.5953111577
 30
0.0
 10
6.2004869019
 20
3.6052683596
 30
0.0
 10
6.1782437261
 20
3.6131561304
 30
0.0
 10
6.156133506
 20
3.6214256912
 30
0.0
 10
6.1341758933
 20
3.6300984032
 30
0.0
 10
6.1123992064
 20
3.6392087704
 30
0.0
 10
6.0908310023
 20
3.6487874239
 30
0.0
 10
6.0694992643
 20
3.6588660236
 30
0.0
 10
6.0484318392
 20
3.6694758322
 30
0.0
 10
6.0276571947
 20
3.6806485774
 30
0.0
 10
6.0072055906
 20
3.6924123196
 30
0.0
 10
5.9870798403
 20
3.7047419863
 30
0.0
 10
5.9606822047
 20
3.7219067903
 30
0.0
 10
5.928523869
 20
3.7446570662
 30
0.0
 10
5.8913235993
 20
3.773822643
 30
0.0
 10
5.8555281992
 20
3.8046769331
 30
0.0
 10
5.821135586
 20
3.8370542266
 30
0.0
 10
5.7880923571
 20
3.8707908402
 30
0.0
 10
5.7563270532
 20
3.9057427504
 30
0.0
 10
5.725765946
 20
3.9417670723
 30
0.0
 10
5.7012383695
 20
3.9725656924
 30
0.0
 10
5.6821399646
 20
3.9976048566
 30
0.0
 10
5.6633825515
 20
4.0228856608
 30
0.0
 10
5.6405545621
 20
4.0549298223
 30
0.0
 10
5.6141012625
 20
4.0940278656
 30
0.0
 10
5.5800174843
 20
4.1469334313
 30
0.0
 10
5.5395073219
 20
4.2143667831
 30
0.0
 10
5.5090315479
 20
4.2694176515
 30
0.0
 10
5.4942018634
 20
4.2971498447
 30
0.0
  0
SPLINE
  5
2AC
100
AcDbEntity
  8
0
100
AcDbSpline
 62
7
  6
CONTINUOUS
 70
0
 71
3
 72
33
 73
29
 74
0
 42
0.0000001
 43
0.0000001
 44
0.0000000001
 40
0.0
 40
0.0
 40
0.0
 40
0.0
 40
0.0629195435
 40
0.0946070039
 40
0.1263751053
 40
0.1899172806
 40
0.2216256574
 40
0.2532204373
 40
0.3158988936
 40
0.3469922863
 40
0.3779172909
 40
0.3933321294
 40
0.4087359417
 40
0.4395844244
 40
0.4705757406
 40
0.5017492295
 40
0.5330912638
 40
0.5645500812
 40
0.5960499129
 40
0.627516906
 40
0.658925734
 40
0.6902647088
 40
0.7215244488
 40
0.7526987471
 40
0.8147841404
 40
0.8765697495
 40
0.938211457
 40
1.0
 40
1.0
 40
1.0
 40
1.0
 10
6.355064454
 20
3.3093960679
 30
0.0
 10
6.3408150267
 20
3.3115162155
 30
0.0
 10
6.3191250373
 20
3.3131667237
 30
0.0
 10
6.2901841228
 20
3.3124456192
 30
0.0
 10
6.2612093595
 20
3.3097959065
 30
0.0
 10
6.2325505103
 20
3.3042927391
 30
0.0
 10
6.2046975446
 20
3.2959994501
 30
0.0
 10
6.1776568639
 20
3.2859093154
 30
0.0
 10
6.1518448159
 20
3.2730809859
 30
0.0
 10
6.1278511467
 20
3.2575662403
 30
0.0
 10
6.1137452891
 20
3.24678941
 30
0.0
 10
6.1030628701
 20
3.2375247821
 30
0.0
 10
6.0927615145
 20
3.2278639671
 30
0.0
 10
6.0805175897
 20
3.2150821508
 30
0.0
 10
6.0667075448
 20
3.1988581489
 30
0.0
 10
6.0535890781
 20
3.1819312165
 30
0.0
 10
6.0409824171
 20
3.1644912983
 30
0.0
 10
6.0287083819
 20
3.1467269804
 30
0.0
 10
6.0165872338
 20
3.1288243649
 30
0.0
 10
6.0044326644
 20
3.1109582015
 30
0.0
 10
5.9922066744
 20
3.0931853786
 30
0.0
 10
5.9798629125
 20
3.075551867
 30
0.0
 10
5.9673535129
 20
3.0581010502
 30
0.0
 10
5.9504138371
 20
3.0351678475
 30
0.0
 10
5.9285811383
 20
3.0071629007
 30
0.0
 10
5.9008987475
 20
2.9749197287
 30
0.0
 10
5.8713770816
 20
2.94443532
 30
0.0
 10
5.850274929
 20
2.9255847095
 30
0.0
 10
5.8393405152
 20
2.9166077607
 30
0.0
  0
SPLINE
  5
2AD
100
AcDbEntity
  8
0
100
AcDbSpline
 62
7
  6
CONTINUOUS
 70
0
 71
3
 72
22
 73
18
 74
0
 42
0.0000001
 43
0.0000001
 44
0.0000000001
 40
0.0
 40
0.0
 40
0.0
 40
0.0
 40
0.0652445552
 40
0.1290914971
 40
0.1917398384
 40
0.2534001986
 40
0.3142934499
 40
0.3746488867
 40
0.4347019644
 40
0.4946916985
 40
0.5548578595
 40
0.6154381232
 40
0.6766653429
 40
0.7387650949
 40
0.8019536116
 40
0.8664361733
 40
1.0
 40
1.0
 40
1.0
 40
1.0
 10
6.0846742449
 20
2.897970166
 30
0.0
 10
6.0863479029
 20
2.9083634867
 30
0.0
 10
6.0901911867
 20
2.9288466421
 30
0.0
 10
6.0975545075
 20
2.9589107102
 30
0.0
 10
6.1064497431
 20
2.9879552555
 30
0.0
 10
6.1168773543
 20
3.0159782243
 30
0.0
 10
6.128837811
 20
3.0429787218
 30
0.0
 10
6.142331235
 20
3.0689553691
 30
0.0
 10
6.1573574333
 20
3.0939068415
 30
0.0
 10
6.1739158675
 20
3.1178318546
 30
0.0
 10
6.1920057021
 20
3.1407293058
 30
0.0
 10
6.2116258314
 20
3.1625983294
 30
0.0
 10
6.2327751271
 20
3.1834384331
 30
0.0
 10
6.2554519605
 20
3.2032492046
 30
0.0
 10
6.2796565109
 20
3.2220314613
 30
0.0
 10
6.3143624464
 20
3.2459791187
 30
0.0
 10
6.3421153929
 20
3.2619676527
 30
0.0
 10
6.3612757512
 20
3.2718320446
 30
0.0
  0
SPLINE
  5
2AE
100
AcDbEntity
  8
0
100
AcDbSpline
 62
7
  6
CONTINUOUS
 70
0
 71
3
 72
30
 73
26
 74
0
 42
0.0000001
 43
0.0000001
 44
0.0000000001
 40
0.0
 40
0.0
 40
0.0
 40
0.0
 40
0.0311908
 40
0.0623641182
 40
0.0935300095
 40
0.1247146408
 40
0.1559223185
 40
0.18713732
 40
0.2183455052
 40
0.2495361543
 40
0.2807034744
 40
0.3118535368
 40
0.3430250916
 40
0.3742556873
 40
0.4369522922
 40
0.5000046874
 40
0.5632779177
 40
0.6265043675
 40
0.657994681
 40
0.6893539154
 40
0.7517146028
 40
0.813740687
 40
0.8756253944
 40
0.9376128822
 40
1.0
 40
1.0
 40
1.0
 40
1.0
 10
6.2830975216
 20
3.0372224744
 30
0.0
 10
6.2849753969
 20
3.0419869821
 30
0.0
 10
6.288951402
 20
3.0514281413
 30
0.0
 10
6.2956155696
 20
3.0652708328
 30
0.0
 10
6.3030151487
 20
3.0787354062
 30
0.0
 10
6.3111884039
 20
3.0917524643
 30
0.0
 10
6.3201222384
 20
3.1042696888
 30
0.0
 10
6.329782416
 20
3.1162403017
 30
0.0
 10
6.3401374694
 20
3.1276117101
 30
0.0
 10
6.3511549334
 20
3.1383316266
 30
0.0
 10
6.3628026601
 20
3.1483494321
 30
0.0
 10
6.3750553221
 20
3.1576120993
 30
0.0
 10
6.3878556745
 20
3.1661195167
 30
0.0
 10
6.4055985634
 20
3.1764862815
 30
0.0
 10
6.4288987088
 20
3.1876279481
 30
0.0
 10
6.4581359813
 20
3.1981732685
 30
0.0
 10
6.4882884864
 20
3.2060397806
 30
0.0
 10
6.5138794027
 20
3.2104661911
 30
0.0
 10
6.5344540604
 20
3.2127844518
 30
0.0
 10
6.554961635
 20
3.214289945
 30
0.0
 10
6.5805619902
 20
3.2146338764
 30
0.0
 10
6.6111070973
 20
3.2124924466
 30
0.0
 10
6.6412949208
 20
3.2077158761
 30
0.0
 10
6.6709872895
 20
3.2002257056
 30
0.0
 10
6.6902722786
 20
3.1934014256
 30
0.0
 10
6.6997567123
 20
3.189532075
 30
0.0
  0
SPLINE
  5
2AF
100
AcDbEntity
  8
0
100
AcDbSpline
 62
7
  6
CONTINUOUS
 70
0
 71
3
 72
35
 73
31
 74
0
 42
0.0000001
 43
0.0000001
 44
0.0000000001
 40
0.0
 40
0.0
 40
0.0
 40
0.0
 40
0.0335393914
 40
0.0663690249
 40
0.0984688466
 40
0.1298376569
 40
0.1605137726
 40
0.1905978198
 40
0.2202764893
 40
0.2350554981
 40
0.2498535416
 40
0.2647265265
 40
0.2797286418
 40
0.2948777937
 40
0.3101763786
 40
0.3411947835
 40
0.3727050016
 40
0.4045542586
 40
0.4365415349
 40
0.4684317921
 40
0.5000837244
 40
0.531547986
 40
0.5628841796
 40
0.6253314204
 40
0.6877026369
 40
0.7500894963
 40
0.812481532
 40
0.8749307353
 40
0.9374554495
 40
1.0
 40
1.0
 40
1.0
 40
1.0
 10
6.6520769252
 20
2.9015320306
 30
0.0
 10
6.6504579921
 20
2.9059728059
 30
0.0
 10
6.647310219
 20
2.914780624
 30
0.0
 10
6.6426404137
 20
2.9278484215
 30
0.0
 10
6.6378996684
 20
2.940565652
 30
0.0
 10
6.6329150611
 20
2.9528643661
 30
0.0
 10
6.6275120129
 20
2.9646768882
 30
0.0
 10
6.6215146668
 20
2.9759339119
 30
0.0
 10
6.6158630088
 20
2.9848063831
 30
0.0
 10
6.6108898449
 20
2.9915186173
 30
0.0
 10
6.6069094719
 20
2.9963595137
 30
0.0
 10
6.6026530853
 20
3.0010028427
 30
0.0
 10
6.598106206
 20
3.005433257
 30
0.0
 10
6.5932863808
 20
3.0096561248
 30
0.0
 10
6.5864929242
 20
3.0150354024
 30
0.0
 10
6.5774240074
 20
3.0212321803
 30
0.0
 10
6.5658486454
 20
3.0278094979
 30
0.0
 10
6.5536958243
 20
3.0335688003
 30
0.0
 10
6.5411336041
 20
3.0385128142
 30
0.0
 10
6.5283136056
 20
3.0426508131
 30
0.0
 10
6.5153401583
 20
3.0459926562
 30
0.0
 10
6.5022698406
 20
3.0485530676
 30
0.0
 10
6.484775881
 20
3.0509604885
 30
0.0
 10
6.4627572697
 20
3.0521671469
 30
0.0
 10
6.4363631556
 20
3.0509433173
 30
0.0
 10
6.4102081497
 20
3.0472833563
 30
0.0
 10
6.3844542335
 20
3.0414092899
 30
0.0
 10
6.3592310908
 20
3.0335098004
 30
0.0
 10
6.3346408817
 20
3.0237723715
 30
0.0
 10
6.3187209309
 20
3.0161726878
 30
0.0
 10
6.3108915818
 20
3.0121237525
 30
0.0
  0
SPLINE
  5
2B0
100
AcDbEntity
  8
0
100
AcDbSpline
 62
7
  6
CONTINUOUS
 70
0
 71
3
 72
21
 73
17
 74
0
 42
0.0000001
 43
0.0000001
 44
0.0000000001
 40
0.0
 40
0.0
 40
0.0
 40
0.0
 40
0.1265892958
 40
0.252931342
 40
0.3783842873
 40
0.4407587107
 40
0.5029403173
 40
0.5650352477
 40
0.6271479015
 40
0.6892747906
 40
0.751402932
 40
0.8135359726
 40
0.8446175549
 40
0.8757083905
 40
0.9378802404
 40
1.0
 40
1.0
 40
1.0
 40
1.0
 10
4.8782562707
 20
3.4826324085
 30
0.0
 10
4.8694015731
 20
3.4735710446
 30
0.0
 10
4.8509523966
 20
3.456182931
 30
0.0
 10
4.8210637679
 20
3.4328355963
 30
0.0
 10
4.7943067571
 20
3.4161754483
 30
0.0
 10
4.7719285055
 20
3.4049491046
 30
0.0
 10
4.7547053786
 20
3.3976775984
 30
0.0
 10
4.7370389402
 20
3.3916372307
 30
0.0
 10
4.7189799595
 20
3.3869159795
 30
0.0
 10
4.7006183286
 20
3.3835398456
 30
0.0
 10
4.6820533664
 20
3.3815475365
 30
0.0
 10
4.66649664
 20
3.3810715523
 30
0.0
 10
4.6540579113
 20
3.3814205317
 30
0.0
 10
4.6416386366
 20
3.3822597684
 30
0.0
 10
4.6261947283
 20
3.384216131
 30
0.0
 10
4.6139977196
 20
3.3867319881
 30
0.0
 10
4.6079619976
 20
3.3882228394
 30
0.0
  0
SPLINE
  5
2B1
100
AcDbEntity
  8
0
100
AcDbSpline
 62
7
  6
CONTINUOUS
 70
0
 71
3
 72
42
 73
38
 74
0
 42
0.0000001
 43
0.0000001
 44
0.0000000001
 40
0.0
 40
0.0
 40
0.0
 40
0.0
 40
0.0313960076
 40
0.0627574881
 40
0.0939719152
 40
0.1250182799
 40
0.1405082459
 40
0.1560012197
 40
0.1870037382
 40
0.2025055335
 40
0.2179969445
 40
0.2334836792
 40
0.2489751051
 40
0.2644734648
 40
0.2799744201
 40
0.2954684155
 40
0.3109487049
 40
0.3419318598
 40
0.3730429891
 40
0.3886478536
 40
0.4042666634
 40
0.4354574559
 40
0.4664681812
 40
0.4973650367
 40
0.5282660512
 40
0.5592682801
 40
0.5748334428
 40
0.5904491552
 40
0.621801337
 40
0.6532552882
 40
0.6847468365
 40
0.7162271866
 40
0.7476659311
 40
0.8103678551
 40
0.8731326923
 40
0.9364892614
 40
1.0
 40
1.0
 40
1.0
 40
1.0
 10
4.5831663343
 20
3.3689143869
 30
0.0
 10
4.5831330096
 20
3.3627435035
 30
0.0
 10
4.5826987383
 20
3.3504061793
 30
0.0
 10
4.5807631779
 20
3.3320202397
 30
0.0
 10
4.577352042
 20
3.313914299
 30
0.0
 10
4.5731118442
 20
3.2992022123
 30
0.0
 10
4.5687953094
 20
3.2877933486
 30
0.0
 10
4.5638339354
 20
3.2766602915
 30
0.0
 10
4.5578728608
 20
3.2659891004
 30
0.0
 10
4.5509327552
 20
3.2559647995
 30
0.0
 10
4.5452390781
 20
3.2488106854
 30
0.0
 10
4.5390597056
 20
3.2420742978
 30
0.0
 10
4.5324200008
 20
3.2357895341
 30
0.0
 10
4.5253684046
 20
3.2299671687
 30
0.0
 10
4.5179480939
 20
3.2246224117
 30
0.0
 10
4.5102021521
 20
3.2197682112
 30
0.0
 10
4.4994879221
 20
3.2139651851
 30
0.0
 10
4.4854499315
 20
3.2079234991
 30
0.0
 10
4.4708417848
 20
3.203385044
 30
0.0
 10
4.4589171483
 20
3.2005577328
 30
0.0
 10
4.4468674197
 20
3.1982377708
 30
0.0
 10
4.4316872262
 20
3.1962403689
 30
0.0
 10
4.4134104721
 20
3.1951075877
 30
0.0
 10
4.3951559231
 20
3.1951852318
 30
0.0
 10
4.3769457277
 20
3.196406516
 30
0.0
 10
4.3618307235
 20
3.1983184338
 30
0.0
 10
4.349777033
 20
3.2003485435
 30
0.0
 10
4.3377132233
 20
3.2027073619
 30
0.0
 10
4.3227072728
 20
3.2062657164
 30
0.0
 10
4.3049257549
 20
3.211528803
 30
0.0
 10
4.287451058
 20
3.2178127239
 30
0.0
 10
4.2703886745
 20
3.2251407271
 30
0.0
 10
4.2483576955
 20
3.2363191495
 30
0.0
 10
4.2223166204
 20
3.253049833
 30
0.0
 10
4.1943876137
 20
3.2777431711
 30
0.0
 10
4.17094834
 20
3.3069457206
 30
0.0
 10
4.1587566258
 20
3.3288652944
 30
0.0
 10
4.1536818936
 20
3.3402704566
 30
0.0
  0
SPLINE
  5
2B2
100
AcDbEntity
  8
0
100
AcDbSpline
 62
7
  6
CONTINUOUS
 70
0
 71
3
 72
15
 73
11
 74
0
 42
0.0000001
 43
0.0000001
 44
0.0000000001
 40
0.0
 40
0.0
 40
0.0
 40
0.0
 40
0.1249396057
 40
0.2500752439
 40
0.3754654074
 40
0.5010801426
 40
0.6265167866
 40
0.7514575207
 40
0.8758564389
 40
1.0
 40
1.0
 40
1.0
 40
1.0
 10
4.1157476009
 20
3.3358040648
 30
0.0
 10
4.1147489577
 20
3.33044536
 30
0.0
 10
4.1129759566
 20
3.3196759792
 30
0.0
 10
4.111012845
 20
3.3034078761
 30
0.0
 10
4.1097667196
 20
3.2870394385
 30
0.0
 10
4.1092563434
 20
3.2706171645
 30
0.0
 10
4.1096454973
 20
3.2542079002
 30
0.0
 10
4.111106968
 20
3.2379080712
 30
0.0
 10
4.113813974
 20
3.2218221677
 30
0.0
 10
4.1165665488
 20
3.2113133056
 30
0.0
 10
4.1182018634
 20
3.2061498447
 30
0.0
  0
SPLINE
  5
2B3
100
AcDbEntity
  8
0
100
AcDbSpline
 62
7
  6
CONTINUOUS
 70
0
 71
3
 72
44
 73
40
 74
0
 42
0.0000001
 43
0.0000001
 44
0.0000000001
 40
0.0
 40
0.0
 40
0.0
 40
0.0
 40
0.0311833632
 40
0.062541857
 40
0.0782595095
 40
0.0939741117
 40
0.1096669051
 40
0.1253267036
 40
0.1409670391
 40
0.1566016024
 40
0.1878675626
 40
0.2191366132
 40
0.2503677598
 40
0.2815866607
 40
0.3128132654
 40
0.3440405478
 40
0.3752586266
 40
0.4064742886
 40
0.4376937032
 40
0.4689239416
 40
0.5001636014
 40
0.5314023863
 40
0.5470234224
 40
0.5626436134
 40
0.5782643869
 40
0.5938879886
 40
0.6095159349
 40
0.625148423
 40
0.6564155443
 40
0.6876792532
 40
0.7033051215
 40
0.7189202734
 40
0.750129612
 40
0.7813573511
 40
0.8126189881
 40
0.8438996526
 40
0.8751597762
 40
0.9375814322
 40
1.0
 40
1.0
 40
1.0
 40
1.0
 10
4.1182018634
 20
3.2061498447
 30
0.0
 10
4.121866646
 20
3.194578394
 30
0.0
 10
4.1308153362
 20
3.171849781
 30
0.0
 10
4.1455550546
 20
3.1450971963
 30
0.0
 10
4.1592910903
 20
3.1248655642
 30
0.0
 10
4.1705171139
 20
3.1103435672
 30
0.0
 10
4.1826010998
 20
3.0965577226
 30
0.0
 10
4.1954964859
 20
3.0835688375
 30
0.0
 10
4.2091282956
 20
3.0713898877
 30
0.0
 10
4.2281940184
 20
3.0562356968
 30
0.0
 10
4.2535559995
 20
3.0393104946
 30
0.0
 10
4.2858858485
 20
3.0222483437
 30
0.0
 10
4.3196895979
 20
3.0083900584
 30
0.0
 10
4.3546095729
 20
2.9977227938
 30
0.0
 10
4.3903339781
 20
2.9902001708
 30
0.0
 10
4.4265691162
 20
2.9857707844
 30
0.0
 10
4.4630428769
 20
2.9843997939
 30
0.0
 10
4.4995004562
 20
2.9860782577
 30
0.0
 10
4.5356962141
 20
2.9907895505
 30
0.0
 10
4.5713791053
 20
2.9985234863
 30
0.0
 10
4.6062896408
 20
3.009238069
 30
0.0
 10
4.6345293751
 20
3.0206008721
 30
0.0
 10
4.6564650983
 20
3.0311169298
 30
0.0
 10
4.6725610436
 20
3.0397114207
 30
0.0
 10
4.6882647732
 20
3.049004925
 30
0.0
 10
4.7035431139
 20
3.0589877881
 30
0.0
 10
4.718375035
 20
3.0696305231
 30
0.0
 10
4.7375251593
 20
3.0846617396
 30
0.0
 10
4.7602404693
 20
3.1049598959
 30
0.0
 10
4.7811799883
 20
3.1270797119
 30
0.0
 10
4.7967817542
 20
3.1457561046
 30
0.0
 10
4.8115828715
 20
3.1650466194
 30
0.0
 10
4.8285899573
 20
3.1902634619
 30
0.0
 10
4.8466336318
 20
3.221996
 30
0.0
 10
4.8623733055
 20
3.2549596996
 30
0.0
 10
4.8758702539
 20
3.2889137949
 30
0.0
 10
4.8909525465
 20
3.3351862936
 30
0.0
 10
4.9045804072
 20
3.3945382119
 30
0.0
 10
4.9105610808
 20
3.4428419593
 30
0.0
 10
4.9124969971
 20
3.4670607282
 30
0.0
  0
SPLINE
  5
2B4
100
AcDbEntity
  8
0
100
AcDbSpline
 62
7
  6
CONTINUOUS
 70
0
 71
3
 72
71
 73
67
 74
0
 42
0.0000001
 43
0.0000001
 44
0.0000000001
 40
0.0
 40
0.0
 40
0.0
 40
0.0
 40
0.0189647495
 40
0.0363022467
 40
0.0521979537
 40
0.0668273765
 40
0.0803518532
 40
0.0929144693
 40
0.1046455378
 40
0.115670947
 40
0.1261077663
 40
0.1360607367
 40
0.1456192298
 40
0.1548549977
 40
0.1638209913
 40
0.1725557416
 40
0.18110927
 40
0.1895313453
 40
0.2061165146
 40
0.2225256723
 40
0.2388191891
 40
0.2550671551
 40
0.2713569815
 40
0.2877042205
 40
0.3203985821
 40
0.352840834
 40
0.38445329
 40
0.3997766056
 40
0.4146930861
 40
0.4291467712
 40
0.443109677
 40
0.4565728024
 40
0.4695468236
 40
0.4820662752
 40
0.4941832003
 40
0.5059709995
 40
0.5175280878
 40
0.5289600429
 40
0.5403455057
 40
0.5517597049
 40
0.5632781682
 40
0.5749529171
 40
0.5867965444
 40
0.5988148884
 40
0.6110135433
 40
0.6233973488
 40
0.6359650777
 40
0.6616067486
 40
0.6747042087
 40
0.6879825881
 40
0.7014573316
 40
0.7151573439
 40
0.7291297149
 40
0.7434121746
 40
0.7729504632
 40
0.7882225694
 40
0.8038027412
 40
0.8196653844
 40
0.8357800278
 40
0.8521126448
 40
0.8686201621
 40
0.9019393139
 40
0.9352577453
 40
0.9517455277
 40
0.96803996
 40
1.0
 40
1.0
 40
1.0
 40
1.0
 10
4.42934394
 20
3.5347967055
 30
0.0
 10
4.426551129
 20
3.5347664791
 30
0.0
 10
4.4212043855
 20
3.534522897
 30
0.0
 10
4.4135681256
 20
3.5335703548
 30
0.0
 10
4.4066626741
 20
3.5321126731
 30
0.0
 10
4.4004498996
 20
3.5302151198
 30
0.0
 10
4.3948918024
 20
3.5279421764
 30
0.0
 10
4.3899464617
 20
3.5253625922
 30
0.0
 10
4.3855791394
 20
3.5225218858
 30
0.0
 10
4.3817637421
 20
3.5194521358
 30
0.0
 10
4.3784722594
 20
3.5161888446
 30
0.0
 10
4.3756765879
 20
3.5127671544
 30
0.0
 10
4.3733479754
 20
3.5092225075
 30
0.0
 10
4.3714570576
 20
3.5055901561
 30
0.0
 10
4.3699741234
 20
3.5019043525
 30
0.0
 10
4.3688670712
 20
3.4981941527
 30
0.0
 10
4.3681162816
 20
3.4944775971
 30
0.0
 10
4.367565829
 20
3.4895604668
 30
0.0
 10
4.3676552161
 20
3.4834326804
 30
0.0
 10
4.3688602536
 20
3.4762508432
 30
0.0
 10
4.3709915581
 20
3.4693441086
 30
0.0
 10
4.3739141904
 20
3.4627573275
 30
0.0
 10
4.3775004899
 20
3.4565021581
 30
0.0
 10
4.3830043773
 20
3.4485982785
 30
0.0
 10
4.3909289688
 20
3.4395406346
 30
0.0
 10
4.4013141424
 20
3.4297706088
 30
0.0
 10
4.4102252802
 20
3.4222017359
 30
0.0
 10
4.4172072842
 20
3.4163516209
 30
0.0
 10
4.4222225108
 20
3.4120885042
 30
0.0
 10
4.427003619
 20
3.407860531
 30
0.0
 10
4.4314987076
 20
3.4036354825
 30
0.0
 10
4.4356596388
 20
3.3993794103
 30
0.0
 10
4.4394378127
 20
3.3950567833
 30
0.0
 10
4.4427835698
 20
3.3906358626
 30
0.0
 10
4.4456703157
 20
3.3861068723
 30
0.0
 10
4.4480700802
 20
3.3814593072
 30
0.0
 10
4.4499511995
 20
3.3766853146
 30
0.0
 10
4.45128721
 20
3.3717918619
 30
0.0
 10
4.4520778183
 20
3.3668026955
 30
0.0
 10
4.4523173841
 20
3.3617440965
 30
0.0
 10
4.4520003095
 20
3.3566472322
 30
0.0
 10
4.4511293068
 20
3.3515516267
 30
0.0
 10
4.4497155417
 20
3.3465031398
 30
0.0
 10
4.4477682452
 20
3.341552504
 30
0.0
 10
4.4452953481
 20
3.3367529009
 30
0.0
 10
4.4423154394
 20
3.3321535282
 30
0.0
 10
4.4376790632
 20
3.3263098121
 30
0.0
 10
4.4321528495
 20
3.3210791513
 30
0.0
 10
4.425904739
 20
3.3166322118
 30
0.0
 10
4.4208151365
 20
3.313691083
 30
0.0
 10
4.4153864311
 20
3.3112143526
 30
0.0
 10
4.4096431804
 20
3.3092516956
 30
0.0
 10
4.403627156
 20
3.3078061291
 30
0.0
 10
4.3952034215
 20
3.3065321911
 30
0.0
 10
4.3864669145
 20
3.3062678834
 30
0.0
 10
4.3775915705
 20
3.3068970452
 30
0.0
 10
4.3707692596
 20
3.307822387
 30
0.0
 10
4.3638947662
 20
3.3091830068
 30
0.0
 10
4.3570034184
 20
3.3109663782
 30
0.0
 10
4.3501255649
 20
3.3131387275
 30
0.0
 10
4.3409842436
 20
3.3165196827
 30
0.0
 10
4.3297946541
 20
3.3215306001
 30
0.0
 10
4.3190310283
 20
3.3273859498
 30
0.0
 10
4.310735556
 20
3.332483524
 30
0.0
 10
4.3027881876
 20
3.3377536333
 30
0.0
 10
4.297074927
 20
3.341993846
 30
0.0
 10
4.2934047221
 20
3.3449406593
 30
0.0
  0
SPLINE
  5
2B5
100
AcDbEntity
  8
0
100
AcDbSpline
 62
7
  6
CONTINUOUS
 70
0
 71
3
 72
55
 73
51
 74
0
 42
0.0000001
 43
0.0000001
 44
0.0000000001
 40
0.0
 40
0.0
 40
0.0
 40
0.0
 40
0.0163195387
 40
0.0326192863
 40
0.040795735
 40
0.048985773
 40
0.0571792252
 40
0.065362913
 40
0.0735297333
 40
0.0816826345
 40
0.0979612121
 40
0.1142275913
 40
0.1305118473
 40
0.1468289612
 40
0.1631683723
 40
0.1958656003
 40
0.2285198752
 40
0.2610631014
 40
0.2934518816
 40
0.3256823428
 40
0.3577959335
 40
0.3738388704
 40
0.3898891221
 40
0.4220222053
 40
0.4542281599
 40
0.486540628
 40
0.5189969756
 40
0.5515541584
 40
0.5841116094
 40
0.6165677936
 40
0.6488073338
 40
0.6806036459
 40
0.7117209796
 40
0.7419867397
 40
0.7713064325
 40
0.7996608293
 40
0.813525861
 40
0.827224576
 40
0.8408135819
 40
0.8543669095
 40
0.8679626877
 40
0.8816695551
 40
0.895555472
 40
0.9096866105
 40
0.9240998486
 40
0.938801363
 40
0.953786897
 40
0.9690387445
 40
0.9844800333
 40
1.0
 40
1.0
 40
1.0
 40
1.0
 10
4.8892018634
 20
3.8721498447
 30
0.0
 10
4.8901219296
 20
3.8686518159
 30
0.0
 10
4.8914358233
 20
3.8615168195
 30
0.0
 10
4.8920841815
 20
3.8524883722
 30
0.0
 10
4.8922427312
 20
3.8452496102
 30
0.0
 10
4.8922389796
 20
3.8398058825
 30
0.0
 10
4.8921684656
 20
3.8343613585
 30
0.0
 10
4.8920932582
 20
3.8289220284
 30
0.0
 10
4.8920491332
 20
3.8234913353
 30
0.0
 10
4.8920099768
 20
3.8162664671
 30
0.0
 10
4.8919784919
 20
3.8072463961
 30
0.0
 10
4.891893801
 20
3.7964242893
 30
0.0
 10
4.8916827226
 20
3.7855950849
 30
0.0
 10
4.891291613
 20
3.7747545135
 30
0.0
 10
4.8905253295
 20
3.760289482
 30
0.0
 10
4.8890803979
 20
3.7422368657
 30
0.0
 10
4.8864848191
 20
3.7206892924
 30
0.0
 10
4.8829488413
 20
3.6993436605
 30
0.0
 10
4.8783683741
 20
3.6782908448
 30
0.0
 10
4.8725900742
 20
3.6576306767
 30
0.0
 10
4.8666516009
 20
3.6408152633
 30
0.0
 10
4.8611634296
 20
3.627682017
 30
0.0
 10
4.8551595934
 20
3.6147717208
 30
0.0
 10
4.8466913303
 20
3.5990723713
 30
0.0
 10
4.8350341251
 20
3.5810735242
 30
0.0
 10
4.8219120364
 20
3.564020274
 30
0.0
 10
4.8073711474
 20
3.5480537397
 30
0.0
 10
4.7915352066
 20
3.5332921953
 30
0.0
 10
4.7745587749
 20
3.5198580186
 30
0.0
 10
4.7566021421
 20
3.5078905769
 30
0.0
 10
4.7378582144
 20
3.4975400536
 30
0.0
 10
4.7185507789
 20
3.4889840255
 30
0.0
 10
4.6989307442
 20
3.4824296413
 30
0.0
 10
4.6792573439
 20
3.4780930907
 30
0.0
 10
4.659808625
 20
3.4761933521
 30
0.0
 10
4.6439008663
 20
3.4768309218
 30
0.0
 10
4.6316537876
 20
3.4788109225
 30
0.0
 10
4.6227950561
 20
3.4810325316
 30
0.0
 10
4.6142392726
 20
3.4840284919
 30
0.0
 10
4.6060326928
 20
3.4878287078
 30
0.0
 10
4.5982212367
 20
3.4924381017
 30
0.0
 10
4.5908413106
 20
3.4978361643
 30
0.0
 10
4.5839329845
 20
3.5040055536
 30
0.0
 10
4.5775437792
 20
3.5109250139
 30
0.0
 10
4.5717079883
 20
3.5185445795
 30
0.0
 10
4.5664541102
 20
3.526800541
 30
0.0
 10
4.5618167494
 20
3.535627721
 30
0.0
 10
4.5578376739
 20
3.5449483735
 30
0.0
 10
4.5545372742
 20
3.5546539546
 30
0.0
 10
4.5528043428
 20
3.5613009773
 30
0.0
 10
4.5520570453
 20
3.5646586117
 30
0.0
  0
SPLINE
  5
2B6
100
AcDbEntity
  8
0
100
AcDbSpline
 62
7
  6
CONTINUOUS
 70
0
 71
3
 72
51
 73
47
 74
0
 42
0.0000001
 43
0.0000001
 44
0.0000000001
 40
0.0
 40
0.0
 40
0.0
 40
0.0
 40
0.0163793134
 40
0.0326835553
 40
0.0489523691
 40
0.0652161068
 40
0.0814930166
 40
0.0977886177
 40
0.1141057639
 40
0.1304455912
 40
0.1468019641
 40
0.1631634718
 40
0.1958607836
 40
0.2284747914
 40
0.2609719152
 40
0.2933328715
 40
0.325556957
 40
0.3576879847
 40
0.3737490606
 40
0.3898180942
 40
0.4219867226
 40
0.4542326566
 40
0.4866006159
 40
0.5191174111
 40
0.5517023431
 40
0.5842462689
 40
0.6166420022
 40
0.6487201083
 40
0.6802201372
 40
0.7109246461
 40
0.7406970916
 40
0.7694750776
 40
0.7973271071
 40
0.8110027667
 40
0.8245820803
 40
0.8381461166
 40
0.8517737675
 40
0.8655364355
 40
0.8795054636
 40
0.8937444178
 40
0.908276511
 40
0.9231032539
 40
0.9382167013
 40
0.9535761297
 40
0.9690769494
 40
1.0
 40
1.0
 40
1.0
 40
1.0
 10
4.2632018634
 20
4.4981498447
 30
0.0
 10
4.25949567
 20
4.4986888442
 30
0.0
 10
4.2520771809
 20
4.4996101583
 30
0.0
 10
4.2409251194
 20
4.5005893978
 30
0.0
 10
4.2297757226
 20
4.5012341582
 30
0.0
 10
4.2186212582
 20
4.5016205095
 30
0.0
 10
4.2074557982
 20
4.5018100633
 30
0.0
 10
4.1962766028
 20
4.5018213174
 30
0.0
 10
4.1850840762
 20
4.5016773141
 30
0.0
 10
4.1738801087
 20
4.5014052847
 30
0.0
 10
4.1626697367
 20
4.5010046615
 30
0.0
 10
4.1477302847
 20
4.5002649495
 30
0.0
 10
4.129101101
 20
4.498905027
 30
0.0
 10
4.1068702636
 20
4.4964034037
 30
0.0
 10
4.0848567927
 20
4.4928579105
 30
0.0
 10
4.0631577215
 20
4.4881156251
 30
0.0
 10
4.0418777252
 20
4.4820403213
 30
0.0
 10
4.024580089
 20
4.4757485388
 30
0.0
 10
4.0110889358
 20
4.469918141
 30
0.0
 10
3.9978359043
 20
4.4635456735
 30
0.0
 10
3.9817449734
 20
4.4545702318
 30
0.0
 10
3.9633472383
 20
4.4422276722
 30
0.0
 10
3.9459815729
 20
4.4283397915
 30
0.0
 10
3.9298026924
 20
4.4129735764
 30
0.0
 10
3.9149299344
 20
4.3962872241
 30
0.0
 10
3.9015081959
 20
4.3784470472
 30
0.0
 10
3.8896946682
 20
4.3596392252
 30
0.0
 10
3.8796636627
 20
4.3400885312
 30
0.0
 10
3.8716279976
 20
4.3200477626
 30
0.0
 10
3.8658196515
 20
4.2997925192
 30
0.0
 10
3.8624804765
 20
4.2796062458
 30
0.0
 10
3.861846196
 20
4.2597969605
 30
0.0
 10
3.8638024965
 20
4.2437582817
 30
0.0
 10
3.866989326
 20
4.2315512701
 30
0.0
 10
3.8701943846
 20
4.2227691661
 30
0.0
 10
3.8742601598
 20
4.2143623037
 30
0.0
 10
3.8791794796
 20
4.2063753711
 30
0.0
 10
3.8849318983
 20
4.1988493316
 30
0.0
 10
3.8914982901
 20
4.1918293236
 30
0.0
 10
3.8988490341
 20
4.1853671423
 30
0.0
 10
3.906919608
 20
4.1794929332
 30
0.0
 10
3.9156420616
 20
4.1742417581
 30
0.0
 10
3.9249421474
 20
4.1696557264
 30
0.0
 10
3.9347234391
 20
4.1657734028
 30
0.0
 10
3.9482184621
 20
4.1615672501
 30
0.0
 10
3.9586894117
 20
4.1595315283
 30
0.0
 10
3.9657126574
 20
4.1587141129
 30
0.0
  0
SPLINE
  5
2B7
100
AcDbEntity
  8
0
100
AcDbSpline
 62
7
  6
CONTINUOUS
 70
0
 71
3
 72
69
 73
65
 74
0
 42
0.0000001
 43
0.0000001
 44
0.0000000001
 40
0.0
 40
0.0
 40
0.0
 40
0.0
 40
0.0189841641
 40
0.0363297931
 40
0.0522245603
 40
0.066846027
 40
0.0803573317
 40
0.0929030406
 40
0.1046149062
 40
0.1156201257
 40
0.1260368248
 40
0.1359704826
 40
0.1455108395
 40
0.154729635
 40
0.1636794494
 40
0.1723992291
 40
0.1809403436
 40
0.1893524627
 40
0.2059236615
 40
0.222323082
 40
0.2386077528
 40
0.2548528818
 40
0.2711431135
 40
0.2874896977
 40
0.320173729
 40
0.3525844118
 40
0.3841308435
 40
0.3994081677
 40
0.4142690535
 40
0.4286595417
 40
0.4425544477
 40
0.4688397067
 40
0.4812931562
 40
0.4933514183
 40
0.5050925207
 40
0.5166197775
 40
0.5280359382
 40
0.539418473
 40
0.5508436478
 40
0.5623868091
 40
0.5740913169
 40
0.5859670149
 40
0.5980194801
 40
0.6102545998
 40
0.6226761493
 40
0.6352818204
 40
0.660999288
 40
0.6741368066
 40
0.6874591125
 40
0.7009845985
 40
0.7147476812
 40
0.7287965292
 40
0.7431641826
 40
0.7728830144
 40
0.7882431401
 40
0.8039062587
 40
0.8198445947
 40
0.8360266292
 40
0.8524154634
 40
0.8689646258
 40
0.9023119256
 40
0.9355682734
 40
0.9682021078
 40
1.0
 40
1.0
 40
1.0
 40
1.0
 10
3.9186358678
 20
4.0382447948
 30
0.0
 10
3.9185804829
 20
4.0354104406
 30
0.0
 10
3.9182852359
 20
4.0299872272
 30
0.0
 10
3.9172471564
 20
4.0222495271
 30
0.0
 10
3.9157010162
 20
4.0152623287
 30
0.0
 10
3.9137133711
 20
4.0089858701
 30
0.0
 10
3.9113499764
 20
4.0033805423
 30
0.0
 10
3.908680919
 20
3.9984025837
 30
0.0
 10
3.9057519968
 20
3.9940161668
 30
0.0
 10
3.9025959437
 20
3.9901941868
 30
0.0
 10
3.899248894
 20
3.9869075597
 30
0.0
 10
3.895746636
 20
3.9841270915
 30
0.0
 10
3.8921252487
 20
3.9818228989
 30
0.0
 10
3.8884205818
 20
3.9799645049
 30
0.0
 10
3.8846673495
 20
3.9785209025
 30
0.0
 10
3.8808944173
 20
3.9774591971
 30
0.0
 10
3.8771196242
 20
3.9767596612
 30
0.0
 10
3.8721307039
 20
3.9762836943
 30
0.0
 10
3.8659246422
 20
3.9764776512
 30
0.0
 10
3.8586687005
 20
3.9778200755
 30
0.0
 10
3.8517054698
 20
3.9800963897
 30
0.0
 10
3.8450781156
 20
3.9831690395
 30
0.0
 10
3.8387955555
 20
3.9869070302
 30
0.0
 10
3.8308709182
 20
3.9926115356
 30
0.0
 10
3.8218121536
 20
4.0007774045
 30
0.0
 10
3.8120577662
 20
4.0114261022
 30
0.0
 10
3.8045011486
 20
4.0205324853
 30
0.0
 10
3.7986544068
 20
4.0276502135
 30
0.0
 10
3.7943897341
 20
4.0327520999
 30
0.0
 10
3.7901534631
 20
4.03760824
 30
0.0
 10
3.7846029632
 20
4.0435741816
 30
0.0
 10
3.7788726884
 20
4.0489859079
 30
0.0
 10
3.7728122805
 20
4.0535601772
 30
0.0
 10
3.7682315397
 20
4.0564582711
 30
0.0
 10
3.7635233841
 20
4.0588566142
 30
0.0
 10
3.7586804779
 20
4.0607211494
 30
0.0
 10
3.7537138082
 20
4.0620302225
 30
0.0
 10
3.7486485167
 20
4.0627833001
 30
0.0
 10
3.7435120238
 20
4.0629741405
 30
0.0
 10
3.7383378765
 20
4.0625968691
 30
0.0
 10
3.7331679516
 20
4.0616569719
 30
0.0
 10
3.7280507112
 20
4.0601648483
 30
0.0
 10
3.7230385713
 20
4.0581295422
 30
0.0
 10
3.7181867054
 20
4.0555587466
 30
0.0
 10
3.7135434361
 20
4.0524756194
 30
0.0
 10
3.7076543146
 20
4.0476931198
 30
0.0
 10
3.7024010932
 20
4.042009971
 30
0.0
 10
3.6979604735
 20
4.0355971155
 30
0.0
 10
3.695039491
 20
4.0303781606
 30
0.0
 10
3.6926011591
 20
4.0248148702
 30
0.0
 10
3.6906918499
 20
4.0189346563
 30
0.0
 10
3.6893013068
 20
4.012782886
 30
0.0
 10
3.6881074966
 20
4.0041758163
 30
0.0
 10
3.6879302465
 20
3.9952630396
 30
0.0
 10
3.6886536795
 20
3.9862175631
 30
0.0
 10
3.6896544043
 20
3.9792715412
 30
0.0
 10
3.6910958041
 20
3.9722791125
 30
0.0
 10
3.6929594961
 20
3.9652754153
 30
0.0
 10
3.6952089684
 20
3.9582906064
 30
0.0
 10
3.6986870243
 20
3.9490202285
 30
0.0
 10
3.7038066975
 20
3.9376907685
 30
0.0
 10
3.7109259198
 20
3.9246797354
 30
0.0
 10
3.7188034859
 20
3.9123886256
 30
0.0
 10
3.7245693166
 20
3.9046729405
 30
0.0
 10
3.7275570915
 20
3.9009823919
 30
0.0
  0
SPLINE
  5
2B8
100
AcDbEntity
  8
0
100
AcDbSpline
 62
7
  6
CONTINUOUS
 70
0
 71
3
 72
21
 73
17
 74
0
 42
0.0000001
 43
0.0000001
 44
0.0000000001
 40
0.0
 40
0.0
 40
0.0
 40
0.0
 40
0.1265890529
 40
0.2529314829
 40
0.3783845578
 40
0.4407589035
 40
0.5029404009
 40
0.5650353367
 40
0.6271480604
 40
0.689274986
 40
0.7514031506
 40
0.813536261
 40
0.8446179322
 40
0.8757088375
 40
0.93788063
 40
1.0
 40
1.0
 40
1.0
 40
1.0
 10
3.8685802123
 20
4.4873121759
 30
0.0
 10
3.8594813605
 20
4.4784690138
 30
0.0
 10
3.8420175344
 20
4.4600395161
 30
0.0
 10
3.8185556816
 20
4.4301689316
 30
0.0
 10
3.8018004667
 20
4.4034159486
 30
0.0
 10
3.7904996766
 20
4.381033517
 30
0.0
 10
3.7831734857
 20
4.3638033999
 30
0.0
 10
3.7770798181
 20
4.3461259205
 30
0.0
 10
3.7723068974
 20
4.3280518176
 30
0.0
 10
3.7688809997
 20
4.3096711633
 30
0.0
 10
3.7668412016
 20
4.2910834237
 30
0.0
 10
3.7663278244
 20
4.2755047157
 30
0.0
 10
3.7666484126
 20
4.2630467055
 30
0.0
 10
3.7674602401
 20
4.250607066
 30
0.0
 10
3.7693842408
 20
4.2351358126
 30
0.0
 10
3.7718764041
 20
4.2229150904
 30
0.0
 10
3.7733560057
 20
4.2168671326
 30
0.0
  0
SPLINE
  5
2B9
100
AcDbEntity
  8
0
100
AcDbSpline
 62
7
  6
CONTINUOUS
 70
0
 71
3
 72
44
 73
40
 74
0
 42
0.0000001
 43
0.0000001
 44
0.0000000001
 40
0.0
 40
0.0
 40
0.0
 40
0.0
 40
0.0311833612
 40
0.0625418518
 40
0.0782595034
 40
0.0939741064
 40
0.1096669028
 40
0.1253267044
 40
0.1409670411
 40
0.1566016041
 40
0.1878675623
 40
0.2191366148
 40
0.2503677648
 40
0.2815866647
 40
0.3128132674
 40
0.3440405507
 40
0.37525863
 40
0.406474291
 40
0.4376937033
 40
0.4689239378
 40
0.500163596
 40
0.5314023814
 40
0.5470234178
 40
0.5626436085
 40
0.5782643805
 40
0.5938879793
 40
0.6095159222
 40
0.625148407
 40
0.6564155251
 40
0.687679239
 40
0.7033051138
 40
0.7189202735
 40
0.7501296115
 40
0.7813573368
 40
0.8126189597
 40
0.8438996223
 40
0.8751597637
 40
0.9375814253
 40
1.0
 40
1.0
 40
1.0
 40
1.0
 10
3.5902018634
 20
3.7281498447
 30
0.0
 10
3.5786426168
 20
3.7318438113
 30
0.0
 10
3.5559425109
 20
3.7408493901
 30
0.0
 10
3.5292343641
 20
3.7556550358
 30
0.0
 10
3.5090430282
 20
3.7694402978
 30
0.0
 10
3.4945534829
 20
3.7807013243
 30
0.0
 10
3.4808021265
 20
3.7928181929
 30
0.0
 10
3.4678496327
 20
3.8057441977
 30
0.0
 10
3.4557087836
 20
3.8194043501
 30
0.0
 10
3.4406074335
 20
3.8385048388
 30
0.0
 10
3.4237517489
 20
3.863904688
 30
0.0
 10
3.4067771328
 20
3.8962711239
 30
0.0
 10
3.3930094114
 20
3.9301028218
 30
0.0
 10
3.3824348169
 20
3.9650422283
 30
0.0
 10
3.3750061751
 20
4.000777748
 30
0.0
 10
3.3706713335
 20
4.0370158919
 30
0.0
 10
3.369394747
 20
4.0734847086
 30
0.0
 10
3.3711668154
 20
4.1099294826
 30
0.0
 10
3.3759702802
 20
4.1461046818
 30
0.0
 10
3.3837943065
 20
4.1817593573
 30
0.0
 10
3.3945962484
 20
4.2166341975
 30
0.0
 10
3.4060290444
 20
4.2448381392
 30
0.0
 10
3.416599047
 20
4.2667417299
 30
0.0
 10
3.4252329017
 20
4.2828118474
 30
0.0
 10
3.43456458
 20
4.2984880544
 30
0.0
 10
3.4445843547
 20
4.3137372056
 30
0.0
 10
3.4552626974
 20
4.3285383488
 30
0.0
 10
3.4703395818
 20
4.3476454288
 30
0.0
 10
3.490691323
 20
4.3703033578
 30
0.0
 10
3.5128597241
 20
4.3911812577
 30
0.0
 10
3.5315717966
 20
4.4067315006
 30
0.0
 10
3.5508957824
 20
4.421479719
 30
0.0
 10
3.5761503784
 20
4.4384181797
 30
0.0
 10
3.6079218182
 20
4.4563762524
 30
0.0
 10
3.640918234
 20
4.4720276773
 30
0.0
 10
3.6748990811
 20
4.4854343375
 30
0.0
 10
3.7211995521
 20
4.5003943347
 30
0.0
 10
3.7805726959
 20
4.5138665773
 30
0.0
 10
3.8288806007
 20
4.5197216688
 30
0.0
 10
3.8530987222
 20
4.5215948368
 30
0.0
  0
SPLINE
  5
2BA
100
AcDbEntity
  8
0
100
AcDbSpline
 62
7
  6
CONTINUOUS
 70
0
 71
3
 72
15
 73
11
 74
0
 42
0.0000001
 43
0.0000001
 44
0.0000000001
 40
0.0
 40
0.0
 40
0.0
 40
0.0
 40
0.1249540681
 40
0.250091377
 40
0.3754692827
 40
0.5010589429
 40
0.6264744246
 40
0.751413602
 40
0.8758322928
 40
1.0
 40
1.0
 40
1.0
 40
1.0
 10
3.7201554496
 20
3.7249356172
 30
0.0
 10
3.714777792
 20
3.723966134
 30
0.0
 10
3.7039721616
 20
3.7222528335
 30
0.0
 10
3.6876541146
 20
3.7203844121
 30
0.0
 10
3.671241296
 20
3.719239142
 30
0.0
 10
3.654780045
 20
3.7188376567
 30
0.0
 10
3.6383375285
 20
3.7193373798
 30
0.0
 10
3.6220093414
 20
3.7209029657
 30
0.0
 10
3.6058986972
 20
3.7236996432
 30
0.0
 10
3.5953741362
 20
3.7264969513
 30
0.0
 10
3.5902018634
 20
3.7281498447
 30
0.0
  0
SPLINE
  5
2BB
100
AcDbEntity
  8
0
100
AcDbSpline
 62
7
  6
CONTINUOUS
 70
0
 71
3
 72
47
 73
43
 74
0
 42
0.0000001
 43
0.0000001
 44
0.0000000001
 40
0.0
 40
0.0
 40
0.0
 40
0.0
 40
0.0313894719
 40
0.0627451207
 40
0.0939542388
 40
0.1249952684
 40
0.1404822416
 40
0.1559718447
 40
0.1869680521
 40
0.2024668951
 40
0.2179553391
 40
0.2334389269
 40
0.2489270712
 40
0.2644221689
 40
0.279920015
 40
0.2954111753
 40
0.310888508
 40
0.3418641886
 40
0.3729671745
 40
0.3885682542
 40
0.4041837416
 40
0.4353700636
 40
0.4663774132
 40
0.4972688931
 40
0.5281626538
 40
0.5591559354
 40
0.5747160606
 40
0.5903266389
 40
0.6216696292
 40
0.6531157619
 40
0.6846006919
 40
0.7160753456
 40
0.7475089148
 40
0.7788920812
 40
0.8102403863
 40
0.8415975925
 40
0.87303878
 40
0.8888268347
 40
0.90466613
 40
0.9364385997
 40
0.9682518577
 40
1.0
 40
1.0
 40
1.0
 40
1.0
 10
3.7540326562
 20
4.1921146664
 30
0.0
 10
3.7478671404
 20
4.1920826878
 30
0.0
 10
3.7355403432
 20
4.1916519472
 30
0.0
 10
3.7171693991
 20
4.18972474
 30
0.0
 10
3.6990770199
 20
4.1863255305
 30
0.0
 10
3.6843745433
 20
4.1820987052
 30
0.0
 10
3.6729719339
 20
4.1777950638
 30
0.0
 10
3.6618440319
 20
4.1728481409
 30
0.0
 10
3.6511760638
 20
4.1669032469
 30
0.0
 10
3.6411522525
 20
4.1599809085
 30
0.0
 10
3.6339970159
 20
4.1543012965
 30
0.0
 10
3.627257753
 20
4.1481367913
 30
0.0
 10
3.6209690623
 20
4.141511783
 30
0.0
 10
3.6151416609
 20
4.1344746851
 30
0.0
 10
3.6097907451
 20
4.1270685299
 30
0.0
 10
3.6049292072
 20
4.1193364213
 30
0.0
 10
3.5991152797
 20
4.1086402578
 30
0.0
 10
3.5930590074
 20
4.0946235091
 30
0.0
 10
3.5885052488
 20
4.0800346926
 30
0.0
 10
3.5856655745
 20
4.0681244189
 30
0.0
 10
3.5833330724
 20
4.0560877049
 30
0.0
 10
3.5813203276
 20
4.0409219564
 30
0.0
 10
3.5801687313
 20
4.0226611501
 30
0.0
 10
3.580226222
 20
4.0044217774
 30
0.0
 10
3.5814266312
 20
3.986226562
 30
0.0
 10
3.5833206339
 20
3.97112368
 30
0.0
 10
3.5853362616
 20
3.9590795808
 30
0.0
 10
3.5876803208
 20
3.9470250748
 30
0.0
 10
3.5912187637
 20
3.9320294065
 30
0.0
 10
3.596455772
 20
3.9142579445
 30
0.0
 10
3.6027115091
 20
3.8967902211
 30
0.0
 10
3.610008405
 20
3.8797326291
 30
0.0
 10
3.6183691616
 20
3.8631912681
 30
0.0
 10
3.6278167493
 20
3.8472726581
 30
0.0
 10
3.6383746151
 20
3.832083451
 30
0.0
 10
3.6500657355
 20
3.817731748
 30
0.0
 10
3.6607594133
 20
3.8065731207
 30
0.0
 10
3.6698835489
 20
3.7981887474
 30
0.0
 10
3.6794077799
 20
3.7901606694
 30
0.0
 10
3.6919673852
 20
3.7808717881
 30
0.0
 10
3.7079278994
 20
3.7710383485
 30
0.0
 10
3.7190982023
 20
3.7654193443
 30
0.0
 10
3.7247885966
 20
3.7628683193
 30
0.0
  0
SPLINE
  5
2BC
100
AcDbEntity
  8
0
100
AcDbSpline
 62
7
  6
CONTINUOUS
 70
0
 71
3
 72
45
 73
41
 74
0
 42
0.0000001
 43
0.0000001
 44
0.0000000001
 40
0.0
 40
0.0
 40
0.0
 40
0.0
 40
0.0619270379
 40
0.1238539166
 40
0.1549192381
 40
0.1861785762
 40
0.2175398757
 40
0.2488583175
 40
0.2800657996
 40
0.2956387673
 40
0.3112043121
 40
0.3267845926
 40
0.3423990128
 40
0.3580485187
 40
0.3737287775
 40
0.4051386867
 40
0.4365689956
 40
0.4522732403
 40
0.4679537885
 40
0.4836040349
 40
0.4992293232
 40
0.5304517684
 40
0.5617179175
 40
0.5930566113
 40
0.6244548239
 40
0.6558708104
 40
0.6872535036
 40
0.7185695939
 40
0.7498186285
 40
0.7810460003
 40
0.7966884212
 40
0.812363229
 40
0.8437751933
 40
0.8752210003
 40
0.9066106244
 40
0.9222658047
 40
0.9378802354
 40
0.953450279
 40
0.9689839882
 40
1.0
 40
1.0
 40
1.0
 40
1.0
 10
4.6882018634
 20
4.0991498447
 30
0.0
 10
4.6970296381
 20
4.1038704636
 30
0.0
 10
4.7146275803
 20
4.1134226162
 30
0.0
 10
4.7358507449
 20
4.1267936218
 30
0.0
 10
4.751850978
 20
4.1389590292
 30
0.0
 10
4.7632333335
 20
4.1489708287
 30
0.0
 10
4.7738230185
 20
4.1598790935
 30
0.0
 10
4.7834188342
 20
4.1716643871
 30
0.0
 10
4.7904116599
 20
4.1822057726
 30
0.0
 10
4.7952789178
 20
4.19103622
 30
0.0
 10
4.7985400485
 20
4.1978530971
 30
0.0
 10
4.8013833483
 20
4.2048621385
 30
0.0
 10
4.8037867848
 20
4.2120481683
 30
0.0
 10
4.8057541359
 20
4.2193822759
 30
0.0
 10
4.8077945297
 20
4.2293220734
 30
0.0
 10
4.8092481029
 20
4.2419622958
 30
0.0
 10
4.8092366281
 20
4.2546893099
 30
0.0
 10
4.8083441829
 20
4.2648091296
 30
0.0
 10
4.8072328122
 20
4.2723354498
 30
0.0
 10
4.8056761288
 20
4.2797695218
 30
0.0
 10
4.8030159777
 20
4.2895211699
 30
0.0
 10
4.7986343479
 20
4.3013956408
 30
0.0
 10
4.7918326689
 20
4.3149844288
 30
0.0
 10
4.7836245078
 20
4.32780515
 30
0.0
 10
4.7741444882
 20
4.3397445609
 30
0.0
 10
4.7635284482
 20
4.3506953741
 30
0.0
 10
4.7518869525
 20
4.3605301274
 30
0.0
 10
4.7393196442
 20
4.3691065302
 30
0.0
 10
4.725930295
 20
4.3762827598
 30
0.0
 10
4.7141734526
 20
4.3809753445
 30
0.0
 10
4.7044831614
 20
4.383878747
 30
0.0
 10
4.6946066091
 20
4.3861997804
 30
0.0
 10
4.682008657
 20
4.388004488
 30
0.0
 10
4.6667469292
 20
4.3884145865
 30
0.0
 10
4.6540768444
 20
4.3872895863
 30
0.0
 10
4.6441015401
 20
4.3855029755
 30
0.0
 10
4.6367373982
 20
4.3837214191
 30
0.0
 10
4.6295158562
 20
4.3814937369
 30
0.0
 10
4.6201187486
 20
4.37794031
 30
0.0
 10
4.6133231236
 20
4.374660944
 30
0.0
 10
4.6089284944
 20
4.372247292
 30
0.0
  0
SPLINE
  5
2BD
100
AcDbEntity
  8
0
100
AcDbSpline
 62
7
  6
CONTINUOUS
 70
0
 71
3
 72
26
 73
22
 74
0
 42
0.0000001
 43
0.0000001
 44
0.0000000001
 40
0.0
 40
0.0
 40
0.0
 40
0.0
 40
0.0628587772
 40
0.0943771119
 40
0.1258776715
 40
0.1573064059
 40
0.1886234527
 40
0.2198713984
 40
0.251105484
 40
0.3136278899
 40
0.3762619414
 40
0.4075690104
 40
0.438813303
 40
0.4699984538
 40
0.5011497643
 40
0.5634223597
 40
0.6257531664
 40
0.6881900979
 40
0.7507233112
 40
0.8757782772
 40
1.0
 40
1.0
 40
1.0
 40
1.0
 10
3.7091396576
 20
3.5818182458
 30
0.0
 10
3.7200092295
 20
3.5715387137
 30
0.0
 10
3.7352808784
 20
3.5549445532
 30
0.0
 10
3.7533065149
 20
3.5309982534
 30
0.0
 10
3.7656384377
 20
3.5121835584
 30
0.0
 10
3.7767018899
 20
3.4926530395
 30
0.0
 10
3.7864367198
 20
3.4724943084
 30
0.0
 10
3.7948774155
 20
3.4518122144
 30
0.0
 10
3.8044977373
 20
3.4236443948
 30
0.0
 10
3.8136287767
 20
3.3874880749
 30
0.0
 10
3.8193393099
 20
3.3506424635
 30
0.0
 10
3.8221363714
 20
3.3209742058
 30
0.0
 10
3.8234164571
 20
3.2986965057
 30
0.0
 10
3.8239179754
 20
3.276425377
 30
0.0
 10
3.8235917213
 20
3.2467653964
 30
0.0
 10
3.8214036546
 20
3.2097345804
 30
0.0
 10
3.816205295
 20
3.1655016492
 30
0.0
 10
3.8087123774
 20
3.1215395849
 30
0.0
 10
3.7960313123
 20
3.0633826009
 30
0.0
 10
3.7758810598
 20
2.9918896998
 30
0.0
 10
3.7564771916
 20
2.9358005064
 30
0.0
 10
3.7462743774
 20
2.9080518045
 30
0.0
  0
SPLINE
  5
2BE
100
AcDbEntity
  8
0
100
AcDbSpline
 62
7
  6
CONTINUOUS
 70
0
 71
3
 72
51
 73
47
 74
0
 42
0.0000001
 43
0.0000001
 44
0.0000000001
 40
0.0
 40
0.0
 40
0.0
 40
0.0
 40
0.0312414225
 40
0.0624952044
 40
0.0781245993
 40
0.0937519502
 40
0.1093767746
 40
0.1249994534
 40
0.1406215302
 40
0.1562438247
 40
0.1718654027
 40
0.1874838878
 40
0.2031005994
 40
0.2187197641
 40
0.2343420073
 40
0.249964331
 40
0.2655811012
 40
0.2811924972
 40
0.3124144809
 40
0.3280322689
 40
0.343655622
 40
0.359283989
 40
0.3749136584
 40
0.3905408144
 40
0.4061632101
 40
0.4217803236
 40
0.4373935078
 40
0.4530061406
 40
0.468622856
 40
0.4842459604
 40
0.4998761827
 40
0.5311535419
 40
0.5624449197
 40
0.5937245192
 40
0.6249791694
 40
0.6562296687
 40
0.6874897207
 40
0.7187618259
 40
0.7500383673
 40
0.7656737927
 40
0.7813048667
 40
0.8125576677
 40
0.8438052571
 40
0.8750520521
 40
0.9375411065
 40
1.0
 40
1.0
 40
1.0
 40
1.0
 10
3.9850735168
 20
2.9082924118
 30
0.0
 10
3.9794558278
 20
2.9229852589
 30
0.0
 10
3.9693434721
 20
2.9528203774
 30
0.0
 10
3.9596157621
 20
2.9909770863
 30
0.0
 10
3.9536377228
 20
3.0218854811
 30
0.0
 10
3.9500712169
 20
3.0452259938
 30
0.0
 10
3.9474364608
 20
3.0686864501
 30
0.0
 10
3.9457524577
 20
3.0922317616
 30
0.0
 10
3.9450133238
 20
3.115824062
 30
0.0
 10
3.945193173
 20
3.1394263477
 30
0.0
 10
3.9462692255
 20
3.1630027495
 30
0.0
 10
3.9482227379
 20
3.1865196022
 30
0.0
 10
3.9510141569
 20
3.2099498933
 30
0.0
 10
3.9545755209
 20
3.2332767483
 30
0.0
 10
3.958844601
 20
3.2564868126
 30
0.0
 10
3.9637587836
 20
3.2795670378
 30
0.0
 10
3.9692534916
 20
3.3025100422
 30
0.0
 10
3.9772976633
 20
3.3329099172
 30
0.0
 10
3.9863631764
 20
3.3630309153
 30
0.0
 10
3.9963203782
 20
3.3928648062
 30
0.0
 10
4.004208149
 20
3.415107982
 30
0.0
 10
4.0124777098
 20
3.4372182021
 30
0.0
 10
4.0211504218
 20
3.4591758147
 30
0.0
 10
4.030260789
 20
3.4809525017
 30
0.0
 10
4.0398394425
 20
3.5025207058
 30
0.0
 10
4.0499180423
 20
3.5238524438
 30
0.0
 10
4.0605278508
 20
3.5449198689
 30
0.0
 10
4.0717005961
 20
3.5656945134
 30
0.0
 10
4.0834643383
 20
3.5861461174
 30
0.0
 10
4.0957940049
 20
3.6062718678
 30
0.0
 10
4.1129588089
 20
3.6326695034
 30
0.0
 10
4.1357090848
 20
3.664827839
 30
0.0
 10
4.1648746616
 20
3.7020281088
 30
0.0
 10
4.1957289517
 20
3.7378235089
 30
0.0
 10
4.2281062453
 20
3.7722161221
 30
0.0
 10
4.2618428588
 20
3.8052593509
 30
0.0
 10
4.2967947691
 20
3.8370246549
 30
0.0
 10
4.3328190909
 20
3.867585762
 30
0.0
 10
4.363617711
 20
3.8921133385
 30
0.0
 10
4.3886568752
 20
3.9112117435
 30
0.0
 10
4.4139376795
 20
3.9299691566
 30
0.0
 10
4.4459818409
 20
3.9527971459
 30
0.0
 10
4.4850798842
 20
3.9792504455
 30
0.0
 10
4.5379854499
 20
4.0133342238
 30
0.0
 10
4.6054188017
 20
4.0538443862
 30
0.0
 10
4.6604696701
 20
4.0843201602
 30
0.0
 10
4.6882018634
 20
4.0991498447
 30
0.0
  0
SPLINE
  5
2BF
100
AcDbEntity
  8
0
100
AcDbSpline
 62
7
  6
CONTINUOUS
 70
0
 71
3
 72
33
 73
29
 74
0
 42
0.0000001
 43
0.0000001
 44
0.0000000001
 40
0.0
 40
0.0
 40
0.0
 40
0.0
 40
0.0629195435
 40
0.0946070039
 40
0.1263751053
 40
0.1899172806
 40
0.2216256574
 40
0.2532204373
 40
0.3158988936
 40
0.3469922863
 40
0.3779172909
 40
0.3933321294
 40
0.4087359417
 40
0.4395844244
 40
0.4705757406
 40
0.5017492295
 40
0.5330912638
 40
0.5645500812
 40
0.5960499129
 40
0.627516906
 40
0.658925734
 40
0.6902647088
 40
0.7215244488
 40
0.7526987471
 40
0.8147841404
 40
0.8765697495
 40
0.938211457
 40
1.0
 40
1.0
 40
1.0
 40
1.0
 10
3.7004480866
 20
3.2382872541
 30
0.0
 10
3.7025682341
 20
3.2525366814
 30
0.0
 10
3.7042187423
 20
3.2742266707
 30
0.0
 10
3.7034976379
 20
3.3031675852
 30
0.0
 10
3.7008479252
 20
3.3321423486
 30
0.0
 10
3.6953447577
 20
3.3608011977
 30
0.0
 10
3.6870514687
 20
3.3886541635
 30
0.0
 10
3.676961334
 20
3.4156948442
 30
0.0
 10
3.6641330046
 20
3.4415068921
 30
0.0
 10
3.6486182589
 20
3.4655005614
 30
0.0
 10
3.6378414287
 20
3.479606419
 30
0.0
 10
3.6285768007
 20
3.490288838
 30
0.0
 10
3.6189159857
 20
3.5005901936
 30
0.0
 10
3.6061341694
 20
3.5128341184
 30
0.0
 10
3.5899101676
 20
3.5266441632
 30
0.0
 10
3.5729832351
 20
3.53976263
 30
0.0
 10
3.5555433169
 20
3.552369291
 30
0.0
 10
3.537778999
 20
3.5646433262
 30
0.0
 10
3.5198763835
 20
3.5767644743
 30
0.0
 10
3.5020102201
 20
3.5889190437
 30
0.0
 10
3.4842373973
 20
3.6011450337
 30
0.0
 10
3.4666038856
 20
3.6134887956
 30
0.0
 10
3.4491530688
 20
3.6259981952
 30
0.0
 10
3.4262198662
 20
3.642937871
 30
0.0
 10
3.3982149193
 20
3.6647705698
 30
0.0
 10
3.3659717473
 20
3.6924529606
 30
0.0
 10
3.3354873387
 20
3.7219746264
 30
0.0
 10
3.3166367281
 20
3.7430767791
 30
0.0
 10
3.3076597793
 20
3.7540111928
 30
0.0
  0
SPLINE
  5
2C0
100
AcDbEntity
  8
0
100
AcDbSpline
 62
7
  6
CONTINUOUS
 70
0
 71
3
 72
22
 73
18
 74
0
 42
0.0000001
 43
0.0000001
 44
0.0000000001
 40
0.0
 40
0.0
 40
0.0
 40
0.0
 40
0.0652445552
 40
0.1290914971
 40
0.1917398384
 40
0.2534001986
 40
0.3142934499
 40
0.3746488867
 40
0.4347019644
 40
0.4946916985
 40
0.5548578595
 40
0.6154381232
 40
0.6766653429
 40
0.7387650949
 40
0.8019536116
 40
0.8664361733
 40
1.0
 40
1.0
 40
1.0
 40
1.0
 10
3.2890221846
 20
3.5086774632
 30
0.0
 10
3.2994155054
 20
3.5070038051
 30
0.0
 10
3.3198986607
 20
3.5031605214
 30
0.0
 10
3.3499627289
 20
3.4957972006
 30
0.0
 10
3.3790072741
 20
3.4869019649
 30
0.0
 10
3.407030243
 20
3.4764743537
 30
0.0
 10
3.4340307404
 20
3.4645138971
 30
0.0
 10
3.4600073878
 20
3.4510204731
 30
0.0
 10
3.4849588601
 20
3.4359942748
 30
0.0
 10
3.5088838732
 20
3.4194358406
 30
0.0
 10
3.5317813244
 20
3.401346006
 30
0.0
 10
3.5536503481
 20
3.3817258767
 30
0.0
 10
3.5744904518
 20
3.360576581
 30
0.0
 10
3.5943012232
 20
3.3378997476
 30
0.0
 10
3.61308348
 20
3.3136951972
 30
0.0
 10
3.6370311373
 20
3.2789892616
 30
0.0
 10
3.6530196714
 20
3.2512363151
 30
0.0
 10
3.6628840632
 20
3.2320759569
 30
0.0
  0
SPLINE
  5
2C1
100
AcDbEntity
  8
0
100
AcDbSpline
 62
7
  6
CONTINUOUS
 70
0
 71
3
 72
30
 73
26
 74
0
 42
0.0000001
 43
0.0000001
 44
0.0000000001
 40
0.0
 40
0.0
 40
0.0
 40
0.0
 40
0.0311908
 40
0.0623641182
 40
0.0935300095
 40
0.1247146408
 40
0.1559223185
 40
0.18713732
 40
0.2183455052
 40
0.2495361543
 40
0.2807034744
 40
0.3118535368
 40
0.3430250916
 40
0.3742556873
 40
0.4369522922
 40
0.5000046874
 40
0.5632779177
 40
0.6265043675
 40
0.657994681
 40
0.6893539154
 40
0.7517146028
 40
0.813740687
 40
0.8756253944
 40
0.9376128822
 40
1.0
 40
1.0
 40
1.0
 40
1.0
 10
3.428274493
 20
3.3102541864
 30
0.0
 10
3.4330390008
 20
3.3083763112
 30
0.0
 10
3.4424801599
 20
3.304400306
 30
0.0
 10
3.4563228515
 20
3.2977361384
 30
0.0
 10
3.4697874249
 20
3.2903365593
 30
0.0
 10
3.482804483
 20
3.2821633042
 30
0.0
 10
3.4953217074
 20
3.2732294697
 30
0.0
 10
3.5072923204
 20
3.2635692921
 30
0.0
 10
3.5186637287
 20
3.2532142386
 30
0.0
 10
3.5293836453
 20
3.2421967747
 30
0.0
 10
3.5394014507
 20
3.230549048
 30
0.0
 10
3.5486641179
 20
3.2182963859
 30
0.0
 10
3.5571715353
 20
3.2054960336
 30
0.0
 10
3.5675383001
 20
3.1877531446
 30
0.0
 10
3.5786799668
 20
3.1644529992
 30
0.0
 10
3.5892252871
 20
3.1352157268
 30
0.0
 10
3.5970917992
 20
3.1050632217
 30
0.0
 10
3.6015182097
 20
3.0794723053
 30
0.0
 10
3.6038364704
 20
3.0588976477
 30
0.0
 10
3.6053419637
 20
3.0383900731
 30
0.0
 10
3.605685895
 20
3.0127897179
 30
0.0
 10
3.6035444652
 20
2.9822446108
 30
0.0
 10
3.5987678948
 20
2.9520567873
 30
0.0
 10
3.5912777242
 20
2.9223644185
 30
0.0
 10
3.5844534443
 20
2.9030794295
 30
0.0
 10
3.5805840936
 20
2.8935949958
 30
0.0
  0
SPLINE
  5
2C2
100
AcDbEntity
  8
0
100
AcDbSpline
 62
7
  6
CONTINUOUS
 70
0
 71
3
 72
35
 73
31
 74
0
 42
0.0000001
 43
0.0000001
 44
0.0000000001
 40
0.0
 40
0.0
 40
0.0
 40
0.0
 40
0.0335393914
 40
0.0663690249
 40
0.0984688466
 40
0.1298376569
 40
0.1605137726
 40
0.1905978198
 40
0.2202764893
 40
0.2350554981
 40
0.2498535416
 40
0.2647265265
 40
0.2797286418
 40
0.2948777937
 40
0.3101763786
 40
0.3411947835
 40
0.3727050016
 40
0.4045542586
 40
0.4365415349
 40
0.4684317921
 40
0.5000837244
 40
0.531547986
 40
0.5628841796
 40
0.6253314204
 40
0.6877026369
 40
0.7500894963
 40
0.812481532
 40
0.8749307353
 40
0.9374554495
 40
1.0
 40
1.0
 40
1.0
 40
1.0
 10
3.2925840492
 20
2.9412747829
 30
0.0
 10
3.2970248245
 20
2.942893716
 30
0.0
 10
3.3058326426
 20
2.946041489
 30
0.0
 10
3.3189004401
 20
2.9507112944
 30
0.0
 10
3.3316176706
 20
2.9554520397
 30
0.0
 10
3.3439163848
 20
2.960436647
 30
0.0
 10
3.3557289068
 20
2.9658396952
 30
0.0
 10
3.3669859305
 20
2.9718370413
 30
0.0
 10
3.3758584018
 20
2.9774886993
 30
0.0
 10
3.3825706359
 20
2.9824618631
 30
0.0
 10
3.3874115323
 20
2.9864422361
 30
0.0
 10
3.3920548613
 20
2.9906986228
 30
0.0
 10
3.3964852756
 20
2.9952455021
 30
0.0
 10
3.4007081435
 20
3.0000653273
 30
0.0
 10
3.4060874211
 20
3.0068587839
 30
0.0
 10
3.4122841989
 20
3.0159277007
 30
0.0
 10
3.4188615166
 20
3.0275030627
 30
0.0
 10
3.424620819
 20
3.0396558837
 30
0.0
 10
3.4295648328
 20
3.052218104
 30
0.0
 10
3.4337028317
 20
3.0650381024
 30
0.0
 10
3.4370446749
 20
3.0780115497
 30
0.0
 10
3.4396050862
 20
3.0910818674
 30
0.0
 10
3.4420125071
 20
3.108575827
 30
0.0
 10
3.4432191656
 20
3.1305944384
 30
0.0
 10
3.4419953359
 20
3.1569885525
 30
0.0
 10
3.4383353749
 20
3.1831435583
 30
0.0
 10
3.4324613086
 20
3.2088974746
 30
0.0
 10
3.424561819
 20
3.2341206172
 30
0.0
 10
3.4148243902
 20
3.2587108263
 30
0.0
 10
3.4072247064
 20
3.2746307772
 30
0.0
 10
3.4031757711
 20
3.2824601262
 30
0.0
  0
SPLINE
  5
2C3
100
AcDbEntity
  8
0
100
AcDbSpline
 62
7
  6
CONTINUOUS
 70
0
 71
3
 72
15
 73
11
 74
0
 42
0.0000001
 43
0.0000001
 44
0.0000000001
 40
0.0
 40
0.0
 40
0.0
 40
0.0
 40
0.1277455518
 40
0.2531525571
 40
0.3769759967
 40
0.5000000092
 40
0.6230240206
 40
0.7468474566
 40
0.8722544561
 40
1.0
 40
1.0
 40
1.0
 40
1.0
 10
4.8642097774
 20
4.5834113353
 30
0.0
 10
4.8702208003
 20
4.5803369861
 30
0.0
 10
4.8819173282
 20
4.5738102399
 30
0.0
 10
4.8985391702
 20
4.562790119
 30
0.0
 10
4.914045329
 20
4.5506463719
 30
0.0
 10
4.9284322956
 20
4.5373803368
 30
0.0
 10
4.9416983356
 20
4.5229933747
 30
0.0
 10
4.9538420875
 20
4.5074872204
 30
0.0
 10
4.9648622133
 20
4.4908653828
 30
0.0
 10
4.9713889629
 20
4.4791688576
 30
0.0
 10
4.9744633138
 20
4.473157836
 30
0.0
  0
SPLINE
  5
2C4
100
AcDbEntity
  8
0
100
AcDbSpline
 62
7
  6
CONTINUOUS
 70
0
 71
3
 72
15
 73
11
 74
0
 42
0.0000001
 43
0.0000001
 44
0.0000000001
 40
0.0
 40
0.0
 40
0.0
 40
0.0
 40
0.1277455404
 40
0.2531525373
 40
0.3769759719
 40
0.4999999827
 40
0.6230239958
 40
0.7468474369
 40
0.8722544448
 40
1.0
 40
1.0
 40
1.0
 40
1.0
 10
5.0099404125
 20
4.4731578364
 30
0.0
 10
5.0130147633
 20
4.4791688578
 30
0.0
 10
5.0195415126
 20
4.4908653826
 30
0.0
 10
5.0305616382
 20
4.5074872198
 30
0.0
 10
5.0427053899
 20
4.5229933737
 30
0.0
 10
5.0559714298
 20
4.5373803355
 30
0.0
 10
5.0703583964
 20
4.5506463705
 30
0.0
 10
5.0858645553
 20
4.5627901176
 30
0.0
 10
5.1024863976
 20
4.5738102387
 30
0.0
 10
5.1141829256
 20
4.580336985
 30
0.0
 10
5.1201939486
 20
4.5834113343
 30
0.0
  0
SPLINE
  5
2C5
100
AcDbEntity
  8
0
100
AcDbSpline
 62
7
  6
CONTINUOUS
 70
0
 71
3
 72
15
 73
11
 74
0
 42
0.0000001
 43
0.0000001
 44
0.0000000001
 40
0.0
 40
0.0
 40
0.0
 40
0.0
 40
0.1277455518
 40
0.2531525571
 40
0.3769759967
 40
0.5000000092
 40
0.6230240205
 40
0.7468474566
 40
0.8722544561
 40
1.0
 40
1.0
 40
1.0
 40
1.0
 10
5.1201939493
 20
4.6188883541
 30
0.0
 10
5.1141829264
 20
4.6219627033
 30
0.0
 10
5.1024863985
 20
4.6284894495
 30
0.0
 10
5.0858645565
 20
4.6395095704
 30
0.0
 10
5.0703583976
 20
4.6516533175
 30
0.0
 10
5.055971431
 20
4.6649193528
 30
0.0
 10
5.0427053911
 20
4.6793063148
 30
0.0
 10
5.0305616391
 20
4.6948124691
 30
0.0
 10
5.0195415133
 20
4.7114343068
 30
0.0
 10
5.0130147637
 20
4.723130832
 30
0.0
 10
5.0099404128
 20
4.7291418536
 30
0.0
  0
SPLINE
  5
2C6
100
AcDbEntity
  8
0
100
AcDbSpline
 62
7
  6
CONTINUOUS
 70
0
 71
3
 72
15
 73
11
 74
0
 42
0.0000001
 43
0.0000001
 44
0.0000000001
 40
0.0
 40
0.0
 40
0.0
 40
0.0
 40
0.1277455404
 40
0.2531525374
 40
0.3769759719
 40
0.4999999828
 40
0.6230239958
 40
0.746847437
 40
0.8722544448
 40
1.0
 40
1.0
 40
1.0
 40
1.0
 10
4.9744633143
 20
4.7291418532
 30
0.0
 10
4.9713889635
 20
4.7231308318
 30
0.0
 10
4.9648622142
 20
4.711434307
 30
0.0
 10
4.9538420886
 20
4.6948124698
 30
0.0
 10
4.9416983368
 20
4.6793063159
 30
0.0
 10
4.928432297
 20
4.6649193541
 30
0.0
 10
4.9140453303
 20
4.6516533189
 30
0.0
 10
4.8985391714
 20
4.6395095718
 30
0.0
 10
4.8819173292
 20
4.6284894508
 30
0.0
 10
4.8702208012
 20
4.6219627044
 30
0.0
 10
4.8642097781
 20
4.6188883551
 30
0.0
  0
SPLINE
  5
2C7
100
AcDbEntity
  8
0
100
AcDbSpline
 62
7
  6
CONTINUOUS
 70
0
 71
3
 72
19
 73
15
 74
0
 42
0.0000001
 43
0.0000001
 44
0.0000000001
 40
0.0
 40
0.0
 40
0.0
 40
0.0
 40
0.1247788724
 40
0.1874357398
 40
0.2500232329
 40
0.3125702271
 40
0.3751250316
 40
0.4999827478
 40
0.624841061
 40
0.6873957154
 40
0.7499468088
 40
0.812541925
 40
0.8752095451
 40
1.0
 40
1.0
 40
1.0
 40
1.0
 10
4.974463329
 20
4.7291418457
 30
0.0
 10
4.9752926813
 20
4.730763389
 30
0.0
 10
4.9768791803
 20
4.7330452979
 30
0.0
 10
4.9795256321
 20
4.7355695847
 30
0.0
 10
4.9817577241
 20
4.7371764384
 30
0.0
 10
4.9841864625
 20
4.738463114
 30
0.0
 10
4.9876254847
 20
4.7397105966
 30
0.0
 10
4.9922010861
 20
4.7403600964
 30
0.0
 10
4.9967767925
 20
4.7397110828
 30
0.0
 10
5.0002159108
 20
4.7384636705
 30
0.0
 10
5.0026449067
 20
4.7371771373
 30
0.0
 10
5.0048774022
 20
4.7355702538
 30
0.0
 10
5.0075240541
 20
4.7330455489
 30
0.0
 10
5.0091109683
 20
4.7307635396
 30
0.0
 10
5.0099403979
 20
4.729141846
 30
0.0
  0
SPLINE
  5
2C8
100
AcDbEntity
  8
0
100
AcDbSpline
 62
7
  6
CONTINUOUS
 70
0
 71
3
 72
19
 73
15
 74
0
 42
0.0000001
 43
0.0000001
 44
0.0000000001
 40
0.0
 40
0.0
 40
0.0
 40
0.0
 40
0.124778843
 40
0.1874357561
 40
0.2500232632
 40
0.3125702284
 40
0.3751250054
 40
0.4999827492
 40
0.6248410883
 40
0.6873957135
 40
0.7499467785
 40
0.8125419107
 40
0.8752095768
 40
1.0
 40
1.0
 40
1.0
 40
1.0
 10
4.8642097921
 20
4.5834113641
 30
0.0
 10
4.8625882615
 20
4.5842407154
 30
0.0
 10
4.8603063831
 20
4.5858272318
 30
0.0
 10
4.8577821344
 20
4.5884736873
 30
0.0
 10
4.8561752968
 20
4.5907057697
 30
0.0
 10
4.854888631
 20
4.5931344932
 30
0.0
 10
4.8536411588
 20
4.5965734946
 30
0.0
 10
4.8529916677
 20
4.6011490679
 30
0.0
 10
4.8536406729
 20
4.6057247464
 30
0.0
 10
4.8548880754
 20
4.6091638436
 30
0.0
 10
4.856174599
 20
4.6115928244
 30
0.0
 10
4.8577814664
 20
4.6138253104
 30
0.0
 10
4.8603061332
 20
4.6164719662
 30
0.0
 10
4.862588112
 20
4.6180588976
 30
0.0
 10
4.864209793
 20
4.6188883261
 30
0.0
  0
SPLINE
  5
2C9
100
AcDbEntity
  8
0
100
AcDbSpline
 62
7
  6
CONTINUOUS
 70
0
 71
3
 72
19
 73
15
 74
0
 42
0.0000001
 43
0.0000001
 44
0.0000000001
 40
0.0
 40
0.0
 40
0.0
 40
0.0
 40
0.1247788724
 40
0.1874357398
 40
0.2500232328
 40
0.3125702271
 40
0.3751250317
 40
0.4999827477
 40
0.6248410609
 40
0.6873957154
 40
0.7499468088
 40
0.812541925
 40
0.8752095451
 40
1.0
 40
1.0
 40
1.0
 40
1.0
 10
5.0099403979
 20
4.4731578439
 30
0.0
 10
5.0091110455
 20
4.4715363005
 30
0.0
 10
5.0075245466
 20
4.4692543916
 30
0.0
 10
5.0048780948
 20
4.4667301047
 30
0.0
 10
5.0026460028
 20
4.4651232509
 30
0.0
 10
5.0002172643
 20
4.4638365752
 30
0.0
 10
4.9967782421
 20
4.4625890926
 30
0.0
 10
4.9922026407
 20
4.4619395927
 30
0.0
 10
4.9876269341
 20
4.4625886064
 30
0.0
 10
4.9841878158
 20
4.4638360187
 30
0.0
 10
4.9817588198
 20
4.465122552
 30
0.0
 10
4.9795263243
 20
4.4667294355
 30
0.0
 10
4.9768796724
 20
4.4692541406
 30
0.0
 10
4.9752927583
 20
4.4715361499
 30
0.0
 10
4.9744633287
 20
4.4731578436
 30
0.0
  0
SPLINE
  5
2CA
100
AcDbEntity
  8
0
100
AcDbSpline
 62
7
  6
CONTINUOUS
 70
0
 71
3
 72
19
 73
15
 74
0
 42
0.0000001
 43
0.0000001
 44
0.0000000001
 40
0.0
 40
0.0
 40
0.0
 40
0.0
 40
0.124778843
 40
0.1874357561
 40
0.2500232632
 40
0.3125702284
 40
0.3751250054
 40
0.4999827492
 40
0.6248410883
 40
0.6873957135
 40
0.7499467785
 40
0.8125419107
 40
0.8752095768
 40
1.0
 40
1.0
 40
1.0
 40
1.0
 10
5.1201939346
 20
4.6188883253
 30
0.0
 10
5.1218154652
 20
4.6180589741
 30
0.0
 10
5.1240973436
 20
4.6164724576
 30
0.0
 10
5.1266215923
 20
4.6138260022
 30
0.0
 10
5.1282284299
 20
4.6115939197
 30
0.0
 10
5.1295150957
 20
4.6091651963
 30
0.0
 10
5.1307625679
 20
4.6057261949
 30
0.0
 10
5.131412059
 20
4.6011506215
 30
0.0
 10
5.1307630538
 20
4.5965749431
 30
0.0
 10
5.1295156513
 20
4.5931358458
 30
0.0
 10
5.1282291277
 20
4.590706865
 30
0.0
 10
5.1266222603
 20
4.5884743791
 30
0.0
 10
5.1240975935
 20
4.5858277233
 30
0.0
 10
5.1218156147
 20
4.5842407919
 30
0.0
 10
5.1201939338
 20
4.5834113633
 30
0.0
  0
SPLINE
  5
2CB
100
AcDbEntity
  8
0
100
AcDbSpline
 62
7
  6
CONTINUOUS
 70
0
 71
3
 72
19
 73
15
 74
0
 42
0.0000001
 43
0.0000001
 44
0.0000000001
 40
0.0
 40
0.0
 40
0.0
 40
0.0
 40
0.1247806687
 40
0.1874494481
 40
0.2500445816
 40
0.3125951902
 40
0.3751519907
 40
0.5000066862
 40
0.624859749
 40
0.6874164516
 40
0.7499663194
 40
0.8125594494
 40
0.8752242958
 40
1.0
 40
1.0
 40
1.0
 40
1.0
 10
5.1727580065
 20
2.9133229196
 30
0.0
 10
5.173896935
 20
2.9118618639
 30
0.0
 10
5.1753153374
 20
2.9094149485
 30
0.0
 10
5.1764888324
 20
2.905884403
 30
0.0
 10
5.1769916905
 20
2.9031319115
 30
0.0
 10
5.1771080473
 20
2.9003382728
 30
0.0
 10
5.1767364658
 20
2.8966355826
 30
0.0
 10
5.1752985851
 20
2.8921578713
 30
0.0
 10
5.1726509634
 20
2.8882710448
 30
0.0
 10
5.1699591242
 20
2.8857016635
 30
0.0
 10
5.1676842637
 20
2.8840760136
 30
0.0
 10
5.1652043283
 20
2.8827804831
 30
0.0
 10
5.1616985622
 20
2.8815353862
 30
0.0
 10
5.1588967957
 20
2.8811498447
 30
0.0
 10
5.1570443463
 20
2.8811498447
 30
0.0
  0
SPLINE
  5
2CC
100
AcDbEntity
  8
0
100
AcDbSpline
 62
7
  6
CONTINUOUS
 70
0
 71
3
 72
19
 73
15
 74
0
 42
0.0000001
 43
0.0000001
 44
0.0000000001
 40
0.0
 40
0.0
 40
0.0
 40
0.0
 40
0.1247609079
 40
0.1874265653
 40
0.2500307033
 40
0.3125943957
 40
0.3751624601
 40
0.500025571
 40
0.6248722837
 40
0.6874274277
 40
0.7499747128
 40
0.8125661073
 40
0.8752304347
 40
1.0
 40
1.0
 40
1.0
 40
1.0
 10
4.9742115952
 20
3.1765971566
 30
0.0
 10
4.975014965
 20
3.1782851323
 30
0.0
 10
4.9765840411
 20
3.1806701974
 30
0.0
 10
4.9792467868
 20
3.183317692
 30
0.0
 10
4.9815102219
 20
3.1850071386
 30
0.0
 10
4.9839860366
 20
3.186362795
 30
0.0
 10
4.9875045524
 20
3.187678585
 30
0.0
 10
4.9922027938
 20
3.1883649751
 30
0.0
 10
4.9969007338
 20
3.1876780969
 30
0.0
 10
5.0004185334
 20
3.1863623939
 30
0.0
 10
5.0028938436
 20
3.1850071367
 30
0.0
 10
5.0051568486
 20
3.1833178553
 30
0.0
 10
5.0078193217
 20
3.1806702297
 30
0.0
 10
5.009388706
 20
3.1782852494
 30
0.0
 10
5.0101921315
 20
3.1765971566
 30
0.0
  0
SPLINE
  5
2CD
100
AcDbEntity
  8
0
100
AcDbSpline
 62
7
  6
CONTINUOUS
 70
0
 71
3
 72
19
 73
15
 74
0
 42
0.0000001
 43
0.0000001
 44
0.0000000001
 40
0.0
 40
0.0
 40
0.0
 40
0.0
 40
0.1247816171
 40
0.1874644903
 40
0.250086221
 40
0.3126599996
 40
0.3752175342
 40
0.5000436476
 40
0.6248852202
 40
0.6874399971
 40
0.7499849652
 40
0.8125718248
 40
0.875230242
 40
1.0
 40
1.0
 40
1.0
 40
1.0
 10
4.8273593804
 20
2.8811498447
 30
0.0
 10
4.8255068428
 20
2.8811498447
 30
0.0
 10
4.8227047096
 20
2.8815353922
 30
0.0
 10
4.8191982506
 20
2.8827809557
 30
0.0
 10
4.8167176845
 20
2.8840775759
 30
0.0
 10
4.8144423883
 20
2.8857039073
 30
0.0
 10
4.8117502032
 20
2.8882729257
 30
0.0
 10
4.8091042657
 20
2.8921603095
 30
0.0
 10
4.8076670838
 20
2.896637415
 30
0.0
 10
4.8072955824
 20
2.900339818
 30
0.0
 10
4.8074121644
 20
2.9031332182
 30
0.0
 10
4.8079151939
 20
2.9058852973
 30
0.0
 10
4.8090884296
 20
2.9094154685
 30
0.0
 10
4.810506891
 20
2.9118619914
 30
0.0
 10
4.8116457202
 20
2.9133229196
 30
0.0
  0
SPLINE
  5
2CE
100
AcDbEntity
  8
0
100
AcDbSpline
 62
7
  6
CONTINUOUS
 70
0
 71
3
 72
19
 73
15
 74
0
 42
0.0000001
 43
0.0000001
 44
0.0000000001
 40
0.0
 40
0.0
 40
0.0
 40
0.0
 40
0.1247806687
 40
0.1874494481
 40
0.2500445816
 40
0.3125951902
 40
0.3751519907
 40
0.5000066862
 40
0.624859749
 40
0.6874164516
 40
0.7499663194
 40
0.8125594494
 40
0.8752242958
 40
1.0
 40
1.0
 40
1.0
 40
1.0
 10
6.6800287885
 20
4.7817059879
 30
0.0
 10
6.6814898441
 20
4.7828449164
 30
0.0
 10
6.6839367596
 20
4.7842633187
 30
0.0
 10
6.6874673051
 20
4.7854368138
 30
0.0
 10
6.6902197965
 20
4.7859396718
 30
0.0
 10
6.6930134353
 20
4.7860560287
 30
0.0
 10
6.6967161254
 20
4.7856844472
 30
0.0
 10
6.7011938368
 20
4.7842465665
 30
0.0
 10
6.7050806633
 20
4.7815989447
 30
0.0
 10
6.7076500446
 20
4.7789071055
 30
0.0
 10
6.7092756945
 20
4.7766322451
 30
0.0
 10
6.710571225
 20
4.7741523097
 30
0.0
 10
6.7118163219
 20
4.7706465436
 30
0.0
 10
6.7122018634
 20
4.767844777
 30
0.0
 10
6.7122018634
 20
4.7659923277
 30
0.0
  0
SPLINE
  5
2CF
100
AcDbEntity
  8
0
100
AcDbSpline
 62
7
  6
CONTINUOUS
 70
0
 71
3
 72
19
 73
15
 74
0
 42
0.0000001
 43
0.0000001
 44
0.0000000001
 40
0.0
 40
0.0
 40
0.0
 40
0.0
 40
0.1247609079
 40
0.1874265653
 40
0.2500307033
 40
0.3125943957
 40
0.3751624601
 40
0.500025571
 40
0.6248722837
 40
0.6874274277
 40
0.7499747128
 40
0.8125661073
 40
0.8752304347
 40
1.0
 40
1.0
 40
1.0
 40
1.0
 10
6.4167545515
 20
4.5831595765
 30
0.0
 10
6.4150665758
 20
4.5839629463
 30
0.0
 10
6.4126815107
 20
4.5855320224
 30
0.0
 10
6.4100340161
 20
4.5881947682
 30
0.0
 10
6.4083445695
 20
4.5904582033
 30
0.0
 10
6.4069889131
 20
4.592934018
 30
0.0
 10
6.4056731231
 20
4.5964525338
 30
0.0
 10
6.4049867329
 20
4.6011507752
 30
0.0
 10
6.4056736112
 20
4.6058487152
 30
0.0
 10
6.4069893142
 20
4.6093665147
 30
0.0
 10
6.4083445714
 20
4.611841825
 30
0.0
 10
6.4100338528
 20
4.6141048299
 30
0.0
 10
6.4126814784
 20
4.6167673031
 30
0.0
 10
6.4150664587
 20
4.6183366874
 30
0.0
 10
6.4167545515
 20
4.6191401129
 30
0.0
  0
SPLINE
  5
2D0
100
AcDbEntity
  8
0
100
AcDbSpline
 62
7
  6
CONTINUOUS
 70
0
 71
3
 72
19
 73
15
 74
0
 42
0.0000001
 43
0.0000001
 44
0.0000000001
 40
0.0
 40
0.0
 40
0.0
 40
0.0
 40
0.1247816171
 40
0.1874644903
 40
0.250086221
 40
0.3126599996
 40
0.3752175342
 40
0.5000436476
 40
0.6248852202
 40
0.6874399971
 40
0.7499849652
 40
0.8125718248
 40
0.875230242
 40
1.0
 40
1.0
 40
1.0
 40
1.0
 10
6.7122018634
 20
4.4363073618
 30
0.0
 10
6.7122018634
 20
4.4344548242
 30
0.0
 10
6.7118163159
 20
4.431652691
 30
0.0
 10
6.7105707524
 20
4.4281462319
 30
0.0
 10
6.7092741322
 20
4.4256656658
 30
0.0
 10
6.7076478007
 20
4.4233903697
 30
0.0
 10
6.7050787824
 20
4.4206981846
 30
0.0
 10
6.7011913986
 20
4.4180522471
 30
0.0
 10
6.6967142931
 20
4.4166150652
 30
0.0
 10
6.69301189
 20
4.4162435637
 30
0.0
 10
6.6902184899
 20
4.4163601457
 30
0.0
 10
6.6874664108
 20
4.4168631753
 30
0.0
 10
6.6839362396
 20
4.4180364109
 30
0.0
 10
6.6814897167
 20
4.4194548724
 30
0.0
 10
6.6800287885
 20
4.4205937016
 30
0.0
  0
SPLINE
  5
2D1
100
AcDbEntity
  8
0
100
AcDbSpline
 62
7
  6
CONTINUOUS
 70
0
 71
3
 72
19
 73
15
 74
0
 42
0.0000001
 43
0.0000001
 44
0.0000000001
 40
0.0
 40
0.0
 40
0.0
 40
0.0
 40
0.1247806687
 40
0.1874494481
 40
0.2500445816
 40
0.3125951902
 40
0.3751519907
 40
0.5000066862
 40
0.624859749
 40
0.6874164516
 40
0.7499663194
 40
0.8125594494
 40
0.8752242958
 40
1.0
 40
1.0
 40
1.0
 40
1.0
 10
4.8116457202
 20
6.2889767698
 30
0.0
 10
4.8105067917
 20
6.2904378255
 30
0.0
 10
4.8090883893
 20
6.292884741
 30
0.0
 10
4.8079148943
 20
6.2964152864
 30
0.0
 10
4.8074120362
 20
6.2991677779
 30
0.0
 10
4.8072956794
 20
6.3019614167
 30
0.0
 10
4.8076672609
 20
6.3056641068
 30
0.0
 10
4.8091051416
 20
6.3101418182
 30
0.0
 10
4.8117527633
 20
6.3140286446
 30
0.0
 10
4.8144446025
 20
6.3165980259
 30
0.0
 10
4.816719463
 20
6.3182236758
 30
0.0
 10
4.8191993984
 20
6.3195192064
 30
0.0
 10
4.8227051645
 20
6.3207643032
 30
0.0
 10
4.8255069311
 20
6.3211498447
 30
0.0
 10
4.8273593804
 20
6.3211498447
 30
0.0
  0
SPLINE
  5
2D2
100
AcDbEntity
  8
0
100
AcDbSpline
 62
7
  6
CONTINUOUS
 70
0
 71
3
 72
19
 73
15
 74
0
 42
0.0000001
 43
0.0000001
 44
0.0000000001
 40
0.0
 40
0.0
 40
0.0
 40
0.0
 40
0.1247609079
 40
0.1874265653
 40
0.2500307033
 40
0.3125943957
 40
0.3751624601
 40
0.500025571
 40
0.6248722837
 40
0.6874274277
 40
0.7499747128
 40
0.8125661073
 40
0.8752304347
 40
1.0
 40
1.0
 40
1.0
 40
1.0
 10
5.0101921315
 20
6.0257025329
 30
0.0
 10
5.0093887617
 20
6.0240145572
 30
0.0
 10
5.0078196856
 20
6.021629492
 30
0.0
 10
5.0051569399
 20
6.0189819974
 30
0.0
 10
5.0028935048
 20
6.0172925508
 30
0.0
 10
5.0004176901
 20
6.0159368945
 30
0.0
 10
4.9968991743
 20
6.0146211045
 30
0.0
 10
4.9922009329
 20
6.0139347143
 30
0.0
 10
4.9875029929
 20
6.0146215925
 30
0.0
 10
4.9839851933
 20
6.0159372956
 30
0.0
 10
4.9815098831
 20
6.0172925527
 30
0.0
 10
4.9792468782
 20
6.0189818342
 30
0.0
 10
4.976584405
 20
6.0216294598
 30
0.0
 10
4.9750150207
 20
6.0240144401
 30
0.0
 10
4.9742115952
 20
6.0257025329
 30
0.0
  0
SPLINE
  5
2D3
100
AcDbEntity
  8
0
100
AcDbSpline
 62
7
  6
CONTINUOUS
 70
0
 71
3
 72
19
 73
15
 74
0
 42
0.0000001
 43
0.0000001
 44
0.0000000001
 40
0.0
 40
0.0
 40
0.0
 40
0.0
 40
0.1247816171
 40
0.1874644903
 40
0.250086221
 40
0.3126599996
 40
0.3752175342
 40
0.5000436476
 40
0.6248852202
 40
0.6874399971
 40
0.7499849652
 40
0.8125718248
 40
0.875230242
 40
1.0
 40
1.0
 40
1.0
 40
1.0
 10
5.1570443463
 20
6.3211498447
 30
0.0
 10
5.1588968839
 20
6.3211498447
 30
0.0
 10
5.1616990171
 20
6.3207642973
 30
0.0
 10
5.1652054761
 20
6.3195187338
 30
0.0
 10
5.1676860422
 20
6.3182221135
 30
0.0
 10
5.1699613384
 20
6.3165957821
 30
0.0
 10
5.1726535235
 20
6.3140267637
 30
0.0
 10
5.175299461
 20
6.31013938
 30
0.0
 10
5.1767366429
 20
6.3056622745
 30
0.0
 10
5.1771081443
 20
6.3019598714
 30
0.0
 10
5.1769915623
 20
6.2991664712
 30
0.0
 10
5.1764885328
 20
6.2964143921
 30
0.0
 10
5.1753152972
 20
6.292884221
 30
0.0
 10
5.1738968357
 20
6.2904376981
 30
0.0
 10
5.1727580065
 20
6.2889767698
 30
0.0
  0
SPLINE
  5
2D4
100
AcDbEntity
  8
0
100
AcDbSpline
 62
7
  6
CONTINUOUS
 70
0
 71
3
 72
19
 73
15
 74
0
 42
0.0000001
 43
0.0000001
 44
0.0000000001
 40
0.0
 40
0.0
 40
0.0
 40
0.0
 40
0.1247806687
 40
0.1874494481
 40
0.2500445816
 40
0.3125951902
 40
0.3751519907
 40
0.5000066862
 40
0.624859749
 40
0.6874164516
 40
0.7499663194
 40
0.8125594494
 40
0.8752242958
 40
1.0
 40
1.0
 40
1.0
 40
1.0
 10
3.3043749382
 20
4.4205937016
 30
0.0
 10
3.3029138826
 20
4.4194547731
 30
0.0
 10
3.3004669671
 20
4.4180363707
 30
0.0
 10
3.2969364216
 20
4.4168628756
 30
0.0
 10
3.2941839302
 20
4.4163600176
 30
0.0
 10
3.2913902914
 20
4.4162436608
 30
0.0
 10
3.2876876013
 20
4.4166152422
 30
0.0
 10
3.2832098899
 20
4.418053123
 30
0.0
 10
3.2793230634
 20
4.4207007447
 30
0.0
 10
3.2767536821
 20
4.4233925839
 30
0.0
 10
3.2751280322
 20
4.4256674443
 30
0.0
 10
3.2738325017
 20
4.4281473798
 30
0.0
 10
3.2725874048
 20
4.4316531459
 30
0.0
 10
3.2722018634
 20
4.4344549124
 30
0.0
 10
3.2722018634
 20
4.4363073618
 30
0.0
  0
SPLINE
  5
2D5
100
AcDbEntity
  8
0
100
AcDbSpline
 62
7
  6
CONTINUOUS
 70
0
 71
3
 72
19
 73
15
 74
0
 42
0.0000001
 43
0.0000001
 44
0.0000000001
 40
0.0
 40
0.0
 40
0.0
 40
0.0
 40
0.1247609079
 40
0.1874265653
 40
0.2500307033
 40
0.3125943957
 40
0.3751624601
 40
0.500025571
 40
0.6248722837
 40
0.6874274277
 40
0.7499747128
 40
0.8125661073
 40
0.8752304347
 40
1.0
 40
1.0
 40
1.0
 40
1.0
 10
3.5676491752
 20
4.6191401129
 30
0.0
 10
3.5693371509
 20
4.6183367431
 30
0.0
 10
3.571722216
 20
4.616767667
 30
0.0
 10
3.5743697106
 20
4.6141049212
 30
0.0
 10
3.5760591572
 20
4.6118414861
 30
0.0
 10
3.5774148136
 20
4.6093656715
 30
0.0
 10
3.5787306036
 20
4.6058471556
 30
0.0
 10
3.5794169938
 20
4.6011489142
 30
0.0
 10
3.5787301156
 20
4.5964509742
 30
0.0
 10
3.5774144125
 20
4.5929331747
 30
0.0
 10
3.5760591553
 20
4.5904578645
 30
0.0
 10
3.5743698739
 20
4.5881948595
 30
0.0
 10
3.5717222483
 20
4.5855323863
 30
0.0
 10
3.569337268
 20
4.5839630021
 30
0.0
 10
3.5676491752
 20
4.5831595765
 30
0.0
  0
SPLINE
  5
2D6
100
AcDbEntity
  8
0
100
AcDbSpline
 62
7
  6
CONTINUOUS
 70
0
 71
3
 72
19
 73
15
 74
0
 42
0.0000001
 43
0.0000001
 44
0.0000000001
 40
0.0
 40
0.0
 40
0.0
 40
0.0
 40
0.1247816171
 40
0.1874644903
 40
0.250086221
 40
0.3126599996
 40
0.3752175342
 40
0.5000436476
 40
0.6248852202
 40
0.6874399971
 40
0.7499849652
 40
0.8125718248
 40
0.875230242
 40
1.0
 40
1.0
 40
1.0
 40
1.0
 10
3.2722018634
 20
4.7659923277
 30
0.0
 10
3.2722018634
 20
4.7678448652
 30
0.0
 10
3.2725874108
 20
4.7706469984
 30
0.0
 10
3.2738329743
 20
4.7741534575
 30
0.0
 10
3.2751295946
 20
4.7766340236
 30
0.0
 10
3.276755926
 20
4.7789093198
 30
0.0
 10
3.2793249443
 20
4.7816015049
 30
0.0
 10
3.2832123281
 20
4.7842474424
 30
0.0
 10
3.2876894336
 20
4.7856846242
 30
0.0
 10
3.2913918367
 20
4.7860561257
 30
0.0
 10
3.2941852368
 20
4.7859395437
 30
0.0
 10
3.2969373159
 20
4.7854365141
 30
0.0
 10
3.3004674871
 20
4.7842632785
 30
0.0
 10
3.30291401
 20
4.782844817
 30
0.0
 10
3.3043749382
 20
4.7817059879
 30
0.0
  0
SPLINE
  5
2D7
100
AcDbEntity
  8
0
100
AcDbSpline
 62
7
  6
CONTINUOUS
 70
0
 71
3
 72
74
 73
70
 74
0
 42
0.0000001
 43
0.0000001
 44
0.0000000001
 40
0.0
 40
0.0
 40
0.0
 40
0.0
 40
0.0163137838
 40
0.0320420098
 40
0.0472475565
 40
0.0621557774
 40
0.077018233
 40
0.0920527112
 40
0.1073438914
 40
0.1229031163
 40
0.138697662
 40
0.1546477327
 40
0.1706420688
 40
0.1865595353
 40
0.2023642674
 40
0.2180663705
 40
0.2336689511
 40
0.2492000734
 40
0.2647107071
 40
0.2724735367
 40
0.2802480752
 40
0.295832188
 40
0.3114556859
 40
0.3427825212
 40
0.3741239788
 40
0.405401606
 40
0.4366792887
 40
0.4523321642
 40
0.4679935789
 40
0.4836595369
 40
0.4993221267
 40
0.5149745955
 40
0.5306138112
 40
0.5462409304
 40
0.5618620646
 40
0.5696741456
 40
0.5774892783
 40
0.5931289962
 40
0.608780643
 40
0.6244406099
 40
0.6401040788
 40
0.6557642292
 40
0.6714107595
 40
0.6870376221
 40
0.7026550396
 40
0.7182761475
 40
0.7495696319
 40
0.7652605988
 40
0.78098711
 40
0.7967234835
 40
0.8124343793
 40
0.8280889056
 40
0.8436797459
 40
0.8592145316
 40
0.8747060302
 40
0.8901929731
 40
0.9057393549
 40
0.9135579755
 40
0.9214174883
 40
0.9293136941
 40
0.9372390255
 40
0.9451869162
 40
0.9531396148
 40
0.9610758376
 40
0.9689803793
 40
0.9768335825
 40
0.9846176032
 40
0.9923331428
 40
1.0
 40
1.0
 40
1.0
 40
1.0
 10
3.7359907966
 20
5.2999446428
 30
0.0
 10
3.7394966467
 20
5.3043112634
 30
0.0
 10
3.7467760317
 20
5.312582582
 30
0.0
 10
3.7586764927
 20
5.3236438429
 30
0.0
 10
3.7713425231
 20
5.333038956
 30
0.0
 10
3.7847550354
 20
5.3407552504
 30
0.0
 10
3.7989253667
 20
5.3468231707
 30
0.0
 10
3.8138139776
 20
5.3512791453
 30
0.0
 10
3.8292997645
 20
5.3542752381
 30
0.0
 10
3.8452422679
 20
5.3559382636
 30
0.0
 10
3.8614870124
 20
5.3563908597
 30
0.0
 10
3.8778722299
 20
5.3557613389
 30
0.0
 10
3.8942327672
 20
5.3541755865
 30
0.0
 10
3.910438447
 20
5.3517528838
 30
0.0
 10
3.9264118108
 20
5.3485854089
 30
0.0
 10
3.9421278054
 20
5.3447586676
 30
0.0
 10
3.9575940151
 20
5.3403568928
 30
0.0
 10
3.9728327796
 20
5.3354343278
 30
0.0
 10
3.9853697941
 20
5.330927934
 30
0.0
 10
3.9953170294
 20
5.3271015518
 30
0.0
 10
4.0052335752
 20
5.3231280449
 30
0.0
 10
4.0175490788
 20
5.3178902432
 30
0.0
 10
4.037051144
 20
5.3089156452
 30
0.0
 10
4.0609431616
 20
5.2965699251
 30
0.0
 10
4.0885904352
 20
5.2799213542
 30
0.0
 10
4.115002289
 20
5.2614095983
 30
0.0
 10
4.1360946604
 20
5.2447844251
 30
0.0
 10
4.1525291277
 20
5.2309436624
 30
0.0
 10
4.1646698846
 20
5.2203281871
 30
0.0
 10
4.1766551068
 20
5.2095327487
 30
0.0
 10
4.1884508618
 20
5.1985345024
 30
0.0
 10
4.2000050437
 20
5.1872953183
 30
0.0
 10
4.2112691872
 20
5.1757817726
 30
0.0
 10
4.2221935538
 20
5.163959366
 30
0.0
 10
4.2309725893
 20
5.1538215636
 30
0.0
 10
4.2377735053
 20
5.1455262272
 30
0.0
 10
4.2444203235
 20
5.1370987938
 30
0.0
 10
4.2524377619
 20
5.1263283212
 30
0.0
 10
4.2615922215
 20
5.1130602332
 30
0.0
 10
4.2702825481
 20
5.099474052
 30
0.0
 10
4.2785166363
 20
5.085603714
 30
0.0
 10
4.2863194591
 20
5.0714920437
 30
0.0
 10
4.2937167017
 20
5.0571781681
 30
0.0
 10
4.3007309341
 20
5.0426892106
 30
0.0
 10
4.3073505984
 20
5.0280249818
 30
0.0
 10
4.3156485419
 20
5.0082271895
 30
0.0
 10
4.3231344648
 20
4.9880678959
 30
0.0
 10
4.329702066
 20
4.9675651852
 30
0.0
 10
4.3341486098
 20
4.9519988805
 30
0.0
 10
4.338083282
 20
4.936288288
 30
0.0
 10
4.3414738038
 20
4.9204763016
 30
0.0
 10
4.3442881059
 20
4.9046020646
 30
0.0
 10
4.3464919956
 20
4.8886922042
 30
0.0
 10
4.3480517747
 20
4.8727621842
 30
0.0
 10
4.3489393658
 20
4.8568157168
 30
0.0
 10
4.3491031505
 20
4.8408407169
 30
0.0
 10
4.348582159
 20
4.82750824
 30
0.0
 10
4.3477434858
 20
4.8168219631
 30
0.0
 10
4.3468950273
 20
4.808773386
 30
0.0
 10
4.3458071295
 20
4.8007164951
 30
0.0
 10
4.344455208
 20
4.7926686684
 30
0.0
 10
4.3428195603
 20
4.7846535472
 30
0.0
 10
4.3408655201
 20
4.7767055133
 30
0.0
 10
4.3385508967
 20
4.7688696338
 30
0.0
 10
4.3358406744
 20
4.7611967777
 30
0.0
 10
4.332686828
 20
4.7537503248
 30
0.0
 10
4.3290296806
 20
4.7466076278
 30
0.0
 10
4.3248104902
 20
4.7398549111
 30
0.0
 10
4.3215889971
 20
4.7356582033
 30
0.0
 10
4.3198816218
 20
4.7336555027
 30
0.0
  0
SPLINE
  5
2D8
100
AcDbEntity
  8
0
100
AcDbSpline
 62
7
  6
CONTINUOUS
 70
0
 71
3
 72
18
 73
14
 74
0
 42
0.0000001
 43
0.0000001
 44
0.0000000001
 40
0.0
 40
0.0
 40
0.0
 40
0.0
 40
0.1223597176
 40
0.1837077785
 40
0.2453121004
 40
0.3695980378
 40
0.4955856813
 40
0.5592200264
 40
0.6232236748
 40
0.6874698419
 40
0.7516538039
 40
0.8783326402
 40
1.0
 40
1.0
 40
1.0
 40
1.0
 10
4.3198816218
 20
4.7336555027
 30
0.0
 10
4.3181596882
 20
4.7316357256
 30
0.0
 10
4.3154135474
 20
4.7287343159
 30
0.0
 10
4.3114474056
 20
4.7251836929
 30
0.0
 10
4.3072523709
 20
4.7218381473
 30
0.0
 10
4.3016152776
 20
4.7180729805
 30
0.0
 10
4.2955949333
 20
4.7148696361
 30
0.0
 10
4.2905750028
 20
4.7126153158
 30
0.0
 10
4.2867074039
 20
4.7110736743
 30
0.0
 10
4.2827712891
 20
4.7096816344
 30
0.0
 10
4.277498911
 20
4.7079989864
 30
0.0
 10
4.2709697486
 20
4.7061688133
 30
0.0
 10
4.2657541922
 20
4.704821169
 30
0.0
 10
4.2632018634
 20
4.7041498447
 30
0.0
  0
SPLINE
  5
2D9
100
AcDbEntity
  8
0
100
AcDbSpline
 62
7
  6
CONTINUOUS
 70
0
 71
3
 72
66
 73
62
 74
0
 42
0.0000001
 43
0.0000001
 44
0.0000000001
 40
0.0
 40
0.0
 40
0.0
 40
0.0
 40
0.0315334742
 40
0.0470899827
 40
0.0624027792
 40
0.0773994749
 40
0.0920132826
 40
0.119869098
 40
0.1330959103
 40
0.1458577872
 40
0.1581833394
 40
0.1701245223
 40
0.1817802584
 40
0.1932870013
 40
0.2047821069
 40
0.2163973859
 40
0.2282551603
 40
0.2404663902
 40
0.2531110903
 40
0.266227871
 40
0.2798220823
 40
0.2938738774
 40
0.3083390853
 40
0.3231464777
 40
0.3534524816
 40
0.3687805712
 40
0.3841202568
 40
0.399404645
 40
0.4145845496
 40
0.4445436616
 40
0.4593908632
 40
0.474220345
 40
0.4891166811
 40
0.504188016
 40
0.5195648708
 40
0.5353839947
 40
0.5517217113
 40
0.568618048
 40
0.6041419063
 40
0.6228032878
 40
0.6419859732
 40
0.6615902401
 40
0.6815078391
 40
0.7218123039
 40
0.7419801793
 40
0.7619853856
 40
0.7817059055
 40
0.8010279921
 40
0.8198534765
 40
0.8381291505
 40
0.855835378
 40
0.8729713905
 40
0.8895611059
 40
0.8976702979
 40
0.9056687736
 40
0.9214031682
 40
0.9369295248
 40
0.952405544
 40
0.9679832736
 40
0.9838057232
 40
1.0
 40
1.0
 40
1.0
 40
1.0
 10
3.9557120694
 20
5.0412949831
 30
0.0
 10
3.9607304407
 20
5.0424118509
 30
0.0
 10
3.9683234891
 20
5.0436778725
 30
0.0
 10
3.978467457
 20
5.0445070975
 30
0.0
 10
3.9859474783
 20
5.0446904173
 30
0.0
 10
3.993272304
 20
5.0444318817
 30
0.0
 10
4.0025994765
 20
5.0435066985
 30
0.0
 10
4.0115384629
 20
5.0416884368
 30
0.0
 10
4.0198666963
 20
5.0388832355
 30
0.0
 10
4.0255933254
 20
5.0363645513
 30
0.0
 10
4.0308635237
 20
5.0333979591
 30
0.0
 10
4.0356347907
 20
5.0299795986
 30
0.0
 10
4.0398749324
 20
5.0261155163
 30
0.0
 10
4.0435771003
 20
5.0218289192
 30
0.0
 10
4.0467373893
 20
5.0171368579
 30
0.0
 10
4.0493550651
 20
5.0120580284
 30
0.0
 10
4.051425282
 20
5.0066085101
 30
0.0
 10
4.0529647237
 20
5.000814883
 30
0.0
 10
4.0540399393
 20
4.994711809
 30
0.0
 10
4.0547090879
 20
4.9883261165
 30
0.0
 10
4.0550315956
 20
4.9816853705
 30
0.0
 10
4.0550635333
 20
4.9748180678
 30
0.0
 10
4.0548682946
 20
4.9677564945
 30
0.0
 10
4.054419115
 20
4.9580531843
 30
0.0
 10
4.0538671585
 20
4.9482139737
 30
0.0
 10
4.0535478141
 20
4.938277211
 30
0.0
 10
4.0535084654
 20
4.9307843036
 30
0.0
 10
4.0537473368
 20
4.9233174148
 30
0.0
 10
4.0545359424
 20
4.9134963711
 30
0.0
 10
4.0561939759
 20
4.9038156709
 30
0.0
 10
4.0590463225
 20
4.8945082605
 30
0.0
 10
4.0618019781
 20
4.8877722136
 30
0.0
 10
4.0652124738
 20
4.8813002698
 30
0.0
 10
4.0693095476
 20
4.8751308882
 30
0.0
 10
4.0741230805
 20
4.8693046757
 30
0.0
 10
4.0796699109
 20
4.8638732505
 30
0.0
 10
4.0859116897
 20
4.8588538819
 30
0.0
 10
4.0952569004
 20
4.8526405342
 30
0.0
 10
4.105701224
 20
4.8474846128
 30
0.0
 10
4.1169499808
 20
4.8433983908
 30
0.0
 10
4.1259601029
 20
4.8408122506
 30
0.0
 10
4.1353170301
 20
4.8387685708
 30
0.0
 10
4.1481849205
 20
4.8367787143
 30
0.0
 10
4.1613032882
 20
4.8359510752
 30
0.0
 10
4.1744253663
 20
4.8363019231
 30
0.0
 10
4.1841595496
 20
4.8371555583
 30
0.0
 10
4.1936841552
 20
4.8386008646
 30
0.0
 10
4.2029041517
 20
4.8406379048
 30
0.0
 10
4.2117271671
 20
4.8432722441
 30
0.0
 10
4.2200722282
 20
4.8464941407
 30
0.0
 10
4.2278706213
 20
4.8502860782
 30
0.0
 10
4.2350553216
 20
4.8546336936
 30
0.0
 10
4.240518363
 20
4.8587407319
 30
0.0
 10
4.2444989831
 20
4.8622906113
 30
0.0
 10
4.2481689791
 20
4.8659659206
 30
0.0
 10
4.2522880882
 20
4.8708864356
 30
0.0
 10
4.2564542628
 20
4.8772880857
 30
0.0
 10
4.2598106876
 20
4.8841206721
 30
0.0
 10
4.2623508497
 20
4.8913475829
 30
0.0
 10
4.2640643224
 20
4.8989320556
 30
0.0
 10
4.2646574322
 20
4.9041290266
 30
0.0
 10
4.264831025
 20
4.906763595
 30
0.0
  0
SPLINE
  5
2DA
100
AcDbEntity
  8
0
100
AcDbSpline
 62
7
  6
CONTINUOUS
 70
0
 71
3
 72
36
 73
32
 74
0
 42
0.0000001
 43
0.0000001
 44
0.0000000001
 40
0.0
 40
0.0
 40
0.0
 40
0.0
 40
0.0300987792
 40
0.045733109
 40
0.0617641333
 40
0.0949778894
 40
0.1295874194
 40
0.1652833021
 40
0.2016674913
 40
0.2383483001
 40
0.2749459575
 40
0.3110562299
 40
0.3463880299
 40
0.3808012498
 40
0.4141638631
 40
0.4776420414
 40
0.5079735182
 40
0.5375346789
 40
0.5665246605
 40
0.5951543834
 40
0.6236263122
 40
0.6521033156
 40
0.6807266576
 40
0.7096084698
 40
0.7680144268
 40
0.826756905
 40
0.8560344561
 40
0.8851207927
 40
0.9426902683
 40
0.9712987097
 40
1.0
 40
1.0
 40
1.0
 40
1.0
 10
4.264831025
 20
4.906763595
 30
0.0
 10
4.2651216647
 20
4.9111745497
 30
0.0
 10
4.2650252537
 20
4.917920924
 30
0.0
 10
4.2640153005
 20
4.9269384721
 30
0.0
 10
4.2623871767
 20
4.9363327196
 30
0.0
 10
4.2592700358
 20
4.9482708368
 30
0.0
 10
4.2541165592
 20
4.9625911002
 30
0.0
 10
4.2477303976
 20
4.9769131139
 30
0.0
 10
4.2403273636
 20
4.9910772485
 30
0.0
 10
4.2321082811
 20
5.0049359806
 30
0.0
 10
4.2232637838
 20
5.0183542389
 30
0.0
 10
4.213974503
 20
5.0312238778
 30
0.0
 10
4.2043709489
 20
5.0434549418
 30
0.0
 10
4.1945336436
 20
5.0549740084
 30
0.0
 10
4.1814095268
 20
5.0690980255
 30
0.0
 10
4.1678103199
 20
5.0819494659
 30
0.0
 10
4.1537183875
 20
5.0933500896
 30
0.0
 10
4.143139973
 20
5.1010102105
 30
0.0
 10
4.1323635412
 20
5.1079370448
 30
0.0
 10
4.1213526059
 20
5.1141662044
 30
0.0
 10
4.1100758803
 20
5.1197312096
 30
0.0
 10
4.0985169728
 20
5.124679332
 30
0.0
 10
4.0866656258
 20
5.129054402
 30
0.0
 10
4.0704311007
 20
5.1341940188
 30
0.0
 10
4.049576419
 20
5.1393135162
 30
0.0
 10
4.0283329149
 20
5.1427909787
 30
0.0
 10
4.0112293842
 20
5.1446327184
 30
0.0
 10
3.9942434431
 20
5.1458491148
 30
0.0
 10
3.9772980836
 20
5.1461386762
 30
0.0
 10
3.9604374656
 20
5.145433485
 30
0.0
 10
3.9520459068
 20
5.1447473318
 30
0.0
 10
3.9478518529
 20
5.1443248981
 30
0.0
  0
SPLINE
  5
2DB
100
AcDbEntity
  8
0
100
AcDbSpline
 62
7
  6
CONTINUOUS
 70
0
 71
3
 72
64
 73
60
 74
0
 42
0.0000001
 43
0.0000001
 44
0.0000000001
 40
0.0
 40
0.0
 40
0.0
 40
0.0
 40
0.0308422646
 40
0.0458418642
 40
0.060470329
 40
0.0883989279
 40
0.1016810412
 40
0.1145085437
 40
0.1269057566
 40
0.1389172803
 40
0.150625493
 40
0.1621564749
 40
0.1736408921
 40
0.1852054131
 40
0.1969688731
 40
0.2090405231
 40
0.2215098104
 40
0.2344277436
 40
0.2478114271
 40
0.2616517503
 40
0.2905542113
 40
0.3206380664
 40
0.3512609611
 40
0.3818377233
 40
0.3969815171
 40
0.4119979085
 40
0.4269020004
 40
0.4417394194
 40
0.4565735153
 40
0.4714883245
 40
0.4865895175
 40
0.502003113
 40
0.5178563363
 40
0.5342167989
 40
0.5511216375
 40
0.5685932504
 40
0.5866426813
 40
0.6052663568
 40
0.6244043709
 40
0.6439633549
 40
0.6638415769
 40
0.6839327916
 40
0.7242989491
 40
0.7443573053
 40
0.7641700088
 40
0.7836267329
 40
0.8026281039
 40
0.8211066969
 40
0.8390365176
 40
0.8564093094
 40
0.8732371432
 40
0.8895584158
 40
0.9054560352
 40
0.9210716628
 40
0.9365559211
 40
0.9520561401
 40
0.9677129978
 40
0.9836575626
 40
1.0
 40
1.0
 40
1.0
 40
1.0
 10
4.5497660545
 20
5.6276383882
 30
0.0
 10
4.5491960719
 20
5.6227408834
 30
0.0
 10
4.5487344205
 20
5.6154068611
 30
0.0
 10
4.548974472
 20
5.6057378386
 30
0.0
 10
4.5497709195
 20
5.596567272
 30
0.0
 10
4.5514227914
 20
5.5877562232
 30
0.0
 10
4.5540203896
 20
5.5795083913
 30
0.0
 10
4.5563701228
 20
5.5738094231
 30
0.0
 10
4.5591516682
 20
5.5685356629
 30
0.0
 10
4.5623668396
 20
5.5637260693
 30
0.0
 10
4.5660156512
 20
5.5594152207
 30
0.0
 10
4.5700766082
 20
5.5556123461
 30
0.0
 10
4.5745336747
 20
5.5523212099
 30
0.0
 10
4.579370035
 20
5.5495439785
 30
0.0
 10
4.5845695531
 20
5.5472816765
 30
0.0
 10
4.5901143024
 20
5.5455358553
 30
0.0
 10
4.595970236
 20
5.5442528576
 30
0.0
 10
4.6021106979
 20
5.5433766681
 30
0.0
 10
4.6085095515
 20
5.5428528972
 30
0.0
 10
4.6174798063
 20
5.5425485563
 30
0.0
 10
4.6291251733
 20
5.5428089592
 30
0.0
 10
4.6434334622
 20
5.5434791944
 30
0.0
 10
4.6580228448
 20
5.543892748
 30
0.0
 10
4.6702367852
 20
5.5435160244
 30
0.0
 10
4.6798967006
 20
5.5424874523
 30
0.0
 10
4.6870053014
 20
5.5412848524
 30
0.0
 10
4.693960614
 20
5.5395736178
 30
0.0
 10
4.7007208831
 20
5.5372914684
 30
0.0
 10
4.7072525783
 20
5.534413043
 30
0.0
 10
4.7135200764
 20
5.5309076317
 30
0.0
 10
4.7194873416
 20
5.5267466645
 30
0.0
 10
4.7251155624
 20
5.521902734
 30
0.0
 10
4.7303581162
 20
5.5163640918
 30
0.0
 10
4.7352005822
 20
5.5101690985
 30
0.0
 10
4.739620885
 20
5.503356795
 30
0.0
 10
4.7435953688
 20
5.4959681563
 30
0.0
 10
4.7471001297
 20
5.488044745
 30
0.0
 10
4.7501061264
 20
5.4796363598
 30
0.0
 10
4.7526034171
 20
5.4708129784
 30
0.0
 10
4.7545816022
 20
5.4616543136
 30
0.0
 10
4.7560276613
 20
5.4522423665
 30
0.0
 10
4.7572309105
 20
5.4394506646
 30
0.0
 10
4.7573127549
 20
5.4265440851
 30
0.0
 10
4.7562652713
 20
5.4137541734
 30
0.0
 10
4.7549183926
 20
5.4043594129
 30
0.0
 10
4.7530096687
 20
5.395234857
 30
0.0
 10
4.7505366789
 20
5.3864670057
 30
0.0
 10
4.747501409
 20
5.3781359564
 30
0.0
 10
4.7439220956
 20
5.3703080527
 30
0.0
 10
4.7398125367
 20
5.3630451365
 30
0.0
 10
4.735186615
 20
5.3564087653
 30
0.0
 10
4.7300552663
 20
5.3504598777
 30
0.0
 10
4.7244275209
 20
5.3452575876
 30
0.0
 10
4.7183444286
 20
5.3408191499
 30
0.0
 10
4.711839722
 20
5.3371529854
 30
0.0
 10
4.7049470945
 20
5.3342660649
 30
0.0
 10
4.6976998538
 20
5.3321635496
 30
0.0
 10
4.6901338134
 20
5.3308537936
 30
0.0
 10
4.6849756021
 20
5.3304929836
 30
0.0
 10
4.6823638434
 20
5.3304281218
 30
0.0
  0
SPLINE
  5
2DC
100
AcDbEntity
  8
0
100
AcDbSpline
 62
7
  6
CONTINUOUS
 70
0
 71
3
 72
35
 73
31
 74
0
 42
0.0000001
 43
0.0000001
 44
0.0000000001
 40
0.0
 40
0.0
 40
0.0
 40
0.0
 40
0.0303873036
 40
0.0623338255
 40
0.095815475
 40
0.1306366865
 40
0.1664722736
 40
0.2029213088
 40
0.2396041623
 40
0.2761412729
 40
0.3121354057
 40
0.3473312672
 40
0.3815955451
 40
0.4147994786
 40
0.4780060834
 40
0.5082307727
 40
0.5377097637
 40
0.5666434773
 40
0.5952403171
 40
0.6236976229
 40
0.6521730312
 40
0.6808049705
 40
0.7096982879
 40
0.7681083983
 40
0.8268325725
 40
0.8560945121
 40
0.8851630456
 40
0.9427048844
 40
0.9713033383
 40
1.0
 40
1.0
 40
1.0
 40
1.0
 10
4.6823638434
 20
5.3304281218
 30
0.0
 10
4.6778926013
 20
5.3303170805
 30
0.0
 10
4.668695225
 20
5.3307964989
 30
0.0
 10
4.6547868705
 20
5.3332966074
 30
0.0
 10
4.6405983465
 20
5.3374309636
 30
0.0
 10
4.6262920434
 20
5.3429752315
 30
0.0
 10
4.6120253025
 20
5.3497084327
 30
0.0
 10
4.5979512364
 20
5.3574170774
 30
0.0
 10
4.5842125056
 20
5.3659033576
 30
0.0
 10
4.5709380704
 20
5.3749783543
 30
0.0
 10
4.5582281779
 20
5.3844657526
 30
0.0
 10
4.5461705532
 20
5.3942462874
 30
0.0
 10
4.5348316954
 20
5.4042419524
 30
0.0
 10
4.5209456606
 20
5.4175552253
 30
0.0
 10
4.5083376189
 20
5.4313286031
 30
0.0
 10
4.4971810646
 20
5.4455786049
 30
0.0
 10
4.4896949628
 20
5.4562715094
 30
0.0
 10
4.4829374112
 20
5.4671579954
 30
0.0
 10
4.4768736761
 20
5.4782747913
 30
0.0
 10
4.4714700516
 20
5.489651929
 30
0.0
 10
4.4666792797
 20
5.5013052142
 30
0.0
 10
4.4624586403
 20
5.5132444007
 30
0.0
 10
4.4575232236
 20
5.5295845446
 30
0.0
 10
4.4526566513
 20
5.550546823
 30
0.0
 10
4.4494266932
 20
5.57187206
 30
0.0
 10
4.4477798166
 20
5.5890254231
 30
0.0
 10
4.4467540362
 20
5.606052089
 30
0.0
 10
4.4466521229
 20
5.6230282059
 30
0.0
 10
4.4475405768
 20
5.6399107191
 30
0.0
 10
4.4483165221
 20
5.648310684
 30
0.0
 10
4.4487834789
 20
5.6525085726
 30
0.0
  0
SPLINE
  5
2DD
100
AcDbEntity
  8
0
100
AcDbSpline
 62
7
  6
CONTINUOUS
 70
0
 71
3
 72
76
 73
72
 74
0
 42
0.0000001
 43
0.0000001
 44
0.0000000001
 40
0.0
 40
0.0
 40
0.0
 40
0.0
 40
0.0162291115
 40
0.0318732955
 40
0.0470215626
 40
0.0619094782
 40
0.0693374046
 40
0.0767936234
 40
0.0918638547
 40
0.1071949085
 40
0.1227916738
 40
0.1386152032
 40
0.1545803136
 40
0.1705730334
 40
0.1864770964
 40
0.2022700268
 40
0.2179611556
 40
0.2490770288
 40
0.2645904724
 40
0.2723568084
 40
0.2801354341
 40
0.2957267646
 40
0.3113563784
 40
0.3426916754
 40
0.3583724066
 40
0.3740384741
 40
0.3896842952
 40
0.4053217856
 40
0.4366049589
 40
0.4522608001
 40
0.4679249147
 40
0.4835929036
 40
0.4992567051
 40
0.5149099146
 40
0.5305498027
 40
0.5461779739
 40
0.561801028
 40
0.5696145605
 40
0.5774313143
 40
0.5930741933
 40
0.6087287361
 40
0.6243911913
 40
0.6400566716
 40
0.6557180945
 40
0.671364957
 40
0.6869925439
 40
0.702611738
 40
0.7182356698
 40
0.7495366472
 40
0.7652322565
 40
0.7809627007
 40
0.7967004198
 40
0.8124102858
 40
0.8280623244
 40
0.8436511159
 40
0.8591846807
 40
0.87467654
 40
0.890167385
 40
0.9057213465
 40
0.9135451079
 40
0.9214097965
 40
0.9293103918
 40
0.9372400463
 40
0.9451920048
 40
0.9531459532
 40
0.9610794649
 40
0.9689764305
 40
0.9768197361
 40
0.9845990788
 40
0.9923215607
 40
1.0
 40
1.0
 40
1.0
 40
1.0
 10
4.2920368446
 20
5.8657965871
 30
0.0
 10
4.2876806841
 20
5.8622700727
 30
0.0
 10
4.2794350551
 20
5.8549478638
 30
0.0
 10
4.2684291469
 20
5.842966857
 30
0.0
 10
4.2590975527
 20
5.8302048383
 30
0.0
 10
4.2527106578
 20
5.8189163584
 30
0.0
 10
4.2484477147
 20
5.809554647
 30
0.0
 10
4.2447077502
 20
5.7999041498
 30
0.0
 10
4.241014189
 20
5.7873351331
 30
0.0
 10
4.2380398921
 20
5.7717092809
 30
0.0
 10
4.2363828259
 20
5.7556316632
 30
0.0
 10
4.2359216672
 20
5.7392606485
 30
0.0
 10
4.2365288907
 20
5.7227604895
 30
0.0
 10
4.238080347
 20
5.7062964758
 30
0.0
 10
4.2404603121
 20
5.6899933098
 30
0.0
 10
4.2435796058
 20
5.6739222405
 30
0.0
 10
4.248596613
 20
5.6528887268
 30
0.0
 10
4.2547706894
 20
5.6322492931
 30
0.0
 10
4.2610180032
 20
5.6145311693
 30
0.0
 10
4.2648045114
 20
5.6044953922
 30
0.0
 10
4.2687386247
 20
5.5944878246
 30
0.0
 10
4.2739307512
 20
5.5820580862
 30
0.0
 10
4.2828378287
 20
5.5623737244
 30
0.0
 10
4.2926581679
 20
5.543077073
 30
0.0
 10
4.3034077145
 20
5.5242840054
 30
0.0
 10
4.3119394378
 20
5.5104748378
 30
0.0
 10
4.3209323256
 20
5.4969799293
 30
0.0
 10
4.3334646261
 20
5.4793751249
 30
0.0
 10
4.3467251299
 20
5.46229798
 30
0.0
 10
4.3605224813
 20
5.4456523271
 30
0.0
 10
4.3711033133
 20
5.4333481217
 30
0.0
 10
4.3818640383
 20
5.4211975667
 30
0.0
 10
4.3928355603
 20
5.4092414977
 30
0.0
 10
4.4040545988
 20
5.3975302643
 30
0.0
 10
4.4155556724
 20
5.3861125797
 30
0.0
 10
4.4273737857
 20
5.3750379322
 30
0.0
 10
4.4375150087
 20
5.3661362622
 30
0.0
 10
4.4458178165
 20
5.3592391555
 30
0.0
 10
4.4542548666
 20
5.3524959821
 30
0.0
 10
4.4650394204
 20
5.3443567724
 30
0.0
 10
4.4783279794
 20
5.3350547954
 30
0.0
 10
4.4919382275
 20
5.3262160573
 30
0.0
 10
4.5058347394
 20
5.3178308305
 30
0.0
 10
4.5199745444
 20
5.3098745964
 30
0.0
 10
4.5343182697
 20
5.3023209665
 30
0.0
 10
4.548841003
 20
5.2951506194
 30
0.0
 10
4.5635439769
 20
5.2883756084
 30
0.0
 10
4.5834003698
 20
5.2798705359
 30
0.0
 10
4.603628391
 20
5.2721807134
 30
0.0
 10
4.6242101052
 20
5.2654142448
 30
0.0
 10
4.6398399737
 20
5.2608208646
 30
0.0
 10
4.6556171712
 20
5.2567424208
 30
0.0
 10
4.6714985399
 20
5.2532119473
 30
0.0
 10
4.687445939
 20
5.2502619735
 30
0.0
 10
4.7034338814
 20
5.2479271697
 30
0.0
 10
4.7194479644
 20
5.2462412487
 30
0.0
 10
4.7354856617
 20
5.2452324157
 30
0.0
 10
4.7515604316
 20
5.2449546266
 30
0.0
 10
4.764983075
 20
5.2453865403
 30
0.0
 10
4.7757460521
 20
5.2461571912
 30
0.0
 10
4.7838542242
 20
5.2469568376
 30
0.0
 10
4.791971764
 20
5.2479999834
 30
0.0
 10
4.8000811765
 20
5.249310761
 30
0.0
 10
4.8081580091
 20
5.2509090496
 30
0.0
 10
4.8161656876
 20
5.2528326778
 30
0.0
 10
4.8240569843
 20
5.2551242052
 30
0.0
 10
4.8317799789
 20
5.2578205593
 30
0.0
 10
4.8392726181
 20
5.2609722802
 30
0.0
 10
4.8464631879
 20
5.2646373442
 30
0.0
 10
4.853270071
 20
5.2688697636
 30
0.0
 10
4.8575065426
 20
5.2721031651
 30
0.0
 10
4.8595267579
 20
5.273820836
 30
0.0
  0
SPLINE
  5
2DE
100
AcDbEntity
  8
0
100
AcDbSpline
 62
7
  6
CONTINUOUS
 70
0
 71
3
 72
19
 73
15
 74
0
 42
0.0000001
 43
0.0000001
 44
0.0000000001
 40
0.0
 40
0.0
 40
0.0
 40
0.0
 40
0.1222905997
 40
0.1834911473
 40
0.2448658353
 40
0.3065718224
 40
0.3687390734
 40
0.4946912382
 40
0.5585175986
 40
0.6228513314
 40
0.6874752748
 40
0.7519441653
 40
0.8786665268
 40
1.0
 40
1.0
 40
1.0
 40
1.0
 10
4.8595267579
 20
5.273820836
 30
0.0
 10
4.8615398574
 20
5.2755324567
 30
0.0
 10
4.8644285892
 20
5.2782636209
 30
0.0
 10
4.8679465787
 20
5.2822186528
 30
0.0
 10
4.8704089884
 20
5.2853510773
 30
0.0
 10
4.8726983103
 20
5.2886369019
 30
0.0
 10
4.8755556503
 20
5.2932189535
 30
0.0
 10
4.8781205887
 20
5.2980283633
 30
0.0
 10
4.880460391
 20
5.3029959341
 30
0.0
 10
4.882131984
 20
5.3068119623
 30
0.0
 10
4.8837143434
 20
5.3106808498
 30
0.0
 10
4.8856523797
 20
5.3158582794
 30
0.0
 10
4.8876929155
 20
5.3223020843
 30
0.0
 10
4.8888245523
 20
5.3275554307
 30
0.0
 10
4.8892018634
 20
5.3301498447
 30
0.0
  0
SPLINE
  5
2DF
100
AcDbEntity
  8
0
100
AcDbSpline
 62
7
  6
CONTINUOUS
 70
0
 71
3
 72
58
 73
54
 74
0
 42
0.0000001
 43
0.0000001
 44
0.0000000001
 40
0.0
 40
0.0
 40
0.0
 40
0.0
 40
0.0156498971
 40
0.0312931586
 40
0.0469381381
 40
0.0625698717
 40
0.0782013016
 40
0.0938217734
 40
0.1094420218
 40
0.1250627958
 40
0.1406830868
 40
0.1563032578
 40
0.1719236013
 40
0.1875441587
 40
0.2031649699
 40
0.2187859481
 40
0.2500278594
 40
0.2812702655
 40
0.3125126707
 40
0.3437539278
 40
0.3749951366
 40
0.4062402187
 40
0.4374909579
 40
0.4687424014
 40
0.4999932838
 40
0.5312467125
 40
0.5625003994
 40
0.5937518003
 40
0.6250045668
 40
0.6562584793
 40
0.6875107495
 40
0.7187626981
 40
0.7500146384
 40
0.7656407388
 40
0.7812660033
 40
0.8125146248
 40
0.843763657
 40
0.8593878718
 40
0.8750117358
 40
0.8906353195
 40
0.9062579943
 40
0.9140686553
 40
0.9218786287
 40
0.9296885005
 40
0.9374994041
 40
0.9453117294
 40
0.953122988
 40
0.9609328483
 40
0.9687443459
 40
0.9765583829
 40
0.984373769
 40
0.9921879565
 40
1.0
 40
1.0
 40
1.0
 40
1.0
 10
4.7633002482
 20
4.9844215066
 30
0.0
 10
4.7602784484
 20
4.9899235916
 30
0.0
 10
4.7535068389
 20
5.0005373859
 30
0.0
 10
4.7416108923
 20
5.0151729098
 30
0.0
 10
4.728322849
 20
5.028539664
 30
0.0
 10
4.7139443521
 20
5.0407041913
 30
0.0
 10
4.6987722427
 20
5.0518344737
 30
0.0
 10
4.68304206
 20
5.0621423176
 30
0.0
 10
4.6669886781
 20
5.0719207546
 30
0.0
 10
4.6509814779
 20
5.0817732237
 30
0.0
 10
4.6350260787
 20
5.0917096756
 30
0.0
 10
4.619127541
 20
5.1017364696
 30
0.0
 10
4.6032900512
 20
5.1118596572
 30
0.0
 10
4.5875155134
 20
5.1220811315
 30
0.0
 10
4.5718062192
 20
5.1324030984
 30
0.0
 10
4.550952044
 20
5.1463043966
 30
0.0
 10
4.5250654596
 20
5.1639519527
 30
0.0
 10
4.4943227543
 20
5.1855930861
 30
0.0
 10
4.4639369727
 20
5.2077326705
 30
0.0
 10
4.4339493958
 20
5.2304084251
 30
0.0
 10
4.4044032264
 20
5.2536587806
 30
0.0
 10
4.3753485519
 20
5.2775271962
 30
0.0
 10
4.3468417764
 20
5.3020545367
 30
0.0
 10
4.3189533384
 20
5.327287216
 30
0.0
 10
4.2917569436
 20
5.3532669116
 30
0.0
 10
4.2653303113
 20
5.3800316194
 30
0.0
 10
4.2397566839
 20
5.4076139571
 30
0.0
 10
4.215124157
 20
5.4360408742
 30
0.0
 10
4.1915299081
 20
5.4653366263
 30
0.0
 10
4.169053721
 20
5.495499824
 30
0.0
 10
4.1477657424
 20
5.5265136826
 30
0.0
 10
4.1277472652
 20
5.5583608399
 30
0.0
 10
4.112139941
 20
5.5855466998
 30
0.0
 10
4.1003069759
 20
5.6076505429
 30
0.0
 10
4.088912637
 20
5.6299822299
 30
0.0
 10
4.0754787936
 20
5.6583008593
 30
0.0
 10
4.0630799032
 20
5.6870860324
 30
0.0
 10
4.0537540059
 20
5.7103557298
 30
0.0
 10
4.0470404661
 20
5.7279175838
 30
0.0
 10
4.0405921834
 20
5.7455777231
 30
0.0
 10
4.0354260571
 20
5.7603679471
 30
0.0
 10
4.0314100343
 20
5.7722389902
 30
0.0
 10
4.0284535581
 20
5.781160052
 30
0.0
 10
4.0255573862
 20
5.7901009995
 30
0.0
 10
4.0227300115
 20
5.7990649193
 30
0.0
 10
4.0199781839
 20
5.8080530431
 30
0.0
 10
4.0173765938
 20
5.8170858188
 30
0.0
 10
4.0150048389
 20
5.8261821221
 30
0.0
 10
4.012934496
 20
5.8353531009
 30
0.0
 10
4.0111425876
 20
5.8445844077
 30
0.0
 10
4.009612363
 20
5.8538636513
 30
0.0
 10
4.0083260366
 20
5.8631787996
 30
0.0
 10
4.0076173567
 20
5.869407006
 30
0.0
 10
4.0072955369
 20
5.8725238986
 30
0.0
  0
SPLINE
  5
2E0
100
AcDbEntity
  8
0
100
AcDbSpline
 62
7
  6
CONTINUOUS
 70
0
 71
3
 72
74
 73
70
 74
0
 42
0.0000001
 43
0.0000001
 44
0.0000000001
 40
0.0
 40
0.0
 40
0.0
 40
0.0
 40
0.0163136858
 40
0.0320418139
 40
0.0472472918
 40
0.0621554866
 40
0.0770179577
 40
0.0920524767
 40
0.1073437026
 40
0.1229029709
 40
0.1386975508
 40
0.15464764
 40
0.1706419762
 40
0.1865594285
 40
0.2023641481
 40
0.2180662397
 40
0.23366881
 40
0.2491999287
 40
0.2647105657
 40
0.2724733992
 40
0.2802479424
 40
0.2958320636
 40
0.3114555687
 40
0.3427824145
 40
0.3741238747
 40
0.4054015051
 40
0.4366791948
 40
0.452332074
 40
0.4679934922
 40
0.4836594531
 40
0.4993220449
 40
0.5149745153
 40
0.5306137325
 40
0.5462408536
 40
0.5618619905
 40
0.5696740732
 40
0.5774892078
 40
0.5931289296
 40
0.60878058
 40
0.6244405501
 40
0.6401040217
 40
0.6557641743
 40
0.6714107061
 40
0.6870375704
 40
0.7026549904
 40
0.7182761017
 40
0.7495695942
 40
0.7652605658
 40
0.7809870812
 40
0.7967234571
 40
0.8124343538
 40
0.8280888799
 40
0.8436797205
 40
0.8592145069
 40
0.8747060071
 40
0.8901929536
 40
0.9057393411
 40
0.9135579652
 40
0.9214174818
 40
0.9293136907
 40
0.9372390248
 40
0.9451869177
 40
0.9531396174
 40
0.9610758405
 40
0.968980382
 40
0.9768335842
 40
0.9846176036
 40
0.9923331425
 40
1.0
 40
1.0
 40
1.0
 40
1.0
 10
5.6909990046
 20
5.8573590301
 30
0.0
 10
5.6953655305
 20
5.8538531397
 30
0.0
 10
5.7036366553
 20
5.8465736804
 30
0.0
 10
5.7146976087
 20
5.8346731164
 30
0.0
 10
5.7240924116
 20
5.8220069908
 30
0.0
 10
5.7318084092
 20
5.8085943872
 30
0.0
 10
5.7378760434
 20
5.7944239678
 30
0.0
 10
5.7423317571
 20
5.7795352873
 30
0.0
 10
5.7453276208
 20
5.764049455
 30
0.0
 10
5.7469904425
 20
5.7481069319
 30
0.0
 10
5.7474428606
 20
5.7318621937
 30
0.0
 10
5.7468131868
 20
5.7154770085
 30
0.0
 10
5.7452273049
 20
5.699116527
 30
0.0
 10
5.7428044928
 20
5.6829109175
 30
0.0
 10
5.7396369246
 20
5.6669376303
 30
0.0
 10
5.7358101055
 20
5.6512217118
 30
0.0
 10
5.7314082667
 20
5.6357555744
 30
0.0
 10
5.726485645
 20
5.6205168772
 30
0.0
 10
5.7219792106
 20
5.6079799142
 30
0.0
 10
5.7181527996
 20
5.5980327164
 30
0.0
 10
5.7141792654
 20
5.588116206
 30
0.0
 10
5.7089414294
 20
5.5758007486
 30
0.0
 10
5.6999667781
 20
5.5562987615
 30
0.0
 10
5.687620996
 20
5.5324068494
 30
0.0
 10
5.6709723542
 20
5.5047597132
 30
0.0
 10
5.65246055
 20
5.4783479945
 30
0.0
 10
5.635835363
 20
5.4572557203
 30
0.0
 10
5.6219946
 20
5.4408213224
 30
0.0
 10
5.6113791306
 20
5.4286806134
 30
0.0
 10
5.6005837018
 20
5.4166954369
 30
0.0
 10
5.5895854613
 20
5.4048997328
 30
0.0
 10
5.5783462813
 20
5.3933456048
 30
0.0
 10
5.5668327378
 20
5.3820815185
 30
0.0
 10
5.5550103318
 20
5.3711572119
 30
0.0
 10
5.5448725291
 20
5.3623782283
 30
0.0
 10
5.536577192
 20
5.3555773554
 30
0.0
 10
5.5281497583
 20
5.3489305799
 30
0.0
 10
5.5173792882
 20
5.3409131932
 30
0.0
 10
5.5041112073
 20
5.3317587932
 30
0.0
 10
5.490525037
 20
5.323068524
 30
0.0
 10
5.4766547144
 20
5.3148344892
 30
0.0
 10
5.4625430638
 20
5.3070317161
 30
0.0
 10
5.4482292115
 20
5.2996345188
 30
0.0
 10
5.4337402789
 20
5.2926203298
 30
0.0
 10
5.4190760756
 20
5.2860007076
 30
0.0
 10
5.3992783183
 20
5.2777028176
 30
0.0
 10
5.3791190612
 20
5.2702169464
 30
0.0
 10
5.3586163889
 20
5.2636493956
 30
0.0
 10
5.343050115
 20
5.2592028885
 30
0.0
 10
5.3273395559
 20
5.2552682519
 30
0.0
 10
5.3115276054
 20
5.2518777646
 30
0.0
 10
5.2956534062
 20
5.2490634956
 30
0.0
 10
5.2797435848
 20
5.2468596373
 30
0.0
 10
5.2638136042
 20
5.2452998878
 30
0.0
 10
5.2478671762
 20
5.2444123241
 30
0.0
 10
5.2318922153
 20
5.2442485655
 30
0.0
 10
5.2185597706
 20
5.244769577
 30
0.0
 10
5.2078735193
 20
5.2456082649
 30
0.0
 10
5.1998249616
 20
5.246456734
 30
0.0
 10
5.1917680909
 20
5.2475446427
 30
0.0
 10
5.1837202854
 20
5.2488965748
 30
0.0
 10
5.1757051866
 20
5.2505322329
 30
0.0
 10
5.1677571768
 20
5.2524862839
 30
0.0
 10
5.159921323
 20
5.2548009181
 30
0.0
 10
5.1522484939
 20
5.2575111508
 30
0.0
 10
5.14480207
 20
5.2606650077
 30
0.0
 10
5.1376594035
 20
5.2643221651
 30
0.0
 10
5.1309067185
 20
5.2685413649
 30
0.0
 10
5.126710032
 20
5.2717628623
 30
0.0
 10
5.124707342
 20
5.2734702391
 30
0.0
  0
SPLINE
  5
2E1
100
AcDbEntity
  8
0
100
AcDbSpline
 62
7
  6
CONTINUOUS
 70
0
 71
3
 72
18
 73
14
 74
0
 42
0.0000001
 43
0.0000001
 44
0.0000000001
 40
0.0
 40
0.0
 40
0.0
 40
0.0
 40
0.1223597111
 40
0.1837077767
 40
0.2453121085
 40
0.3695980695
 40
0.4955857321
 40
0.559220083
 40
0.6232237347
 40
0.687469899
 40
0.7516538521
 40
0.8783326612
 40
1.0
 40
1.0
 40
1.0
 40
1.0
 10
5.124707342
 20
5.2734702391
 30
0.0
 10
5.1226875776
 20
5.2751921726
 30
0.0
 10
5.1197861867
 20
5.2779383121
 30
0.0
 10
5.1162355874
 20
5.2819044496
 30
0.0
 10
5.1128900646
 20
5.2860994786
 30
0.0
 10
5.109124923
 20
5.2917365604
 30
0.0
 10
5.105921599
 20
5.2977568887
 30
0.0
 10
5.1036672927
 20
5.3027768043
 30
0.0
 10
5.1021256607
 20
5.3066443909
 30
0.0
 10
5.1007336287
 20
5.3105804922
 30
0.0
 10
5.0990509894
 20
5.3158528512
 30
0.0
 10
5.0972208243
 20
5.3223819891
 30
0.0
 10
5.095873185
 20
5.3275975255
 30
0.0
 10
5.0952018634
 20
5.3301498447
 30
0.0
  0
SPLINE
  5
2E2
100
AcDbEntity
  8
0
100
AcDbSpline
 62
7
  6
CONTINUOUS
 70
0
 71
3
 72
66
 73
62
 74
0
 42
0.0000001
 43
0.0000001
 44
0.0000000001
 40
0.0
 40
0.0
 40
0.0
 40
0.0
 40
0.0315335075
 40
0.047090052
 40
0.062402897
 40
0.0773996523
 40
0.0920135291
 40
0.1198694965
 40
0.1330963827
 40
0.1458583288
 40
0.1581839428
 40
0.1701251757
 40
0.1817809422
 40
0.1932876954
 40
0.2047827926
 40
0.2163980464
 40
0.2282557811
 40
0.2404669599
 40
0.2531116033
 40
0.2662283266
 40
0.2798224832
 40
0.2938742286
 40
0.3083393948
 40
0.323146755
 40
0.3534527227
 40
0.3687808067
 40
0.3841204932
 40
0.3994048872
 40
0.4145848004
 40
0.4445439283
 40
0.4593911323
 40
0.4742206116
 40
0.4891169393
 40
0.5041882593
 40
0.5195650923
 40
0.5353841901
 40
0.5517218799
 40
0.5686181905
 40
0.604142001
 40
0.6228033629
 40
0.6419860333
 40
0.6615902896
 40
0.6815078816
 40
0.7218123402
 40
0.7419802149
 40
0.761985421
 40
0.7817059401
 40
0.8010280244
 40
0.8198535046
 40
0.8381291721
 40
0.855835391
 40
0.8729713929
 40
0.8895610965
 40
0.8976702824
 40
0.9056687524
 40
0.9214031379
 40
0.9369294893
 40
0.9524055082
 40
0.9679832433
 40
0.9838057049
 40
1.0
 40
1.0
 40
1.0
 40
1.0
 10
5.4323466814
 20
5.6376410778
 30
0.0
 10
5.4334636065
 20
5.6326226936
 30
0.0
 10
5.4347297118
 20
5.625029618
 30
0.0
 10
5.4355590446
 20
5.6148856009
 30
0.0
 10
5.4357424429
 20
5.6074055295
 30
0.0
 10
5.4354839835
 20
5.6000806445
 30
0.0
 10
5.4345588969
 20
5.5907533807
 30
0.0
 10
5.432740729
 20
5.5818142914
 30
0.0
 10
5.4299356144
 20
5.573485943
 30
0.0
 10
5.4274169905
 20
5.5677592251
 30
0.0
 10
5.4244504549
 20
5.5624889349
 30
0.0
 10
5.4210321487
 20
5.5577175732
 30
0.0
 10
5.417168114
 20
5.5534773384
 30
0.0
 10
5.4128815587
 20
5.549775081
 30
0.0
 10
5.4081895337
 20
5.5466147062
 30
0.0
 10
5.4031107352
 20
5.5439969487
 30
0.0
 10
5.397661243
 20
5.5419266529
 30
0.0
 10
5.3918676347
 20
5.5403871434
 30
0.0
 10
5.3857645739
 20
5.5393118712
 30
0.0
 10
5.3793788892
 20
5.5386426759
 30
0.0
 10
5.372738146
 20
5.538320131
 30
0.0
 10
5.365870841
 20
5.5382881642
 30
0.0
 10
5.3588092604
 20
5.5384833841
 30
0.0
 10
5.3491059306
 20
5.5389325524
 30
0.0
 10
5.339266695
 20
5.5394845154
 30
0.0
 10
5.329329902
 20
5.5398038805
 30
0.0
 10
5.3218369661
 20
5.5398432504
 30
0.0
 10
5.3143700457
 20
5.539604405
 30
0.0
 10
5.3045489564
 20
5.5388158385
 30
0.0
 10
5.2948682066
 20
5.5371578517
 30
0.0
 10
5.2855607409
 20
5.5343055509
 30
0.0
 10
5.2788246527
 20
5.5315499267
 30
0.0
 10
5.2723526671
 20
5.5281394597
 30
0.0
 10
5.2661832437
 20
5.5240424113
 30
0.0
 10
5.2603569892
 20
5.5192289001
 30
0.0
 10
5.254925523
 20
5.5136820853
 30
0.0
 10
5.249906116
 20
5.5074403146
 30
0.0
 10
5.2436927185
 20
5.4980951054
 30
0.0
 10
5.2385367534
 20
5.4876507703
 30
0.0
 10
5.2344504945
 20
5.4764019928
 30
0.0
 10
5.2318643297
 20
5.4673918483
 30
0.0
 10
5.2298206288
 20
5.4580348938
 30
0.0
 10
5.2278307491
 20
5.4451669609
 30
0.0
 10
5.2270030951
 20
5.4320485461
 30
0.0
 10
5.2273539366
 20
5.418926419
 30
0.0
 10
5.2282075713
 20
5.4091921987
 30
0.0
 10
5.2296528816
 20
5.3996675571
 30
0.0
 10
5.2316899302
 20
5.3904475269
 30
0.0
 10
5.2343242823
 20
5.3816244809
 30
0.0
 10
5.2375461959
 20
5.3732793933
 30
0.0
 10
5.2413381545
 20
5.3654809784
 30
0.0
 10
5.245685795
 20
5.3582962618
 30
0.0
 10
5.2497928577
 20
5.3528332118
 30
0.0
 10
5.2533427584
 20
5.3488525887
 30
0.0
 10
5.2570180898
 20
5.3451825917
 30
0.0
 10
5.2619386346
 20
5.341063485
 30
0.0
 10
5.2683403228
 20
5.3368973199
 30
0.0
 10
5.2751729493
 20
5.3335409109
 30
0.0
 10
5.2823999018
 20
5.331000771
 30
0.0
 10
5.2899844173
 20
5.329287327
 30
0.0
 10
5.2951814158
 20
5.3286942391
 30
0.0
 10
5.2978159979
 20
5.3285206577
 30
0.0
  0
SPLINE
  5
2E3
100
AcDbEntity
  8
0
100
AcDbSpline
 62
7
  6
CONTINUOUS
 70
0
 71
3
 72
36
 73
32
 74
0
 42
0.0000001
 43
0.0000001
 44
0.0000000001
 40
0.0
 40
0.0
 40
0.0
 40
0.0
 40
0.0300988209
 40
0.0457331725
 40
0.0617642181
 40
0.0949780138
 40
0.1295875752
 40
0.1652834788
 40
0.2016676779
 40
0.2383484874
 40
0.2749461364
 40
0.311056392
 40
0.3463881723
 40
0.3808013705
 40
0.4141639609
 40
0.4776420997
 40
0.507973561
 40
0.5375347096
 40
0.5665246829
 40
0.5951544008
 40
0.6236263271
 40
0.6521033297
 40
0.6807266724
 40
0.7096084857
 40
0.7680144423
 40
0.8267569172
 40
0.856034466
 40
0.8851208
 40
0.9426902715
 40
0.9712987112
 40
1.0
 40
1.0
 40
1.0
 40
1.0
 10
5.2978159979
 20
5.3285206577
 30
0.0
 10
5.3022269563
 20
5.3282300385
 30
0.0
 10
5.3089733333
 20
5.3283264777
 30
0.0
 10
5.3179908822
 20
5.3293364638
 30
0.0
 10
5.3273851281
 20
5.3309646187
 30
0.0
 10
5.3393232392
 20
5.3340817928
 30
0.0
 10
5.3536434916
 20
5.3392353001
 30
0.0
 10
5.3679654902
 20
5.3456214844
 30
0.0
 10
5.382129606
 20
5.3530245341
 30
0.0
 10
5.3959883163
 20
5.3612436261
 30
0.0
 10
5.4094065509
 20
5.3700881273
 30
0.0
 10
5.422276165
 20
5.3793774075
 30
0.0
 10
5.4345072034
 20
5.3889809584
 30
0.0
 10
5.4460262445
 20
5.3988182586
 30
0.0
 10
5.4601502297
 20
5.4119423669
 30
0.0
 10
5.4730016395
 20
5.4255415644
 30
0.0
 10
5.4844022351
 20
5.4396334865
 30
0.0
 10
5.4920623373
 20
5.4502118939
 30
0.0
 10
5.4989891549
 20
5.4609883187
 30
0.0
 10
5.5052182995
 20
5.4719992472
 30
0.0
 10
5.5107832914
 20
5.4832759657
 30
0.0
 10
5.5157314023
 20
5.4948348658
 30
0.0
 10
5.5201064623
 20
5.5066862049
 30
0.0
 10
5.5252460675
 20
5.5229207182
 30
0.0
 10
5.5303655533
 20
5.543775383
 30
0.0
 10
5.5338430075
 20
5.5650188685
 30
0.0
 10
5.5356847423
 20
5.5821223835
 30
0.0
 10
5.5369011349
 20
5.5991083085
 30
0.0
 10
5.5371906942
 20
5.616053652
 30
0.0
 10
5.5364855028
 20
5.6329142542
 30
0.0
 10
5.5357993501
 20
5.6413058051
 30
0.0
 10
5.5353769167
 20
5.6454998552
 30
0.0
  0
SPLINE
  5
2E4
100
AcDbEntity
  8
0
100
AcDbSpline
 62
7
  6
CONTINUOUS
 70
0
 71
3
 72
64
 73
60
 74
0
 42
0.0000001
 43
0.0000001
 44
0.0000000001
 40
0.0
 40
0.0
 40
0.0
 40
0.0
 40
0.0308423034
 40
0.0458419299
 40
0.0604704254
 40
0.0883990911
 40
0.1016812364
 40
0.1145087687
 40
0.126906008
 40
0.1389175534
 40
0.15062578
 40
0.1621567675
 40
0.1736411829
 40
0.1852056955
 40
0.1969691417
 40
0.2090407737
 40
0.2215100405
 40
0.234427953
 40
0.2478116168
 40
0.2616519223
 40
0.2905543563
 40
0.3206381969
 40
0.3512610865
 40
0.3818378488
 40
0.3969816431
 40
0.4119980348
 40
0.4269021263
 40
0.4417395443
 40
0.4565736391
 40
0.4714884471
 40
0.4865896395
 40
0.5020032357
 40
0.5178564613
 40
0.5342169281
 40
0.5511217725
 40
0.568593393
 40
0.5866428331
 40
0.6052665186
 40
0.6244045422
 40
0.6439635344
 40
0.6638417624
 40
0.6839329806
 40
0.724299134
 40
0.7443574813
 40
0.7641701705
 40
0.783626875
 40
0.802628221
 40
0.8211067857
 40
0.8390365758
 40
0.8564093357
 40
0.8732371376
 40
0.8895583802
 40
0.9054559759
 40
0.9210715887
 40
0.9365558419
 40
0.9520560659
 40
0.9677129389
 40
0.9836575291
 40
1.0
 40
1.0
 40
1.0
 40
1.0
 10
6.0186910693
 20
5.0435855765
 30
0.0
 10
6.0137935477
 20
5.044155585
 30
0.0
 10
6.0064594972
 20
5.0446172731
 30
0.0
 10
5.9967904319
 20
5.0443772682
 30
0.0
 10
5.9876198166
 20
5.0435808637
 30
0.0
 10
5.9788087145
 20
5.041929032
 30
0.0
 10
5.9705608253
 20
5.0393314691
 30
0.0
 10
5.964861814
 20
5.0369817598
 30
0.0
 10
5.9595880102
 20
5.0342002356
 30
0.0
 10
5.9547783728
 20
5.0309850836
 30
0.0
 10
5.9504674818
 20
5.0273362881
 30
0.0
 10
5.9466645672
 20
5.023275344
 30
0.0
 10
5.9433733935
 20
5.0188182872
 30
0.0
 10
5.9405961274
 20
5.0139819337
 30
0.0
 10
5.9383337931
 20
5.0087824197
 30
0.0
 10
5.9365879435
 20
5.0032376714
 30
0.0
 10
5.9353049229
 20
4.9973817357
 30
0.0
 10
5.9344287149
 20
4.9912412692
 30
0.0
 10
5.9339049297
 20
4.9848424085
 30
0.0
 10
5.9336005742
 20
4.97587214
 30
0.0
 10
5.9338609684
 20
4.9642267503
 30
0.0
 10
5.9345312051
 20
4.94991843
 30
0.0
 10
5.9349447667
 20
4.9353290112
 30
0.0
 10
5.9345680508
 20
4.9231150381
 30
0.0
 10
5.9335394833
 20
4.9134550955
 30
0.0
 10
5.9323368854
 20
4.9063464744
 30
0.0
 10
5.9306256509
 20
4.899391142
 30
0.0
 10
5.9283434988
 20
4.8926308536
 30
0.0
 10
5.9254650676
 20
4.8860991404
 30
0.0
 10
5.9219596471
 20
4.8798316254
 30
0.0
 10
5.9177986674
 20
4.8738643451
 30
0.0
 10
5.9129547206
 20
4.8682361111
 30
0.0
 10
5.9074160585
 20
4.8629935464
 30
0.0
 10
5.9012210422
 20
4.8581510718
 30
0.0
 10
5.894408713
 20
4.8537307629
 30
0.0
 10
5.8870200461
 20
4.8497562756
 30
0.0
 10
5.8790966045
 20
4.8462515143
 30
0.0
 10
5.8706881877
 20
4.8432455203
 30
0.0
 10
5.8618647743
 20
4.8407482351
 30
0.0
 10
5.8527060776
 20
4.8387700584
 30
0.0
 10
5.8432940998
 20
4.837324011
 30
0.0
 10
5.83050236
 20
4.8361207819
 30
0.0
 10
5.8175957465
 20
4.8360389636
 30
0.0
 10
5.8048058068
 20
4.8370864795
 30
0.0
 10
5.795411031
 20
4.8384333852
 30
0.0
 10
5.786286465
 20
4.8403421392
 30
0.0
 10
5.7775186094
 20
4.8428151622
 30
0.0
 10
5.7691875616
 20
4.8458504676
 30
0.0
 10
5.7613596651
 20
4.8494298186
 30
0.0
 10
5.7540967625
 20
4.8535394171
 30
0.0
 10
5.7474604115
 20
4.8581653804
 30
0.0
 10
5.7415115517
 20
4.8632967732
 30
0.0
 10
5.7363092955
 20
4.8689245637
 30
0.0
 10
5.7318708964
 20
4.8750077009
 30
0.0
 10
5.7282047751
 20
4.8815124526
 30
0.0
 10
5.7253179024
 20
4.8884051247
 30
0.0
 10
5.7232154396
 20
4.8956524097
 30
0.0
 10
5.72190574
 20
4.903218493
 30
0.0
 10
5.7215449676
 20
4.9083767304
 30
0.0
 10
5.7214801246
 20
4.9109885019
 30
0.0
  0
SPLINE
  5
2E5
100
AcDbEntity
  8
0
100
AcDbSpline
 62
7
  6
CONTINUOUS
 70
0
 71
3
 72
35
 73
31
 74
0
 42
0.0000001
 43
0.0000001
 44
0.0000000001
 40
0.0
 40
0.0
 40
0.0
 40
0.0
 40
0.0303873736
 40
0.0623339662
 40
0.0958156788
 40
0.1306369393
 40
0.166472558
 40
0.2029216071
 40
0.2396044597
 40
0.2761415546
 40
0.3121356591
 40
0.3473314883
 40
0.3815957309
 40
0.4147996272
 40
0.4780061694
 40
0.5082308342
 40
0.5377098065
 40
0.5666435074
 40
0.5952403399
 40
0.6236976423
 40
0.65217305
 40
0.680804991
 40
0.7096983104
 40
0.7681084208
 40
0.8268325903
 40
0.8560945264
 40
0.885163056
 40
0.9427048889
 40
0.9713033404
 40
1.0
 40
1.0
 40
1.0
 40
1.0
 10
5.7214801246
 20
4.9109885019
 30
0.0
 10
5.7213691161
 20
4.9154597488
 30
0.0
 10
5.7218485951
 20
4.9246571287
 30
0.0
 10
5.7243487794
 20
4.9385654789
 30
0.0
 10
5.7284831978
 20
4.9527539901
 30
0.0
 10
5.7340275133
 20
4.9670602734
 30
0.0
 10
5.7407607494
 20
4.9813269878
 30
0.0
 10
5.7484694178
 20
4.995401022
 30
0.0
 10
5.7569557115
 20
5.0091397165
 30
0.0
 10
5.766030713
 20
5.0224141123
 30
0.0
 10
5.7755181091
 20
5.0351239638
 30
0.0
 10
5.7852986377
 20
5.0471815465
 30
0.0
 10
5.7952942934
 20
5.0585203629
 30
0.0
 10
5.8086075518
 20
5.0724063456
 30
0.0
 10
5.8223809137
 20
5.0850143378
 30
0.0
 10
5.8366308981
 20
5.0961708465
 30
0.0
 10
5.8473237908
 20
5.1036569182
 30
0.0
 10
5.8582102651
 20
5.1104144427
 30
0.0
 10
5.8693270495
 20
5.1164781536
 30
0.0
 10
5.8807041753
 20
5.1218817568
 30
0.0
 10
5.8923574481
 20
5.1266725101
 30
0.0
 10
5.9042966214
 20
5.1308931335
 30
0.0
 10
5.9206367457
 20
5.1358285316
 30
0.0
 10
5.9415989961
 20
5.1406950852
 30
0.0
 10
5.9629242023
 20
5.1439250299
 30
0.0
 10
5.9800775394
 20
5.1455718989
 30
0.0
 10
5.997104179
 20
5.1465976735
 30
0.0
 10
6.0140802696
 20
5.1466995837
 30
0.0
 10
6.0309627569
 20
5.1458111296
 30
0.0
 10
6.039362709
 20
5.1450351852
 30
0.0
 10
6.0435605912
 20
5.1445682291
 30
0.0
  0
SPLINE
  5
2E6
100
AcDbEntity
  8
0
100
AcDbSpline
 62
7
  6
CONTINUOUS
 70
0
 71
3
 72
76
 73
72
 74
0
 42
0.0000001
 43
0.0000001
 44
0.0000000001
 40
0.0
 40
0.0
 40
0.0
 40
0.0
 40
0.0162290088
 40
0.0318730924
 40
0.0470212941
 40
0.0619091888
 40
0.069337121
 40
0.0767933554
 40
0.0918636301
 40
0.1071947314
 40
0.1227915407
 40
0.1386151034
 40
0.1545802305
 40
0.1705729473
 40
0.1864769951
 40
0.2022699124
 40
0.2179610291
 40
0.2490768891
 40
0.2645903367
 40
0.272356677
 40
0.2801353073
 40
0.2957266462
 40
0.3113562671
 40
0.342691574
 40
0.358372307
 40
0.3740383744
 40
0.3896841965
 40
0.4053216892
 40
0.4366048693
 40
0.4522607142
 40
0.4679248321
 40
0.4835928236
 40
0.4992566269
 40
0.5149098378
 40
0.5305497273
 40
0.5461779002
 40
0.5618009569
 40
0.5696144912
 40
0.5774312469
 40
0.5930741295
 40
0.6087286758
 40
0.624391134
 40
0.640056617
 40
0.6557180419
 40
0.6713649055
 40
0.6869924941
 40
0.7026116906
 40
0.7182356258
 40
0.7495366111
 40
0.765232225
 40
0.7809626732
 40
0.7967003944
 40
0.812410261
 40
0.8280622993
 40
0.843651091
 40
0.8591846564
 40
0.8746765173
 40
0.8901673658
 40
0.9057213329
 40
0.9135450979
 40
0.92140979
 40
0.9293103882
 40
0.9372400454
 40
0.9451920058
 40
0.9531459551
 40
0.9610794669
 40
0.9689764322
 40
0.9768197369
 40
0.9845990788
 40
0.9923215604
 40
1.0
 40
1.0
 40
1.0
 40
1.0
 10
6.2568466352
 20
5.3013172976
 30
0.0
 10
6.2533200787
 20
5.3056733581
 30
0.0
 10
6.245997792
 20
5.3139187833
 30
0.0
 10
6.2340166754
 20
5.3249243681
 30
0.0
 10
6.2212545556
 20
5.3342556397
 30
0.0
 10
6.2099660016
 20
5.3406422725
 30
0.0
 10
6.2006042317
 20
5.3449050176
 30
0.0
 10
6.190953668
 20
5.3486447914
 30
0.0
 10
6.1783845877
 20
5.3523381313
 30
0.0
 10
6.1627586898
 20
5.3553121921
 30
0.0
 10
6.1466810538
 20
5.356969049
 30
0.0
 10
6.1303100483
 20
5.3574300249
 30
0.0
 10
6.1138099258
 20
5.3568226445
 30
0.0
 10
6.0973459723
 20
5.3552710554
 30
0.0
 10
6.0810428808
 20
5.3528909776
 30
0.0
 10
6.0649718915
 20
5.3497715878
 30
0.0
 10
6.0439384797
 20
5.344754474
 30
0.0
 10
6.0232991422
 20
5.3385803154
 30
0.0
 10
6.0055810969
 20
5.3323329436
 30
0.0
 10
5.9955453585
 20
5.328546406
 30
0.0
 10
5.9855378283
 20
5.3246122639
 30
0.0
 10
5.9731081385
 20
5.3194201014
 30
0.0
 10
5.9534238591
 20
5.3105129684
 30
0.0
 10
5.9341272958
 20
5.300692576
 30
0.0
 10
5.9153343213
 20
5.2899429813
 30
0.0
 10
5.9015252278
 20
5.2814112232
 30
0.0
 10
5.8880303912
 20
5.2724183082
 30
0.0
 10
5.8704256759
 20
5.2598859816
 30
0.0
 10
5.8533486119
 20
5.2466254664
 30
0.0
 10
5.8367030315
 20
5.2328281154
 30
0.0
 10
5.824398876
 20
5.2222472906
 30
0.0
 10
5.8122483698
 20
5.2114865755
 30
0.0
 10
5.8002923547
 20
5.2005150593
 30
0.0
 10
5.7885811783
 20
5.189296025
 30
0.0
 10
5.7771635539
 20
5.1777949536
 30
0.0
 10
5.7660889695
 20
5.165976841
 30
0.0
 10
5.7571873541
 20
5.1558356178
 30
0.0
 10
5.7502902925
 20
5.1475328093
 30
0.0
 10
5.7435471635
 20
5.1390957594
 30
0.0
 10
5.7354080077
 20
5.1283112088
 30
0.0
 10
5.7261060927
 20
5.1150226578
 30
0.0
 10
5.7172674143
 20
5.1014124218
 30
0.0
 10
5.7088822429
 20
5.0875159269
 30
0.0
 10
5.7009260604
 20
5.073376143
 30
0.0
 10
5.6933724776
 20
5.0590324427
 30
0.0
 10
5.6862021759
 20
5.0445097358
 30
0.0
 10
5.6794272087
 20
5.0298067891
 30
0.0
 10
5.670922192
 20
5.0099504334
 30
0.0
 10
5.6632324233
 20
4.989722451
 30
0.0
 10
5.656466007
 20
4.9691407779
 30
0.0
 10
5.6518726648
 20
4.9535109422
 30
0.0
 10
5.6477942579
 20
4.9377337802
 30
0.0
 10
5.64426382
 20
4.9218524497
 30
0.0
 10
5.6413138802
 20
4.9059050906
 30
0.0
 10
5.6389791086
 20
4.8899171894
 30
0.0
 10
5.6372932177
 20
4.873903148
 30
0.0
 10
5.6362844124
 20
4.8578654923
 30
0.0
 10
5.6360066494
 20
4.8417907636
 30
0.0
 10
5.6364385831
 20
4.8283681543
 30
0.0
 10
5.6372092483
 20
4.8176052043
 30
0.0
 10
5.6380089052
 20
4.8094970528
 30
0.0
 10
5.6390520615
 20
4.8013795344
 30
0.0
 10
5.6403628492
 20
4.7932701444
 30
0.0
 10
5.6419611477
 20
4.7851933354
 30
0.0
 10
5.6438847861
 20
4.7771856821
 30
0.0
 10
5.6461763234
 20
4.7692944121
 30
0.0
 10
5.6488726868
 20
4.7615714456
 30
0.0
 10
5.6520244169
 20
4.7540788359
 30
0.0
 10
5.6556894892
 20
4.7468882965
 30
0.0
 10
5.6599219155
 20
4.7400814446
 30
0.0
 10
5.6631553198
 20
4.735844994
 30
0.0
 10
5.6648729916
 20
4.7338247891
 30
0.0
  0
SPLINE
  5
2E7
100
AcDbEntity
  8
0
100
AcDbSpline
 62
7
  6
CONTINUOUS
 70
0
 71
3
 72
19
 73
15
 74
0
 42
0.0000001
 43
0.0000001
 44
0.0000000001
 40
0.0
 40
0.0
 40
0.0
 40
0.0
 40
0.1222905874
 40
0.1834911356
 40
0.2448658297
 40
0.3065718281
 40
0.3687390925
 40
0.4946912828
 40
0.5585176522
 40
0.6228513905
 40
0.6874753309
 40
0.7519442113
 40
0.8786665452
 40
1.0
 40
1.0
 40
1.0
 40
1.0
 10
5.6648729916
 20
4.7338247891
 30
0.0
 10
5.6665846122
 20
4.7318117012
 30
0.0
 10
5.6693157753
 20
4.7289229865
 30
0.0
 10
5.6732708035
 20
4.7254050191
 30
0.0
 10
5.6764032243
 20
4.7229426252
 30
0.0
 10
5.6796890435
 20
4.7206533171
 30
0.0
 10
5.6842710858
 20
4.7177959936
 30
0.0
 10
5.6890804837
 20
4.7152310685
 30
0.0
 10
5.6940480409
 20
4.7128912773
 30
0.0
 10
5.6978640577
 20
4.7112196916
 30
0.0
 10
5.7017329332
 20
4.7096373394
 30
0.0
 10
5.7069103461
 20
4.7076993123
 30
0.0
 10
5.7133541297
 20
4.7056587862
 30
0.0
 10
5.7186074582
 20
4.7045271545
 30
0.0
 10
5.7212018634
 20
4.7041498447
 30
0.0
  0
SPLINE
  5
2E8
100
AcDbEntity
  8
0
100
AcDbSpline
 62
7
  6
CONTINUOUS
 70
0
 71
3
 72
58
 73
54
 74
0
 42
0.0000001
 43
0.0000001
 44
0.0000000001
 40
0.0
 40
0.0
 40
0.0
 40
0.0
 40
0.0156498961
 40
0.0312931581
 40
0.0469381366
 40
0.0625698698
 40
0.0782012993
 40
0.0938217704
 40
0.1094420191
 40
0.125062793
 40
0.140683084
 40
0.1563032551
 40
0.1719235986
 40
0.1875441561
 40
0.2031649674
 40
0.2187859457
 40
0.250027857
 40
0.2812702633
 40
0.3125126685
 40
0.3437539257
 40
0.3749951346
 40
0.4062402169
 40
0.4374909564
 40
0.4687423999
 40
0.4999932824
 40
0.5312467113
 40
0.5625003982
 40
0.5937517992
 40
0.6250045658
 40
0.6562584784
 40
0.6875107487
 40
0.7187626974
 40
0.7500146377
 40
0.7656407382
 40
0.7812660027
 40
0.8125146243
 40
0.8437636566
 40
0.8593878714
 40
0.8750117355
 40
0.8906353192
 40
0.906257994
 40
0.914068655
 40
0.9218786284
 40
0.9296885003
 40
0.9374994039
 40
0.9453117293
 40
0.9531229878
 40
0.9609328482
 40
0.9687443458
 40
0.9765583828
 40
0.984373769
 40
0.9921879564
 40
1.0
 40
1.0
 40
1.0
 40
1.0
 10
5.3754752323
 20
4.8300523974
 30
0.0
 10
5.380977267
 20
4.8330742671
 30
0.0
 10
5.3915909581
 20
4.8398459978
 30
0.0
 10
5.4062263286
 20
4.8517420822
 30
0.0
 10
5.4195929372
 20
4.865030227
 30
0.0
 10
5.4317573343
 20
4.879408792
 30
0.0
 10
5.4428875098
 20
4.8945809406
 30
0.0
 10
5.4531952683
 20
4.9103111418
 30
0.0
 10
5.4629736711
 20
4.9263645083
 30
0.0
 10
5.4728261383
 20
4.9423716742
 30
0.0
 10
5.4827625801
 20
4.9583270439
 30
0.0
 10
5.4927893667
 20
4.9742255504
 30
0.0
 10
5.5029125462
 20
4.9900630093
 30
0.0
 10
5.5131340125
 20
5.0058375162
 30
0.0
 10
5.5234559712
 20
5.0215467795
 30
0.0
 10
5.5373572585
 20
5.0424009134
 30
0.0
 10
5.5550048009
 20
5.068287446
 30
0.0
 10
5.5766459176
 20
5.0990300888
 30
0.0
 10
5.5987854851
 20
5.1294158076
 30
0.0
 10
5.6214612223
 20
5.1594033215
 30
0.0
 10
5.6447115601
 20
5.1889494278
 30
0.0
 10
5.6685799572
 20
5.218004039
 30
0.0
 10
5.6931072785
 20
5.2465107511
 30
0.0
 10
5.7183399376
 20
5.2743991255
 30
0.0
 10
5.7443196117
 20
5.301595457
 30
0.0
 10
5.7710842964
 20
5.3280220263
 30
0.0
 10
5.7986666091
 20
5.3535955914
 30
0.0
 10
5.8270934989
 20
5.378228057
 30
0.0
 10
5.8563892214
 20
5.4018222458
 30
0.0
 10
5.8865523863
 20
5.4242983753
 30
0.0
 10
5.9175662092
 20
5.4455862986
 30
0.0
 10
5.9494133275
 20
5.4656047237
 30
0.0
 10
5.976599152
 20
5.4812120079
 30
0.0
 10
5.9987029652
 20
5.493044943
 30
0.0
 10
6.0210346214
 20
5.5044392532
 30
0.0
 10
6.0493532102
 20
5.5178730639
 30
0.0
 10
6.0781383407
 20
5.5302719252
 30
0.0
 10
6.1014080029
 20
5.5395978016
 30
0.0
 10
6.1189698299
 20
5.5463113268
 30
0.0
 10
6.1366299419
 20
5.5527595959
 30
0.0
 10
6.1514201427
 20
5.5579257119
 30
0.0
 10
6.1632911671
 20
5.5619417268
 30
0.0
 10
6.1722122148
 20
5.5648981972
 30
0.0
 10
6.1811531482
 20
5.5677943634
 30
0.0
 10
6.1901170539
 20
5.5706217327
 30
0.0
 10
6.1991051635
 20
5.5733735545
 30
0.0
 10
6.2081379252
 20
5.5759751384
 30
0.0
 10
6.2172342145
 20
5.5783468869
 30
0.0
 10
6.226405179
 20
5.5804172244
 30
0.0
 10
6.2356364712
 20
5.5822091283
 30
0.0
 10
6.2449157
 20
5.5837393495
 30
0.0
 10
6.2542308333
 20
5.5850256732
 30
0.0
 10
6.2604590297
 20
5.5857343519
 30
0.0
 10
6.2635759172
 20
5.5860561712
 30
0.0
  0
SPLINE
  5
2E9
100
AcDbEntity
  8
0
100
AcDbSpline
 62
7
  6
CONTINUOUS
 70
0
 71
3
 72
74
 73
70
 74
0
 42
0.0000001
 43
0.0000001
 44
0.0000000001
 40
0.0
 40
0.0
 40
0.0
 40
0.0
 40
0.0163136858
 40
0.0320418139
 40
0.0472472918
 40
0.0621554866
 40
0.0770179577
 40
0.0920524767
 40
0.1073437026
 40
0.1229029709
 40
0.1386975508
 40
0.15464764
 40
0.1706419762
 40
0.1865594285
 40
0.2023641481
 40
0.2180662397
 40
0.23366881
 40
0.2491999287
 40
0.2647105657
 40
0.2724733992
 40
0.2802479424
 40
0.2958320636
 40
0.3114555687
 40
0.3427824145
 40
0.3741238747
 40
0.4054015051
 40
0.4366791948
 40
0.452332074
 40
0.4679934922
 40
0.4836594531
 40
0.4993220449
 40
0.5149745153
 40
0.5306137325
 40
0.5462408536
 40
0.5618619905
 40
0.5696740732
 40
0.5774892078
 40
0.5931289296
 40
0.60878058
 40
0.6244405501
 40
0.6401040217
 40
0.6557641743
 40
0.6714107061
 40
0.6870375704
 40
0.7026549904
 40
0.7182761017
 40
0.7495695942
 40
0.7652605658
 40
0.7809870812
 40
0.7967234571
 40
0.8124343538
 40
0.8280888799
 40
0.8436797205
 40
0.8592145069
 40
0.8747060071
 40
0.8901929536
 40
0.9057393411
 40
0.9135579652
 40
0.9214174818
 40
0.9293136907
 40
0.9372390248
 40
0.9451869177
 40
0.9531396174
 40
0.9610758405
 40
0.968980382
 40
0.9768335842
 40
0.9846176036
 40
0.9923331425
 40
1.0
 40
1.0
 40
1.0
 40
1.0
 10
6.2484110488
 20
3.9023527034
 30
0.0
 10
6.2449051583
 20
3.8979861776
 30
0.0
 10
6.237625699
 20
3.8897150528
 30
0.0
 10
6.225725135
 20
3.8786540994
 30
0.0
 10
6.2130590094
 20
3.8692592965
 30
0.0
 10
6.1996464058
 20
3.8615432989
 30
0.0
 10
6.1854759864
 20
3.8554756646
 30
0.0
 10
6.1705873059
 20
3.851019951
 30
0.0
 10
6.1551014736
 20
3.8480240873
 30
0.0
 10
6.1391589505
 20
3.8463612656
 30
0.0
 10
6.1229142123
 20
3.8459088474
 30
0.0
 10
6.1065290271
 20
3.8465385213
 30
0.0
 10
6.0901685456
 20
3.8481244032
 30
0.0
 10
6.0739629361
 20
3.8505472153
 30
0.0
 10
6.0579896489
 20
3.8537147835
 30
0.0
 10
6.0422737304
 20
3.8575416025
 30
0.0
 10
6.026807593
 20
3.8619434414
 30
0.0
 10
6.0115688959
 20
3.8668660631
 30
0.0
 10
5.9990319328
 20
3.8713724975
 30
0.0
 10
5.989084735
 20
3.8751989085
 30
0.0
 10
5.9791682247
 20
3.8791724427
 30
0.0
 10
5.9668527672
 20
3.8844102787
 30
0.0
 10
5.9473507801
 20
3.89338493
 30
0.0
 10
5.923458868
 20
3.905730712
 30
0.0
 10
5.8958117318
 20
3.9223793539
 30
0.0
 10
5.8694000131
 20
3.9408911581
 30
0.0
 10
5.8483077389
 20
3.9575163451
 30
0.0
 10
5.8318733411
 20
3.9713571081
 30
0.0
 10
5.819732632
 20
3.9819725775
 30
0.0
 10
5.8077474556
 20
3.9927680063
 30
0.0
 10
5.7959517514
 20
4.0037662467
 30
0.0
 10
5.7843976234
 20
4.0150054268
 30
0.0
 10
5.7731335371
 20
4.0265189703
 30
0.0
 10
5.7622092305
 20
4.0383413763
 30
0.0
 10
5.753430247
 20
4.0484791789
 30
0.0
 10
5.746629374
 20
4.0567745161
 30
0.0
 10
5.7399825985
 20
4.0652019498
 30
0.0
 10
5.7319652119
 20
4.0759724199
 30
0.0
 10
5.7228108118
 20
4.0892405008
 30
0.0
 10
5.7141205427
 20
4.102826671
 30
0.0
 10
5.7058865079
 20
4.1166969936
 30
0.0
 10
5.6980837347
 20
4.1308086443
 30
0.0
 10
5.6906865374
 20
4.1451224965
 30
0.0
 10
5.6836723485
 20
4.1596114292
 30
0.0
 10
5.6770527263
 20
4.1742756324
 30
0.0
 10
5.6687548362
 20
4.1940733898
 30
0.0
 10
5.6612689651
 20
4.2142326469
 30
0.0
 10
5.6547014142
 20
4.2347353191
 30
0.0
 10
5.6502549071
 20
4.2503015931
 30
0.0
 10
5.6463202705
 20
4.2660121522
 30
0.0
 10
5.6429297832
 20
4.2818241027
 30
0.0
 10
5.6401155142
 20
4.2976983019
 30
0.0
 10
5.637911656
 20
4.3136081233
 30
0.0
 10
5.6363519064
 20
4.3295381039
 30
0.0
 10
5.6354643427
 20
4.3454845318
 30
0.0
 10
5.6353005841
 20
4.3614594928
 30
0.0
 10
5.6358215956
 20
4.3747919375
 30
0.0
 10
5.6366602836
 20
4.3854781888
 30
0.0
 10
5.6375087526
 20
4.3935267465
 30
0.0
 10
5.6385966613
 20
4.4015836171
 30
0.0
 10
5.6399485935
 20
4.4096314227
 30
0.0
 10
5.6415842515
 20
4.4176465215
 30
0.0
 10
5.6435383026
 20
4.4255945313
 30
0.0
 10
5.6458529368
 20
4.4334303851
 30
0.0
 10
5.6485631694
 20
4.4411032141
 30
0.0
 10
5.6517170264
 20
4.448549638
 30
0.0
 10
5.6553741838
 20
4.4556923046
 30
0.0
 10
5.6595933836
 20
4.4624449896
 30
0.0
 10
5.6628148809
 20
4.4666416761
 30
0.0
 10
5.6645222578
 20
4.4686443661
 30
0.0
  0
SPLINE
  5
2EA
100
AcDbEntity
  8
0
100
AcDbSpline
 62
7
  6
CONTINUOUS
 70
0
 71
3
 72
18
 73
14
 74
0
 42
0.0000001
 43
0.0000001
 44
0.0000000001
 40
0.0
 40
0.0
 40
0.0
 40
0.0
 40
0.1223597111
 40
0.1837077767
 40
0.2453121085
 40
0.3695980695
 40
0.4955857321
 40
0.559220083
 40
0.6232237347
 40
0.687469899
 40
0.7516538521
 40
0.8783326612
 40
1.0
 40
1.0
 40
1.0
 40
1.0
 10
5.6645222578
 20
4.4686443661
 30
0.0
 10
5.6662441912
 20
4.4706641305
 30
0.0
 10
5.6689903308
 20
4.4735655214
 30
0.0
 10
5.6729564682
 20
4.4771161206
 30
0.0
 10
5.6771514972
 20
4.4804616435
 30
0.0
 10
5.682788579
 20
4.4842267851
 30
0.0
 10
5.6888089074
 20
4.487430109
 30
0.0
 10
5.6938288229
 20
4.4896844154
 30
0.0
 10
5.6976964095
 20
4.4912260474
 30
0.0
 10
5.7016325109
 20
4.4926180794
 30
0.0
 10
5.7069048698
 20
4.4943007187
 30
0.0
 10
5.7134340077
 20
4.4961308837
 30
0.0
 10
5.7186495442
 20
4.497478523
 30
0.0
 10
5.7212018634
 20
4.4981498447
 30
0.0
  0
SPLINE
  5
2EB
100
AcDbEntity
  8
0
100
AcDbSpline
 62
7
  6
CONTINUOUS
 70
0
 71
3
 72
66
 73
62
 74
0
 42
0.0000001
 43
0.0000001
 44
0.0000000001
 40
0.0
 40
0.0
 40
0.0
 40
0.0
 40
0.0315335075
 40
0.047090052
 40
0.062402897
 40
0.0773996523
 40
0.0920135291
 40
0.1198694965
 40
0.1330963827
 40
0.1458583288
 40
0.1581839428
 40
0.1701251757
 40
0.1817809422
 40
0.1932876954
 40
0.2047827926
 40
0.2163980464
 40
0.2282557811
 40
0.2404669599
 40
0.2531116033
 40
0.2662283266
 40
0.2798224832
 40
0.2938742286
 40
0.3083393948
 40
0.323146755
 40
0.3534527227
 40
0.3687808067
 40
0.3841204932
 40
0.3994048872
 40
0.4145848004
 40
0.4445439283
 40
0.4593911323
 40
0.4742206116
 40
0.4891169393
 40
0.5041882593
 40
0.5195650923
 40
0.5353841901
 40
0.5517218799
 40
0.5686181905
 40
0.604142001
 40
0.6228033629
 40
0.6419860333
 40
0.6615902896
 40
0.6815078816
 40
0.7218123402
 40
0.7419802149
 40
0.761985421
 40
0.7817059401
 40
0.8010280244
 40
0.8198535046
 40
0.8381291721
 40
0.855835391
 40
0.8729713929
 40
0.8895610965
 40
0.8976702824
 40
0.9056687524
 40
0.9214031379
 40
0.9369294893
 40
0.9524055082
 40
0.9679832433
 40
0.9838057049
 40
1.0
 40
1.0
 40
1.0
 40
1.0
 10
6.0286930964
 20
4.1610050266
 30
0.0
 10
6.0236747123
 20
4.1598881016
 30
0.0
 10
6.0160816367
 20
4.1586219963
 30
0.0
 10
6.0059376195
 20
4.1577926635
 30
0.0
 10
5.9984575482
 20
4.1576092652
 30
0.0
 10
5.9911326631
 20
4.1578677246
 30
0.0
 10
5.9818053993
 20
4.1587928111
 30
0.0
 10
5.97286631
 20
4.160610979
 30
0.0
 10
5.9645379616
 20
4.1634160937
 30
0.0
 10
5.9588112437
 20
4.1659347176
 30
0.0
 10
5.9535409535
 20
4.1689012532
 30
0.0
 10
5.9487695918
 20
4.1723195593
 30
0.0
 10
5.9445293571
 20
4.176183594
 30
0.0
 10
5.9408270996
 20
4.1804701493
 30
0.0
 10
5.9376667248
 20
4.1851621744
 30
0.0
 10
5.9350489673
 20
4.1902409729
 30
0.0
 10
5.9329786716
 20
4.195690465
 30
0.0
 10
5.9314391621
 20
4.2014840733
 30
0.0
 10
5.9303638899
 20
4.2075871342
 30
0.0
 10
5.9296946945
 20
4.2139728189
 30
0.0
 10
5.9293721496
 20
4.2206135621
 30
0.0
 10
5.9293401828
 20
4.2274808671
 30
0.0
 10
5.9295354028
 20
4.2345424477
 30
0.0
 10
5.929984571
 20
4.2442457775
 30
0.0
 10
5.930536534
 20
4.2540850131
 30
0.0
 10
5.9308558991
 20
4.2640218061
 30
0.0
 10
5.9308952691
 20
4.271514742
 30
0.0
 10
5.9306564236
 20
4.2789816623
 30
0.0
 10
5.9298678572
 20
4.2888027516
 30
0.0
 10
5.9282098703
 20
4.2984835015
 30
0.0
 10
5.9253575695
 20
4.3077909672
 30
0.0
 10
5.9226019453
 20
4.3145270554
 30
0.0
 10
5.9191914783
 20
4.320999041
 30
0.0
 10
5.9150944299
 20
4.3271684644
 30
0.0
 10
5.9102809187
 20
4.3329947189
 30
0.0
 10
5.9047341039
 20
4.3384261851
 30
0.0
 10
5.8984923333
 20
4.3434455921
 30
0.0
 10
5.8891471241
 20
4.3496589895
 30
0.0
 10
5.878702789
 20
4.3548149547
 30
0.0
 10
5.8674540114
 20
4.3589012135
 30
0.0
 10
5.8584438669
 20
4.3614873784
 30
0.0
 10
5.8490869124
 20
4.3635310793
 30
0.0
 10
5.8362189795
 20
4.365520959
 30
0.0
 10
5.8231005647
 20
4.366348613
 30
0.0
 10
5.8099784376
 20
4.3659977715
 30
0.0
 10
5.8002442173
 20
4.3651441367
 30
0.0
 10
5.7907195757
 20
4.3636988265
 30
0.0
 10
5.7814995455
 20
4.3616617779
 30
0.0
 10
5.7726764996
 20
4.3590274258
 30
0.0
 10
5.764331412
 20
4.3558055121
 30
0.0
 10
5.7565329971
 20
4.3520135535
 30
0.0
 10
5.7493482804
 20
4.347665913
 30
0.0
 10
5.7438852305
 20
4.3435588504
 30
0.0
 10
5.7399046073
 20
4.3400089497
 30
0.0
 10
5.7362346103
 20
4.3363336183
 30
0.0
 10
5.7321155036
 20
4.3314130735
 30
0.0
 10
5.7279493385
 20
4.3250113853
 30
0.0
 10
5.7245929295
 20
4.3181787588
 30
0.0
 10
5.7220527896
 20
4.3109518063
 30
0.0
 10
5.7203393457
 20
4.3033672908
 30
0.0
 10
5.7197462577
 20
4.2981702923
 30
0.0
 10
5.7195726763
 20
4.2955357102
 30
0.0
  0
SPLINE
  5
2EC
100
AcDbEntity
  8
0
100
AcDbSpline
 62
7
  6
CONTINUOUS
 70
0
 71
3
 72
36
 73
32
 74
0
 42
0.0000001
 43
0.0000001
 44
0.0000000001
 40
0.0
 40
0.0
 40
0.0
 40
0.0
 40
0.0300988209
 40
0.0457331725
 40
0.0617642181
 40
0.0949780138
 40
0.1295875752
 40
0.1652834788
 40
0.2016676779
 40
0.2383484874
 40
0.2749461364
 40
0.311056392
 40
0.3463881723
 40
0.3808013705
 40
0.4141639609
 40
0.4776420997
 40
0.507973561
 40
0.5375347096
 40
0.5665246829
 40
0.5951544008
 40
0.6236263271
 40
0.6521033297
 40
0.6807266724
 40
0.7096084857
 40
0.7680144423
 40
0.8267569172
 40
0.856034466
 40
0.8851208
 40
0.9426902715
 40
0.9712987112
 40
1.0
 40
1.0
 40
1.0
 40
1.0
 10
5.7195726763
 20
4.2955357102
 30
0.0
 10
5.7192820571
 20
4.2911247518
 30
0.0
 10
5.7193784964
 20
4.2843783748
 30
0.0
 10
5.7203884824
 20
4.2753608259
 30
0.0
 10
5.7220166373
 20
4.2659665799
 30
0.0
 10
5.7251338115
 20
4.2540284688
 30
0.0
 10
5.7302873187
 20
4.2397082165
 30
0.0
 10
5.7366735031
 20
4.2253862179
 30
0.0
 10
5.7440765528
 20
4.2112221021
 30
0.0
 10
5.7522956447
 20
4.1973633917
 30
0.0
 10
5.7611401459
 20
4.1839451571
 30
0.0
 10
5.7704294261
 20
4.1710755431
 30
0.0
 10
5.780032977
 20
4.1588445047
 30
0.0
 10
5.7898702772
 20
4.1473254635
 30
0.0
 10
5.8029943855
 20
4.1332014784
 30
0.0
 10
5.816593583
 20
4.1203500686
 30
0.0
 10
5.8306855051
 20
4.108949473
 30
0.0
 10
5.8412639125
 20
4.1012893708
 30
0.0
 10
5.8520403374
 20
4.0943625532
 30
0.0
 10
5.8630512658
 20
4.0881334086
 30
0.0
 10
5.8743279843
 20
4.0825684167
 30
0.0
 10
5.8858868844
 20
4.0776203057
 30
0.0
 10
5.8977382235
 20
4.0732452458
 30
0.0
 10
5.9139727368
 20
4.0681056405
 30
0.0
 10
5.9348274017
 20
4.0629861548
 30
0.0
 10
5.9560708872
 20
4.0595087006
 30
0.0
 10
5.9731744021
 20
4.0576669658
 30
0.0
 10
5.9901603271
 20
4.0564505732
 30
0.0
 10
6.0071056706
 20
4.0561610139
 30
0.0
 10
6.0239662728
 20
4.0568662053
 30
0.0
 10
6.0323578238
 20
4.057552358
 30
0.0
 10
6.0365518739
 20
4.0579747913
 30
0.0
  0
SPLINE
  5
2ED
100
AcDbEntity
  8
0
100
AcDbSpline
 62
7
  6
CONTINUOUS
 70
0
 71
3
 72
64
 73
60
 74
0
 42
0.0000001
 43
0.0000001
 44
0.0000000001
 40
0.0
 40
0.0
 40
0.0
 40
0.0
 40
0.0308423034
 40
0.0458419299
 40
0.0604704254
 40
0.0883990911
 40
0.1016812364
 40
0.1145087687
 40
0.126906008
 40
0.1389175534
 40
0.15062578
 40
0.1621567675
 40
0.1736411829
 40
0.1852056955
 40
0.1969691417
 40
0.2090407737
 40
0.2215100405
 40
0.234427953
 40
0.2478116168
 40
0.2616519223
 40
0.2905543563
 40
0.3206381969
 40
0.3512610865
 40
0.3818378488
 40
0.3969816431
 40
0.4119980348
 40
0.4269021263
 40
0.4417395443
 40
0.4565736391
 40
0.4714884471
 40
0.4865896395
 40
0.5020032357
 40
0.5178564613
 40
0.5342169281
 40
0.5511217725
 40
0.568593393
 40
0.5866428331
 40
0.6052665186
 40
0.6244045422
 40
0.6439635344
 40
0.6638417624
 40
0.6839329806
 40
0.724299134
 40
0.7443574813
 40
0.7641701705
 40
0.783626875
 40
0.802628221
 40
0.8211067857
 40
0.8390365758
 40
0.8564093357
 40
0.8732371376
 40
0.8895583802
 40
0.9054559759
 40
0.9210715887
 40
0.9365558419
 40
0.9520560659
 40
0.9677129389
 40
0.9836575291
 40
1.0
 40
1.0
 40
1.0
 40
1.0
 10
5.4346375952
 20
3.5746606388
 30
0.0
 10
5.4352076036
 20
3.5795581604
 30
0.0
 10
5.4356692917
 20
3.5868922109
 30
0.0
 10
5.4354292868
 20
3.5965612762
 30
0.0
 10
5.4346328824
 20
3.6057318915
 30
0.0
 10
5.4329810506
 20
3.6145429936
 30
0.0
 10
5.4303834878
 20
3.6227908828
 30
0.0
 10
5.4280337784
 20
3.6284898941
 30
0.0
 10
5.4252522542
 20
3.6337636978
 30
0.0
 10
5.4220371023
 20
3.6385733352
 30
0.0
 10
5.4183883068
 20
3.6428842263
 30
0.0
 10
5.4143273626
 20
3.6466871409
 30
0.0
 10
5.4098703058
 20
3.6499783145
 30
0.0
 10
5.4050339523
 20
3.6527555807
 30
0.0
 10
5.3998344383
 20
3.655017915
 30
0.0
 10
5.3942896901
 20
3.6567637646
 30
0.0
 10
5.3884337543
 20
3.6580467852
 30
0.0
 10
5.3822932878
 20
3.6589229931
 30
0.0
 10
5.3758944271
 20
3.6594467784
 30
0.0
 10
5.3669241586
 20
3.6597511339
 30
0.0
 10
5.355278769
 20
3.6594907397
 30
0.0
 10
5.3409704487
 20
3.658820503
 30
0.0
 10
5.3263810299
 20
3.6584069414
 30
0.0
 10
5.3141670567
 20
3.6587836573
 30
0.0
 10
5.3045071141
 20
3.6598122247
 30
0.0
 10
5.2973984931
 20
3.6610148227
 30
0.0
 10
5.2904431606
 20
3.6627260572
 30
0.0
 10
5.2836828723
 20
3.6650082093
 30
0.0
 10
5.277151159
 20
3.6678866405
 30
0.0
 10
5.2708836441
 20
3.6713920609
 30
0.0
 10
5.2649163637
 20
3.6755530407
 30
0.0
 10
5.2592881297
 20
3.6803969875
 30
0.0
 10
5.254045565
 20
3.6859356496
 30
0.0
 10
5.2492030904
 20
3.6921306658
 30
0.0
 10
5.2447827815
 20
3.6989429951
 30
0.0
 10
5.2408082943
 20
3.706331662
 30
0.0
 10
5.2373035329
 20
3.7142551035
 30
0.0
 10
5.2342975389
 20
3.7226635204
 30
0.0
 10
5.2318002537
 20
3.7314869338
 30
0.0
 10
5.2298220771
 20
3.7406456305
 30
0.0
 10
5.2283760296
 20
3.7500576083
 30
0.0
 10
5.2271728005
 20
3.7628493481
 30
0.0
 10
5.2270909822
 20
3.7757559616
 30
0.0
 10
5.2281384981
 20
3.7885459012
 30
0.0
 10
5.2294854039
 20
3.7979406771
 30
0.0
 10
5.2313941578
 20
3.8070652431
 30
0.0
 10
5.2338671808
 20
3.8158330987
 30
0.0
 10
5.2369024862
 20
3.8241641465
 30
0.0
 10
5.2404818372
 20
3.8319920429
 30
0.0
 10
5.2445914357
 20
3.8392549455
 30
0.0
 10
5.249217399
 20
3.8458912966
 30
0.0
 10
5.2543487918
 20
3.8518401564
 30
0.0
 10
5.2599765823
 20
3.8570424125
 30
0.0
 10
5.2660597195
 20
3.8614808117
 30
0.0
 10
5.2725644712
 20
3.865146933
 30
0.0
 10
5.2794571434
 20
3.8680338056
 30
0.0
 10
5.2867044284
 20
3.8701362685
 30
0.0
 10
5.2942705116
 20
3.871445968
 30
0.0
 10
5.299428749
 20
3.8718067405
 30
0.0
 10
5.3020405206
 20
3.8718715835
 30
0.0
  0
SPLINE
  5
2EE
100
AcDbEntity
  8
0
100
AcDbSpline
 62
7
  6
CONTINUOUS
 70
0
 71
3
 72
35
 73
31
 74
0
 42
0.0000001
 43
0.0000001
 44
0.0000000001
 40
0.0
 40
0.0
 40
0.0
 40
0.0
 40
0.0303873736
 40
0.0623339662
 40
0.0958156788
 40
0.1306369393
 40
0.166472558
 40
0.2029216071
 40
0.2396044597
 40
0.2761415546
 40
0.3121356591
 40
0.3473314883
 40
0.3815957309
 40
0.4147996272
 40
0.4780061694
 40
0.5082308342
 40
0.5377098065
 40
0.5666435074
 40
0.5952403399
 40
0.6236976423
 40
0.65217305
 40
0.680804991
 40
0.7096983104
 40
0.7681084208
 40
0.8268325903
 40
0.8560945264
 40
0.885163056
 40
0.9427048889
 40
0.9713033404
 40
1.0
 40
1.0
 40
1.0
 40
1.0
 10
5.3020405206
 20
3.8718715835
 30
0.0
 10
5.3065117674
 20
3.871982592
 30
0.0
 10
5.3157091474
 20
3.871503113
 30
0.0
 10
5.3296174975
 20
3.8690029287
 30
0.0
 10
5.3438060087
 20
3.8648685103
 30
0.0
 10
5.358112292
 20
3.8593241948
 30
0.0
 10
5.3723790064
 20
3.8525909586
 30
0.0
 10
5.3864530407
 20
3.8448822903
 30
0.0
 10
5.4001917352
 20
3.8363959965
 30
0.0
 10
5.4134661309
 20
3.8273209951
 30
0.0
 10
5.4261759825
 20
3.817833599
 30
0.0
 10
5.4382335651
 20
3.8080530704
 30
0.0
 10
5.4495723815
 20
3.7980574146
 30
0.0
 10
5.4634583642
 20
3.7847441563
 30
0.0
 10
5.4760663564
 20
3.7709707944
 30
0.0
 10
5.4872228652
 20
3.75672081
 30
0.0
 10
5.4947089368
 20
3.7460279173
 30
0.0
 10
5.5014664613
 20
3.735141443
 30
0.0
 10
5.5075301722
 20
3.7240246586
 30
0.0
 10
5.5129337754
 20
3.7126475328
 30
0.0
 10
5.5177245288
 20
3.70099426
 30
0.0
 10
5.5219451522
 20
3.6890550867
 30
0.0
 10
5.5268805502
 20
3.6727149623
 30
0.0
 10
5.5317471038
 20
3.651752712
 30
0.0
 10
5.5349770486
 20
3.6304275058
 30
0.0
 10
5.5366239175
 20
3.6132741687
 30
0.0
 10
5.5376496921
 20
3.596247529
 30
0.0
 10
5.5377516023
 20
3.5792714384
 30
0.0
 10
5.5368631482
 20
3.5623889512
 30
0.0
 10
5.5360872039
 20
3.5539889991
 30
0.0
 10
5.5356202478
 20
3.5497911168
 30
0.0
  0
SPLINE
  5
2EF
100
AcDbEntity
  8
0
100
AcDbSpline
 62
7
  6
CONTINUOUS
 70
0
 71
3
 72
76
 73
72
 74
0
 42
0.0000001
 43
0.0000001
 44
0.0000000001
 40
0.0
 40
0.0
 40
0.0
 40
0.0
 40
0.0162290088
 40
0.0318730924
 40
0.0470212941
 40
0.0619091888
 40
0.069337121
 40
0.0767933554
 40
0.0918636301
 40
0.1071947314
 40
0.1227915407
 40
0.1386151034
 40
0.1545802305
 40
0.1705729473
 40
0.1864769951
 40
0.2022699124
 40
0.2179610291
 40
0.2490768891
 40
0.2645903367
 40
0.272356677
 40
0.2801353073
 40
0.2957266462
 40
0.3113562671
 40
0.342691574
 40
0.358372307
 40
0.3740383744
 40
0.3896841965
 40
0.4053216892
 40
0.4366048693
 40
0.4522607142
 40
0.4679248321
 40
0.4835928236
 40
0.4992566269
 40
0.5149098378
 40
0.5305497273
 40
0.5461779002
 40
0.5618009569
 40
0.5696144912
 40
0.5774312469
 40
0.5930741295
 40
0.6087286758
 40
0.624391134
 40
0.640056617
 40
0.6557180419
 40
0.6713649055
 40
0.6869924941
 40
0.7026116906
 40
0.7182356258
 40
0.7495366111
 40
0.765232225
 40
0.7809626732
 40
0.7967003944
 40
0.812410261
 40
0.8280622993
 40
0.843651091
 40
0.8591846564
 40
0.8746765173
 40
0.8901673658
 40
0.9057213329
 40
0.9135450979
 40
0.92140979
 40
0.9293103882
 40
0.9372400454
 40
0.9451920058
 40
0.9531459551
 40
0.9610794669
 40
0.9689764322
 40
0.9768197369
 40
0.9845990788
 40
0.9923215604
 40
1.0
 40
1.0
 40
1.0
 40
1.0
 10
5.6923693162
 20
3.3365050729
 30
0.0
 10
5.6967253767
 20
3.3400316294
 30
0.0
 10
5.704970802
 20
3.3473539161
 30
0.0
 10
5.7159763868
 20
3.3593350326
 30
0.0
 10
5.7253076584
 20
3.3720971525
 30
0.0
 10
5.7316942912
 20
3.3833857064
 30
0.0
 10
5.7359570362
 20
3.3927474763
 30
0.0
 10
5.73969681
 20
3.4023980401
 30
0.0
 10
5.7433901499
 20
3.4149671204
 30
0.0
 10
5.7463642107
 20
3.4305930183
 30
0.0
 10
5.7480210676
 20
3.4466706543
 30
0.0
 10
5.7484820436
 20
3.4630416598
 30
0.0
 10
5.7478746631
 20
3.4795417822
 30
0.0
 10
5.7463230741
 20
3.4960057358
 30
0.0
 10
5.7439429962
 20
3.5123088273
 30
0.0
 10
5.7408236065
 20
3.5283798165
 30
0.0
 10
5.7358064927
 20
3.5494132284
 30
0.0
 10
5.729632334
 20
3.5700525658
 30
0.0
 10
5.7233849623
 20
3.5877706112
 30
0.0
 10
5.7195984246
 20
3.5978063496
 30
0.0
 10
5.7156642825
 20
3.6078138798
 30
0.0
 10
5.7104721201
 20
3.6202435696
 30
0.0
 10
5.701564987
 20
3.639927849
 30
0.0
 10
5.6917445946
 20
3.6592244122
 30
0.0
 10
5.6809949999
 20
3.6780173868
 30
0.0
 10
5.6724632419
 20
3.6918264803
 30
0.0
 10
5.6634703269
 20
3.7053213169
 30
0.0
 10
5.6509380002
 20
3.7229260321
 30
0.0
 10
5.637677485
 20
3.7400030962
 30
0.0
 10
5.6238801341
 20
3.7566486766
 30
0.0
 10
5.6132993092
 20
3.7689528321
 30
0.0
 10
5.6025385941
 20
3.7811033383
 30
0.0
 10
5.591567078
 20
3.7930593534
 30
0.0
 10
5.5803480436
 20
3.8047705298
 30
0.0
 10
5.5688469723
 20
3.8161881542
 30
0.0
 10
5.5570288596
 20
3.8272627386
 30
0.0
 10
5.5468876364
 20
3.836164354
 30
0.0
 10
5.5385848279
 20
3.8430614156
 30
0.0
 10
5.530147778
 20
3.8498045446
 30
0.0
 10
5.5193632274
 20
3.8579437004
 30
0.0
 10
5.5060746765
 20
3.8672456154
 30
0.0
 10
5.4924644405
 20
3.8760842938
 30
0.0
 10
5.4785679455
 20
3.8844694652
 30
0.0
 10
5.4644281616
 20
3.8924256476
 30
0.0
 10
5.4500844613
 20
3.8999792305
 30
0.0
 10
5.4355617544
 20
3.9071495322
 30
0.0
 10
5.4208588077
 20
3.9139244994
 30
0.0
 10
5.401002452
 20
3.9224295161
 30
0.0
 10
5.3807744696
 20
3.9301192848
 30
0.0
 10
5.3601927965
 20
3.9368857011
 30
0.0
 10
5.3445629608
 20
3.9414790433
 30
0.0
 10
5.3287857988
 20
3.9455574502
 30
0.0
 10
5.3129044684
 20
3.9490878881
 30
0.0
 10
5.2969571092
 20
3.9520378278
 30
0.0
 10
5.280969208
 20
3.9543725995
 30
0.0
 10
5.2649551666
 20
3.9560584904
 30
0.0
 10
5.2489175109
 20
3.9570672957
 30
0.0
 10
5.2328427822
 20
3.9573450586
 30
0.0
 10
5.2194201729
 20
3.956913125
 30
0.0
 10
5.208657223
 20
3.9561424597
 30
0.0
 10
5.2005490714
 20
3.9553428029
 30
0.0
 10
5.192431553
 20
3.9542996466
 30
0.0
 10
5.184322163
 20
3.9529888588
 30
0.0
 10
5.176245354
 20
3.9513905603
 30
0.0
 10
5.1682377007
 20
3.9494669219
 30
0.0
 10
5.1603464308
 20
3.9471753847
 30
0.0
 10
5.1526234643
 20
3.9444790212
 30
0.0
 10
5.1451308545
 20
3.9413272912
 30
0.0
 10
5.1379403151
 20
3.9376622189
 30
0.0
 10
5.1311334632
 20
3.9334297926
 30
0.0
 10
5.1268970126
 20
3.9301963883
 30
0.0
 10
5.1248768078
 20
3.9284787165
 30
0.0
  0
SPLINE
  5
2F0
100
AcDbEntity
  8
0
100
AcDbSpline
 62
7
  6
CONTINUOUS
 70
0
 71
3
 72
19
 73
15
 74
0
 42
0.0000001
 43
0.0000001
 44
0.0000000001
 40
0.0
 40
0.0
 40
0.0
 40
0.0
 40
0.1222905874
 40
0.1834911356
 40
0.2448658297
 40
0.3065718281
 40
0.3687390925
 40
0.4946912828
 40
0.5585176522
 40
0.6228513905
 40
0.6874753309
 40
0.7519442113
 40
0.8786665452
 40
1.0
 40
1.0
 40
1.0
 40
1.0
 10
5.1248768078
 20
3.9284787165
 30
0.0
 10
5.1228637199
 20
3.9267670959
 30
0.0
 10
5.1199750052
 20
3.9240359328
 30
0.0
 10
5.1164570378
 20
3.9200809045
 30
0.0
 10
5.1139946438
 20
3.9169484837
 30
0.0
 10
5.1117053357
 20
3.9136626646
 30
0.0
 10
5.1088480122
 20
3.9090806222
 30
0.0
 10
5.1062830872
 20
3.9042712244
 30
0.0
 10
5.1039432959
 20
3.8993036672
 30
0.0
 10
5.1022717103
 20
3.8954876504
 30
0.0
 10
5.100689358
 20
3.8916187749
 30
0.0
 10
5.0987513309
 20
3.886441362
 30
0.0
 10
5.0967108048
 20
3.8799975784
 30
0.0
 10
5.0955791732
 20
3.8747442499
 30
0.0
 10
5.0952018634
 20
3.8721498447
 30
0.0
  0
SPLINE
  5
2F1
100
AcDbEntity
  8
0
100
AcDbSpline
 62
7
  6
CONTINUOUS
 70
0
 71
3
 72
58
 73
54
 74
0
 42
0.0000001
 43
0.0000001
 44
0.0000000001
 40
0.0
 40
0.0
 40
0.0
 40
0.0
 40
0.0156498961
 40
0.0312931581
 40
0.0469381366
 40
0.0625698698
 40
0.0782012993
 40
0.0938217704
 40
0.1094420191
 40
0.125062793
 40
0.140683084
 40
0.1563032551
 40
0.1719235986
 40
0.1875441561
 40
0.2031649674
 40
0.2187859457
 40
0.250027857
 40
0.2812702633
 40
0.3125126685
 40
0.3437539257
 40
0.3749951346
 40
0.4062402169
 40
0.4374909564
 40
0.4687423999
 40
0.4999932824
 40
0.5312467113
 40
0.5625003982
 40
0.5937517992
 40
0.6250045658
 40
0.6562584784
 40
0.6875107487
 40
0.7187626974
 40
0.7500146377
 40
0.7656407382
 40
0.7812660027
 40
0.8125146243
 40
0.8437636566
 40
0.8593878714
 40
0.8750117355
 40
0.8906353192
 40
0.906257994
 40
0.914068655
 40
0.9218786284
 40
0.9296885003
 40
0.9374994039
 40
0.9453117293
 40
0.9531229878
 40
0.9609328482
 40
0.9687443458
 40
0.9765583828
 40
0.984373769
 40
0.9921879564
 40
1.0
 40
1.0
 40
1.0
 40
1.0
 10
5.2211044161
 20
4.2178764758
 30
0.0
 10
5.2241262858
 20
4.2123744411
 30
0.0
 10
5.2308980165
 20
4.20176075
 30
0.0
 10
5.2427941009
 20
4.1871253794
 30
0.0
 10
5.2560822456
 20
4.1737587709
 30
0.0
 10
5.2704608106
 20
4.1615943738
 30
0.0
 10
5.2856329593
 20
4.1504641983
 30
0.0
 10
5.3013631604
 20
4.1401564398
 30
0.0
 10
5.3174165269
 20
4.130378037
 30
0.0
 10
5.3334236929
 20
4.1205255698
 30
0.0
 10
5.3493790625
 20
4.1105891279
 30
0.0
 10
5.365277569
 20
4.1005623414
 30
0.0
 10
5.381115028
 20
4.0904391618
 30
0.0
 10
5.3968895348
 20
4.0802176956
 30
0.0
 10
5.4125987981
 20
4.0698957369
 30
0.0
 10
5.4334529321
 20
4.0559944496
 30
0.0
 10
5.4593394646
 20
4.0383469071
 30
0.0
 10
5.4900821074
 20
4.0167057905
 30
0.0
 10
5.5204678262
 20
3.9945662229
 30
0.0
 10
5.5504553402
 20
3.9718904858
 30
0.0
 10
5.5800014464
 20
3.948640148
 30
0.0
 10
5.6090560577
 20
3.9247717508
 30
0.0
 10
5.6375627697
 20
3.9002444295
 30
0.0
 10
5.6654511442
 20
3.8750117705
 30
0.0
 10
5.6926474756
 20
3.8490320963
 30
0.0
 10
5.7190740449
 20
3.8222674116
 30
0.0
 10
5.7446476101
 20
3.794685099
 30
0.0
 10
5.7692800756
 20
3.7662582092
 30
0.0
 10
5.7928742645
 20
3.7369624867
 30
0.0
 10
5.815350394
 20
3.7067993217
 30
0.0
 10
5.8366383172
 20
3.6757854989
 30
0.0
 10
5.8566567424
 20
3.6439383806
 30
0.0
 10
5.8722640265
 20
3.6167525561
 30
0.0
 10
5.8840969616
 20
3.5946487429
 30
0.0
 10
5.8954912719
 20
3.5723170867
 30
0.0
 10
5.9089250825
 20
3.5439984978
 30
0.0
 10
5.9213239438
 20
3.5152133674
 30
0.0
 10
5.9306498202
 20
3.4919437052
 30
0.0
 10
5.9373633454
 20
3.4743818781
 30
0.0
 10
5.9438116146
 20
3.4567217662
 30
0.0
 10
5.9489777305
 20
3.4419315654
 30
0.0
 10
5.9529937454
 20
3.430060541
 30
0.0
 10
5.9559502158
 20
3.4211394933
 30
0.0
 10
5.958846382
 20
3.4121985598
 30
0.0
 10
5.9616737513
 20
3.4032346542
 30
0.0
 10
5.9644255732
 20
3.3942465445
 30
0.0
 10
5.967027157
 20
3.3852137829
 30
0.0
 10
5.9693989056
 20
3.3761174935
 30
0.0
 10
5.971469243
 20
3.366946529
 30
0.0
 10
5.973261147
 20
3.3577152369
 30
0.0
 10
5.9747913681
 20
3.3484360081
 30
0.0
 10
5.9760776919
 20
3.3391208747
 30
0.0
 10
5.9767863705
 20
3.3328926784
 30
0.0
 10
5.9771081898
 20
3.3297757908
 30
0.0
  0
SPLINE
  5
2F2
100
AcDbEntity
  8
0
100
AcDbSpline
 62
7
  6
CONTINUOUS
 70
0
 71
3
 72
74
 73
70
 74
0
 42
0.0000001
 43
0.0000001
 44
0.0000000001
 40
0.0
 40
0.0
 40
0.0
 40
0.0
 40
0.0163136858
 40
0.0320418139
 40
0.0472472918
 40
0.0621554866
 40
0.0770179577
 40
0.0920524767
 40
0.1073437026
 40
0.1229029709
 40
0.1386975508
 40
0.15464764
 40
0.1706419762
 40
0.1865594285
 40
0.2023641481
 40
0.2180662397
 40
0.23366881
 40
0.2491999287
 40
0.2647105657
 40
0.2724733992
 40
0.2802479424
 40
0.2958320636
 40
0.3114555687
 40
0.3427824145
 40
0.3741238747
 40
0.4054015051
 40
0.4366791948
 40
0.452332074
 40
0.4679934922
 40
0.4836594531
 40
0.4993220449
 40
0.5149745153
 40
0.5306137325
 40
0.5462408536
 40
0.5618619905
 40
0.5696740732
 40
0.5774892078
 40
0.5931289296
 40
0.60878058
 40
0.6244405501
 40
0.6401040217
 40
0.6557641743
 40
0.6714107061
 40
0.6870375704
 40
0.7026549904
 40
0.7182761017
 40
0.7495695942
 40
0.7652605658
 40
0.7809870812
 40
0.7967234571
 40
0.8124343538
 40
0.8280888799
 40
0.8436797205
 40
0.8592145069
 40
0.8747060071
 40
0.8901929536
 40
0.9057393411
 40
0.9135579652
 40
0.9214174818
 40
0.9293136907
 40
0.9372390248
 40
0.9451869177
 40
0.9531396174
 40
0.9610758405
 40
0.968980382
 40
0.9768335842
 40
0.9846176036
 40
0.9923331425
 40
1.0
 40
1.0
 40
1.0
 40
1.0
 10
4.2934047221
 20
3.3449406593
 30
0.0
 10
4.2890381962
 20
3.3484465498
 30
0.0
 10
4.2807670714
 20
3.355726009
 30
0.0
 10
4.269706118
 20
3.367626573
 30
0.0
 10
4.2603113151
 20
3.3802926987
 30
0.0
 10
4.2525953175
 20
3.3937053022
 30
0.0
 10
4.2465276833
 20
3.4078757216
 30
0.0
 10
4.2420719696
 20
3.4227644022
 30
0.0
 10
4.2390761059
 20
3.4382502345
 30
0.0
 10
4.2374132842
 20
3.4541927576
 30
0.0
 10
4.2369608661
 20
3.4704374957
 30
0.0
 10
4.2375905399
 20
3.4868226809
 30
0.0
 10
4.2391764218
 20
3.5031831625
 30
0.0
 10
4.2415992339
 20
3.5193887719
 30
0.0
 10
4.2447668021
 20
3.5353620591
 30
0.0
 10
4.2485936212
 20
3.5510779776
 30
0.0
 10
4.25299546
 20
3.5665441151
 30
0.0
 10
4.2579180817
 20
3.5817828122
 30
0.0
 10
4.2624245161
 20
3.5943197752
 30
0.0
 10
4.2662509271
 20
3.6042669731
 30
0.0
 10
4.2702244613
 20
3.6141834834
 30
0.0
 10
4.2754622973
 20
3.6264989408
 30
0.0
 10
4.2844369486
 20
3.6460009279
 30
0.0
 10
4.2967827307
 20
3.6698928401
 30
0.0
 10
4.3134313725
 20
3.6975399762
 30
0.0
 10
4.3319431767
 20
3.723951695
 30
0.0
 10
4.3485683637
 20
3.7450439692
 30
0.0
 10
4.3624091267
 20
3.761478367
 30
0.0
 10
4.3730245961
 20
3.773619076
 30
0.0
 10
4.3838200249
 20
3.7856042525
 30
0.0
 10
4.3948182654
 20
3.7973999566
 30
0.0
 10
4.4060574454
 20
3.8089540847
 30
0.0
 10
4.4175709889
 20
3.8202181709
 30
0.0
 10
4.4293933949
 20
3.8311424776
 30
0.0
 10
4.4395311976
 20
3.8399214611
 30
0.0
 10
4.4478265347
 20
3.8467223341
 30
0.0
 10
4.4562539685
 20
3.8533691095
 30
0.0
 10
4.4670244385
 20
3.8613864962
 30
0.0
 10
4.4802925194
 20
3.8705408962
 30
0.0
 10
4.4938786897
 20
3.8792311654
 30
0.0
 10
4.5077490123
 20
3.8874652002
 30
0.0
 10
4.5218606629
 20
3.8952679734
 30
0.0
 10
4.5361745152
 20
3.9026651706
 30
0.0
 10
4.5506634478
 20
3.9096793596
 30
0.0
 10
4.5653276511
 20
3.9162989818
 30
0.0
 10
4.5851254084
 20
3.9245968718
 30
0.0
 10
4.6052846655
 20
3.932082743
 30
0.0
 10
4.6257873378
 20
3.9386502939
 30
0.0
 10
4.6413536117
 20
3.943096801
 30
0.0
 10
4.6570641708
 20
3.9470314375
 30
0.0
 10
4.6728761213
 20
3.9504219248
 30
0.0
 10
4.6887503205
 20
3.9532361938
 30
0.0
 10
4.7046601419
 20
3.9554400521
 30
0.0
 10
4.7205901225
 20
3.9569998017
 30
0.0
 10
4.7365365505
 20
3.9578873654
 30
0.0
 10
4.7525115114
 20
3.958051124
 30
0.0
 10
4.7658439561
 20
3.9575301124
 30
0.0
 10
4.7765302074
 20
3.9566914245
 30
0.0
 10
4.7845787651
 20
3.9558429555
 30
0.0
 10
4.7926356358
 20
3.9547550468
 30
0.0
 10
4.8006834413
 20
3.9534031146
 30
0.0
 10
4.8086985401
 20
3.9517674565
 30
0.0
 10
4.8166465499
 20
3.9498134055
 30
0.0
 10
4.8244824038
 20
3.9474987713
 30
0.0
 10
4.8321552328
 20
3.9447885387
 30
0.0
 10
4.8396016567
 20
3.9416346817
 30
0.0
 10
4.8467443232
 20
3.9379775243
 30
0.0
 10
4.8534970082
 20
3.9337583245
 30
0.0
 10
4.8576936947
 20
3.9305368272
 30
0.0
 10
4.8596963847
 20
3.9288294503
 30
0.0
  0
SPLINE
  5
2F3
100
AcDbEntity
  8
0
100
AcDbSpline
 62
7
  6
CONTINUOUS
 70
0
 71
3
 72
18
 73
14
 74
0
 42
0.0000001
 43
0.0000001
 44
0.0000000001
 40
0.0
 40
0.0
 40
0.0
 40
0.0
 40
0.1223597111
 40
0.1837077767
 40
0.2453121085
 40
0.3695980695
 40
0.4955857321
 40
0.559220083
 40
0.6232237347
 40
0.687469899
 40
0.7516538521
 40
0.8783326612
 40
1.0
 40
1.0
 40
1.0
 40
1.0
 10
4.8596963847
 20
3.9288294503
 30
0.0
 10
4.8617161491
 20
3.9271075168
 30
0.0
 10
4.86461754
 20
3.9243613773
 30
0.0
 10
4.8681681393
 20
3.9203952399
 30
0.0
 10
4.8715136621
 20
3.9162002108
 30
0.0
 10
4.8752788037
 20
3.9105631291
 30
0.0
 10
4.8784821277
 20
3.9045428007
 30
0.0
 10
4.880736434
 20
3.8995228851
 30
0.0
 10
4.882278066
 20
3.8956552985
 30
0.0
 10
4.883670098
 20
3.8917191972
 30
0.0
 10
4.8853527373
 20
3.8864468383
 30
0.0
 10
4.8871829024
 20
3.8799177004
 30
0.0
 10
4.8885305417
 20
3.8747021639
 30
0.0
 10
4.8892018634
 20
3.8721498447
 30
0.0
  0
SPLINE
  5
2F4
100
AcDbEntity
  8
0
100
AcDbSpline
 62
7
  6
CONTINUOUS
 70
0
 71
3
 72
66
 73
62
 74
0
 42
0.0000001
 43
0.0000001
 44
0.0000000001
 40
0.0
 40
0.0
 40
0.0
 40
0.0
 40
0.0315335075
 40
0.047090052
 40
0.062402897
 40
0.0773996523
 40
0.0920135291
 40
0.1198694965
 40
0.1330963827
 40
0.1458583288
 40
0.1581839428
 40
0.1701251757
 40
0.1817809422
 40
0.1932876954
 40
0.2047827926
 40
0.2163980464
 40
0.2282557811
 40
0.2404669599
 40
0.2531116033
 40
0.2662283266
 40
0.2798224832
 40
0.2938742286
 40
0.3083393948
 40
0.323146755
 40
0.3534527227
 40
0.3687808067
 40
0.3841204932
 40
0.3994048872
 40
0.4145848004
 40
0.4445439283
 40
0.4593911323
 40
0.4742206116
 40
0.4891169393
 40
0.5041882593
 40
0.5195650923
 40
0.5353841901
 40
0.5517218799
 40
0.5686181905
 40
0.604142001
 40
0.6228033629
 40
0.6419860333
 40
0.6615902896
 40
0.6815078816
 40
0.7218123402
 40
0.7419802149
 40
0.761985421
 40
0.7817059401
 40
0.8010280244
 40
0.8198535046
 40
0.8381291721
 40
0.855835391
 40
0.8729713929
 40
0.8895610965
 40
0.8976702824
 40
0.9056687524
 40
0.9214031379
 40
0.9369294893
 40
0.9524055082
 40
0.9679832433
 40
0.9838057049
 40
1.0
 40
1.0
 40
1.0
 40
1.0
 10
4.5520570453
 20
3.5646586117
 30
0.0
 10
4.5509401202
 20
3.5696769958
 30
0.0
 10
4.5496740149
 20
3.5772700714
 30
0.0
 10
4.5488446821
 20
3.5874140886
 30
0.0
 10
4.5486612838
 20
3.5948941599
 30
0.0
 10
4.5489197432
 20
3.602219045
 30
0.0
 10
4.5498448298
 20
3.6115463088
 30
0.0
 10
4.5516629977
 20
3.6204853981
 30
0.0
 10
4.5544681124
 20
3.6288137465
 30
0.0
 10
4.5569867362
 20
3.6345404644
 30
0.0
 10
4.5599532719
 20
3.6398107546
 30
0.0
 10
4.563371578
 20
3.6445821162
 30
0.0
 10
4.5672356127
 20
3.648822351
 30
0.0
 10
4.571522168
 20
3.6525246084
 30
0.0
 10
4.576214193
 20
3.6556849832
 30
0.0
 10
4.5812929915
 20
3.6583027407
 30
0.0
 10
4.5867424837
 20
3.6603730365
 30
0.0
 10
4.592536092
 20
3.661912546
 30
0.0
 10
4.5986391528
 20
3.6629878182
 30
0.0
 10
4.6050248375
 20
3.6636570135
 30
0.0
 10
4.6116655807
 20
3.6639795584
 30
0.0
 10
4.6185328857
 20
3.6640115253
 30
0.0
 10
4.6255944663
 20
3.6638163053
 30
0.0
 10
4.6352977961
 20
3.6633671371
 30
0.0
 10
4.6451370317
 20
3.6628151741
 30
0.0
 10
4.6550738247
 20
3.662495809
 30
0.0
 10
4.6625667606
 20
3.662456439
 30
0.0
 10
4.670033681
 20
3.6626952845
 30
0.0
 10
4.6798547703
 20
3.6634838509
 30
0.0
 10
4.6895355201
 20
3.6651418378
 30
0.0
 10
4.6988429858
 20
3.6679941386
 30
0.0
 10
4.705579074
 20
3.6707497628
 30
0.0
 10
4.7120510596
 20
3.6741602298
 30
0.0
 10
4.718220483
 20
3.6782572782
 30
0.0
 10
4.7240467375
 20
3.6830707894
 30
0.0
 10
4.7294782037
 20
3.6886176041
 30
0.0
 10
4.7344976107
 20
3.6948593748
 30
0.0
 10
4.7407110082
 20
3.704204584
 30
0.0
 10
4.7458669733
 20
3.7146489191
 30
0.0
 10
4.7499532322
 20
3.7258976967
 30
0.0
 10
4.752539397
 20
3.7349078412
 30
0.0
 10
4.7545830979
 20
3.7442647956
 30
0.0
 10
4.7565729776
 20
3.7571327286
 30
0.0
 10
4.7574006316
 20
3.7702511433
 30
0.0
 10
4.7570497901
 20
3.7833732704
 30
0.0
 10
4.7561961554
 20
3.7931074907
 30
0.0
 10
4.7547508451
 20
3.8026321323
 30
0.0
 10
4.7527137965
 20
3.8118521626
 30
0.0
 10
4.7500794444
 20
3.8206752085
 30
0.0
 10
4.7468575308
 20
3.8290202961
 30
0.0
 10
4.7430655722
 20
3.836818711
 30
0.0
 10
4.7387179317
 20
3.8440034276
 30
0.0
 10
4.734610869
 20
3.8494664776
 30
0.0
 10
4.7310609683
 20
3.8534471008
 30
0.0
 10
4.7273856369
 20
3.8571170978
 30
0.0
 10
4.7224650921
 20
3.8612362045
 30
0.0
 10
4.7160634039
 20
3.8654023695
 30
0.0
 10
4.7092307774
 20
3.8687587785
 30
0.0
 10
4.7020038249
 20
3.8712989185
 30
0.0
 10
4.6944193094
 20
3.8730123624
 30
0.0
 10
4.6892223109
 20
3.8736054504
 30
0.0
 10
4.6865877288
 20
3.8737790317
 30
0.0
  0
SPLINE
  5
2F5
100
AcDbEntity
  8
0
100
AcDbSpline
 62
7
  6
CONTINUOUS
 70
0
 71
3
 72
36
 73
32
 74
0
 42
0.0000001
 43
0.0000001
 44
0.0000000001
 40
0.0
 40
0.0
 40
0.0
 40
0.0
 40
0.0300988209
 40
0.0457331725
 40
0.0617642181
 40
0.0949780138
 40
0.1295875752
 40
0.1652834788
 40
0.2016676779
 40
0.2383484874
 40
0.2749461364
 40
0.311056392
 40
0.3463881723
 40
0.3808013705
 40
0.4141639609
 40
0.4776420997
 40
0.507973561
 40
0.5375347096
 40
0.5665246829
 40
0.5951544008
 40
0.6236263271
 40
0.6521033297
 40
0.6807266724
 40
0.7096084857
 40
0.7680144423
 40
0.8267569172
 40
0.856034466
 40
0.8851208
 40
0.9426902715
 40
0.9712987112
 40
1.0
 40
1.0
 40
1.0
 40
1.0
 10
4.6865877288
 20
3.8737790317
 30
0.0
 10
4.6821767704
 20
3.8740696509
 30
0.0
 10
4.6754303934
 20
3.8739732117
 30
0.0
 10
4.6664128445
 20
3.8729632257
 30
0.0
 10
4.6570185986
 20
3.8713350708
 30
0.0
 10
4.6450804875
 20
3.8682178966
 30
0.0
 10
4.6307602351
 20
3.8630643894
 30
0.0
 10
4.6164382365
 20
3.856678205
 30
0.0
 10
4.6022741207
 20
3.8492751553
 30
0.0
 10
4.5884154104
 20
3.8410560634
 30
0.0
 10
4.5749971758
 20
3.8322115622
 30
0.0
 10
4.5621275617
 20
3.822922282
 30
0.0
 10
4.5498965233
 20
3.8133187311
 30
0.0
 10
4.5383774822
 20
3.8034814309
 30
0.0
 10
4.524253497
 20
3.7903573226
 30
0.0
 10
4.5114020872
 20
3.776758125
 30
0.0
 10
4.5000014916
 20
3.762666203
 30
0.0
 10
4.4923413894
 20
3.7520877955
 30
0.0
 10
4.4854145719
 20
3.7413113707
 30
0.0
 10
4.4791854272
 20
3.7303004422
 30
0.0
 10
4.4736204353
 20
3.7190237238
 30
0.0
 10
4.4686723244
 20
3.7074648237
 30
0.0
 10
4.4642972644
 20
3.6956134846
 30
0.0
 10
4.4591576592
 20
3.6793789712
 30
0.0
 10
4.4540381734
 20
3.6585243064
 30
0.0
 10
4.4505607192
 20
3.6372808209
 30
0.0
 10
4.4487189845
 20
3.620177306
 30
0.0
 10
4.4475025918
 20
3.6031913809
 30
0.0
 10
4.4472130325
 20
3.5862460375
 30
0.0
 10
4.447918224
 20
3.5693854353
 30
0.0
 10
4.4486043766
 20
3.5609938843
 30
0.0
 10
4.44902681
 20
3.5567998342
 30
0.0
  0
SPLINE
  5
2F6
100
AcDbEntity
  8
0
100
AcDbSpline
 62
7
  6
CONTINUOUS
 70
0
 71
3
 72
64
 73
60
 74
0
 42
0.0000001
 43
0.0000001
 44
0.0000000001
 40
0.0
 40
0.0
 40
0.0
 40
0.0
 40
0.0308423034
 40
0.0458419299
 40
0.0604704254
 40
0.0883990911
 40
0.1016812364
 40
0.1145087687
 40
0.126906008
 40
0.1389175534
 40
0.15062578
 40
0.1621567675
 40
0.1736411829
 40
0.1852056955
 40
0.1969691417
 40
0.2090407737
 40
0.2215100405
 40
0.234427953
 40
0.2478116168
 40
0.2616519223
 40
0.2905543563
 40
0.3206381969
 40
0.3512610865
 40
0.3818378488
 40
0.3969816431
 40
0.4119980348
 40
0.4269021263
 40
0.4417395443
 40
0.4565736391
 40
0.4714884471
 40
0.4865896395
 40
0.5020032357
 40
0.5178564613
 40
0.5342169281
 40
0.5511217725
 40
0.568593393
 40
0.5866428331
 40
0.6052665186
 40
0.6244045422
 40
0.6439635344
 40
0.6638417624
 40
0.6839329806
 40
0.724299134
 40
0.7443574813
 40
0.7641701705
 40
0.783626875
 40
0.802628221
 40
0.8211067857
 40
0.8390365758
 40
0.8564093357
 40
0.8732371376
 40
0.8895583802
 40
0.9054559759
 40
0.9210715887
 40
0.9365558419
 40
0.9520560659
 40
0.9677129389
 40
0.9836575291
 40
1.0
 40
1.0
 40
1.0
 40
1.0
 10
3.9657126574
 20
4.1587141129
 30
0.0
 10
3.970610179
 20
4.1581441045
 30
0.0
 10
3.9779442295
 20
4.1576824164
 30
0.0
 10
3.9876132949
 20
4.1579224213
 30
0.0
 10
3.9967839101
 20
4.1587188257
 30
0.0
 10
4.0055950122
 20
4.1603706575
 30
0.0
 10
4.0138429014
 20
4.1629682203
 30
0.0
 10
4.0195419127
 20
4.1653179297
 30
0.0
 10
4.0248157165
 20
4.1680994539
 30
0.0
 10
4.0296253539
 20
4.1713146058
 30
0.0
 10
4.0339362449
 20
4.1749634013
 30
0.0
 10
4.0377391595
 20
4.1790243455
 30
0.0
 10
4.0410303332
 20
4.1834814023
 30
0.0
 10
4.0438075993
 20
4.1883177557
 30
0.0
 10
4.0460699337
 20
4.1935172697
 30
0.0
 10
4.0478157832
 20
4.199062018
 30
0.0
 10
4.0490988038
 20
4.2049179538
 30
0.0
 10
4.0499750118
 20
4.2110584203
 30
0.0
 10
4.050498797
 20
4.217457281
 30
0.0
 10
4.0508031525
 20
4.2264275495
 30
0.0
 10
4.0505427584
 20
4.2380729391
 30
0.0
 10
4.0498725216
 20
4.2523812594
 30
0.0
 10
4.0494589601
 20
4.2669706782
 30
0.0
 10
4.0498356759
 20
4.2791846514
 30
0.0
 10
4.0508642434
 20
4.288844594
 30
0.0
 10
4.0520668413
 20
4.295953215
 30
0.0
 10
4.0537780759
 20
4.3029085475
 30
0.0
 10
4.0560602279
 20
4.3096688358
 30
0.0
 10
4.0589386592
 20
4.3162005491
 30
0.0
 10
4.0624440796
 20
4.322468064
 30
0.0
 10
4.0666050593
 20
4.3284353444
 30
0.0
 10
4.0714490062
 20
4.3340635784
 30
0.0
 10
4.0769876682
 20
4.339306143
 30
0.0
 10
4.0831826845
 20
4.3441486176
 30
0.0
 10
4.0899950137
 20
4.3485689266
 30
0.0
 10
4.0973836806
 20
4.3525434138
 30
0.0
 10
4.1053071222
 20
4.3560481752
 30
0.0
 10
4.113715539
 20
4.3590541691
 30
0.0
 10
4.1225389524
 20
4.3615514544
 30
0.0
 10
4.1316976491
 20
4.363529631
 30
0.0
 10
4.141109627
 20
4.3649756785
 30
0.0
 10
4.1539013667
 20
4.3661789076
 30
0.0
 10
4.1668079802
 20
4.3662607259
 30
0.0
 10
4.1795979199
 20
4.3652132099
 30
0.0
 10
4.1889926957
 20
4.3638663042
 30
0.0
 10
4.1981172617
 20
4.3619575503
 30
0.0
 10
4.2068851173
 20
4.3594845273
 30
0.0
 10
4.2152161651
 20
4.3564492218
 30
0.0
 10
4.2230440616
 20
4.3528698709
 30
0.0
 10
4.2303069642
 20
4.3487602724
 30
0.0
 10
4.2369433152
 20
4.344134309
 30
0.0
 10
4.242892175
 20
4.3390029163
 30
0.0
 10
4.2480944312
 20
4.3333751258
 30
0.0
 10
4.2525328303
 20
4.3272919886
 30
0.0
 10
4.2561989516
 20
4.3207872369
 30
0.0
 10
4.2590858243
 20
4.3138945647
 30
0.0
 10
4.2611882871
 20
4.3066472797
 30
0.0
 10
4.2624979867
 20
4.2990811964
 30
0.0
 10
4.2628587591
 20
4.2939229591
 30
0.0
 10
4.2629236021
 20
4.2913111875
 30
0.0
  0
SPLINE
  5
2F7
100
AcDbEntity
  8
0
100
AcDbSpline
 62
7
  6
CONTINUOUS
 70
0
 71
3
 72
35
 73
31
 74
0
 42
0.0000001
 43
0.0000001
 44
0.0000000001
 40
0.0
 40
0.0
 40
0.0
 40
0.0
 40
0.0303873736
 40
0.0623339662
 40
0.0958156788
 40
0.1306369393
 40
0.166472558
 40
0.2029216071
 40
0.2396044597
 40
0.2761415546
 40
0.3121356591
 40
0.3473314883
 40
0.3815957309
 40
0.4147996272
 40
0.4780061694
 40
0.5082308342
 40
0.5377098065
 40
0.5666435074
 40
0.5952403399
 40
0.6236976423
 40
0.65217305
 40
0.680804991
 40
0.7096983104
 40
0.7681084208
 40
0.8268325903
 40
0.8560945264
 40
0.885163056
 40
0.9427048889
 40
0.9713033404
 40
1.0
 40
1.0
 40
1.0
 40
1.0
 10
4.2629236021
 20
4.2913111875
 30
0.0
 10
4.2630346107
 20
4.2868399407
 30
0.0
 10
4.2625551316
 20
4.2776425607
 30
0.0
 10
4.2600549474
 20
4.2637342105
 30
0.0
 10
4.2559205289
 20
4.2495456994
 30
0.0
 10
4.2503762134
 20
4.235239416
 30
0.0
 10
4.2436429773
 20
4.2209727016
 30
0.0
 10
4.2359343089
 20
4.2068986674
 30
0.0
 10
4.2274480152
 20
4.1931599729
 30
0.0
 10
4.2183730137
 20
4.1798855772
 30
0.0
 10
4.2088856176
 20
4.1671757256
 30
0.0
 10
4.1991050891
 20
4.1551181429
 30
0.0
 10
4.1891094333
 20
4.1437793266
 30
0.0
 10
4.1757961749
 20
4.1298933439
 30
0.0
 10
4.162022813
 20
4.1172853517
 30
0.0
 10
4.1477728286
 20
4.1061288429
 30
0.0
 10
4.1370799359
 20
4.0986427713
 30
0.0
 10
4.1261934616
 20
4.0918852468
 30
0.0
 10
4.1150766772
 20
4.0858215359
 30
0.0
 10
4.1036995514
 20
4.0804179326
 30
0.0
 10
4.0920462786
 20
4.0756271793
 30
0.0
 10
4.0801071053
 20
4.0714065559
 30
0.0
 10
4.063766981
 20
4.0664711578
 30
0.0
 10
4.0428047307
 20
4.0616046043
 30
0.0
 10
4.0214795244
 20
4.0583746595
 30
0.0
 10
4.0043261873
 20
4.0567277905
 30
0.0
 10
3.9872995477
 20
4.0557020159
 30
0.0
 10
3.9703234571
 20
4.0556001058
 30
0.0
 10
3.9534409698
 20
4.0564885599
 30
0.0
 10
3.9450410177
 20
4.0572645042
 30
0.0
 10
3.9408431355
 20
4.0577314603
 30
0.0
  0
SPLINE
  5
2F8
100
AcDbEntity
  8
0
100
AcDbSpline
 62
7
  6
CONTINUOUS
 70
0
 71
3
 72
76
 73
72
 74
0
 42
0.0000001
 43
0.0000001
 44
0.0000000001
 40
0.0
 40
0.0
 40
0.0
 40
0.0
 40
0.0162290088
 40
0.0318730924
 40
0.0470212941
 40
0.0619091888
 40
0.069337121
 40
0.0767933554
 40
0.0918636301
 40
0.1071947314
 40
0.1227915407
 40
0.1386151034
 40
0.1545802305
 40
0.1705729473
 40
0.1864769951
 40
0.2022699124
 40
0.2179610291
 40
0.2490768891
 40
0.2645903367
 40
0.272356677
 40
0.2801353073
 40
0.2957266462
 40
0.3113562671
 40
0.342691574
 40
0.358372307
 40
0.3740383744
 40
0.3896841965
 40
0.4053216892
 40
0.4366048693
 40
0.4522607142
 40
0.4679248321
 40
0.4835928236
 40
0.4992566269
 40
0.5149098378
 40
0.5305497273
 40
0.5461779002
 40
0.5618009569
 40
0.5696144912
 40
0.5774312469
 40
0.5930741295
 40
0.6087286758
 40
0.624391134
 40
0.640056617
 40
0.6557180419
 40
0.6713649055
 40
0.6869924941
 40
0.7026116906
 40
0.7182356258
 40
0.7495366111
 40
0.765232225
 40
0.7809626732
 40
0.7967003944
 40
0.812410261
 40
0.8280622993
 40
0.843651091
 40
0.8591846564
 40
0.8746765173
 40
0.8901673658
 40
0.9057213329
 40
0.9135450979
 40
0.92140979
 40
0.9293103882
 40
0.9372400454
 40
0.9451920058
 40
0.9531459551
 40
0.9610794669
 40
0.9689764322
 40
0.9768197369
 40
0.9845990788
 40
0.9923215604
 40
1.0
 40
1.0
 40
1.0
 40
1.0
 10
3.7275570915
 20
3.9009823919
 30
0.0
 10
3.731083648
 20
3.8966263314
 30
0.0
 10
3.7384059347
 20
3.8883809061
 30
0.0
 10
3.7503870513
 20
3.8773753213
 30
0.0
 10
3.7631491711
 20
3.8680440497
 30
0.0
 10
3.7744377251
 20
3.8616574169
 30
0.0
 10
3.783799495
 20
3.8573946718
 30
0.0
 10
3.7934500587
 20
3.8536548981
 30
0.0
 10
3.806019139
 20
3.8499615581
 30
0.0
 10
3.8216450369
 20
3.8469874974
 30
0.0
 10
3.8377226729
 20
3.8453306405
 30
0.0
 10
3.8540936784
 20
3.8448696645
 30
0.0
 10
3.8705938009
 20
3.845477045
 30
0.0
 10
3.8870577544
 20
3.847028634
 30
0.0
 10
3.9033608459
 20
3.8494087119
 30
0.0
 10
3.9194318352
 20
3.8525281016
 30
0.0
 10
3.940465247
 20
3.8575452154
 30
0.0
 10
3.9611045845
 20
3.8637193741
 30
0.0
 10
3.9788226298
 20
3.8699667458
 30
0.0
 10
3.9888583682
 20
3.8737532835
 30
0.0
 10
3.9988658984
 20
3.8776874256
 30
0.0
 10
4.0112955882
 20
3.882879588
 30
0.0
 10
4.0309798676
 20
3.8917867211
 30
0.0
 10
4.0502764309
 20
3.9016071135
 30
0.0
 10
4.0690694054
 20
3.9123567081
 30
0.0
 10
4.0828784989
 20
3.9208884662
 30
0.0
 10
4.0963733355
 20
3.9298813812
 30
0.0
 10
4.1139780508
 20
3.9424137078
 30
0.0
 10
4.1310551148
 20
3.9556742231
 30
0.0
 10
4.1477006952
 20
3.969471574
 30
0.0
 10
4.1600048507
 20
3.9800523988
 30
0.0
 10
4.1721553569
 20
3.990813114
 30
0.0
 10
4.1841113721
 20
4.0017846301
 30
0.0
 10
4.1958225485
 20
4.0130036645
 30
0.0
 10
4.2072401728
 20
4.0245047358
 30
0.0
 10
4.2183147572
 20
4.0363228485
 30
0.0
 10
4.2272163726
 20
4.0464640716
 30
0.0
 10
4.2341134342
 20
4.0547668801
 30
0.0
 10
4.2408565633
 20
4.0632039301
 30
0.0
 10
4.248995719
 20
4.0739884807
 30
0.0
 10
4.258297634
 20
4.0872770316
 30
0.0
 10
4.2671363124
 20
4.1008872676
 30
0.0
 10
4.2755214838
 20
4.1147837626
 30
0.0
 10
4.2834776663
 20
4.1289235465
 30
0.0
 10
4.2910312491
 20
4.1432672468
 30
0.0
 10
4.2982015509
 20
4.1577899537
 30
0.0
 10
4.304976518
 20
4.1724929004
 30
0.0
 10
4.3134815347
 20
4.192349256
 30
0.0
 10
4.3211713034
 20
4.2125772384
 30
0.0
 10
4.3279377197
 20
4.2331589116
 30
0.0
 10
4.3325310619
 20
4.2487887473
 30
0.0
 10
4.3366094688
 20
4.2645659092
 30
0.0
 10
4.3401399067
 20
4.2804472397
 30
0.0
 10
4.3430898465
 20
4.2963945988
 30
0.0
 10
4.3454246181
 20
4.3123825001
 30
0.0
 10
4.347110509
 20
4.3283965415
 30
0.0
 10
4.3481193143
 20
4.3444341972
 30
0.0
 10
4.3483970773
 20
4.3605089259
 30
0.0
 10
4.3479651436
 20
4.3739315352
 30
0.0
 10
4.3471944784
 20
4.3846944851
 30
0.0
 10
4.3463948215
 20
4.3928026367
 30
0.0
 10
4.3453516652
 20
4.400920155
 30
0.0
 10
4.3440408775
 20
4.4090295451
 30
0.0
 10
4.342442579
 20
4.4171063541
 30
0.0
 10
4.3405189406
 20
4.4251140074
 30
0.0
 10
4.3382274033
 20
4.4330052773
 30
0.0
 10
4.3355310399
 20
4.4407282438
 30
0.0
 10
4.3323793098
 20
4.4482208536
 30
0.0
 10
4.3287142375
 20
4.455411393
 30
0.0
 10
4.3244818112
 20
4.4622182448
 30
0.0
 10
4.3212484069
 20
4.4664546954
 30
0.0
 10
4.3195307351
 20
4.4684749003
 30
0.0
  0
SPLINE
  5
2F9
100
AcDbEntity
  8
0
100
AcDbSpline
 62
7
  6
CONTINUOUS
 70
0
 71
3
 72
19
 73
15
 74
0
 42
0.0000001
 43
0.0000001
 44
0.0000000001
 40
0.0
 40
0.0
 40
0.0
 40
0.0
 40
0.1222905874
 40
0.1834911356
 40
0.2448658297
 40
0.3065718281
 40
0.3687390925
 40
0.4946912828
 40
0.5585176522
 40
0.6228513905
 40
0.6874753309
 40
0.7519442113
 40
0.8786665452
 40
1.0
 40
1.0
 40
1.0
 40
1.0
 10
4.3195307351
 20
4.4684749003
 30
0.0
 10
4.3178191145
 20
4.4704879882
 30
0.0
 10
4.3150879514
 20
4.4733767029
 30
0.0
 10
4.3111329232
 20
4.4768946703
 30
0.0
 10
4.3080005024
 20
4.4793570642
 30
0.0
 10
4.3047146833
 20
4.4816463724
 30
0.0
 10
4.3001326409
 20
4.4845036959
 30
0.0
 10
4.295323243
 20
4.4870686209
 30
0.0
 10
4.2903556858
 20
4.4894084122
 30
0.0
 10
4.286539669
 20
4.4910799978
 30
0.0
 10
4.2826707935
 20
4.49266235
 30
0.0
 10
4.2774933806
 20
4.4946003772
 30
0.0
 10
4.271049597
 20
4.4966409033
 30
0.0
 10
4.2657962685
 20
4.4977725349
 30
0.0
 10
4.2632018634
 20
4.4981498447
 30
0.0
  0
SPLINE
  5
2FA
100
AcDbEntity
  8
0
100
AcDbSpline
 62
7
  6
CONTINUOUS
 70
0
 71
3
 72
58
 73
54
 74
0
 42
0.0000001
 43
0.0000001
 44
0.0000000001
 40
0.0
 40
0.0
 40
0.0
 40
0.0
 40
0.0156498961
 40
0.0312931581
 40
0.0469381366
 40
0.0625698698
 40
0.0782012993
 40
0.0938217704
 40
0.1094420191
 40
0.125062793
 40
0.140683084
 40
0.1563032551
 40
0.1719235986
 40
0.1875441561
 40
0.2031649674
 40
0.2187859457
 40
0.250027857
 40
0.2812702633
 40
0.3125126685
 40
0.3437539257
 40
0.3749951346
 40
0.4062402169
 40
0.4374909564
 40
0.4687423999
 40
0.4999932824
 40
0.5312467113
 40
0.5625003982
 40
0.5937517992
 40
0.6250045658
 40
0.6562584784
 40
0.6875107487
 40
0.7187626974
 40
0.7500146377
 40
0.7656407382
 40
0.7812660027
 40
0.8125146243
 40
0.8437636566
 40
0.8593878714
 40
0.8750117355
 40
0.8906353192
 40
0.906257994
 40
0.914068655
 40
0.9218786284
 40
0.9296885003
 40
0.9374994039
 40
0.9453117293
 40
0.9531229878
 40
0.9609328482
 40
0.9687443458
 40
0.9765583828
 40
0.984373769
 40
0.9921879564
 40
1.0
 40
1.0
 40
1.0
 40
1.0
 10
4.6089284944
 20
4.372247292
 30
0.0
 10
4.6034264598
 20
4.3692254223
 30
0.0
 10
4.5928127687
 20
4.3624536916
 30
0.0
 10
4.5781773981
 20
4.3505576072
 30
0.0
 10
4.5648107895
 20
4.3372694625
 30
0.0
 10
4.5526463924
 20
4.3228908975
 30
0.0
 10
4.5415162169
 20
4.3077187488
 30
0.0
 10
4.5312084584
 20
4.2919885477
 30
0.0
 10
4.5214300556
 20
4.2759351811
 30
0.0
 10
4.5115775884
 20
4.2599280152
 30
0.0
 10
4.5016411466
 20
4.2439726456
 30
0.0
 10
4.49161436
 20
4.228074139
 30
0.0
 10
4.4814911805
 20
4.2122366801
 30
0.0
 10
4.4712697142
 20
4.1964621732
 30
0.0
 10
4.4609477555
 20
4.1807529099
 30
0.0
 10
4.4470464682
 20
4.159898776
 30
0.0
 10
4.4293989258
 20
4.1340122435
 30
0.0
 10
4.4077578091
 20
4.1032696006
 30
0.0
 10
4.3856182416
 20
4.0728838819
 30
0.0
 10
4.3629425044
 20
4.0428963679
 30
0.0
 10
4.3396921666
 20
4.0133502617
 30
0.0
 10
4.3158237695
 20
3.9842956504
 30
0.0
 10
4.2912964482
 20
3.9557889384
 30
0.0
 10
4.2660637891
 20
3.9279005639
 30
0.0
 10
4.240084115
 20
3.9007042325
 30
0.0
 10
4.2133194303
 20
3.8742776632
 30
0.0
 10
4.1857371176
 20
3.848704098
 30
0.0
 10
4.1573102278
 20
3.8240716324
 30
0.0
 10
4.1280145053
 20
3.8004774436
 30
0.0
 10
4.0978513404
 20
3.7780013141
 30
0.0
 10
4.0668375175
 20
3.7567133909
 30
0.0
 10
4.0349903992
 20
3.7366949657
 30
0.0
 10
4.0078045748
 20
3.7210876816
 30
0.0
 10
3.9857007615
 20
3.7092547465
 30
0.0
 10
3.9633691053
 20
3.6978604362
 30
0.0
 10
3.9350505165
 20
3.6844266255
 30
0.0
 10
3.906265386
 20
3.6720277642
 30
0.0
 10
3.8829957238
 20
3.6627018878
 30
0.0
 10
3.8654338968
 20
3.6559883627
 30
0.0
 10
3.8477737848
 20
3.6495400935
 30
0.0
 10
3.832983584
 20
3.6443739776
 30
0.0
 10
3.8211125596
 20
3.6403579627
 30
0.0
 10
3.8121915119
 20
3.6374014922
 30
0.0
 10
3.8032505785
 20
3.634505326
 30
0.0
 10
3.7942866728
 20
3.6316779568
 30
0.0
 10
3.7852985632
 20
3.6289261349
 30
0.0
 10
3.7762658015
 20
3.626324551
 30
0.0
 10
3.7671695122
 20
3.6239528025
 30
0.0
 10
3.7579985477
 20
3.6218824651
 30
0.0
 10
3.7487672555
 20
3.6200905611
 30
0.0
 10
3.7394880267
 20
3.6185603399
 30
0.0
 10
3.7301728934
 20
3.6172740162
 30
0.0
 10
3.723944697
 20
3.6165653376
 30
0.0
 10
3.7208278095
 20
3.6162435182
 30
0.0
  0
ENDSEC
  0
SECTION
  2
OBJECTS
  0
DICTIONARY
  5
C
100
AcDbDictionary
280
0
281
1
  3
ACAD_GROUP
350
D
  3
ACAD_MLINESTYLE
350
17
  3
ACAD_LAYOUT
350
1A
  3
ACAD_PLOTSETTINGS
350
19
  3
ACAD_PLOTSTYLENAME
350
E
  0
DICTIONARY
  5
D
102
{ACAD_REACTORS
330
C
102
}
100
AcDbDictionary
280
0
281
1
  0
ACDBDICTIONARYWDFLT
  5
E
102
{ACAD_REACTORS
330
C
102
}
100
AcDbDictionary
281
1
  3
Normal
350
F
100
AcDbDictionaryWithDefault
340
F
  0
DICTIONARY
  5
17
102
{ACAD_REACTORS
330
C
102
}
100
AcDbDictionary
280
0
281
1
  3
Standard
350
18
  0
DICTIONARY
  5
19
102
{ACAD_REACTORS
330
C
102
}
100
AcDbDictionary
281
1
  0
DICTIONARY
  5
1A
102
{ACAD_REACTORS
330
C
102
}
100
AcDbDictionary
281
1
  3
Model
350
2FB
  3
Layout1
350
2FC
  0
ACDBPLACEHOLDER
  5
F
102
{ACAD_REACTORS
330
E
102
}
  0
MLINESTYLE
  5
18
102
{ACAD_REACTORS
330
17
102
}
100
AcDbMlineStyle
  2
STANDARD
 70
0
  3

 62
256
 51
90.0
 52
90.0
 71
2
 49
0.5
 62
256
  6
BYLAYER
 49
-0.5
 62
256
  6
BYLAYER
  0
LAYOUT
  5
2FB
102
{ACAD_REACTORS
330
1A
102
}
100
AcDbPlotSettings
  1

  2
none_device
  4
ANSI_A_(11.00_x_8.50_Inches)
  6

 40
0.0
 41
0.0
 42
0.0
 43
0.0
 44
279.4
 45
215.9
 46
0.0
 47
0.0
 48
0.0
 49
0.0
140
0.0
141
0.0
142
1.0
143
1.0
 70
1024
 72
0
 73
0
 74
0
  7

 75
0
147
1.0
148
0.0
149
0.0
100
AcDbLayout
  1
Model
 70
0
 71
0
 10
0.0
 20
0.0
 11
11.0
 21
8.5
 12
0.0
 22
0.0
 32
0.0
 14
0.0
 24
0.0
 34
0.0
 15
0.0
 25
0.0
 35
0.0
146
0.0
 13
0.0
 23
0.0
 33
0.0
 16
1.0
 26
0.0
 36
0.0
 17
0.0
 27
1.0
 37
0.0
 76
0
330
207
345
0
346
0
  0
LAYOUT
  5
2FC
102
{ACAD_REACTORS
330
1A
102
}
100
AcDbPlotSettings
  1

  2
none_device
  4
ANSI_A_(11.00_x_8.50_Inches)
  6

 40
0.0
 41
0.0
 42
0.0
 43
0.0
 44
279.4
 45
215.9
 46
0.0
 47
0.0
 48
0.0
 49
0.0
140
0.0
141
0.0
142
1.0
143
1.0
 70
0
 72
0
 73
0
 74
0
  7

 75
0
147
1.0
148
0.0
149
0.0
100
AcDbLayout
  1
Layout1
 70
0
 71
1
 10
0.0
 20
0.0
 11
11.0
 21
8.5
 12
0.0
 22
0.0
 32
0.0
 14
0.0
 24
0.0
 34
0.0
 15
0.0
 25
0.0
 35
0.0
146
0.0
 13
0.0
 23
0.0
 33
0.0
 16
1.0
 26
0.0
 36
0.0
 17
0.0
 27
1.0
 37
0.0
 76
0
330
208
345
0
346
0
  0
ENDSEC
  0
EOF
