999
DXF file: 233-602_front.dxf
999
Pro/ENGINEER 2018400 by Parametric Technology Corporation
  0
SECTION
  2
HEADER
  9
$ACADVER
  1
AC1027
  9
$DWGCODEPAGE
  3
ANSI_1252
  9
$EXTMAX
 10
11.0
 20
8.5
 30
0.0
  9
$EXTMIN
 10
0.0
 20
0.0
 30
0.0
  9
$LIMMIN
 10
0.0
 20
0.0
  9
$LIMMAX
 10
11.0
 20
8.5
  9
$VIEWCTR
 10
5.5
 20
4.25
  9
$VIEWSIZE
 40
8.5
  9
$CLAYER
  8
0
  9
$LTSCALE
 40
0.605
  9
$CELTYPE
  6
BYLAYER
  9
$DIMSCALE
 40
1.0
  9
$DIMASZ
 40
0.1
  9
$DIMEXO
 40
0.0625
  9
$DIMDLI
 40
0.418
  9
$DIMEXE
 40
0.125
  9
$DIMCEN
 40
0.099
  9
$DIMLFAC
 40
1.0
  9
$DIMBLK
  1
_FILLED
  9
$DIMALT
 70
1
  9
$DIMALTD
 70
1
  9
$DIMALTTD
 70
2
  9
$DIMALTF
 40
25.4
  9
$DIMTXT
 40
0.08
  9
$DIMTOL
 70
1
  9
$DIMLIM
 70
0
  9
$DIMTFAC
 40
1.0
  9
$DIMTP
 40
0.01
  9
$DIMTM
 40
0.01
  9
$DIMGAP
 40
0.09
  9
$DIMDSEP
 70
46
  9
$AUNITS
 70
0
  9
$PDMODE
 70
3
  9
$PDSIZE
 40
0.3125
  9
$HANDSEED
  5
3A6
  9
$TILEMODE
 70
1
  9
$MEASUREMENT
 70
0
  9
$INSUNITS
 70
1
  0
ENDSEC
  0
SECTION
  2
CLASSES
  0
CLASS
  1
ACDBDICTIONARYWDFLT
  2
AcDbDictionaryWithDefault
  3
AutoCAD 2000
 90
0
 91
1
280
0
281
0
  0
CLASS
  1
ACDBPLACEHOLDER
  2
AcDbPlaceHolder
  3
AutoCAD 2000
 90
0
 91
1
280
0
281
0
  0
CLASS
  1
LAYOUT
  2
AcDbLayout
  3
AutoCAD 2000
 90
0
 91
0
280
0
281
0
  0
ENDSEC
  0
SECTION
  2
TABLES
  0
TABLE
  2
VPORT
  5
8
100
AcDbSymbolTable
 70
2
  0
VPORT
  5
1F4
100
AcDbSymbolTableRecord
100
AcDbViewportTableRecord
  2
*ACTIVE
 70
0
 10
0.0
 20
0.0
 11
1.0
 21
1.0
 12
5.5
 22
4.25
 13
0.0
 23
0.0
 14
1.0
 24
1.0
 15
0.0
 25
0.0
 16
0.0
 26
0.0
 36
1.0
 17
0.0
 27
0.0
 37
0.0
 40
8.5
 41
1.2941176471
 42
50.0
 43
0.0
 44
0.0
 50
0.0
 51
0.0
 71
0
 72
100
 73
1
 74
1
 75
0
 76
0
 77
0
 78
0
  0
ENDTAB
  0
TABLE
  2
LTYPE
  5
5
100
AcDbSymbolTable
 70
6
  0
LTYPE
  5
14
100
AcDbSymbolTableRecord
100
AcDbLinetypeTableRecord
  2
BYBLOCK
 70
0
  3

 72
65
 73
0
 40
0.0
  0
LTYPE
  5
15
100
AcDbSymbolTableRecord
100
AcDbLinetypeTableRecord
  2
BYLAYER
 70
0
  3

 72
65
 73
0
 40
0.0
  0
LTYPE
  5
16
100
AcDbSymbolTableRecord
100
AcDbLinetypeTableRecord
  2
CONTINUOUS
 70
64
  3
Solid line
 72
65
 73
0
 40
0.0
  0
LTYPE
  5
1F5
100
AcDbSymbolTableRecord
100
AcDbLinetypeTableRecord
  2
CENTER
 70
64
  3
____ _ ____ _ ____ _ ____ _ ____ _ ____ _ ____
 72
65
 73
4
 40
0.6
 49
0.375
 74
0
 49
-0.075
 74
0
 49
0.075
 74
0
 49
-0.075
 74
0
  0
LTYPE
  5
1F6
100
AcDbSymbolTableRecord
100
AcDbLinetypeTableRecord
  2
HIDDEN
 70
64
  3
- - - - - - - - - - - - - - - - - - - -
 72
65
 73
2
 40
0.2
 49
0.1
 74
0
 49
-0.1
 74
0
  0
LTYPE
  5
1F7
100
AcDbSymbolTableRecord
100
AcDbLinetypeTableRecord
  2
PHANTOM
 70
64
  3
_____ _ _ _____ _ _ _____ _ _ _____
 72
65
 73
6
 40
0.8
 49
0.45
 74
0
 49
-0.05
 74
0
 49
0.1
 74
0
 49
-0.05
 74
0
 49
0.1
 74
0
 49
-0.05
 74
0
  0
LTYPE
  5
1F8
100
AcDbSymbolTableRecord
100
AcDbLinetypeTableRecord
  2
DOT
 70
64
  3
. . . . . . . . . . . . . . . . . . . .
 72
65
 73
2
 40
0.2
 49
0.1
 74
0
 49
-0.1
 74
0
  0
LTYPE
  5
1F9
100
AcDbSymbolTableRecord
100
AcDbLinetypeTableRecord
  2
DASHED
 70
64
  3
- - - - - - - - - - - - - - - - - - - -
 72
65
 73
2
 40
0.2
 49
0.1
 74
0
 49
-0.1
 74
0
  0
ENDTAB
  0
TABLE
  2
LAYER
  5
2
100
AcDbSymbolTable
 70
36
  0
LAYER
  5
10
100
AcDbSymbolTableRecord
100
AcDbLayerTableRecord
  2
0
 70
0
 62
7
  6
CONTINUOUS
370
-3
390
F
  0
LAYER
  5
1FA
100
AcDbSymbolTableRecord
100
AcDbLayerTableRecord
  2
DEFAULT_1
 70
0
 62
7
  6
CENTER
370
-3
390
F
  0
LAYER
  5
1FB
100
AcDbSymbolTableRecord
100
AcDbLayerTableRecord
  2
DEFAULT_2
 70
0
 62
8
  6
HIDDEN
370
-3
390
F
  0
LAYER
  5
1FC
100
AcDbSymbolTableRecord
100
AcDbLayerTableRecord
  2
DEFAULT_3
 70
0
 62
7
  6
PHANTOM
370
-3
390
F
  0
LAYER
  5
1FD
100
AcDbSymbolTableRecord
100
AcDbLayerTableRecord
  2
DEFAULT_COORDINATE_SYSTEM
 70
0
 62
7
  6
CONTINUOUS
370
-3
390
F
  0
LAYER
  5
1FE
100
AcDbSymbolTableRecord
100
AcDbLayerTableRecord
  2
DEFAULT_DATUM_AXES
 70
0
 62
7
  6
CONTINUOUS
370
-3
390
F
  0
LAYER
  5
1FF
100
AcDbSymbolTableRecord
100
AcDbLayerTableRecord
  2
DEFAULT_DATUM_CURVES
 70
0
 62
7
  6
CONTINUOUS
370
-3
390
F
  0
LAYER
  5
200
100
AcDbSymbolTableRecord
100
AcDbLayerTableRecord
  2
DEFAULT_DATUM_PLANES
 70
0
 62
7
  6
CONTINUOUS
370
-3
390
F
  0
LAYER
  5
201
100
AcDbSymbolTableRecord
100
AcDbLayerTableRecord
  2
DEFAULT_SURFACES
 70
0
 62
7
  6
CONTINUOUS
370
-3
390
F
  0
LAYER
  5
202
100
AcDbSymbolTableRecord
100
AcDbLayerTableRecord
  2
INTF_1
 70
0
 62
7
  6
CONTINUOUS
370
-3
390
F
  0
LAYER
  5
203
100
AcDbSymbolTableRecord
100
AcDbLayerTableRecord
  2
PLATTED_SURFACE_AREA
 70
0
 62
7
  6
CONTINUOUS
370
-3
390
F
  0
LAYER
  5
204
100
AcDbSymbolTableRecord
100
AcDbLayerTableRecord
  2
RGB____0____0____0__
 70
0
 62
7
  6
CONTINUOUS
370
-3
390
F
  0
ENDTAB
  0
TABLE
  2
STYLE
  5
3
100
AcDbSymbolTable
 70
1
  0
STYLE
  5
11
100
AcDbSymbolTableRecord
100
AcDbTextStyleTableRecord
  2
STANDARD
 70
0
 40
0.0
 41
0.8
 50
0.0
 71
0
 42
0.2
  3
txt
  4

  0
STYLE
  5
205
100
AcDbSymbolTableRecord
100
AcDbTextStyleTableRecord
  2
TEXTSTYLE_1
 70
0
 40
0.0
 41
0.8
 50
0.0
 71
0
 42
0.2
  3
gdt
  4

  0
ENDTAB
  0
TABLE
  2
VIEW
  5
6
100
AcDbSymbolTable
 70
0
  0
ENDTAB
  0
TABLE
  2
UCS
  5
7
100
AcDbSymbolTable
 70
0
  0
ENDTAB
  0
TABLE
  2
APPID
  5
9
100
AcDbSymbolTable
 70
1
  0
APPID
  5
206
100
AcDbSymbolTableRecord
100
AcDbRegAppTableRecord
  2
ACAD
 70
0
  0
ENDTAB
  0
TABLE
  2
BLOCK_RECORD
  5
1
100
AcDbSymbolTable
 70
0
  0
BLOCK_RECORD
  5
207
100
AcDbSymbolTableRecord
100
AcDbBlockTableRecord
  2
*Model_Space
  0
BLOCK_RECORD
  5
208
100
AcDbSymbolTableRecord
100
AcDbBlockTableRecord
  2
*Paper_Space
  0
BLOCK_RECORD
  5
209
100
AcDbSymbolTableRecord
100
AcDbBlockTableRecord
  2
_FILLED
  0
ENDTAB
  0
TABLE
  2
DIMSTYLE
  5
A
100
AcDbSymbolTable
 70
1
100
AcDbDimStyleTable
 71
0
  0
DIMSTYLE
105
20A
100
AcDbSymbolTableRecord
100
AcDbDimStyleTableRecord
  2
STANDARD
 70
0
  3

  4

 40
1.0
 41
0.1
 42
0.0625
 43
0.38
 44
0.125
 45
0.0
 46
0.0
 47
0.01
 48
0.01
140
0.08
141
0.09
142
0.0
143
25.4
144
1.0
145
0.0
146
1.0
147
0.09
 71
1.0
 72
0.0
 73
1
 74
1
 75
0
 76
0
 77
0
 78
4
 79
1
170
1
171
1
172
0
173
0
174
0
175
0
176
0
177
0
178
0
270
2
179
2
271
2
272
2
273
2
274
2
275
0
280
0
281
0
282
0
283
1
284
4
285
0
286
0
287
3
288
0
340
11
278
46
341
209
342
209
343
209
344
209
  0
ENDTAB
  0
ENDSEC
  0
SECTION
  2
BLOCKS
  0
BLOCK
  5
20
100
AcDbEntity
  8
0
100
AcDbBlockBegin
  2
*Model_Space
 70
0
 10
0.0
 20
0.0
 30
0.0
  3
*Model_Space
  1

  0
ENDBLK
  5
21
100
AcDbEntity
  8
0
100
AcDbBlockEnd
  0
BLOCK
  5
1C
100
AcDbEntity
  8
0
100
AcDbBlockBegin
  2
*Paper_Space
 70
0
 10
0.0
 20
0.0
 30
0.0
  3
*Paper_Space
  1

  0
ENDBLK
  5
1D
100
AcDbEntity
  8
0
100
AcDbBlockEnd
  0
BLOCK
  5
20B
100
AcDbEntity
  8
0
100
AcDbBlockBegin
  2
_FILLED
 70
64
 10
0.0
 20
0.0
  3
_FILLED
  1

  0
SOLID
  5
20C
100
AcDbEntity
  8
0
  6
BYBLOCK
 62
0
100
AcDbTrace
 10
0.0
 20
0.0
 11
-1.0
 21
0.2
 12
-1.0
 22
-0.2
 13
-1.0
 23
-0.2
  0
ENDBLK
  5
20D
100
AcDbEntity
  8
0
  6
BYBLOCK
 62
0
100
AcDbBlockEnd
  0
ENDSEC
  0
SECTION
  2
ENTITIES
  0
MTEXT
  5
20E
100
AcDbEntity
  8
0
100
AcDbMText
 62
2
  6
CONTINUOUS
  7
STANDARD
 71
3
 72
1
 10
5.0503493789
 20
0.9933656832
 30
0.0
 11
1.0
 21
0.0
 31
0.0
 73
2
 44
0.9
  1
SCALE  1.000
 40
0.08
 41
0.768
  0
LINE
  5
20F
100
AcDbEntity
  8
0
100
AcDbLine
 62
7
  6
CONTINUOUS
 10
0.0
 20
0.0
 11
0.0
 21
8.5
  0
LINE
  5
210
100
AcDbEntity
  8
0
100
AcDbLine
 62
7
  6
CONTINUOUS
 10
0.0
 20
0.0
 11
11.0
 21
0.0
  0
LINE
  5
211
100
AcDbEntity
  8
0
100
AcDbLine
 62
7
  6
CONTINUOUS
 10
0.0
 20
8.5
 11
11.0
 21
8.5
  0
LINE
  5
212
100
AcDbEntity
  8
0
100
AcDbLine
 62
7
  6
CONTINUOUS
 10
11.0
 20
0.0
 11
11.0
 21
8.5
  0
LINE
  5
213
100
AcDbEntity
  8
0
100
AcDbLine
 62
7
  6
CONTINUOUS
 10
1.8607298137
 20
7.4460908385
 11
1.8607298137
 21
1.7110908385
  0
LINE
  5
214
100
AcDbEntity
  8
0
100
AcDbLine
 62
7
  6
CONTINUOUS
 10
1.9407298137
 20
1.6310908385
 11
7.6757298137
 21
1.6310908385
  0
LINE
  5
215
100
AcDbEntity
  8
0
100
AcDbLine
 62
7
  6
CONTINUOUS
 10
2.2235239989
 20
7.1404486984
 11
2.2235239989
 21
6.8206452086
  0
LINE
  5
216
100
AcDbEntity
  8
0
100
AcDbLine
 62
7
  6
CONTINUOUS
 10
2.2235239989
 20
6.1106439251
 11
2.2235239989
 21
5.6067220926
  0
LINE
  5
217
100
AcDbEntity
  8
0
100
AcDbLine
 62
7
  6
CONTINUOUS
 10
2.2242065075
 20
5.3710669445
 11
2.2242065075
 21
3.7897147325
  0
LINE
  5
218
100
AcDbEntity
  8
0
100
AcDbLine
 62
7
  6
CONTINUOUS
 10
2.2284593092
 20
2.3053663398
 11
2.2284593092
 21
2.0185147325
  0
LINE
  5
219
100
AcDbEntity
  8
0
100
AcDbLine
 62
7
  6
CONTINUOUS
 10
2.23383982
 20
3.5530669445
 11
2.23383982
 21
2.9433319812
  0
LINE
  5
21A
100
AcDbEntity
  8
0
100
AcDbLine
 62
7
  6
CONTINUOUS
 10
2.2483832032
 20
1.9985908385
 11
2.459607534
 21
1.9985908385
  0
LINE
  5
21B
100
AcDbEntity
  8
0
100
AcDbLine
 62
7
  6
CONTINUOUS
 10
2.7678347518
 20
1.9985908385
 11
2.9063810387
 21
1.9985908385
  0
LINE
  5
21C
100
AcDbEntity
  8
0
100
AcDbLine
 62
7
  6
CONTINUOUS
 10
3.1672761238
 20
1.9985908385
 11
3.3998448502
 21
1.9985908385
  0
LINE
  5
21D
100
AcDbEntity
  8
0
100
AcDbLine
 62
7
  6
CONTINUOUS
 10
3.6707271918
 20
1.9985908385
 11
3.7944531539
 21
1.9985908385
  0
LINE
  5
21E
100
AcDbEntity
  8
0
100
AcDbLine
 62
7
  6
CONTINUOUS
 10
4.0611700056
 20
1.9985908385
 11
4.1944510568
 21
1.9985908385
  0
LINE
  5
21F
100
AcDbEntity
  8
0
100
AcDbLine
 62
7
  6
CONTINUOUS
 10
4.477843233
 20
1.9985908385
 11
4.7280425787
 21
1.9985908385
  0
LINE
  5
220
100
AcDbEntity
  8
0
100
AcDbLine
 62
7
  6
CONTINUOUS
 10
4.9646571585
 20
1.9985908385
 11
5.1434050783
 21
1.9985908385
  0
LINE
  5
221
100
AcDbEntity
  8
0
100
AcDbLine
 62
7
  6
CONTINUOUS
 10
5.4260227894
 20
1.9985908385
 11
5.6014271555
 21
1.9985908385
  0
LINE
  5
222
100
AcDbEntity
  8
0
100
AcDbLine
 62
7
  6
CONTINUOUS
 10
5.8207446961
 20
1.9985908385
 11
6.0538723839
 21
1.9985908385
  0
LINE
  5
223
100
AcDbEntity
  8
0
100
AcDbLine
 62
7
  6
CONTINUOUS
 10
6.2831265751
 20
1.9985908385
 11
6.4789523273
 21
1.9985908385
  0
LINE
  5
224
100
AcDbEntity
  8
0
100
AcDbLine
 62
7
  6
CONTINUOUS
 10
6.7070765258
 20
1.9985908385
 11
6.8208076894
 21
1.9985908385
  0
LINE
  5
225
100
AcDbEntity
  8
0
100
AcDbLine
 62
7
  6
CONTINUOUS
 10
7.0162972332
 20
1.9985908385
 11
7.3695059197
 21
1.9985908385
  0
LINE
  5
226
100
AcDbEntity
  8
0
100
AcDbLine
 62
7
  6
CONTINUOUS
 10
7.3695059197
 20
3.5729908385
 11
7.2747266339
 21
3.5729908385
  0
LINE
  5
227
100
AcDbEntity
  8
0
100
AcDbLine
 62
7
  6
CONTINUOUS
 10
6.9835078855
 20
3.5729908385
 11
6.8011859116
 21
3.5729908385
  0
LINE
  5
228
100
AcDbEntity
  8
0
100
AcDbLine
 62
7
  6
CONTINUOUS
 10
6.5372898436
 20
3.5729908385
 11
6.3901914261
 21
3.5729908385
  0
LINE
  5
229
100
AcDbEntity
  8
0
100
AcDbLine
 62
7
  6
CONTINUOUS
 10
6.1793706172
 20
3.5729908385
 11
6.0667598648
 21
3.5729908385
  0
LINE
  5
22A
100
AcDbEntity
  8
0
100
AcDbLine
 62
7
  6
CONTINUOUS
 10
5.8664392887
 20
3.5729908385
 11
5.7093685959
 21
3.5729908385
  0
LINE
  5
22B
100
AcDbEntity
  8
0
100
AcDbLine
 62
7
  6
CONTINUOUS
 10
5.3692218973
 20
3.5729908385
 11
5.119498448
 21
3.5729908385
  0
LINE
  5
22C
100
AcDbEntity
  8
0
100
AcDbLine
 62
7
  6
CONTINUOUS
 10
4.8783284755
 20
3.5729908385
 11
4.8202850965
 21
3.5729908385
  0
LINE
  5
22D
100
AcDbEntity
  8
0
100
AcDbLine
 62
7
  6
CONTINUOUS
 10
4.5323365168
 20
3.5729908385
 11
4.3056176636
 21
3.5729908385
  0
LINE
  5
22E
100
AcDbEntity
  8
0
100
AcDbLine
 62
7
  6
CONTINUOUS
 10
4.0599928308
 20
3.5729908385
 11
3.9428039271
 21
3.5729908385
  0
LINE
  5
22F
100
AcDbEntity
  8
0
100
AcDbLine
 62
7
  6
CONTINUOUS
 10
3.7084219779
 20
3.5729908385
 11
3.4828657775
 21
3.5729908385
  0
LINE
  5
230
100
AcDbEntity
  8
0
100
AcDbLine
 62
7
  6
CONTINUOUS
 10
3.2089224245
 20
3.5729908385
 11
3.0093203531
 21
3.5729908385
  0
LINE
  5
231
100
AcDbEntity
  8
0
100
AcDbLine
 62
7
  6
CONTINUOUS
 10
2.7872365863
 20
3.5729908385
 11
2.6049170589
 21
3.5729908385
  0
LINE
  5
232
100
AcDbEntity
  8
0
100
AcDbLine
 62
7
  6
CONTINUOUS
 10
2.3711320988
 20
3.5729908385
 11
2.253763714
 21
3.5729908385
  0
LINE
  5
233
100
AcDbEntity
  8
0
100
AcDbLine
 62
7
  6
CONTINUOUS
 10
2.2441304015
 20
3.7697908385
 11
2.3978585416
 21
3.7697908385
  0
LINE
  5
234
100
AcDbEntity
  8
0
100
AcDbLine
 62
7
  6
CONTINUOUS
 10
2.6226346142
 20
3.7697908385
 11
2.8062500091
 21
3.7697908385
  0
LINE
  5
235
100
AcDbEntity
  8
0
100
AcDbLine
 62
7
  6
CONTINUOUS
 10
3.0281733603
 20
3.7697908385
 11
3.2059180997
 21
3.7697908385
  0
LINE
  5
236
100
AcDbEntity
  8
0
100
AcDbLine
 62
7
  6
CONTINUOUS
 10
3.5048797157
 20
3.7697908385
 11
3.7041931601
 21
3.7697908385
  0
LINE
  5
237
100
AcDbEntity
  8
0
100
AcDbLine
 62
7
  6
CONTINUOUS
 10
3.9699048572
 20
3.7697908385
 11
4.0951416098
 21
3.7697908385
  0
LINE
  5
238
100
AcDbEntity
  8
0
100
AcDbLine
 62
7
  6
CONTINUOUS
 10
4.2950736654
 20
3.7697908385
 11
4.5481209294
 21
3.7697908385
  0
LINE
  5
239
100
AcDbEntity
  8
0
100
AcDbLine
 62
7
  6
CONTINUOUS
 10
4.8866493942
 20
3.7697908385
 11
4.9496864571
 21
3.7697908385
  0
LINE
  5
23A
100
AcDbEntity
  8
0
100
AcDbLine
 62
7
  6
CONTINUOUS
 10
5.1594540485
 20
3.7697908385
 11
5.3974138716
 21
3.7697908385
  0
LINE
  5
23B
100
AcDbEntity
  8
0
100
AcDbLine
 62
7
  6
CONTINUOUS
 10
5.6919456697
 20
3.7697908385
 11
5.8430887788
 21
3.7697908385
  0
LINE
  5
23C
100
AcDbEntity
  8
0
100
AcDbLine
 62
7
  6
CONTINUOUS
 10
6.0483558551
 20
3.7697908385
 11
6.1781587697
 21
3.7697908385
  0
LINE
  5
23D
100
AcDbEntity
  8
0
100
AcDbLine
 62
7
  6
CONTINUOUS
 10
6.3677763563
 20
3.7697908385
 11
6.5215244955
 21
3.7697908385
  0
LINE
  5
23E
100
AcDbEntity
  8
0
100
AcDbLine
 62
7
  6
CONTINUOUS
 10
6.8075917195
 20
3.7697908385
 11
6.9692154213
 21
3.7697908385
  0
LINE
  5
23F
100
AcDbEntity
  8
0
100
AcDbLine
 62
7
  6
CONTINUOUS
 10
7.2480420091
 20
3.7697908385
 11
7.3685146982
 21
3.7697908385
  0
LINE
  5
240
100
AcDbEntity
  8
0
100
AcDbLine
 62
7
  6
CONTINUOUS
 10
7.3672013819
 20
5.3909908385
 11
7.2857253759
 21
5.3909908385
  0
LINE
  5
241
100
AcDbEntity
  8
0
100
AcDbLine
 62
7
  6
CONTINUOUS
 10
7.0991692121
 20
5.3909908385
 11
6.9923203179
 21
5.3909908385
  0
LINE
  5
242
100
AcDbEntity
  8
0
100
AcDbLine
 62
7
  6
CONTINUOUS
 10
6.8149274741
 20
5.3909908385
 11
6.7018817446
 21
5.3909908385
  0
LINE
  5
243
100
AcDbEntity
  8
0
100
AcDbLine
 62
7
  6
CONTINUOUS
 10
6.4650079271
 20
5.3909908385
 11
6.3895310309
 21
5.3909908385
  0
LINE
  5
244
100
AcDbEntity
  8
0
100
AcDbLine
 62
7
  6
CONTINUOUS
 10
6.1346810727
 20
5.3909908385
 11
5.9630713902
 21
5.3909908385
  0
LINE
  5
245
100
AcDbEntity
  8
0
100
AcDbLine
 62
7
  6
CONTINUOUS
 10
5.7011917645
 20
5.3909908385
 11
5.5324829736
 21
5.3909908385
  0
LINE
  5
246
100
AcDbEntity
  8
0
100
AcDbLine
 62
7
  6
CONTINUOUS
 10
5.3429926023
 20
5.3909908385
 11
5.2618324722
 21
5.3909908385
  0
LINE
  5
247
100
AcDbEntity
  8
0
100
AcDbLine
 62
7
  6
CONTINUOUS
 10
5.0661860571
 20
5.3909908385
 11
4.9337501096
 21
5.3909908385
  0
LINE
  5
248
100
AcDbEntity
  8
0
100
AcDbLine
 62
7
  6
CONTINUOUS
 10
4.7586519323
 20
5.3909908385
 11
4.6767941957
 21
5.3909908385
  0
LINE
  5
249
100
AcDbEntity
  8
0
100
AcDbLine
 62
7
  6
CONTINUOUS
 10
4.493117675
 20
5.3909908385
 11
4.3390979083
 21
5.3909908385
  0
LINE
  5
24A
100
AcDbEntity
  8
0
100
AcDbLine
 62
7
  6
CONTINUOUS
 10
4.1287209703
 20
5.3909908385
 11
4.017664574
 21
5.3909908385
  0
LINE
  5
24B
100
AcDbEntity
  8
0
100
AcDbLine
 62
7
  6
CONTINUOUS
 10
3.8357247279
 20
5.3909908385
 11
3.7494082597
 21
5.3909908385
  0
LINE
  5
24C
100
AcDbEntity
  8
0
100
AcDbLine
 62
7
  6
CONTINUOUS
 10
3.5129273263
 20
5.3909908385
 11
3.4088889614
 21
5.3909908385
  0
LINE
  5
24D
100
AcDbEntity
  8
0
100
AcDbLine
 62
7
  6
CONTINUOUS
 10
3.1141899837
 20
5.3909908385
 11
3.0064899238
 21
5.3909908385
  0
LINE
  5
24E
100
AcDbEntity
  8
0
100
AcDbLine
 62
7
  6
CONTINUOUS
 10
2.4689518036
 20
5.3909908385
 11
2.2441304015
 21
5.3909908385
  0
LINE
  5
24F
100
AcDbEntity
  8
0
100
AcDbLine
 62
7
  6
CONTINUOUS
 10
5.5869113739
 20
5.5853908385
 11
5.7441216276
 21
5.5853908385
  0
LINE
  5
250
100
AcDbEntity
  8
0
100
AcDbLine
 62
7
  6
CONTINUOUS
 10
4.0089262243
 20
5.5865908385
 11
4.1365809172
 21
5.5865908385
  0
LINE
  5
251
100
AcDbEntity
  8
0
100
AcDbLine
 62
7
  6
CONTINUOUS
 10
4.6762165011
 20
5.5865908385
 11
4.7825077895
 21
5.5865908385
  0
LINE
  5
252
100
AcDbEntity
  8
0
100
AcDbLine
 62
7
  6
CONTINUOUS
 10
4.9845362606
 20
5.5865908385
 11
5.1082670835
 21
5.5865908385
  0
LINE
  5
253
100
AcDbEntity
  8
0
100
AcDbLine
 62
7
  6
CONTINUOUS
 10
5.2590151162
 20
5.5865908385
 11
5.3718503208
 21
5.5865908385
  0
LINE
  5
254
100
AcDbEntity
  8
0
100
AcDbLine
 62
7
  6
CONTINUOUS
 10
5.9980237892
 20
5.5865908385
 11
6.175967945
 21
5.5865908385
  0
LINE
  5
255
100
AcDbEntity
  8
0
100
AcDbLine
 62
7
  6
CONTINUOUS
 10
6.3776046178
 20
5.5865908385
 11
6.4897878934
 21
5.5865908385
  0
LINE
  5
256
100
AcDbEntity
  8
0
100
AcDbLine
 62
7
  6
CONTINUOUS
 10
6.7090711444
 20
5.5865908385
 11
6.8024529453
 21
5.5865908385
  0
LINE
  5
257
100
AcDbEntity
  8
0
100
AcDbLine
 62
7
  6
CONTINUOUS
 10
6.985636943
 20
5.5865908385
 11
7.0919575074
 21
5.5865908385
  0
LINE
  5
258
100
AcDbEntity
  8
0
100
AcDbLine
 62
7
  6
CONTINUOUS
 10
7.272711136
 20
5.5865908385
 11
7.3683059197
 21
5.5865908385
  0
LINE
  5
259
100
AcDbEntity
  8
0
100
AcDbLine
 62
7
  6
CONTINUOUS
 10
2.2434478928
 20
5.5867981986
 11
2.4487661924
 21
5.5867981986
  0
LINE
  5
25A
100
AcDbEntity
  8
0
100
AcDbLine
 62
7
  6
CONTINUOUS
 10
3.0091076387
 20
5.5871117764
 11
3.1046289212
 21
5.5871117764
  0
LINE
  5
25B
100
AcDbEntity
  8
0
100
AcDbLine
 62
7
  6
CONTINUOUS
 10
3.380958959
 20
5.5873333371
 11
3.4974445494
 21
5.5873333371
  0
LINE
  5
25C
100
AcDbEntity
  8
0
100
AcDbLine
 62
7
  6
CONTINUOUS
 10
3.7232024998
 20
5.5874709381
 11
3.8379040886
 21
5.5874709381
  0
LINE
  5
25D
100
AcDbEntity
  8
0
100
AcDbLine
 62
7
  6
CONTINUOUS
 10
4.357421159
 20
5.5877908385
 11
4.4796156433
 21
5.5877908385
  0
LINE
  5
25E
100
AcDbEntity
  8
0
100
AcDbLine
 62
7
  6
CONTINUOUS
 10
6.0734924407
 20
2.0150484781
 11
6.2057147875
 21
2.7634672951
  0
LINE
  5
25F
100
AcDbEntity
  8
0
100
AcDbLine
 62
7
  6
CONTINUOUS
 10
7.3839412349
 20
3.8512106754
 11
7.1255357845
 21
4.1673613121
  0
LINE
  5
260
100
AcDbEntity
  8
0
100
AcDbLine
 62
7
  6
CONTINUOUS
 10
7.3895708744
 20
4.8619200276
 11
7.387125046
 21
5.3711626354
  0
LINE
  5
261
100
AcDbEntity
  8
0
100
AcDbLine
 62
7
  6
CONTINUOUS
 10
7.3882298137
 20
5.6065147325
 11
7.3882298137
 21
7.1386669445
  0
LINE
  5
262
100
AcDbEntity
  8
0
100
AcDbLine
 62
7
  6
CONTINUOUS
 10
7.388380982
 20
4.1343555513
 11
7.388380982
 21
4.202762159
  0
LINE
  5
263
100
AcDbEntity
  8
0
100
AcDbLine
 62
7
  6
CONTINUOUS
 10
7.3884385921
 20
3.7897147325
 11
7.3884385921
 21
3.8386018089
  0
LINE
  5
264
100
AcDbEntity
  8
0
100
AcDbLine
 62
7
  6
CONTINUOUS
 10
7.3894298137
 20
2.0185147325
 11
7.3894298137
 21
2.7840352171
  0
LINE
  5
265
100
AcDbEntity
  8
0
100
AcDbLine
 62
7
  6
CONTINUOUS
 10
7.3894298137
 20
3.2641301253
 11
7.3894298137
 21
3.5530669445
  0
LINE
  5
266
100
AcDbEntity
  8
0
100
AcDbLine
 62
7
  6
CONTINUOUS
 10
5.8835077546
 20
7.1561908385
 11
5.6575632186
 21
7.1561908385
  0
LINE
  5
267
100
AcDbEntity
  8
0
100
AcDbLine
 62
7
  6
CONTINUOUS
 10
4.2246282777
 20
7.1573908385
 11
3.9497952375
 21
7.1573908385
  0
LINE
  5
268
100
AcDbEntity
  8
0
100
AcDbLine
 62
7
  6
CONTINUOUS
 10
3.7600964724
 20
7.1573908385
 11
3.589925083
 21
7.1573908385
  0
LINE
  5
269
100
AcDbEntity
  8
0
100
AcDbLine
 62
7
  6
CONTINUOUS
 10
2.9018552003
 20
7.1578734198
 11
2.7513810159
 21
7.1578734198
  0
LINE
  5
26A
100
AcDbEntity
  8
0
100
AcDbLine
 62
7
  6
CONTINUOUS
 10
7.3683059197
 20
7.1585908385
 11
7.1519690476
 21
7.1585908385
  0
LINE
  5
26B
100
AcDbEntity
  8
0
100
AcDbLine
 62
7
  6
CONTINUOUS
 10
6.8962282936
 20
7.1585908385
 11
6.7967844404
 21
7.1585908385
  0
LINE
  5
26C
100
AcDbEntity
  8
0
100
AcDbLine
 62
7
  6
CONTINUOUS
 10
6.5111299766
 20
7.1585908385
 11
6.3925171832
 21
7.1585908385
  0
LINE
  5
26D
100
AcDbEntity
  8
0
100
AcDbLine
 62
7
  6
CONTINUOUS
 10
5.3171103476
 20
7.1585908385
 11
5.0059344488
 21
7.1585908385
  0
LINE
  5
26E
100
AcDbEntity
  8
0
100
AcDbLine
 62
7
  6
CONTINUOUS
 10
4.7215811692
 20
7.1585908385
 11
4.4767827184
 21
7.1585908385
  0
LINE
  5
26F
100
AcDbEntity
  8
0
100
AcDbLine
 62
7
  6
CONTINUOUS
 10
3.355228193
 20
7.1588612965
 11
3.2069931425
 21
7.1588612965
  0
LINE
  5
270
100
AcDbEntity
  8
0
100
AcDbLine
 62
7
  6
CONTINUOUS
 10
2.4925331971
 20
7.1603725923
 11
2.2434478928
 21
7.1603725923
  0
LINE
  5
271
100
AcDbEntity
  8
0
100
AcDbLine
 62
7
  6
CONTINUOUS
 10
7.7557298137
 20
1.7110908385
 11
7.7557298137
 21
7.4460908385
  0
LINE
  5
272
100
AcDbEntity
  8
0
100
AcDbLine
 62
7
  6
CONTINUOUS
 10
7.6757298137
 20
7.5260908385
 11
1.9407298137
 21
7.5260908385
  0
ARC
  5
273
100
AcDbEntity
  8
0
100
AcDbCircle
 62
7
  6
CONTINUOUS
 10
0.5054494461
 20
2.2816553264
 40
2.9262415075
100
AcDbArc
 50
354.8055879395
 51
11.988099301
  0
ARC
  5
274
100
AcDbEntity
  8
0
100
AcDbCircle
 62
7
  6
CONTINUOUS
 10
1.9407298137
 20
1.7110908385
 40
0.08
100
AcDbArc
 50
180.0
 51
270.0
  0
ARC
  5
275
100
AcDbEntity
  8
0
100
AcDbCircle
 62
7
  6
CONTINUOUS
 10
2.248379403
 20
2.3053675605
 40
0.0199200938
100
AcDbArc
 50
144.3823670279
 51
180.0035109068
  0
ARC
  5
276
100
AcDbEntity
  8
0
100
AcDbCircle
 62
7
  6
CONTINUOUS
 10
3.7944710812
 20
2.0184936673
 40
0.0199026693
100
AcDbArc
 50
269.948391538
 51
350.8496977982
  0
ARC
  5
277
100
AcDbEntity
  8
0
100
AcDbCircle
 62
7
  6
CONTINUOUS
 10
4.4778240807
 20
2.0184927628
 40
0.0199017507
100
AcDbArc
 50
187.7837921636
 51
270.0551374908
  0
ARC
  5
278
100
AcDbEntity
  8
0
100
AcDbCircle
 62
7
  6
CONTINUOUS
 10
4.0611483745
 20
2.0184909973
 40
0.0198999561
100
AcDbArc
 50
185.2485999375
 51
270.0622794786
  0
ARC
  5
279
100
AcDbEntity
  8
0
100
AcDbCircle
 62
7
  6
CONTINUOUS
 10
3.1672543425
 20
2.0184908964
 40
0.0198998532
100
AcDbArc
 50
185.0955887405
 51
270.0627120829
  0
ARC
  5
27A
100
AcDbEntity
  8
0
100
AcDbCircle
 62
7
  6
CONTINUOUS
 10
3.3998666408
 20
2.0184908885
 40
0.0198998453
100
AcDbArc
 50
269.9372608909
 51
354.910132004
  0
ARC
  5
27B
100
AcDbEntity
  8
0
100
AcDbCircle
 62
7
  6
CONTINUOUS
 10
2.7678093594
 20
2.0184884709
 40
0.0198973836
100
AcDbArc
 50
181.8550297679
 51
270.0731179925
  0
ARC
  5
27C
100
AcDbEntity
  8
0
100
AcDbCircle
 62
7
  6
CONTINUOUS
 10
2.1475951573
 20
3.6904724941
 40
1.9372282551
100
AcDbArc
 50
336.4398605373
 51
355.8896272973
  0
ARC
  5
27D
100
AcDbEntity
  8
0
100
AcDbCircle
 62
7
  6
CONTINUOUS
 10
3.9427895793
 20
3.5530852183
 40
0.0199055004
100
AcDbArc
 50
89.9587017314
 51
166.316349002
  0
ARC
  5
27E
100
AcDbEntity
  8
0
100
AcDbCircle
 62
7
  6
CONTINUOUS
 10
3.2059331112
 20
3.7896959218
 40
0.0199049562
100
AcDbArc
 50
269.956790246
 51
347.2248822545
  0
ARC
  5
27F
100
AcDbEntity
  8
0
100
AcDbCircle
 62
7
  6
CONTINUOUS
 10
2.3978782175
 20
3.7896923839
 40
0.0199013656
100
AcDbArc
 50
269.9433540101
 51
352.778481537
  0
ARC
  5
280
100
AcDbEntity
  8
0
100
AcDbCircle
 62
7
  6
CONTINUOUS
 10
3.2089442814
 20
3.5530908334
 40
0.0198997995
100
AcDbArc
 50
5.0237153421
 51
90.0629300506
  0
ARC
  5
281
100
AcDbEntity
  8
0
100
AcDbCircle
 62
7
  6
CONTINUOUS
 10
2.8062718955
 20
3.7896908227
 40
0.0198997783
100
AcDbArc
 50
269.9369850222
 51
355.003440382
  0
ARC
  5
282
100
AcDbEntity
  8
0
100
AcDbCircle
 62
7
  6
CONTINUOUS
 10
2.6048939102
 20
3.5530917181
 40
0.0198988993
100
AcDbArc
 50
89.9333476555
 51
176.1829554865
  0
ARC
  5
283
100
AcDbEntity
  8
0
100
AcDbCircle
 62
7
  6
CONTINUOUS
 10
4.2950483924
 20
3.7896885498
 40
0.019897464
100
AcDbArc
 50
181.953012241
 51
270.0727739373
  0
ARC
  5
284
100
AcDbEntity
  8
0
100
AcDbCircle
 62
7
  6
CONTINUOUS
 10
3.7042201245
 20
3.7896874527
 40
0.019896346
100
AcDbArc
 50
269.922351229
 51
359.4116119467
  0
ARC
  5
285
100
AcDbEntity
  8
0
100
AcDbCircle
 62
7
  6
CONTINUOUS
 10
7.6757298137
 20
1.7110908385
 40
0.08
100
AcDbArc
 50
270.0
 51
360.0
  0
ARC
  5
286
100
AcDbEntity
  8
0
100
AcDbCircle
 62
7
  6
CONTINUOUS
 10
5.4260025949
 20
2.0184920109
 40
0.0199009867
100
AcDbArc
 50
186.6814876913
 51
270.0581404465
  0
ARC
  5
287
100
AcDbEntity
  8
0
100
AcDbCircle
 62
7
  6
CONTINUOUS
 10
6.4789729909
 20
2.0184916774
 40
0.0199006476
100
AcDbArc
 50
269.9405082338
 51
353.7974308817
  0
ARC
  5
288
100
AcDbEntity
  8
0
100
AcDbCircle
 62
7
  6
CONTINUOUS
 10
5.820719862
 20
2.0184888352
 40
0.0198977549
100
AcDbArc
 50
182.3297252503
 51
270.0715090135
  0
ARC
  5
289
100
AcDbEntity
  8
0
100
AcDbCircle
 62
7
  6
CONTINUOUS
 10
4.9646301751
 20
2.0184874445
 40
0.0198963374
100
AcDbArc
 50
180.5653306053
 51
270.077703592
  0
ARC
  5
28A
100
AcDbEntity
  8
0
100
AcDbCircle
 62
7
  6
CONTINUOUS
 10
6.7070490815
 20
2.0184871522
 40
0.0198960393
100
AcDbArc
 50
180.2041469655
 51
270.0790318978
  0
ARC
  5
28B
100
AcDbEntity
  8
0
100
AcDbCircle
 62
7
  6
CONTINUOUS
 10
8.6569576109
 20
4.4801751864
 40
3.0642662418
100
AcDbArc
 50
184.8128839722
 51
193.1087484997
  0
ARC
  5
28C
100
AcDbEntity
  8
0
100
AcDbCircle
 62
7
  6
CONTINUOUS
 10
8.2125680928
 20
4.3627479504
 40
1.1418319271
100
AcDbArc
 50
190.6841296564
 51
210.7149100234
  0
ARC
  5
28D
100
AcDbEntity
  8
0
100
AcDbCircle
 62
7
  6
CONTINUOUS
 10
7.3684602257
 20
4.202763073
 40
0.0199207563
100
AcDbArc
 50
359.9973710176
 51
32.486168428
  0
ARC
  5
28E
100
AcDbEntity
  8
0
100
AcDbCircle
 62
7
  6
CONTINUOUS
 10
7.2480379086
 20
3.7897075636
 40
0.0199164752
100
AcDbArc
 50
210.7032050437
 51
270.0117963191
  0
ARC
  5
28F
100
AcDbEntity
  8
0
100
AcDbCircle
 62
7
  6
CONTINUOUS
 10
4.949690582
 20
3.7897074798
 40
0.019916406
100
AcDbArc
 50
269.9881337872
 51
329.5245157924
  0
ARC
  5
290
100
AcDbEntity
  8
0
100
AcDbCircle
 62
7
  6
CONTINUOUS
 10
4.8202775415
 20
3.5530794581
 40
0.0199110217
100
AcDbArc
 50
89.9782601234
 51
152.4573534232
  0
ARC
  5
291
100
AcDbEntity
  8
0
100
AcDbCircle
 62
7
  6
CONTINUOUS
 10
5.691930869
 20
3.7896960922
 40
0.0199051289
100
AcDbArc
 50
193.0569027295
 51
270.0426028127
  0
ARC
  5
292
100
AcDbEntity
  8
0
100
AcDbCircle
 62
7
  6
CONTINUOUS
 10
5.3974295648
 20
3.7896953812
 40
0.0199044083
100
AcDbArc
 50
269.954826836
 51
348.1268342686
  0
ARC
  5
293
100
AcDbEntity
  8
0
100
AcDbCircle
 62
7
  6
CONTINUOUS
 10
5.1194791677
 20
3.5530890072
 40
0.019901656
100
AcDbArc
 50
89.9444935776
 51
172.3552638851
  0
ARC
  5
294
100
AcDbEntity
  8
0
100
AcDbCircle
 62
7
  6
CONTINUOUS
 10
6.0483344753
 20
3.7896911741
 40
0.0199001357
100
AcDbArc
 50
185.4897132989
 51
270.0615550976
  0
ARC
  5
295
100
AcDbEntity
  8
0
100
AcDbCircle
 62
7
  6
CONTINUOUS
 10
6.3677542778
 20
3.7896906899
 40
0.0198996432
100
AcDbArc
 50
184.8135408283
 51
270.0635683576
  0
ARC
  5
296
100
AcDbEntity
  8
0
100
AcDbCircle
 62
7
  6
CONTINUOUS
 10
5.8664629144
 20
3.5530920385
 40
0.019898573
100
AcDbArc
 50
3.3844561874
 51
90.0680268248
  0
ARC
  5
297
100
AcDbEntity
  8
0
100
AcDbCircle
 62
7
  6
CONTINUOUS
 10
6.9835322992
 20
3.5530925644
 40
0.0198980375
100
AcDbArc
 50
2.6916488618
 51
90.0702975705
  0
ARC
  5
298
100
AcDbEntity
  8
0
100
AcDbCircle
 62
7
  6
CONTINUOUS
 10
6.179395548
 20
3.5530929053
 40
0.0198976902
100
AcDbArc
 50
2.2469647756
 51
90.0717879487
  0
ARC
  5
299
100
AcDbEntity
  8
0
100
AcDbCircle
 62
7
  6
CONTINUOUS
 10
6.5215494562
 20
3.7896887519
 40
0.01989767
100
AcDbArc
 50
269.9281258168
 51
357.7781170903
  0
ARC
  5
29A
100
AcDbEntity
  8
0
100
AcDbCircle
 62
7
  6
CONTINUOUS
 10
7.2747009722
 20
3.5530933832
 40
0.0198972033
100
AcDbArc
 50
89.9261056542
 51
178.3653566459
  0
ARC
  5
29B
100
AcDbEntity
  8
0
100
AcDbCircle
 62
7
  6
CONTINUOUS
 10
6.0667334659
 20
3.5530938598
 40
0.0198967176
100
AcDbArc
 50
89.9239812273
 51
178.9663114474
  0
ARC
  5
29C
100
AcDbEntity
  8
0
100
AcDbCircle
 62
7
  6
CONTINUOUS
 10
6.8011594655
 20
3.5530938896
 40
0.0198966871
100
AcDbArc
 50
89.9238451632
 51
179.0054214485
  0
ARC
  5
29D
100
AcDbEntity
  8
0
100
AcDbCircle
 62
7
  6
CONTINUOUS
 10
-1.8725819102
 20
5.659019405
 40
5.6391210588
100
AcDbArc
 50
12.1247884082
 51
15.1444783752
  0
ARC
  5
29E
100
AcDbEntity
  8
0
100
AcDbCircle
 62
7
  6
CONTINUOUS
 10
3.0064733301
 20
5.3710869968
 40
0.0199036971
100
AcDbArc
 50
89.9522329445
 51
169.2647358273
  0
ARC
  5
29F
100
AcDbEntity
  8
0
100
AcDbCircle
 62
7
  6
CONTINUOUS
 10
3.0090806806
 20
5.6070083979
 40
0.0198963533
100
AcDbArc
 50
180.5867282421
 51
270.0776303618
  0
ARC
  5
2A0
100
AcDbEntity
  8
0
100
AcDbCircle
 62
7
  6
CONTINUOUS
 10
-3.7177168869
 20
7.6557441835
 40
9.9095744122
100
AcDbArc
 50
348.089819699
 51
356.1144994844
  0
ARC
  5
2A1
100
AcDbEntity
  8
0
100
AcDbCircle
 62
7
  6
CONTINUOUS
 10
1.9407298137
 20
7.4460908385
 40
0.08
100
AcDbArc
 50
90.0
 51
180.0
  0
ARC
  5
2A2
100
AcDbEntity
  8
0
100
AcDbCircle
 62
7
  6
CONTINUOUS
 10
2.9018629555
 20
7.1379621806
 40
0.0199108456
100
AcDbArc
 50
27.1660127866
 51
90.0223161855
  0
ARC
  5
2A3
100
AcDbEntity
  8
0
100
AcDbCircle
 62
7
  6
CONTINUOUS
 10
2.2434344283
 20
6.8206367877
 40
0.0199100327
100
AcDbArc
 50
179.9757674448
 51
244.489662667
  0
ARC
  5
2A4
100
AcDbEntity
  8
0
100
AcDbCircle
 62
7
  6
CONTINUOUS
 10
2.4925574062
 20
7.1404741835
 40
0.0198981747
100
AcDbArc
 50
2.8722168206
 51
90.0697079592
  0
ARC
  5
2A5
100
AcDbEntity
  8
0
100
AcDbCircle
 62
7
  6
CONTINUOUS
 10
3.4586209945
 20
5.0544775034
 40
4.3211289148
100
AcDbArc
 50
328.6745156367
 51
335.4023472301
  0
ARC
  5
2A6
100
AcDbEntity
  8
0
100
AcDbCircle
 62
7
  6
CONTINUOUS
 10
7.3168329114
 20
5.8366825068
 40
2.9881758929
100
AcDbArc
 50
173.2371047895
 51
184.4240058407
  0
ARC
  5
2A7
100
AcDbEntity
  8
0
100
AcDbCircle
 62
7
  6
CONTINUOUS
 10
7.9183960338
 20
5.2102071749
 40
2.5604973092
100
AcDbArc
 50
176.4258923169
 51
185.17400047
  0
ARC
  5
2A8
100
AcDbEntity
  8
0
100
AcDbCircle
 62
7
  6
CONTINUOUS
 10
9.8102025831
 20
5.5255873957
 40
2.5491260743
100
AcDbArc
 50
183.5026873024
 51
195.2146461302
  0
ARC
  5
2A9
100
AcDbEntity
  8
0
100
AcDbCircle
 62
7
  6
CONTINUOUS
 10
9.1042298137
 20
5.3861330283
 40
2.4252
100
AcDbArc
 50
168.3570790158
 51
174.7429420716
  0
ARC
  5
2AA
100
AcDbEntity
  8
0
100
AcDbCircle
 62
7
  6
CONTINUOUS
 10
5.9626298137
 20
5.5733908385
 40
0.8604
100
AcDbArc
 50
2.2586614336
 51
20.7778383807
  0
ARC
  5
2AB
100
AcDbEntity
  8
0
100
AcDbCircle
 62
7
  6
CONTINUOUS
 10
5.532470784
 20
5.3710834041
 40
0.0199073373
100
AcDbArc
 50
89.9649171016
 51
163.0805745642
  0
ARC
  5
2AC
100
AcDbEntity
  8
0
100
AcDbCircle
 62
7
  6
CONTINUOUS
 10
5.1082815699
 20
5.6064963465
 40
0.0199053867
100
AcDbArc
 50
269.958302719
 51
346.5109327278
  0
ARC
  5
2AD
100
AcDbEntity
  8
0
100
AcDbCircle
 62
7
  6
CONTINUOUS
 10
5.7441363782
 20
5.6052961323
 40
0.0199051696
100
AcDbArc
 50
269.9575415108
 51
346.8739745226
  0
ARC
  5
2AE
100
AcDbEntity
  8
0
100
AcDbCircle
 62
7
  6
CONTINUOUS
 10
3.3809415865
 20
5.6072365834
 40
0.019903093
100
AcDbArc
 50
189.7968102273
 51
270.0500105731
  0
ARC
  5
2AF
100
AcDbEntity
  8
0
100
AcDbCircle
 62
7
  6
CONTINUOUS
 10
7.0919751458
 20
5.606493886
 40
0.0199028912
100
AcDbArc
 50
269.9492237813
 51
350.5203274081
  0
ARC
  5
2B0
100
AcDbEntity
  8
0
100
AcDbCircle
 62
7
  6
CONTINUOUS
 10
3.7231843809
 20
5.6073736244
 40
0.0199025245
100
AcDbArc
 50
188.9296011746
 51
270.0521606268
  0
ARC
  5
2B1
100
AcDbEntity
  8
0
100
AcDbCircle
 62
7
  6
CONTINUOUS
 10
6.1759861589
 20
5.6064934537
 40
0.0199024523
100
AcDbArc
 50
269.9475657732
 51
351.1772444343
  0
ARC
  5
2B2
100
AcDbEntity
  8
0
100
AcDbCircle
 62
7
  6
CONTINUOUS
 10
4.7825271695
 20
5.6064925981
 40
0.0199015833
100
AcDbArc
 50
269.9442064258
 51
352.4640391528
  0
ARC
  5
2B3
100
AcDbEntity
  8
0
100
AcDbCircle
 62
7
  6
CONTINUOUS
 10
6.4898075568
 20
5.6064923918
 40
0.0199013737
100
AcDbArc
 50
269.9433898226
 51
352.7626764554
  0
ARC
  5
2B4
100
AcDbEntity
  8
0
100
AcDbCircle
 62
7
  6
CONTINUOUS
 10
4.9337298693
 20
5.3710896973
 40
0.0199009549
100
AcDbArc
 50
89.9417278908
 51
173.3693681232
  0
ARC
  5
2B5
100
AcDbEntity
  8
0
100
AcDbCircle
 62
7
  6
CONTINUOUS
 10
5.963049895
 20
5.371090583
 40
0.0199000542
100
AcDbArc
 50
89.9381122251
 51
174.6242480483
  0
ARC
  5
2B6
100
AcDbEntity
  8
0
100
AcDbCircle
 62
7
  6
CONTINUOUS
 10
4.3390761168
 20
5.3710907893
 40
0.0198998445
100
AcDbArc
 50
89.9372584101
 51
174.9106323368
  0
ARC
  5
2B7
100
AcDbEntity
  8
0
100
AcDbCircle
 62
7
  6
CONTINUOUS
 10
5.3718724323
 20
5.6064906663
 40
0.0198996192
100
AcDbArc
 50
269.9363363995
 51
355.2160720322
  0
ARC
  5
2B8
100
AcDbEntity
  8
0
100
AcDbCircle
 62
7
  6
CONTINUOUS
 10
3.8379265761
 20
5.6073705088
 40
0.0198993575
100
AcDbArc
 50
269.9352529969
 51
355.5731193442
  0
ARC
  5
2B9
100
AcDbEntity
  8
0
100
AcDbCircle
 62
7
  6
CONTINUOUS
 10
4.3573985782
 20
5.6076903447
 40
0.0198992921
100
AcDbArc
 50
184.341409694
 51
270.0650157437
  0
ARC
  5
2BA
100
AcDbEntity
  8
0
100
AcDbCircle
 62
7
  6
CONTINUOUS
 10
3.7493854478
 20
5.3710914891
 40
0.0198991323
100
AcDbArc
 50
89.9343181816
 51
175.8748841023
  0
ARC
  5
2BB
100
AcDbEntity
  8
0
100
AcDbCircle
 62
7
  6
CONTINUOUS
 10
6.4650322213
 20
5.3710924884
 40
0.0198981151
100
AcDbArc
 50
2.802797844
 51
90.06995319
  0
ARC
  5
2BC
100
AcDbEntity
  8
0
100
AcDbCircle
 62
7
  6
CONTINUOUS
 10
5.2589907588
 20
5.6064891473
 40
0.0198980729
100
AcDbArc
 50
182.74652889
 51
270.0701353163
  0
ARC
  5
2BD
100
AcDbEntity
  8
0
100
AcDbCircle
 62
7
  6
CONTINUOUS
 10
6.7018573213
 20
5.371092571
 40
0.0198980308
100
AcDbArc
 50
89.9296747899
 51
177.3162020385
  0
ARC
  5
2BE
100
AcDbEntity
  8
0
100
AcDbCircle
 62
7
  6
CONTINUOUS
 10
4.0089015634
 20
5.6064889485
 40
0.0198978704
100
AcDbArc
 50
182.4797509999
 51
270.0710099514
  0
ARC
  5
2BF
100
AcDbEntity
  8
0
100
AcDbCircle
 62
7
  6
CONTINUOUS
 10
4.493142376
 20
5.3710927543
 40
0.019897844
100
AcDbArc
 50
2.4439110342
 51
90.0711256116
  0
ARC
  5
2C0
100
AcDbEntity
  8
0
100
AcDbCircle
 62
7
  6
CONTINUOUS
 10
7.272686321
 20
5.6064888438
 40
0.0198977638
100
AcDbArc
 50
182.3547624804
 51
270.0714541106
  0
ARC
  5
2C1
100
AcDbEntity
  8
0
100
AcDbCircle
 62
7
  6
CONTINUOUS
 10
4.12874588
 20
5.3710928928
 40
0.019897703
100
AcDbArc
 50
2.2678824601
 51
90.0717271786
  0
ARC
  5
2C2
100
AcDbEntity
  8
0
100
AcDbCircle
 62
7
  6
CONTINUOUS
 10
4.4796406166
 20
5.6076887441
 40
0.0198976621
100
AcDbArc
 50
269.9280898768
 51
357.78959893
  0
ARC
  5
2C3
100
AcDbEntity
  8
0
100
AcDbCircle
 62
7
  6
CONTINUOUS
 10
3.5129524246
 20
5.3710930175
 40
0.019897576
100
AcDbArc
 50
2.110139529
 51
90.0722705547
  0
ARC
  5
2C4
100
AcDbEntity
  8
0
100
AcDbCircle
 62
7
  6
CONTINUOUS
 10
7.099194455
 20
5.3710931106
 40
0.0198974811
100
AcDbArc
 50
1.9848005929
 51
90.0726871894
  0
ARC
  5
2C5
100
AcDbEntity
  8
0
100
AcDbCircle
 62
7
  6
CONTINUOUS
 10
4.6761911788
 20
5.6064885152
 40
0.0198974288
100
AcDbArc
 50
181.9167845889
 51
270.0729161206
  0
ARC
  5
2C6
100
AcDbEntity
  8
0
100
AcDbCircle
 62
7
  6
CONTINUOUS
 10
5.2618062297
 20
5.3710937761
 40
0.0198968036
100
AcDbArc
 50
89.9244318707
 51
178.8037307989
  0
ARC
  5
2C7
100
AcDbEntity
  8
0
100
AcDbCircle
 62
7
  6
CONTINUOUS
 10
3.8357511131
 20
5.3710938517
 40
0.0198967258
100
AcDbArc
 50
1.0462947071
 51
90.0759795051
  0
ARC
  5
2C8
100
AcDbEntity
  8
0
100
AcDbCircle
 62
7
  6
CONTINUOUS
 10
6.9856101638
 20
5.6064875727
 40
0.0198964683
100
AcDbArc
 50
180.7312921582
 51
270.0771149304
  0
ARC
  5
2C9
100
AcDbEntity
  8
0
100
AcDbCircle
 62
7
  6
CONTINUOUS
 10
6.8149548111
 20
5.3710944569
 40
0.0198961086
100
AcDbArc
 50
0.2876106987
 51
90.0787226008
  0
ARC
  5
2CA
100
AcDbEntity
  8
0
100
AcDbCircle
 62
7
  6
CONTINUOUS
 10
3.1142176764
 20
5.3710946828
 40
0.0198958783
100
AcDbArc
 50
0.0145148431
 51
90.0797476639
  0
ARC
  5
2CB
100
AcDbEntity
  8
0
100
AcDbCircle
 62
7
  6
CONTINUOUS
 10
7.6757298137
 20
7.4460908385
 40
0.08
100
AcDbArc
 50
0.0
 51
90.0
  0
ARC
  5
2CC
100
AcDbEntity
  8
0
100
AcDbCircle
 62
7
  6
CONTINUOUS
 10
5.6575533543
 20
7.1362817824
 40
0.0199085657
100
AcDbArc
 50
89.971611765
 51
157.4823871373
  0
ARC
  5
2CD
100
AcDbEntity
  8
0
100
AcDbCircle
 62
7
  6
CONTINUOUS
 10
5.0059231107
 20
7.1386826496
 40
0.0199081005
100
AcDbArc
 50
89.9673689295
 51
161.6865820236
  0
ARC
  5
2CE
100
AcDbEntity
  8
0
100
AcDbCircle
 62
7
  6
CONTINUOUS
 10
3.3552387956
 20
7.1389527931
 40
0.0199079245
100
AcDbArc
 50
21.234274758
 51
90.0305138083
  0
ARC
  5
2CF
100
AcDbEntity
  8
0
100
AcDbCircle
 62
7
  6
CONTINUOUS
 10
6.5111440043
 20
7.1386849562
 40
0.0199057659
100
AcDbArc
 50
14.1360780819
 51
90.0403762134
  0
ARC
  5
2D0
100
AcDbEntity
  8
0
100
AcDbCircle
 62
7
  6
CONTINUOUS
 10
5.8835250196
 20
7.1362875105
 40
0.0199031759
100
AcDbArc
 50
9.9238192937
 51
90.0497008356
  0
ARC
  5
2D1
100
AcDbEntity
  8
0
100
AcDbCircle
 62
7
  6
CONTINUOUS
 10
4.4767625274
 20
7.1386896634
 40
0.0199009893
100
AcDbArc
 50
89.9418700536
 51
173.3150761131
  0
ARC
  5
2D2
100
AcDbEntity
  8
0
100
AcDbCircle
 62
7
  6
CONTINUOUS
 10
4.224651054
 20
7.1374914655
 40
0.0198991565
100
AcDbArc
 50
4.1595340817
 51
90.0655791388
  0
ARC
  5
2D3
100
AcDbEntity
  8
0
100
AcDbCircle
 62
7
  6
CONTINUOUS
 10
7.1519431321
 20
7.1386935472
 40
0.0198970361
100
AcDbArc
 50
89.9253742289
 51
178.5755429856
  0
ARC
  5
2D4
100
AcDbEntity
  8
0
100
AcDbCircle
 62
7
  6
CONTINUOUS
 10
40.1444929189
 20
6.6718862433
 40
33.9193854586
100
AcDbArc
 50
183.0756661392
 51
184.8772415162
  0
SPLINE
  5
2D5
100
AcDbEntity
  8
0
100
AcDbSpline
 62
7
  6
CONTINUOUS
 70
0
 71
3
 72
18
 73
14
 74
0
 42
0.0000001
 43
0.0000001
 44
0.0000000001
 40
0.0
 40
0.0
 40
0.0
 40
0.0
 40
0.0632877201
 40
0.1259935793
 40
0.1883375468
 40
0.2504970909
 40
0.312608558
 40
0.3747696142
 40
0.4994393417
 40
0.6246705604
 40
0.7502124231
 40
0.8755469663
 40
1.0
 40
1.0
 40
1.0
 40
1.0
 10
6.2078734775
 20
6.9891593253
 30
0.0
 10
6.2171655255
 20
6.9611243951
 30
0.0
 10
6.2339425331
 20
6.9047258378
 30
0.0
 10
6.2539799164
 20
6.8191011973
 30
0.0
 10
6.269129172
 20
6.733015548
 30
0.0
 10
6.2797747256
 20
6.6465447409
 30
0.0
 10
6.2863021947
 20
6.5597567739
 30
0.0
 10
6.2900304933
 20
6.4436122175
 30
0.0
 10
6.2862904456
 20
6.29790149
 30
0.0
 10
6.2714799874
 20
6.1232526696
 30
0.0
 10
6.2494027394
 20
5.949094762
 30
0.0
 10
6.2230837718
 20
5.7759209422
 30
0.0
 10
6.2046138566
 20
5.6608243913
 30
0.0
 10
6.1956532855
 20
5.603440823
 30
0.0
  0
SPLINE
  5
2D6
100
AcDbEntity
  8
0
100
AcDbSpline
 62
7
  6
CONTINUOUS
 70
0
 71
3
 72
25
 73
21
 74
0
 42
0.0000001
 43
0.0000001
 44
0.0000000001
 40
0.0
 40
0.0
 40
0.0
 40
0.0
 40
0.0320374775
 40
0.0633787762
 40
0.0943233567
 40
0.1251112915
 40
0.1559214128
 40
0.186873541
 40
0.2180335527
 40
0.249419975
 40
0.3127384166
 40
0.3763103831
 40
0.4394500779
 40
0.5021465443
 40
0.5645440509
 40
0.6267467257
 40
0.7508617444
 40
0.8750225114
 40
0.9373414126
 40
1.0
 40
1.0
 40
1.0
 40
1.0
 10
5.6391620902
 20
7.1439063178
 30
0.0
 10
5.6357674871
 20
7.1357296915
 30
0.0
 10
5.629861283
 20
7.1192037931
 30
0.0
 10
5.6235720262
 20
7.0938678276
 30
0.0
 10
5.6197715375
 20
7.068392667
 30
0.0
 10
5.618252723
 20
7.0428338052
 30
0.0
 10
5.61880686
 20
7.0172391697
 30
0.0
 10
5.6212270543
 20
6.9916551992
 30
0.0
 10
5.625308006
 20
6.9661261651
 30
0.0
 10
5.6327137514
 20
6.9321269837
 30
0.0
 10
5.6450923963
 20
6.890118544
 30
0.0
 10
5.6632752658
 20
6.8408321517
 30
0.0
 10
5.6834097738
 20
6.7925059484
 30
0.0
 10
5.705025757
 20
6.7451847302
 30
0.0
 10
5.7277259945
 20
6.6986664895
 30
0.0
 10
5.7589187751
 20
6.6374195847
 30
0.0
 10
5.7988269218
 20
6.5614714441
 30
0.0
 10
5.8374077961
 20
6.484777169
 30
0.0
 10
5.8659258436
 20
6.4221030985
 30
0.0
 10
5.8791450933
 20
6.3901856759
 30
0.0
 10
5.8854321513
 20
6.374052246
 30
0.0
  0
SPLINE
  5
2D7
100
AcDbEntity
  8
0
100
AcDbSpline
 62
7
  6
CONTINUOUS
 70
0
 71
3
 72
19
 73
15
 74
0
 42
0.0000001
 43
0.0000001
 44
0.0000000001
 40
0.0
 40
0.0
 40
0.0
 40
0.0
 40
0.0627731555
 40
0.1253040896
 40
0.1876772663
 40
0.2499636432
 40
0.3122210384
 40
0.374500447
 40
0.4368473998
 40
0.4992879487
 40
0.6244519289
 40
0.7498720236
 40
0.8752121402
 40
1.0
 40
1.0
 40
1.0
 40
1.0
 10
5.9233173282
 20
6.3764228744
 30
0.0
 10
5.9272491967
 20
6.3920417646
 30
0.0
 10
5.9343876854
 20
6.423402723
 30
0.0
 10
5.9429868513
 20
6.4707971422
 30
0.0
 10
5.9495337135
 20
6.5183921907
 30
0.0
 10
5.9541105566
 20
6.5661450096
 30
0.0
 10
5.956795308
 20
6.6140164273
 30
0.0
 10
5.9576844073
 20
6.6619685976
 30
0.0
 10
5.9569444118
 20
6.7099685053
 30
0.0
 10
5.9539935813
 20
6.7740408205
 30
0.0
 10
5.9470218151
 20
6.8540878291
 30
0.0
 10
5.9346994974
 20
6.9497688128
 30
0.0
 10
5.9196827074
 20
7.0449566208
 30
0.0
 10
5.9086758123
 20
7.1081837037
 30
0.0
 10
5.9031305567
 20
7.1397176239
 30
0.0
  0
SPLINE
  5
2D8
100
AcDbEntity
  8
0
100
AcDbSpline
 62
7
  6
CONTINUOUS
 70
0
 71
3
 72
18
 73
14
 74
0
 42
0.0000001
 43
0.0000001
 44
0.0000000001
 40
0.0
 40
0.0
 40
0.0
 40
0.0
 40
0.0633068406
 40
0.1261575072
 40
0.1887016615
 40
0.2510629685
 40
0.3133397865
 40
0.3756063199
 40
0.5002489346
 40
0.6252140005
 40
0.7503984529
 40
0.8754852276
 40
1.0
 40
1.0
 40
1.0
 40
1.0
 10
5.6151137644
 20
6.5262738071
 30
0.0
 10
5.6269160183
 20
6.5096690917
 30
0.0
 10
5.6493368083
 20
6.4757827585
 30
0.0
 10
5.6794693242
 20
6.4230170445
 30
0.0
 10
5.7060392213
 20
6.3687088619
 30
0.0
 10
5.7291257028
 20
6.3130347977
 30
0.0
 10
5.7488110281
 20
6.2561646117
 30
0.0
 10
5.7706346179
 20
6.1789667285
 30
0.0
 10
5.7898268059
 20
6.0802426719
 30
0.0
 10
5.800514303
 20
5.9599172846
 30
0.0
 10
5.7995499534
 20
5.8389918965
 30
0.0
 10
5.7875886977
 20
5.7188296118
 30
0.0
 10
5.7726497499
 20
5.6397903066
 30
0.0
 10
5.76352161
 20
5.6007757644
 30
0.0
  0
SPLINE
  5
2D9
100
AcDbEntity
  8
0
100
AcDbSpline
 62
7
  6
CONTINUOUS
 70
0
 71
3
 72
15
 73
11
 74
0
 42
0.0000001
 43
0.0000001
 44
0.0000000001
 40
0.0
 40
0.0
 40
0.0
 40
0.0
 40
0.1253094503
 40
0.2501156742
 40
0.3746252664
 40
0.4990462989
 40
0.6235872879
 40
0.7484561482
 40
0.8738591644
 40
1.0
 40
1.0
 40
1.0
 40
1.0
 10
5.5672953449
 20
5.6088037086
 30
0.0
 10
5.5739297145
 20
5.6461040457
 30
0.0
 10
5.5856814901
 20
5.7208292398
 30
0.0
 10
5.5987280178
 20
5.833368628
 30
0.0
 10
5.6071495822
 20
5.9460810384
 30
0.0
 10
5.6109455861
 20
6.0589632326
 30
0.0
 10
5.6101161407
 20
6.1720147246
 30
0.0
 10
5.6046612581
 20
6.2852350209
 30
0.0
 10
5.5945815637
 20
6.3986209729
 30
0.0
 10
5.5848118231
 20
6.4740659476
 30
0.0
 10
5.5791694477
 20
6.5117833525
 30
0.0
  0
SPLINE
  5
2DA
100
AcDbEntity
  8
0
100
AcDbSpline
 62
7
  6
CONTINUOUS
 70
0
 71
3
 72
47
 73
43
 74
0
 42
0.0000001
 43
0.0000001
 44
0.0000000001
 40
0.0
 40
0.0
 40
0.0
 40
0.0
 40
0.0164695129
 40
0.0325292083
 40
0.0482719301
 40
0.0637824284
 40
0.0791361715
 40
0.0943985506
 40
0.1096245073
 40
0.1248585613
 40
0.1554721821
 40
0.1864167588
 40
0.2177358812
 40
0.2493794265
 40
0.2652888378
 40
0.281232173
 40
0.2971889856
 40
0.3131420322
 40
0.3290845092
 40
0.3450112331
 40
0.3767969341
 40
0.4084602778
 40
0.4399681947
 40
0.4712970075
 40
0.5024362049
 40
0.5333923884
 40
0.5641933415
 40
0.5948920865
 40
0.6102291013
 40
0.6255739731
 40
0.6409417178
 40
0.6563448437
 40
0.6872839158
 40
0.718424135
 40
0.7497563525
 40
0.7812414636
 40
0.8128187228
 40
0.8759449006
 40
0.9073325865
 40
0.938504502
 40
0.96940437
 40
1.0
 40
1.0
 40
1.0
 40
1.0
 10
4.9870232303
 20
7.1449380981
 30
0.0
 10
4.9842695244
 20
7.1366340847
 30
0.0
 10
4.9793785055
 20
7.1200445539
 30
0.0
 10
4.9738166599
 20
7.0949934584
 30
0.0
 10
4.9700331162
 20
7.0701278883
 30
0.0
 10
4.9679256816
 20
7.0454426308
 30
0.0
 10
4.967391102
 20
7.0209301166
 30
0.0
 10
4.968325964
 20
6.9965827634
 30
0.0
 10
4.9706269979
 20
6.9723917622
 30
0.0
 10
4.9753852636
 20
6.9402875228
 30
0.0
 10
4.9842681515
 20
6.9004146515
 30
0.0
 10
4.998716526
 20
6.8532030172
 30
0.0
 10
5.0161471799
 20
6.8064400738
 30
0.0
 10
5.0324532273
 20
6.7678372055
 30
0.0
 10
5.0462018267
 20
6.7370365923
 30
0.0
 10
5.0567775722
 20
6.7139462973
 30
0.0
 10
5.0674964849
 20
6.6908968818
 30
0.0
 10
5.0782682998
 20
6.6678726676
 30
0.0
 10
5.0890560838
 20
6.6448735926
 30
0.0
 10
5.103398803
 20
6.6142523816
 30
0.0
 10
5.1211683014
 20
6.576014422
 30
0.0
 10
5.1419656448
 20
6.5300582829
 30
0.0
 10
5.1619216941
 20
6.4839931897
 30
0.0
 10
5.1807358999
 20
6.4377479677
 30
0.0
 10
5.1981071407
 20
6.39125115
 30
0.0
 10
5.2137335546
 20
6.3444305063
 30
0.0
 10
5.2273118135
 20
6.297214971
 30
0.0
 10
5.2366698931
 20
6.2574650078
 30
0.0
 10
5.2428175995
 20
6.2254402412
 30
0.0
 10
5.2467275051
 20
6.2012890414
 30
0.0
 10
5.2498893532
 20
6.1769930529
 30
0.0
 10
5.2531533674
 20
6.144371345
 30
0.0
 10
5.255588971
 20
6.1032657316
 30
0.0
 10
5.2563287851
 20
6.0536385583
 30
0.0
 10
5.2553411483
 20
6.0037300398
 30
0.0
 10
5.253072728
 20
5.9536349775
 30
0.0
 10
5.2489361036
 20
5.8867293118
 30
0.0
 10
5.244024772
 20
5.8199281721
 30
0.0
 10
5.2400966831
 20
5.753276859
 30
0.0
 10
5.2380999143
 20
5.703666311
 30
0.0
 10
5.2374924856
 20
5.6544369748
 30
0.0
 10
5.2383166481
 20
5.6217685841
 30
0.0
 10
5.2391152926
 20
5.605535667
 30
0.0
  0
SPLINE
  5
2DB
100
AcDbEntity
  8
0
100
AcDbSpline
 62
7
  6
CONTINUOUS
 70
0
 71
3
 72
38
 73
34
 74
0
 42
0.0000001
 43
0.0000001
 44
0.0000000001
 40
0.0
 40
0.0
 40
0.0
 40
0.0
 40
0.0620324354
 40
0.1245791347
 40
0.1873897731
 40
0.2502039774
 40
0.2815453409
 40
0.3128184966
 40
0.3440168165
 40
0.3751453602
 40
0.3906894579
 40
0.406224511
 40
0.4217554266
 40
0.4372880995
 40
0.4683787482
 40
0.4995317647
 40
0.5307673571
 40
0.5620938899
 40
0.5935095434
 40
0.6092479897
 40
0.6250041864
 40
0.6565508171
 40
0.6880949898
 40
0.719575975
 40
0.7509384559
 40
0.7821414174
 40
0.8131674065
 40
0.8440322199
 40
0.8747948262
 40
0.9055669547
 40
0.9365213059
 40
0.9678969056
 40
1.0
 40
1.0
 40
1.0
 40
1.0
 10
5.3917029472
 20
5.6048310532
 30
0.0
 10
5.3944055081
 20
5.6366975765
 30
0.0
 10
5.4011353146
 20
5.7005840125
 30
0.0
 10
5.4132970961
 20
5.796424709
 30
0.0
 10
5.4257790772
 20
5.8926298112
 30
0.0
 10
5.4349563094
 20
5.9730417845
 30
0.0
 10
5.4406564445
 20
6.0374590713
 30
0.0
 10
5.4438773033
 20
6.0857217442
 30
0.0
 10
5.445819812
 20
6.1339446049
 30
0.0
 10
5.4461838467
 20
6.1740979171
 30
0.0
 10
5.4456069052
 20
6.2061656275
 30
0.0
 10
5.4447137725
 20
6.2301805397
 30
0.0
 10
5.4433265017
 20
6.2541662641
 30
0.0
 10
5.4408122145
 20
6.2861130939
 30
0.0
 10
5.4364952803
 20
6.3259879755
 30
0.0
 10
5.4296356174
 20
6.3736990565
 30
0.0
 10
5.421293303
 20
6.4212951494
 30
0.0
 10
5.411665027
 20
6.4687840454
 30
0.0
 10
5.4027387518
 20
6.508250942
 30
0.0
 10
5.3951514138
 20
6.5397847683
 30
0.0
 10
5.3872879413
 20
6.5713205638
 30
0.0
 10
5.377057731
 20
6.6106625177
 30
0.0
 10
5.3646185181
 20
6.6578054585
 30
0.0
 10
5.3524817681
 20
6.7049301887
 30
0.0
 10
5.3411211676
 20
6.7520695857
 30
0.0
 10
5.3310103877
 20
6.799257045
 30
0.0
 10
5.3226250449
 20
6.8465267647
 30
0.0
 10
5.3164432971
 20
6.8939134631
 30
0.0
 10
5.3129469542
 20
6.9414517404
 30
0.0
 10
5.3126219451
 20
6.9891738807
 30
0.0
 10
5.315958724
 20
7.0371097508
 30
0.0
 10
5.3234478693
 20
7.0852759357
 30
0.0
 10
5.3314178027
 20
7.1170755371
 30
0.0
 10
5.3361885641
 20
7.1329238437
 30
0.0
  0
SPLINE
  5
2DC
100
AcDbEntity
  8
0
100
AcDbSpline
 62
7
  6
CONTINUOUS
 70
0
 71
3
 72
17
 73
13
 74
0
 42
0.0000001
 43
0.0000001
 44
0.0000000001
 40
0.0
 40
0.0
 40
0.0
 40
0.0
 40
0.1241217922
 40
0.2495570348
 40
0.3754946204
 40
0.5012971408
 40
0.626557263
 40
0.7511635354
 40
0.8133109448
 40
0.8754266006
 40
0.9376120595
 40
1.0
 40
1.0
 40
1.0
 40
1.0
 10
4.943251945
 20
6.5610684535
 30
0.0
 10
4.9639870552
 20
6.5252675587
 30
0.0
 10
5.0031828033
 20
6.4518074504
 30
0.0
 10
5.0540467736
 20
6.337329473
 30
0.0
 10
5.0961764115
 20
6.2187366949
 30
0.0
 10
5.1282841556
 20
6.0970807722
 30
0.0
 10
5.1490756675
 20
5.9734132581
 30
0.0
 10
5.1558774138
 20
5.8694169378
 30
0.0
 10
5.1543214524
 20
5.786439547
 30
0.0
 10
5.1495076591
 20
5.7244402058
 30
0.0
 10
5.1408831693
 20
5.662775156
 30
0.0
 10
5.1325033432
 20
5.6220710607
 30
0.0
 10
5.1276379785
 20
5.6018531901
 30
0.0
  0
SPLINE
  5
2DD
100
AcDbEntity
  8
0
100
AcDbSpline
 62
7
  6
CONTINUOUS
 70
0
 71
3
 72
29
 73
25
 74
0
 42
0.0000001
 43
0.0000001
 44
0.0000000001
 40
0.0
 40
0.0
 40
0.0
 40
0.0
 40
0.0314133965
 40
0.0625281866
 40
0.093471335
 40
0.124346078
 40
0.1861736261
 40
0.248423836
 40
0.3112027552
 40
0.3427648151
 40
0.3744057017
 40
0.4060903994
 40
0.4377789664
 40
0.4694284126
 40
0.5009992405
 40
0.5324844401
 40
0.5638908405
 40
0.6264957801
 40
0.688874699
 40
0.7510941673
 40
0.8132282523
 40
0.8753599199
 40
0.9375823322
 40
1.0
 40
1.0
 40
1.0
 40
1.0
 10
4.9656662766
 20
5.6129088904
 30
0.0
 10
4.9688452821
 20
5.6222906373
 30
0.0
 10
4.9745661236
 20
5.6411765653
 30
0.0
 10
4.9813353285
 20
5.6698808947
 30
0.0
 10
4.98637847
 20
5.6987650236
 30
0.0
 10
4.9909877665
 20
5.7374973028
 30
0.0
 10
4.9931253884
 20
5.7863868197
 30
0.0
 10
4.9909850355
 20
5.8453146051
 30
0.0
 10
4.9862251437
 20
5.894485384
 30
0.0
 10
4.9811743494
 20
5.933890414
 30
0.0
 10
4.9768908205
 20
5.9635047373
 30
0.0
 10
4.972255204
 20
5.993105534
 30
0.0
 10
4.967404172
 20
6.0226742875
 30
0.0
 10
4.9624712021
 20
6.0521929354
 30
0.0
 10
4.9575991209
 20
6.0816567364
 30
0.0
 10
4.9528261541
 20
6.1110591449
 30
0.0
 10
4.9466227193
 20
6.1501433111
 30
0.0
 10
4.9392036912
 20
6.1988981011
 30
0.0
 10
4.9309881151
 20
6.2573568308
 30
0.0
 10
4.9236254192
 20
6.3157802685
 30
0.0
 10
4.9172712304
 20
6.3742444628
 30
0.0
 10
4.9120813633
 20
6.4328256346
 30
0.0
 10
4.9082117459
 20
6.4915991516
 30
0.0
 10
4.9066196621
 20
6.530875681
 30
0.0
 10
4.9060942501
 20
6.5505510918
 30
0.0
  0
SPLINE
  5
2DE
100
AcDbEntity
  8
0
100
AcDbSpline
 62
7
  6
CONTINUOUS
 70
0
 71
3
 72
39
 73
35
 74
0
 42
0.0000001
 43
0.0000001
 44
0.0000000001
 40
0.0
 40
0.0
 40
0.0
 40
0.0
 40
0.0629216329
 40
0.1251737783
 40
0.156214101
 40
0.1872825918
 40
0.2184149282
 40
0.249608546
 40
0.312145968
 40
0.3434691059
 40
0.3748106731
 40
0.4061558559
 40
0.4374935775
 40
0.4688190624
 40
0.5001277374
 40
0.562678358
 40
0.5939160424
 40
0.6251291249
 40
0.6563219179
 40
0.6875027001
 40
0.703092662
 40
0.7186849123
 40
0.7498827995
 40
0.7811047991
 40
0.8123528026
 40
0.8436241413
 40
0.8749124043
 40
0.8905600793
 40
0.906208287
 40
0.9218555346
 40
0.9374999297
 40
0.9531380972
 40
0.9687672345
 40
1.0
 40
1.0
 40
1.0
 40
1.0
 10
7.1320519727
 20
7.1391881725
 30
0.0
 10
7.1312061833
 20
7.1068690366
 30
0.0
 10
7.1306893658
 20
7.0425377976
 30
0.0
 10
7.1330403936
 20
6.9622874847
 30
0.0
 10
7.1366856696
 20
6.898489693
 30
0.0
 10
7.140297217
 20
6.8507144014
 30
0.0
 10
7.1447490996
 20
6.8029315088
 30
0.0
 10
7.1516840098
 20
6.7391484604
 30
0.0
 10
7.1599310275
 20
6.6754177162
 30
0.0
 10
7.1691366745
 20
6.6117484831
 30
0.0
 10
7.1764380513
 20
6.5639990768
 30
0.0
 10
7.1840480585
 20
6.5162906232
 30
0.0
 10
7.1918646286
 20
6.4686241103
 30
0.0
 10
7.1997491337
 20
6.4209878156
 30
0.0
 10
7.21017321
 20
6.3575162589
 30
0.0
 10
7.2202076247
 20
6.2940248612
 30
0.0
 10
7.2293206148
 20
6.2304455107
 30
0.0
 10
7.2355571451
 20
6.1827342046
 30
0.0
 10
7.2410653359
 20
6.1349621927
 30
0.0
 10
7.2449371888
 20
6.0950879589
 30
0.0
 10
7.2475376061
 20
6.063149916
 30
0.0
 10
7.2497814731
 20
6.0311759678
 30
0.0
 10
7.2519074755
 20
5.991145099
 30
0.0
 10
7.2535221744
 20
5.9430415671
 30
0.0
 10
7.2543384571
 20
5.8948807307
 30
0.0
 10
7.2544972456
 20
5.8466798899
 30
0.0
 10
7.2541982436
 20
5.8064961865
 30
0.0
 10
7.2537703795
 20
5.7743421983
 30
0.0
 10
7.253372311
 20
5.7502252766
 30
0.0
 10
7.2529158245
 20
5.7261110672
 30
0.0
 10
7.2524138918
 20
5.7020030343
 30
0.0
 10
7.2520005026
 20
5.6779021527
 30
0.0
 10
7.2517556139
 20
5.645789945
 30
0.0
 10
7.2521257632
 20
5.6217048368
 30
0.0
 10
7.2528051026
 20
5.605671298
 30
0.0
  0
SPLINE
  5
2DF
100
AcDbEntity
  8
0
100
AcDbSpline
 62
7
  6
CONTINUOUS
 70
0
 71
3
 72
26
 73
22
 74
0
 42
0.0000001
 43
0.0000001
 44
0.0000000001
 40
0.0
 40
0.0
 40
0.0
 40
0.0
 40
0.1247705563
 40
0.1873582327
 40
0.2499810714
 40
0.3125788869
 40
0.3751116519
 40
0.4375667185
 40
0.4687718439
 40
0.4999691857
 40
0.5311682821
 40
0.5623790065
 40
0.593605702
 40
0.6248475276
 40
0.6873561703
 40
0.7498506675
 40
0.8122876907
 40
0.8746829302
 40
0.9371585295
 40
0.9685100623
 40
1.0
 40
1.0
 40
1.0
 40
1.0
 10
6.7768697455
 20
7.1380615701
 30
0.0
 10
6.7788256312
 20
7.0737199486
 30
0.0
 10
6.7811084472
 20
6.9770845045
 30
0.0
 10
6.7852021514
 20
6.8481785052
 30
0.0
 10
6.7893870898
 20
6.7513720062
 30
0.0
 10
6.7952684049
 20
6.6546784616
 30
0.0
 10
6.8034314252
 20
6.5582337184
 30
0.0
 10
6.8126263554
 20
6.4781606481
 30
0.0
 10
6.8217095902
 20
6.4143846825
 30
0.0
 10
6.8294534024
 20
6.3667152291
 30
0.0
 10
6.8382193976
 20
6.3192204985
 30
0.0
 10
6.8478420859
 20
6.2718777988
 30
0.0
 10
6.8581255738
 20
6.2246525766
 30
0.0
 10
6.8724700274
 20
6.1617897428
 30
0.0
 10
6.8911045329
 20
6.0833633636
 30
0.0
 10
6.91308995
 20
5.9891907191
 30
0.0
 10
6.9331972438
 20
5.894647676
 30
0.0
 10
6.9499144797
 20
5.7994409727
 30
0.0
 10
6.9597361138
 20
5.7193888009
 30
0.0
 10
6.9643692783
 20
5.6548900714
 30
0.0
 10
6.9654858164
 20
5.6224782285
 30
0.0
 10
6.9657150321
 20
5.6062336283
 30
0.0
  0
SPLINE
  5
2E0
100
AcDbEntity
  8
0
100
AcDbSpline
 62
7
  6
CONTINUOUS
 70
0
 71
3
 72
31
 73
27
 74
0
 42
0.0000001
 43
0.0000001
 44
0.0000000001
 40
0.0
 40
0.0
 40
0.0
 40
0.0
 40
0.0322198397
 40
0.0639220577
 40
0.0952630972
 40
0.1263732944
 40
0.1573571662
 40
0.1882946898
 40
0.2502325924
 40
0.3124378035
 40
0.3749219001
 40
0.4062345592
 40
0.4375686028
 40
0.4689052315
 40
0.4845696669
 40
0.5002295924
 40
0.531533868
 40
0.5628172676
 40
0.5940798557
 40
0.625322401
 40
0.6877513007
 40
0.750127736
 40
0.812485825
 40
0.8748733491
 40
0.9373524168
 40
1.0
 40
1.0
 40
1.0
 40
1.0
 10
7.1116064068
 20
5.6032158989
 30
0.0
 10
7.1143756792
 20
5.6197105443
 30
0.0
 10
7.1188173681
 20
5.6526211874
 30
0.0
 10
7.1223705889
 20
5.7019735404
 30
0.0
 10
7.1230223411
 20
5.750871108
 30
0.0
 10
7.1210450441
 20
5.7993548419
 30
0.0
 10
7.116711089
 20
5.8474707719
 30
0.0
 10
7.1081509122
 20
5.9112114885
 30
0.0
 10
7.0928856723
 20
5.9903200351
 30
0.0
 10
7.0694973209
 20
6.0843577994
 30
0.0
 10
7.0475812089
 20
6.1623220746
 30
0.0
 10
7.029631487
 20
6.2247483566
 30
0.0
 10
7.016222478
 20
6.2716568893
 30
0.0
 10
7.0053238389
 20
6.3108341281
 30
0.0
 10
6.9969023831
 20
6.3422530211
 30
0.0
 10
6.9887311239
 20
6.3737205694
 30
0.0
 10
6.9790215811
 20
6.4131639885
 30
0.0
 10
6.9681911393
 20
6.4606654995
 30
0.0
 10
6.9582083204
 20
6.5083200168
 30
0.0
 10
6.9460616348
 20
6.5720292257
 30
0.0
 10
6.9331059461
 20
6.6520131365
 30
0.0
 10
6.9213092027
 20
6.7484772135
 30
0.0
 10
6.9134496166
 20
6.8453229307
 30
0.0
 10
6.909711075
 20
6.9424713256
 30
0.0
 10
6.9102771783
 20
7.039840587
 30
0.0
 10
6.9136414212
 20
7.1047355352
 30
0.0
 10
6.9160953837
 20
7.1371635206
 30
0.0
  0
SPLINE
  5
2E1
100
AcDbEntity
  8
0
100
AcDbSpline
 62
7
  6
CONTINUOUS
 70
0
 71
3
 72
27
 73
23
 74
0
 42
0.0000001
 43
0.0000001
 44
0.0000000001
 40
0.0
 40
0.0
 40
0.0
 40
0.0
 40
0.1250850201
 40
0.1876052626
 40
0.2501233193
 40
0.3126471027
 40
0.3751789292
 40
0.4377159449
 40
0.4689853482
 40
0.5002528304
 40
0.5315167705
 40
0.5627753035
 40
0.5940263327
 40
0.6252692709
 40
0.6565089447
 40
0.6877481206
 40
0.7189864019
 40
0.7502214329
 40
0.812669561
 40
0.8750794794
 40
0.9374839339
 40
1.0
 40
1.0
 40
1.0
 40
1.0
 10
6.3731573094
 20
7.1339598395
 30
0.0
 10
6.3883022711
 20
7.0716700914
 30
0.0
 10
6.4072705286
 20
6.9772810077
 30
0.0
 10
6.4252452653
 20
6.8503430244
 30
0.0
 10
6.4351435297
 20
6.7547063813
 30
0.0
 10
6.4415247272
 20
6.6587686454
 30
0.0
 10
6.4444574136
 20
6.562654627
 30
0.0
 10
6.4440836266
 20
6.4825165931
 30
0.0
 10
6.4421276814
 20
6.4184451311
 30
0.0
 10
6.4398405831
 20
6.3704254143
 30
0.0
 10
6.4367418291
 20
6.3224570041
 30
0.0
 10
6.432839654
 20
6.2745557521
 30
0.0
 10
6.428143005
 20
6.2267366019
 30
0.0
 10
6.4226573611
 20
6.1790117155
 30
0.0
 10
6.4165520496
 20
6.1313691377
 30
0.0
 10
6.4099989491
 20
6.0837890124
 30
0.0
 10
6.4031688349
 20
6.0362505953
 30
0.0
 10
6.3939217437
 20
5.9729013886
 30
0.0
 10
6.382525534
 20
5.8937208875
 30
0.0
 10
6.3704716565
 20
5.7985016255
 30
0.0
 10
6.3614101136
 20
5.7029051648
 30
0.0
 10
6.3582903443
 20
5.6389245692
 30
0.0
 10
6.3576842888
 20
5.606891621
 30
0.0
  0
SPLINE
  5
2E2
100
AcDbEntity
  8
0
100
AcDbSpline
 62
7
  6
CONTINUOUS
 70
0
 71
3
 72
30
 73
26
 74
0
 42
0.0000001
 43
0.0000001
 44
0.0000000001
 40
0.0
 40
0.0
 40
0.0
 40
0.0
 40
0.0623542125
 40
0.1248263769
 40
0.1874049966
 40
0.2499872866
 40
0.2812431227
 40
0.3124615598
 40
0.3436402513
 40
0.3592168141
 40
0.3747870757
 40
0.3903538439
 40
0.40592069
 40
0.4214905316
 40
0.4370654904
 40
0.4682369184
 40
0.4994473278
 40
0.5307038893
 40
0.5620098302
 40
0.6247602986
 40
0.687660741
 40
0.750620825
 40
0.81351074
 40
0.8761679022
 40
1.0
 40
1.0
 40
1.0
 40
1.0
 10
6.509550561
 20
5.6039852031
 30
0.0
 10
6.5136724889
 20
5.6361889552
 30
0.0
 10
6.5240301623
 20
5.7003936186
 30
0.0
 10
6.5438239791
 20
5.7959569015
 30
0.0
 10
6.5658682957
 20
5.8911360147
 30
0.0
 10
6.5844586058
 20
5.9704294324
 30
0.0
 10
6.5984656229
 20
6.0340209519
 30
0.0
 10
6.6082782921
 20
6.0817885981
 30
0.0
 10
6.6156742245
 20
6.1217122628
 30
0.0
 10
6.6209935842
 20
6.1537257077
 30
0.0
 10
6.6246521855
 20
6.1777725637
 30
0.0
 10
6.6279504737
 20
6.2018665522
 30
0.0
 10
6.6308529687
 20
6.2260112945
 30
0.0
 10
6.6333602316
 20
6.25020455
 30
0.0
 10
6.6361915498
 20
6.2825286058
 30
0.0
 10
6.6387907338
 20
6.323042558
 30
0.0
 10
6.6404762733
 20
6.3717753276
 30
0.0
 10
6.6408002489
 20
6.4206059918
 30
0.0
 10
6.6395106529
 20
6.4858472028
 30
0.0
 10
6.6348447705
 20
6.5674712059
 30
0.0
 10
6.6249463542
 20
6.6652031143
 30
0.0
 10
6.6113132727
 20
6.7625521609
 30
0.0
 10
6.5945127291
 20
6.8592704662
 30
0.0
 10
6.5687471249
 20
6.9865475389
 30
0.0
 10
6.546238019
 20
7.0810333873
 30
0.0
 10
6.5304471098
 20
7.1435464849
 30
0.0
  0
SPLINE
  5
2E3
100
AcDbEntity
  8
0
100
AcDbSpline
 62
7
  6
CONTINUOUS
 70
0
 71
3
 72
15
 73
11
 74
0
 42
0.0000001
 43
0.0000001
 44
0.0000000001
 40
0.0
 40
0.0
 40
0.0
 40
0.0
 40
0.1264675606
 40
0.2516936969
 40
0.3760832614
 40
0.5000493031
 40
0.624009105
 40
0.7483800127
 40
0.8735752606
 40
1.0
 40
1.0
 40
1.0
 40
1.0
 10
4.3874515228
 20
6.1942959229
 30
0.0
 10
4.3977467329
 20
6.1710435605
 30
0.0
 10
4.4169723916
 20
6.1241944882
 30
0.0
 10
4.4417028283
 20
6.0526900194
 30
0.0
 10
4.4621557544
 20
5.9803659002
 30
0.0
 10
4.4783286876
 20
5.9072269621
 30
0.0
 10
4.4902211815
 20
5.8332751159
 30
0.0
 10
4.4978329344
 20
5.7585123006
 30
0.0
 10
4.5011644632
 20
5.6829439298
 30
0.0
 10
4.5005360803
 20
5.6323221045
 30
0.0
 10
4.4995237324
 20
5.606921297
 30
0.0
  0
SPLINE
  5
2E4
100
AcDbEntity
  8
0
100
AcDbSpline
 62
7
  6
CONTINUOUS
 70
0
 71
3
 72
44
 73
40
 74
0
 42
0.0000001
 43
0.0000001
 44
0.0000000001
 40
0.0
 40
0.0
 40
0.0
 40
0.0
 40
0.0305407105
 40
0.061521208
 40
0.0928377073
 40
0.1243862634
 40
0.1877838408
 40
0.2194627763
 40
0.2510362982
 40
0.2824610226
 40
0.3137197378
 40
0.3292915198
 40
0.3448302459
 40
0.3603436351
 40
0.3758420869
 40
0.3835900322
 40
0.391339454
 40
0.4068505598
 40
0.4223892692
 40
0.4379619116
 40
0.4692051978
 40
0.484864754
 40
0.5005369796
 40
0.5162111208
 40
0.5318775577
 40
0.5475333336
 40
0.5631781584
 40
0.594434588
 40
0.6256494172
 40
0.6568291963
 40
0.6879852197
 40
0.719134031
 40
0.7502954297
 40
0.7814803012
 40
0.8126912468
 40
0.8439250306
 40
0.8751732794
 40
0.9376568172
 40
1.0
 40
1.0
 40
1.0
 40
1.0
 10
3.1882885463
 20
7.1320744856
 30
0.0
 10
3.193750904
 20
7.117187091
 30
0.0
 10
3.2049639336
 20
7.0872748766
 30
0.0
 10
3.222192349
 20
7.0422541483
 30
0.0
 10
3.2396161991
 20
6.9967472461
 30
0.0
 10
3.2626735547
 20
6.9353766138
 30
0.0
 10
3.2846353207
 20
6.8733835597
 30
0.0
 10
3.3042063352
 20
6.8105925016
 30
0.0
 10
3.3173108031
 20
6.7632003553
 30
0.0
 10
3.3284889422
 20
6.7155375539
 30
0.0
 10
3.3359110433
 20
6.6755684662
 30
0.0
 10
3.3405206208
 20
6.6435099998
 30
0.0
 10
3.3432682154
 20
6.6194537832
 30
0.0
 10
3.3452658084
 20
6.5953617154
 30
0.0
 10
3.346268008
 20
6.5752569495
 30
0.0
 10
3.3466505271
 20
6.5591665879
 30
0.0
 10
3.3467438351
 20
6.5430653068
 30
0.0
 10
3.3463283332
 20
6.5229196292
 30
0.0
 10
3.3451098197
 20
6.4987394089
 30
0.0
 10
3.3426866797
 20
6.4664507398
 30
0.0
 10
3.3393216196
 20
6.4341807388
 30
0.0
 10
3.335513147
 20
6.4019137907
 30
0.0
 10
3.3325553769
 20
6.3776863609
 30
0.0
 10
3.3296204714
 20
6.3534526201
 30
0.0
 10
3.3268403567
 20
6.329209039
 30
0.0
 10
3.324243836
 20
6.3049603818
 30
0.0
 10
3.3210418411
 20
6.2726363969
 30
0.0
 10
3.3175613215
 20
6.2322228347
 30
0.0
 10
3.3143310164
 20
6.1836997824
 30
0.0
 10
3.3121610872
 20
6.1351690329
 30
0.0
 10
3.3111640227
 20
6.0866335015
 30
0.0
 10
3.3114524859
 20
6.0380968199
 30
0.0
 10
3.3131386251
 20
5.9895736807
 30
0.0
 10
3.3160916493
 20
5.9410802701
 30
0.0
 10
3.3201809971
 20
5.8926326641
 30
0.0
 10
3.3252761879
 20
5.8442482917
 30
0.0
 10
3.3332365058
 20
5.7798487678
 30
0.0
 10
3.3450389054
 20
5.6996625028
 30
0.0
 10
3.3557926787
 20
5.6357439628
 30
0.0
 10
3.3613285744
 20
5.6038499524
 30
0.0
  0
SPLINE
  5
2E5
100
AcDbEntity
  8
0
100
AcDbSpline
 62
7
  6
CONTINUOUS
 70
0
 71
3
 72
39
 73
35
 74
0
 42
0.0000001
 43
0.0000001
 44
0.0000000001
 40
0.0
 40
0.0
 40
0.0
 40
0.0
 40
0.0623910361
 40
0.0936426588
 40
0.1249064674
 40
0.1561684754
 40
0.1874188254
 40
0.2186522553
 40
0.2498685765
 40
0.2654722138
 40
0.2810740803
 40
0.2966757982
 40
0.3122795946
 40
0.3278871804
 40
0.3434984652
 40
0.3747253076
 40
0.4059410253
 40
0.4215392447
 40
0.4371299538
 40
0.4527144823
 40
0.4682963455
 40
0.4838792563
 40
0.4994658258
 40
0.5306572859
 40
0.5618857805
 40
0.5931597166
 40
0.6244825276
 40
0.6558530045
 40
0.6872656258
 40
0.750170548
 40
0.8130849176
 40
0.8758403711
 40
0.9382269371
 40
1.0
 40
1.0
 40
1.0
 40
1.0
 10
3.5172076599
 20
5.6097832983
 30
0.0
 10
3.5130936364
 20
5.6419700115
 30
0.0
 10
3.5075466926
 20
5.6903649762
 30
0.0
 10
3.5017930795
 20
5.7550744178
 30
0.0
 10
3.4983977134
 20
5.8037316112
 30
0.0
 10
3.4960288744
 20
5.8524494526
 30
0.0
 10
3.4947906251
 20
5.9011942318
 30
0.0
 10
3.494787171
 20
5.9499316016
 30
0.0
 10
3.4959001452
 20
5.9905167694
 30
0.0
 10
3.4975124743
 20
6.02294234
 30
0.0
 10
3.4990944167
 20
6.0472356017
 30
0.0
 10
3.5010666919
 20
6.0715004285
 30
0.0
 10
3.5034242682
 20
6.0957335884
 30
0.0
 10
3.5060762682
 20
6.1199408787
 30
0.0
 10
3.5098988466
 20
6.1521924652
 30
0.0
 10
3.5150066698
 20
6.1924644132
 30
0.0
 10
3.5200110376
 20
6.2327431458
 30
0.0
 10
3.5236250459
 20
6.264997514
 30
0.0
 10
3.5260573484
 20
6.2892023889
 30
0.0
 10
3.5281326241
 20
6.3134324436
 30
0.0
 10
3.5297589135
 20
6.3376930544
 30
0.0
 10
3.5309178766
 20
6.36198155
 30
0.0
 10
3.5318621026
 20
6.3944022485
 30
0.0
 10
3.5319346989
 20
6.4349815447
 30
0.0
 10
3.5303295672
 20
6.4836928258
 30
0.0
 10
3.5271103424
 20
6.5323920751
 30
0.0
 10
3.5223554255
 20
6.5810386345
 30
0.0
 10
3.5161430184
 20
6.6295928739
 30
0.0
 10
3.5060168624
 20
6.6941793481
 30
0.0
 10
3.4901129688
 20
6.7744312481
 30
0.0
 10
3.4664719972
 20
6.869646628
 30
0.0
 10
3.4388895488
 20
6.9635094582
 30
0.0
 10
3.4079896117
 20
7.0556997088
 30
0.0
 10
3.3854472718
 20
7.1162234418
 30
0.0
 10
3.3737955927
 20
7.1461632742
 30
0.0
  0
SPLINE
  5
2E6
100
AcDbEntity
  8
0
100
AcDbSpline
 62
7
  6
CONTINUOUS
 70
0
 71
3
 72
15
 73
11
 74
0
 42
0.0000001
 43
0.0000001
 44
0.0000000001
 40
0.0
 40
0.0
 40
0.0
 40
0.0
 40
0.1266464663
 40
0.2524545179
 40
0.3776053563
 40
0.5022830485
 40
0.626673762
 40
0.7509649538
 40
0.8753445307
 40
1.0
 40
1.0
 40
1.0
 40
1.0
 10
2.7324634955
 20
7.1316974083
 30
0.0
 10
2.7530288362
 20
7.0694712494
 30
0.0
 10
2.7917299736
 20
6.9446585252
 30
0.0
 10
2.842529025
 20
6.7559292568
 30
0.0
 10
2.8858586891
 20
6.5663877457
 30
0.0
 10
2.9217171682
 20
6.3760383444
 30
0.0
 10
2.9501042148
 20
6.1848816244
 30
0.0
 10
2.9710194153
 20
5.9929180892
 30
0.0
 10
2.9844625945
 20
5.8001527448
 30
0.0
 10
2.9884371361
 20
5.6713064881
 30
0.0
 10
2.9891850841
 20
5.6068046531
 30
0.0
  0
SPLINE
  5
2E7
100
AcDbEntity
  8
0
100
AcDbSpline
 62
7
  6
CONTINUOUS
 70
0
 71
3
 72
32
 73
28
 74
0
 42
0.0000001
 43
0.0000001
 44
0.0000000001
 40
0.0
 40
0.0
 40
0.0
 40
0.0
 40
0.062440996
 40
0.1248941559
 40
0.1873555782
 40
0.2185850349
 40
0.249811163
 40
0.2810326415
 40
0.3122490477
 40
0.3278555988
 40
0.3434613355
 40
0.3590666303
 40
0.3746720052
 40
0.4058847392
 40
0.4371010553
 40
0.4995446356
 40
0.530778941
 40
0.5464035692
 40
0.5620360746
 40
0.5933255961
 40
0.6246384142
 40
0.6872850806
 40
0.749911014
 40
0.8124777629
 40
0.8749825175
 40
0.9374626246
 40
1.0
 40
1.0
 40
1.0
 40
1.0
 10
3.1245473524
 20
5.607502201
 30
0.0
 10
3.1237836142
 20
5.6401098249
 30
0.0
 10
3.1215067074
 20
5.7053144404
 30
0.0
 10
3.1166382167
 20
5.8030612626
 30
0.0
 10
3.1120310234
 20
5.8844942678
 30
0.0
 10
3.1084112182
 20
5.9496452164
 30
0.0
 10
3.1058286479
 20
5.9985101165
 30
0.0
 10
3.1034774771
 20
6.0473799991
 30
0.0
 10
3.1017935128
 20
6.0881128246
 30
0.0
 10
3.100661332
 20
6.1207034135
 30
0.0
 10
3.0999318097
 20
6.1451481872
 30
0.0
 10
3.0993354339
 20
6.1695959877
 30
0.0
 10
3.0987283505
 20
6.2021978521
 30
0.0
 10
3.0982306433
 20
6.2429571025
 30
0.0
 10
3.0976319277
 20
6.3081819974
 30
0.0
 10
3.0967852877
 20
6.3734197097
 30
0.0
 10
3.0948766823
 20
6.4304859066
 30
0.0
 10
3.093317509
 20
6.4630921417
 30
0.0
 10
3.0913965556
 20
6.495707952
 30
0.0
 10
3.0882640976
 20
6.536458899
 30
0.0
 10
3.0816646643
 20
6.6015551433
 30
0.0
 10
3.0703589878
 20
6.6826032616
 30
0.0
 10
3.0516600356
 20
6.7789732839
 30
0.0
 10
3.0275795805
 20
6.8740722814
 30
0.0
 10
2.9978698521
 20
6.9674942817
 30
0.0
 10
2.9622852448
 20
7.0588267896
 30
0.0
 10
2.9345037082
 20
7.1179954902
 30
0.0
 10
2.9195777118
 20
7.1470530491
 30
0.0
  0
SPLINE
  5
2E8
100
AcDbEntity
  8
0
100
AcDbSpline
 62
7
  6
CONTINUOUS
 70
0
 71
3
 72
15
 73
11
 74
0
 42
0.0000001
 43
0.0000001
 44
0.0000000001
 40
0.0
 40
0.0
 40
0.0
 40
0.0
 40
0.1250593949
 40
0.2494499884
 40
0.3734968831
 40
0.4975278843
 40
0.621870923
 40
0.7468514741
 40
0.8727900696
 40
1.0
 40
1.0
 40
1.0
 40
1.0
 10
2.2599870197
 20
6.121753328
 30
0.0
 10
2.2729097431
 20
6.1025146215
 30
0.0
 10
2.2977297917
 20
6.0634871368
 30
0.0
 10
2.331864905
 20
6.0032403416
 30
0.0
 10
2.3627771741
 20
5.941488921
 30
0.0
 10
2.3904645887
 20
5.8782359642
 30
0.0
 10
2.4149269715
 20
5.8134824751
 30
0.0
 10
2.4361641429
 20
5.7472294548
 30
0.0
 10
2.4541758166
 20
5.679480356
 30
0.0
 10
2.4639774509
 20
5.6335797841
 30
0.0
 10
2.4683451484
 20
5.6104134385
 30
0.0
  0
SPLINE
  5
2E9
100
AcDbEntity
  8
0
100
AcDbSpline
 62
7
  6
CONTINUOUS
 70
0
 71
3
 72
50
 73
46
 74
0
 42
0.0000001
 43
0.0000001
 44
0.0000000001
 40
0.0
 40
0.0
 40
0.0
 40
0.0
 40
0.0157854186
 40
0.0312364869
 40
0.0465607752
 40
0.061907959
 40
0.0773718018
 40
0.0929965159
 40
0.1087851526
 40
0.1247082885
 40
0.1407120869
 40
0.1567254481
 40
0.172677335
 40
0.1885534751
 40
0.2201038864
 40
0.2514267211
 40
0.2825694253
 40
0.3135773204
 40
0.3444938532
 40
0.3753608778
 40
0.4062150517
 40
0.437074161
 40
0.498855817
 40
0.5608012388
 40
0.6230030382
 40
0.6542286178
 40
0.6855524837
 40
0.7169860442
 40
0.7485407795
 40
0.7643672076
 40
0.7802282867
 40
0.7961254886
 40
0.8120602964
 40
0.8280341915
 40
0.8440369248
 40
0.8600261502
 40
0.8759576791
 40
0.8917943863
 40
0.9075095
 40
0.9230901948
 40
0.9385414879
 40
0.9538903292
 40
0.9691896047
 40
0.9845215662
 40
1.0
 40
1.0
 40
1.0
 40
1.0
 10
2.2348594977
 20
6.8026674161
 30
0.0
 10
2.2408472156
 20
6.7998069397
 30
0.0
 10
2.2523643562
 20
6.7934202662
 30
0.0
 10
2.268273164
 20
6.7819487619
 30
0.0
 10
2.2827013314
 20
6.7689444639
 30
0.0
 10
2.2958065606
 20
6.7546127364
 30
0.0
 10
2.3077527324
 20
6.7391505636
 30
0.0
 10
2.3187014474
 20
6.7227504366
 30
0.0
 10
2.3288122624
 20
6.7056017454
 30
0.0
 10
2.3382419329
 20
6.6878924555
 30
0.0
 10
2.3471462986
 20
6.6698105718
 30
0.0
 10
2.3556779934
 20
6.6515383221
 30
0.0
 10
2.3640154811
 20
6.6332361154
 30
0.0
 10
2.3748618907
 20
6.60890044
 30
0.0
 10
2.3879752886
 20
6.5785021201
 30
0.0
 10
2.4031065882
 20
6.5419895539
 30
0.0
 10
2.4176865684
 20
6.5054990944
 30
0.0
 10
2.4318030366
 20
6.4690102092
 30
0.0
 10
2.4455437186
 20
6.4325021895
 30
0.0
 10
2.4589953584
 20
6.395955743
 30
0.0
 10
2.4722433334
 20
6.3593607485
 30
0.0
 10
2.4896878369
 20
6.3104642408
 30
0.0
 10
2.5111554896
 20
6.2491268043
 30
0.0
 10
2.5365771958
 20
6.1752153171
 30
0.0
 10
2.5576501146
 20
6.1133922617
 30
0.0
 10
2.5745639994
 20
6.063751579
 30
0.0
 10
2.5873273641
 20
6.026361288
 30
0.0
 10
2.6001805016
 20
5.9888554527
 30
0.0
 10
2.610978995
 20
5.9575323096
 30
0.0
 10
2.6196900067
 20
5.9324140645
 30
0.0
 10
2.626270436
 20
5.9135236689
 30
0.0
 10
2.6328946283
 20
5.8946002962
 30
0.0
 10
2.6395670681
 20
5.8756435892
 30
0.0
 10
2.6462863192
 20
5.8566563822
 30
0.0
 10
2.6530609386
 20
5.8376644461
 30
0.0
 10
2.6600328759
 20
5.8187624263
 30
0.0
 10
2.6673276803
 20
5.800056498
 30
0.0
 10
2.6750734496
 20
5.7816561388
 30
0.0
 10
2.683398062
 20
5.7636705284
 30
0.0
 10
2.6924303847
 20
5.7462090649
 30
0.0
 10
2.7023002428
 20
5.7293815316
 30
0.0
 10
2.7131383486
 20
5.7132987759
 30
0.0
 10
2.7250768087
 20
5.6980727511
 30
0.0
 10
2.7382456812
 20
5.6838193777
 30
0.0
 10
2.7478607612
 20
5.6751089103
 30
0.0
 10
2.7528830616
 20
5.6709718207
 30
0.0
  0
SPLINE
  5
2EA
100
AcDbEntity
  8
0
100
AcDbSpline
 62
7
  6
CONTINUOUS
 70
0
 71
3
 72
26
 73
22
 74
0
 42
0.0000001
 43
0.0000001
 44
0.0000000001
 40
0.0
 40
0.0
 40
0.0
 40
0.0
 40
0.0624837235
 40
0.1247999194
 40
0.1871544519
 40
0.2496317754
 40
0.3122293963
 40
0.3435573698
 40
0.3748928036
 40
0.3905604276
 40
0.4062267796
 40
0.437554333
 40
0.4688732928
 40
0.5001818348
 40
0.5627617568
 40
0.6252875473
 40
0.6877598161
 40
0.7501878186
 40
0.8749878041
 40
0.9374426503
 40
1.0
 40
1.0
 40
1.0
 40
1.0
 10
2.7854427815
 20
5.6874816348
 30
0.0
 10
2.7836891076
 20
5.718303323
 30
0.0
 10
2.7779060224
 20
5.779749593
 30
0.0
 10
2.7635992999
 20
5.8711461297
 30
0.0
 10
2.7449447147
 20
5.9617366569
 30
0.0
 10
2.723186115
 20
6.0517589773
 30
0.0
 10
2.7035020001
 20
6.1264865313
 30
0.0
 10
2.6874292493
 20
6.1862509569
 30
0.0
 10
2.677374889
 20
6.2236234337
 30
0.0
 10
2.66940556
 20
6.2535435925
 30
0.0
 10
2.6615076862
 20
6.2834786678
 30
0.0
 10
2.6517741457
 20
6.32092684
 30
0.0
 10
2.640344815
 20
6.3659188015
 30
0.0
 10
2.6254819311
 20
6.4259687311
 30
0.0
 10
2.6076750869
 20
6.5011724393
 30
0.0
 10
2.5877660583
 20
6.5916903889
 30
0.0
 10
2.5695497952
 20
6.6824902959
 30
0.0
 10
2.5478286024
 20
6.8039389657
 30
0.0
 10
2.5304010709
 20
6.9261315591
 30
0.0
 10
2.5182128474
 20
7.0489684323
 30
0.0
 10
2.5140171407
 20
7.1106040867
 30
0.0
 10
2.5124308327
 20
7.1414712666
 30
0.0
  0
SPLINE
  5
2EB
100
AcDbEntity
  8
0
100
AcDbSpline
 62
7
  6
CONTINUOUS
 70
0
 71
3
 72
11
 73
7
 74
0
 42
0.0000001
 43
0.0000001
 44
0.0000000001
 40
0.0
 40
0.0
 40
0.0
 40
0.0
 40
0.2519638105
 40
0.5014923431
 40
0.7502709081
 40
1.0
 40
1.0
 40
1.0
 40
1.0
 10
3.779736337
 20
7.1341147406
 30
0.0
 10
3.7752939984
 20
7.1080879882
 30
0.0
 10
3.7643985934
 20
7.0566101846
 30
0.0
 10
3.7418623446
 20
6.9811988566
 30
0.0
 10
3.7132473789
 20
6.9081288851
 30
0.0
 10
3.6902096063
 20
6.8611677828
 30
0.0
 10
3.6777403103
 20
6.8381605709
 30
0.0
  0
SPLINE
  5
2EC
100
AcDbEntity
  8
0
100
AcDbSpline
 62
7
  6
CONTINUOUS
 70
0
 71
3
 72
46
 73
42
 74
0
 42
0.0000001
 43
0.0000001
 44
0.0000000001
 40
0.0
 40
0.0
 40
0.0
 40
0.0
 40
0.0308700664
 40
0.0620509455
 40
0.1250245433
 40
0.1882906408
 40
0.2198624865
 40
0.2513228593
 40
0.2826399307
 40
0.3138034491
 40
0.3293326813
 40
0.3448319256
 40
0.3603079992
 40
0.3757699112
 40
0.3912289861
 40
0.3989619297
 40
0.4066995253
 40
0.4221948236
 40
0.4377233425
 40
0.4532860772
 40
0.4688789332
 40
0.5001242177
 40
0.5157594874
 40
0.5313941364
 40
0.547025884
 40
0.5626581952
 40
0.5782976108
 40
0.5939446921
 40
0.6252531216
 40
0.6565706578
 40
0.6878728644
 40
0.7035103277
 40
0.7191320034
 40
0.734733552
 40
0.7503174901
 40
0.7814670977
 40
0.8126376265
 40
0.8438526889
 40
0.8751108559
 40
0.9376604863
 40
1.0
 40
1.0
 40
1.0
 40
1.0
 10
4.6563046196
 20
5.6058229779
 30
0.0
 10
4.6557421991
 20
5.6220120238
 30
0.0
 10
4.6548394391
 20
5.6545609983
 30
0.0
 10
4.6535136902
 20
5.7201533638
 30
0.0
 10
4.6520090193
 20
5.802743782
 30
0.0
 10
4.6487456944
 20
5.8855081601
 30
0.0
 10
4.6438821411
 20
5.951610843
 30
0.0
 10
4.6388174893
 20
6.0008688093
 30
0.0
 10
4.6320369469
 20
6.0497068624
 30
0.0
 10
4.6246986305
 20
6.0899949238
 30
0.0
 10
4.6176706319
 20
6.1218671091
 30
0.0
 10
4.611790676
 20
6.14555416
 30
0.0
 10
4.6052588469
 20
6.1690334771
 30
0.0
 10
4.5980378257
 20
6.1922883083
 30
0.0
 10
4.5914160421
 20
6.2114643952
 30
0.0
 10
4.585738684
 20
6.2266697921
 30
0.0
 10
4.5798004501
 20
6.2417956398
 30
0.0
 10
4.57194144
 20
6.260558714
 30
0.0
 10
4.5619637881
 20
6.2828774639
 30
0.0
 10
4.5515779556
 20
6.305064926
 30
0.0
 10
4.5373667215
 20
6.3345649379
 30
0.0
 10
4.5229221722
 20
6.363993874
 30
0.0
 10
4.5087979232
 20
6.3936024849
 30
0.0
 10
4.498505076
 20
6.4159592743
 30
0.0
 10
4.4886563248
 20
6.4385146535
 30
0.0
 10
4.4794016361
 20
6.4613244368
 30
0.0
 10
4.4708632503
 20
6.4844211845
 30
0.0
 10
4.4604101756
 20
6.515563911
 30
0.0
 10
4.4490946286
 20
6.5550749828
 30
0.0
 10
4.4382968243
 20
6.603192079
 30
0.0
 10
4.4315929109
 20
6.6437301606
 30
0.0
 10
4.4275989023
 20
6.676318275
 30
0.0
 10
4.4252853238
 20
6.7008022771
 30
0.0
 10
4.4236542945
 20
6.7253128914
 30
0.0
 10
4.4223618579
 20
6.7580004639
 30
0.0
 10
4.4222682492
 20
6.7988958512
 30
0.0
 10
4.4242074972
 20
6.8479504097
 30
0.0
 10
4.4278059475
 20
6.896964511
 30
0.0
 10
4.4342987056
 20
6.962252776
 30
0.0
 10
4.4446002323
 20
7.0435462279
 30
0.0
 10
4.4531556824
 20
7.1085204831
 30
0.0
 10
4.456996644
 20
7.1410063485
 30
0.0
  0
SPLINE
  5
2ED
100
AcDbEntity
  8
0
100
AcDbSpline
 62
7
  6
CONTINUOUS
 70
0
 71
3
 72
24
 73
20
 74
0
 42
0.0000001
 43
0.0000001
 44
0.0000000001
 40
0.0
 40
0.0
 40
0.0
 40
0.0
 40
0.0320665225
 40
0.0638411862
 40
0.095390551
 40
0.1267727615
 40
0.1892189679
 40
0.2514947867
 40
0.3137900195
 40
0.3761982685
 40
0.4387375361
 40
0.5013714381
 40
0.6266310654
 40
0.689099634
 40
0.7513891067
 40
0.8135022833
 40
0.8755127932
 40
0.9375863068
 40
1.0
 40
1.0
 40
1.0
 40
1.0
 10
4.7409733623
 20
7.1340948118
 30
0.0
 10
4.7371964819
 20
7.1180756189
 30
0.0
 10
4.7303506655
 20
7.0860201121
 30
0.0
 10
4.7220888392
 20
7.037749812
 30
0.0
 10
4.7157605186
 20
6.9895424549
 30
0.0
 10
4.7097408129
 20
6.9254613398
 30
0.0
 10
4.7063890204
 20
6.8453476851
 30
0.0
 10
4.7080764306
 20
6.7493298224
 30
0.0
 10
4.7144469877
 20
6.6535421985
 30
0.0
 10
4.7244789403
 20
6.5579464737
 30
0.0
 10
4.7371559992
 20
6.462499123
 30
0.0
 10
4.7562349621
 20
6.3353843974
 30
0.0
 10
4.7765497223
 20
6.2084951373
 30
0.0
 10
4.7941072306
 20
6.0813698355
 30
0.0
 10
4.8048600542
 20
5.9860468763
 30
0.0
 10
4.812194099
 20
5.8906239371
 30
0.0
 10
4.8150879771
 20
5.7950568104
 30
0.0
 10
4.8125143946
 20
5.6993125212
 30
0.0
 10
4.8064892214
 20
5.6356360719
 30
0.0
 10
4.8022570419
 20
5.6038825123
 30
0.0
  0
SPLINE
  5
2EE
100
AcDbEntity
  8
0
100
AcDbSpline
 62
7
  6
CONTINUOUS
 70
0
 71
3
 72
26
 73
22
 74
0
 42
0.0000001
 43
0.0000001
 44
0.0000000001
 40
0.0
 40
0.0
 40
0.0
 40
0.0
 40
0.0629276187
 40
0.1255090885
 40
0.1879304716
 40
0.2503096984
 40
0.3751458205
 40
0.4376214735
 40
0.5001113689
 40
0.5625954126
 40
0.593832841
 40
0.6250686671
 40
0.6406871634
 40
0.6563066594
 40
0.687548489
 40
0.718793944
 40
0.7500423792
 40
0.8125433778
 40
0.8750443867
 40
0.9375343783
 40
1.0
 40
1.0
 40
1.0
 40
1.0
 10
4.2444980241
 20
7.1389348438
 30
0.0
 10
4.2468728866
 20
7.1067882731
 30
0.0
 10
4.2497300325
 20
7.0425215007
 30
0.0
 10
4.2490764645
 20
6.9462250031
 30
0.0
 10
4.2443038239
 20
6.8503343886
 30
0.0
 10
4.2335554083
 20
6.7228928692
 30
0.0
 10
4.2178885993
 20
6.5959214202
 30
0.0
 10
4.2006148494
 20
6.4691375932
 30
0.0
 10
4.1876697819
 20
6.3739939117
 30
0.0
 10
4.1775799956
 20
6.2946119546
 30
0.0
 10
4.1703399734
 20
6.2310133426
 30
0.0
 10
4.1662475006
 20
6.1912202906
 30
0.0
 10
4.1632854721
 20
6.1593557124
 30
0.0
 10
4.16054561
 20
6.1274681877
 30
0.0
 10
4.1575328146
 20
6.0875708479
 30
0.0
 10
4.1545717321
 20
6.0396453468
 30
0.0
 10
4.1514875121
 20
5.975690418
 30
0.0
 10
4.1492374959
 20
5.8956737687
 30
0.0
 10
4.1490579324
 20
5.7996219882
 30
0.0
 10
4.15135092
 20
5.7036161872
 30
0.0
 10
4.154497159
 20
5.6396781318
 30
0.0
 10
4.1564670196
 20
5.6077413048
 30
0.0
  0
SPLINE
  5
2EF
100
AcDbEntity
  8
0
100
AcDbSpline
 62
7
  6
CONTINUOUS
 70
0
 71
3
 72
34
 73
30
 74
0
 42
0.0000001
 43
0.0000001
 44
0.0000000001
 40
0.0
 40
0.0
 40
0.0
 40
0.0
 40
0.0623542536
 40
0.1248999127
 40
0.1875279308
 40
0.2501345664
 40
0.3126457942
 40
0.3438582541
 40
0.3750456779
 40
0.4062183707
 40
0.4218045674
 40
0.4373940052
 40
0.4529898335
 40
0.4685941264
 40
0.4998274317
 40
0.5310824022
 40
0.5623366723
 40
0.5935684156
 40
0.6247670602
 40
0.6559440815
 40
0.6871347228
 40
0.7183583101
 40
0.749620547
 40
0.7809210993
 40
0.8122540686
 40
0.843608459
 40
0.8749686267
 40
0.9376150846
 40
1.0
 40
1.0
 40
1.0
 40
1.0
 10
3.9890220712
 20
5.6056280301
 30
0.0
 10
3.9875992924
 20
5.6375657002
 30
0.0
 10
3.9840944776
 20
5.7015095202
 30
0.0
 10
3.9779794618
 20
5.7974607865
 30
0.0
 10
3.9720957459
 20
5.8935577884
 30
0.0
 10
3.9675436661
 20
5.9897133832
 30
0.0
 10
3.9657782814
 20
6.0698602062
 30
0.0
 10
3.9661391575
 20
6.1339058118
 30
0.0
 10
3.9674336809
 20
6.1818675071
 30
0.0
 10
3.969480828
 20
6.2217834262
 30
0.0
 10
3.9717687566
 20
6.2536686341
 30
0.0
 10
3.9738253596
 20
6.2775611805
 30
0.0
 10
3.9762474067
 20
6.301428701
 30
0.0
 10
3.9799009411
 20
6.3332302032
 30
0.0
 10
3.9850912353
 20
6.372932756
 30
0.0
 10
3.9918045901
 20
6.4205237629
 30
0.0
 10
3.9984920935
 20
6.468117851
 30
0.0
 10
4.0046422643
 20
6.515757211
 30
0.0
 10
4.0097419989
 20
6.5634840812
 30
0.0
 10
4.0132779327
 20
6.6113379493
 30
0.0
 10
4.0147269363
 20
6.6593163098
 30
0.0
 10
4.0141615257
 20
6.7073546725
 30
0.0
 10
4.0116609562
 20
6.7553868922
 30
0.0
 10
4.0073020705
 20
6.8033415324
 30
0.0
 10
4.0011622165
 20
6.85114748
 30
0.0
 10
3.9933184353
 20
6.8987341191
 30
0.0
 10
3.9806964889
 20
6.9617666365
 30
0.0
 10
3.9610722928
 20
7.0395701985
 30
0.0
 10
3.9415914086
 20
7.1006878394
 30
0.0
 10
3.930996214
 20
7.1308670759
 30
0.0
  0
SPLINE
  5
2F0
100
AcDbEntity
  8
0
100
AcDbSpline
 62
7
  6
CONTINUOUS
 70
0
 71
3
 72
12
 73
8
 74
0
 42
0.0000001
 43
0.0000001
 44
0.0000000001
 40
0.0
 40
0.0
 40
0.0
 40
0.0
 40
0.2499721128
 40
0.5001857785
 40
0.7501435302
 40
0.8750547795
 40
1.0
 40
1.0
 40
1.0
 40
1.0
 10
3.7959332026
 20
6.6115255311
 30
0.0
 10
3.8098541916
 20
6.5285264887
 30
0.0
 10
3.8347663653
 20
6.3619244743
 30
0.0
 10
3.8601359727
 20
6.110537019
 30
0.0
 10
3.8685014566
 20
5.9000735584
 30
0.0
 10
3.8658119322
 20
5.7317865485
 30
0.0
 10
3.8610610812
 20
5.6477707797
 30
0.0
 10
3.8577667921
 20
5.6058345238
 30
0.0
  0
SPLINE
  5
2F1
100
AcDbEntity
  8
0
100
AcDbSpline
 62
7
  6
CONTINUOUS
 70
0
 71
3
 72
20
 73
16
 74
0
 42
0.0000001
 43
0.0000001
 44
0.0000000001
 40
0.0
 40
0.0
 40
0.0
 40
0.0
 40
0.1249351102
 40
0.1874151352
 40
0.2499199758
 40
0.3124503989
 40
0.3749955974
 40
0.4062679382
 40
0.4375354094
 40
0.5000530574
 40
0.5625547712
 40
0.6250468637
 40
0.7500158689
 40
0.8749957882
 40
1.0
 40
1.0
 40
1.0
 40
1.0
 10
3.7035229109
 20
5.6042843126
 30
0.0
 10
3.696922945
 20
5.6460408768
 30
0.0
 10
3.6892953932
 20
5.7090620218
 30
0.0
 10
3.6831356671
 20
5.7934110383
 30
0.0
 10
3.6803730564
 20
5.8568110641
 30
0.0
 10
3.67932639
 20
5.9202816447
 30
0.0
 10
3.6797645753
 20
5.9731894546
 30
0.0
 10
3.6808309562
 20
6.0155023444
 30
0.0
 10
3.6823486373
 20
6.0577921553
 30
0.0
 10
3.685073957
 20
6.1106095629
 30
0.0
 10
3.6896530818
 20
6.1738978945
 30
0.0
 10
3.6974747781
 20
6.2581214674
 30
0.0
 10
3.7104231861
 20
6.363078747
 30
0.0
 10
3.7308714735
 20
6.4883244155
 30
0.0
 10
3.7476698108
 20
6.5712521159
 30
0.0
 10
3.7568330102
 20
6.6125459834
 30
0.0
  0
SPLINE
  5
2F2
100
AcDbEntity
  8
0
100
AcDbSpline
 62
7
  6
CONTINUOUS
 70
0
 71
3
 72
17
 73
13
 74
0
 42
0.0000001
 43
0.0000001
 44
0.0000000001
 40
0.0
 40
0.0
 40
0.0
 40
0.0
 40
0.1246464879
 40
0.2498322696
 40
0.3751810343
 40
0.5004238505
 40
0.6254201645
 40
0.7501808855
 40
0.81253725
 40
0.87492066
 40
0.9373855725
 40
1.0
 40
1.0
 40
1.0
 40
1.0
 10
6.5414324256
 20
3.78891732
 30
0.0
 10
6.543283105
 20
3.8351207517
 30
0.0
 10
6.5446590503
 20
3.9278405183
 30
0.0
 10
6.5392064399
 20
4.066986008
 30
0.0
 10
6.5256092488
 20
4.2058116589
 30
0.0
 10
6.5032266318
 20
4.3434394973
 30
0.0
 10
6.4714161754
 20
4.4789888493
 30
0.0
 10
6.436493289
 20
4.5895212021
 30
0.0
 10
6.4032279346
 20
4.6759193925
 30
0.0
 10
6.3755269455
 20
4.7396284929
 30
0.0
 10
6.3449944483
 20
4.8021356443
 30
0.0
 10
6.3227322322
 20
4.8428701915
 30
0.0
 10
6.3111149535
 20
4.8629846387
 30
0.0
  0
SPLINE
  5
2F3
100
AcDbEntity
  8
0
100
AcDbSpline
 62
7
  6
CONTINUOUS
 70
0
 71
3
 72
21
 73
17
 74
0
 42
0.0000001
 43
0.0000001
 44
0.0000000001
 40
0.0
 40
0.0
 40
0.0
 40
0.0
 40
0.0630954827
 40
0.1257717639
 40
0.1881967903
 40
0.2505045514
 40
0.3127968837
 40
0.3751459056
 40
0.500159938
 40
0.5628545725
 40
0.6256295597
 40
0.7511574594
 40
0.8137559966
 40
0.8761394145
 40
0.9382384618
 40
1.0
 40
1.0
 40
1.0
 40
1.0
 10
6.1540823694
 20
5.3665335975
 30
0.0
 10
6.1464999079
 20
5.3340830542
 30
0.0
 10
6.13311478
 20
5.2689808786
 30
0.0
 10
6.1180475707
 20
5.170693342
 30
0.0
 10
6.107670833
 20
5.0722218359
 30
0.0
 10
6.1015806516
 20
4.9736023401
 30
0.0
 10
6.0993727104
 20
4.8748642768
 30
0.0
 10
6.1010687677
 20
4.7429949059
 30
0.0
 10
6.1089281344
 20
4.6110802224
 30
0.0
 10
6.1213081286
 20
4.4793620004
 30
0.0
 10
6.1359091427
 20
4.3475954908
 30
0.0
 10
6.1525864625
 20
4.2161298301
 30
0.0
 10
6.1689293584
 20
4.0848334359
 30
0.0
 10
6.1803822727
 20
3.9866882903
 30
0.0
 10
6.1904286805
 20
3.888831616
 30
0.0
 10
6.1957951183
 20
3.8236262561
 30
0.0
 10
6.1980356123
 20
3.7910831916
 30
0.0
  0
SPLINE
  5
2F4
100
AcDbEntity
  8
0
100
AcDbSpline
 62
7
  6
CONTINUOUS
 70
0
 71
3
 72
16
 73
12
 74
0
 42
0.0000001
 43
0.0000001
 44
0.0000000001
 40
0.0
 40
0.0
 40
0.0
 40
0.0
 40
0.1249259436
 40
0.2500173338
 40
0.3750675532
 40
0.499922614
 40
0.5623501788
 40
0.6248262179
 40
0.7499307987
 40
0.8751109514
 40
1.0
 40
1.0
 40
1.0
 40
1.0
 10
6.0285254034
 20
3.7877873668
 30
0.0
 10
6.0221059007
 20
3.8538369245
 30
0.0
 10
6.0050967659
 20
3.985613091
 30
0.0
 10
5.9738230444
 20
4.1823735559
 30
0.0
 10
5.9433746373
 20
4.3792336414
 30
0.0
 10
5.9241931433
 20
4.5441341892
 30
0.0
 10
5.9159471101
 20
4.6765784351
 30
0.0
 10
5.9119790293
 20
4.8093421121
 30
0.0
 10
5.9141741695
 20
4.9755473055
 30
0.0
 10
5.9254640762
 20
5.1745593419
 30
0.0
 10
5.9369505122
 20
5.3069123303
 30
0.0
 10
5.9432371552
 20
5.3729549789
 30
0.0
  0
SPLINE
  5
2F5
100
AcDbEntity
  8
0
100
AcDbSpline
 62
7
  6
CONTINUOUS
 70
0
 71
3
 72
14
 73
10
 74
0
 42
0.0000001
 43
0.0000001
 44
0.0000000001
 40
0.0
 40
0.0
 40
0.0
 40
0.0
 40
0.2505982538
 40
0.3762370869
 40
0.5016041584
 40
0.6265079576
 40
0.7509662526
 40
0.8752625915
 40
1.0
 40
1.0
 40
1.0
 40
1.0
 10
5.6398370078
 20
4.2359358402
 30
0.0
 10
5.663199663
 20
4.2015019707
 30
0.0
 10
5.6981636903
 20
4.1497139041
 30
0.0
 10
5.7422194091
 20
4.0790138623
 30
0.0
 10
5.7733247993
 20
4.0248769303
 30
0.0
 10
5.8017425612
 20
3.969489546
 30
0.0
 10
5.8267484409
 20
3.9126567386
 30
0.0
 10
5.8476081997
 20
3.8541908259
 30
0.0
 10
5.8582118255
 20
3.8141536155
 30
0.0
 10
5.8625672029
 20
3.793904308
 30
0.0
  0
SPLINE
  5
2F6
100
AcDbEntity
  8
0
100
AcDbSpline
 62
7
  6
CONTINUOUS
 70
0
 71
3
 72
22
 73
18
 74
0
 42
0.0000001
 43
0.0000001
 44
0.0000000001
 40
0.0
 40
0.0
 40
0.0
 40
0.0
 40
0.0607377422
 40
0.1226466284
 40
0.2488262875
 40
0.3125597755
 40
0.3763935128
 40
0.4401165503
 40
0.5035547349
 40
0.5665795689
 40
0.6291183425
 40
0.6911654641
 40
0.7527946009
 40
0.8141707887
 40
0.8755610872
 40
0.9373417972
 40
1.0
 40
1.0
 40
1.0
 40
1.0
 10
5.7347982832
 20
4.4256533441
 30
0.0
 10
5.7256083707
 20
4.4437375283
 30
0.0
 10
5.7070453694
 20
4.4802518967
 30
0.0
 10
5.6697750329
 20
4.5545279452
 30
0.0
 10
5.6332533146
 20
4.6303075998
 30
0.0
 10
5.5988876106
 20
4.7077824048
 30
0.0
 10
5.5745443414
 20
4.7668601395
 30
0.0
 10
5.5521615896
 20
4.8266071918
 30
0.0
 10
5.5321813605
 20
4.8869208606
 30
0.0
 10
5.5150468912
 20
4.9476995764
 30
0.0
 10
5.5012032348
 20
5.0088428582
 30
0.0
 10
5.4910980621
 20
5.0702508545
 30
0.0
 10
5.485182561
 20
5.1318236663
 30
0.0
 10
5.4839117239
 20
5.1934589316
 30
0.0
 10
5.487745069
 20
5.255052791
 30
0.0
 10
5.497141377
 20
5.316485788
 30
0.0
 10
5.5073225633
 20
5.3568598739
 30
0.0
 10
5.51342504
 20
5.3768769976
 30
0.0
  0
SPLINE
  5
2F7
100
AcDbEntity
  8
0
100
AcDbSpline
 62
7
  6
CONTINUOUS
 70
0
 71
3
 72
13
 73
9
 74
0
 42
0.0000001
 43
0.0000001
 44
0.0000000001
 40
0.0
 40
0.0
 40
0.0
 40
0.0
 40
0.1250023053
 40
0.249787995
 40
0.3745853517
 40
0.4995161433
 40
0.7497850928
 40
1.0
 40
1.0
 40
1.0
 40
1.0
 10
5.7209715508
 20
5.3686749565
 30
0.0
 10
5.7162927823
 20
5.3299853622
 30
0.0
 10
5.709235461
 20
5.2523802314
 30
0.0
 10
5.7049236631
 20
5.1356301099
 30
0.0
 10
5.7061984521
 20
5.0188361715
 30
0.0
 10
5.7144181196
 20
4.8631337965
 30
0.0
 10
5.7351546547
 20
4.6691214345
 30
0.0
 10
5.7591983721
 20
4.5149198541
 30
0.0
 10
5.7722043903
 20
4.4380032076
 30
0.0
  0
SPLINE
  5
2F8
100
AcDbEntity
  8
0
100
AcDbSpline
 62
7
  6
CONTINUOUS
 70
0
 71
3
 72
27
 73
23
 74
0
 42
0.0000001
 43
0.0000001
 44
0.0000000001
 40
0.0
 40
0.0
 40
0.0
 40
0.0
 40
0.0627092067
 40
0.1258922953
 40
0.1888866604
 40
0.2512092776
 40
0.2820483418
 40
0.3126589035
 40
0.3278876035
 40
0.3430742021
 40
0.3733830542
 40
0.4037103737
 40
0.4341502586
 40
0.4955991644
 40
0.5580266104
 40
0.6214022455
 40
0.6854737138
 40
0.7498370674
 40
0.8139964406
 40
0.877416262
 40
0.9395711966
 40
1.0
 40
1.0
 40
1.0
 40
1.0
 10
5.3363957363
 20
4.9616703504
 30
0.0
 10
5.3289689095
 20
4.9673423013
 30
0.0
 10
5.3144770107
 20
4.9792899166
 30
0.0
 10
5.2942303988
 20
4.9988909548
 30
0.0
 10
5.2758343837
 20
5.0201728399
 30
0.0
 10
5.2624450587
 20
5.0392687342
 30
0.0
 10
5.2532222415
 20
5.0552532776
 30
0.0
 10
5.2481436317
 20
5.0654996451
 30
0.0
 10
5.2445260158
 20
5.0738450199
 30
0.0
 10
5.2412184291
 20
5.0822697725
 30
0.0
 10
5.2376234655
 20
5.0929910635
 30
0.0
 10
5.2341249316
 20
5.1061131017
 30
0.0
 10
5.230456907
 20
5.1239613915
 30
0.0
 10
5.2276188052
 20
5.1468210558
 30
0.0
 10
5.2265170567
 20
5.174727219
 30
0.0
 10
5.2272106429
 20
5.2030282146
 30
0.0
 10
5.2292146846
 20
5.2315478614
 30
0.0
 10
5.2320490754
 20
5.2601100345
 30
0.0
 10
5.2352368557
 20
5.2885351508
 30
0.0
 10
5.2383023293
 20
5.3166434567
 30
0.0
 10
5.2407698875
 20
5.3442544069
 30
0.0
 10
5.2417136398
 20
5.3625062325
 30
0.0
 10
5.2419134867
 20
5.3715091738
 30
0.0
  0
SPLINE
  5
2F9
100
AcDbEntity
  8
0
100
AcDbSpline
 62
7
  6
CONTINUOUS
 70
0
 71
3
 72
19
 73
15
 74
0
 42
0.0000001
 43
0.0000001
 44
0.0000000001
 40
0.0
 40
0.0
 40
0.0
 40
0.0
 40
0.0637605832
 40
0.1266577063
 40
0.1889962154
 40
0.251028981
 40
0.3129562333
 40
0.3749268034
 40
0.4993110004
 40
0.5618364247
 40
0.6245525424
 40
0.7502910205
 40
0.8758041516
 40
1.0
 40
1.0
 40
1.0
 40
1.0
 10
5.3154770633
 20
4.7970226531
 30
0.0
 10
5.3274936346
 20
4.7783899106
 30
0.0
 10
5.3499489043
 20
4.7404418666
 30
0.0
 10
5.3790684908
 20
4.6814613812
 30
0.0
 10
5.4035914533
 20
4.6210759982
 30
0.0
 10
5.4237649405
 20
4.5594644548
 30
0.0
 10
5.4398402914
 20
4.496794976
 30
0.0
 10
5.4561601346
 20
4.4119729338
 30
0.0
 10
5.4652555828
 20
4.3257188098
 30
0.0
 10
5.4681507581
 20
4.2389460363
 30
0.0
 10
5.4672446256
 20
4.1516513163
 30
0.0
 10
5.459594338
 20
4.0426371399
 30
0.0
 10
5.4420064654
 20
3.9132038238
 30
0.0
 10
5.4258270814
 20
3.827855881
 30
0.0
 10
5.4169082649
 20
3.7856001023
 30
0.0
  0
SPLINE
  5
2FA
100
AcDbEntity
  8
0
100
AcDbSpline
 62
7
  6
CONTINUOUS
 70
0
 71
3
 72
18
 73
14
 74
0
 42
0.0000001
 43
0.0000001
 44
0.0000000001
 40
0.0
 40
0.0
 40
0.0
 40
0.0
 40
0.0630404366
 40
0.1256832854
 40
0.188068459
 40
0.2503117837
 40
0.3125055586
 40
0.3747195146
 40
0.499361962
 40
0.6244232649
 40
0.7497946127
 40
0.8751514098
 40
1.0
 40
1.0
 40
1.0
 40
1.0
 10
5.141600975
 20
3.7985594662
 30
0.0
 10
5.1510016225
 20
3.8175346584
 30
0.0
 10
5.168737569
 20
3.8558728578
 30
0.0
 10
5.1922810564
 20
3.9145240529
 30
0.0
 10
5.2128207386
 20
3.9740094761
 30
0.0
 10
5.2305155755
 20
4.0342416375
 30
0.0
 10
5.2455258963
 20
4.0951372146
 30
0.0
 10
5.2621816375
 20
4.1771419753
 30
0.0
 10
5.2770873028
 20
4.2809545789
 30
0.0
 10
5.2867625684
 20
4.4066480185
 30
0.0
 10
5.2895286719
 20
4.5329034335
 30
0.0
 10
5.2866587391
 20
4.6590641834
 30
0.0
 10
5.281813878
 20
4.7429863649
 30
0.0
 10
5.2788587395
 20
4.7848205149
 30
0.0
  0
SPLINE
  5
2FB
100
AcDbEntity
  8
0
100
AcDbSpline
 62
7
  6
CONTINUOUS
 70
0
 71
3
 72
36
 73
32
 74
0
 42
0.0000001
 43
0.0000001
 44
0.0000000001
 40
0.0
 40
0.0
 40
0.0
 40
0.0
 40
0.0623654407
 40
0.1245977185
 40
0.1867785649
 40
0.2489874108
 40
0.2801266435
 40
0.3113017017
 40
0.3425219512
 40
0.3581519264
 40
0.3737966634
 40
0.3894567153
 40
0.4051261437
 40
0.4364550985
 40
0.4677178911
 40
0.4988735498
 40
0.5144093627
 40
0.5299207973
 40
0.5454152635
 40
0.5609036319
 40
0.576396558
 40
0.591902736
 40
0.6229791585
 40
0.6541771922
 40
0.6855165654
 40
0.7169981005
 40
0.7486058337
 40
0.8120549532
 40
0.8754865182
 40
0.9383547319
 40
1.0
 40
1.0
 40
1.0
 40
1.0
 10
6.9723969606
 20
5.3709207031
 30
0.0
 10
6.9726041973
 20
5.3426876098
 30
0.0
 10
6.973393658
 20
5.2862838608
 30
0.0
 10
6.9756188644
 20
5.2017535945
 30
0.0
 10
6.9787927223
 20
5.1173247949
 30
0.0
 10
6.9821514444
 20
5.0469933237
 30
0.0
 10
6.9852203052
 20
4.9907031247
 30
0.0
 10
6.9877031788
 20
4.9484312403
 30
0.0
 10
6.9899124743
 20
4.9131769926
 30
0.0
 10
6.9917580505
 20
4.8849447467
 30
0.0
 10
6.9931821576
 20
4.8637443882
 30
0.0
 10
6.9946376273
 20
4.8425282201
 30
0.0
 10
6.9966738275
 20
4.8142349245
 30
0.0
 10
6.9995497224
 20
4.7789197717
 30
0.0
 10
7.003990578
 20
4.7367063686
 30
0.0
 10
7.0089063159
 20
4.7017480147
 30
0.0
 10
7.0137975084
 20
4.6740130732
 30
0.0
 10
7.0179989553
 20
4.653363283
 30
0.0
 10
7.0227931263
 20
4.6328643632
 30
0.0
 10
7.0282419367
 20
4.6125380577
 30
0.0
 10
7.034329003
 20
4.592388328
 30
0.0
 10
7.0432680929
 20
4.5657415884
 30
0.0
 10
7.0559283472
 20
4.5328616498
 30
0.0
 10
7.0732793962
 20
4.4941756661
 30
0.0
 10
7.0926135047
 20
4.4562381851
 30
0.0
 10
7.1137434454
 20
4.4190601613
 30
0.0
 10
7.1440974984
 20
4.3704611628
 30
0.0
 10
7.1855172667
 20
4.311796815
 30
0.0
 10
7.239288974
 20
4.2447537352
 30
0.0
 10
7.2957255609
 20
4.181043384
 30
0.0
 10
7.3346841794
 20
4.1402883016
 30
0.0
 10
7.3542495427
 20
4.1203874732
 30
0.0
  0
SPLINE
  5
2FC
100
AcDbEntity
  8
0
100
AcDbSpline
 62
7
  6
CONTINUOUS
 70
0
 71
3
 72
18
 73
14
 74
0
 42
0.0000001
 43
0.0000001
 44
0.0000000001
 40
0.0
 40
0.0
 40
0.0
 40
0.0
 40
0.0627604645
 40
0.1251875544
 40
0.1874487051
 40
0.2496738086
 40
0.3119569257
 40
0.3743586522
 40
0.4995894001
 40
0.6253185414
 40
0.7511199172
 40
0.8763052932
 40
1.0
 40
1.0
 40
1.0
 40
1.0
 10
7.3852638046
 20
4.2134624314
 30
0.0
 10
7.3717482171
 20
4.2346911102
 30
0.0
 10
7.3460778969
 20
4.2778710213
 30
0.0
 10
7.3114884375
 20
4.3446462764
 30
0.0
 10
7.2807119469
 20
4.4130248188
 30
0.0
 10
7.2535101636
 20
4.4828342833
 30
0.0
 10
7.2296422383
 20
4.5539083713
 30
0.0
 10
7.2019156281
 20
4.6502361814
 30
0.0
 10
7.1744200072
 20
4.7729707945
 30
0.0
 10
7.150996867
 20
4.9222984694
 30
0.0
 10
7.135180955
 20
5.0725754321
 30
0.0
 10
7.1250781011
 20
5.2225002908
 30
0.0
 10
7.1208610002
 20
5.3222145069
 30
0.0
 10
7.1190802613
 20
5.3717822565
 30
0.0
  0
SPLINE
  5
2FD
100
AcDbEntity
  8
0
100
AcDbSpline
 62
7
  6
CONTINUOUS
 70
0
 71
3
 72
31
 73
27
 74
0
 42
0.0000001
 43
0.0000001
 44
0.0000000001
 40
0.0
 40
0.0
 40
0.0
 40
0.0
 40
0.0624171516
 40
0.1249715424
 40
0.1562588658
 40
0.187520613
 40
0.2187371387
 40
0.2343254833
 40
0.2499006852
 40
0.2654645146
 40
0.2810203357
 40
0.2965723805
 40
0.3121244507
 40
0.3432404195
 40
0.3743893594
 40
0.405583994
 40
0.4368304248
 40
0.4994728825
 40
0.562266799
 40
0.6251037077
 40
0.6878464855
 40
0.7504133518
 40
0.8128149268
 40
0.875110581
 40
0.9374303144
 40
1.0
 40
1.0
 40
1.0
 40
1.0
 10
6.8348509608
 20
5.3711943315
 30
0.0
 10
6.8350633098
 20
5.3379822361
 30
0.0
 10
6.8331506463
 20
5.271470681
 30
0.0
 10
6.8276934261
 20
5.1885033936
 30
0.0
 10
6.8231248134
 20
5.1220914761
 30
0.0
 10
6.8200085028
 20
5.0722946982
 30
0.0
 10
6.8180123522
 20
5.0307998745
 30
0.0
 10
6.8169833612
 20
4.9976219624
 30
0.0
 10
6.8165467845
 20
4.9727608352
 30
0.0
 10
6.8164982746
 20
4.9479129204
 30
0.0
 10
6.8168828386
 20
4.9230802121
 30
0.0
 10
6.8176782223
 20
4.898263637
 30
0.0
 10
6.8192642853
 20
4.8651925835
 30
0.0
 10
6.8221877109
 20
4.8238823464
 30
0.0
 10
6.82705569
 20
4.7743850812
 30
0.0
 10
6.8331403001
 20
4.7249535323
 30
0.0
 10
6.842691532
 20
4.6590800021
 30
0.0
 10
6.8569554918
 20
4.5769206835
 30
0.0
 10
6.876622848
 20
4.4786824737
 30
0.0
 10
6.8977130465
 20
4.38068971
 30
0.0
 10
6.9191000535
 20
4.2828865339
 30
0.0
 10
6.939645416
 20
4.1851363957
 30
0.0
 10
6.9581872276
 20
4.0872209197
 30
0.0
 10
6.9735756618
 20
3.9888797309
 30
0.0
 10
6.9846527456
 20
3.8898572446
 30
0.0
 10
6.9883710447
 20
3.8234565468
 30
0.0
 10
6.9891340821
 20
3.7901713525
 30
0.0
  0
SPLINE
  5
2FE
100
AcDbEntity
  8
0
100
AcDbSpline
 62
7
  6
CONTINUOUS
 70
0
 71
3
 72
35
 73
31
 74
0
 42
0.0000001
 43
0.0000001
 44
0.0000000001
 40
0.0
 40
0.0
 40
0.0
 40
0.0
 40
0.0313640778
 40
0.0625279367
 40
0.093608172
 40
0.1246881079
 40
0.1870244999
 40
0.2183229449
 40
0.2496944087
 40
0.2811131497
 40
0.3125441597
 40
0.3282517761
 40
0.3439476431
 40
0.3753010513
 40
0.4066066697
 40
0.4378691888
 40
0.4690944011
 40
0.5002895377
 40
0.5314636062
 40
0.5626277233
 40
0.5937954415
 40
0.6249796726
 40
0.6561839632
 40
0.6874086425
 40
0.718652701
 40
0.749913878
 40
0.8124717292
 40
0.8750437288
 40
0.937575352
 40
1.0
 40
1.0
 40
1.0
 40
1.0
 10
6.7879556605
 20
3.7930891565
 30
0.0
 10
6.7907682762
 20
3.8094560499
 30
0.0
 10
6.7952924256
 20
3.8422805077
 30
0.0
 10
6.7990385588
 20
3.8917291372
 30
0.0
 10
6.8000484968
 20
3.9411554128
 30
0.0
 10
6.7981893091
 20
4.0070690367
 30
0.0
 10
6.7921789037
 20
4.0728956274
 30
0.0
 10
6.7833703569
 20
4.138497205
 30
0.0
 10
6.7756718692
 20
4.1877211962
 30
0.0
 10
6.7672186473
 20
4.2368893562
 30
0.0
 10
6.7598171172
 20
4.2778207089
 30
0.0
 10
6.7538420402
 20
4.3105496601
 30
0.0
 10
6.7478934692
 20
4.343241706
 30
0.0
 10
6.7405418362
 20
4.384072964
 30
0.0
 10
6.7319396873
 20
4.4330535953
 30
0.0
 10
6.7236529502
 20
4.4820199314
 30
0.0
 10
6.7157725681
 20
4.5309943119
 30
0.0
 10
6.7083897412
 20
4.5799991211
 30
0.0
 10
6.7015958375
 20
4.6290567641
 30
0.0
 10
6.69548146
 20
4.6781895139
 30
0.0
 10
6.6901404924
 20
4.7274183373
 30
0.0
 10
6.6856559693
 20
4.7767539826
 30
0.0
 10
6.6819758487
 20
4.8261860216
 30
0.0
 10
6.6790572762
 20
4.8757003811
 30
0.0
 10
6.6768551917
 20
4.9252817475
 30
0.0
 10
6.6748148196
 20
4.9914710016
 30
0.0
 10
6.6738339673
 20
5.0742803983
 30
0.0
 10
6.674809575
 20
5.1736457545
 30
0.0
 10
6.6775812445
 20
5.2729048178
 30
0.0
 10
6.6803926715
 20
5.339009557
 30
0.0
 10
6.6819808641
 20
5.3720242878
 30
0.0
  0
SPLINE
  5
2FF
100
AcDbEntity
  8
0
100
AcDbSpline
 62
7
  6
CONTINUOUS
 70
0
 71
3
 72
18
 73
14
 74
0
 42
0.0000001
 43
0.0000001
 44
0.0000000001
 40
0.0
 40
0.0
 40
0.0
 40
0.0
 40
0.1245303114
 40
0.2501121622
 40
0.3758137014
 40
0.5009862628
 40
0.6253751296
 40
0.6873554479
 40
0.7492906628
 40
0.811316207
 40
0.8736143959
 40
0.9364159657
 40
1.0
 40
1.0
 40
1.0
 40
1.0
 10
6.3696076511
 20
5.3709238204
 30
0.0
 10
6.3697706914
 20
5.3482278223
 30
0.0
 10
6.3705453618
 20
5.3026438241
 30
0.0
 10
6.3740164087
 20
5.2342186719
 30
0.0
 10
6.3808104415
 20
5.1659071984
 30
0.0
 10
6.3919432406
 20
5.0983678765
 30
0.0
 10
6.4057219974
 20
5.0431944838
 30
0.0
 10
6.4199344408
 20
5.0002094548
 30
0.0
 10
6.4323060886
 20
4.9686395048
 30
0.0
 10
6.4465292445
 20
4.9377930176
 30
0.0
 10
6.4627329498
 20
4.9077558074
 30
0.0
 10
6.4810440815
 20
4.8786176401
 30
0.0
 10
6.4946376702
 20
4.8599934113
 30
0.0
 10
6.5017982567
 20
4.8508817038
 30
0.0
  0
SPLINE
  5
300
100
AcDbEntity
  8
0
100
AcDbSpline
 62
7
  6
CONTINUOUS
 70
0
 71
3
 72
19
 73
15
 74
0
 42
0.0000001
 43
0.0000001
 44
0.0000000001
 40
0.0
 40
0.0
 40
0.0
 40
0.0
 40
0.1253556734
 40
0.2501668263
 40
0.374948568
 40
0.4998847788
 40
0.6249465944
 40
0.6874870802
 40
0.7500131354
 40
0.8125149803
 40
0.843756426
 40
0.8749928623
 40
0.9374671214
 40
1.0
 40
1.0
 40
1.0
 40
1.0
 10
6.5373657548
 20
4.8622590375
 30
0.0
 10
6.5383703446
 20
4.8836797881
 30
0.0
 10
6.5385849407
 20
4.9265247326
 30
0.0
 10
6.5345751848
 20
4.9905735453
 30
0.0
 10
6.5273976018
 20
5.0542582405
 30
0.0
 10
6.5181994934
 20
5.1177123613
 30
0.0
 10
6.5097994553
 20
5.1705135618
 30
0.0
 10
6.5032033223
 20
5.2127910631
 30
0.0
 10
6.4984614237
 20
5.2445259662
 30
0.0
 10
6.4947993541
 20
5.2710074545
 30
0.0
 10
6.4921150723
 20
5.2922185091
 30
0.0
 10
6.4896183423
 20
5.3134476944
 30
0.0
 10
6.4869347627
 20
5.3400436597
 30
0.0
 10
6.48544291
 20
5.3613815831
 30
0.0
 10
6.4849067828
 20
5.3720654894
 30
0.0
  0
SPLINE
  5
301
100
AcDbEntity
  8
0
100
AcDbSpline
 62
7
  6
CONTINUOUS
 70
0
 71
3
 72
17
 73
13
 74
0
 42
0.0000001
 43
0.0000001
 44
0.0000000001
 40
0.0
 40
0.0
 40
0.0
 40
0.0
 40
0.0625950283
 40
0.1250306754
 40
0.249768035
 40
0.3434088816
 40
0.4371686471
 40
0.6248565515
 40
0.7186488079
 40
0.8123682252
 40
0.9060857036
 40
1.0
 40
1.0
 40
1.0
 40
1.0
 10
3.3891210957
 20
5.3685783634
 30
0.0
 10
3.3920128887
 20
5.3456076132
 30
0.0
 10
3.3967964451
 20
5.2995947623
 30
0.0
 10
3.4028184267
 20
5.2073920579
 30
0.0
 10
3.404425233
 20
5.1034759942
 30
0.0
 10
3.4016607628
 20
4.9880495886
 30
0.0
 10
3.3953299874
 20
4.8494535797
 30
0.0
 10
3.3869717034
 20
4.7109109554
 30
0.0
 10
3.3815456726
 20
4.5722327592
 30
0.0
 10
3.380189816
 20
4.4682050452
 30
0.0
 10
3.3827972279
 20
4.3641440425
 30
0.0
 10
3.3880068832
 20
4.2948964056
 30
0.0
 10
3.3916747173
 20
4.2603544594
 30
0.0
  0
SPLINE
  5
302
100
AcDbEntity
  8
0
100
AcDbSpline
 62
7
  6
CONTINUOUS
 70
0
 71
3
 72
28
 73
24
 74
0
 42
0.0000001
 43
0.0000001
 44
0.0000000001
 40
0.0
 40
0.0
 40
0.0
 40
0.0
 40
0.0630322112
 40
0.1257587836
 40
0.1883222104
 40
0.2508228506
 40
0.3133222708
 40
0.3758471168
 40
0.4383932422
 40
0.4696690294
 40
0.5009366468
 40
0.532188779
 40
0.5634169546
 40
0.579019511
 40
0.5946130701
 40
0.6257828002
 40
0.6569466806
 40
0.6881168471
 40
0.7504904095
 40
0.812891799
 40
0.8752767861
 40
0.9376259983
 40
1.0
 40
1.0
 40
1.0
 40
1.0
 10
3.4283305463
 20
4.2518157407
 30
0.0
 10
3.441260725
 20
4.272279665
 30
0.0
 10
3.4654742128
 20
4.314132875
 30
0.0
 10
3.4968794461
 20
4.3793506862
 30
0.0
 10
3.5233818229
 20
4.4464897413
 30
0.0
 10
3.5451028119
 20
4.5152264957
 30
0.0
 10
3.5621673758
 20
4.5852454333
 30
0.0
 10
3.5746985428
 20
4.6562283025
 30
0.0
 10
3.5814663035
 20
4.71592879
 30
0.0
 10
3.5847358944
 20
4.7638619047
 30
0.0
 10
3.5861307329
 20
4.7998611832
 30
0.0
 10
3.5864829456
 20
4.8358668229
 30
0.0
 10
3.5859197846
 20
4.8658525623
 30
0.0
 10
3.5849626002
 20
4.8898073002
 30
0.0
 10
3.583669643
 20
4.9137238189
 30
0.0
 10
3.5814681135
 20
4.9435728054
 30
0.0
 10
3.5780442127
 20
4.9793202184
 30
0.0
 10
3.5726405598
 20
5.026908625
 30
0.0
 10
3.5646997338
 20
5.0862724187
 30
0.0
 10
3.5545025451
 20
5.1574204425
 30
0.0
 10
3.5448569468
 20
5.2286403208
 30
0.0
 10
3.5369867716
 20
5.3000751423
 30
0.0
 10
3.5337489546
 20
5.3478891718
 30
0.0
 10
3.5328367686
 20
5.371825667
 30
0.0
  0
SPLINE
  5
303
100
AcDbEntity
  8
0
100
AcDbSpline
 62
7
  6
CONTINUOUS
 70
0
 71
3
 72
17
 73
13
 74
0
 42
0.0000001
 43
0.0000001
 44
0.0000000001
 40
0.0
 40
0.0
 40
0.0
 40
0.0
 40
0.0625767786
 40
0.1248285447
 40
0.1869562457
 40
0.2491053599
 40
0.373785917
 40
0.4991687549
 40
0.6250238815
 40
0.7508340484
 40
0.8759928741
 40
1.0
 40
1.0
 40
1.0
 40
1.0
 10
3.7244509019
 20
4.3124618903
 30
0.0
 10
3.7272463228
 20
4.3018668365
 30
0.0
 10
3.7321670225
 20
4.2805534652
 30
0.0
 10
3.7376896129
 20
4.2482698116
 30
0.0
 10
3.7415187875
 20
4.2158190086
 30
0.0
 10
3.7446252731
 20
4.1723229477
 30
0.0
 10
3.7452248831
 20
4.1176065187
 30
0.0
 10
3.7422343615
 20
4.0518301038
 30
0.0
 10
3.7370599353
 20
3.9860047447
 30
0.0
 10
3.73120722
 20
3.92028087
 30
0.0
 10
3.7261773676
 20
3.8548098024
 30
0.0
 10
3.7243681098
 20
3.8111961665
 30
0.0
 10
3.7241157079
 20
3.7894831317
 30
0.0
  0
SPLINE
  5
304
100
AcDbEntity
  8
0
100
AcDbSpline
 62
7
  6
CONTINUOUS
 70
0
 71
3
 72
15
 73
11
 74
0
 42
0.0000001
 43
0.0000001
 44
0.0000000001
 40
0.0
 40
0.0
 40
0.0
 40
0.0
 40
0.1259659459
 40
0.2511195607
 40
0.3757263593
 40
0.5000553601
 40
0.6243773847
 40
0.7489633004
 40
0.8740822604
 40
1.0
 40
1.0
 40
1.0
 40
1.0
 10
3.4852940422
 20
3.7933702688
 30
0.0
 10
3.4896512789
 20
3.8167155236
 30
0.0
 10
3.4993855019
 20
3.8630673502
 30
0.0
 10
3.5171111901
 20
3.9316742197
 30
0.0
 10
3.5379053169
 20
3.9990932122
 30
0.0
 10
3.5617674656
 20
4.0653215222
 30
0.0
 10
3.5886973901
 20
4.1303585627
 30
0.0
 10
3.6186948842
 20
4.1942037317
 30
0.0
 10
3.6517583714
 20
4.2568546664
 30
0.0
 10
3.6757537165
 20
4.2976712445
 30
0.0
 10
3.6882420269
 20
4.317860275
 30
0.0
  0
SPLINE
  5
305
100
AcDbEntity
  8
0
100
AcDbSpline
 62
7
  6
CONTINUOUS
 70
0
 71
3
 72
15
 73
11
 74
0
 42
0.0000001
 43
0.0000001
 44
0.0000000001
 40
0.0
 40
0.0
 40
0.0
 40
0.0
 40
0.2485990307
 40
0.3745877127
 40
0.5005875528
 40
0.6260820871
 40
0.7508919386
 40
0.8752614456
 40
0.9375207877
 40
1.0
 40
1.0
 40
1.0
 40
1.0
 10
3.2253454591
 20
3.7852944091
 30
0.0
 10
3.2330740274
 20
3.8192615687
 30
0.0
 10
3.24336082
 20
3.8707979439
 30
0.0
 10
3.2523043005
 20
3.9404001166
 30
0.0
 10
3.2560091049
 20
3.9932016219
 30
0.0
 10
3.2560053802
 20
4.0459839716
 30
0.0
 10
3.251610482
 20
4.098370403
 30
0.0
 10
3.2437037158
 20
4.1413808032
 30
0.0
 10
3.2345237859
 20
4.175075335
 30
0.0
 10
3.2289318209
 20
4.1916498784
 30
0.0
 10
3.2258762057
 20
4.1998543349
 30
0.0
  0
SPLINE
  5
306
100
AcDbEntity
  8
0
100
AcDbSpline
 62
7
  6
CONTINUOUS
 70
0
 71
3
 72
15
 73
11
 74
0
 42
0.0000001
 43
0.0000001
 44
0.0000000001
 40
0.0
 40
0.0
 40
0.0
 40
0.0
 40
0.1297786772
 40
0.2565304521
 40
0.3810478661
 40
0.5041666171
 40
0.6267510122
 40
0.7496766301
 40
0.8738118293
 40
1.0
 40
1.0
 40
1.0
 40
1.0
 10
3.1924654397
 20
4.2063059205
 30
0.0
 10
3.1790113793
 20
4.1915126088
 30
0.0
 10
3.1534652254
 20
4.161293196
 30
0.0
 10
3.119113484
 20
4.1136069324
 30
0.0
 10
3.0892520457
 20
4.0641749644
 30
0.0
 10
3.0638907643
 20
4.0130041487
 30
0.0
 10
3.043034726
 20
3.9601002904
 30
0.0
 10
3.0266874003
 20
3.9054703773
 30
0.0
 10
3.014849752
 20
3.8491274226
 30
0.0
 10
3.0100118447
 20
3.810813448
 30
0.0
 10
3.0083246245
 20
3.791443674
 30
0.0
  0
SPLINE
  5
307
100
AcDbEntity
  8
0
100
AcDbSpline
 62
7
  6
CONTINUOUS
 70
0
 71
3
 72
16
 73
12
 74
0
 42
0.0000001
 43
0.0000001
 44
0.0000000001
 40
0.0
 40
0.0
 40
0.0
 40
0.0
 40
0.0625925079
 40
0.1250238039
 40
0.2497056019
 40
0.3745220725
 40
0.4996495902
 40
0.6250400208
 40
0.750471919
 40
0.8755996759
 40
1.0
 40
1.0
 40
1.0
 40
1.0
 10
2.9869178319
 20
5.3747945137
 30
0.0
 10
2.9830460293
 20
5.3544651051
 30
0.0
 10
2.9761846767
 20
5.3136872399
 30
0.0
 10
2.9657892974
 20
5.2317670312
 30
0.0
 10
2.9586109564
 20
5.1287897485
 30
0.0
 10
2.9579311506
 20
5.0048638359
 30
0.0
 10
2.9637554414
 20
4.8808590499
 30
0.0
 10
2.9746689076
 20
4.7570143215
 30
0.0
 10
2.989264832
 20
4.633562716
 30
0.0
 10
3.0061433974
 20
4.5107415667
 30
0.0
 10
3.0180364041
 20
4.4291024185
 30
0.0
 10
3.0239081019
 20
4.3883934886
 30
0.0
  0
SPLINE
  5
308
100
AcDbEntity
  8
0
100
AcDbSpline
 62
7
  6
CONTINUOUS
 70
0
 71
3
 72
27
 73
23
 74
0
 42
0.0000001
 43
0.0000001
 44
0.0000000001
 40
0.0
 40
0.0
 40
0.0
 40
0.0
 40
0.1255060949
 40
0.2512778005
 40
0.3141345314
 40
0.3768941957
 40
0.4395259885
 40
0.5020155604
 40
0.5332114356
 40
0.5643754827
 40
0.5955118843
 40
0.6266264176
 40
0.6577265467
 40
0.6888255566
 40
0.7199416823
 40
0.7510785558
 40
0.7822273784
 40
0.8133728964
 40
0.8755945785
 40
0.9377146341
 40
0.9688057189
 40
1.0
 40
1.0
 40
1.0
 40
1.0
 10
3.0613554133
 20
4.3821440022
 30
0.0
 10
3.0807195294
 20
4.4198935796
 30
0.0
 10
3.1155530744
 20
4.4975604498
 30
0.0
 10
3.1486623746
 20
4.5986795467
 30
0.0
 10
3.1684682625
 20
4.6813569982
 30
0.0
 10
3.1798428441
 20
4.7440035985
 30
0.0
 10
3.1876129456
 20
4.8070727089
 30
0.0
 10
3.1909824301
 20
4.8598417853
 30
0.0
 10
3.1917473314
 20
4.9020448184
 30
0.0
 10
3.1913417571
 20
4.9336533113
 30
0.0
 10
3.1899413307
 20
4.9652057626
 30
0.0
 10
3.1875315163
 20
4.9966757417
 30
0.0
 10
3.1840929574
 20
5.0280377941
 30
0.0
 10
3.1796231277
 20
5.0592686791
 30
0.0
 10
3.174385
 20
5.0903899764
 30
0.0
 10
3.1686262617
 20
5.1214349731
 30
0.0
 10
3.1625974469
 20
5.152438062
 30
0.0
 10
3.1545347457
 20
5.1937501085
 30
0.0
 10
3.1450278634
 20
5.2454489897
 30
0.0
 10
3.137939468
 20
5.2975529934
 30
0.0
 10
3.1347400666
 20
5.3394974015
 30
0.0
 10
3.1341312037
 20
5.3605547427
 30
0.0
 10
3.1341138507
 20
5.3710997231
 30
0.0
  0
SPLINE
  5
309
100
AcDbEntity
  8
0
100
AcDbSpline
 62
7
  6
CONTINUOUS
 70
0
 71
3
 72
14
 73
10
 74
0
 42
0.0000001
 43
0.0000001
 44
0.0000000001
 40
0.0
 40
0.0
 40
0.0
 40
0.0
 40
0.1251592988
 40
0.2500509685
 40
0.3749063382
 40
0.4998470167
 40
0.6249016331
 40
0.7500231398
 40
1.0
 40
1.0
 40
1.0
 40
1.0
 10
2.8260962704
 20
3.7879576141
 30
0.0
 10
2.8312917282
 20
3.8466391559
 30
0.0
 10
2.8383568312
 20
3.9641908077
 30
0.0
 10
2.8400752113
 20
4.140706768
 30
0.0
 10
2.8341008365
 20
4.3170154652
 30
0.0
 10
2.8216327893
 20
4.4930448605
 30
0.0
 10
2.8038666763
 20
4.6687329493
 30
0.0
 10
2.7747146042
 20
4.9023533076
 30
0.0
 10
2.7484641726
 20
5.0769646389
 30
0.0
 10
2.7305551637
 20
5.1932550251
 30
0.0
  0
SPLINE
  5
30A
100
AcDbEntity
  8
0
100
AcDbSpline
 62
7
  6
CONTINUOUS
 70
0
 71
3
 72
28
 73
24
 74
0
 42
0.0000001
 43
0.0000001
 44
0.0000000001
 40
0.0
 40
0.0
 40
0.0
 40
0.0
 40
0.0315011185
 40
0.0628340401
 40
0.1251873334
 40
0.1874030255
 40
0.2496873378
 40
0.3121370242
 40
0.3747546859
 40
0.4061068967
 40
0.4374672198
 40
0.4688187594
 40
0.5001527508
 40
0.5627277566
 40
0.6251190879
 40
0.656253313
 40
0.6873754079
 40
0.7185254976
 40
0.7497235659
 40
0.8122639255
 40
0.8749472228
 40
0.9376088034
 40
1.0
 40
1.0
 40
1.0
 40
1.0
 10
2.6920593054
 20
5.1968078111
 30
0.0
 10
2.6871424709
 20
5.1827680996
 30
0.0
 10
2.6779642272
 20
5.154538587
 30
0.0
 10
2.6621428433
 20
5.0975627591
 30
0.0
 10
2.6468899276
 20
5.0254505493
 30
0.0
 10
2.6351542794
 20
4.9379255512
 30
0.0
 10
2.6292326388
 20
4.8497843103
 30
0.0
 10
2.6283559989
 20
4.7612754611
 30
0.0
 10
2.6311901171
 20
4.6874387237
 30
0.0
 10
2.6352195607
 20
4.628389012
 30
0.0
 10
2.6390277465
 20
4.584130241
 30
0.0
 10
2.6435403003
 20
4.5399476077
 30
0.0
 10
2.6501137365
 20
4.4811617101
 30
0.0
 10
2.6586067266
 20
4.4078438608
 30
0.0
 10
2.6654716665
 20
4.3344294939
 30
0.0
 10
2.6687551038
 20
4.2756509042
 30
0.0
 10
2.6698124596
 20
4.2315446501
 30
0.0
 10
2.6691480668
 20
4.1873987454
 30
0.0
 10
2.6660928296
 20
4.1284910187
 30
0.0
 10
2.6584936651
 20
4.0549605266
 30
0.0
 10
2.6442484798
 20
3.9673458096
 30
0.0
 10
2.6257651933
 20
3.8806100612
 30
0.0
 10
2.611153355
 20
3.8233779246
 30
0.0
 10
2.6034109501
 20
3.7949504072
 30
0.0
  0
SPLINE
  5
30B
100
AcDbEntity
  8
0
100
AcDbSpline
 62
7
  6
CONTINUOUS
 70
0
 71
3
 72
42
 73
38
 74
0
 42
0.0000001
 43
0.0000001
 44
0.0000000001
 40
0.0
 40
0.0
 40
0.0
 40
0.0
 40
0.0625669931
 40
0.1249235388
 40
0.1560774831
 40
0.1872382839
 40
0.2184210424
 40
0.2496392963
 40
0.2809054565
 40
0.2965601795
 40
0.3122312449
 40
0.3200733521
 40
0.3279195362
 40
0.3436164211
 40
0.3593059652
 40
0.3749741633
 40
0.4062070256
 40
0.4372978219
 40
0.4683509025
 40
0.4995085862
 40
0.5308117621
 40
0.5465080068
 40
0.5622220133
 40
0.577943065
 40
0.5858028186
 40
0.5936604673
 40
0.6093685315
 40
0.6250668874
 40
0.6564340934
 40
0.6877627613
 40
0.7190545987
 40
0.7503126307
 40
0.7815412714
 40
0.812746393
 40
0.8751137826
 40
0.9374963561
 40
1.0
 40
1.0
 40
1.0
 40
1.0
 10
2.4887998559
 20
5.3693301742
 30
0.0
 10
2.4859028918
 20
5.3362232663
 30
0.0
 10
2.4787759972
 20
5.2702339001
 30
0.0
 10
2.4671894176
 20
5.1881342877
 30
0.0
 10
2.4567502765
 20
5.1227402787
 30
0.0
 10
2.4484362327
 20
5.0737778013
 30
0.0
 10
2.4397376248
 20
5.0248478681
 30
0.0
 10
2.4307566203
 20
4.9759122575
 30
0.0
 10
2.4231258141
 20
4.935114937
 30
0.0
 10
2.4169829357
 20
4.9024406978
 30
0.0
 10
2.4131374564
 20
4.8819945554
 30
0.0
 10
2.4100638523
 20
4.8656235854
 30
0.0
 10
2.4069950437
 20
4.8492377646
 30
0.0
 10
2.4032149443
 20
4.8287443916
 30
0.0
 10
2.3988988629
 20
4.8041254035
 30
0.0
 10
2.3936212288
 20
4.7713002086
 30
0.0
 10
2.3882366774
 20
4.7302094935
 30
0.0
 10
2.3847804361
 20
4.680683548
 30
0.0
 10
2.3854367867
 20
4.6310801344
 30
0.0
 10
2.3891900204
 20
4.5815306713
 30
0.0
 10
2.3940416044
 20
4.5402939858
 30
0.0
 10
2.3984593069
 20
4.5072771456
 30
0.0
 10
2.4019186689
 20
4.4824826875
 30
0.0
 10
2.4048157033
 20
4.4618126905
 30
0.0
 10
2.4070798154
 20
4.4452678446
 30
0.0
 10
2.4092856054
 20
4.4287220855
 30
0.0
 10
2.4119299828
 20
4.408034487
 30
0.0
 10
2.4159135722
 20
4.3749298976
 30
0.0
 10
2.4204175116
 20
4.3335320605
 30
0.0
 10
2.4250211602
 20
4.2838195579
 30
0.0
 10
2.4287807969
 20
4.2340939515
 30
0.0
 10
2.4316551642
 20
4.1843623853
 30
0.0
 10
2.4336029625
 20
4.1346314773
 30
0.0
 10
2.4349093634
 20
4.068351016
 30
0.0
 10
2.4340202142
 20
3.9854908216
 30
0.0
 10
2.4285808758
 20
3.8861452048
 30
0.0
 10
2.4218278704
 20
3.8201229092
 30
0.0
 10
2.4176219047
 20
3.7871906424
 30
0.0
  0
SPLINE
  5
30C
100
AcDbEntity
  8
0
100
AcDbSpline
 62
7
  6
CONTINUOUS
 70
0
 71
3
 72
40
 73
36
 74
0
 42
0.0000001
 43
0.0000001
 44
0.0000000001
 40
0.0
 40
0.0
 40
0.0
 40
0.0
 40
0.0312067442
 40
0.062350143
 40
0.1245820314
 40
0.1869180561
 40
0.2181485952
 40
0.2494052895
 40
0.2806709585
 40
0.2963006206
 40
0.3119229501
 40
0.3275344199
 40
0.3431361547
 40
0.3587305507
 40
0.3743177334
 40
0.4054640211
 40
0.4365592271
 40
0.4520861707
 40
0.4676023157
 40
0.4831138958
 40
0.4908711935
 40
0.4986312549
 40
0.5141614556
 40
0.5297080383
 40
0.5452734534
 40
0.5608595791
 40
0.5920964478
 40
0.6234256207
 40
0.6548440002
 40
0.6863416896
 40
0.7494923359
 40
0.8127053961
 40
0.8757294845
 40
0.9382686533
 40
1.0
 40
1.0
 40
1.0
 40
1.0
 10
5.0853291458
 20
5.3655439286
 30
0.0
 10
5.080624275
 20
5.3492365691
 30
0.0
 10
5.0721774964
 20
5.316371051
 30
0.0
 10
5.0590406013
 20
5.2498710794
 30
0.0
 10
5.0494157328
 20
5.1655646534
 30
0.0
 10
5.0481934224
 20
5.0807079307
 30
0.0
 10
5.0518131517
 20
5.0128988728
 30
0.0
 10
5.0567289307
 20
4.9621308926
 30
0.0
 10
5.0625709043
 20
4.9200170417
 30
0.0
 10
5.0682420084
 20
4.8864899025
 30
0.0
 10
5.0729779269
 20
4.8614442624
 30
0.0
 10
5.0781942619
 20
4.8365100732
 30
0.0
 10
5.0838175955
 20
4.8116806427
 30
0.0
 10
5.0897369617
 20
4.7869341847
 30
0.0
 10
5.0978867483
 20
4.7540297528
 30
0.0
 10
5.1083000786
 20
4.7130020941
 30
0.0
 10
5.11834085
 20
4.6719124397
 30
0.0
 10
5.1257312586
 20
4.6389337247
 30
0.0
 10
5.1308474467
 20
4.6141347187
 30
0.0
 10
5.134671395
 20
4.5933879256
 30
0.0
 10
5.1374137427
 20
4.5767359648
 30
0.0
 10
5.1399307922
 20
4.5600382431
 30
0.0
 10
5.1426591559
 20
4.5390901525
 30
0.0
 10
5.1452728571
 20
4.5138549558
 30
0.0
 10
5.1472373161
 20
4.4885302972
 30
0.0
 10
5.1490054541
 20
4.454642072
 30
0.0
 10
5.149639548
 20
4.412123497
 30
0.0
 10
5.147963734
 20
4.3610174631
 30
0.0
 10
5.1439328669
 20
4.3099005603
 30
0.0
 10
5.1355201076
 20
4.241835925
 30
0.0
 10
5.1195231895
 20
4.1573721819
 30
0.0
 10
5.0922474704
 20
4.0579402116
 30
0.0
 10
5.0575159733
 20
3.9612160913
 30
0.0
 10
5.0159743429
 20
3.8681096515
 30
0.0
 10
4.9838894355
 20
3.8085384281
 30
0.0
 10
4.9668556809
 20
3.7796063544
 30
0.0
  0
SPLINE
  5
30D
100
AcDbEntity
  8
0
100
AcDbSpline
 62
7
  6
CONTINUOUS
 70
0
 71
3
 72
31
 73
27
 74
0
 42
0.0000001
 43
0.0000001
 44
0.0000000001
 40
0.0
 40
0.0
 40
0.0
 40
0.0
 40
0.0625110697
 40
0.1249255783
 40
0.1873916369
 40
0.2499479464
 40
0.3125407332
 40
0.3750735663
 40
0.4375619046
 40
0.5000499082
 40
0.5313041616
 40
0.5625679245
 40
0.5938426004
 40
0.6251287892
 40
0.6407762485
 40
0.6564262588
 40
0.6877298206
 40
0.7190288902
 40
0.7503109889
 40
0.7815645746
 40
0.8127817022
 40
0.8751046728
 40
0.9062410701
 40
0.9373990381
 40
0.9686288523
 40
1.0
 40
1.0
 40
1.0
 40
1.0
 10
4.8679588712
 20
3.7966158845
 30
0.0
 10
4.879434404
 20
3.8276953107
 30
0.0
 10
4.8998302008
 20
3.8907693151
 30
0.0
 10
4.9233971519
 20
3.9873234012
 30
0.0
 10
4.9407316835
 20
4.085199893
 30
0.0
 10
4.952675631
 20
4.1839564512
 30
0.0
 10
4.9600631321
 20
4.2831795245
 30
0.0
 10
4.963746487
 20
4.3825656249
 30
0.0
 10
4.9639943231
 20
4.4819618086
 30
0.0
 10
4.9615458874
 20
4.5647404717
 30
0.0
 10
4.9581240835
 20
4.630905927
 30
0.0
 10
4.9548573215
 20
4.6805094754
 30
0.0
 10
4.9509221676
 20
4.7300811399
 30
0.0
 10
4.9471134873
 20
4.7713567015
 30
0.0
 10
4.9437631728
 20
4.804356023
 30
0.0
 10
4.9402211406
 20
4.8373445799
 30
0.0
 10
4.935524079
 20
4.8785512584
 30
0.0
 10
4.9297186717
 20
4.9279695064
 30
0.0
 10
4.9240090232
 20
4.9773722681
 30
0.0
 10
4.9186594111
 20
5.0267729164
 30
0.0
 10
4.9123633705
 20
5.0926120805
 30
0.0
 10
4.9078390032
 20
5.1585637189
 30
0.0
 10
4.9061587139
 20
5.2245986665
 30
0.0
 10
4.9065856646
 20
5.2741752782
 30
0.0
 10
4.9089664103
 20
5.3238231428
 30
0.0
 10
4.9120252106
 20
5.3568743829
 30
0.0
 10
4.9139618331
 20
5.3733876478
 30
0.0
  0
SPLINE
  5
30E
100
AcDbEntity
  8
0
100
AcDbSpline
 62
7
  6
CONTINUOUS
 70
0
 71
3
 72
27
 73
23
 74
0
 42
0.0000001
 43
0.0000001
 44
0.0000000001
 40
0.0
 40
0.0
 40
0.0
 40
0.0
 40
0.0628779503
 40
0.1253413419
 40
0.187682138
 40
0.2500488696
 40
0.3124846812
 40
0.3749672343
 40
0.4062110664
 40
0.4374490158
 40
0.4686777545
 40
0.4998973381
 40
0.5155051066
 40
0.5311127318
 40
0.562330127
 40
0.5935541819
 40
0.6247878471
 40
0.6872881167
 40
0.749835125
 40
0.8124148632
 40
0.8749991372
 40
1.0
 40
1.0
 40
1.0
 40
1.0
 10
4.6570789823
 20
5.3681908514
 30
0.0
 10
4.661098218
 20
5.3406395606
 30
0.0
 10
4.666917734
 20
5.2853815909
 30
0.0
 10
4.6700342573
 20
5.2022868281
 30
0.0
 10
4.6687300411
 20
5.119386361
 30
0.0
 10
4.6642287933
 20
5.036627236
 30
0.0
 10
4.6577456764
 20
4.9539461908
 30
0.0
 10
4.6516985537
 20
4.8850612627
 30
0.0
 10
4.647076137
 20
4.8299191652
 30
0.0
 10
4.6438686669
 20
4.7885470164
 30
0.0
 10
4.6410717098
 20
4.7471554163
 30
0.0
 10
4.6392092265
 20
4.712640169
 30
0.0
 10
4.6380754861
 20
4.6850162917
 30
0.0
 10
4.6372065017
 20
4.6573837861
 30
0.0
 10
4.6366141987
 20
4.6228258529
 30
0.0
 10
4.6366634637
 20
4.581343457
 30
0.0
 10
4.6377054177
 20
4.52601838
 30
0.0
 10
4.640767809
 20
4.4568700405
 30
0.0
 10
4.6470282557
 20
4.37401156
 30
0.0
 10
4.6556472663
 20
4.2913287702
 30
0.0
 10
4.6699737503
 20
4.1814747908
 30
0.0
 10
4.6835814095
 20
4.0995002535
 30
0.0
 10
4.6936416801
 20
4.0450706793
 30
0.0
  0
SPLINE
  5
30F
100
AcDbEntity
  8
0
100
AcDbSpline
 62
7
  6
CONTINUOUS
 70
0
 71
3
 72
31
 73
27
 74
0
 42
0.0000001
 43
0.0000001
 44
0.0000000001
 40
0.0
 40
0.0
 40
0.0
 40
0.0
 40
0.1250157681
 40
0.187594743
 40
0.2501794737
 40
0.3127485386
 40
0.375287418
 40
0.4377890359
 40
0.4690267788
 40
0.5002562552
 40
0.5314789247
 40
0.5626968167
 40
0.5783049061
 40
0.5939128322
 40
0.6095210168
 40
0.6251299646
 40
0.6563512831
 40
0.6875757019
 40
0.7187973353
 40
0.7500085104
 40
0.8123751902
 40
0.8746821601
 40
0.9058575685
 40
0.9370943138
 40
0.9684495554
 40
1.0
 40
1.0
 40
1.0
 40
1.0
 10
4.7327516851
 20
4.0446908112
 30
0.0
 10
4.743881636
 20
4.0989846729
 30
0.0
 10
4.7588626499
 20
4.1808277159
 30
0.0
 10
4.7749523609
 20
4.2905741305
 30
0.0
 10
4.7849640385
 20
4.3732065912
 30
0.0
 10
4.7927911722
 20
4.4560570971
 30
0.0
 10
4.7983100885
 20
4.5390572433
 30
0.0
 10
4.8008828202
 20
4.6083033271
 30
0.0
 10
4.8016623683
 20
4.6637018284
 30
0.0
 10
4.8015925055
 20
4.7052389059
 30
0.0
 10
4.80085272
 20
4.7467605833
 30
0.0
 10
4.7996650801
 20
4.7813430685
 30
0.0
 10
4.7983645457
 20
4.8089914338
 30
0.0
 10
4.7972121951
 20
4.82971814
 30
0.0
 10
4.7958801956
 20
4.8504344602
 30
0.0
 10
4.7938658691
 20
4.8780420354
 30
0.0
 10
4.7909761046
 20
4.9125258595
 30
0.0
 10
4.7871381053
 20
4.9538735945
 30
0.0
 10
4.7831554852
 20
4.9952030032
 30
0.0
 10
4.7779546467
 20
5.0502849099
 30
0.0
 10
4.7722171015
 20
5.1191594955
 30
0.0
 10
4.7690024712
 20
5.1882073412
 30
0.0
 10
4.7688530649
 20
5.243507534
 30
0.0
 10
4.7701783144
 20
5.285065901
 30
0.0
 10
4.7731685621
 20
5.3267061987
 30
0.0
 10
4.7764112229
 20
5.3544173161
 30
0.0
 10
4.7783778969
 20
5.3682655392
 30
0.0
  0
SPLINE
  5
310
100
AcDbEntity
  8
0
100
AcDbSpline
 62
7
  6
CONTINUOUS
 70
0
 71
3
 72
33
 73
29
 74
0
 42
0.0000001
 43
0.0000001
 44
0.0000000001
 40
0.0
 40
0.0
 40
0.0
 40
0.0
 40
0.1238064599
 40
0.1861079028
 40
0.2486632703
 40
0.311419741
 40
0.3743006529
 40
0.437218917
 40
0.5000901735
 40
0.5628459435
 40
0.5941675721
 40
0.6254489146
 40
0.6566919291
 40
0.6879021335
 40
0.719089043
 40
0.7502665992
 40
0.7658578916
 40
0.781454317
 40
0.7892554815
 40
0.7970590813
 40
0.8126733848
 40
0.8282952856
 40
0.8439210423
 40
0.8751657861
 40
0.9063751737
 40
0.9375419719
 40
0.9687100722
 40
1.0
 40
1.0
 40
1.0
 40
1.0
 10
4.3192545107
 20
5.372856113
 30
0.0
 10
4.3133680792
 20
5.3075704749
 30
0.0
 10
4.309439158
 20
5.2089658832
 30
0.0
 10
4.3105508811
 20
5.0773147122
 30
0.0
 10
4.3137259875
 20
4.9780223237
 30
0.0
 10
4.3184036638
 20
4.8784910286
 30
0.0
 10
4.3237470324
 20
4.7788014627
 30
0.0
 10
4.328920269
 20
4.6790417753
 30
0.0
 10
4.3330872231
 20
4.5792989574
 30
0.0
 10
4.3350247413
 20
4.4962153854
 30
0.0
 10
4.3352309977
 20
4.4298411472
 30
0.0
 10
4.3346096467
 20
4.3801550828
 30
0.0
 10
4.3331074875
 20
4.330546277
 30
0.0
 10
4.3306195145
 20
4.2810264219
 30
0.0
 10
4.3270407281
 20
4.2316075934
 30
0.0
 10
4.3230618545
 20
4.1905205101
 30
0.0
 10
4.3192295508
 20
4.1577229504
 30
0.0
 10
4.316552698
 20
4.1372534539
 30
0.0
 10
4.3142359844
 20
4.1208968267
 30
0.0
 10
4.3117990325
 20
4.1045481
 30
0.0
 10
4.3085595615
 20
4.0841331085
 30
0.0
 10
4.3044660836
 20
4.0596614775
 30
0.0
 10
4.2988688921
 20
4.0270511738
 30
0.0
 10
4.2918682999
 20
3.9863078651
 30
0.0
 10
4.2842694711
 20
3.9373208654
 30
0.0
 10
4.278289403
 20
3.88814086
 30
0.0
 10
4.2747508236
 20
3.8386720065
 30
0.0
 10
4.2745765975
 20
3.8055668246
 30
0.0
 10
4.2751622235
 20
3.7890104373
 30
0.0
  0
SPLINE
  5
311
100
AcDbEntity
  8
0
100
AcDbSpline
 62
7
  6
CONTINUOUS
 70
0
 71
3
 72
27
 73
23
 74
0
 42
0.0000001
 43
0.0000001
 44
0.0000000001
 40
0.0
 40
0.0
 40
0.0
 40
0.0
 40
0.0623472233
 40
0.1248773196
 40
0.1875078236
 40
0.2501466405
 40
0.3127132003
 40
0.375159738
 40
0.4063389721
 40
0.4374966395
 40
0.4530715459
 40
0.4686465005
 40
0.4998040728
 40
0.5309822211
 40
0.5621880395
 40
0.6246885747
 40
0.6872886563
 40
0.7499341406
 40
0.8125598445
 40
0.8751132637
 40
0.9375784238
 40
1.0
 40
1.0
 40
1.0
 40
1.0
 10
4.5679047336
 20
3.7920732579
 30
0.0
 10
4.5640018354
 20
3.8248115632
 30
0.0
 10
4.5553217763
 20
3.8902816643
 30
0.0
 10
4.5407718662
 20
3.9883660493
 30
0.0
 10
4.5257279638
 20
4.0865308723
 30
0.0
 10
4.511248237
 20
4.1848021142
 30
0.0
 10
4.4983919157
 20
4.2832055816
 30
0.0
 10
4.4899114615
 20
4.3653827873
 30
0.0
 10
4.485007746
 20
4.4311917254
 30
0.0
 10
4.4828354767
 20
4.4723394606
 30
0.0
 10
4.4817042884
 20
4.5052699175
 30
0.0
 10
4.4809695758
 20
4.538211492
 30
0.0
 10
4.4807445464
 20
4.5794145629
 30
0.0
 10
4.4814457567
 20
4.6288783522
 30
0.0
 10
4.4834889462
 20
4.6948900576
 30
0.0
 10
4.4877705843
 20
4.7774441833
 30
0.0
 10
4.4945449083
 20
4.8764967929
 30
0.0
 10
4.5018403425
 20
4.9755774802
 30
0.0
 10
4.5085400686
 20
5.0746773703
 30
0.0
 10
4.5135261198
 20
5.1737899755
 30
0.0
 10
4.5156776253
 20
5.2729046174
 30
0.0
 10
4.5144708821
 20
5.3389635875
 30
0.0
 10
4.5130223771
 20
5.3719412364
 30
0.0
  0
SPLINE
  5
312
100
AcDbEntity
  8
0
100
AcDbSpline
 62
7
  6
CONTINUOUS
 70
0
 71
3
 72
15
 73
11
 74
0
 42
0.0000001
 43
0.0000001
 44
0.0000000001
 40
0.0
 40
0.0
 40
0.0
 40
0.0
 40
0.1258637758
 40
0.2509639066
 40
0.3755564984
 40
0.499900793
 40
0.6242575854
 40
0.7488875919
 40
0.8740498216
 40
1.0
 40
1.0
 40
1.0
 40
1.0
 10
4.1559266623
 20
4.7705539789
 30
0.0
 10
4.1448077049
 20
4.794204242
 30
0.0
 10
4.1236770425
 20
4.8418587059
 30
0.0
 10
4.0953009768
 20
4.9145181086
 30
0.0
 10
4.0703599246
 20
4.9880960168
 30
0.0
 10
4.0488552391
 20
5.0625897764
 30
0.0
 10
4.0307870502
 20
5.1379987665
 30
0.0
 10
4.0161555383
 20
5.214322379
 30
0.0
 10
4.0049608232
 20
5.291557645
 30
0.0
 10
3.9998079473
 20
5.3434624774
 30
0.0
 10
3.9977995239
 20
5.3695368019
 30
0.0
  0
SPLINE
  5
313
100
AcDbEntity
  8
0
100
AcDbSpline
 62
7
  6
CONTINUOUS
 70
0
 71
3
 72
13
 73
9
 74
0
 42
0.0000001
 43
0.0000001
 44
0.0000000001
 40
0.0
 40
0.0
 40
0.0
 40
0.0
 40
0.2500392377
 40
0.5002415745
 40
0.6252802471
 40
0.7502109918
 40
0.8750658286
 40
1.0
 40
1.0
 40
1.0
 40
1.0
 10
4.1486282559
 20
5.3718802886
 30
0.0
 10
4.1506527219
 20
5.3223297831
 30
0.0
 10
4.1585752359
 20
5.2233654403
 30
0.0
 10
4.1725122518
 20
5.1001445491
 30
0.0
 10
4.1827352385
 20
5.0014674424
 30
0.0
 10
4.1890949825
 20
4.9273920819
 30
0.0
 10
4.1933055948
 20
4.8531778469
 30
0.0
 10
4.1941139684
 20
4.8036208986
 30
0.0
 10
4.1938802974
 20
4.7788430255
 30
0.0
  0
SPLINE
  5
314
100
AcDbEntity
  8
0
100
AcDbSpline
 62
7
  6
CONTINUOUS
 70
0
 71
3
 72
25
 73
21
 74
0
 42
0.0000001
 43
0.0000001
 44
0.0000000001
 40
0.0
 40
0.0
 40
0.0
 40
0.0
 40
0.0631266252
 40
0.125658975
 40
0.1878808696
 40
0.2500080034
 40
0.3121936412
 40
0.3745362326
 40
0.4370881277
 40
0.4998647692
 40
0.5628281288
 40
0.6258093774
 40
0.6886160418
 40
0.75110837
 40
0.813249597
 40
0.8751585361
 40
0.9061273125
 40
0.937190482
 40
0.9684425383
 40
1.0
 40
1.0
 40
1.0
 40
1.0
 10
3.7295376377
 20
5.3725229432
 30
0.0
 10
3.7270692432
 20
5.338835716
 30
0.0
 10
3.724387226
 20
5.2715962543
 30
0.0
 10
3.7266078292
 20
5.171035536
 30
0.0
 10
3.7344042873
 20
5.071296933
 30
0.0
 10
3.7470869483
 20
4.9722607848
 30
0.0
 10
3.7639686552
 20
4.8737975895
 30
0.0
 10
3.7843652794
 20
4.7757784134
 30
0.0
 10
3.8075962589
 20
4.6780739261
 30
0.0
 10
3.8329762625
 20
4.5805668778
 30
0.0
 10
3.8598137592
 20
4.4832176972
 30
0.0
 10
3.8865172919
 20
4.3858149023
 30
0.0
 10
3.9114683133
 20
4.2881991471
 30
0.0
 10
3.9330413802
 20
4.1902220141
 30
0.0
 10
3.9495983527
 20
4.0917366038
 30
0.0
 10
3.9578287721
 20
4.0091091032
 30
0.0
 10
3.9602339212
 20
3.9428153306
 30
0.0
 10
3.9597076383
 20
3.8928832421
 30
0.0
 10
3.956598779
 20
3.8427280653
 30
0.0
 10
3.9526612252
 20
3.8093296185
 30
0.0
 10
3.9501946742
 20
3.7926250996
 30
0.0
  0
SPLINE
  5
315
100
AcDbEntity
  8
0
100
AcDbSpline
 62
7
  6
CONTINUOUS
 70
0
 71
3
 72
40
 73
36
 74
0
 42
0.0000001
 43
0.0000001
 44
0.0000000001
 40
0.0
 40
0.0
 40
0.0
 40
0.0
 40
0.0308050057
 40
0.0618713684
 40
0.093157664
 40
0.1246105893
 40
0.1877728436
 40
0.219359343
 40
0.2508757198
 40
0.2822798808
 40
0.3135460992
 40
0.344670168
 40
0.3756747549
 40
0.3911495249
 40
0.4066180297
 40
0.4220929107
 40
0.4375865412
 40
0.4686593966
 40
0.4998687783
 40
0.5312007376
 40
0.5626122779
 40
0.5783298435
 40
0.5940449228
 40
0.6097521231
 40
0.62544961
 40
0.6568099157
 40
0.6881171265
 40
0.7193661493
 40
0.7505563993
 40
0.8127805935
 40
0.8749084652
 40
0.9060104215
 40
0.9371895526
 40
0.9684985259
 40
1.0
 40
1.0
 40
1.0
 40
1.0
 10
4.1150589531
 20
3.7902256013
 30
0.0
 10
4.1146323294
 20
3.8068582794
 30
0.0
 10
4.1143247965
 20
3.8402800265
 30
0.0
 10
4.1151214993
 20
3.890592534
 30
0.0
 10
4.1168165583
 20
3.9412314343
 30
0.0
 10
4.1198028855
 20
4.009166892
 30
0.0
 10
4.1231515431
 20
4.077248984
 30
0.0
 10
4.1254484305
 20
4.1454098079
 30
0.0
 10
4.1262867321
 20
4.1964508812
 30
0.0
 10
4.1258829795
 20
4.2473271757
 30
0.0
 10
4.12387872
 20
4.2979576656
 30
0.0
 10
4.119914367
 20
4.3482600193
 30
0.0
 10
4.114672517
 20
4.3898656117
 30
0.0
 10
4.1091405362
 20
4.4228677838
 30
0.0
 10
4.1042810363
 20
4.4474673536
 30
0.0
 10
4.0986577018
 20
4.4719139816
 30
0.0
 10
4.0902218256
 20
4.5043478243
 30
0.0
 10
4.0781145939
 20
4.5445892308
 30
0.0
 10
4.0617155159
 20
4.5924262003
 30
0.0
 10
4.0440244634
 20
4.6399911384
 30
0.0
 10
4.0287009023
 20
4.6795017054
 30
0.0
 10
4.0163752395
 20
4.7111275748
 30
0.0
 10
4.0071764958
 20
4.734868622
 30
0.0
 10
3.9980819442
 20
4.7586382196
 30
0.0
 10
3.986116549
 20
4.7903565631
 30
0.0
 10
3.9715019112
 20
4.8300804621
 30
0.0
 10
3.9546443904
 20
4.8779248083
 30
0.0
 10
3.9386159615
 20
4.9259577101
 30
0.0
 10
3.9185577356
 20
4.990236542
 30
0.0
 10
3.896246051
 20
5.0712671091
 30
0.0
 10
3.8785884516
 20
5.1534149081
 30
0.0
 10
3.8678576393
 20
5.2197601751
 30
0.0
 10
3.8616364611
 20
5.2699379594
 30
0.0
 10
3.8573905538
 20
5.3205382741
 30
0.0
 10
3.8559780451
 20
5.3544461209
 30
0.0
 10
3.8556447999
 20
5.3714571765
 30
0.0
  0
SPLINE
  5
316
100
AcDbEntity
  8
0
100
AcDbSpline
 62
7
  6
CONTINUOUS
 70
0
 71
3
 72
21
 73
17
 74
0
 42
0.0000001
 43
0.0000001
 44
0.0000000001
 40
0.0
 40
0.0
 40
0.0
 40
0.0
 40
0.1399917458
 40
0.2725582916
 40
0.336494886
 40
0.3990995624
 40
0.4605727029
 40
0.5211259245
 40
0.5809806019
 40
0.6403659223
 40
0.6995165292
 40
0.7586698588
 40
0.8180633152
 40
0.8779314456
 40
0.9385032834
 40
1.0
 40
1.0
 40
1.0
 40
1.0
 10
6.173320699
 20
2.7822236007
 30
0.0
 10
6.141688857
 20
2.7557968272
 30
0.0
 10
6.0821918075
 20
2.7017612913
 30
0.0
 10
6.0154363104
 20
2.6283058874
 30
0.0
 10
5.9688156926
 20
2.5678753377
 30
0.0
 10
5.9374668778
 20
2.5222125523
 30
0.0
 10
5.90932005
 20
2.4756687946
 30
0.0
 10
5.8843765391
 20
2.4282436868
 30
0.0
 10
5.8626386464
 20
2.3799384054
 30
0.0
 10
5.8441081973
 20
2.330754406
 30
0.0
 10
5.8287866987
 20
2.2806937068
 30
0.0
 10
5.8166751098
 20
2.2297585993
 30
0.0
 10
5.8077737689
 20
2.1779517504
 30
0.0
 10
5.8020824058
 20
2.1252750239
 30
0.0
 10
5.7996000784
 20
2.0717329715
 30
0.0
 10
5.8000796786
 20
2.0357707874
 30
0.0
 10
5.8008382967
 20
2.0176799776
 30
0.0
  0
SPLINE
  5
317
100
AcDbEntity
  8
0
100
AcDbSpline
 62
7
  6
CONTINUOUS
 70
0
 71
3
 72
22
 73
18
 74
0
 42
0.0000001
 43
0.0000001
 44
0.0000000001
 40
0.0
 40
0.0
 40
0.0
 40
0.0
 40
0.0625565083
 40
0.1248912014
 40
0.1871131423
 40
0.2493103541
 40
0.3115509191
 40
0.3738843308
 40
0.4363430195
 40
0.4989439786
 40
0.5616904387
 40
0.6245671628
 40
0.6875117891
 40
0.7504365415
 40
0.8132448584
 40
0.8758375574
 40
1.0
 40
1.0
 40
1.0
 40
1.0
 10
6.0468397077
 20
3.5534528073
 30
0.0
 10
6.0464868136
 20
3.5352346259
 30
0.0
 10
6.0449640238
 20
3.4988739944
 30
0.0
 10
6.0403643334
 20
3.4445510707
 30
0.0
 10
6.0336132823
 20
3.3905597495
 30
0.0
 10
6.0248692327
 20
3.3368852325
 30
0.0
 10
6.0142902977
 20
3.2835106909
 30
0.0
 10
6.0020343027
 20
3.2304196844
 30
0.0
 10
5.9882590112
 20
3.1775955109
 30
0.0
 10
5.9731213195
 20
3.1250217588
 30
0.0
 10
5.9567809481
 20
3.0726828054
 30
0.0
 10
5.9393924052
 20
3.0205786683
 30
0.0
 10
5.921265335
 20
2.9686734832
 30
0.0
 10
5.902724614
 20
2.9169367745
 30
0.0
 10
5.8840920461
 20
2.8653418641
 30
0.0
 10
5.8596255393
 20
2.7968909253
 30
0.0
 10
5.8420035661
 20
2.7454141846
 30
0.0
 10
5.831014552
 20
2.7109577812
 30
0.0
  0
SPLINE
  5
318
100
AcDbEntity
  8
0
100
AcDbSpline
 62
7
  6
CONTINUOUS
 70
0
 71
3
 72
22
 73
18
 74
0
 42
0.0000001
 43
0.0000001
 44
0.0000000001
 40
0.0
 40
0.0
 40
0.0
 40
0.0
 40
0.1337472586
 40
0.1987254902
 40
0.2626072366
 40
0.3255344668
 40
0.387655694
 40
0.4491252738
 40
0.5101025108
 40
0.5707505893
 40
0.6312353579
 40
0.6917240085
 40
0.7523837008
 40
0.8133801884
 40
0.8748765016
 40
0.9370317378
 40
1.0
 40
1.0
 40
1.0
 40
1.0
 10
5.8645751867
 20
2.6913240087
 30
0.0
 10
5.8934807736
 20
2.7223534139
 30
0.0
 10
5.9345999262
 20
2.7702335994
 30
0.0
 10
5.9844558275
 20
2.8369488734
 30
0.0
 10
6.0185727714
 20
2.8873152154
 30
0.0
 10
6.0497657015
 20
2.9384840674
 30
0.0
 10
6.0780350751
 20
2.990456919
 30
0.0
 10
6.103379378
 20
3.0432328875
 30
0.0
 10
6.1257976827
 20
3.0968114113
 30
0.0
 10
6.145289057
 20
3.1511915552
 30
0.0
 10
6.161852796
 20
3.2063722353
 30
0.0
 10
6.1754884244
 20
3.2623522088
 30
0.0
 10
6.1861957363
 20
3.3191302057
 30
0.0
 10
6.193974806
 20
3.3767048002
 30
0.0
 10
6.1988259481
 20
3.4350752223
 30
0.0
 10
6.2007497802
 20
3.4942386146
 30
0.0
 10
6.2000859674
 20
3.5339241386
 30
0.0
 10
6.1992781976
 20
3.5538730418
 30
0.0
  0
SPLINE
  5
319
100
AcDbEntity
  8
0
100
AcDbSpline
 62
7
  6
CONTINUOUS
 70
0
 71
3
 72
37
 73
33
 74
0
 42
0.0000001
 43
0.0000001
 44
0.0000000001
 40
0.0
 40
0.0
 40
0.0
 40
0.0
 40
0.0622532506
 40
0.093545509
 40
0.1248755184
 40
0.1562021262
 40
0.1874947671
 40
0.2187348519
 40
0.2499172545
 40
0.2810518605
 40
0.3121732092
 40
0.3433354558
 40
0.3745502414
 40
0.405792554
 40
0.4370210587
 40
0.4681982183
 40
0.4837624374
 40
0.4993120214
 40
0.5070830296
 40
0.5148527115
 40
0.5303911205
 40
0.5459332391
 40
0.5614838454
 40
0.5926238191
 40
0.6238365712
 40
0.6551343161
 40
0.686519092
 40
0.749503705
 40
0.8126478734
 40
0.875689055
 40
0.9382785713
 40
1.0
 40
1.0
 40
1.0
 40
1.0
 10
5.6894467735
 20
3.5527796379
 30
0.0
 10
5.6899221011
 20
3.5198203853
 30
0.0
 10
5.689156404
 20
3.4702496868
 30
0.0
 10
5.6847510437
 20
3.404265258
 30
0.0
 10
5.6796121046
 20
3.3547733226
 30
0.0
 10
5.672520533
 20
3.3055219972
 30
0.0
 10
5.6633516164
 20
3.2566608929
 30
0.0
 10
5.6519806204
 20
3.2083406931
 30
0.0
 10
5.638281779
 20
3.1607130951
 30
0.0
 10
5.6221296668
 20
3.1139215789
 30
0.0
 10
5.6033874627
 20
3.0681226458
 30
0.0
 10
5.582750587
 20
3.0231125663
 30
0.0
 10
5.5609008674
 20
2.9786138376
 30
0.0
 10
5.5385104699
 20
2.9343486201
 30
0.0
 10
5.5162510119
 20
2.8900394215
 30
0.0
 10
5.4983606935
 20
2.8528269562
 30
0.0
 10
5.4847910053
 20
2.8227632005
 30
0.0
 10
5.4766936554
 20
2.8038311089
 30
0.0
 10
5.470487862
 20
2.7885831093
 30
0.0
 10
5.464479419
 20
2.7732626241
 30
0.0
 10
5.457335224
 20
2.7539696269
 30
0.0
 10
5.4493357429
 20
2.7306079071
 30
0.0
 10
5.4394130139
 20
2.6991828526
 30
0.0
 10
5.4283742578
 20
2.659421872
 30
0.0
 10
5.4172154258
 20
2.6110917169
 30
0.0
 10
5.4080282634
 20
2.5622172293
 30
0.0
 10
5.3982526191
 20
2.4963857622
 30
0.0
 10
5.3904374526
 20
2.413281283
 30
0.0
 10
5.3872089136
 20
2.3131176978
 30
0.0
 10
5.3892462313
 20
2.2131435819
 30
0.0
 10
5.3956846719
 20
2.1141245112
 30
0.0
 10
5.4024011997
 20
2.0486317597
 30
0.0
 10
5.4062365752
 20
2.0161765116
 30
0.0
  0
SPLINE
  5
31A
100
AcDbEntity
  8
0
100
AcDbSpline
 62
7
  6
CONTINUOUS
 70
0
 71
3
 72
38
 73
34
 74
0
 42
0.0000001
 43
0.0000001
 44
0.0000000001
 40
0.0
 40
0.0
 40
0.0
 40
0.0
 40
0.0314242402
 40
0.0627041679
 40
0.093904689
 40
0.1250771287
 40
0.1874584516
 40
0.2500347878
 40
0.2814067772
 40
0.3128126093
 40
0.3442298257
 40
0.3756289548
 40
0.3913114237
 40
0.4069755092
 40
0.4226161682
 40
0.4382341645
 40
0.4694244036
 40
0.5005831215
 40
0.5317318663
 40
0.5628823239
 40
0.5940411182
 40
0.6252146285
 40
0.6564138011
 40
0.6720291126
 40
0.687659039
 40
0.7189530626
 40
0.7502651955
 40
0.7815676341
 40
0.8128406815
 40
0.8752534167
 40
0.9375542673
 40
0.9687379999
 40
1.0
 40
1.0
 40
1.0
 40
1.0
 10
5.6204143077
 20
2.024552083
 30
0.0
 10
5.6153945102
 20
2.0403390815
 30
0.0
 10
5.6063560072
 20
2.0721607502
 30
0.0
 10
5.5957236037
 20
2.1205368718
 30
0.0
 10
5.5879395862
 20
2.1693184193
 30
0.0
 10
5.5812030578
 20
2.2347673796
 30
0.0
 10
5.5793254257
 20
2.3172068857
 30
0.0
 10
5.585397788
 20
2.3995142071
 30
0.0
 10
5.5945456224
 20
2.4649764542
 30
0.0
 10
5.6034505338
 20
2.5138427543
 30
0.0
 10
5.6142773991
 20
2.5623314255
 30
0.0
 10
5.624810119
 20
2.6023611534
 30
0.0
 10
5.6340878225
 20
2.6341123404
 30
0.0
 10
5.6414524676
 20
2.6577637481
 30
0.0
 10
5.6492159198
 20
2.6812513257
 30
0.0
 10
5.6600571432
 20
2.7123374089
 30
0.0
 10
5.6744319377
 20
2.7508488254
 30
0.0
 10
5.6926759157
 20
2.7966397395
 30
0.0
 10
5.711583486
 20
2.8421363629
 30
0.0
 10
5.7308335331
 20
2.8874881312
 30
0.0
 10
5.7501050765
 20
2.9328449707
 30
0.0
 10
5.7690773004
 20
2.9783563574
 30
0.0
 10
5.7843648374
 20
3.0165237664
 30
0.0
 10
5.7961207118
 20
3.0472725897
 30
0.0
 10
5.8075110885
 20
3.0782119237
 30
0.0
 10
5.8209836315
 20
3.1171991062
 30
0.0
 10
5.8357846099
 20
3.1644480652
 30
0.0
 10
5.8490717089
 20
3.2121359594
 30
0.0
 10
5.8645528026
 20
3.2761924486
 30
0.0
 10
5.8793714299
 20
3.3571699078
 30
0.0
 10
5.8870990813
 20
3.4391218094
 30
0.0
 10
5.8883967456
 20
3.5048950899
 30
0.0
 10
5.8873194798
 20
3.5378163553
 30
0.0
 10
5.8863270225
 20
3.5542667761
 30
0.0
  0
SPLINE
  5
31B
100
AcDbEntity
  8
0
100
AcDbSpline
 62
7
  6
CONTINUOUS
 70
0
 71
3
 72
46
 73
42
 74
0
 42
0.0000001
 43
0.0000001
 44
0.0000000001
 40
0.0
 40
0.0
 40
0.0
 40
0.0
 40
0.0312251741
 40
0.062469867
 40
0.0937463703
 40
0.1093941231
 40
0.1250451523
 40
0.1563490168
 40
0.1876409703
 40
0.2189048367
 40
0.2501299579
 40
0.2657276302
 40
0.2813166401
 40
0.296899355
 40
0.3046894995
 40
0.3124795372
 40
0.3280614814
 40
0.3436491198
 40
0.3748497378
 40
0.4373602492
 40
0.4686512001
 40
0.4842987402
 40
0.4999451663
 40
0.5155890169
 40
0.5312294242
 40
0.5468666461
 40
0.5625013218
 40
0.5937649889
 40
0.6250242672
 40
0.6562815767
 40
0.6875382341
 40
0.7187945213
 40
0.7500497552
 40
0.7813023568
 40
0.8125499199
 40
0.828170887
 40
0.8437894711
 40
0.8750209406
 40
0.9062495518
 40
0.9374825605
 40
1.0
 40
1.0
 40
1.0
 40
1.0
 10
5.0997542152
 20
3.5557365547
 30
0.0
 10
5.0975953174
 20
3.5397694973
 30
0.0
 10
5.0939760746
 20
3.5077285275
 30
0.0
 10
5.0901808213
 20
3.4594981656
 30
0.0
 10
5.0879836452
 20
3.4192198991
 30
0.0
 10
5.0865668726
 20
3.38696182
 30
0.0
 10
5.0853009919
 20
3.3546832253
 30
0.0
 10
5.0838983892
 20
3.3143318055
 30
0.0
 10
5.0821592706
 20
3.2659308327
 30
0.0
 10
5.0800221433
 20
3.2175856836
 30
0.0
 10
5.0776232202
 20
3.1773612459
 30
0.0
 10
5.0751620573
 20
3.1452498535
 30
0.0
 10
5.0730031521
 20
3.1212126007
 30
0.0
 10
5.0709068166
 20
3.1012167462
 30
0.0
 10
5.0690304229
 20
3.0852462031
 30
0.0
 10
5.0670133629
 20
3.0692932166
 30
0.0
 10
5.0642406672
 20
3.0493810283
 30
0.0
 10
5.0593287783
 20
3.0175738002
 30
0.0
 10
5.0496381826
 20
2.9620082133
 30
0.0
 10
5.0368156428
 20
2.8987873525
 30
0.0
 10
5.0253271622
 20
2.8434928533
 30
0.0
 10
5.0188605189
 20
2.8118526471
 30
0.0
 10
5.0141071247
 20
2.7881034443
 30
0.0
 10
5.0094943757
 20
2.7643301392
 30
0.0
 10
5.005072555
 20
2.7405253386
 30
0.0
 10
5.0008492265
 20
2.7166893331
 30
0.0
 10
4.9954725339
 20
2.6848714736
 30
0.0
 10
4.9892170045
 20
2.6450281263
 30
0.0
 10
4.9824148076
 20
2.5971158994
 30
0.0
 10
4.9762776202
 20
2.5491177304
 30
0.0
 10
4.9707654571
 20
2.5010455234
 30
0.0
 10
4.9658383774
 20
2.4529110707
 30
0.0
 10
4.9614564226
 20
2.404726187
 30
0.0
 10
4.9575796985
 20
2.3565027014
 30
0.0
 10
4.9547365288
 20
2.3162915793
 30
0.0
 10
4.95267485
 20
2.2841138129
 30
0.0
 10
4.9507476432
 20
2.2519360285
 30
0.0
 10
4.9486153294
 20
2.2117028461
 30
0.0
 10
4.9465887445
 20
2.1633978586
 30
0.0
 10
4.9447135248
 20
2.0989344546
 30
0.0
 10
4.9443724796
 20
2.0505484142
 30
0.0
 10
4.9447345193
 20
2.01829113
 30
0.0
  0
SPLINE
  5
31C
100
AcDbEntity
  8
0
100
AcDbSpline
 62
7
  6
CONTINUOUS
 70
0
 71
3
 72
57
 73
53
 74
0
 42
0.0000001
 43
0.0000001
 44
0.0000000001
 40
0.0
 40
0.0
 40
0.0
 40
0.0
 40
0.0311853241
 40
0.0624160249
 40
0.0936559239
 40
0.109268781
 40
0.1248720676
 40
0.1560512423
 40
0.1872100791
 40
0.2183699909
 40
0.249555011
 40
0.2807919538
 40
0.3121105533
 40
0.3435435731
 40
0.3750965531
 40
0.4066514975
 40
0.4380906952
 40
0.4537471424
 40
0.4693574729
 40
0.4849257356
 40
0.5004617186
 40
0.515981502
 40
0.5315084639
 40
0.5470662938
 40
0.5626635027
 40
0.578295217
 40
0.5939480016
 40
0.6096045929
 40
0.6252485686
 40
0.6408690196
 40
0.6486699714
 40
0.6564659608
 40
0.6642591801
 40
0.6720518036
 40
0.6876415812
 40
0.7032460594
 40
0.7188701887
 40
0.7345143667
 40
0.7501750738
 40
0.7658455019
 40
0.7815161696
 40
0.7971758686
 40
0.8128195933
 40
0.8284492653
 40
0.8440669727
 40
0.8752741173
 40
0.9064555421
 40
0.9220406824
 40
0.9376240594
 40
0.9532070911
 40
0.9687931082
 40
1.0
 40
1.0
 40
1.0
 40
1.0
 10
5.1631863115
 20
2.0208947253
 30
0.0
 10
5.1612338762
 20
2.0371223104
 30
0.0
 10
5.1572159196
 20
2.0695877524
 30
0.0
 10
5.1511468676
 20
2.1182972822
 30
0.0
 10
5.146294823
 20
2.1589336803
 30
0.0
 10
5.1426827044
 20
2.1914680088
 30
0.0
 10
5.139305745
 20
2.2239955926
 30
0.0
 10
5.1355702606
 20
2.2646764573
 30
0.0
 10
5.1319316952
 20
2.313547225
 30
0.0
 10
5.1292121621
 20
2.3624813303
 30
0.0
 10
5.1274832057
 20
2.411501885
 30
0.0
 10
5.1268172974
 20
2.4606320282
 30
0.0
 10
5.1272855281
 20
2.5098951685
 30
0.0
 10
5.1289631966
 20
2.5592974995
 30
0.0
 10
5.1319012933
 20
2.6087679418
 30
0.0
 10
5.1366451273
 20
2.6581075842
 30
0.0
 10
5.1425849174
 20
2.6989229628
 30
0.0
 10
5.1488130941
 20
2.7311977409
 30
0.0
 10
5.1542830007
 20
2.7551327955
 30
0.0
 10
5.1606277931
 20
2.7787865782
 30
0.0
 10
5.1679192297
 20
2.8021171432
 30
0.0
 10
5.1762244165
 20
2.8250854071
 30
0.0
 10
5.1856272309
 20
2.8476380034
 30
0.0
 10
5.1959117496
 20
2.8698429233
 30
0.0
 10
5.2068427764
 20
2.8917956713
 30
0.0
 10
5.2181933787
 20
2.9135888665
 30
0.0
 10
5.2297354083
 20
2.9353157728
 30
0.0
 10
5.24124139
 20
2.957069276
 30
0.0
 10
5.2524838143
 20
2.978941989
 30
0.0
 10
5.2614459385
 20
2.997354133
 30
0.0
 10
5.2682544458
 20
3.0122325194
 30
0.0
 10
5.2731459693
 20
3.0234742623
 30
0.0
 10
5.2778199382
 20
3.0348034153
 30
0.0
 10
5.283779774
 20
3.0500180218
 30
0.0
 10
5.290743271
 20
3.0692326132
 30
0.0
 10
5.2983967845
 20
3.0925499975
 30
0.0
 10
5.3054289349
 20
3.11609134
 30
0.0
 10
5.3119199255
 20
3.1398174019
 30
0.0
 10
5.3179497182
 20
3.1636892879
 30
0.0
 10
5.3235988563
 20
3.1876679005
 30
0.0
 10
5.3289452815
 20
3.2117148843
 30
0.0
 10
5.3340773299
 20
3.2357939826
 30
0.0
 10
5.3390391845
 20
3.2598867538
 30
0.0
 10
5.3438333398
 20
3.2839910121
 30
0.0
 10
5.3500168722
 20
3.3161350263
 30
0.0
 10
5.3573855752
 20
3.3563504796
 30
0.0
 10
5.3643455663
 20
3.3966210318
 30
0.0
 10
5.3697080919
 20
3.4288564803
 30
0.0
 10
5.373638605
 20
3.4530423081
 30
0.0
 10
5.3774863603
 20
3.4772418914
 30
0.0
 10
5.3825383627
 20
3.509541182
 30
0.0
 10
5.3863166348
 20
3.5337732246
 30
0.0
 10
5.3888964001
 20
3.5499244157
 30
0.0
  0
SPLINE
  5
31D
100
AcDbEntity
  8
0
100
AcDbSpline
 62
7
  6
CONTINUOUS
 70
0
 71
3
 72
23
 73
19
 74
0
 42
0.0000001
 43
0.0000001
 44
0.0000000001
 40
0.0
 40
0.0
 40
0.0
 40
0.0
 40
0.1249004607
 40
0.2499095506
 40
0.3749409007
 40
0.4374555426
 40
0.499966221
 40
0.5624768753
 40
0.5937350965
 40
0.624996524
 40
0.6562627365
 40
0.6875353781
 40
0.7188142571
 40
0.7500973917
 40
0.8126630639
 40
0.8752002556
 40
0.9376640673
 40
1.0
 40
1.0
 40
1.0
 40
1.0
 10
6.3703780992
 20
3.5509708467
 30
0.0
 10
6.3771234447
 20
3.4872106022
 30
0.0
 10
6.3882315549
 20
3.3593663236
 30
0.0
 10
6.3971723093
 20
3.1670513341
 30
0.0
 10
6.3977003515
 20
3.0065464923
 30
0.0
 10
6.3936687452
 20
2.8782363331
 30
0.0
 10
6.3883433082
 20
2.7821049251
 30
0.0
 10
6.3819250303
 20
2.7021287537
 30
0.0
 10
6.3755656045
 20
2.6382603779
 30
0.0
 10
6.3701735759
 20
2.5904180772
 30
0.0
 10
6.3641512716
 20
2.5426435561
 30
0.0
 10
6.3574846455
 20
2.4949456414
 30
0.0
 10
6.3502027403
 20
2.447329134
 30
0.0
 10
6.3397311311
 20
2.3839544671
 30
0.0
 10
6.3253145572
 20
2.3049742289
 30
0.0
 10
6.3062147522
 20
2.2105978913
 30
0.0
 10
6.2856395361
 20
2.1166543818
 30
0.0
 10
6.2711358338
 20
2.0542518608
 30
0.0
 10
6.2637418614
 20
2.023118473
 30
0.0
  0
SPLINE
  5
31E
100
AcDbEntity
  8
0
100
AcDbSpline
 62
7
  6
CONTINUOUS
 70
0
 71
3
 72
13
 73
9
 74
0
 42
0.0000001
 43
0.0000001
 44
0.0000000001
 40
0.0
 40
0.0
 40
0.0
 40
0.0
 40
0.1250612936
 40
0.250023984
 40
0.3749865254
 40
0.4999850728
 40
0.7500436852
 40
1.0
 40
1.0
 40
1.0
 40
1.0
 10
6.4987573433
 20
2.0163415113
 30
0.0
 10
6.5057480687
 20
2.0800494465
 30
0.0
 10
6.5173542607
 20
2.2076824318
 30
0.0
 10
6.5290033525
 20
2.3995188474
 30
0.0
 10
6.536290392
 20
2.5915299139
 30
0.0
 10
6.5420676721
 20
2.8477175652
 30
0.0
 10
6.5454162917
 20
3.167994008
 30
0.0
 10
6.5514580583
 20
3.4242078319
 30
0.0
 10
6.5571937543
 20
3.5521748179
 30
0.0
  0
SPLINE
  5
31F
100
AcDbEntity
  8
0
100
AcDbSpline
 62
7
  6
CONTINUOUS
 70
0
 71
3
 72
17
 73
13
 74
0
 42
0.0000001
 43
0.0000001
 44
0.0000000001
 40
0.0
 40
0.0
 40
0.0
 40
0.0
 40
0.1247767886
 40
0.2500649609
 40
0.3754937542
 40
0.5006981115
 40
0.6254556392
 40
0.7498273839
 40
0.8120139628
 40
0.8743313412
 40
0.9369294995
 40
1.0
 40
1.0
 40
1.0
 40
1.0
 10
7.3518889975
 20
2.7933414303
 30
0.0
 10
7.3353057508
 20
2.7619484689
 30
0.0
 10
7.3008849423
 20
2.6996615186
 30
0.0
 10
7.2475159207
 20
2.607104248
 30
0.0
 10
7.1941610555
 20
2.514396128
 30
0.0
 10
7.1427157493
 20
2.420771067
 30
0.0
 10
7.0950846597
 20
2.3254599439
 30
0.0
 10
7.060172617
 20
2.2439622322
 30
0.0
 10
7.0361537026
 20
2.1773252556
 30
0.0
 10
7.020312385
 20
2.1264783929
 30
0.0
 10
7.0068909751
 20
2.0746781714
 30
0.0
 10
6.9997545195
 20
2.0396182678
 30
0.0
 10
6.9966698671
 20
2.0219393567
 30
0.0
  0
SPLINE
  5
320
100
AcDbEntity
  8
0
100
AcDbSpline
 62
7
  6
CONTINUOUS
 70
0
 71
3
 72
22
 73
18
 74
0
 42
0.0000001
 43
0.0000001
 44
0.0000000001
 40
0.0
 40
0.0
 40
0.0
 40
0.0
 40
0.0625914101
 40
0.1250208601
 40
0.1874208404
 40
0.2498651585
 40
0.3123799
 40
0.3749547732
 40
0.4375544688
 40
0.468848812
 40
0.5001349471
 40
0.5626835694
 40
0.6252028295
 40
0.6876960432
 40
0.7501677895
 40
0.8750732126
 40
1.0
 40
1.0
 40
1.0
 40
1.0
 10
7.2548115976
 20
3.5536609792
 30
0.0
 10
7.2543472918
 20
3.5380951643
 30
0.0
 10
7.25255755
 20
3.5070246035
 30
0.0
 10
7.2476310138
 20
3.4606410815
 30
0.0
 10
7.2408314702
 20
3.4145353775
 30
0.0
 10
7.2325198896
 20
3.3686610022
 30
0.0
 10
7.2230555758
 20
3.3229690588
 30
0.0
 10
7.2127976944
 20
3.277411225
 30
0.0
 10
7.2038834383
 20
3.239515973
 30
0.0
 10
7.1967140172
 20
3.2092075897
 30
0.0
 10
7.1895518357
 20
3.1789105328
 30
0.0
 10
7.1806266167
 20
3.1410473683
 30
0.0
 10
7.1700347231
 20
3.0956000525
 30
0.0
 10
7.1596352818
 20
3.0501277888
 30
0.0
 10
7.1461253442
 20
2.9894454555
 30
0.0
 10
7.1300817325
 20
2.9134147999
 30
0.0
 10
7.1185454286
 20
2.8523287299
 30
0.0
 10
7.1132018639
 20
2.8217097312
 30
0.0
  0
SPLINE
  5
321
100
AcDbEntity
  8
0
100
AcDbSpline
 62
7
  6
CONTINUOUS
 70
0
 71
3
 72
9
 73
5
 74
0
 42
0.0000001
 43
0.0000001
 44
0.0000000001
 40
0.0
 40
0.0
 40
0.0
 40
0.0
 40
0.5000141356
 40
1.0
 40
1.0
 40
1.0
 40
1.0
 10
7.3894298137
 20
3.2597908385
 30
0.0
 10
7.3890619663
 20
3.2591650197
 30
0.0
 10
7.388348118
 20
3.2578921465
 30
0.0
 10
7.387923319
 20
3.2564954771
 30
0.0
 10
7.3876211238
 20
3.2558354927
 30
0.0
  0
SPLINE
  5
322
100
AcDbEntity
  8
0
100
AcDbSpline
 62
7
  6
CONTINUOUS
 70
0
 71
3
 72
9
 73
5
 74
0
 42
0.0000001
 43
0.0000001
 44
0.0000000001
 40
0.0
 40
0.0
 40
0.0
 40
0.0
 40
0.4999889982
 40
1.0
 40
1.0
 40
1.0
 40
1.0
 10
7.3894298137
 20
3.2641301253
 30
0.0
 10
7.3894298137
 20
3.2634058822
 30
0.0
 10
7.3892342783
 20
3.261962474
 30
0.0
 10
7.3893542563
 20
3.2605111616
 30
0.0
 10
7.3894298137
 20
3.2597908385
 30
0.0
  0
SPLINE
  5
323
100
AcDbEntity
  8
0
100
AcDbSpline
 62
7
  6
CONTINUOUS
 70
0
 71
3
 72
15
 73
11
 74
0
 42
0.0000001
 43
0.0000001
 44
0.0000000001
 40
0.0
 40
0.0
 40
0.0
 40
0.0
 40
0.1250210178
 40
0.2500078907
 40
0.3750190544
 40
0.5000462499
 40
0.6250535333
 40
0.7500162549
 40
0.8749600806
 40
1.0
 40
1.0
 40
1.0
 40
1.0
 10
6.7812654966
 20
3.5534392571
 30
0.0
 10
6.7800675059
 20
3.4893413133
 30
0.0
 10
6.7752502061
 20
3.361202833
 30
0.0
 10
6.7627143754
 20
3.1692935212
 30
0.0
 10
6.746834888
 20
2.9776373001
 30
0.0
 10
6.7295682901
 20
2.7860960063
 30
0.0
 10
6.7128690307
 20
2.5945274824
 30
0.0
 10
6.6986924832
 20
2.4027890447
 30
0.0
 10
6.6889977111
 20
2.2107435441
 30
0.0
 10
6.6868359752
 20
2.0825343084
 30
0.0
 10
6.6871528752
 20
2.018416261
 30
0.0
  0
SPLINE
  5
324
100
AcDbEntity
  8
0
100
AcDbSpline
 62
7
  6
CONTINUOUS
 70
0
 71
3
 72
19
 73
15
 74
0
 42
0.0000001
 43
0.0000001
 44
0.0000000001
 40
0.0
 40
0.0
 40
0.0
 40
0.0
 40
0.0626672628
 40
0.1250993089
 40
0.1874365831
 40
0.249770172
 40
0.374586796
 40
0.4996159477
 40
0.6246595417
 40
0.7495461559
 40
0.8119597347
 40
0.8744252209
 40
0.9370516324
 40
1.0
 40
1.0
 40
1.0
 40
1.0
 10
6.8407237794
 20
2.0190723245
 30
0.0
 10
6.8398195615
 20
2.0513692298
 30
0.0
 10
6.839691654
 20
2.115898162
 30
0.0
 10
6.8439428699
 20
2.2124690781
 30
0.0
 10
6.8519791297
 20
2.3086203275
 30
0.0
 10
6.8668726082
 20
2.436402655
 30
0.0
 10
6.8916899818
 20
2.595476198
 30
0.0
 10
6.9261278471
 20
2.7856636857
 30
0.0
 10
6.9600731082
 20
2.9759802925
 30
0.0
 10
6.9836473382
 20
3.1353419541
 30
0.0
 10
6.9970451681
 20
3.2634371422
 30
0.0
 10
7.0037125355
 20
3.359904237
 30
0.0
 10
7.0063437806
 20
3.4568475583
 30
0.0
 10
7.0049724988
 20
3.5216102147
 30
0.0
 10
7.0034086351
 20
3.5540270051
 30
0.0
  0
SPLINE
  5
325
100
AcDbEntity
  8
0
100
AcDbSpline
 62
7
  6
CONTINUOUS
 70
0
 71
3
 72
17
 73
13
 74
0
 42
0.0000001
 43
0.0000001
 44
0.0000000001
 40
0.0
 40
0.0
 40
0.0
 40
0.0
 40
0.0624985389
 40
0.1248400687
 40
0.1871290237
 40
0.2494444973
 40
0.3743211474
 40
0.4996876452
 40
0.6254164292
 40
0.751127631
 40
0.8762376112
 40
1.0
 40
1.0
 40
1.0
 40
1.0
 10
4.4581055198
 20
2.0157973384
 30
0.0
 10
4.4535327768
 20
2.0490113228
 30
0.0
 10
4.4462992511
 20
2.1156322989
 30
0.0
 10
4.4409768736
 20
2.2159218996
 30
0.0
 10
4.4409380945
 20
2.3162549937
 30
0.0
 10
4.4475829805
 20
2.4499698209
 30
0.0
 10
4.4678261021
 20
2.616667161
 30
0.0
 10
4.5090053425
 20
2.8143170225
 30
0.0
 10
4.5649712725
 20
3.0087279858
 30
0.0
 10
4.6336300041
 20
3.1988407946
 30
0.0
 10
4.7128983653
 20
3.3835978497
 30
0.0
 10
4.7718999571
 20
3.5034306011
 30
0.0
 10
4.8026227557
 20
3.5622866663
 30
0.0
  0
SPLINE
  5
326
100
AcDbEntity
  8
0
100
AcDbSpline
 62
7
  6
CONTINUOUS
 70
0
 71
3
 72
17
 73
13
 74
0
 42
0.0000001
 43
0.0000001
 44
0.0000000001
 40
0.0
 40
0.0
 40
0.0
 40
0.0
 40
0.1246661097
 40
0.2498243181
 40
0.375137748
 40
0.5003597707
 40
0.6253583005
 40
0.7501418041
 40
0.812508982
 40
0.8749039134
 40
0.9373789789
 40
1.0
 40
1.0
 40
1.0
 40
1.0
 10
4.8976499857
 20
3.5482047643
 30
0.0
 10
4.8819941652
 20
3.4859910901
 30
0.0
 10
4.8516906202
 20
3.3610432814
 30
0.0
 10
4.8107675206
 20
3.1723593268
 30
0.0
 10
4.7757973351
 20
2.9821751639
 30
0.0
 10
4.7483455862
 20
2.790823241
 30
0.0
 10
4.7299837827
 20
2.5986404121
 30
0.0
 10
4.7235750723
 20
2.4380300946
 30
0.0
 10
4.7245776262
 20
2.3095974695
 30
0.0
 10
4.7285871512
 20
2.2133081422
 30
0.0
 10
4.736051393
 20
2.1170938156
 30
0.0
 10
4.743450894
 20
2.0531266606
 30
0.0
 10
4.7477854127
 20
2.0211946683
 30
0.0
  0
SPLINE
  5
327
100
AcDbEntity
  8
0
100
AcDbSpline
 62
7
  6
CONTINUOUS
 70
0
 71
3
 72
18
 73
14
 74
0
 42
0.0000001
 43
0.0000001
 44
0.0000000001
 40
0.0
 40
0.0
 40
0.0
 40
0.0
 40
0.1248622379
 40
0.2502866631
 40
0.375772634
 40
0.5009097471
 40
0.6255001996
 40
0.6876285229
 40
0.7497104386
 40
0.8118387601
 40
0.874143217
 40
0.9367932805
 40
1.0
 40
1.0
 40
1.0
 40
1.0
 10
3.3294152167
 20
2.8913798401
 30
0.0
 10
3.3180687516
 20
2.8556745763
 30
0.0
 10
3.2945242925
 20
2.7843594556
 30
0.0
 10
3.2587185742
 20
2.6774472193
 30
0.0
 10
3.2243206284
 20
2.569975996
 30
0.0
 10
3.1933597503
 20
2.4617069777
 30
0.0
 10
3.1721068782
 20
2.3705166773
 30
0.0
 10
3.1589082482
 20
2.2970246251
 30
0.0
 10
3.1511677682
 20
2.2416362204
 30
0.0
 10
3.14583634
 20
2.1859078516
 30
0.0
 10
3.1431732592
 20
2.1298131889
 30
0.0
 10
3.143438208
 20
2.0733303417
 30
0.0
 10
3.145727809
 20
2.0356117101
 30
0.0
 10
3.1474329197
 20
2.0167234197
 30
0.0
  0
SPLINE
  5
328
100
AcDbEntity
  8
0
100
AcDbSpline
 62
7
  6
CONTINUOUS
 70
0
 71
3
 72
30
 73
26
 74
0
 42
0.0000001
 43
0.0000001
 44
0.0000000001
 40
0.0
 40
0.0
 40
0.0
 40
0.0
 40
0.0624901824
 40
0.1249644986
 40
0.1874432673
 40
0.2499405719
 40
0.312464814
 40
0.3437398377
 40
0.3750224356
 40
0.4063123127
 40
0.4376089251
 40
0.4532597189
 40
0.4689122254
 40
0.5002237166
 40
0.5315434001
 40
0.5628661055
 40
0.6254845059
 40
0.687996467
 40
0.7503362936
 40
0.8125038438
 40
0.8746134485
 40
0.9057307884
 40
0.936953802
 40
0.9683495782
 40
1.0
 40
1.0
 40
1.0
 40
1.0
 10
2.9894294603
 20
3.5519206738
 30
0.0
 10
2.9913008265
 20
3.5194474832
 30
0.0
 10
2.993606592
 20
3.4544177421
 30
0.0
 10
2.9928273553
 20
3.3568253663
 30
0.0
 10
2.9878907313
 20
3.259349995
 30
0.0
 10
2.9788775637
 20
3.162143011
 30
0.0
 10
2.968037431
 20
3.0814889261
 30
0.0
 10
2.9574090994
 20
3.0172517157
 30
0.0
 10
2.9484677737
 20
2.9692244637
 30
0.0
 10
2.9385674118
 20
2.9213746001
 30
0.0
 10
2.9295275673
 20
2.8816639617
 30
0.0
 10
2.9218246245
 20
2.8500029089
 30
0.0
 10
2.91381671
 20
2.8184096249
 30
0.0
 10
2.9033026311
 20
2.7790398447
 30
0.0
 10
2.8900702736
 20
2.7319587383
 30
0.0
 10
2.8718631523
 20
2.669351766
 30
0.0
 10
2.8485303648
 20
2.5913297925
 30
0.0
 10
2.8211115764
 20
2.4976779656
 30
0.0
 10
2.7957950329
 20
2.4036663214
 30
0.0
 10
2.7741062776
 20
2.3089496304
 30
0.0
 10
2.760348902
 20
2.2291825436
 30
0.0
 10
2.7527151285
 20
2.1648422512
 30
0.0
 10
2.7488560228
 20
2.1161900151
 30
0.0
 10
2.747061053
 20
2.0671393023
 30
0.0
 10
2.7473678315
 20
2.0343095561
 30
0.0
 10
2.7479221386
 20
2.0178443697
 30
0.0
  0
SPLINE
  5
329
100
AcDbEntity
  8
0
100
AcDbSpline
 62
7
  6
CONTINUOUS
 70
0
 71
3
 72
31
 73
27
 74
0
 42
0.0000001
 43
0.0000001
 44
0.0000000001
 40
0.0
 40
0.0
 40
0.0
 40
0.0
 40
0.0315922719
 40
0.0629382921
 40
0.0941241264
 40
0.1252197591
 40
0.1873349892
 40
0.2495706849
 40
0.3120138315
 40
0.3433021005
 40
0.374614765
 40
0.4059321399
 40
0.437238878
 40
0.4685272072
 40
0.4997895663
 40
0.562208271
 40
0.6244540867
 40
0.6865263314
 40
0.7484880024
 40
0.8104891051
 40
0.8415848454
 40
0.8727977909
 40
0.90418031
 40
0.9357934662
 40
0.9677071456
 40
1.0
 40
1.0
 40
1.0
 40
1.0
 10
2.9262775197
 20
2.019559527
 30
0.0
 10
2.9254070763
 20
2.0361357887
 30
0.0
 10
2.9245409104
 20
2.0692106647
 30
0.0
 10
2.9257166972
 20
2.1186691023
 30
0.0
 10
2.9291786534
 20
2.1677577125
 30
0.0
 10
2.9365783276
 20
2.2327143226
 30
0.0
 10
2.9505921995
 20
2.3132552057
 30
0.0
 10
2.9734396309
 20
2.4087492827
 30
0.0
 10
2.9961869569
 20
2.4874982887
 30
0.0
 10
3.0158580334
 20
2.5501853287
 30
0.0
 10
3.0311676194
 20
2.5970975786
 30
0.0
 10
3.046826963
 20
2.6439036708
 30
0.0
 10
3.0626688098
 20
2.6906346779
 30
0.0
 10
3.0785654188
 20
2.7373165156
 30
0.0
 10
3.0996440909
 20
2.7995020493
 30
0.0
 10
3.1254628505
 20
2.877256407
 30
0.0
 10
3.1545769395
 20
2.9709620139
 30
0.0
 10
3.1807523997
 20
3.065293714
 30
0.0
 10
3.2029305205
 20
3.1605257462
 30
0.0
 10
3.2171775183
 20
3.2407938873
 30
0.0
 10
3.2255001804
 20
3.305586708
 30
0.0
 10
3.2300852078
 20
3.3546104007
 30
0.0
 10
3.2328729579
 20
3.4040424359
 30
0.0
 10
3.2337305556
 20
3.4539156362
 30
0.0
 10
3.2325249877
 20
3.5042604716
 30
0.0
 10
3.2302722015
 20
3.5379330628
 30
0.0
 10
3.2287678533
 20
3.5548334395
 30
0.0
  0
SPLINE
  5
32A
100
AcDbEntity
  8
0
100
AcDbSpline
 62
7
  6
CONTINUOUS
 70
0
 71
3
 72
18
 73
14
 74
0
 42
0.0000001
 43
0.0000001
 44
0.0000000001
 40
0.0
 40
0.0
 40
0.0
 40
0.0
 40
0.1243432822
 40
0.2496070897
 40
0.375113587
 40
0.5003790842
 40
0.6251778093
 40
0.6874335618
 40
0.7496433837
 40
0.8118837605
 40
0.8742604276
 40
0.9369098345
 40
1.0
 40
1.0
 40
1.0
 40
1.0
 10
2.5850389183
 20
3.5544164179
 30
0.0
 10
2.5813789335
 20
3.50050376
 30
0.0
 10
2.572876846
 20
3.3923497127
 30
0.0
 10
2.5548774295
 20
3.2302932768
 30
0.0
 10
2.529778857
 20
3.0687473399
 30
0.0
 10
2.4957911574
 20
2.9090108819
 30
0.0
 10
2.4585092399
 20
2.7783558315
 30
0.0
 10
2.4224501344
 20
2.6761781637
 30
0.0
 10
2.3920820587
 20
2.6009059024
 30
0.0
 10
2.3581471581
 20
2.5271115467
 30
0.0
 10
2.3204191847
 20
2.4549607663
 30
0.0
 10
2.2786749741
 20
2.3846253261
 30
0.0
 10
2.2481518053
 20
2.33925778
 30
0.0
 10
2.232185929
 20
2.3169684888
 30
0.0
  0
SPLINE
  5
32B
100
AcDbEntity
  8
0
100
AcDbSpline
 62
7
  6
CONTINUOUS
 70
0
 71
3
 72
25
 73
21
 74
0
 42
0.0000001
 43
0.0000001
 44
0.0000000001
 40
0.0
 40
0.0
 40
0.0
 40
0.0
 40
0.0315638251
 40
0.0629040804
 40
0.09408308
 40
0.1251543264
 40
0.1871376944
 40
0.2491283658
 40
0.3112771649
 40
0.3736425331
 40
0.4362128251
 40
0.4989286047
 40
0.6244488579
 40
0.6870900817
 40
0.7495905972
 40
0.8119733349
 40
0.8743425457
 40
0.9369050065
 40
0.968361396
 40
1.0
 40
1.0
 40
1.0
 40
1.0
 10
2.4795177871
 20
2.0192518702
 30
0.0
 10
2.4789040835
 20
2.0358281684
 30
0.0
 10
2.4783802072
 20
2.068893197
 30
0.0
 10
2.4796046569
 20
2.1183333562
 30
0.0
 10
2.4827120007
 20
2.1674313677
 30
0.0
 10
2.4891846364
 20
2.2324096501
 30
0.0
 10
2.5013429982
 20
2.3130372128
 30
0.0
 10
2.5213901594
 20
2.4088145591
 30
0.0
 10
2.545831341
 20
2.5037590374
 30
0.0
 10
2.573624619
 20
2.5980807573
 30
0.0
 10
2.6037343337
 20
2.6919935808
 30
0.0
 10
2.645600988
 20
2.816972228
 30
0.0
 10
2.6879350507
 20
2.9418444989
 30
0.0
 10
2.7267098276
 20
3.067752281
 30
0.0
 10
2.7529319084
 20
3.1627689111
 30
0.0
 10
2.7752737545
 20
3.2586410959
 30
0.0
 10
2.7926894535
 20
3.3555776935
 30
0.0
 10
2.8021996382
 20
3.4372812145
 30
0.0
 10
2.8062996726
 20
3.5032027346
 30
0.0
 10
2.8070949336
 20
3.5363617646
 30
0.0
 10
2.8071603262
 20
3.5529885892
 30
0.0
  0
SPLINE
  5
32C
100
AcDbEntity
  8
0
100
AcDbSpline
 62
7
  6
CONTINUOUS
 70
0
 71
3
 72
20
 73
16
 74
0
 42
0.0000001
 43
0.0000001
 44
0.0000000001
 40
0.0
 40
0.0
 40
0.0
 40
0.0
 40
0.0622724491
 40
0.1242698563
 40
0.1862473783
 40
0.2483813706
 40
0.3107767508
 40
0.3734759166
 40
0.4996873138
 40
0.6264826178
 40
0.7528825757
 40
0.8155763961
 40
0.8777428389
 40
0.93925323
 40
1.0
 40
1.0
 40
1.0
 40
1.0
 10
2.2711436368
 20
2.9335903267
 30
0.0
 10
2.2775612223
 20
2.9450396054
 30
0.0
 10
2.2895176436
 20
2.9683745203
 30
0.0
 10
2.3049663087
 20
3.0044914994
 30
0.0
 10
2.3181105005
 20
3.0414748765
 30
0.0
 10
2.3291965108
 20
3.0792078854
 30
0.0
 10
2.3384716103
 20
3.1175785013
 30
0.0
 10
2.3487715484
 20
3.1695479727
 30
0.0
 10
2.358311321
 20
3.2354430601
 30
0.0
 10
2.3664010778
 20
3.3150084906
 30
0.0
 10
2.3719868562
 20
3.3813542669
 30
0.0
 10
2.3767330184
 20
3.4340998182
 30
0.0
 10
2.3806560956
 20
3.4731861947
 30
0.0
 10
2.3851933929
 20
3.5117939329
 30
0.0
 10
2.3888135706
 20
3.5373106833
 30
0.0
 10
2.3908118475
 20
3.5499574363
 30
0.0
  0
SPLINE
  5
32D
100
AcDbEntity
  8
0
100
AcDbSpline
 62
7
  6
CONTINUOUS
 70
0
 71
3
 72
35
 73
31
 74
0
 42
0.0000001
 43
0.0000001
 44
0.0000000001
 40
0.0
 40
0.0
 40
0.0
 40
0.0
 40
0.0308295296
 40
0.0615151983
 40
0.0921945409
 40
0.1229664831
 40
0.153894867
 40
0.1850128615
 40
0.2163277591
 40
0.2478258144
 40
0.311237859
 40
0.3748928346
 40
0.438370153
 40
0.5013172385
 40
0.5325380533
 40
0.563594941
 40
0.5790733366
 40
0.5945269049
 40
0.6099650812
 40
0.6253993962
 40
0.6408405994
 40
0.6562962636
 40
0.6872709665
 40
0.7183581374
 40
0.7495689476
 40
0.7808964292
 40
0.8123176685
 40
0.875275834
 40
0.9380256804
 40
1.0
 40
1.0
 40
1.0
 40
1.0
 10
4.5521972289
 20
3.5514814902
 30
0.0
 10
4.5508828124
 20
3.5350160945
 30
0.0
 10
4.5470495796
 20
3.5022478314
 30
0.0
 10
4.537974765
 20
3.4536597186
 30
0.0
 10
4.5259371883
 20
3.4057558538
 30
0.0
 10
4.5112735013
 20
3.358460866
 30
0.0
 10
4.4943179115
 20
3.3116940226
 30
0.0
 10
4.4754026778
 20
3.265375609
 30
0.0
 10
4.4548587755
 20
3.2194259145
 30
0.0
 10
4.4256706902
 20
3.1584138824
 30
0.0
 10
4.386833818
 20
3.0828428988
 30
0.0
 10
4.3391024634
 20
2.9926015082
 30
0.0
 10
4.2927144939
 20
2.9019313855
 30
0.0
 10
4.2572322564
 20
2.8252308221
 30
0.0
 10
4.2321588775
 20
2.7629839384
 30
0.0
 10
4.2181714892
 20
2.7237260718
 30
0.0
 10
4.2081533413
 20
2.6920576118
 30
0.0
 10
4.2012706263
 20
2.6681828327
 30
0.0
 10
4.1950506301
 20
2.6441508974
 30
0.0
 10
4.189542052
 20
2.6199524381
 30
0.0
 10
4.1847529949
 20
2.5955918813
 30
0.0
 10
4.1792805663
 20
2.5628936025
 30
0.0
 10
4.1741009645
 20
2.5216646677
 30
0.0
 10
4.1703462973
 20
2.471814318
 30
0.0
 10
4.1688452753
 20
2.4216587528
 30
0.0
 10
4.1693961754
 20
2.3713076082
 30
0.0
 10
4.1726008544
 20
2.304020582
 30
0.0
 10
4.180715335
 20
2.2201728471
 30
0.0
 10
4.1954069869
 20
2.1206677375
 30
0.0
 10
4.2075701914
 20
2.0549480459
 30
0.0
 10
4.2139980621
 20
2.0223716919
 30
0.0
  0
SPLINE
  5
32E
100
AcDbEntity
  8
0
100
AcDbSpline
 62
7
  6
CONTINUOUS
 70
0
 71
3
 72
39
 73
35
 74
0
 42
0.0000001
 43
0.0000001
 44
0.0000000001
 40
0.0
 40
0.0
 40
0.0
 40
0.0
 40
0.0305759936
 40
0.0614959588
 40
0.0926857574
 40
0.124066157
 40
0.187079992
 40
0.2185671401
 40
0.2499583809
 40
0.2812102337
 40
0.3122994288
 40
0.3432279046
 40
0.3586421103
 40
0.3740311258
 40
0.3817193333
 40
0.389405118
 40
0.4047761653
 40
0.4201580599
 40
0.4355618038
 40
0.4664655045
 40
0.4975349219
 40
0.5287859828
 40
0.560211012
 40
0.5917839916
 40
0.6234655941
 40
0.6869593443
 40
0.7502876601
 40
0.8131263273
 40
0.8443261291
 40
0.8753986206
 40
0.9063957407
 40
0.9374042228
 40
0.9685497899
 40
1.0
 40
1.0
 40
1.0
 40
1.0
 10
4.0413316421
 20
2.0166705837
 30
0.0
 10
4.0398352031
 20
2.0327685016
 30
0.0
 10
4.0364646662
 20
2.0651122061
 30
0.0
 10
4.0306567126
 20
2.1137759969
 30
0.0
 10
4.0244002902
 20
2.1628126016
 30
0.0
 10
4.0158969714
 20
2.2286685117
 30
0.0
 10
4.0078629437
 20
2.2947503663
 30
0.0
 10
4.0016045357
 20
2.3610272931
 30
0.0
 10
3.9981431761
 20
2.4106853062
 30
0.0
 10
3.9962506632
 20
2.4602211235
 30
0.0
 10
3.9962654923
 20
2.5095520048
 30
0.0
 10
3.9981531449
 20
2.5504700548
 30
0.0
 10
4.0009593797
 20
2.5829939206
 30
0.0
 10
4.0032861209
 20
2.6032164878
 30
0.0
 10
4.0055124389
 20
2.6193301896
 30
0.0
 10
4.0079892572
 20
2.635397701
 30
0.0
 10
4.0115455152
 20
2.6554122633
 30
0.0
 10
4.0165030871
 20
2.6793123691
 30
0.0
 10
4.0239824758
 20
2.7110654171
 30
0.0
 10
4.0348494503
 20
2.7505263106
 30
0.0
 10
4.0499314742
 20
2.7974674037
 30
0.0
 10
4.0667187533
 20
2.8441153918
 30
0.0
 10
4.0848619319
 20
2.890535215
 30
0.0
 10
4.1040127708
 20
2.9367924684
 30
0.0
 10
4.1304453387
 20
2.9983800415
 30
0.0
 10
4.1641876481
 20
3.0750979465
 30
0.0
 10
4.203149844
 20
3.1675134852
 30
0.0
 10
4.2321563329
 20
3.2455611631
 30
0.0
 10
4.2518037422
 20
3.308747644
 30
0.0
 10
4.264379959
 20
3.3564533757
 30
0.0
 10
4.2744777642
 20
3.4046472247
 30
0.0
 10
4.2817419674
 20
3.453395734
 30
0.0
 10
4.2858156081
 20
3.5027587168
 30
0.0
 10
4.2861623647
 20
3.5358915096
 30
0.0
 10
4.2857014248
 20
3.5525146914
 30
0.0
  0
SPLINE
  5
32F
100
AcDbEntity
  8
0
100
AcDbSpline
 62
7
  6
CONTINUOUS
 70
0
 71
3
 72
14
 73
10
 74
0
 42
0.0000001
 43
0.0000001
 44
0.0000000001
 40
0.0
 40
0.0
 40
0.0
 40
0.0
 40
0.2494954272
 40
0.3750221385
 40
0.5004955736
 40
0.625673474
 40
0.7504980711
 40
0.8751330885
 40
1.0
 40
1.0
 40
1.0
 40
1.0
 10
3.923448942
 20
3.5577941112
 30
0.0
 10
3.9107305808
 20
3.5057198505
 30
0.0
 10
3.893470011
 20
3.4269421132
 30
0.0
 10
3.876593867
 20
3.3207115281
 30
0.0
 10
3.8676823301
 20
3.2403448893
 30
0.0
 10
3.863272607
 20
3.1597450688
 30
0.0
 10
3.8641001023
 20
3.0791909095
 30
0.0
 10
3.870904641
 20
2.9989755386
 30
0.0
 10
3.8799052196
 20
2.9460456842
 30
0.0
 10
3.8856171607
 20
2.9198327381
 30
0.0
  0
SPLINE
  5
330
100
AcDbEntity
  8
0
100
AcDbSpline
 62
7
  6
CONTINUOUS
 70
0
 71
3
 72
40
 73
36
 74
0
 42
0.0000001
 43
0.0000001
 44
0.0000000001
 40
0.0
 40
0.0
 40
0.0
 40
0.0
 40
0.0621080851
 40
0.1245593384
 40
0.1871979227
 40
0.2498947527
 40
0.3125554243
 40
0.3438561238
 40
0.3751327275
 40
0.4063870765
 40
0.4376248498
 40
0.4688558503
 40
0.5000942819
 40
0.5157224768
 40
0.531360007
 40
0.5470099979
 40
0.5626752037
 40
0.5783527675
 40
0.5940352113
 40
0.6097132386
 40
0.6253769268
 40
0.6566249689
 40
0.6877319012
 40
0.7032366992
 40
0.718721728
 40
0.734205912
 40
0.7497081752
 40
0.7808112308
 40
0.8120835755
 40
0.8435093581
 40
0.8750261241
 40
0.9065408656
 40
0.937945161
 40
0.9691298588
 40
1.0
 40
1.0
 40
1.0
 40
1.0
 10
3.6508062981
 20
2.0188604838
 30
0.0
 10
3.6513656809
 20
2.0510900829
 30
0.0
 10
3.6521441348
 20
2.1157345987
 30
0.0
 10
3.6516955351
 20
2.2128963902
 30
0.0
 10
3.6490263007
 20
2.310333212
 30
0.0
 10
3.6435265253
 20
2.4077650367
 30
0.0
 10
3.6360719705
 20
2.4887519727
 30
0.0
 10
3.6280779217
 20
2.5532623774
 30
0.0
 10
3.6209939896
 20
2.6014482169
 30
0.0
 10
3.6127435176
 20
2.6494154566
 30
0.0
 10
3.603249916
 20
2.6971289206
 30
0.0
 10
3.5924367563
 20
2.7445527928
 30
0.0
 10
3.5822637249
 20
2.7837955851
 30
0.0
 10
3.5733922856
 20
2.8150001778
 30
0.0
 10
3.5663593948
 20
2.8383130557
 30
0.0
 10
3.5589417985
 20
2.8615266774
 30
0.0
 10
3.5511211205
 20
2.8846293563
 30
0.0
 10
3.5429987293
 20
2.9076449252
 30
0.0
 10
3.5346990029
 20
2.930603882
 30
0.0
 10
3.5263405767
 20
2.9535337948
 30
0.0
 10
3.5152875572
 20
2.9840799365
 30
0.0
 10
3.5019302413
 20
3.0223085482
 30
0.0
 10
3.4899419349
 20
3.0609161203
 30
0.0
 10
3.4816828733
 20
3.0920733686
 30
0.0
 10
3.4762752679
 20
3.1155852041
 30
0.0
 10
3.4717822122
 20
3.1392881117
 30
0.0
 10
3.4669274177
 20
3.1711509078
 30
0.0
 10
3.4627973139
 20
3.2113844971
 30
0.0
 10
3.4603323302
 20
3.2600205197
 30
0.0
 10
3.4597316611
 20
3.3089232432
 30
0.0
 10
3.4603812196
 20
3.3579455672
 30
0.0
 10
3.4616691314
 20
3.406941517
 30
0.0
 10
3.4629851696
 20
3.4557643617
 30
0.0
 10
3.4637192268
 20
3.5042664634
 30
0.0
 10
3.4634112066
 20
3.5364784456
 30
0.0
 10
3.462950135
 20
3.5524935906
 30
0.0
  0
SPLINE
  5
331
100
AcDbEntity
  8
0
100
AcDbSpline
 62
7
  6
CONTINUOUS
 70
0
 71
3
 72
37
 73
33
 74
0
 42
0.0000001
 43
0.0000001
 44
0.0000000001
 40
0.0
 40
0.0
 40
0.0
 40
0.0
 40
0.0619347308
 40
0.1244457492
 40
0.187252218
 40
0.2501168792
 40
0.2815150588
 40
0.3128677407
 40
0.3441654576
 40
0.3754049907
 40
0.4065900477
 40
0.4221659749
 40
0.4377332044
 40
0.4532944517
 40
0.4688530536
 40
0.4844139478
 40
0.4999819304
 40
0.5311486581
 40
0.5623594657
 40
0.5936047692
 40
0.6248713476
 40
0.6405104504
 40
0.6561540525
 40
0.6718028295
 40
0.6874551664
 40
0.7187627484
 40
0.7500655944
 40
0.7813548443
 40
0.8126250274
 40
0.8750953213
 40
0.9375186105
 40
1.0
 40
1.0
 40
1.0
 40
1.0
 10
3.7281998678
 20
3.550659327
 30
0.0
 10
3.7243320088
 20
3.5188859794
 30
0.0
 10
3.71681025
 20
3.4550121324
 30
0.0
 10
3.7070901931
 20
3.3587223168
 30
0.0
 10
3.6997860152
 20
3.2617309894
 30
0.0
 10
3.6964837738
 20
3.1806010632
 30
0.0
 10
3.6959822827
 20
3.1156795109
 30
0.0
 10
3.6967936591
 20
3.0670765185
 30
0.0
 10
3.6989087906
 20
3.0185938127
 30
0.0
 10
3.7024442629
 20
2.9702798876
 30
0.0
 10
3.7066732427
 20
2.9301833195
 30
0.0
 10
3.7108830587
 20
2.8982468987
 30
0.0
 10
3.7144675828
 20
2.8743762902
 30
0.0
 10
3.7184927867
 20
2.8505850261
 30
0.0
 10
3.7229812761
 20
2.8268800655
 30
0.0
 10
3.7279089446
 20
2.8032592969
 30
0.0
 10
3.7349696157
 20
2.7718476224
 30
0.0
 10
3.7445554702
 20
2.7327192374
 30
0.0
 10
3.7567477404
 20
2.6858959187
 30
0.0
 10
3.7691187854
 20
2.6390666663
 30
0.0
 10
3.7791462706
 20
2.5999414084
 30
0.0
 10
3.7867429704
 20
2.5685205861
 30
0.0
 10
3.7921606362
 20
2.5448784609
 30
0.0
 10
3.7972446122
 20
2.5211551678
 30
0.0
 10
3.8035759759
 20
2.489423571
 30
0.0
 10
3.8106276596
 20
2.4495902914
 30
0.0
 10
3.8176494387
 20
2.4015662539
 30
0.0
 10
3.8231685422
 20
2.3533643471
 30
0.0
 10
3.828437999
 20
2.2889552027
 30
0.0
 10
3.8309593919
 20
2.2082171425
 30
0.0
 10
3.8269643602
 20
2.1113800437
 30
0.0
 10
3.8192843373
 20
2.0472034916
 30
0.0
 10
3.814120646
 20
2.0153286208
 30
0.0
  0
SPLINE
  5
332
100
AcDbEntity
  8
0
100
AcDbSpline
 62
7
  6
CONTINUOUS
 70
0
 71
3
 72
11
 73
7
 74
0
 42
0.0000001
 43
0.0000001
 44
0.0000000001
 40
0.0
 40
0.0
 40
0.0
 40
0.0
 40
0.2499962835
 40
0.500024171
 40
0.7500239314
 40
1.0
 40
1.0
 40
1.0
 40
1.0
 10
3.462950135
 20
3.5524935906
 30
0.0
 10
3.4628741872
 20
3.5551316063
 30
0.0
 10
3.4637878948
 20
3.5604990749
 30
0.0
 10
3.468180288
 20
3.5673364451
 30
0.0
 10
3.4748884465
 20
3.5719232815
 30
0.0
 10
3.4802268821
 20
3.5729908385
 30
0.0
 10
3.4828657775
 20
3.5729908385
 30
0.0
  0
SPLINE
  5
333
100
AcDbEntity
  8
0
100
AcDbSpline
 62
7
  6
CONTINUOUS
 70
0
 71
3
 72
11
 73
7
 74
0
 42
0.0000001
 43
0.0000001
 44
0.0000000001
 40
0.0
 40
0.0
 40
0.0
 40
0.0
 40
0.2499961162
 40
0.5000220652
 40
0.7500242609
 40
1.0
 40
1.0
 40
1.0
 40
1.0
 10
3.7084219779
 20
3.5729908385
 30
0.0
 10
3.7112116234
 20
3.5729908385
 30
0.0
 10
3.7168627065
 20
3.5717960888
 30
0.0
 10
3.7238040289
 20
3.566689358
 30
0.0
 10
3.7280340212
 20
3.5591818243
 30
0.0
 10
3.7285369431
 20
3.553428304
 30
0.0
 10
3.7281998678
 20
3.550659327
 30
0.0
  0
SPLINE
  5
334
100
AcDbEntity
  8
0
100
AcDbSpline
 62
7
  6
CONTINUOUS
 70
0
 71
3
 72
11
 73
7
 74
0
 42
0.0000001
 43
0.0000001
 44
0.0000000001
 40
0.0
 40
0.0
 40
0.0
 40
0.0
 40
0.2499937021
 40
0.5000183653
 40
0.7500213514
 40
1.0
 40
1.0
 40
1.0
 40
1.0
 10
3.6707271918
 20
1.9985908385
 30
0.0
 10
3.6681067511
 20
1.9985908385
 30
0.0
 10
3.6628064289
 20
1.9996433781
 30
0.0
 10
3.6561288021
 20
2.00416805
 30
0.0
 10
3.6517210613
 20
2.0109231975
 30
0.0
 10
3.6507608268
 20
2.0162405955
 30
0.0
 10
3.6508062981
 20
2.0188604838
 30
0.0
  0
SPLINE
  5
335
100
AcDbEntity
  8
0
100
AcDbSpline
 62
7
  6
CONTINUOUS
 70
0
 71
3
 72
19
 73
15
 74
0
 42
0.0000001
 43
0.0000001
 44
0.0000000001
 40
0.0
 40
0.0
 40
0.0
 40
0.0
 40
0.1247242496
 40
0.1874285541
 40
0.2500586439
 40
0.3126244652
 40
0.375199531
 40
0.5000086935
 40
0.6248151111
 40
0.6873897016
 40
0.7499533288
 40
0.8125801591
 40
0.8752804224
 40
1.0
 40
1.0
 40
1.0
 40
1.0
 10
3.9233565614
 20
2.9161321611
 30
0.0
 10
3.9225195889
 20
2.9142066557
 30
0.0
 10
3.9208126484
 20
2.9114798939
 30
0.0
 10
3.9178289976
 20
2.9084939057
 30
0.0
 10
3.9152601111
 20
2.9066249781
 30
0.0
 10
3.912433146
 20
2.9051805183
 30
0.0
 10
3.9084124381
 20
2.9038901492
 30
0.0
 10
3.9030683912
 20
2.9035203512
 30
0.0
 10
3.8978980889
 20
2.9049214908
 30
0.0
 10
3.8942047462
 20
2.9069683352
 30
0.0
 10
3.8917123484
 20
2.9089344297
 30
0.0
 10
3.8895555919
 20
2.9112666801
 30
0.0
 10
3.887208782
 20
2.9147751107
 30
0.0
 10
3.886064157
 20
2.9177814074
 30
0.0
 10
3.8856171605
 20
2.9198327381
 30
0.0
  0
SPLINE
  5
336
100
AcDbEntity
  8
0
100
AcDbSpline
 62
7
  6
CONTINUOUS
 70
0
 71
3
 72
11
 73
7
 74
0
 42
0.0000001
 43
0.0000001
 44
0.0000000001
 40
0.0
 40
0.0
 40
0.0
 40
0.0
 40
0.2500120211
 40
0.5000579037
 40
0.7500419916
 40
1.0
 40
1.0
 40
1.0
 40
1.0
 10
4.0599928308
 20
3.5729908385
 30
0.0
 10
4.0627041831
 20
3.5729908385
 30
0.0
 10
4.0681927979
 20
3.5718629619
 30
0.0
 10
4.0750155299
 20
3.5670296027
 30
0.0
 10
4.0793372266
 20
3.5598726308
 30
0.0
 10
4.0800613489
 20
3.5543176985
 30
0.0
 10
4.0798636872
 20
3.551614148
 30
0.0
  0
SPLINE
  5
337
100
AcDbEntity
  8
0
100
AcDbSpline
 62
7
  6
CONTINUOUS
 70
0
 71
3
 72
15
 73
11
 74
0
 42
0.0000001
 43
0.0000001
 44
0.0000000001
 40
0.0
 40
0.0
 40
0.0
 40
0.0
 40
0.1248636884
 40
0.2500212985
 40
0.3750327555
 40
0.500016691
 40
0.624994438
 40
0.749986011
 40
0.875134839
 40
1.0
 40
1.0
 40
1.0
 40
1.0
 10
4.2139980621
 20
2.0223716919
 30
0.0
 10
4.2142811003
 20
2.0209372583
 30
0.0
 10
4.2145319128
 20
2.0179927467
 30
0.0
 10
4.2139433488
 20
2.0136067033
 30
0.0
 10
4.2124031658
 20
2.0094533463
 30
0.0
 10
4.2099863072
 20
2.00574463
 30
0.0
 10
4.206815642
 20
2.0026558626
 30
0.0
 10
4.2030393234
 20
2.0003410551
 30
0.0
 10
4.1988504267
 20
1.9989148679
 30
0.0
 10
4.1959131652
 20
1.9985908385
 30
0.0
 10
4.1944510568
 20
1.9985908385
 30
0.0
  0
SPLINE
  5
338
100
AcDbEntity
  8
0
100
AcDbSpline
 62
7
  6
CONTINUOUS
 70
0
 71
3
 72
11
 73
7
 74
0
 42
0.0000001
 43
0.0000001
 44
0.0000000001
 40
0.0
 40
0.0
 40
0.0
 40
0.0
 40
0.2499978712
 40
0.5000278448
 40
0.7500253925
 40
1.0
 40
1.0
 40
1.0
 40
1.0
 10
4.2857014248
 20
3.5525146914
 30
0.0
 10
4.2856283212
 20
3.555151075
 30
0.0
 10
4.2865464169
 20
3.5605139968
 30
0.0
 10
4.2909403493
 20
3.5673437329
 30
0.0
 10
4.297645692
 20
3.5719247137
 30
0.0
 10
4.3029805121
 20
3.5729908385
 30
0.0
 10
4.3056176636
 20
3.5729908385
 30
0.0
  0
SPLINE
  5
339
100
AcDbEntity
  8
0
100
AcDbSpline
 62
7
  6
CONTINUOUS
 70
0
 71
3
 72
11
 73
7
 74
0
 42
0.0000001
 43
0.0000001
 44
0.0000000001
 40
0.0
 40
0.0
 40
0.0
 40
0.0
 40
0.2500137341
 40
0.500061596
 40
0.7500436326
 40
1.0
 40
1.0
 40
1.0
 40
1.0
 10
4.5323365168
 20
3.5729908385
 30
0.0
 10
4.5350587727
 20
3.5729908385
 30
0.0
 10
4.5405700005
 20
3.5718537527
 30
0.0
 10
4.547409563
 20
3.5669827641
 30
0.0
 10
4.5517194494
 20
3.559777319
 30
0.0
 10
4.5524138051
 20
3.5541944906
 30
0.0
 10
4.5521972289
 20
3.5514814902
 30
0.0
  0
SPLINE
  5
33A
100
AcDbEntity
  8
0
100
AcDbSpline
 62
7
  6
CONTINUOUS
 70
0
 71
3
 72
16
 73
12
 74
0
 42
0.0000001
 43
0.0000001
 44
0.0000000001
 40
0.0
 40
0.0
 40
0.0
 40
0.0
 40
0.1248403623
 40
0.1875443718
 40
0.2502101892
 40
0.3752200491
 40
0.5001888178
 40
0.6251375369
 40
0.7500647081
 40
0.8751699737
 40
1.0
 40
1.0
 40
1.0
 40
1.0
 10
4.8783284755
 20
3.5729908385
 30
0.0
 10
4.8798334114
 20
3.5729908385
 30
0.0
 10
4.8821044114
 20
3.5727316243
 30
0.0
 10
4.8850070706
 20
3.5718947847
 30
0.0
 10
4.8877981763
 20
3.5707305201
 30
0.0
 10
4.8910103383
 20
3.5686918785
 30
0.0
 10
4.8942018446
 20
3.5654370617
 30
0.0
 10
4.8965777777
 20
3.5615472389
 30
0.0
 10
4.898008828
 20
3.5572169563
 30
0.0
 10
4.8984222383
 20
3.5526799021
 30
0.0
 10
4.8980172163
 20
3.5496640787
 30
0.0
 10
4.8976499857
 20
3.5482047643
 30
0.0
  0
SPLINE
  5
33B
100
AcDbEntity
  8
0
100
AcDbSpline
 62
7
  6
CONTINUOUS
 70
0
 71
3
 72
21
 73
17
 74
0
 42
0.0000001
 43
0.0000001
 44
0.0000000001
 40
0.0
 40
0.0
 40
0.0
 40
0.0
 40
0.1245859664
 40
0.1872438335
 40
0.249835697
 40
0.312347373
 40
0.3748703688
 40
0.4374526973
 40
0.5000052881
 40
0.5625568906
 40
0.6251381939
 40
0.6876606097
 40
0.7501701877
 40
0.8127595677
 40
0.8754155832
 40
1.0
 40
1.0
 40
1.0
 40
1.0
 10
3.3294152167
 20
2.8913798401
 30
0.0
 10
3.3300824319
 20
2.8934794447
 30
0.0
 10
3.3315795666
 20
2.8965081899
 30
0.0
 10
3.3344013828
 20
2.8999246491
 30
0.0
 10
3.3369130565
 20
2.9021200654
 30
0.0
 10
3.3397452025
 20
2.9038771248
 30
0.0
 10
3.3428360275
 20
2.9051277743
 30
0.0
 10
3.3460955613
 20
2.9058309765
 30
0.0
 10
3.3494291455
 20
2.9059652723
 30
0.0
 10
3.3527329319
 20
2.9055007554
 30
0.0
 10
3.3559064619
 20
2.9044773156
 30
0.0
 10
3.3588578567
 20
2.9029261622
 30
0.0
 10
3.3615015894
 20
2.9008967784
 30
0.0
 10
3.3637829324
 20
2.8984630495
 30
0.0
 10
3.3662518426
 20
2.8947835963
 30
0.0
 10
3.3674410608
 20
2.8916212985
 30
0.0
 10
3.3678966359
 20
2.889465876
 30
0.0
  0
SPLINE
  5
33C
100
AcDbEntity
  8
0
100
AcDbSpline
 62
7
  6
CONTINUOUS
 70
0
 71
3
 72
11
 73
7
 74
0
 42
0.0000001
 43
0.0000001
 44
0.0000000001
 40
0.0
 40
0.0
 40
0.0
 40
0.0
 40
0.2499923856
 40
0.5000167657
 40
0.7500229341
 40
1.0
 40
1.0
 40
1.0
 40
1.0
 10
2.3711320988
 20
3.5729908385
 30
0.0
 10
2.373979633
 20
3.5729908384
 30
0.0
 10
2.3797511224
 20
3.5717453935
 30
0.0
 10
2.3867757996
 20
3.5664324009
 30
0.0
 10
2.3909269473
 20
3.5586646346
 30
0.0
 10
2.3912562374
 20
3.5527699041
 30
0.0
 10
2.3908118475
 20
3.5499574363
 30
0.0
  0
SPLINE
  5
33D
100
AcDbEntity
  8
0
100
AcDbSpline
 62
7
  6
CONTINUOUS
 70
0
 71
3
 72
21
 73
17
 74
0
 42
0.0000001
 43
0.0000001
 44
0.0000000001
 40
0.0
 40
0.0
 40
0.0
 40
0.0
 40
0.1245906321
 40
0.1872526302
 40
0.2498472706
 40
0.3123601111
 40
0.3748825076
 40
0.4374661034
 40
0.5000210446
 40
0.5625748515
 40
0.6251593339
 40
0.6876817191
 40
0.7501836747
 40
0.8127649524
 40
0.8754167945
 40
1.0
 40
1.0
 40
1.0
 40
1.0
 10
2.2711436371
 20
2.9335903265
 30
0.0
 10
2.270064
 20
2.9316642038
 30
0.0
 10
2.267981201
 20
2.9289940667
 30
0.0
 10
2.2645189806
 20
2.9262123688
 30
0.0
 10
2.2616080484
 20
2.924567383
 30
0.0
 10
2.2584712721
 20
2.9234187691
 30
0.0
 10
2.2551833853
 20
2.922820794
 30
0.0
 10
2.2518413751
 20
2.9227961093
 30
0.0
 10
2.2485429734
 20
2.9233459546
 30
0.0
 10
2.2453967878
 20
2.924478983
 30
0.0
 10
2.2424939493
 20
2.9261351913
 30
0.0
 10
2.2399182053
 20
2.9282640394
 30
0.0
 10
2.2377441397
 20
2.9307996996
 30
0.0
 10
2.2360101267
 20
2.9336577576
 30
0.0
 10
2.234350688
 20
2.937776756
 30
0.0
 10
2.2338398207
 20
2.9411240447
 30
0.0
 10
2.23383982
 20
2.9433319812
 30
0.0
  0
SPLINE
  5
33E
100
AcDbEntity
  8
0
100
AcDbSpline
 62
7
  6
CONTINUOUS
 70
0
 71
3
 72
11
 73
7
 74
0
 42
0.0000001
 43
0.0000001
 44
0.0000000001
 40
0.0
 40
0.0
 40
0.0
 40
0.0
 40
0.2499938911
 40
0.5000184992
 40
0.7500211019
 40
1.0
 40
1.0
 40
1.0
 40
1.0
 10
2.7872365863
 20
3.5729908385
 30
0.0
 10
2.7898351295
 20
3.5729908385
 30
0.0
 10
2.7950901683
 20
3.5719560426
 30
0.0
 10
2.8017314933
 20
3.5675044257
 30
0.0
 10
2.806156593
 20
3.5608456358
 30
0.0
 10
2.8071705454
 20
3.5555869565
 30
0.0
 10
2.8071603262
 20
3.5529885892
 30
0.0
  0
SPLINE
  5
33F
100
AcDbEntity
  8
0
100
AcDbSpline
 62
7
  6
CONTINUOUS
 70
0
 71
3
 72
11
 73
7
 74
0
 42
0.0000001
 43
0.0000001
 44
0.0000000001
 40
0.0
 40
0.0
 40
0.0
 40
0.0
 40
0.2499965029
 40
0.5000245628
 40
0.750024255
 40
1.0
 40
1.0
 40
1.0
 40
1.0
 10
2.4795177871
 20
2.0192518702
 30
0.0
 10
2.4796159243
 20
2.0166011601
 30
0.0
 10
2.4787364001
 20
2.0111981988
 30
0.0
 10
2.4743559328
 20
2.0043015341
 30
0.0
 10
2.4676260354
 20
1.9996694162
 30
0.0
 10
2.4622598399
 20
1.9985908385
 30
0.0
 10
2.459607534
 20
1.9985908385
 30
0.0
  0
SPLINE
  5
340
100
AcDbEntity
  8
0
100
AcDbSpline
 62
7
  6
CONTINUOUS
 70
0
 71
3
 72
11
 73
7
 74
0
 42
0.0000001
 43
0.0000001
 44
0.0000000001
 40
0.0
 40
0.0
 40
0.0
 40
0.0
 40
0.2499776871
 40
0.4999953177
 40
0.7500106517
 40
1.0
 40
1.0
 40
1.0
 40
1.0
 10
2.9262775197
 20
2.019559527
 30
0.0
 10
2.9264179273
 20
2.0168856792
 30
0.0
 10
2.9256040901
 20
2.0114168737
 30
0.0
 10
2.9212476847
 20
2.0044085258
 30
0.0
 10
2.9144774032
 20
1.9996904368
 30
0.0
 10
2.9090586954
 20
1.9985908385
 30
0.0
 10
2.9063810387
 20
1.9985908385
 30
0.0
  0
SPLINE
  5
341
100
AcDbEntity
  8
0
100
AcDbSpline
 62
7
  6
CONTINUOUS
 70
0
 71
3
 72
11
 73
7
 74
0
 42
0.0000001
 43
0.0000001
 44
0.0000000001
 40
0.0
 40
0.0
 40
0.0
 40
0.0
 40
0.2499960428
 40
0.5000231221
 40
0.7500239821
 40
1.0
 40
1.0
 40
1.0
 40
1.0
 10
2.9894294603
 20
3.5519206738
 30
0.0
 10
2.9892749252
 20
3.5546022699
 30
0.0
 10
2.9900669494
 20
3.560093069
 30
0.0
 10
2.9944154734
 20
3.5671383092
 30
0.0
 10
3.001198888
 20
3.5718844633
 30
0.0
 10
3.0066345231
 20
3.5729908385
 30
0.0
 10
3.0093203531
 20
3.5729908385
 30
0.0
  0
SPLINE
  5
342
100
AcDbEntity
  8
0
100
AcDbSpline
 62
7
  6
CONTINUOUS
 70
0
 71
3
 72
11
 73
7
 74
0
 42
0.0000001
 43
0.0000001
 44
0.0000000001
 40
0.0
 40
0.0
 40
0.0
 40
0.0
 40
0.2499983385
 40
0.500026244
 40
0.7500263605
 40
1.0
 40
1.0
 40
1.0
 40
1.0
 10
4.7477854127
 20
2.0211946683
 30
0.0
 10
4.7481636665
 20
2.0184081081
 30
0.0
 10
4.7477267904
 20
2.0125987695
 30
0.0
 10
4.7435256829
 20
2.0049905134
 30
0.0
 10
4.7365516002
 20
1.9998048415
 30
0.0
 10
4.7308544164
 20
1.9985908385
 30
0.0
 10
4.7280425787
 20
1.9985908385
 30
0.0
  0
SPLINE
  5
343
100
AcDbEntity
  8
0
100
AcDbSpline
 62
7
  6
CONTINUOUS
 70
0
 71
3
 72
11
 73
7
 74
0
 42
0.0000001
 43
0.0000001
 44
0.0000000001
 40
0.0
 40
0.0
 40
0.0
 40
0.0
 40
0.2499941326
 40
0.5000191996
 40
0.7500221388
 40
1.0
 40
1.0
 40
1.0
 40
1.0
 10
6.5372898436
 20
3.5729908385
 30
0.0
 10
6.5399550416
 20
3.5729908385
 30
0.0
 10
6.5453479951
 20
3.5719015589
 30
0.0
 10
6.5520982793
 20
3.56722594
 30
0.0
 10
6.5564665499
 20
3.5602730668
 30
0.0
 10
6.5573130854
 20
3.5548371694
 30
0.0
 10
6.5571937543
 20
3.5521748179
 30
0.0
  0
SPLINE
  5
344
100
AcDbEntity
  8
0
100
AcDbSpline
 62
7
  6
CONTINUOUS
 70
0
 71
3
 72
15
 73
11
 74
0
 42
0.0000001
 43
0.0000001
 44
0.0000000001
 40
0.0
 40
0.0
 40
0.0
 40
0.0
 40
0.1248674621
 40
0.2500552324
 40
0.375088534
 40
0.5000830341
 40
0.6250583124
 40
0.750012587
 40
0.8751424147
 40
1.0
 40
1.0
 40
1.0
 40
1.0
 10
6.2831265751
 20
1.9985908385
 30
0.0
 10
6.2816326796
 20
1.9985908385
 30
0.0
 10
6.2786307283
 20
1.9989292043
 30
0.0
 10
6.27435867
 20
2.0004168583
 30
0.0
 10
6.2705262717
 20
2.0028292611
 30
0.0
 10
6.267339068
 20
2.0060411341
 30
0.0
 10
6.2649520643
 20
2.009884039
 30
0.0
 10
6.2634919171
 20
2.0141686057
 30
0.0
 10
6.2630323006
 20
2.0186670542
 30
0.0
 10
6.2633966998
 20
2.0216651203
 30
0.0
 10
6.2637418614
 20
2.023118473
 30
0.0
  0
SPLINE
  5
345
100
AcDbEntity
  8
0
100
AcDbSpline
 62
7
  6
CONTINUOUS
 70
0
 71
3
 72
11
 73
7
 74
0
 42
0.0000001
 43
0.0000001
 44
0.0000000001
 40
0.0
 40
0.0
 40
0.0
 40
0.0
 40
0.2499955357
 40
0.5000223825
 40
0.7500231682
 40
1.0
 40
1.0
 40
1.0
 40
1.0
 10
6.8407237794
 20
2.0190723245
 30
0.0
 10
6.8407976013
 20
2.0164355481
 30
0.0
 10
6.8398806347
 20
2.011071525
 30
0.0
 10
6.835487138
 20
2.0042398567
 30
0.0
 10
6.8287810845
 20
1.9996573478
 30
0.0
 10
6.8234453016
 20
1.9985908385
 30
0.0
 10
6.8208076894
 20
1.9985908385
 30
0.0
  0
SPLINE
  5
346
100
AcDbEntity
  8
0
100
AcDbSpline
 62
7
  6
CONTINUOUS
 70
0
 71
3
 72
21
 73
17
 74
0
 42
0.0000001
 43
0.0000001
 44
0.0000000001
 40
0.0
 40
0.0
 40
0.0
 40
0.0
 40
0.1246346044
 40
0.187257635
 40
0.249805628
 40
0.3123144021
 40
0.3748988263
 40
0.4374406626
 40
0.500001921
 40
0.5625638732
 40
0.6251068165
 40
0.6876930097
 40
0.750201929
 40
0.8127466602
 40
0.8753669994
 40
1.0
 40
1.0
 40
1.0
 40
1.0
 10
7.1498488825
 20
2.8079264184
 30
0.0
 10
7.1486187423
 20
2.8059051206
 30
0.0
 10
7.1462986206
 20
2.8031172713
 30
0.0
 10
7.1424895892
 20
2.800266924
 30
0.0
 10
7.1393108199
 20
2.7986179758
 30
0.0
 10
7.1358953364
 20
2.7975415177
 30
0.0
 10
7.1323399321
 20
2.7971023146
 30
0.0
 10
7.1287615319
 20
2.7973312701
 30
0.0
 10
7.1252988649
 20
2.7982632923
 30
0.0
 10
7.122080263
 20
2.7998442633
 30
0.0
 10
7.1192379071
 20
2.8020303355
 30
0.0
 10
7.1168532496
 20
2.8047038256
 30
0.0
 10
7.1149936134
 20
2.8077641915
 30
0.0
 10
7.1136894922
 20
2.8110991779
 30
0.0
 10
7.1127029835
 20
2.8157530524
 30
0.0
 10
7.1127950734
 20
2.8193787942
 30
0.0
 10
7.1132018639
 20
2.8217097312
 30
0.0
  0
SPLINE
  5
347
100
AcDbEntity
  8
0
100
AcDbSpline
 62
7
  6
CONTINUOUS
 70
0
 71
3
 72
21
 73
17
 74
0
 42
0.0000001
 43
0.0000001
 44
0.0000000001
 40
0.0
 40
0.0
 40
0.0
 40
0.0
 40
0.1245832556
 40
0.1872470123
 40
0.2498470295
 40
0.3123590691
 40
0.3748807091
 40
0.4374690361
 40
0.5000239039
 40
0.5625768617
 40
0.6251659137
 40
0.6876884232
 40
0.7501887447
 40
0.8127738497
 40
0.8754262559
 40
1.0
 40
1.0
 40
1.0
 40
1.0
 10
7.3518889976
 20
2.7933414302
 30
0.0
 10
7.3529324393
 20
2.7953167181
 30
0.0
 10
7.3549717614
 20
2.7980701056
 30
0.0
 10
7.3584055096
 20
2.8009689149
 30
0.0
 10
7.361311276
 20
2.8027018835
 30
0.0
 10
7.3644591301
 20
2.8039335396
 30
0.0
 10
7.367773725
 20
2.8046041429
 30
0.0
 10
7.3711547931
 20
2.8046866533
 30
0.0
 10
7.3745003195
 20
2.8041775053
 30
0.0
 10
7.3776962475
 20
2.8030647054
 30
0.0
 10
7.3806466541
 20
2.8014114381
 30
0.0
 10
7.3832642031
 20
2.7992706039
 30
0.0
 10
7.3854717505
 20
2.7967113332
 30
0.0
 10
7.3872308501
 20
2.7938221427
 30
0.0
 10
7.3889128486
 20
2.7896557652
 30
0.0
 10
7.389429813
 20
2.7862689966
 30
0.0
 10
7.3894298137
 20
2.7840352171
 30
0.0
  0
SPLINE
  5
348
100
AcDbEntity
  8
0
100
AcDbSpline
 62
7
  6
CONTINUOUS
 70
0
 71
3
 72
15
 73
11
 74
0
 42
0.0000001
 43
0.0000001
 44
0.0000000001
 40
0.0
 40
0.0
 40
0.0
 40
0.0
 40
0.1248753273
 40
0.2500493028
 40
0.3750756734
 40
0.5000722364
 40
0.6250527814
 40
0.7500122983
 40
0.8751345341
 40
1.0
 40
1.0
 40
1.0
 40
1.0
 10
7.0162972332
 20
1.9985908385
 30
0.0
 10
7.0148532767
 20
1.9985908385
 30
0.0
 10
7.0119525474
 20
1.998907042
 30
0.0
 10
7.0078104251
 20
2.0002989187
 30
0.0
 10
7.0040660469
 20
2.0025598155
 30
0.0
 10
7.0009065583
 20
2.0055800454
 30
0.0
 10
6.9984755771
 20
2.0092115259
 30
0.0
 10
6.9968931891
 20
2.0132875588
 30
0.0
 10
6.9962345547
 20
2.0176058242
 30
0.0
 10
6.996421692
 20
2.0205170029
 30
0.0
 10
6.9966698671
 20
2.0219393567
 30
0.0
  0
SPLINE
  5
349
100
AcDbEntity
  8
0
100
AcDbSpline
 62
7
  6
CONTINUOUS
 70
0
 71
3
 72
11
 73
7
 74
0
 42
0.0000001
 43
0.0000001
 44
0.0000000001
 40
0.0
 40
0.0
 40
0.0
 40
0.0
 40
0.2499966518
 40
0.5000233909
 40
0.7500246996
 40
1.0
 40
1.0
 40
1.0
 40
1.0
 10
6.3703780992
 20
3.5509708467
 30
0.0
 10
6.3700873102
 20
3.5537195237
 30
0.0
 10
6.3706645136
 20
3.5594096765
 30
0.0
 10
6.374926983
 20
3.5668024348
 30
0.0
 10
6.3818303191
 20
3.5718184661
 30
0.0
 10
6.3874276463
 20
3.5729908385
 30
0.0
 10
6.3901914261
 20
3.5729908385
 30
0.0
  0
SPLINE
  5
34A
100
AcDbEntity
  8
0
100
AcDbSpline
 62
7
  6
CONTINUOUS
 70
0
 71
3
 72
11
 73
7
 74
0
 42
0.0000001
 43
0.0000001
 44
0.0000000001
 40
0.0
 40
0.0
 40
0.0
 40
0.0
 40
0.2499964751
 40
0.5000225376
 40
0.7500243922
 40
1.0
 40
1.0
 40
1.0
 40
1.0
 10
5.1631863115
 20
2.0208947253
 30
0.0
 10
5.1635192754
 20
2.0181273092
 30
0.0
 10
5.1630095156
 20
2.0123788942
 30
0.0
 10
5.1587760879
 20
2.0048815359
 30
0.0
 10
5.151838073
 20
1.9997833615
 30
0.0
 10
5.1461922202
 20
1.9985908385
 30
0.0
 10
5.1434050783
 20
1.9985908385
 30
0.0
  0
SPLINE
  5
34B
100
AcDbEntity
  8
0
100
AcDbSpline
 62
7
  6
CONTINUOUS
 70
0
 71
3
 72
15
 73
11
 74
0
 42
0.0000001
 43
0.0000001
 44
0.0000000001
 40
0.0
 40
0.0
 40
0.0
 40
0.0
 40
0.1248770005
 40
0.2500468919
 40
0.3750705367
 40
0.5000668555
 40
0.6250483548
 40
0.7500102874
 40
0.8751321895
 40
1.0
 40
1.0
 40
1.0
 40
1.0
 10
5.3692218973
 20
3.5729908385
 30
0.0
 10
5.3706539921
 20
3.5729908385
 30
0.0
 10
5.3735306831
 20
3.5726798011
 30
0.0
 10
5.3776417433
 20
3.5713102617
 30
0.0
 10
5.3813646263
 20
3.5690847787
 30
0.0
 10
5.3845164199
 20
3.5661095337
 30
0.0
 10
5.3869561803
 20
3.5625280186
 30
0.0
 10
5.3885654497
 20
3.5585018382
 30
0.0
 10
5.3892689004
 20
3.5542275515
 30
0.0
 10
5.3891222631
 20
3.5513384807
 30
0.0
 10
5.3888964001
 20
3.5499244157
 30
0.0
  0
SPLINE
  5
34C
100
AcDbEntity
  8
0
100
AcDbSpline
 62
7
  6
CONTINUOUS
 70
0
 71
3
 72
17
 73
13
 74
0
 42
0.0000001
 43
0.0000001
 44
0.0000000001
 40
0.0
 40
0.0
 40
0.0
 40
0.0
 40
0.1247907769
 40
0.1874813519
 40
0.2501328829
 40
0.3751024038
 40
0.5000286384
 40
0.624945172
 40
0.749881852
 40
0.8125214139
 40
0.8752079356
 40
1.0
 40
1.0
 40
1.0
 40
1.0
 10
5.6204143077
 20
2.024552083
 30
0.0
 10
5.6208856576
 20
2.0230697124
 30
0.0
 10
5.6213335343
 20
2.0207481438
 30
0.0
 10
5.6213899893
 20
2.0176256437
 30
0.0
 10
5.6210766616
 20
2.0145147613
 30
0.0
 10
5.6200033255
 20
2.0107288106
 30
0.0
 10
5.6176850952
 20
2.0066230265
 30
0.0
 10
5.6144748112
 20
2.0031702552
 30
0.0
 10
5.611192618
 20
2.0010006288
 30
0.0
 10
5.6083233939
 20
1.9997598592
 30
0.0
 10
5.6053307661
 20
1.9988675829
 30
0.0
 10
5.6029826757
 20
1.9985908385
 30
0.0
 10
5.6014271555
 20
1.9985908385
 30
0.0
  0
SPLINE
  5
34D
100
AcDbEntity
  8
0
100
AcDbSpline
 62
7
  6
CONTINUOUS
 70
0
 71
3
 72
11
 73
7
 74
0
 42
0.0000001
 43
0.0000001
 44
0.0000000001
 40
0.0
 40
0.0
 40
0.0
 40
0.0
 40
0.2499953676
 40
0.5000221314
 40
0.7500228108
 40
1.0
 40
1.0
 40
1.0
 40
1.0
 10
5.6894467735
 20
3.5527796379
 30
0.0
 10
5.6894090551
 20
3.5553950377
 30
0.0
 10
5.6903813225
 20
3.5607000718
 30
0.0
 10
5.6947933721
 20
3.5674341269
 30
0.0
 10
5.7014631194
 20
3.5719423807
 30
0.0
 10
5.7067531143
 20
3.5729908385
 30
0.0
 10
5.7093685959
 20
3.5729908385
 30
0.0
  0
SPLINE
  5
34E
100
AcDbEntity
  8
0
100
AcDbSpline
 62
7
  6
CONTINUOUS
 70
0
 71
3
 72
21
 73
17
 74
0
 42
0.0000001
 43
0.0000001
 44
0.0000000001
 40
0.0
 40
0.0
 40
0.0
 40
0.0
 40
0.1245672972
 40
0.1872292024
 40
0.2498352119
 40
0.3123429047
 40
0.3748619981
 40
0.4374569594
 40
0.5000082384
 40
0.5625580746
 40
0.6251522642
 40
0.6876722362
 40
0.7501782259
 40
0.812781282
 40
0.8754389288
 40
1.0
 40
1.0
 40
1.0
 40
1.0
 10
5.8645751868
 20
2.6913240086
 30
0.0
 10
5.8630196993
 20
2.6896542337
 30
0.0
 10
5.860275686
 20
2.6874810565
 30
0.0
 10
5.8561152199
 20
2.6855396172
 30
0.0
 10
5.852785111
 20
2.6846118752
 30
0.0
 10
5.8493498045
 20
2.6842522569
 30
0.0
 10
5.8459031127
 20
2.6845047561
 30
0.0
 10
5.8425569843
 20
2.6853706108
 30
0.0
 10
5.839419015
 20
2.6868250423
 30
0.0
 10
5.8366133827
 20
2.6888476003
 30
0.0
 10
5.834219152
 20
2.6913403428
 30
0.0
 10
5.8323100401
 20
2.6942210502
 30
0.0
 10
5.8309403414
 20
2.6973918885
 30
0.0
 10
5.8301174571
 20
2.700749264
 30
0.0
 10
5.8297711567
 20
2.7053270971
 30
0.0
 10
5.8303211978
 20
2.708783746
 30
0.0
 10
5.8310145519
 20
2.7109577812
 30
0.0
  0
SPLINE
  5
34F
100
AcDbEntity
  8
0
100
AcDbSpline
 62
7
  6
CONTINUOUS
 70
0
 71
3
 72
19
 73
15
 74
0
 42
0.0000001
 43
0.0000001
 44
0.0000000001
 40
0.0
 40
0.0
 40
0.0
 40
0.0
 40
0.124737137
 40
0.1874310064
 40
0.2500498888
 40
0.3126122786
 40
0.3751832235
 40
0.5000079754
 40
0.6248302245
 40
0.6874004269
 40
0.7499606933
 40
0.8125765774
 40
0.8752667769
 40
1.0
 40
1.0
 40
1.0
 40
1.0
 10
6.173320699
 20
2.7822236007
 30
0.0
 10
6.1748800555
 20
2.7835263627
 30
0.0
 10
6.1775330579
 20
2.7851506482
 30
0.0
 10
6.181398468
 20
2.7864690094
 30
0.0
 10
6.184424027
 20
2.7870072805
 30
0.0
 10
6.1874940347
 20
2.7870813433
 30
0.0
 10
6.1915438878
 20
2.7865431822
 30
0.0
 10
6.1963798782
 20
2.7846963006
 30
0.0
 10
6.2003890727
 20
2.7814215686
 30
0.0
 10
6.2028719117
 20
2.7781772312
 30
0.0
 10
6.204335947
 20
2.7754778859
 30
0.0
 10
6.2053752517
 20
2.7725860586
 30
0.0
 10
6.2061562904
 20
2.7685775605
 30
0.0
 10
6.2060682826
 20
2.7654681858
 30
0.0
 10
6.2057147875
 20
2.7634672951
 30
0.0
  0
SPLINE
  5
350
100
AcDbEntity
  8
0
100
AcDbSpline
 62
7
  6
CONTINUOUS
 70
0
 71
3
 72
11
 73
7
 74
0
 42
0.0000001
 43
0.0000001
 44
0.0000000001
 40
0.0
 40
0.0
 40
0.0
 40
0.0
 40
0.2499906055
 40
0.5000142098
 40
0.7500220273
 40
1.0
 40
1.0
 40
1.0
 40
1.0
 10
3.9699048572
 20
3.7697908385
 30
0.0
 10
3.9670738069
 20
3.7697908385
 30
0.0
 10
3.9613366032
 20
3.7710217428
 30
0.0
 10
3.9543352364
 20
3.7762757156
 30
0.0
 10
3.95016068
 20
3.7839694365
 30
0.0
 10
3.9497811526
 20
3.7898245576
 30
0.0
 10
3.9501946742
 20
3.7926250996
 30
0.0
  0
SPLINE
  5
351
100
AcDbEntity
  8
0
100
AcDbSpline
 62
7
  6
CONTINUOUS
 70
0
 71
3
 72
11
 73
7
 74
0
 42
0.0000001
 43
0.0000001
 44
0.0000000001
 40
0.0
 40
0.0
 40
0.0
 40
0.0
 40
0.2499958182
 40
0.5000230987
 40
0.7500234256
 40
1.0
 40
1.0
 40
1.0
 40
1.0
 10
4.1150589531
 20
3.7902256013
 30
0.0
 10
4.1151264919
 20
3.7875924814
 30
0.0
 10
4.1141998711
 20
3.7822386121
 30
0.0
 10
4.1098030653
 20
3.775423837
 30
0.0
 10
4.1031032509
 20
3.7708542118
 30
0.0
 10
4.0977753931
 20
3.7697908385
 30
0.0
 10
4.0951416098
 20
3.7697908385
 30
0.0
  0
SPLINE
  5
352
100
AcDbEntity
  8
0
100
AcDbSpline
 62
7
  6
CONTINUOUS
 70
0
 71
3
 72
21
 73
17
 74
0
 42
0.0000001
 43
0.0000001
 44
0.0000000001
 40
0.0
 40
0.0
 40
0.0
 40
0.0
 40
0.1245677689
 40
0.1872236987
 40
0.2498168415
 40
0.312315732
 40
0.3748368206
 40
0.4374341907
 40
0.4999884587
 40
0.5625424799
 40
0.6251374678
 40
0.6876586051
 40
0.7501679341
 40
0.8127725496
 40
0.8754331175
 40
1.0
 40
1.0
 40
1.0
 40
1.0
 10
4.1938802977
 20
4.7788430255
 30
0.0
 10
4.1938588584
 20
4.7765697445
 30
0.0
 10
4.1933012284
 20
4.7731276311
 30
0.0
 10
4.1915468075
 20
4.7689042039
 30
0.0
 10
4.1897226519
 20
4.7659838753
 30
0.0
 10
4.1874401143
 20
4.7634095276
 30
0.0
 10
4.1847387106
 20
4.7612756494
 30
0.0
 10
4.1817001904
 20
4.7596562149
 30
0.0
 10
4.1784186898
 20
4.7586059477
 30
0.0
 10
4.1749982207
 20
4.758192186
 30
0.0
 10
4.1715611858
 20
4.7583967305
 30
0.0
 10
4.1682160237
 20
4.7592104337
 30
0.0
 10
4.1650676785
 20
4.7605988479
 30
0.0
 10
4.1621914979
 20
4.762492737
 30
0.0
 10
4.1588356839
 20
4.7656002483
 30
0.0
 10
4.1568939019
 20
4.7684966409
 30
0.0
 10
4.155926662
 20
4.7705539787
 30
0.0
  0
SPLINE
  5
353
100
AcDbEntity
  8
0
100
AcDbSpline
 62
7
  6
CONTINUOUS
 70
0
 71
3
 72
11
 73
7
 74
0
 42
0.0000001
 43
0.0000001
 44
0.0000000001
 40
0.0
 40
0.0
 40
0.0
 40
0.0
 40
0.2499953173
 40
0.5000209832
 40
0.7500232489
 40
1.0
 40
1.0
 40
1.0
 40
1.0
 10
3.9977995239
 20
5.3695368019
 30
0.0
 10
3.9975908204
 20
5.3722462929
 30
0.0
 10
3.9982980028
 20
5.3778184279
 30
0.0
 10
4.0026137515
 20
5.3850036706
 30
0.0
 10
4.0094463528
 20
5.3898580321
 30
0.0
 10
4.0149472588
 20
5.3909908385
 30
0.0
 10
4.017664574
 20
5.3909908385
 30
0.0
  0
SPLINE
  5
354
100
AcDbEntity
  8
0
100
AcDbSpline
 62
7
  6
CONTINUOUS
 70
0
 71
3
 72
11
 73
7
 74
0
 42
0.0000001
 43
0.0000001
 44
0.0000000001
 40
0.0
 40
0.0
 40
0.0
 40
0.0
 40
0.2499964425
 40
0.5000224972
 40
0.7500243644
 40
1.0
 40
1.0
 40
1.0
 40
1.0
 10
4.5679047336
 20
3.7920732579
 30
0.0
 10
4.5682344847
 20
3.7893072377
 30
0.0
 10
4.5677195723
 20
3.7835632078
 30
0.0
 10
4.5634838956
 20
3.7760737716
 30
0.0
 10
4.5565484849
 20
3.7709818316
 30
0.0
 10
4.550906304
 20
3.7697908385
 30
0.0
 10
4.5481209294
 20
3.7697908385
 30
0.0
  0
SPLINE
  5
355
100
AcDbEntity
  8
0
100
AcDbSpline
 62
7
  6
CONTINUOUS
 70
0
 71
3
 72
21
 73
17
 74
0
 42
0.0000001
 43
0.0000001
 44
0.0000000001
 40
0.0
 40
0.0
 40
0.0
 40
0.0
 40
0.1246373625
 40
0.1872600401
 40
0.2498074976
 40
0.312317767
 40
0.37490018
 40
0.4374431105
 40
0.500004341
 40
0.562565866
 40
0.6251075119
 40
0.6876875063
 40
0.7501938583
 40
0.8127360884
 40
0.8753572385
 40
1.0
 40
1.0
 40
1.0
 40
1.0
 10
4.7327516851
 20
4.0446908111
 30
0.0
 10
4.7322794204
 20
4.0423870235
 30
0.0
 10
4.7310425335
 20
4.0390006975
 30
0.0
 10
4.7284320624
 20
4.0350584558
 30
0.0
 10
4.7260095359
 20
4.0324512706
 30
0.0
 10
4.7231752418
 20
4.0302989895
 30
0.0
 10
4.7199982432
 20
4.0286923906
 30
0.0
 10
4.7165767069
 20
4.0276976474
 30
0.0
 10
4.7130265328
 20
4.0273913452
 30
0.0
 10
4.7094830234
 20
4.0277666502
 30
0.0
 10
4.7060815045
 20
4.0288276317
 30
0.0
 10
4.7029365341
 20
4.0304957434
 30
0.0
 10
4.7001447004
 20
4.0327024491
 30
0.0
 10
4.697773388
 20
4.0353560492
 30
0.0
 10
4.6952401809
 20
4.0393483372
 30
0.0
 10
4.6940691256
 20
4.0427580529
 30
0.0
 10
4.6936416801
 20
4.0450706793
 30
0.0
  0
SPLINE
  5
356
100
AcDbEntity
  8
0
100
AcDbSpline
 62
7
  6
CONTINUOUS
 70
0
 71
3
 72
15
 73
11
 74
0
 42
0.0000001
 43
0.0000001
 44
0.0000000001
 40
0.0
 40
0.0
 40
0.0
 40
0.0
 40
0.1248793414
 40
0.2500434481
 40
0.3750614384
 40
0.5000569801
 40
0.6250403815
 40
0.750006782
 40
0.875129272
 40
1.0
 40
1.0
 40
1.0
 40
1.0
 10
4.7586519323
 20
5.3909908385
 30
0.0
 10
4.7600697242
 20
5.3909908385
 30
0.0
 10
4.7629174195
 20
5.3906859644
 30
0.0
 10
4.7669908984
 20
5.3893431871
 30
0.0
 10
4.7706875342
 20
5.3871601328
 30
0.0
 10
4.7738294647
 20
5.384238865
 30
0.0
 10
4.7762790052
 20
5.3807174706
 30
0.0
 10
4.7779196063
 20
5.3767515303
 30
0.0
 10
4.7786758636
 20
5.3725308399
 30
0.0
 10
4.7785772325
 20
5.3696691495
 30
0.0
 10
4.7783778969
 20
5.3682655392
 30
0.0
  0
SPLINE
  5
357
100
AcDbEntity
  8
0
100
AcDbSpline
 62
7
  6
CONTINUOUS
 70
0
 71
3
 72
11
 73
7
 74
0
 42
0.0000001
 43
0.0000001
 44
0.0000000001
 40
0.0
 40
0.0
 40
0.0
 40
0.0
 40
0.2500006999
 40
0.5000309851
 40
0.7500287875
 40
1.0
 40
1.0
 40
1.0
 40
1.0
 10
4.6570789823
 20
5.3681908514
 30
0.0
 10
4.6566707012
 20
5.3709895611
 30
0.0
 10
4.657058998
 20
5.3768383808
 30
0.0
 10
4.6612380462
 20
5.3845193798
 30
0.0
 10
4.6682353995
 20
5.3897626791
 30
0.0
 10
4.673966196
 20
5.3909908385
 30
0.0
 10
4.6767941957
 20
5.3909908385
 30
0.0
  0
SPLINE
  5
358
100
AcDbEntity
  8
0
100
AcDbSpline
 62
7
  6
CONTINUOUS
 70
0
 71
3
 72
17
 73
13
 74
0
 42
0.0000001
 43
0.0000001
 44
0.0000000001
 40
0.0
 40
0.0
 40
0.0
 40
0.0
 40
0.1248091019
 40
0.1875076991
 40
0.2501665489
 40
0.3751502426
 40
0.5000903583
 40
0.6250101228
 40
0.7499080698
 40
0.8125270294
 40
0.8752020391
 40
1.0
 40
1.0
 40
1.0
 40
1.0
 10
5.0661860571
 20
5.3909908385
 30
0.0
 10
5.0677194098
 20
5.3909908385
 30
0.0
 10
5.0700337766
 20
5.3907217252
 30
0.0
 10
5.072987254
 20
5.3898538929
 30
0.0
 10
5.0758228254
 20
5.3886467373
 30
0.0
 10
5.0790749941
 20
5.3865344715
 30
0.0
 10
5.0822777206
 20
5.3831683467
 30
0.0
 10
5.0846224156
 20
5.3791582775
 30
0.0
 10
5.0857490953
 20
5.3754495632
 30
0.0
 10
5.0861221974
 20
5.3723922583
 30
0.0
 10
5.0861371743
 20
5.3693148825
 30
0.0
 10
5.0857541617
 20
5.3670170587
 30
0.0
 10
5.0853291458
 20
5.3655439286
 30
0.0
  0
SPLINE
  5
359
100
AcDbEntity
  8
0
100
AcDbSpline
 62
7
  6
CONTINUOUS
 70
0
 71
3
 72
17
 73
13
 74
0
 42
0.0000001
 43
0.0000001
 44
0.0000000001
 40
0.0
 40
0.0
 40
0.0
 40
0.0
 40
0.124795141
 40
0.1875099459
 40
0.250184375
 40
0.3751758951
 40
0.500107786
 40
0.6250152495
 40
0.7499036563
 40
0.8125309606
 40
0.8752180321
 40
1.0
 40
1.0
 40
1.0
 40
1.0
 10
4.8866493942
 20
3.7697908385
 30
0.0
 10
4.885055782
 20
3.7697908385
 30
0.0
 10
4.8826493583
 20
3.7700814417
 30
0.0
 10
4.8795887232
 20
3.771016591
 30
0.0
 10
4.8766601238
 20
3.7723170014
 30
0.0
 10
4.8733265852
 20
3.7745890084
 30
0.0
 10
4.8701081222
 20
3.7781942903
 30
0.0
 10
4.8678429497
 20
3.7824619085
 30
0.0
 10
4.8668678089
 20
3.786374078
 30
0.0
 10
4.8666630816
 20
3.7895695719
 30
0.0
 10
4.86684604
 20
3.7927635109
 30
0.0
 10
4.8674069413
 20
3.7951210811
 30
0.0
 10
4.8679588712
 20
3.7966158845
 30
0.0
  0
SPLINE
  5
35A
100
AcDbEntity
  8
0
100
AcDbSpline
 62
7
  6
CONTINUOUS
 70
0
 71
3
 72
11
 73
7
 74
0
 42
0.0000001
 43
0.0000001
 44
0.0000000001
 40
0.0
 40
0.0
 40
0.0
 40
0.0
 40
0.2499955769
 40
0.5000213562
 40
0.7500235373
 40
1.0
 40
1.0
 40
1.0
 40
1.0
 10
2.4689518036
 20
5.3909908385
 30
0.0
 10
2.471686283
 20
5.3909908385
 30
0.0
 10
2.4772228321
 20
5.3898434405
 30
0.0
 10
2.4840814744
 20
5.3849298771
 30
0.0
 10
2.4883779834
 20
5.3776690381
 30
0.0
 10
2.4890382028
 20
5.3720540363
 30
0.0
 10
2.4887998559
 20
5.3693301742
 30
0.0
  0
SPLINE
  5
35B
100
AcDbEntity
  8
0
100
AcDbSpline
 62
7
  6
CONTINUOUS
 70
0
 71
3
 72
17
 73
13
 74
0
 42
0.0000001
 43
0.0000001
 44
0.0000000001
 40
0.0
 40
0.0
 40
0.0
 40
0.0
 40
0.1248001597
 40
0.1874821871
 40
0.2501243595
 40
0.3750863706
 40
0.5000149596
 40
0.6249383519
 40
0.7498830767
 40
0.8125190009
 40
0.8751990035
 40
1.0
 40
1.0
 40
1.0
 40
1.0
 10
2.6226346142
 20
3.7697908385
 30
0.0
 10
2.6211137906
 20
3.7697908385
 30
0.0
 10
2.6188186157
 20
3.7700553532
 30
0.0
 10
2.6158877119
 20
3.7709094762
 30
0.0
 10
2.6130720655
 20
3.7720976799
 30
0.0
 10
2.6098374736
 20
3.7741769127
 30
0.0
 10
2.6066390341
 20
3.7774936223
 30
0.0
 10
2.6042796806
 20
3.7814511426
 30
0.0
 10
2.6031236711
 20
3.7851181195
 30
0.0
 10
2.6027173103
 20
3.7881467597
 30
0.0
 10
2.6026634288
 20
3.7911990101
 30
0.0
 10
2.6030112994
 20
3.7934830236
 30
0.0
 10
2.6034109501
 20
3.7949504072
 30
0.0
  0
SPLINE
  5
35C
100
AcDbEntity
  8
0
100
AcDbSpline
 62
7
  6
CONTINUOUS
 70
0
 71
3
 72
21
 73
17
 74
0
 42
0.0000001
 43
0.0000001
 44
0.0000000001
 40
0.0
 40
0.0
 40
0.0
 40
0.0
 40
0.1245833573
 40
0.1872454795
 40
0.2498429488
 40
0.3123540645
 40
0.374875587
 40
0.437462162
 40
0.5000159733
 40
0.5625686123
 40
0.6251556242
 40
0.6876775562
 40
0.750181107
 40
0.8127690074
 40
0.8754233271
 40
1.0
 40
1.0
 40
1.0
 40
1.0
 10
2.6920593052
 20
5.1968078112
 30
0.0
 10
2.6927963358
 20
5.1989123544
 30
0.0
 10
2.6944011753
 20
5.2019325572
 30
0.0
 10
2.6973608927
 20
5.2053029141
 30
0.0
 10
2.6999720461
 20
5.2074443967
 30
0.0
 10
2.7028961658
 20
5.2091275454
 30
0.0
 10
2.7060677535
 20
5.2102827781
 30
0.0
 10
2.7093921711
 20
5.2108692075
 30
0.0
 10
2.7127698606
 20
5.2108680505
 30
0.0
 10
2.7160907651
 20
5.2102510281
 30
0.0
 10
2.7192514658
 20
5.2090654921
 30
0.0
 10
2.7221580344
 20
5.2073495494
 30
0.0
 10
2.7247242838
 20
5.2051595604
 30
0.0
 10
2.7268987151
 20
5.2025763875
 30
0.0
 10
2.7291911665
 20
5.1987215203
 30
0.0
 10
2.7302157772
 20
5.1954587945
 30
0.0
 10
2.7305551637
 20
5.1932550251
 30
0.0
  0
SPLINE
  5
35D
100
AcDbEntity
  8
0
100
AcDbSpline
 62
7
  6
CONTINUOUS
 70
0
 71
3
 72
19
 73
15
 74
0
 42
0.0000001
 43
0.0000001
 44
0.0000000001
 40
0.0
 40
0.0
 40
0.0
 40
0.0
 40
0.1247256253
 40
0.1874318381
 40
0.250061925
 40
0.3126263149
 40
0.3752011462
 40
0.5000094529
 40
0.6248141558
 40
0.6873891097
 40
0.7499528539
 40
0.8125807479
 40
0.8752818329
 40
1.0
 40
1.0
 40
1.0
 40
1.0
 10
3.0613554133
 20
4.3821440022
 30
0.0
 10
3.0603940196
 20
4.3802698034
 30
0.0
 10
3.0585094527
 20
4.3776494287
 30
0.0
 10
3.0553289912
 20
4.3748530161
 30
0.0
 10
3.0526354198
 20
4.3731492008
 30
0.0
 10
3.0497105385
 20
4.3718885224
 30
0.0
 10
3.0456001341
 20
4.3708627021
 30
0.0
 10
3.0402251008
 20
4.370850705
 30
0.0
 10
3.0351453151
 20
4.3726076606
 30
0.0
 10
3.0315909303
 20
4.37491277
 30
0.0
 10
3.0292341122
 20
4.3770550524
 30
0.0
 10
3.027239994
 20
4.3795411851
 30
0.0
 10
3.0251399911
 20
4.3832185762
 30
0.0
 10
3.0242087903
 20
4.3863087932
 30
0.0
 10
3.0239081019
 20
4.3883934886
 30
0.0
  0
SPLINE
  5
35E
100
AcDbEntity
  8
0
100
AcDbSpline
 62
7
  6
CONTINUOUS
 70
0
 71
3
 72
11
 73
7
 74
0
 42
0.0000001
 43
0.0000001
 44
0.0000000001
 40
0.0
 40
0.0
 40
0.0
 40
0.0
 40
0.2499955684
 40
0.5000213438
 40
0.7500235276
 40
1.0
 40
1.0
 40
1.0
 40
1.0
 10
3.0281733603
 20
3.7697908385
 30
0.0
 10
3.025439524
 20
3.7697908385
 30
0.0
 10
3.0199043088
 20
3.7709376907
 30
0.0
 10
3.0130466509
 20
3.7758490239
 30
0.0
 10
3.0087494158
 20
3.7831069936
 30
0.0
 10
3.0080874079
 20
3.7887203585
 30
0.0
 10
3.0083246245
 20
3.791443674
 30
0.0
  0
SPLINE
  5
35F
100
AcDbEntity
  8
0
100
AcDbSpline
 62
7
  6
CONTINUOUS
 70
0
 71
3
 72
19
 73
15
 74
0
 42
0.0000001
 43
0.0000001
 44
0.0000000001
 40
0.0
 40
0.0
 40
0.0
 40
0.0
 40
0.1246942934
 40
0.1873754343
 40
0.249991949
 40
0.374812052
 40
0.4996443707
 40
0.5622113883
 40
0.6247632858
 40
0.6873322711
 40
0.7499402418
 40
0.812598016
 40
0.8752996434
 40
1.0
 40
1.0
 40
1.0
 40
1.0
 10
3.1924654397
 20
4.2063059206
 30
0.0
 10
3.1936059426
 20
4.2075599519
 30
0.0
 10
3.1955721786
 20
4.2092339805
 30
0.0
 10
3.1985295679
 20
4.2109214914
 30
0.0
 10
3.2016828833
 20
4.2122158301
 30
0.0
 10
3.2058941255
 20
4.2130604982
 30
0.0
 10
3.2101806749
 20
4.2127912398
 30
0.0
 10
3.2134765904
 20
4.2119339557
 30
0.0
 10
3.2158489475
 20
4.2109745528
 30
0.0
 10
3.2180767192
 20
4.2097153927
 30
0.0
 10
3.2201272254
 20
4.2081823554
 30
0.0
 10
3.2219658126
 20
4.2063966899
 30
0.0
 10
3.2240827228
 20
4.203729128
 30
0.0
 10
3.2252845655
 20
4.2014429137
 30
0.0
 10
3.2258762057
 20
4.1998543349
 30
0.0
  0
SPLINE
  5
360
100
AcDbEntity
  8
0
100
AcDbSpline
 62
7
  6
CONTINUOUS
 70
0
 71
3
 72
19
 73
15
 74
0
 42
0.0000001
 43
0.0000001
 44
0.0000000001
 40
0.0
 40
0.0
 40
0.0
 40
0.0
 40
0.1247334861
 40
0.1874321939
 40
0.2500547131
 40
0.3126175348
 40
0.37518971
 40
0.5000087788
 40
0.6248248468
 40
0.6873967826
 40
0.7499583509
 40
0.8125783155
 40
0.8752724725
 40
1.0
 40
1.0
 40
1.0
 40
1.0
 10
3.4283305464
 20
4.2518157406
 30
0.0
 10
3.4272306224
 20
4.2500749484
 30
0.0
 10
3.4251718803
 20
4.2476861092
 30
0.0
 10
3.4218436993
 20
4.2452250992
 30
0.0
 10
3.4190842548
 20
4.2437803204
 30
0.0
 10
3.4161380879
 20
4.2427761791
 30
0.0
 10
3.4120571328
 20
4.2420756035
 30
0.0
 10
3.4068196107
 20
4.2424225813
 30
0.0
 10
3.401967992
 20
4.244426
 30
0.0
 10
3.398616848
 20
4.2468579203
 30
0.0
 10
3.3964178499
 20
4.2490606929
 30
0.0
 10
3.3945810964
 20
4.2515761109
 30
0.0
 10
3.3926830652
 20
4.2552543027
 30
0.0
 10
3.3918921378
 20
4.2583068965
 30
0.0
 10
3.3916747173
 20
4.2603544594
 30
0.0
  0
SPLINE
  5
361
100
AcDbEntity
  8
0
100
AcDbSpline
 62
7
  6
CONTINUOUS
 70
0
 71
3
 72
15
 73
11
 74
0
 42
0.0000001
 43
0.0000001
 44
0.0000000001
 40
0.0
 40
0.0
 40
0.0
 40
0.0
 40
0.1248653531
 40
0.2500209654
 40
0.3750310525
 40
0.5000151166
 40
0.6249935466
 40
0.7499855944
 40
0.8751332766
 40
1.0
 40
1.0
 40
1.0
 40
1.0
 10
3.5048797157
 20
3.7697908385
 30
0.0
 10
3.5034261264
 20
3.7697908385
 30
0.0
 10
3.5005059917
 20
3.7701110472
 30
0.0
 10
3.4963390202
 20
3.7715213317
 30
0.0
 10
3.492577533
 20
3.7738107688
 30
0.0
 10
3.4894118605
 20
3.7768673585
 30
0.0
 10
3.4869882612
 20
3.780540019
 30
0.0
 10
3.4854280091
 20
3.7846573817
 30
0.0
 10
3.4848064369
 20
3.7890121025
 30
0.0
 10
3.4850273421
 20
3.7919413393
 30
0.0
 10
3.4852940422
 20
3.7933702688
 30
0.0
  0
SPLINE
  5
362
100
AcDbEntity
  8
0
100
AcDbSpline
 62
7
  6
CONTINUOUS
 70
0
 71
3
 72
19
 73
15
 74
0
 42
0.0000001
 43
0.0000001
 44
0.0000000001
 40
0.0
 40
0.0
 40
0.0
 40
0.0
 40
0.1247600711
 40
0.1874418077
 40
0.2500503595
 40
0.3126093129
 40
0.3751719875
 40
0.5000087985
 40
0.6248479357
 40
0.6874112639
 40
0.7499665327
 40
0.8125694309
 40
0.8752452807
 40
1.0
 40
1.0
 40
1.0
 40
1.0
 10
3.688242027
 20
4.3178602749
 30
0.0
 10
3.6892597993
 20
4.3195056413
 30
0.0
 10
3.6911552612
 20
4.3217761291
 30
0.0
 10
3.6942191236
 20
4.3241681246
 30
0.0
 10
3.6967613469
 20
4.3256128546
 30
0.0
 10
3.6994836755
 20
4.3266742513
 30
0.0
 10
3.7032749433
 20
4.3275360422
 30
0.0
 10
3.70819398
 20
4.3275499869
 30
0.0
 10
3.7128948585
 20
4.3261013724
 30
0.0
 10
3.716269871
 20
4.3241711963
 30
0.0
 10
3.7185640229
 20
4.3223618411
 30
0.0
 10
3.7205739811
 20
4.3202384536
 30
0.0
 10
3.7228067739
 20
4.3170570268
 30
0.0
 10
3.7239573566
 20
4.3143325006
 30
0.0
 10
3.7244509017
 20
4.3124618903
 30
0.0
  0
SPLINE
  5
363
100
AcDbEntity
  8
0
100
AcDbSpline
 62
7
  6
CONTINUOUS
 70
0
 71
3
 72
11
 73
7
 74
0
 42
0.0000001
 43
0.0000001
 44
0.0000000001
 40
0.0
 40
0.0
 40
0.0
 40
0.0
 40
0.2499987195
 40
0.5000274282
 40
0.7500268576
 40
1.0
 40
1.0
 40
1.0
 40
1.0
 10
3.3891210957
 20
5.3685783634
 30
0.0
 10
3.3887718201
 20
5.3713528088
 30
0.0
 10
3.389255404
 20
5.3771234048
 30
0.0
 10
3.3934773755
 20
5.3846608696
 30
0.0
 10
3.4004285215
 20
5.3897905865
 30
0.0
 10
3.4060929033
 20
5.3909908385
 30
0.0
 10
3.4088889614
 20
5.3909908385
 30
0.0
  0
SPLINE
  5
364
100
AcDbEntity
  8
0
100
AcDbSpline
 62
7
  6
CONTINUOUS
 70
0
 71
3
 72
19
 73
15
 74
0
 42
0.0000001
 43
0.0000001
 44
0.0000000001
 40
0.0
 40
0.0
 40
0.0
 40
0.0
 40
0.124739425
 40
0.1874314117
 40
0.2500485136
 40
0.3126103869
 40
0.3751806504
 40
0.5000081157
 40
0.6248328031
 40
0.6874021531
 40
0.7499618083
 40
0.8125758903
 40
0.8752643402
 40
1.0
 40
1.0
 40
1.0
 40
1.0
 10
6.5373657561
 20
4.8622590375
 30
0.0
 10
6.5372711021
 20
4.8602408065
 30
0.0
 10
6.5366780315
 20
4.8572055298
 30
0.0
 10
6.5350491378
 20
4.8534857958
 30
0.0
 10
6.5334140947
 20
4.8509046383
 30
0.0
 10
6.5314104413
 20
4.8486007426
 30
0.0
 10
6.5283027512
 20
4.8459847834
 30
0.0
 10
6.5237110597
 20
4.8436612165
 30
0.0
 10
6.5186232655
 20
4.8428888196
 30
0.0
 10
6.5145743903
 20
4.8432156096
 30
0.0
 10
6.5116057113
 20
4.8439289847
 30
0.0
 10
6.5087763397
 20
4.8450820157
 30
0.0
 10
6.5052910945
 20
4.847165623
 30
0.0
 10
6.5030466465
 20
4.8492931535
 30
0.0
 10
6.501798255
 20
4.8508817025
 30
0.0
  0
SPLINE
  5
365
100
AcDbEntity
  8
0
100
AcDbSpline
 62
7
  6
CONTINUOUS
 70
0
 71
3
 72
11
 73
7
 74
0
 42
0.0000001
 43
0.0000001
 44
0.0000000001
 40
0.0
 40
0.0
 40
0.0
 40
0.0
 40
0.2499939398
 40
0.5000186039
 40
0.7500212008
 40
1.0
 40
1.0
 40
1.0
 40
1.0
 10
6.3696076511
 20
5.3709238204
 30
0.0
 10
6.3695889464
 20
5.3735276016
 30
0.0
 10
6.3705901726
 20
5.3788009365
 30
0.0
 10
6.3750115508
 20
5.3854830326
 30
0.0
 10
6.3816617245
 20
5.3899519303
 30
0.0
 10
6.3869273403
 20
5.3909908385
 30
0.0
 10
6.3895310309
 20
5.3909908385
 30
0.0
  0
SPLINE
  5
366
100
AcDbEntity
  8
0
100
AcDbSpline
 62
7
  6
CONTINUOUS
 70
0
 71
3
 72
15
 73
11
 74
0
 42
0.0000001
 43
0.0000001
 44
0.0000000001
 40
0.0
 40
0.0
 40
0.0
 40
0.0
 40
0.1248679287
 40
0.2500190525
 40
0.3750235887
 40
0.5000074189
 40
0.6249883754
 40
0.7499838469
 40
0.8751312131
 40
1.0
 40
1.0
 40
1.0
 40
1.0
 10
6.8075917195
 20
3.7697908385
 30
0.0
 10
6.8061499644
 20
3.7697908385
 30
0.0
 10
6.8032538368
 20
3.7701058962
 30
0.0
 10
6.7991178328
 20
3.7714936784
 30
0.0
 10
6.7953776671
 20
3.7737475645
 30
0.0
 10
6.7922193637
 20
3.7767590566
 30
0.0
 10
6.7897864236
 20
3.7803817349
 30
0.0
 10
6.7881986394
 20
3.7844494372
 30
0.0
 10
6.7875315269
 20
3.7887606066
 30
0.0
 10
6.7877114756
 20
3.7916682202
 30
0.0
 10
6.7879556605
 20
3.7930891565
 30
0.0
  0
SPLINE
  5
367
100
AcDbEntity
  8
0
100
AcDbSpline
 62
7
  6
CONTINUOUS
 70
0
 71
3
 72
11
 73
7
 74
0
 42
0.0000001
 43
0.0000001
 44
0.0000000001
 40
0.0
 40
0.0
 40
0.0
 40
0.0
 40
0.2499941997
 40
0.5000191246
 40
0.7500216796
 40
1.0
 40
1.0
 40
1.0
 40
1.0
 10
6.9891340821
 20
3.7901713525
 30
0.0
 10
6.9891943462
 20
3.7875425175
 30
0.0
 10
6.9882565818
 20
3.782200509
 30
0.0
 10
6.9838560336
 20
3.7754053396
 30
0.0
 10
6.9771634876
 20
3.7708506016
 30
0.0
 10
6.97184478
 20
3.7697908385
 30
0.0
 10
6.9692154213
 20
3.7697908385
 30
0.0
  0
SPLINE
  5
368
100
AcDbEntity
  8
0
100
AcDbSpline
 62
7
  6
CONTINUOUS
 70
0
 71
3
 72
21
 73
17
 74
0
 42
0.0000001
 43
0.0000001
 44
0.0000000001
 40
0.0
 40
0.0
 40
0.0
 40
0.0
 40
0.1245846319
 40
0.1872452035
 40
0.2498399561
 40
0.3123504677
 40
0.3748720068
 40
0.4374563361
 40
0.5000086931
 40
0.5625596918
 40
0.6251430084
 40
0.6876647866
 40
0.7501733476
 40
0.8127649771
 40
0.8754211281
 40
1.0
 40
1.0
 40
1.0
 40
1.0
 10
7.0905307507
 20
4.1510586659
 30
0.0
 10
7.0901190832
 20
4.1532406685
 30
0.0
 10
7.0900001626
 20
4.1566441912
 30
0.0
 10
7.090874256
 20
4.1610242521
 30
0.0
 10
7.0920584088
 20
4.1641714413
 30
0.0
 10
7.0937391667
 20
4.1670803231
 30
0.0
 10
7.0958944621
 20
4.169659255
 30
0.0
 10
7.0984633185
 20
4.1718270008
 30
0.0
 10
7.1013702549
 20
4.1735182771
 30
0.0
 10
7.1045354381
 20
4.1746550934
 30
0.0
 10
7.1078478182
 20
4.1752260858
 30
0.0
 10
7.11120873
 20
4.1752162248
 30
0.0
 10
7.1145167588
 20
4.1746305533
 30
0.0
 10
7.1176874748
 20
4.1735114686
 30
0.0
 10
7.1216023383
 20
4.1713618723
 30
0.0
 10
7.1241306045
 20
4.1690805035
 30
0.0
 10
7.1255357845
 20
4.1673613121
 30
0.0
  0
SPLINE
  5
369
100
AcDbEntity
  8
0
100
AcDbSpline
 62
7
  6
CONTINUOUS
 70
0
 71
3
 72
19
 73
15
 74
0
 42
0.0000001
 43
0.0000001
 44
0.0000000001
 40
0.0
 40
0.0
 40
0.0
 40
0.0
 40
0.1247542221
 40
0.1874391998
 40
0.2500479998
 40
0.3126042677
 40
0.3751654731
 40
0.4999912239
 40
0.624830426
 40
0.6873981974
 40
0.7499574322
 40
0.8125666649
 40
0.8752496233
 40
1.0
 40
1.0
 40
1.0
 40
1.0
 10
7.388380982
 20
4.1343555513
 30
0.0
 10
7.388380982
 20
4.1323906942
 30
0.0
 10
7.3879517728
 20
4.1294163743
 30
0.0
 10
7.3865672732
 20
4.1257190772
 30
0.0
 10
7.3851265023
 20
4.1231218275
 30
0.0
 10
7.383321728
 20
4.1207657425
 30
0.0
 10
7.3804770631
 20
4.1180268181
 30
0.0
 10
7.3761951416
 20
4.1154479059
 30
0.0
 10
7.3713336577
 20
4.1142850407
 30
0.0
 10
7.3673846084
 20
4.1142435383
 30
0.0
 10
7.3644456981
 20
4.1146584631
 30
0.0
 10
7.361597449
 20
4.1155005369
 30
0.0
 10
7.3580181583
 20
4.1171663267
 30
0.0
 10
7.3556270046
 20
4.1189863935
 30
0.0
 10
7.3542495427
 20
4.1203874732
 30
0.0
  0
SPLINE
  5
36A
100
AcDbEntity
  8
0
100
AcDbSpline
 62
7
  6
CONTINUOUS
 70
0
 71
3
 72
11
 73
7
 74
0
 42
0.0000001
 43
0.0000001
 44
0.0000000001
 40
0.0
 40
0.0
 40
0.0
 40
0.0
 40
0.2499939422
 40
0.5000186089
 40
0.7500212055
 40
1.0
 40
1.0
 40
1.0
 40
1.0
 10
6.9723969606
 20
5.3709207031
 30
0.0
 10
6.9723778465
 20
5.3735247367
 30
0.0
 10
6.9733784498
 20
5.3787987578
 30
0.0
 10
6.9777996295
 20
5.3854819767
 30
0.0
 10
6.9844502282
 20
5.3899517241
 30
0.0
 10
6.9897163719
 20
5.3909908385
 30
0.0
 10
6.9923203179
 20
5.3909908385
 30
0.0
  0
SPLINE
  5
36B
100
AcDbEntity
  8
0
100
AcDbSpline
 62
7
  6
CONTINUOUS
 70
0
 71
3
 72
11
 73
7
 74
0
 42
0.0000001
 43
0.0000001
 44
0.0000000001
 40
0.0
 40
0.0
 40
0.0
 40
0.0
 40
0.2499949563
 40
0.5000204336
 40
0.7500228076
 40
1.0
 40
1.0
 40
1.0
 40
1.0
 10
7.2658388253
 20
5.3698476584
 30
0.0
 10
7.2656740814
 20
5.3725346314
 30
0.0
 10
7.266450165
 20
5.3780409562
 30
0.0
 10
7.2707926394
 20
5.385112779
 30
0.0
 10
7.2775854829
 20
5.3898794495
 30
0.0
 10
7.2830335485
 20
5.3909908385
 30
0.0
 10
7.2857253759
 20
5.3909908385
 30
0.0
  0
SPLINE
  5
36C
100
AcDbEntity
  8
0
100
AcDbSpline
 62
7
  6
CONTINUOUS
 70
0
 71
3
 72
23
 73
19
 74
0
 42
0.0000001
 43
0.0000001
 44
0.0000000001
 40
0.0
 40
0.0
 40
0.0
 40
0.0
 40
0.1246014301
 40
0.1872014948
 40
0.2185133109
 40
0.24979004
 40
0.3122597613
 40
0.3748869286
 40
0.4374123478
 40
0.4999912968
 40
0.5625667823
 40
0.6250917616
 40
0.6877170437
 40
0.7501935267
 40
0.7814797732
 40
0.8128013079
 40
0.8754106847
 40
1.0
 40
1.0
 40
1.0
 40
1.0
 10
7.3895708744
 20
4.8619200276
 30
0.0
 10
7.3895831939
 20
4.8593552842
 30
0.0
 10
7.389080709
 20
4.8554684327
 30
0.0
 10
7.3875391987
 20
4.8512275664
 30
0.0
 10
7.3863750073
 20
4.8489252256
 30
0.0
 10
7.3850244586
 20
4.8467309794
 30
0.0
 10
7.3829765207
 20
4.8442216849
 30
0.0
 10
7.37998161
 20
4.8417433956
 30
0.0
 10
7.3765298203
 20
4.8399348603
 30
0.0
 10
7.3727513458
 20
4.8389773862
 30
0.0
 10
7.3688543618
 20
4.8388934991
 30
0.0
 10
7.3650455997
 20
4.8397165736
 30
0.0
 10
7.3614979322
 20
4.8413059223
 30
0.0
 10
7.358854701
 20
4.8431783163
 30
0.0
 10
7.3569671119
 20
4.8449328535
 30
0.0
 10
7.3552301616
 20
4.8468412931
 30
0.0
 10
7.3526123001
 20
4.8505168202
 30
0.0
 10
7.3510913744
 20
4.8541289362
 30
0.0
 10
7.3504194137
 20
4.8566038605
 30
0.0
  0
SPLINE
  5
36D
100
AcDbEntity
  8
0
100
AcDbSpline
 62
7
  6
CONTINUOUS
 70
0
 71
3
 72
19
 73
15
 74
0
 42
0.0000001
 43
0.0000001
 44
0.0000000001
 40
0.0
 40
0.0
 40
0.0
 40
0.0
 40
0.1247094812
 40
0.1874148136
 40
0.2500785766
 40
0.312692964
 40
0.3752673391
 40
0.4378199349
 40
0.5003829839
 40
0.625211976
 40
0.7500261132
 40
0.8126348041
 40
0.8753071646
 40
1.0
 40
1.0
 40
1.0
 40
1.0
 10
5.1594540485
 20
3.7697908385
 30
0.0
 10
5.1577723294
 20
3.7697908385
 30
0.0
 10
5.1552309744
 20
3.7701141479
 30
0.0
 10
5.1520156943
 20
3.7711510407
 30
0.0
 10
5.1497154201
 20
3.7722342894
 30
0.0
 10
5.1475743328
 20
3.7736005397
 30
0.0
 10
5.1456237374
 20
3.7752251438
 30
0.0
 10
5.1438982775
 20
3.777086955
 30
0.0
 10
5.1419396046
 20
3.7798392572
 30
0.0
 10
5.1401702836
 20
3.7837139608
 30
0.0
 10
5.139450049
 20
3.7879122682
 30
0.0
 10
5.1395178775
 20
3.7912924627
 30
0.0
 10
5.1400161338
 20
3.7946328638
 30
0.0
 10
5.1408545161
 20
3.7970527402
 30
0.0
 10
5.141600975
 20
3.7985594662
 30
0.0
  0
SPLINE
  5
36E
100
AcDbEntity
  8
0
100
AcDbSpline
 62
7
  6
CONTINUOUS
 70
0
 71
3
 72
21
 73
17
 74
0
 42
0.0000001
 43
0.0000001
 44
0.0000000001
 40
0.0
 40
0.0
 40
0.0
 40
0.0
 40
0.1245857962
 40
0.1872461617
 40
0.2498404916
 40
0.3123512205
 40
0.3748727151
 40
0.4374564449
 40
0.5000089221
 40
0.5625598698
 40
0.6251425994
 40
0.6876645801
 40
0.7501732445
 40
0.8127640853
 40
0.875420137
 40
1.0
 40
1.0
 40
1.0
 40
1.0
 10
5.2788587395
 20
4.7848205149
 30
0.0
 10
5.2787025295
 20
4.787031891
 30
0.0
 10
5.2789775499
 20
4.7904207422
 30
0.0
 10
5.2803495503
 20
4.7946635367
 30
0.0
 10
5.2818864486
 20
4.797648126
 30
0.0
 10
5.2838878593
 20
4.8003395388
 30
0.0
 10
5.2863212841
 20
4.802649792
 30
0.0
 10
5.2891170438
 20
4.8045057145
 30
0.0
 10
5.2921930492
 20
4.8058515486
 30
0.0
 10
5.2954615717
 20
4.8066195751
 30
0.0
 10
5.2988117597
 20
4.8068110274
 30
0.0
 10
5.3021445006
 20
4.8064221701
 30
0.0
 10
5.305360188
 20
4.8054692166
 30
0.0
 10
5.3083800291
 20
4.8040032381
 30
0.0
 10
5.3120228478
 20
4.8014319802
 30
0.0
 10
5.3142756082
 20
4.798885614
 30
0.0
 10
5.3154770634
 20
4.7970226531
 30
0.0
  0
SPLINE
  5
36F
100
AcDbEntity
  8
0
100
AcDbSpline
 62
7
  6
CONTINUOUS
 70
0
 71
3
 72
19
 73
15
 74
0
 42
0.0000001
 43
0.0000001
 44
0.0000000001
 40
0.0
 40
0.0
 40
0.0
 40
0.0
 40
0.1247534941
 40
0.1874360964
 40
0.2500598751
 40
0.3126358527
 40
0.3752019301
 40
0.5000292254
 40
0.6248643584
 40
0.6874255069
 40
0.749977572
 40
0.8125756095
 40
0.8752457794
 40
1.0
 40
1.0
 40
1.0
 40
1.0
 10
5.3683310363
 20
4.9792997778
 30
0.0
 10
5.3685040443
 20
4.9773870927
 30
0.0
 10
5.3683559087
 20
4.9744553884
 30
0.0
 10
5.3673573846
 20
4.9707281078
 30
0.0
 10
5.3662086002
 20
4.9680619887
 30
0.0
 10
5.3646905629
 20
4.9655898965
 30
0.0
 10
5.3622108104
 20
4.9626322492
 30
0.0
 10
5.3583356829
 20
4.9596631209
 30
0.0
 10
5.3537580162
 20
4.9579676704
 30
0.0
 10
5.3499342889
 20
4.9574449043
 30
0.0
 10
5.3470343025
 20
4.9574777297
 30
0.0
 10
5.3441671215
 20
4.9579267448
 30
0.0
 10
5.3404817117
 20
4.9590681056
 30
0.0
 10
5.3379220367
 20
4.9605046977
 30
0.0
 10
5.3363957372
 20
4.9616703515
 30
0.0
  0
SPLINE
  5
370
100
AcDbEntity
  8
0
100
AcDbSpline
 62
7
  6
CONTINUOUS
 70
0
 71
3
 72
11
 73
7
 74
0
 42
0.0000001
 43
0.0000001
 44
0.0000000001
 40
0.0
 40
0.0
 40
0.0
 40
0.0
 40
0.2500076766
 40
0.5000497816
 40
0.7500386498
 40
1.0
 40
1.0
 40
1.0
 40
1.0
 10
5.3429926023
 20
5.3909908385
 30
0.0
 10
5.3456864224
 20
5.3909908385
 30
0.0
 10
5.3511387025
 20
5.3898776942
 30
0.0
 10
5.3579341449
 20
5.3851045373
 30
0.0
 10
5.3622741651
 20
5.3780253153
 30
0.0
 10
5.3630454658
 20
5.3725154585
 30
0.0
 10
5.3628778976
 20
5.3698273554
 30
0.0
  0
SPLINE
  5
371
100
AcDbEntity
  8
0
100
AcDbSpline
 62
7
  6
CONTINUOUS
 70
0
 71
3
 72
11
 73
7
 74
0
 42
0.0000001
 43
0.0000001
 44
0.0000000001
 40
0.0
 40
0.0
 40
0.0
 40
0.0
 40
0.2499937111
 40
0.5000188008
 40
0.7500232179
 40
1.0
 40
1.0
 40
1.0
 40
1.0
 10
5.7011917645
 20
5.3909908385
 30
0.0
 10
5.7039800962
 20
5.3909908385
 30
0.0
 10
5.7096284681
 20
5.3897972301
 30
0.0
 10
5.7165679109
 20
5.3846950816
 30
0.0
 10
5.7207995928
 20
5.3771933039
 30
0.0
 10
5.7213062847
 20
5.3714429329
 30
0.0
 10
5.7209715508
 20
5.3686749565
 30
0.0
  0
SPLINE
  5
372
100
AcDbEntity
  8
0
100
AcDbSpline
 62
7
  6
CONTINUOUS
 70
0
 71
3
 72
19
 73
15
 74
0
 42
0.0000001
 43
0.0000001
 44
0.0000000001
 40
0.0
 40
0.0
 40
0.0
 40
0.0
 40
0.1247448845
 40
0.2495978917
 40
0.3121350788
 40
0.3747935512
 40
0.4373822802
 40
0.5000032293
 40
0.5626242796
 40
0.6252095096
 40
0.6878669714
 40
0.750412889
 40
0.8752781011
 40
1.0
 40
1.0
 40
1.0
 40
1.0
 10
5.7722043895
 20
4.4380032075
 30
0.0
 10
5.7726176206
 20
4.4355593496
 30
0.0
 10
5.7727580991
 20
4.4305241977
 30
0.0
 10
5.7710344641
 20
4.4244438962
 30
0.0
 10
5.7684718801
 20
4.4201577446
 30
0.0
 10
5.7659712739
 20
4.4173567305
 30
0.0
 10
5.7629616247
 20
4.4151023791
 30
0.0
 10
5.7595346485
 20
4.4135526357
 30
0.0
 10
5.7558586818
 20
4.412757401
 30
0.0
 10
5.7520984886
 20
4.4127763059
 30
0.0
 10
5.7484216073
 20
4.4135380045
 30
0.0
 10
5.7438106009
 20
4.4154563621
 30
0.0
 10
5.7388051655
 20
4.4193146972
 30
0.0
 10
5.7359209466
 20
4.4234441441
 30
0.0
 10
5.7347982831
 20
4.425653344
 30
0.0
  0
SPLINE
  5
373
100
AcDbEntity
  8
0
100
AcDbSpline
 62
7
  6
CONTINUOUS
 70
0
 71
3
 72
21
 73
17
 74
0
 42
0.0000001
 43
0.0000001
 44
0.0000000001
 40
0.0
 40
0.0
 40
0.0
 40
0.0
 40
0.1245884669
 40
0.187248448
 40
0.249841095
 40
0.3123520604
 40
0.3748739298
 40
0.4374563193
 40
0.5000087537
 40
0.56255981
 40
0.6251411733
 40
0.6876632643
 40
0.7501722229
 40
0.8127616311
 40
0.8754172314
 40
1.0
 40
1.0
 40
1.0
 40
1.0
 10
5.6034961631
 20
4.223077385
 30
0.0
 10
5.6033109304
 20
4.225276603
 30
0.0
 10
5.6035390442
 20
4.2286535861
 30
0.0
 10
5.6048459383
 20
4.232895916
 30
0.0
 10
5.6063330332
 20
4.2358887082
 30
0.0
 10
5.6082850276
 20
4.2385974877
 30
0.0
 10
5.610670662
 20
4.2409353544
 30
0.0
 10
5.6134222197
 20
4.242829458
 30
0.0
 10
5.6164597959
 20
4.244223653
 30
0.0
 10
5.6196982527
 20
4.2450501381
 30
0.0
 10
5.6230287331
 20
4.2453076784
 30
0.0
 10
5.6263537643
 20
4.2449904366
 30
0.0
 10
5.629574862
 20
4.2441119245
 30
0.0
 10
5.6326130264
 20
4.2427203138
 30
0.0
 10
5.6362970157
 20
4.2402441263
 30
0.0
 10
5.6385979434
 20
4.237762078
 30
0.0
 10
5.6398370078
 20
4.2359358402
 30
0.0
  0
SPLINE
  5
374
100
AcDbEntity
  8
0
100
AcDbSpline
 62
7
  6
CONTINUOUS
 70
0
 71
3
 72
15
 73
11
 74
0
 42
0.0000001
 43
0.0000001
 44
0.0000000001
 40
0.0
 40
0.0
 40
0.0
 40
0.0
 40
0.1248609979
 40
0.2500209965
 40
0.375032812
 40
0.5000158498
 40
0.6249931236
 40
0.7499862457
 40
0.8751377768
 40
1.0
 40
1.0
 40
1.0
 40
1.0
 10
5.8625672029
 20
3.793904308
 30
0.0
 10
5.8628776101
 20
3.7924611424
 30
0.0
 10
5.8631784756
 20
3.7894921333
 30
0.0
 10
5.8626460438
 20
3.7850552343
 30
0.0
 10
5.8611403611
 20
3.7808430072
 30
0.0
 10
5.8587358948
 20
3.7770746189
 30
0.0
 10
5.8555573953
 20
3.7739318074
 30
0.0
 10
5.8517562579
 20
3.7715743086
 30
0.0
 10
5.8475307531
 20
3.7701210951
 30
0.0
 10
5.8445649638
 20
3.7697908385
 30
0.0
 10
5.8430887788
 20
3.7697908385
 30
0.0
  0
SPLINE
  5
375
100
AcDbEntity
  8
0
100
AcDbSpline
 62
7
  6
CONTINUOUS
 70
0
 71
3
 72
11
 73
7
 74
0
 42
0.0000001
 43
0.0000001
 44
0.0000000001
 40
0.0
 40
0.0
 40
0.0
 40
0.0
 40
0.2499951256
 40
0.5000206961
 40
0.7500230207
 40
1.0
 40
1.0
 40
1.0
 40
1.0
 10
6.1980356123
 20
3.7910831916
 30
0.0
 10
6.1982213524
 20
3.7883853258
 30
0.0
 10
6.1974781149
 20
3.7828473334
 30
0.0
 10
6.1931482422
 20
3.775721131
 30
0.0
 10
6.1863362382
 20
3.7709124772
 30
0.0
 10
6.1808628255
 20
3.7697908385
 30
0.0
 10
6.1781587697
 20
3.7697908385
 30
0.0
  0
SPLINE
  5
376
100
AcDbEntity
  8
0
100
AcDbSpline
 62
7
  6
CONTINUOUS
 70
0
 71
3
 72
16
 73
12
 74
0
 42
0.0000001
 43
0.0000001
 44
0.0000000001
 40
0.0
 40
0.0
 40
0.0
 40
0.0
 40
0.1248331717
 40
0.1875212724
 40
0.2501700468
 40
0.375155961
 40
0.5001130024
 40
0.6250653681
 40
0.7500360433
 40
0.8751658316
 40
1.0
 40
1.0
 40
1.0
 40
1.0
 10
6.1346810727
 20
5.3909908385
 30
0.0
 10
6.1361718517
 20
5.3909908385
 30
0.0
 10
6.1384211873
 20
5.3907366581
 30
0.0
 10
6.1412982631
 20
5.3899150844
 30
0.0
 10
6.1440666749
 20
5.3887719811
 30
0.0
 10
6.1472583707
 20
5.3867700829
 30
0.0
 10
6.1504436019
 20
5.3835705298
 30
0.0
 10
6.1528342013
 20
5.379740197
 30
0.0
 10
6.1543026013
 20
5.3754674091
 30
0.0
 10
6.1547751919
 20
5.3709787473
 30
0.0
 10
6.1544215739
 20
5.3679852855
 30
0.0
 10
6.1540823694
 20
5.3665335975
 30
0.0
  0
SPLINE
  5
377
100
AcDbEntity
  8
0
100
AcDbSpline
 62
7
  6
CONTINUOUS
 70
0
 71
3
 72
21
 73
17
 74
0
 42
0.0000001
 43
0.0000001
 44
0.0000000001
 40
0.0
 40
0.0
 40
0.0
 40
0.0
 40
0.1245758544
 40
0.1872319276
 40
0.2498201559
 40
0.3123190417
 40
0.3748404711
 40
0.4374341424
 40
0.4999892962
 40
0.5625435843
 40
0.6251343453
 40
0.6876563216
 40
0.7501663499
 40
0.8127664075
 40
0.8754266939
 40
1.0
 40
1.0
 40
1.0
 40
1.0
 10
6.2739667115
 20
4.8519509913
 30
0.0
 10
6.2738459604
 20
4.854198265
 30
0.0
 10
6.2741828961
 20
4.8576335932
 30
0.0
 10
6.2756514575
 20
4.8619157175
 30
0.0
 10
6.277268287
 20
4.8649159119
 30
0.0
 10
6.2793564832
 20
4.8676058206
 30
0.0
 10
6.2818823147
 20
4.8698925238
 30
0.0
 10
6.2847709703
 20
4.8717004147
 30
0.0
 10
6.2879353137
 20
4.8729710797
 30
0.0
 10
6.2912801301
 20
4.8736338981
 30
0.0
 10
6.2946872794
 20
4.8736964085
 30
0.0
 10
6.2980519552
 20
4.8731588262
 30
0.0
 10
6.3012703445
 20
4.8720449262
 30
0.0
 10
6.3042634366
 20
4.8704139616
 30
0.0
 10
6.3078319004
 20
4.8676279661
 30
0.0
 10
6.3099894137
 20
4.8649334263
 30
0.0
 10
6.3111149535
 20
4.8629846387
 30
0.0
  0
SPLINE
  5
378
100
AcDbEntity
  8
0
100
AcDbSpline
 62
7
  6
CONTINUOUS
 70
0
 71
3
 72
17
 73
13
 74
0
 42
0.0000001
 43
0.0000001
 44
0.0000000001
 40
0.0
 40
0.0
 40
0.0
 40
0.0
 40
0.1248005321
 40
0.1874826361
 40
0.2501253932
 40
0.3750894793
 40
0.5000186407
 40
0.6249413558
 40
0.7498839724
 40
0.8125189406
 40
0.8751984835
 40
1.0
 40
1.0
 40
1.0
 40
1.0
 10
3.5706931051
 20
7.1322618914
 30
0.0
 10
3.5702961387
 20
7.1337286295
 30
0.0
 10
3.5699519404
 20
7.1360111472
 30
0.0
 10
3.5700099435
 20
7.1390607717
 30
0.0
 10
3.5704199427
 20
7.1420865808
 30
0.0
 10
3.5715791551
 20
7.1457493886
 30
0.0
 10
3.5739402946
 20
7.1497013902
 30
0.0
 10
3.5771382043
 20
7.1530126006
 30
0.0
 10
3.5803706329
 20
7.1550881652
 30
0.0
 10
3.5831839596
 20
7.1562741032
 30
0.0
 10
3.586112417
 20
7.1571267308
 30
0.0
 10
3.5884055635
 20
7.1573908385
 30
0.0
 10
3.589925083
 20
7.1573908385
 30
0.0
  0
SPLINE
  5
379
100
AcDbEntity
  8
0
100
AcDbSpline
 62
7
  6
CONTINUOUS
 70
0
 71
3
 72
19
 73
15
 74
0
 42
0.0000001
 43
0.0000001
 44
0.0000000001
 40
0.0
 40
0.0
 40
0.0
 40
0.0
 40
0.1247385881
 40
0.187431286
 40
0.2500490247
 40
0.3126110324
 40
0.3751815327
 40
0.5000079231
 40
0.6248317831
 40
0.6874014858
 40
0.7499613712
 40
0.8125761484
 40
0.8752652242
 40
1.0
 40
1.0
 40
1.0
 40
1.0
 10
3.6777403103
 20
6.8381605709
 30
0.0
 10
3.6767756113
 20
6.8363805959
 30
0.0
 10
3.674917497
 20
6.8339002116
 30
0.0
 10
3.67182569
 20
6.8312547177
 30
0.0
 10
3.6692244625
 20
6.8296397361
 30
0.0
 10
3.6664113636
 20
6.8284364902
 30
0.0
 10
3.6624659254
 20
6.8274351184
 30
0.0
 10
3.6573095248
 20
6.8273485101
 30
0.0
 10
3.6523856061
 20
6.828881725
 30
0.0
 10
3.6488810574
 20
6.8309521487
 30
0.0
 10
3.6465199577
 20
6.8328979059
 30
0.0
 10
3.6444780026
 20
6.8351791475
 30
0.0
 10
3.6422549332
 20
6.8385871551
 30
0.0
 10
3.6411694463
 20
6.8414898874
 30
0.0
 10
3.6407442076
 20
6.84346925
 30
0.0
  0
SPLINE
  5
37A
100
AcDbEntity
  8
0
100
AcDbSpline
 62
7
  6
CONTINUOUS
 70
0
 71
3
 72
21
 73
17
 74
0
 42
0.0000001
 43
0.0000001
 44
0.0000000001
 40
0.0
 40
0.0
 40
0.0
 40
0.0
 40
0.1246468267
 40
0.1872701624
 40
0.2498137045
 40
0.312320136
 40
0.3749020205
 40
0.4374455358
 40
0.5000068064
 40
0.5625684455
 40
0.6251094152
 40
0.6876897075
 40
0.7501988
 40
0.8127440196
 40
0.875364725
 40
1.0
 40
1.0
 40
1.0
 40
1.0
 10
3.7568330101
 20
6.6125459834
 30
0.0
 10
3.7573426225
 20
6.6148425455
 30
0.0
 10
3.758634698
 20
6.6182092844
 30
0.0
 10
3.7613089598
 20
6.6221100093
 30
0.0
 10
3.7637738551
 20
6.6246781656
 30
0.0
 10
3.7666431749
 20
6.6267846686
 30
0.0
 10
3.7698464926
 20
6.628339879
 30
0.0
 10
3.7732845445
 20
6.629279183
 30
0.0
 10
3.7768401226
 20
6.6295274877
 30
0.0
 10
3.7803778218
 20
6.6290939334
 30
0.0
 10
3.7837621941
 20
6.6279767559
 30
0.0
 10
3.7868798512
 20
6.6262562833
 30
0.0
 10
3.7896353303
 20
6.6240028324
 30
0.0
 10
3.7919627044
 20
6.6213093916
 30
0.0
 10
3.7944298573
 20
6.6172747552
 30
0.0
 10
3.7955441142
 20
6.6138453343
 30
0.0
 10
3.7959332027
 20
6.6115255311
 30
0.0
  0
SPLINE
  5
37B
100
AcDbEntity
  8
0
100
AcDbSpline
 62
7
  6
CONTINUOUS
 70
0
 71
3
 72
11
 73
7
 74
0
 42
0.0000001
 43
0.0000001
 44
0.0000000001
 40
0.0
 40
0.0
 40
0.0
 40
0.0
 40
0.2499956377
 40
0.5000220769
 40
0.7500235689
 40
1.0
 40
1.0
 40
1.0
 40
1.0
 10
4.1564670196
 20
5.6077413048
 30
0.0
 10
4.1566327854
 20
5.6050537887
 30
0.0
 10
4.1558582909
 20
5.599545895
 30
0.0
 10
4.1515164045
 20
5.5924714168
 30
0.0
 10
4.1447226194
 20
5.5877027181
 30
0.0
 10
4.1392733337
 20
5.5865908385
 30
0.0
 10
4.1365809172
 20
5.5865908385
 30
0.0
  0
SPLINE
  5
37C
100
AcDbEntity
  8
0
100
AcDbSpline
 62
7
  6
CONTINUOUS
 70
0
 71
3
 72
17
 73
13
 74
0
 42
0.0000001
 43
0.0000001
 44
0.0000000001
 40
0.0
 40
0.0
 40
0.0
 40
0.0
 40
0.1247840479
 40
0.1874795865
 40
0.2501350274
 40
0.3751025626
 40
0.5000248183
 40
0.6249390224
 40
0.7498786978
 40
0.8125237385
 40
0.8752154011
 40
1.0
 40
1.0
 40
1.0
 40
1.0
 10
3.930996214
 20
7.1308670759
 30
0.0
 10
3.9304727899
 20
7.1323579913
 30
0.0
 10
3.9299518336
 20
7.1347035904
 30
0.0
 10
3.9298139771
 20
7.1378734066
 30
0.0
 10
3.9300580093
 20
7.1410406035
 30
0.0
 10
3.9310688281
 20
7.1449096798
 30
0.0
 10
3.9333541073
 20
7.1491208491
 30
0.0
 10
3.9365705376
 20
7.1526715457
 30
0.0
 10
3.9398859073
 20
7.1549065136
 30
0.0
 10
3.9427930565
 20
7.1561854893
 30
0.0
 10
3.9458294131
 20
7.1571053354
 30
0.0
 10
3.9482151035
 20
7.1573908385
 30
0.0
 10
3.9497952375
 20
7.1573908385
 30
0.0
  0
SPLINE
  5
37D
100
AcDbEntity
  8
0
100
AcDbSpline
 62
7
  6
CONTINUOUS
 70
0
 71
3
 72
15
 73
11
 74
0
 42
0.0000001
 43
0.0000001
 44
0.0000000001
 40
0.0
 40
0.0
 40
0.0
 40
0.0
 40
0.1248679209
 40
0.2500541453
 40
0.3750845584
 40
0.5000788683
 40
0.6250552203
 40
0.750010961
 40
0.8751417993
 40
1.0
 40
1.0
 40
1.0
 40
1.0
 10
4.7215811692
 20
7.1585908385
 30
0.0
 10
4.7230737203
 20
7.1585908385
 30
0.0
 10
4.7260729261
 20
7.1582530657
 30
0.0
 10
4.7303414626
 20
7.1567680807
 30
0.0
 10
4.7341715113
 20
7.1543598627
 30
0.0
 10
4.7373580432
 20
7.1511532221
 30
0.0
 10
4.7397464483
 20
7.1473160538
 30
0.0
 10
4.7412101138
 20
7.1430370375
 30
0.0
 10
4.7416753185
 20
7.1385432997
 30
0.0
 10
4.7413158466
 20
7.1355474187
 30
0.0
 10
4.7409733623
 20
7.1340948118
 30
0.0
  0
SPLINE
  5
37E
100
AcDbEntity
  8
0
100
AcDbSpline
 62
7
  6
CONTINUOUS
 70
0
 71
3
 72
15
 73
11
 74
0
 42
0.0000001
 43
0.0000001
 44
0.0000000001
 40
0.0
 40
0.0
 40
0.0
 40
0.0
 40
0.1248757451
 40
0.2500487328
 40
0.3750745453
 40
0.5000710686
 40
0.625051811
 40
0.7500118573
 40
0.8751339422
 40
1.0
 40
1.0
 40
1.0
 40
1.0
 10
3.7600964724
 20
7.1573908385
 30
0.0
 10
3.7615373808
 20
7.1573908385
 30
0.0
 10
3.7644319333
 20
7.1570759669
 30
0.0
 10
3.768566082
 20
7.1556898431
 30
0.0
 10
3.772304959
 20
7.153438066
 30
0.0
 10
3.7754625115
 20
7.1504294155
 30
0.0
 10
3.7778958068
 20
7.1468107841
 30
0.0
 10
3.779485181
 20
7.1427475527
 30
0.0
 10
3.7801554217
 20
7.1384405475
 30
0.0
 10
3.7799787515
 20
7.1355349976
 30
0.0
 10
3.779736337
 20
7.1341147406
 30
0.0
  0
SPLINE
  5
37F
100
AcDbEntity
  8
0
100
AcDbSpline
 62
7
  6
CONTINUOUS
 70
0
 71
3
 72
19
 73
15
 74
0
 42
0.0000001
 43
0.0000001
 44
0.0000000001
 40
0.0
 40
0.0
 40
0.0
 40
0.0
 40
0.1247571589
 40
0.1874432943
 40
0.2500687092
 40
0.3126444612
 40
0.3752078839
 40
0.5000275224
 40
0.6248619707
 40
0.6874238018
 40
0.7499763567
 40
0.812575023
 40
0.8752460541
 40
1.0
 40
1.0
 40
1.0
 40
1.0
 10
2.7854427805
 20
5.6874816348
 30
0.0
 10
2.7855520476
 20
5.6855612503
 30
0.0
 10
2.7853051153
 20
5.6826314515
 30
0.0
 10
2.7841792499
 20
5.6789342903
 30
0.0
 10
2.7829382181
 20
5.6763047946
 30
0.0
 10
2.7813337079
 20
5.6738825947
 30
0.0
 10
2.7787494446
 20
5.6710080314
 30
0.0
 10
2.774766836
 20
5.668171668
 30
0.0
 10
2.7701248868
 20
5.6666367903
 30
0.0
 10
2.7662790164
 20
5.666250212
 30
0.0
 10
2.763377585
 20
5.6663873927
 30
0.0
 10
2.7605240759
 20
5.6669405651
 30
0.0
 10
2.756876967
 20
5.6682170885
 30
0.0
 10
2.7543676678
 20
5.6697488857
 30
0.0
 10
2.7528830623
 20
5.6709718215
 30
0.0
  0
SPLINE
  5
380
100
AcDbEntity
  8
0
100
AcDbSpline
 62
7
  6
CONTINUOUS
 70
0
 71
3
 72
15
 73
11
 74
0
 42
0.0000001
 43
0.0000001
 44
0.0000000001
 40
0.0
 40
0.0
 40
0.0
 40
0.0
 40
0.1248650626
 40
0.2500209665
 40
0.3750311646
 40
0.500015162
 40
0.6249935159
 40
0.7499856345
 40
0.8751335741
 40
1.0
 40
1.0
 40
1.0
 40
1.0
 10
2.4683451484
 20
5.6104134385
 30
0.0
 10
2.4686147379
 20
5.6089835308
 30
0.0
 10
2.4688410081
 20
5.6060514963
 30
0.0
 10
2.4682250698
 20
5.6016909779
 30
0.0
 10
2.4666682033
 20
5.5975669515
 30
0.0
 10
2.4642455489
 20
5.5938878239
 30
0.0
 10
2.4610789966
 20
5.5908257628
 30
0.0
 10
2.4573151001
 20
5.5885320214
 30
0.0
 10
2.4531444088
 20
5.5871191472
 30
0.0
 10
2.4502213079
 20
5.5867981986
 30
0.0
 10
2.4487661924
 20
5.5867981986
 30
0.0
  0
SPLINE
  5
381
100
AcDbEntity
  8
0
100
AcDbSpline
 62
7
  6
CONTINUOUS
 70
0
 71
3
 72
19
 73
15
 74
0
 42
0.0000001
 43
0.0000001
 44
0.0000000001
 40
0.0
 40
0.0
 40
0.0
 40
0.0
 40
0.1247187747
 40
0.1874276482
 40
0.2500634057
 40
0.3126305543
 40
0.3752073842
 40
0.5000087697
 40
0.624807531
 40
0.6873841447
 40
0.7499491496
 40
0.8125815882
 40
0.8752862709
 40
1.0
 40
1.0
 40
1.0
 40
1.0
 10
2.2235239989
 20
6.1106439251
 30
0.0
 10
2.2235239989
 20
6.112774109
 30
0.0
 10
2.2240124999
 20
6.1160023106
 30
0.0
 10
2.2255925485
 20
6.1199835511
 30
0.0
 10
2.2272399474
 20
6.1227546644
 30
0.0
 10
2.2293029637
 20
6.1252291416
 30
0.0
 10
2.2325484287
 20
6.1280268754
 30
0.0
 10
2.2374077308
 20
6.1304700698
 30
0.0
 10
2.2428038322
 20
6.1311510387
 30
0.0
 10
2.2470578341
 20
6.1306381388
 30
0.0
 10
2.2501500013
 20
6.1297342784
 30
0.0
 10
2.253062493
 20
6.1283525218
 30
0.0
 10
2.2565939384
 20
6.1259289105
 30
0.0
 10
2.2587992943
 20
6.1235215544
 30
0.0
 10
2.2599870197
 20
6.121753328
 30
0.0
  0
SPLINE
  5
382
100
AcDbEntity
  8
0
100
AcDbSpline
 62
7
  6
CONTINUOUS
 70
0
 71
3
 72
11
 73
7
 74
0
 42
0.0000001
 43
0.0000001
 44
0.0000000001
 40
0.0
 40
0.0
 40
0.0
 40
0.0
 40
0.2499942088
 40
0.5000191418
 40
0.7500216951
 40
1.0
 40
1.0
 40
1.0
 40
1.0
 10
3.1245473524
 20
5.607502201
 30
0.0
 10
3.1246089434
 20
5.6048725847
 30
0.0
 10
3.1236732143
 20
5.5995284156
 30
0.0
 10
3.1192733533
 20
5.5927296651
 30
0.0
 10
3.1125794781
 20
5.5881722021
 30
0.0
 10
3.1072590914
 20
5.5871117764
 30
0.0
 10
3.1046289212
 20
5.5871117764
 30
0.0
  0
SPLINE
  5
383
100
AcDbEntity
  8
0
100
AcDbSpline
 62
7
  6
CONTINUOUS
 70
0
 71
3
 72
11
 73
7
 74
0
 42
0.0000001
 43
0.0000001
 44
0.0000000001
 40
0.0
 40
0.0
 40
0.0
 40
0.0
 40
0.2499975557
 40
0.5000247643
 40
0.7500255621
 40
1.0
 40
1.0
 40
1.0
 40
1.0
 10
3.5172076599
 20
5.6097832983
 30
0.0
 10
3.5175625871
 20
5.6070064692
 30
0.0
 10
3.5170881088
 20
5.6012282894
 30
0.0
 10
3.5128701976
 20
5.5936769715
 30
0.0
 10
3.505914542
 20
5.58853629
 30
0.0
 10
3.5002437107
 20
5.5873333371
 30
0.0
 10
3.4974445494
 20
5.5873333371
 30
0.0
  0
SPLINE
  5
384
100
AcDbEntity
  8
0
100
AcDbSpline
 62
7
  6
CONTINUOUS
 70
0
 71
3
 72
17
 73
13
 74
0
 42
0.0000001
 43
0.0000001
 44
0.0000000001
 40
0.0
 40
0.0
 40
0.0
 40
0.0
 40
0.1247882407
 40
0.1874801554
 40
0.2501318153
 40
0.3750970093
 40
0.5000205989
 40
0.6249374453
 40
0.7498794783
 40
0.8125225051
 40
0.8752112362
 40
1.0
 40
1.0
 40
1.0
 40
1.0
 10
2.7324634955
 20
7.1316974083
 30
0.0
 10
2.7319724378
 20
7.1331832399
 30
0.0
 10
2.7314969608
 20
7.1355142099
 30
0.0
 10
2.7314098179
 20
7.1386549376
 30
0.0
 10
2.7316970398
 20
7.1417873613
 30
0.0
 10
2.7327469036
 20
7.1456049778
 30
0.0
 10
2.7350528621
 20
7.1497508347
 30
0.0
 10
2.7382657116
 20
7.1532408572
 30
0.0
 10
2.7415606934
 20
7.1554353121
 30
0.0
 10
2.7444444379
 20
7.1566906331
 30
0.0
 10
2.747453738
 20
7.1575933742
 30
0.0
 10
2.7498161345
 20
7.1578734198
 30
0.0
 10
2.7513810159
 20
7.1578734198
 30
0.0
  0
SPLINE
  5
385
100
AcDbEntity
  8
0
100
AcDbSpline
 62
7
  6
CONTINUOUS
 70
0
 71
3
 72
17
 73
13
 74
0
 42
0.0000001
 43
0.0000001
 44
0.0000000001
 40
0.0
 40
0.0
 40
0.0
 40
0.0
 40
0.1247808201
 40
0.1874784519
 40
0.2501351735
 40
0.3751002661
 40
0.5000201043
 40
0.6249336124
 40
0.7498764959
 40
0.8125247771
 40
0.8752190562
 40
1.0
 40
1.0
 40
1.0
 40
1.0
 10
3.1882885463
 20
7.1320744856
 30
0.0
 10
3.1877402623
 20
7.1335688073
 30
0.0
 10
3.1871842748
 20
7.135924951
 30
0.0
 10
3.187007194
 20
7.1391163225
 30
0.0
 10
3.1872176842
 20
7.1423095035
 30
0.0
 10
3.1881979748
 20
7.1462174182
 30
0.0
 10
3.1904667019
 20
7.1504782921
 30
0.0
 10
3.1936853683
 20
7.15407544
 30
0.0
 10
3.1970161256
 20
7.1563414874
 30
0.0
 10
3.1999410632
 20
7.157638665
 30
0.0
 10
3.2029979879
 20
7.1585716306
 30
0.0
 10
3.2054014084
 20
7.1588612965
 30
0.0
 10
3.2069931425
 20
7.1588612965
 30
0.0
  0
SPLINE
  5
386
100
AcDbEntity
  8
0
100
AcDbSpline
 62
7
  6
CONTINUOUS
 70
0
 71
3
 72
20
 73
16
 74
0
 42
0.0000001
 43
0.0000001
 44
0.0000000001
 40
0.0
 40
0.0
 40
0.0
 40
0.0
 40
0.124657587
 40
0.187346582
 40
0.2499621766
 40
0.3124995876
 40
0.3750494328
 40
0.4376580494
 40
0.5002403422
 40
0.6249668431
 40
0.6875178298
 40
0.7500559938
 40
0.8126702146
 40
0.8753531242
 40
1.0
 40
1.0
 40
1.0
 40
1.0
 10
4.3494478233
 20
6.1885729014
 30
0.0
 10
4.3497047403
 20
6.1907422996
 30
0.0
 10
4.350595685
 20
6.1939714381
 30
0.0
 10
4.3527005018
 20
6.1978278651
 30
0.0
 10
4.3547308145
 20
6.2004385571
 30
0.0
 10
4.3571533657
 20
6.2026854912
 30
0.0
 10
4.3599203919
 20
6.2044931936
 30
0.0
 10
4.3629551469
 20
6.205806212
 30
0.0
 10
4.3672278156
 20
6.2068454079
 30
0.0
 10
4.3717090696
 20
6.2067275597
 30
0.0
 10
4.3759313476
 20
6.2055128672
 30
0.0
 10
4.3789092367
 20
6.2040787627
 30
0.0
 10
4.3816179121
 20
6.2021818366
 30
0.0
 10
4.3847652246
 20
6.1991167596
 30
0.0
 10
4.3865671769
 20
6.1962932729
 30
0.0
 10
4.3874515228
 20
6.1942959229
 30
0.0
  0
SPLINE
  5
387
100
AcDbEntity
  8
0
100
AcDbSpline
 62
7
  6
CONTINUOUS
 70
0
 71
3
 72
17
 73
13
 74
0
 42
0.0000001
 43
0.0000001
 44
0.0000000001
 40
0.0
 40
0.0
 40
0.0
 40
0.0
 40
0.1248061782
 40
0.1874838389
 40
0.2501228451
 40
0.3750874203
 40
0.5000193934
 40
0.6249444585
 40
0.7498863747
 40
0.8125172964
 40
0.8751924898
 40
1.0
 40
1.0
 40
1.0
 40
1.0
 10
6.3731573094
 20
7.1339598395
 30
0.0
 10
6.3728033566
 20
7.135415613
 30
0.0
 10
6.3725187087
 20
7.1376729047
 30
0.0
 10
6.3726419154
 20
7.1406774549
 30
0.0
 10
6.3731066241
 20
7.1436515854
 30
0.0
 10
6.3743136926
 20
7.1472408063
 30
0.0
 10
6.3766974688
 20
7.1511019871
 30
0.0
 10
6.3798861509
 20
7.1543301113
 30
0.0
 10
6.3830882318
 20
7.1563506924
 30
0.0
 10
6.3858680785
 20
7.1575045821
 30
0.0
 10
6.3887583618
 20
7.1583340733
 30
0.0
 10
6.391018982
 20
7.1585908385
 30
0.0
 10
6.3925171832
 20
7.1585908385
 30
0.0
  0
SPLINE
  5
388
100
AcDbEntity
  8
0
100
AcDbSpline
 62
7
  6
CONTINUOUS
 70
0
 71
3
 72
11
 73
7
 74
0
 42
0.0000001
 43
0.0000001
 44
0.0000000001
 40
0.0
 40
0.0
 40
0.0
 40
0.0
 40
0.2499941321
 40
0.5000189928
 40
0.7500215598
 40
1.0
 40
1.0
 40
1.0
 40
1.0
 10
6.3776046178
 20
5.5865908385
 30
0.0
 10
6.3749816226
 20
5.5865908385
 30
0.0
 10
6.3696760191
 20
5.5876454586
 30
0.0
 10
6.3629941996
 20
5.592178679
 30
0.0
 10
6.3585885704
 20
5.5989450616
 30
0.0
 10
6.3576346744
 20
5.6042692598
 30
0.0
 10
6.3576842888
 20
5.606891621
 30
0.0
  0
SPLINE
  5
389
100
AcDbEntity
  8
0
100
AcDbSpline
 62
7
  6
CONTINUOUS
 70
0
 71
3
 72
11
 73
7
 74
0
 42
0.0000001
 43
0.0000001
 44
0.0000000001
 40
0.0
 40
0.0
 40
0.0
 40
0.0
 40
0.2499956922
 40
0.5000215169
 40
0.7500236588
 40
1.0
 40
1.0
 40
1.0
 40
1.0
 10
6.7090711444
 20
5.5865908385
 30
0.0
 10
6.7063293762
 20
5.5865908385
 30
0.0
 10
6.7007777044
 20
5.5877444385
 30
0.0
 10
6.6939079538
 20
5.592683337
 30
0.0
 10
6.6896197542
 20
5.5999767006
 30
0.0
 10
6.6889798643
 20
5.6056102209
 30
0.0
 10
6.6892310574
 20
5.608340245
 30
0.0
  0
SPLINE
  5
38A
100
AcDbEntity
  8
0
100
AcDbSpline
 62
7
  6
CONTINUOUS
 70
0
 71
3
 72
11
 73
7
 74
0
 42
0.0000001
 43
0.0000001
 44
0.0000000001
 40
0.0
 40
0.0
 40
0.0
 40
0.0
 40
0.249994503
 40
0.5000196805
 40
0.750022172
 40
1.0
 40
1.0
 40
1.0
 40
1.0
 10
6.8223613602
 20
5.6072999505
 30
0.0
 10
6.822466053
 20
5.604645571
 30
0.0
 10
6.8215966745
 20
5.5992322795
 30
0.0
 10
6.8172198529
 20
5.5923181903
 30
0.0
 10
6.8104836123
 20
5.5876726877
 30
0.0
 10
6.8051092115
 20
5.5865908385
 30
0.0
 10
6.8024529453
 20
5.5865908385
 30
0.0
  0
SPLINE
  5
38B
100
AcDbEntity
  8
0
100
AcDbSpline
 62
7
  6
CONTINUOUS
 70
0
 71
3
 72
20
 73
16
 74
0
 42
0.0000001
 43
0.0000001
 44
0.0000000001
 40
0.0
 40
0.0
 40
0.0
 40
0.0
 40
0.1246595577
 40
0.187344013
 40
0.2499566024
 40
0.3124969995
 40
0.3750473474
 40
0.4376501652
 40
0.500230569
 40
0.6249691174
 40
0.6875188914
 40
0.750055069
 40
0.8126625426
 40
0.8753432235
 40
1.0
 40
1.0
 40
1.0
 40
1.0
 10
6.7289298924
 20
5.8755667068
 30
0.0
 10
6.72936466
 20
5.8776766936
 30
0.0
 10
6.7305094792
 20
5.8807746244
 30
0.0
 10
6.7328944861
 20
5.8843912235
 30
0.0
 10
6.7351003077
 20
5.8867930216
 30
0.0
 10
6.7376583788
 20
5.8888106132
 30
0.0
 10
6.7405163022
 20
5.8903765619
 30
0.0
 10
6.7435965091
 20
5.8914446146
 30
0.0
 10
6.7478718431
 20
5.8921652703
 30
0.0
 10
6.7522699902
 20
5.8917569859
 30
0.0
 10
6.7563512568
 20
5.8903035815
 30
0.0
 10
6.7591980952
 20
5.8887176059
 30
0.0
 10
6.7617567172
 20
5.8866965616
 30
0.0
 10
6.7646856722
 20
5.8835046832
 30
0.0
 10
6.766307727
 20
5.8806278971
 30
0.0
 10
6.7670719447
 20
5.8786137393
 30
0.0
  0
SPLINE
  5
38C
100
AcDbEntity
  8
0
100
AcDbSpline
 62
7
  6
CONTINUOUS
 70
0
 71
3
 72
11
 73
7
 74
0
 42
0.0000001
 43
0.0000001
 44
0.0000000001
 40
0.0
 40
0.0
 40
0.0
 40
0.0
 40
0.2499945095
 40
0.5000198188
 40
0.7500221001
 40
1.0
 40
1.0
 40
1.0
 40
1.0
 10
6.7768697455
 20
7.1380615701
 30
0.0
 10
6.7767894786
 20
7.1407020627
 30
0.0
 10
6.7776965231
 20
7.1460764355
 30
0.0
 10
6.7820865761
 20
7.1529253892
 30
0.0
 10
6.788798995
 20
7.1575211088
 30
0.0
 10
6.7941429036
 20
7.1585908385
 30
0.0
 10
6.7967844404
 20
7.1585908385
 30
0.0
  0
SPLINE
  5
38D
100
AcDbEntity
  8
0
100
AcDbSpline
 62
7
  6
CONTINUOUS
 70
0
 71
3
 72
11
 73
7
 74
0
 42
0.0000001
 43
0.0000001
 44
0.0000000001
 40
0.0
 40
0.0
 40
0.0
 40
0.0
 40
0.2500105855
 40
0.5000564906
 40
0.7500419429
 40
1.0
 40
1.0
 40
1.0
 40
1.0
 10
6.8962282936
 20
7.1585908385
 30
0.0
 10
6.8989437843
 20
7.1585908385
 30
0.0
 10
6.9044409965
 20
7.1574594741
 30
0.0
 10
6.9112701795
 20
7.1526118024
 30
0.0
 10
6.9155874411
 20
7.1454363262
 30
0.0
 10
6.9163002474
 20
7.1398707003
 30
0.0
 10
6.9160953837
 20
7.1371635206
 30
0.0
  0
SPLINE
  5
38E
100
AcDbEntity
  8
0
100
AcDbSpline
 62
7
  6
CONTINUOUS
 70
0
 71
3
 72
21
 73
17
 74
0
 42
0.0000001
 43
0.0000001
 44
0.0000000001
 40
0.0
 40
0.0
 40
0.0
 40
0.0
 40
0.1246498497
 40
0.187273339
 40
0.249816186
 40
0.3123223179
 40
0.3749036435
 40
0.4374479685
 40
0.5000093276
 40
0.5625714675
 40
0.6251126925
 40
0.687692485
 40
0.7502030118
 40
0.8127480238
 40
0.8753673809
 40
1.0
 40
1.0
 40
1.0
 40
1.0
 10
6.1690833499
 20
6.9842433377
 30
0.0
 10
6.1692427081
 20
6.9865858456
 30
0.0
 10
6.1700146864
 20
6.9901014199
 30
0.0
 10
6.1720712707
 20
6.994350143
 30
0.0
 10
6.174120263
 20
6.9972524748
 30
0.0
 10
6.1766368893
 20
6.9997599306
 30
0.0
 10
6.1795648911
 20
7.0017741424
 30
0.0
 10
6.1828160083
 20
7.0032172728
 30
0.0
 10
6.186286347
 20
7.0039985744
 30
0.0
 10
6.1898418008
 20
7.0041068799
 30
0.0
 10
6.1933500373
 20
7.0035202498
 30
0.0
 10
6.1966877301
 20
7.0022996002
 30
0.0
 10
6.1997503974
 20
7.0004992287
 30
0.0
 10
6.2024586829
 20
6.9981998222
 30
0.0
 10
6.2055106054
 20
6.9945993321
 30
0.0
 10
6.2071348896
 20
6.9913877108
 30
0.0
 10
6.2078734775
 20
6.9891593253
 30
0.0
  0
SPLINE
  5
38F
100
AcDbEntity
  8
0
100
AcDbSpline
 62
7
  6
CONTINUOUS
 70
0
 71
3
 72
21
 73
17
 74
0
 42
0.0000001
 43
0.0000001
 44
0.0000000001
 40
0.0
 40
0.0
 40
0.0
 40
0.0
 40
0.1245844989
 40
0.1872450068
 40
0.2498399225
 40
0.3123505102
 40
0.374872066
 40
0.43745657
 40
0.5000090505
 40
0.5625599481
 40
0.6251431977
 40
0.68766494
 40
0.7501734436
 40
0.8127650416
 40
0.8754212178
 40
1.0
 40
1.0
 40
1.0
 40
1.0
 10
4.9060942506
 20
6.5505510918
 30
0.0
 10
4.9060349598
 20
6.5527712842
 30
0.0
 10
4.9064590525
 20
6.5561511243
 30
0.0
 10
4.9080191949
 20
6.5603372665
 30
0.0
 10
4.9096894245
 20
6.5632565812
 30
0.0
 10
4.9118122212
 20
6.5658614513
 30
0.0
 10
4.9143512211
 20
6.5680648051
 30
0.0
 10
4.9172332221
 20
6.5697960789
 30
0.0
 10
4.9203732094
 20
6.5710028338
 30
0.0
 10
4.9236798647
 20
6.5716207485
 30
0.0
 10
4.9270416547
 20
6.5716563355
 30
0.0
 10
4.9303587196
 20
6.5711105312
 30
0.0
 10
4.9335316984
 20
6.5700045202
 30
0.0
 10
4.9364839647
 20
6.5683936438
 30
0.0
 10
4.9400065333
 20
6.5656464191
 30
0.0
 10
4.9421388717
 20
6.5629902715
 30
0.0
 10
4.9432519443
 20
6.5610684531
 30
0.0
  0
SPLINE
  5
390
100
AcDbEntity
  8
0
100
AcDbSpline
 62
7
  6
CONTINUOUS
 70
0
 71
3
 72
17
 73
13
 74
0
 42
0.0000001
 43
0.0000001
 44
0.0000000001
 40
0.0
 40
0.0
 40
0.0
 40
0.0
 40
0.1248011748
 40
0.1875097631
 40
0.250176678
 40
0.3751598395
 40
0.5000945546
 40
0.6250085108
 40
0.7499021597
 40
0.8125273999
 40
0.8752110391
 40
1.0
 40
1.0
 40
1.0
 40
1.0
 10
4.9845362606
 20
5.5865908385
 30
0.0
 10
4.9829649857
 20
5.5865908385
 30
0.0
 10
4.980592709
 20
5.5868734196
 30
0.0
 10
4.977571724
 20
5.5877833536
 30
0.0
 10
4.9746774651
 20
5.5890487576
 30
0.0
 10
4.9713736029
 20
5.5912609382
 30
0.0
 10
4.9681597235
 20
5.5947769828
 30
0.0
 10
4.9658629374
 20
5.5989489622
 30
0.0
 10
4.9648294547
 20
5.602786343
 30
0.0
 10
4.9645605349
 20
5.6059316821
 30
0.0
 10
4.9646683519
 20
5.6090838857
 30
0.0
 10
4.9651620626
 20
5.6114208751
 30
0.0
 10
4.9656662766
 20
5.6129088904
 30
0.0
  0
SPLINE
  5
391
100
AcDbEntity
  8
0
100
AcDbSpline
 62
7
  6
CONTINUOUS
 70
0
 71
3
 72
17
 73
13
 74
0
 42
0.0000001
 43
0.0000001
 44
0.0000000001
 40
0.0
 40
0.0
 40
0.0
 40
0.0
 40
0.1248073995
 40
0.1875084458
 40
0.2501687613
 40
0.3751505602
 40
0.5000892218
 40
0.6250081577
 40
0.7499056471
 40
0.8125265235
 40
0.8752040072
 40
1.0
 40
1.0
 40
1.0
 40
1.0
 10
5.3171103476
 20
7.1585908385
 30
0.0
 10
5.3186532307
 20
7.1585908385
 30
0.0
 10
5.320982144
 20
7.1583183589
 30
0.0
 10
5.3239526101
 20
7.1574400297
 30
0.0
 10
5.3268029758
 20
7.1562183744
 30
0.0
 10
5.3300682885
 20
7.1540811938
 30
0.0
 10
5.3332742157
 20
7.1506775842
 30
0.0
 10
5.3356075463
 20
7.1466268874
 30
0.0
 10
5.3367114962
 20
7.1428856499
 30
0.0
 10
5.3370589905
 20
7.1398058928
 30
0.0
 10
5.337043682
 20
7.1367092576
 30
0.0
 10
5.3366332589
 20
7.1344011046
 30
0.0
 10
5.3361885641
 20
7.1329238437
 30
0.0
  0
SPLINE
  5
392
100
AcDbEntity
  8
0
100
AcDbSpline
 62
7
  6
CONTINUOUS
 70
0
 71
3
 72
21
 73
17
 74
0
 42
0.0000001
 43
0.0000001
 44
0.0000000001
 40
0.0
 40
0.0
 40
0.0
 40
0.0
 40
0.1245709398
 40
0.1872258637
 40
0.2498168155
 40
0.3123189112
 40
0.3748415704
 40
0.437435041
 40
0.4999897026
 40
0.5625437913
 40
0.625134686
 40
0.6876567371
 40
0.7501667167
 40
0.8127667775
 40
0.8754270318
 40
1.0
 40
1.0
 40
1.0
 40
1.0
 10
5.5791694465
 20
6.5117833523
 30
0.0
 10
5.5788363938
 20
6.5140096862
 30
0.0
 10
5.5788463054
 20
6.5174624199
 30
0.0
 10
5.5799032967
 20
6.5218656081
 30
0.0
 10
5.5812293754
 20
6.5250063764
 30
0.0
 10
5.5830542847
 20
6.5278828052
 30
0.0
 10
5.5853533566
 20
6.5303989148
 30
0.0
 10
5.5880592204
 20
6.5324721593
 30
0.0
 10
5.5910904829
 20
6.5340361757
 30
0.0
 10
5.5943589096
 20
6.5350116638
 30
0.0
 10
5.5977460489
 20
6.5353950217
 30
0.0
 10
5.6011474377
 20
6.5351766032
 30
0.0
 10
5.6044573927
 20
6.5343703305
 30
0.0
 10
5.6075916199
 20
6.5330278235
 30
0.0
 10
5.6114074921
 20
6.5305891338
 30
0.0
 10
5.6138095802
 20
6.5281086791
 30
0.0
 10
5.6151137638
 20
6.5262738066
 30
0.0
  0
SPLINE
  5
393
100
AcDbEntity
  8
0
100
AcDbSpline
 62
7
  6
CONTINUOUS
 70
0
 71
3
 72
15
 73
11
 74
0
 42
0.0000001
 43
0.0000001
 44
0.0000000001
 40
0.0
 40
0.0
 40
0.0
 40
0.0
 40
0.1248750719
 40
0.2500494783
 40
0.3750752662
 40
0.500071774
 40
0.6250525639
 40
0.7500121875
 40
0.8751349703
 40
1.0
 40
1.0
 40
1.0
 40
1.0
 10
5.5869113739
 20
5.5853908385
 30
0.0
 10
5.5854647055
 20
5.5853908385
 30
0.0
 10
5.5825584885
 20
5.5857082344
 30
0.0
 10
5.5784092918
 20
5.5871052162
 30
0.0
 10
5.574660044
 20
5.589374218
 30
0.0
 10
5.5714988654
 20
5.5924047511
 30
0.0
 10
5.5690699529
 20
5.5960476591
 30
0.0
 10
5.567493816
 20
5.6001350848
 30
0.0
 10
5.5668455526
 20
5.6044633501
 30
0.0
 10
5.5670420316
 20
5.6073795087
 30
0.0
 10
5.5672953449
 20
5.6088037086
 30
0.0
  0
SPLINE
  5
394
100
AcDbEntity
  8
0
100
AcDbSpline
 62
7
  6
CONTINUOUS
 70
0
 71
3
 72
19
 73
15
 74
0
 42
0.0000001
 43
0.0000001
 44
0.0000000001
 40
0.0
 40
0.0
 40
0.0
 40
0.0
 40
0.1247266662
 40
0.1874336824
 40
0.2500644024
 40
0.3126293542
 40
0.3752045417
 40
0.5000147982
 40
0.6248206024
 40
0.6873971097
 40
0.7499619951
 40
0.8125895784
 40
0.8752874135
 40
1.0
 40
1.0
 40
1.0
 40
1.0
 10
5.9233173282
 20
6.3764228744
 30
0.0
 10
5.9228033245
 20
6.3743810543
 30
0.0
 10
5.9215584472
 20
6.3714045724
 30
0.0
 10
5.9190915084
 20
6.3679644283
 30
0.0
 10
5.9168525733
 20
6.3656979188
 30
0.0
 10
5.9142886102
 20
6.3638106306
 30
0.0
 10
5.910517353
 20
6.3618843697
 30
0.0
 10
5.9052861093
 20
6.3606594516
 30
0.0
 10
5.8999429716
 20
6.3612228718
 30
0.0
 10
5.8959611198
 20
6.3626641775
 30
0.0
 10
5.893182098
 20
6.3642174487
 30
0.0
 10
5.8906784376
 20
6.366187241
 30
0.0
 10
5.8878020708
 20
6.3692926034
 30
0.0
 10
5.8861965715
 20
6.372090642
 30
0.0
 10
5.8854321513
 20
6.374052246
 30
0.0
  0
SPLINE
  5
395
100
AcDbEntity
  8
0
100
AcDbSpline
 62
7
  6
CONTINUOUS
 70
0
 71
3
 72
15
 73
11
 74
0
 42
0.0000001
 43
0.0000001
 44
0.0000000001
 40
0.0
 40
0.0
 40
0.0
 40
0.0
 40
0.1248616506
 40
0.2500207972
 40
0.375031991
 40
0.5000151366
 40
0.624992745
 40
0.7499860242
 40
0.8751371259
 40
1.0
 40
1.0
 40
1.0
 40
1.0
 10
5.9980237892
 20
5.5865908385
 30
0.0
 10
5.9965509638
 20
5.5865908385
 30
0.0
 10
5.9935918539
 20
5.5869195329
 30
0.0
 10
5.9893748102
 20
5.5883665964
 30
0.0
 10
5.9855792459
 20
5.5907141746
 30
0.0
 10
5.9824025281
 20
5.5938444221
 30
0.0
 10
5.979995324
 20
5.5975985349
 30
0.0
 10
5.9784815292
 20
5.6017964548
 30
0.0
 10
5.9779358828
 20
5.6062210481
 30
0.0
 10
5.9782246832
 20
5.609184229
 30
0.0
 10
5.9785285559
 20
5.6106253808
 30
0.0
  0
ELLIPSE
  5
396
100
AcDbEntity
  8
0
100
AcDbEllipse
 62
7
  6
CONTINUOUS
 10
2.2539162168
 20
3.5529144418
 30
0.0
 11
-0.0142499722
 21
0.0142499722
 31
0.0
 40
0.9924325091
 41
-0.7816000651
 42
0.7816000651
  0
ELLIPSE
  5
397
100
AcDbEntity
  8
0
100
AcDbEllipse
 62
7
  6
CONTINUOUS
 10
2.248535706
 20
2.0186672353
 30
0.0
 11
0.0142499722
 21
0.0142499722
 31
0.0
 40
0.9924325091
 41
-3.9231927187
 42
-2.3599925885
  0
ELLIPSE
  5
398
100
AcDbEntity
  8
0
100
AcDbEllipse
 62
7
  6
CONTINUOUS
 10
7.3693534169
 20
3.5529144418
 30
0.0
 11
0.0142499722
 21
0.0142499722
 31
0.0
 40
0.9924325091
 41
-0.7816000651
 42
0.7816000651
  0
ELLIPSE
  5
399
100
AcDbEntity
  8
0
100
AcDbEllipse
 62
7
  6
CONTINUOUS
 10
7.3693534169
 20
2.0186672353
 30
0.0
 11
-0.0142499722
 21
0.0142499722
 31
0.0
 40
0.9924325091
 41
-3.9231927187
 42
-2.3599925885
  0
ELLIPSE
  5
39A
100
AcDbEntity
  8
0
100
AcDbEllipse
 62
7
  6
CONTINUOUS
 10
6.0537444619
 20
2.0186672353
 30
0.0
 11
-0.0129367427
 21
0.0154226021
 31
0.0
 40
0.9935431215
 41
-3.8363708521
 42
-2.4468144551
  0
ELLIPSE
  5
39B
100
AcDbEntity
  8
0
100
AcDbEllipse
 62
7
  6
CONTINUOUS
 10
2.2442829042
 20
5.3709144418
 30
0.0
 11
0.0142499722
 21
-0.0142499722
 31
0.0
 40
0.9924325091
 41
2.3599925885
 42
3.9231927187
  0
ELLIPSE
  5
39C
100
AcDbEntity
  8
0
100
AcDbEllipse
 62
7
  6
CONTINUOUS
 10
2.2442829042
 20
3.7898672353
 30
0.0
 11
0.0142499722
 21
0.0142499722
 31
0.0
 40
0.9924325091
 41
-3.9231927187
 42
-2.3599925885
  0
ELLIPSE
  5
39D
100
AcDbEntity
  8
0
100
AcDbEllipse
 62
7
  6
CONTINUOUS
 10
7.3683621954
 20
3.7898672353
 30
0.0
 11
-0.0142499722
 21
0.0142499722
 31
0.0
 40
0.9924325091
 41
-3.9231927187
 42
-2.3599925885
  0
ELLIPSE
  5
39E
100
AcDbEntity
  8
0
100
AcDbEllipse
 62
7
  6
CONTINUOUS
 10
7.3683621954
 20
3.8385474139
 30
0.0
 11
0.0189186771
 21
0.0067479538
 31
0.0
 40
0.9957136879
 41
-0.3412583066
 42
0.3412583066
  0
ELLIPSE
  5
39F
100
AcDbEntity
  8
0
100
AcDbEllipse
 62
7
  6
CONTINUOUS
 10
7.3670496098
 20
5.3709144418
 30
0.0
 11
0.0142151987
 21
0.0142836365
 31
0.0
 40
0.9924682731
 41
-0.779216776
 42
0.779216776
  0
ELLIPSE
  5
3A0
100
AcDbEntity
  8
0
100
AcDbEllipse
 62
7
  6
CONTINUOUS
 10
2.2436003956
 20
7.1402961956
 30
0.0
 11
0.0142499722
 21
-0.0142499722
 31
0.0
 40
0.9924325091
 41
2.3599925885
 42
3.9231927187
  0
ELLIPSE
  5
3A1
100
AcDbEntity
  8
0
100
AcDbEllipse
 62
7
  6
CONTINUOUS
 10
2.2436003956
 20
5.6068745954
 30
0.0
 11
0.0142499722
 21
0.0142499722
 31
0.0
 40
0.9924325091
 41
2.3599925885
 42
3.9231927187
  0
ELLIPSE
  5
3A2
100
AcDbEntity
  8
0
100
AcDbEllipse
 62
7
  6
CONTINUOUS
 10
7.3681534169
 20
5.6066672353
 30
0.0
 11
0.0142499722
 21
-0.0142499722
 31
0.0
 40
0.9924325091
 41
-0.7816000651
 42
0.7816000651
  0
ELLIPSE
  5
3A3
100
AcDbEntity
  8
0
100
AcDbEllipse
 62
7
  6
CONTINUOUS
 10
7.3681534169
 20
7.1385144418
 30
0.0
 11
0.0142499722
 21
0.0142499722
 31
0.0
 40
0.9924325091
 41
-0.7816000651
 42
0.7816000651
  0
ENDSEC
  0
SECTION
  2
OBJECTS
  0
DICTIONARY
  5
C
100
AcDbDictionary
280
0
281
1
  3
ACAD_GROUP
350
D
  3
ACAD_MLINESTYLE
350
17
  3
ACAD_LAYOUT
350
1A
  3
ACAD_PLOTSETTINGS
350
19
  3
ACAD_PLOTSTYLENAME
350
E
  0
DICTIONARY
  5
D
102
{ACAD_REACTORS
330
C
102
}
100
AcDbDictionary
280
0
281
1
  0
ACDBDICTIONARYWDFLT
  5
E
102
{ACAD_REACTORS
330
C
102
}
100
AcDbDictionary
281
1
  3
Normal
350
F
100
AcDbDictionaryWithDefault
340
F
  0
DICTIONARY
  5
17
102
{ACAD_REACTORS
330
C
102
}
100
AcDbDictionary
280
0
281
1
  3
Standard
350
18
  0
DICTIONARY
  5
19
102
{ACAD_REACTORS
330
C
102
}
100
AcDbDictionary
281
1
  0
DICTIONARY
  5
1A
102
{ACAD_REACTORS
330
C
102
}
100
AcDbDictionary
281
1
  3
Model
350
3A4
  3
Layout1
350
3A5
  0
ACDBPLACEHOLDER
  5
F
102
{ACAD_REACTORS
330
E
102
}
  0
MLINESTYLE
  5
18
102
{ACAD_REACTORS
330
17
102
}
100
AcDbMlineStyle
  2
STANDARD
 70
0
  3

 62
256
 51
90.0
 52
90.0
 71
2
 49
0.5
 62
256
  6
BYLAYER
 49
-0.5
 62
256
  6
BYLAYER
  0
LAYOUT
  5
3A4
102
{ACAD_REACTORS
330
1A
102
}
100
AcDbPlotSettings
  1

  2
none_device
  4
ANSI_A_(11.00_x_8.50_Inches)
  6

 40
0.0
 41
0.0
 42
0.0
 43
0.0
 44
279.4
 45
215.9
 46
0.0
 47
0.0
 48
0.0
 49
0.0
140
0.0
141
0.0
142
1.0
143
1.0
 70
1024
 72
0
 73
0
 74
0
  7

 75
0
147
1.0
148
0.0
149
0.0
100
AcDbLayout
  1
Model
 70
0
 71
0
 10
0.0
 20
0.0
 11
11.0
 21
8.5
 12
0.0
 22
0.0
 32
0.0
 14
0.0
 24
0.0
 34
0.0
 15
0.0
 25
0.0
 35
0.0
146
0.0
 13
0.0
 23
0.0
 33
0.0
 16
1.0
 26
0.0
 36
0.0
 17
0.0
 27
1.0
 37
0.0
 76
0
330
207
345
0
346
0
  0
LAYOUT
  5
3A5
102
{ACAD_REACTORS
330
1A
102
}
100
AcDbPlotSettings
  1

  2
none_device
  4
ANSI_A_(11.00_x_8.50_Inches)
  6

 40
0.0
 41
0.0
 42
0.0
 43
0.0
 44
279.4
 45
215.9
 46
0.0
 47
0.0
 48
0.0
 49
0.0
140
0.0
141
0.0
142
1.0
143
1.0
 70
0
 72
0
 73
0
 74
0
  7

 75
0
147
1.0
148
0.0
149
0.0
100
AcDbLayout
  1
Layout1
 70
0
 71
1
 10
0.0
 20
0.0
 11
11.0
 21
8.5
 12
0.0
 22
0.0
 32
0.0
 14
0.0
 24
0.0
 34
0.0
 15
0.0
 25
0.0
 35
0.0
146
0.0
 13
0.0
 23
0.0
 33
0.0
 16
1.0
 26
0.0
 36
0.0
 17
0.0
 27
1.0
 37
0.0
 76
0
330
208
345
0
346
0
  0
ENDSEC
  0
EOF
