  0
SECTION
  2
HEADER
  9
$ACADVER
  1
AC1021
  9
$DWGCODEPAGE
  3
ANSI_1252
  9
$EXTMAX
 10
11.6929133858
 20
8.2677165354
 30
0.0
  9
$EXTMIN
 10
0.0
 20
-0.0
 30
0.0
  9
$LIMMIN
 10
0.0
 20
-0.0
  9
$LIMMAX
 10
11.6929133858
 20
8.2677165354
  9
$VIEWCTR
 10
5.8464566929
 20
4.1338582677
  9
$VIEWSIZE
 40
8.2677165354
  9
$CLAYER
  8
0
  9
$LTSCALE
 40
0.6431102362
  9
$CELTYPE
  6
BYLAYER
  9
$DIMSCALE
 40
1.0
  9
$DIMASZ
 40
0.1875
  9
$DIMEXO
 40
0.0730807087
  9
$DIMDLI
 40
0.4443307087
  9
$DIMEXE
 40
0.2104724409
  9
$DIMCEN
 40
0.1052362205
  9
$DIMLFAC
 40
1.0
  9
$DIMBLK
  1
_CLOSED
  9
$DIMTXT
 40
0.15625
  9
$DIMTOL
 70
0
  9
$DIMLIM
 70
0
  9
$DIMTFAC
 40
1.0
  9
$PDMODE
 70
3
  9
$PDSIZE
 40
0.3125
  9
$HANDSEED
  5
293
  9
$TILEMODE
 70
1
  9
$MEASUREMENT
 70
0
  9
$INSUNITS
 70
1
  0
ENDSEC
  0
SECTION
  2
CLASSES
  0
CLASS
  1
ACDBDICTIONARYWDFLT
  2
AcDbDictionaryWithDefault
  3
AutoCAD 2000
 90
0
 91
1
280
0
281
0
  0
CLASS
  1
ACDBPLACEHOLDER
  2
AcDbPlaceHolder
  3
AutoCAD 2000
 90
0
 91
1
280
0
281
0
  0
CLASS
  1
LAYOUT
  2
AcDbLayout
  3
AutoCAD 2000
 90
0
 91
0
280
0
281
0
  0
ENDSEC
  0
SECTION
  2
TABLES
  0
TABLE
  2
VPORT
  5
8
100
AcDbSymbolTable
 70
2
  0
VPORT
  5
1F4
100
AcDbSymbolTableRecord
100
AcDbViewportTableRecord
  2
*ACTIVE
 70
0
 10
0.0
 20
0.0
 11
1.0
 21
1.0
 12
5.8464566929
 22
4.1338582677
 13
0.0
 23
0.0
 14
1.0
 24
1.0
 15
0.0
 25
0.0
 16
0.0
 26
0.0
 36
1.0
 17
0.0
 27
0.0
 37
0.0
 40
8.2677165354
 41
1.4142857143
 42
50.0
 43
0.0
 44
0.0
 50
0.0
 51
0.0
 71
0
 72
100
 73
1
 74
1
 75
0
 76
0
 77
0
 78
0
  0
ENDTAB
  0
TABLE
  2
LTYPE
  5
5
100
AcDbSymbolTable
 70
6
  0
LTYPE
  5
14
100
AcDbSymbolTableRecord
100
AcDbLinetypeTableRecord
  2
BYBLOCK
 70
0
  3

 72
65
 73
0
 40
0.0
  0
LTYPE
  5
15
100
AcDbSymbolTableRecord
100
AcDbLinetypeTableRecord
  2
BYLAYER
 70
0
  3

 72
65
 73
0
 40
0.0
  0
LTYPE
  5
16
100
AcDbSymbolTableRecord
100
AcDbLinetypeTableRecord
  2
CONTINUOUS
 70
64
  3
Solid line
 72
65
 73
0
 40
0.0
  0
LTYPE
  5
1F5
100
AcDbSymbolTableRecord
100
AcDbLinetypeTableRecord
  2
CENTER
 70
64
  3
____ _ ____ _ ____ _ ____ _ ____ _ ____ _ ____
 72
65
 73
4
 40
0.6
 49
0.375
 74
0
 49
-0.075
 74
0
 49
0.075
 74
0
 49
-0.075
 74
0
  0
LTYPE
  5
1F6
100
AcDbSymbolTableRecord
100
AcDbLinetypeTableRecord
  2
HIDDEN
 70
64
  3
- - - - - - - - - - - - - - - - - - - -
 72
65
 73
2
 40
0.2
 49
0.1
 74
0
 49
-0.1
 74
0
  0
LTYPE
  5
1F7
100
AcDbSymbolTableRecord
100
AcDbLinetypeTableRecord
  2
PHANTOM
 70
64
  3
_____ _ _ _____ _ _ _____ _ _ _____
 72
65
 73
6
 40
0.8
 49
0.45
 74
0
 49
-0.05
 74
0
 49
0.1
 74
0
 49
-0.05
 74
0
 49
0.1
 74
0
 49
-0.05
 74
0
  0
LTYPE
  5
1F8
100
AcDbSymbolTableRecord
100
AcDbLinetypeTableRecord
  2
DOT
 70
64
  3
. . . . . . . . . . . . . . . . . . . .
 72
65
 73
2
 40
0.2
 49
0.1
 74
0
 49
-0.1
 74
0
  0
LTYPE
  5
1F9
100
AcDbSymbolTableRecord
100
AcDbLinetypeTableRecord
  2
DASHED
 70
64
  3
- - - - - - - - - - - - - - - - - - - -
 72
65
 73
2
 40
0.2
 49
0.1
 74
0
 49
-0.1
 74
0
  0
ENDTAB
  0
TABLE
  2
LAYER
  5
2
100
AcDbSymbolTable
 70
36
  0
LAYER
  5
10
100
AcDbSymbolTableRecord
100
AcDbLayerTableRecord
  2
0
 70
0
 62
7
  6
CONTINUOUS
370
-3
390
F
  0
LAYER
  5
1FA
100
AcDbSymbolTableRecord
100
AcDbLayerTableRecord
  2
DEFAULT_1
 70
0
 62
7
  6
CENTER
370
-3
390
F
  0
LAYER
  5
1FB
100
AcDbSymbolTableRecord
100
AcDbLayerTableRecord
  2
DEFAULT_2
 70
0
 62
8
  6
HIDDEN
370
-3
390
F
  0
LAYER
  5
1FC
100
AcDbSymbolTableRecord
100
AcDbLayerTableRecord
  2
DEFAULT_3
 70
0
 62
7
  6
PHANTOM
370
-3
390
F
  0
LAYER
  5
1FD
100
AcDbSymbolTableRecord
100
AcDbLayerTableRecord
  2
DEFAULT_COORDINATE_SYSTEM
 70
0
 62
7
  6
CONTINUOUS
370
-3
390
F
  0
LAYER
  5
1FE
100
AcDbSymbolTableRecord
100
AcDbLayerTableRecord
  2
DEFAULT_DATUM_AXES
 70
0
 62
7
  6
CONTINUOUS
370
-3
390
F
  0
LAYER
  5
1FF
100
AcDbSymbolTableRecord
100
AcDbLayerTableRecord
  2
DEFAULT_DATUM_CURVES
 70
0
 62
7
  6
CONTINUOUS
370
-3
390
F
  0
LAYER
  5
200
100
AcDbSymbolTableRecord
100
AcDbLayerTableRecord
  2
DEFAULT_DATUM_PLANES
 70
0
 62
7
  6
CONTINUOUS
370
-3
390
F
  0
ENDTAB
  0
TABLE
  2
STYLE
  5
3
100
AcDbSymbolTable
 70
1
  0
STYLE
  5
11
100
AcDbSymbolTableRecord
100
AcDbTextStyleTableRecord
  2
STANDARD
 70
0
 40
0.0
 41
0.8
 50
0.0
 71
0
 42
0.2
  3
txt
  4

  0
STYLE
  5
201
100
AcDbSymbolTableRecord
100
AcDbTextStyleTableRecord
  2
TEXTSTYLE_1
 70
0
 40
0.0
 41
0.8
 50
0.0
 71
0
 42
0.2
  3
gdt
  4

  0
ENDTAB
  0
TABLE
  2
VIEW
  5
6
100
AcDbSymbolTable
 70
0
  0
ENDTAB
  0
TABLE
  2
UCS
  5
7
100
AcDbSymbolTable
 70
0
  0
ENDTAB
  0
TABLE
  2
APPID
  5
9
100
AcDbSymbolTable
 70
1
  0
APPID
  5
202
100
AcDbSymbolTableRecord
100
AcDbRegAppTableRecord
  2
ACAD
 70
0
  0
ENDTAB
  0
TABLE
  2
BLOCK_RECORD
  5
1
100
AcDbSymbolTable
 70
0
  0
BLOCK_RECORD
  5
203
100
AcDbSymbolTableRecord
100
AcDbBlockTableRecord
  2
*Model_Space
  0
BLOCK_RECORD
  5
204
100
AcDbSymbolTableRecord
100
AcDbBlockTableRecord
  2
*Paper_Space
  0
ENDTAB
  0
TABLE
  2
DIMSTYLE
  5
A
100
AcDbSymbolTable
 70
1
100
AcDbDimStyleTable
 71
0
  0
DIMSTYLE
105
205
100
AcDbSymbolTableRecord
100
AcDbDimStyleTableRecord
  2
STANDARD
 70
0
  3

  4

 40
1.0
 41
0.1875
 42
0.0625
 43
0.38
 44
0.18
 45
0.0
 46
0.0
 47
0.001
 48
0.001
140
0.15625
141
0.09
142
0.0
143
25.4
144
1.0
145
0.0
146
1.0
147
0.09
 71
0.0
 72
0.0
 73
1
 74
1
 75
0
 76
0
 77
0
 78
4
170
0
171
2
172
0
173
0
174
0
175
0
176
0
177
0
178
0
270
2
271
3
272
3
273
2
274
2
275
0
280
0
281
0
282
0
283
1
284
4
285
0
286
0
287
3
288
0
340
11
  0
ENDTAB
  0
ENDSEC
  0
SECTION
  2
BLOCKS
  0
BLOCK
  5
20
100
AcDbEntity
  8
0
100
AcDbBlockBegin
  2
*Model_Space
 70
0
 10
0.0
 20
0.0
 30
0.0
  3
*Model_Space
  1

  0
ENDBLK
  5
21
100
AcDbEntity
  8
0
100
AcDbBlockEnd
  0
BLOCK
  5
1C
100
AcDbEntity
  8
0
100
AcDbBlockBegin
  2
*Paper_Space
 70
0
 10
0.0
 20
0.0
 30
0.0
  3
*Paper_Space
  1

  0
ENDBLK
  5
1D
100
AcDbEntity
  8
0
100
AcDbBlockEnd
  0
ENDSEC
  0
SECTION
  2
ENTITIES
  0
LINE
  5
206
100
AcDbEntity
  8
0
100
AcDbLine
 62
9
  6
CONTINUOUS
 10
1.5618089722
 20
4.8533704669
 11
1.5618089722
 21
3.6836588215
  0
LINE
  5
207
100
AcDbEntity
  8
0
100
AcDbLine
 62
9
  6
CONTINUOUS
 10
1.9992989919
 20
4.6007854862
 11
1.9992989919
 21
3.9362438022
  0
LINE
  5
208
100
AcDbEntity
  8
0
100
AcDbLine
 62
6
  6
CONTINUOUS
 10
2.0748089722
 20
3.9798395096
 11
2.0748089722
 21
4.5571897788
  0
LINE
  5
209
100
AcDbEntity
  8
0
100
AcDbLine
 62
6
  6
CONTINUOUS
 10
2.5748089722
 20
3.691164375
 11
2.5748089722
 21
3.6039729602
  0
LINE
  5
20A
100
AcDbEntity
  8
0
100
AcDbLine
 62
6
  6
CONTINUOUS
 10
2.5748089722
 20
3.0988029989
 11
2.5748089722
 21
3.0810146442
  0
LINE
  5
20B
100
AcDbEntity
  8
0
100
AcDbLine
 62
6
  6
CONTINUOUS
 10
2.5748089722
 20
4.8458649134
 11
2.5748089722
 21
4.9330563282
  0
LINE
  5
20C
100
AcDbEntity
  8
0
100
AcDbLine
 62
6
  6
CONTINUOUS
 10
2.5748089722
 20
5.4382262896
 11
2.5748089722
 21
5.4560146442
  0
LINE
  5
20D
100
AcDbEntity
  8
0
100
AcDbLine
 62
9
  6
CONTINUOUS
 10
3.0288089722
 20
4.5810146442
 11
3.0288089722
 21
4.4519523577
  0
LINE
  5
20E
100
AcDbEntity
  8
0
100
AcDbLine
 62
9
  6
CONTINUOUS
 10
3.0288089722
 20
4.0850897669
 11
3.0288089722
 21
3.9560146442
  0
LINE
  5
20F
100
AcDbEntity
  8
0
100
AcDbLine
 62
9
  6
CONTINUOUS
 10
3.1038089722
 20
4.5810146442
 11
3.1038089722
 21
3.9560146442
  0
LINE
  5
210
100
AcDbEntity
  8
0
100
AcDbLine
 62
9
  6
CONTINUOUS
 10
3.1503189524
 20
3.9362438022
 11
3.1503189524
 21
3.9445295093
  0
LINE
  5
211
100
AcDbEntity
  8
0
100
AcDbLine
 62
9
  6
CONTINUOUS
 10
3.1503189524
 20
4.5924997792
 11
3.1503189524
 21
4.6007854862
  0
LINE
  5
212
100
AcDbEntity
  8
0
100
AcDbLine
 62
9
  6
CONTINUOUS
 10
3.1764274099
 20
4.6122646442
 11
3.1764274099
 21
3.9247646442
  0
LINE
  5
213
100
AcDbEntity
  8
0
100
AcDbLine
 62
9
  6
CONTINUOUS
 10
3.2490458476
 20
4.6435146442
 11
3.2490458476
 21
3.8935146442
  0
LINE
  5
214
100
AcDbEntity
  8
0
100
AcDbLine
 62
9
  6
CONTINUOUS
 10
2.5748089722
 20
5.4382262896
 11
1.5618089722
 21
4.8533704669
  0
LINE
  5
215
100
AcDbEntity
  8
0
100
AcDbLine
 62
9
  6
CONTINUOUS
 10
1.5618089722
 20
3.6836588215
 11
2.5748089722
 21
3.0988029989
  0
LINE
  5
216
100
AcDbEntity
  8
0
100
AcDbLine
 62
9
  6
CONTINUOUS
 10
3.5878089722
 20
3.6836588215
 11
3.5878089722
 21
3.8830412659
  0
LINE
  5
217
100
AcDbEntity
  8
0
100
AcDbLine
 62
9
  6
CONTINUOUS
 10
3.5878089722
 20
4.6610714459
 11
3.5878089722
 21
4.8533704669
  0
LINE
  5
218
100
AcDbEntity
  8
0
100
AcDbLine
 62
9
  6
CONTINUOUS
 10
2.5748089722
 20
4.9330563282
 11
1.9992989919
 21
4.6007854862
  0
LINE
  5
219
100
AcDbEntity
  8
0
100
AcDbLine
 62
6
  6
CONTINUOUS
 10
2.5748089722
 20
4.8458649134
 11
2.0748089722
 21
4.5571897788
  0
LINE
  5
21A
100
AcDbEntity
  8
0
100
AcDbLine
 62
9
  6
CONTINUOUS
 10
1.9992989919
 20
3.9362438022
 11
2.5748089722
 21
3.6039729602
  0
LINE
  5
21B
100
AcDbEntity
  8
0
100
AcDbLine
 62
6
  6
CONTINUOUS
 10
2.0748089722
 20
3.9798395096
 11
2.5748089722
 21
3.691164375
  0
LINE
  5
21C
100
AcDbEntity
  8
0
100
AcDbLine
 62
6
  6
CONTINUOUS
 10
2.0748089722
 20
3.9798395096
 11
1.9992989919
 21
3.9362438022
  0
LINE
  5
21D
100
AcDbEntity
  8
0
100
AcDbLine
 62
6
  6
CONTINUOUS
 10
1.5618089722
 20
3.6836588215
 11
1.5464038052
 21
3.6747646442
  0
LINE
  5
21E
100
AcDbEntity
  8
0
100
AcDbLine
 62
6
  6
CONTINUOUS
 10
3.1178530171
 20
4.5820412697
 11
3.1503189524
 21
4.6007854862
  0
LINE
  5
21F
100
AcDbEntity
  8
0
100
AcDbLine
 62
6
  6
CONTINUOUS
 10
3.5878089722
 20
4.8533704669
 11
3.6032141392
 21
4.8622646442
  0
LINE
  5
220
100
AcDbEntity
  8
0
100
AcDbLine
 62
6
  6
CONTINUOUS
 10
3.1178530171
 20
3.9549880187
 11
3.1503189524
 21
3.9362438022
  0
LINE
  5
221
100
AcDbEntity
  8
0
100
AcDbLine
 62
6
  6
CONTINUOUS
 10
3.5878089722
 20
3.6836588215
 11
3.6032141392
 21
3.6747646442
  0
LINE
  5
222
100
AcDbEntity
  8
0
100
AcDbLine
 62
6
  6
CONTINUOUS
 10
2.0748089722
 20
4.5571897788
 11
1.9992989919
 21
4.6007854862
  0
LINE
  5
223
100
AcDbEntity
  8
0
100
AcDbLine
 62
6
  6
CONTINUOUS
 10
1.5618089722
 20
4.8533704669
 11
1.5464038052
 21
4.8622646442
  0
LINE
  5
224
100
AcDbEntity
  8
0
100
AcDbLine
 62
6
  6
CONTINUOUS
 10
2.5748089722
 20
3.691164375
 11
3.0335430948
 21
3.9560146442
  0
LINE
  5
225
100
AcDbEntity
  8
0
100
AcDbLine
 62
9
  6
CONTINUOUS
 10
2.5748089722
 20
3.6039729602
 11
3.1503189524
 21
3.9362438022
  0
LINE
  5
226
100
AcDbEntity
  8
0
100
AcDbLine
 62
6
  6
CONTINUOUS
 10
3.0335430948
 20
4.5810146442
 11
2.5748089722
 21
4.8458649134
  0
LINE
  5
227
100
AcDbEntity
  8
0
100
AcDbLine
 62
9
  6
CONTINUOUS
 10
3.1503189524
 20
4.6007854862
 11
2.5748089722
 21
4.9330563282
  0
LINE
  5
228
100
AcDbEntity
  8
0
100
AcDbLine
 62
9
  6
CONTINUOUS
 10
2.5748089722
 20
3.0988029989
 11
3.5878089722
 21
3.6836588215
  0
LINE
  5
229
100
AcDbEntity
  8
0
100
AcDbLine
 62
9
  6
CONTINUOUS
 10
3.5878089722
 20
4.8533704669
 11
2.5748089722
 21
5.4382262896
  0
LINE
  5
22A
100
AcDbEntity
  8
0
100
AcDbLine
 62
6
  6
CONTINUOUS
 10
5.5688089722
 20
3.8685146442
 11
5.5688089722
 21
4.6685146442
  0
LWPOLYLINE
  5
22B
100
AcDbEntity
  8
0
100
AcDbPolyline
 62
6
  6
CONTINUOUS
 90
7
 70
0
 10
7.9929393929
 20
3.861633617
 10
7.9964626405
 20
3.8617894423
 10
8.0006977219
 20
3.8623849947
 10
8.0049917677
 20
3.8634429079
 10
8.0093286159
 20
3.8649845393
 10
8.0136797123
 20
3.8670304316
 10
8.0161838416
 20
3.8685146442
  0
LWPOLYLINE
  5
22C
100
AcDbEntity
  8
0
100
AcDbPolyline
 62
6
  6
CONTINUOUS
 90
7
 70
0
 10
4.6325193756
 20
3.8878080034
 10
4.6360522885
 20
3.8879609342
 10
4.6404210988
 20
3.8885687526
 10
4.6448973729
 20
3.8896705827
 10
4.6494018036
 20
3.8912780526
 10
4.6538550488
 20
3.8933802891
 10
4.6540817865
 20
3.8935146442
  0
LWPOLYLINE
  5
22D
100
AcDbEntity
  8
0
100
AcDbPolyline
 62
6
  6
CONTINUOUS
 90
4
 70
0
 10
5.1125170862
 20
3.8927417714
 10
5.1160652777
 20
3.8928952625
 10
5.1203473653
 20
3.893485226
 10
5.1204691124
 20
3.8935146442
  0
LWPOLYLINE
  5
22E
100
AcDbEntity
  8
0
100
AcDbPolyline
 62
6
  6
CONTINUOUS
 90
8
 70
0
 10
4.1525213285
 20
3.8828742403
 10
4.1560070314
 20
3.8830238404
 10
4.1603279876
 20
3.8836204148
 10
4.1647683544
 20
3.8847064292
 10
4.169256943
 20
3.8863006095
 10
4.1737177049
 20
3.8884007812
 10
4.1780819101
 20
3.8909866335
 10
4.1815872051
 20
3.8935146442
  0
LWPOLYLINE
  5
22F
100
AcDbEntity
  8
0
100
AcDbPolyline
 62
6
  6
CONTINUOUS
 90
11
 70
0
 10
3.6735335392
 20
3.8777425773
 10
3.6767164852
 20
3.877877765
 10
3.680637732
 20
3.8784104451
 10
3.6846399839
 20
3.8793668856
 10
3.6886646512
 20
3.8807536623
 10
3.6926514315
 20
3.8825615591
 10
3.6965428073
 20
3.8847653983
 10
3.7002881517
 20
3.8873245382
 10
3.7038690668
 20
3.8902034133
 10
3.7072963929
 20
3.8933833089
 10
3.7074209747
 20
3.8935146442
  0
LWPOLYLINE
  5
230
100
AcDbEntity
  8
0
100
AcDbPolyline
 62
6
  6
CONTINUOUS
 90
20
 70
0
 10
3.5693597693
 20
3.8755206453
 10
3.5704151885
 20
3.8755653795
 10
3.5725247089
 20
3.8757839093
 10
3.5746809165
 20
3.8761839364
 10
3.5768429499
 20
3.8767663604
 10
3.5789720129
 20
3.8775236999
 10
3.5810318195
 20
3.8784409859
 10
3.5829890647
 20
3.8794964294
 10
3.5848123581
 20
3.8806607545
 10
3.5864709929
 20
3.881895115
 10
3.5879448802
 20
3.8831576886
 10
3.5892414582
 20
3.8844242215
 10
3.5903781882
 20
3.8856824524
 10
3.5913713276
 20
3.8869235166
 10
3.5922313399
 20
3.8881344546
 10
3.592968576
 20
3.8893029566
 10
3.5935969061
 20
3.8904234118
 10
3.5941363548
 20
3.8915034383
 10
3.5946008336
 20
3.8925456088
 10
3.5949864046
 20
3.8935146442
  0
LINE
  5
231
100
AcDbEntity
  8
0
100
AcDbLine
 62
6
  6
CONTINUOUS
 10
3.5693589841
 20
3.875536912
 11
3.5688089722
 21
3.8755146442
  0
LWPOLYLINE
  5
232
100
AcDbEntity
  8
0
100
AcDbPolyline
 62
6
  6
CONTINUOUS
 90
16
 70
0
 10
8.4316799224
 20
3.8519363727
 10
8.4336615068
 20
3.8520084113
 10
8.4362013705
 20
3.8523086959
 10
8.4387908457
 20
3.8528542324
 10
8.441359524
 20
3.8536389774
 10
8.4438379903
 20
3.8546376065
 10
8.4461642065
 20
3.8558081779
 10
8.4482898999
 20
3.8570975166
 10
8.4502105222
 20
3.8584681133
 10
8.4519616122
 20
3.8599159071
 10
8.4535688837
 20
3.8614425008
 10
8.4550323303
 20
3.8630317895
 10
8.4563489597
 20
3.8646613862
 10
8.4575233013
 20
3.866313545
 10
8.4585661595
 20
3.8679772457
 10
8.458863907
 20
3.8685146442
  0
LINE
  5
233
100
AcDbEntity
  8
0
100
AcDbLine
 62
6
  6
CONTINUOUS
 10
8.4041060213
 20
3.8685146442
 11
5.5688089722
 21
3.8685146442
  0
LINE
  5
234
100
AcDbEntity
  8
0
100
AcDbLine
 62
6
  6
CONTINUOUS
 10
5.5688089722
 20
3.8935146442
 11
3.2490458476
 21
3.8935146442
  0
LINE
  5
235
100
AcDbEntity
  8
0
100
AcDbLine
 62
6
  6
CONTINUOUS
 10
8.7088089722
 20
3.9560146442
 11
8.6338089722
 21
3.9560146442
  0
LINE
  5
236
100
AcDbEntity
  8
0
100
AcDbLine
 62
6
  6
CONTINUOUS
 10
3.1038089722
 20
3.9560146442
 11
3.0288089722
 21
3.9560146442
  0
LWPOLYLINE
  5
237
100
AcDbEntity
  8
0
100
AcDbPolyline
 62
6
  6
CONTINUOUS
 90
9
 70
0
 10
8.2329367864
 20
4.679788986
 10
8.2294715004
 20
4.6796376357
 10
8.2252399586
 20
4.6790465092
 10
8.2209506938
 20
4.6779923259
 10
8.2166200573
 20
4.6764540321
 10
8.2122768394
 20
4.6744114169
 10
8.2079659658
 20
4.6718541954
 10
8.2037443518
 20
4.6687913781
 10
8.2034255908
 20
4.6685146442
  0
LWPOLYLINE
  5
238
100
AcDbEntity
  8
0
100
AcDbPolyline
 62
6
  6
CONTINUOUS
 90
5
 70
0
 10
7.7529423822
 20
4.6710023618
 10
7.749465029
 20
4.670851132
 10
7.7452116978
 20
4.670259104
 10
7.7408979336
 20
4.6692021899
 10
7.7389566521
 20
4.6685146442
  0
LWPOLYLINE
  5
239
100
AcDbEntity
  8
0
100
AcDbPolyline
 62
6
  6
CONTINUOUS
 90
21
 70
0
 10
8.4604994647
 20
4.6861953554
 10
8.4589300575
 20
4.6861470208
 10
8.4568042071
 20
4.6859295123
 10
8.4546237505
 20
4.6855263095
 10
8.4524377227
 20
4.6849369593
 10
8.4502927692
 20
4.6841720005
 10
8.4482322326
 20
4.683251896
 10
8.4462948789
 20
4.6822058439
 10
8.4445084714
 20
4.6810669112
 10
8.4428866158
 20
4.6798662069
 10
8.4414367418
 20
4.6786348135
 10
8.4401611382
 20
4.6774033908
 10
8.439057221
 20
4.6762012667
 10
8.4381146406
 20
4.6750511169
 10
8.4373010365
 20
4.6739441258
 10
8.4365817482
 20
4.6728544986
 10
8.4359335011
 20
4.6717585563
 10
8.4353495503
 20
4.6706527066
 10
8.4348403152
 20
4.6695716689
 10
8.4344043705
 20
4.6685355166
 10
8.434396517
 20
4.6685146442
  0
LINE
  5
23A
100
AcDbEntity
  8
0
100
AcDbLine
 62
6
  6
CONTINUOUS
 10
8.7088089722
 20
4.5810146442
 11
8.6338089722
 21
4.5810146442
  0
LINE
  5
23B
100
AcDbEntity
  8
0
100
AcDbLine
 62
6
  6
CONTINUOUS
 10
3.1038089722
 20
4.5810146442
 11
3.0288089722
 21
4.5810146442
  0
LINE
  5
23C
100
AcDbEntity
  8
0
100
AcDbLine
 62
9
  6
CONTINUOUS
 10
9.1628089722
 20
5.4382262896
 11
8.1498089722
 21
4.8533704669
  0
LWPOLYLINE
  5
23D
100
AcDbEntity
  8
0
100
AcDbPolyline
 62
6
  6
CONTINUOUS
 90
9
 70
0
 10
3.9125222391
 20
4.6566219304
 10
3.909050593
 20
4.6564731834
 10
3.9047657068
 20
4.6558835831
 10
3.9004094335
 20
4.654825569
 10
3.8960158372
 20
4.6532816927
 10
3.8916281765
 20
4.6512419632
 10
3.8873159906
 20
4.6487207351
 10
3.8831591233
 20
4.6457645752
 10
3.8804932441
 20
4.6435146442
  0
LWPOLYLINE
  5
23E
100
AcDbEntity
  8
0
100
AcDbPolyline
 62
6
  6
CONTINUOUS
 90
8
 70
0
 10
4.3925202452
 20
4.651688167
 10
4.3890731726
 20
4.6515421959
 10
4.3847203272
 20
4.6509450597
 10
4.3802488636
 20
4.6498532103
 10
4.3757400396
 20
4.6482521706
 10
4.3712764896
 20
4.6461512451
 10
4.3669312788
 20
4.6435800048
 10
4.3668403639
 20
4.6435146442
  0
LWPOLYLINE
  5
23F
100
AcDbEntity
  8
0
100
AcDbPolyline
 62
6
  6
CONTINUOUS
 90
5
 70
0
 10
4.8725180915
 20
4.6467544004
 10
4.8690735107
 20
4.6466093425
 10
4.864720548
 20
4.6460153116
 10
4.860246635
 20
4.6449283063
 10
4.8562464047
 20
4.6435146442
  0
LWPOLYLINE
  5
240
100
AcDbEntity
  8
0
100
AcDbPolyline
 62
6
  6
CONTINUOUS
 90
20
 70
0
 10
3.5859938029
 20
4.6611423729
 10
3.5843839669
 20
4.6610916196
 10
3.5822417511
 20
4.6608688439
 10
3.5800602744
 20
4.6604613982
 10
3.577878935
 20
4.659869672
 10
3.5757354077
 20
4.6591021105
 10
3.573665354
 20
4.6581745421
 10
3.5717014483
 20
4.6571094576
 10
3.5698747499
 20
4.6559369161
 10
3.5682156002
 20
4.6546965489
 10
3.5667447259
 20
4.6534318825
 10
3.5654657003
 20
4.6521801242
 10
3.5643713103
 20
4.6509716626
 10
3.5634462471
 20
4.6498280739
 10
3.5626548738
 20
4.6487393605
 10
3.5619609623
 20
4.6476799212
 10
3.5613397044
 20
4.6466264507
 10
3.5607788703
 20
4.6455679186
 10
3.5602819317
 20
4.6445235058
 10
3.5598506171
 20
4.643515141
  0
LINE
  5
241
100
AcDbEntity
  8
0
100
AcDbLine
 62
6
  6
CONTINUOUS
 10
5.5688089722
 20
4.6435146442
 11
3.2490458476
 21
4.6435146442
  0
LINE
  5
242
100
AcDbEntity
  8
0
100
AcDbLine
 62
6
  6
CONTINUOUS
 10
8.4684495152
 20
4.6685146442
 11
5.5688089722
 21
4.6685146442
  0
LINE
  5
243
100
AcDbEntity
  8
0
100
AcDbLine
 62
9
  6
CONTINUOUS
 10
8.1498089722
 20
3.6836588215
 11
9.1628089722
 21
3.0988029989
  0
LINE
  5
244
100
AcDbEntity
  8
0
100
AcDbLine
 62
9
  6
CONTINUOUS
 10
9.1628089722
 20
4.9330563282
 11
8.5872989919
 21
4.6007854862
  0
LINE
  5
245
100
AcDbEntity
  8
0
100
AcDbLine
 62
6
  6
CONTINUOUS
 10
9.1628089722
 20
4.8458649134
 11
8.7040748495
 21
4.5810146442
  0
LINE
  5
246
100
AcDbEntity
  8
0
100
AcDbLine
 62
9
  6
CONTINUOUS
 10
8.5872989919
 20
3.9362438022
 11
9.1628089722
 21
3.6039729602
  0
LINE
  5
247
100
AcDbEntity
  8
0
100
AcDbLine
 62
6
  6
CONTINUOUS
 10
8.7040748495
 20
3.9560146442
 11
9.1628089722
 21
3.691164375
  0
LINE
  5
248
100
AcDbEntity
  8
0
100
AcDbLine
 62
6
  6
CONTINUOUS
 10
8.6197655994
 20
3.9549884068
 11
8.5872989919
 21
3.9362438022
  0
LINE
  5
249
100
AcDbEntity
  8
0
100
AcDbLine
 62
6
  6
CONTINUOUS
 10
8.1498089722
 20
3.6836588215
 11
8.1344038052
 21
3.6747646442
  0
LINE
  5
24A
100
AcDbEntity
  8
0
100
AcDbLine
 62
6
  6
CONTINUOUS
 10
9.6628089722
 20
4.5571897788
 11
9.7383189524
 21
4.6007854862
  0
LINE
  5
24B
100
AcDbEntity
  8
0
100
AcDbLine
 62
6
  6
CONTINUOUS
 10
10.1758089722
 20
4.8533704669
 11
10.1912141392
 21
4.8622646442
  0
LINE
  5
24C
100
AcDbEntity
  8
0
100
AcDbLine
 62
6
  6
CONTINUOUS
 10
8.6197655994
 20
4.5820408817
 11
8.5872989919
 21
4.6007854862
  0
LINE
  5
24D
100
AcDbEntity
  8
0
100
AcDbLine
 62
6
  6
CONTINUOUS
 10
8.1498089722
 20
4.8533704669
 11
8.1344038052
 21
4.8622646442
  0
LINE
  5
24E
100
AcDbEntity
  8
0
100
AcDbLine
 62
6
  6
CONTINUOUS
 10
9.6628089722
 20
3.9798395096
 11
9.7383189524
 21
3.9362438022
  0
LINE
  5
24F
100
AcDbEntity
  8
0
100
AcDbLine
 62
6
  6
CONTINUOUS
 10
10.1758089722
 20
3.6836588215
 11
10.1912141392
 21
3.6747646442
  0
LINE
  5
250
100
AcDbEntity
  8
0
100
AcDbLine
 62
6
  6
CONTINUOUS
 10
9.1628089722
 20
3.691164375
 11
9.6628089722
 21
3.9798395096
  0
LINE
  5
251
100
AcDbEntity
  8
0
100
AcDbLine
 62
6
  6
CONTINUOUS
 10
9.6628089722
 20
4.5571897788
 11
9.1628089722
 21
4.8458649134
  0
LINE
  5
252
100
AcDbEntity
  8
0
100
AcDbLine
 62
9
  6
CONTINUOUS
 10
8.1498089722
 20
4.8533704669
 11
8.1498089722
 21
4.6685146442
  0
LINE
  5
253
100
AcDbEntity
  8
0
100
AcDbLine
 62
9
  6
CONTINUOUS
 10
8.1498089722
 20
3.8685146442
 11
8.1498089722
 21
3.6836588215
  0
LINE
  5
254
100
AcDbEntity
  8
0
100
AcDbLine
 62
9
  6
CONTINUOUS
 10
9.1628089722
 20
3.6039729602
 11
9.7383189524
 21
3.9362438022
  0
LINE
  5
255
100
AcDbEntity
  8
0
100
AcDbLine
 62
9
  6
CONTINUOUS
 10
9.7383189524
 20
4.6007854862
 11
9.1628089722
 21
4.9330563282
  0
LINE
  5
256
100
AcDbEntity
  8
0
100
AcDbLine
 62
9
  6
CONTINUOUS
 10
8.4684495152
 20
3.8685146442
 11
8.4684495152
 21
4.2017114475
  0
LINE
  5
257
100
AcDbEntity
  8
0
100
AcDbLine
 62
9
  6
CONTINUOUS
 10
8.5511292437
 20
3.9122646442
 11
8.5511292437
 21
4.6247646442
  0
LINE
  5
258
100
AcDbEntity
  8
0
100
AcDbLine
 62
9
  6
CONTINUOUS
 10
8.5872989919
 20
4.6007854862
 11
8.5872989919
 21
4.5924972263
  0
LINE
  5
259
100
AcDbEntity
  8
0
100
AcDbLine
 62
9
  6
CONTINUOUS
 10
8.5872989919
 20
3.9445320622
 11
8.5872989919
 21
3.9362438022
  0
LINE
  5
25A
100
AcDbEntity
  8
0
100
AcDbLine
 62
9
  6
CONTINUOUS
 10
8.6338089722
 20
3.9560146442
 11
8.6338089722
 21
4.5810146442
  0
LINE
  5
25B
100
AcDbEntity
  8
0
100
AcDbLine
 62
9
  6
CONTINUOUS
 10
9.1628089722
 20
3.0988029989
 11
10.1758089722
 21
3.6836588215
  0
LINE
  5
25C
100
AcDbEntity
  8
0
100
AcDbLine
 62
9
  6
CONTINUOUS
 10
10.1758089722
 20
4.8533704669
 11
9.1628089722
 21
5.4382262896
  0
LINE
  5
25D
100
AcDbEntity
  8
0
100
AcDbLine
 62
9
  6
CONTINUOUS
 10
8.7088089722
 20
3.9560146442
 11
8.7088089722
 21
4.0850769308
  0
LINE
  5
25E
100
AcDbEntity
  8
0
100
AcDbLine
 62
9
  6
CONTINUOUS
 10
8.7088089722
 20
4.4519395216
 11
8.7088089722
 21
4.5810146442
  0
LINE
  5
25F
100
AcDbEntity
  8
0
100
AcDbLine
 62
6
  6
CONTINUOUS
 10
9.1628089722
 20
3.691164375
 11
9.1628089722
 21
3.6039729602
  0
LINE
  5
260
100
AcDbEntity
  8
0
100
AcDbLine
 62
6
  6
CONTINUOUS
 10
9.1628089722
 20
3.0988029989
 11
9.1628089722
 21
3.0810146442
  0
LINE
  5
261
100
AcDbEntity
  8
0
100
AcDbLine
 62
6
  6
CONTINUOUS
 10
9.1628089722
 20
4.8458649134
 11
9.1628089722
 21
4.9330563282
  0
LINE
  5
262
100
AcDbEntity
  8
0
100
AcDbLine
 62
6
  6
CONTINUOUS
 10
9.1628089722
 20
5.4382262896
 11
9.1628089722
 21
5.4560146442
  0
LINE
  5
263
100
AcDbEntity
  8
0
100
AcDbLine
 62
6
  6
CONTINUOUS
 10
9.6628089722
 20
3.9798395096
 11
9.6628089722
 21
4.5571897788
  0
LINE
  5
264
100
AcDbEntity
  8
0
100
AcDbLine
 62
9
  6
CONTINUOUS
 10
9.7383189524
 20
3.9362438022
 11
9.7383189524
 21
4.6007854862
  0
LINE
  5
265
100
AcDbEntity
  8
0
100
AcDbLine
 62
9
  6
CONTINUOUS
 10
10.1758089722
 20
3.6836588215
 11
10.1758089722
 21
4.8533704669
  0
ARC
  5
266
100
AcDbEntity
  8
0
100
AcDbCircle
 62
6
  6
CONTINUOUS
 10
3.0288089722
 20
4.0560146442
 40
0.1
100
AcDbArc
 50
232.6647112977
 51
270.0
  0
ARC
  5
267
100
AcDbEntity
  8
0
100
AcDbCircle
 62
6
  6
CONTINUOUS
 10
3.1038089722
 20
3.8560146442
 40
0.1
100
AcDbArc
 50
43.4325365578
 51
90.0
  0
ARC
  5
268
100
AcDbEntity
  8
0
100
AcDbCircle
 62
6
  6
CONTINUOUS
 10
3.2490458476
 20
3.9935146442
 40
0.1
100
AcDbArc
 50
223.4325365578
 51
270.0
  0
ARC
  5
269
100
AcDbEntity
  8
0
100
AcDbCircle
 62
6
  6
CONTINUOUS
 10
2.5748089722
 20
4.2685146442
 40
1.1875
100
AcDbArc
 50
18.4108877825
 51
341.1410261584
  0
CIRCLE
  5
26A
100
AcDbEntity
  8
0
100
AcDbCircle
 62
6
  6
CONTINUOUS
 10
2.5748089722
 20
4.2685146442
 40
0.49
  0
ARC
  5
26B
100
AcDbEntity
  8
0
100
AcDbCircle
 62
6
  6
CONTINUOUS
 10
3.0288089722
 20
4.4810146442
 40
0.1
100
AcDbArc
 50
90.0
 51
127.3344397223
  0
ARC
  5
26C
100
AcDbEntity
  8
0
100
AcDbCircle
 62
6
  6
CONTINUOUS
 10
3.1038089722
 20
4.6810146442
 40
0.1
100
AcDbArc
 50
270.0
 51
316.5674634422
  0
ARC
  5
26D
100
AcDbEntity
  8
0
100
AcDbCircle
 62
6
  6
CONTINUOUS
 10
3.2490458476
 20
4.5435146442
 40
0.1
100
AcDbArc
 50
90.0
 51
136.5674634422
  0
ARC
  5
26E
100
AcDbEntity
  8
0
100
AcDbCircle
 62
6
  6
CONTINUOUS
 10
8.7088089722
 20
4.0560146442
 40
0.1
100
AcDbArc
 50
270.0
 51
307.3344397223
  0
ARC
  5
26F
100
AcDbEntity
  8
0
100
AcDbCircle
 62
6
  6
CONTINUOUS
 10
8.6338089722
 20
3.8560146442
 40
0.1
100
AcDbArc
 50
90.0
 51
145.7711336722
  0
ARC
  5
270
100
AcDbEntity
  8
0
100
AcDbCircle
 62
6
  6
CONTINUOUS
 10
8.4684495152
 20
3.9685146442
 40
0.1
100
AcDbArc
 50
270.0
 51
325.7711336722
  0
ARC
  5
271
100
AcDbEntity
  8
0
100
AcDbCircle
 62
6
  6
CONTINUOUS
 10
9.1628089722
 20
4.2685146442
 40
1.1875
100
AcDbArc
 50
199.6879316958
 51
160.3120330199
  0
CIRCLE
  5
272
100
AcDbEntity
  8
0
100
AcDbCircle
 62
6
  6
CONTINUOUS
 10
9.1628089722
 20
4.2685146442
 40
0.49
  0
ARC
  5
273
100
AcDbEntity
  8
0
100
AcDbCircle
 62
6
  6
CONTINUOUS
 10
8.7088089722
 20
4.4810146442
 40
0.1
100
AcDbArc
 50
52.6647112977
 51
90.0
  0
ARC
  5
274
100
AcDbEntity
  8
0
100
AcDbCircle
 62
6
  6
CONTINUOUS
 10
8.6338089722
 20
4.6810146442
 40
0.1
100
AcDbArc
 50
214.2288663278
 51
270.0
  0
ARC
  5
275
100
AcDbEntity
  8
0
100
AcDbCircle
 62
6
  6
CONTINUOUS
 10
8.4684495152
 20
4.5685146442
 40
0.1
100
AcDbArc
 50
34.2288663278
 51
79.158363851
  0
SPLINE
  5
276
100
AcDbEntity
  8
0
100
AcDbSpline
 62
6
  6
CONTINUOUS
 70
0
 71
3
 72
19
 73
15
 74
13
 42
0.0000001
 43
0.0000001
 44
0.0000000001
 12
-0.0334130606
 22
0.0
 32
0.0
 13
-0.0120014543
 23
0.0311832922
 33
0.0
 40
0.0
 40
0.0
 40
0.0
 40
0.0
 40
0.0620964515
 40
0.1243959573
 40
0.1869000966
 40
0.2495749666
 40
0.3123594517
 40
0.3751731923
 40
0.5005258942
 40
0.6254566515
 40
0.687827017
 40
0.7501668339
 40
0.8749252038
 40
1.0
 40
1.0
 40
1.0
 40
1.0
 10
3.5688089722
 20
3.8755146442
 30
0.0
 10
3.5681173613
 20
3.8755146442
 30
0.0
 10
3.5667312632
 20
3.8755721539
 30
0.0
 10
3.5646628478
 20
3.8758233929
 30
0.0
 10
3.5626132998
 20
3.8762329853
 30
0.0
 10
3.5605945625
 20
3.8767942317
 30
0.0
 10
3.5586181949
 20
3.8775005535
 30
0.0
 10
3.5560576299
 20
3.8786258367
 30
0.0
 10
3.5530193352
 20
3.8803623995
 30
0.0
 10
3.5502655756
 20
3.8825159864
 30
0.0
 10
3.5482824293
 20
3.8844682918
 30
0.0
 10
3.5464589778
 20
3.8865683009
 30
0.0
 10
3.5445047682
 20
3.8894622241
 30
0.0
 10
3.543311547
 20
3.8919891157
 30
0.0
 10
3.5428111872
 20
3.893289197
 30
0.0
 11
3.5688089722
 21
3.8755146442
 31
0.0
 11
3.5667358714
 21
3.8755993977
 31
0.0
 11
3.564669304
 21
3.8758492563
 31
0.0
 11
3.5626211624
 21
3.876257617
 31
0.0
 11
3.5606033389
 21
3.8768178769
 31
0.0
 11
3.5586277259
 21
3.8775234331
 31
0.0
 11
3.5567062157
 21
3.8783676826
 31
0.0
 11
3.5530715123
 21
3.8804489735
 31
0.0
 11
3.5497865344
 21
3.8830246014
 31
0.0
 11
3.5483019832
 21
3.8844871677
 31
0.0
 11
3.5469370122
 21
3.8860605696
 31
0.0
 11
3.5445991993
 21
3.8895118759
 31
0.0
 11
3.5428111872
 21
3.893289197
 31
0.0
  0
SPLINE
  5
277
100
AcDbEntity
  8
0
100
AcDbSpline
 62
6
  6
CONTINUOUS
 70
0
 71
3
 72
36
 73
32
 74
30
 42
0.0000001
 43
0.0000001
 44
0.0000000001
 12
-0.0288718424
 22
0.0
 32
0.0
 13
-0.0003084365
 23
0.0288701948
 33
0.0
 40
0.0
 40
0.0
 40
0.0
 40
0.0
 40
0.0941252511
 40
0.187667311
 40
0.2797212549
 40
0.36938083
 40
0.4557411647
 40
0.5379397972
 40
0.6151690023
 40
0.651671816
 40
0.6866351982
 40
0.7199622797
 40
0.7515578414
 40
0.7813324742
 40
0.8092378523
 40
0.8352513
 40
0.8593533184
 40
0.8815283963
 40
0.9017667229
 40
0.9200668379
 40
0.9364398719
 40
0.9509165649
 40
0.9635600285
 40
0.969234422
 40
0.9745067133
 40
0.9794075434
 40
0.9839750186
 40
0.9882561418
 40
0.9923078809
 40
0.9961972868
 40
1.0
 40
1.0
 40
1.0
 40
1.0
 10
8.4688089722
 20
4.2016978958
 30
0.0
 10
8.4679031157
 20
4.2016978958
 30
0.0
 10
8.4660969806
 20
4.2017135301
 30
0.0
 10
8.4634056995
 20
4.2017813601
 30
0.0
 10
8.4607588123
 20
4.2018911913
 30
0.0
 10
8.4581830962
 20
4.2020406415
 30
0.0
 10
8.4557048963
 20
4.2022272501
 30
0.0
 10
8.4533497114
 20
4.2024489616
 30
0.0
 10
8.4514763625
 20
4.2026654397
 30
0.0
 10
8.4500581477
 20
4.2028568571
 30
0.0
 10
8.449060616
 20
4.2030056078
 30
0.0
 10
8.4481120896
 20
4.203162045
 30
0.0
 10
8.4472155342
 20
4.2033259478
 30
0.0
 10
8.4463735422
 20
4.2034972836
 30
0.0
 10
8.4455879822
 20
4.2036755665
 30
0.0
 10
8.4448600559
 20
4.2038601224
 30
0.0
 10
8.4441907427
 20
4.2040503819
 30
0.0
 10
8.4435810034
 20
4.2042457592
 30
0.0
 10
8.4430317751
 20
4.2044456734
 30
0.0
 10
8.4425439705
 20
4.2046495429
 30
0.0
 10
8.4421184171
 20
4.204856824
 30
0.0
 10
8.4417559473
 20
4.2050669787
 30
0.0
 10
8.4414982395
 20
4.2052504226
 30
0.0
 10
8.4413266902
 20
4.205399378
 30
0.0
 10
8.4412189413
 20
4.2055075355
 30
0.0
 10
8.4411274066
 20
4.2056161624
 30
0.0
 10
8.4410521105
 20
4.2057252582
 30
0.0
 10
8.440993104
 20
4.2058348122
 30
0.0
 10
8.4409504764
 20
4.2059448089
 30
0.0
 10
8.4409243462
 20
4.206055142
 30
0.0
 10
8.4409179701
 20
4.2061292193
 30
0.0
 10
8.4409175791
 20
4.2061658143
 30
0.0
 11
8.4688089722
 21
4.2016978958
 31
0.0
 11
8.4660915018
 21
4.2017210935
 31
0.0
 11
8.4633916265
 21
4.2017891004
 31
0.0
 11
8.460736155
 21
4.2018995372
 31
0.0
 11
8.4581518958
 21
4.2020500246
 31
0.0
 11
8.4556656243
 21
4.2022381939
 31
0.0
 11
8.4533029787
 21
4.2024620402
 31
0.0
 11
8.4510882018
 21
4.2027200047
 31
0.0
 11
8.4500438132
 21
4.2028613028
 31
0.0
 11
8.4490454509
 21
4.2030105563
 31
0.0
 11
8.4480961344
 21
4.2031675737
 31
0.0
 11
8.4471988834
 21
4.2033321636
 31
0.0
 11
8.4463566076
 21
4.2035041142
 31
0.0
 11
8.4455710368
 21
4.2036829946
 31
0.0
 11
8.4448431844
 21
4.203868241
 31
0.0
 11
8.4441740538
 21
4.2040592876
 31
0.0
 11
8.4435646483
 21
4.2042555688
 31
0.0
 11
8.4430159713
 21
4.2044565187
 31
0.0
 11
8.4425290263
 21
4.2046615716
 31
0.0
 11
8.4421048165
 21
4.2048701619
 31
0.0
 11
8.4417443453
 21
4.2050817238
 31
0.0
 11
8.4414485903
 21
4.2052956941
 31
0.0
 11
8.4413251573
 21
4.2054034189
 31
0.0
 11
8.4412180262
 21
4.2055115581
 31
0.0
 11
8.441127197
 21
4.2056200531
 31
0.0
 11
8.4410526696
 21
4.2057288453
 31
0.0
 11
8.4409944442
 21
4.2058378761
 31
0.0
 11
8.4409525206
 21
4.205947087
 31
0.0
 11
8.4409268989
 21
4.2060564192
 31
0.0
 11
8.4409175791
 21
4.2061658143
 31
0.0
  0
SPLINE
  5
278
100
AcDbEntity
  8
0
100
AcDbSpline
 62
6
  6
CONTINUOUS
 70
0
 71
3
 72
37
 73
33
 74
31
 42
0.0000001
 43
0.0000001
 44
0.0000000001
 12
0.0003086829
 22
-0.0288859932
 32
0.0
 13
-0.0288876425
 23
-0.0
 33
0.0
 40
0.0
 40
0.0
 40
0.0
 40
0.0
 40
0.0038033081
 40
0.0076824084
 40
0.0117143871
 40
0.0159680327
 40
0.0205020638
 40
0.0253650631
 40
0.0305964678
 40
0.0362279941
 40
0.0422850901
 40
0.0487878917
 40
0.0631778473
 40
0.0794689799
 40
0.0976936533
 40
0.1178639363
 40
0.1399789038
 40
0.164029035
 40
0.1899989545
 40
0.2178691988
 40
0.2476171734
 40
0.2791962654
 40
0.3125172965
 40
0.3474845298
 40
0.3840005471
 40
0.4612819025
 40
0.5435630591
 40
0.6300315437
 40
0.7198203159
 40
0.8120190024
 40
0.9057157405
 40
1.0
 40
1.0
 40
1.0
 40
1.0
 10
8.4967003652
 20
4.2061815054
 30
0.0
 10
8.4967007565
 20
4.2061448846
 30
0.0
 10
8.4966959635
 20
4.2060707381
 30
0.0
 10
8.4966720976
 20
4.2059601122
 30
0.0
 10
8.4966316428
 20
4.2058498095
 30
0.0
 10
8.49657472
 20
4.2057399461
 30
0.0
 10
8.4965014247
 20
4.2056305425
 30
0.0
 10
8.4964118138
 20
4.2055216089
 30
0.0
 10
8.4963059125
 20
4.2054131507
 30
0.0
 10
8.4961837249
 20
4.2053051856
 30
0.0
 10
8.4960452504
 20
4.2051977356
 30
0.0
 10
8.4958316108
 20
4.2050502281
 30
0.0
 10
8.4955222866
 20
4.2048689272
 30
0.0
 10
8.4950994128
 20
4.2046610184
 30
0.0
 10
8.4946139008
 20
4.2044564931
 30
0.0
 10
8.4940666636
 20
4.2042559133
 30
0.0
 10
8.4934585907
 20
4.2040598589
 30
0.0
 10
8.4927906322
 20
4.2038689162
 30
0.0
 10
8.4920637517
 20
4.2036836744
 30
0.0
 10
8.4912789341
 20
4.2035047082
 30
0.0
 10
8.4904373703
 20
4.2033326869
 30
0.0
 10
8.4895409085
 20
4.2031681288
 30
0.0
 10
8.4885921344
 20
4.2030110629
 30
0.0
 10
8.487594027
 20
4.2028617101
 30
0.0
 10
8.4861744573
 20
4.2026694924
 30
0.0
 10
8.484298738
 20
4.202452116
 30
0.0
 10
8.4819399889
 20
4.2022294939
 30
0.0
 10
8.4794573936
 20
4.2020421112
 30
0.0
 10
8.4768766136
 20
4.2018920292
 30
0.0
 10
8.4742241635
 20
4.2017817259
 30
0.0
 10
8.4715269998
 20
4.2017135996
 30
0.0
 10
8.4697168555
 20
4.2016978958
 30
0.0
 10
8.4688089722
 20
4.2016978958
 30
0.0
 11
8.4967003652
 21
4.2061815054
 31
0.0
 11
8.4966933494
 21
4.206071861
 31
0.0
 11
8.4966699587
 21
4.2059622714
 31
0.0
 11
8.4966301929
 21
4.2058527956
 31
0.0
 11
8.496574052
 21
4.2057434925
 31
0.0
 11
8.4965015362
 21
4.2056344212
 31
0.0
 11
8.4964126453
 21
4.2055256407
 31
0.0
 11
8.4963073793
 21
4.2054172099
 31
0.0
 11
8.4961857384
 21
4.2053091879
 31
0.0
 11
8.4960477224
 21
4.2052016337
 31
0.0
 11
8.4958933423
 21
4.2050946073
 31
0.0
 11
8.4955358888
 21
4.2048824123
 31
0.0
 11
8.4951143518
 21
4.2046731693
 31
0.0
 11
8.4946297417
 21
4.2044674475
 31
0.0
 11
8.4940830685
 21
4.2042658167
 31
0.0
 11
8.4934753424
 21
4.2040688463
 31
0.0
 11
8.4928075734
 21
4.2038771059
 31
0.0
 11
8.4920807718
 21
4.2036911651
 31
0.0
 11
8.4912959475
 21
4.2035115932
 31
0.0
 11
8.4904541175
 21
4.2033389588
 31
0.0
 11
8.4895569645
 21
4.2031737063
 31
0.0
 11
8.4886073968
 21
4.2030160531
 31
0.0
 11
8.4876084544
 21
4.2028661917
 31
0.0
 11
8.4865631774
 21
4.2027243149
 31
0.0
 11
8.4843457794
 21
4.2024652858
 31
0.0
 11
8.481979523
 21
4.2022405074
 31
0.0
 11
8.4794888099
 21
4.2020515475
 31
0.0
 11
8.4768994305
 21
4.2019004179
 31
0.0
 11
8.4742383383
 21
4.2017895025
 31
0.0
 11
8.4715325225
 21
4.2017211967
 31
0.0
 11
8.4688089722
 21
4.2016978958
 31
0.0
  0
SPLINE
  5
279
100
AcDbEntity
  8
0
100
AcDbSpline
 62
9
  6
CONTINUOUS
 70
0
 71
3
 72
35
 73
31
 74
29
 42
0.0000001
 43
0.0000001
 44
0.0000000001
 12
-0.0057680994
 22
0.0278154713
 32
0.0
 13
-0.0284072423
 23
0.0
 33
0.0
 40
0.0
 40
0.0
 40
0.0
 40
0.0
 40
0.0028767419
 40
0.0059631268
 40
0.0093388472
 40
0.013065083
 40
0.0171874435
 40
0.0217396542
 40
0.0267467697
 40
0.0322276178
 40
0.0381962752
 40
0.044660989
 40
0.0590925483
 40
0.0755396185
 40
0.0939994628
 40
0.1144589621
 40
0.1368985022
 40
0.1612942293
 40
0.1876194242
 40
0.2459382018
 40
0.2778355804
 40
0.3114412517
 40
0.3833904618
 40
0.4610077189
 40
0.5435060235
 40
0.6300900886
 40
0.7199134357
 40
0.8120943103
 40
0.9057503363
 40
1.0
 40
1.0
 40
1.0
 40
1.0
 10
8.3717110421
 20
4.3132204522
 30
0.0
 10
8.371705511
 20
4.3132471249
 30
0.0
 10
8.3716884225
 20
4.3133013544
 30
0.0
 10
8.3716473102
 20
4.3133800541
 30
0.0
 10
8.371590316
 20
4.3134582621
 30
0.0
 10
8.3715175535
 20
4.3135360257
 30
0.0
 10
8.3714290423
 20
4.3136134317
 30
0.0
 10
8.3713247659
 20
4.3136905102
 30
0.0
 10
8.3712046967
 20
4.3137672664
 30
0.0
 10
8.371068811
 20
4.3138436819
 30
0.0
 10
8.3709171142
 20
4.3139197171
 30
0.0
 10
8.3706852146
 20
4.314024424
 30
0.0
 10
8.370355423
 20
4.3141526764
 30
0.0
 10
8.3699117347
 20
4.3142994407
 30
0.0
 10
8.3694075915
 20
4.3144437465
 30
0.0
 10
8.3688439695
 20
4.3145851795
 30
0.0
 10
8.3682218326
 20
4.3147233099
 30
0.0
 10
8.3675421813
 20
4.3148577301
 30
0.0
 10
8.3665254177
 20
4.3150376579
 30
0.0
 10
8.3654337193
 20
4.3152003927
 30
0.0
 10
8.3642708172
 20
4.3153500441
 30
0.0
 10
8.3629779599
 20
4.3155004631
 30
0.0
 10
8.36125193
 20
4.3156726028
 30
0.0
 10
8.3590617766
 20
4.3158524913
 30
0.0
 10
8.3567309229
 20
4.3160089067
 30
0.0
 10
8.3542828107
 20
4.3161408148
 30
0.0
 10
8.3517416697
 20
4.3162466605
 30
0.0
 10
8.3491325236
 20
4.3163245842
 30
0.0
 10
8.3464807418
 20
4.3163727915
 30
0.0
 10
8.3447014298
 20
4.3163839219
 30
0.0
 10
8.3438089722
 20
4.3163839219
 30
0.0
 11
8.3717110421
 21
4.3132204522
 31
0.0
 11
8.3716868908
 21
4.3132985222
 31
0.0
 11
8.3716468271
 21
4.3133765089
 31
0.0
 11
8.3715908511
 21
4.3134543711
 31
0.0
 11
8.3715189628
 21
4.3135320675
 31
0.0
 11
8.3714311621
 21
4.3136095568
 31
0.0
 11
8.3713274491
 21
4.3136867978
 31
0.0
 11
8.3712078237
 21
4.3137637492
 31
0.0
 11
8.371072286
 21
4.3138403698
 31
0.0
 11
8.3709208446
 21
4.3139166177
 31
0.0
 11
8.3707535863
 21
4.3139924467
 31
0.0
 11
8.370372134
 21
4.3141426533
 31
0.0
 11
8.3699289607
 21
4.3142905996
 31
0.0
 11
8.3694250983
 21
4.314435896
 31
0.0
 11
8.368861579
 21
4.3145781527
 31
0.0
 11
8.3682394345
 21
4.3147169801
 31
0.0
 11
8.367559697
 21
4.3148519882
 31
0.0
 11
8.3668233985
 21
4.3149827874
 31
0.0
 11
8.3651853029
 21
4.3152302081
 31
0.0
 11
8.3642866416
 21
4.3153462046
 31
0.0
 11
8.3633384307
 21
4.3154568487
 31
0.0
 11
8.3613048316
 21
4.3156615789
 31
0.0
 11
8.3591074487
 21
4.3158433974
 31
0.0
 11
8.3567692251
 21
4.3160013028
 31
0.0
 11
8.3543132068
 21
4.3161342602
 31
0.0
 11
8.3517637981
 21
4.316240793
 31
0.0
 11
8.3491463651
 21
4.3163191117
 31
0.0
 11
8.3464862943
 21
4.31636742
 31
0.0
 11
8.3438089722
 21
4.3163839219
 31
0.0
  0
LINE
  5
27A
100
AcDbEntity
  8
0
100
AcDbLine
 62
6
  6
CONTINUOUS
 10
8.5872989919
 20
3.9362438022
 11
8.5577717405
 21
3.9191962357
  0
LINE
  5
27B
100
AcDbEntity
  8
0
100
AcDbLine
 62
6
  6
CONTINUOUS
 10
8.5577717405
 20
3.9191962357
 11
8.5553161261
 21
3.917778486
  0
LINE
  5
27C
100
AcDbEntity
  8
0
100
AcDbLine
 62
6
  6
CONTINUOUS
 10
8.4706399809
 20
3.8688906908
 11
8.4693226117
 21
3.8681301073
  0
LINE
  5
27D
100
AcDbEntity
  8
0
100
AcDbLine
 62
6
  6
CONTINUOUS
 10
8.4693226117
 20
3.8681301073
 11
8.1498089722
 21
3.6836588215
  0
LINE
  5
27E
100
AcDbEntity
  8
0
100
AcDbLine
 62
6
  6
CONTINUOUS
 10
9.1628089722
 20
3.6039729602
 11
9.1628089722
 21
3.0988029989
  0
LINE
  5
27F
100
AcDbEntity
  8
0
100
AcDbLine
 62
6
  6
CONTINUOUS
 10
9.7383189524
 20
3.9362438022
 11
10.1758089722
 21
3.6836588215
  0
LINE
  5
280
100
AcDbEntity
  8
0
100
AcDbLine
 62
6
  6
CONTINUOUS
 10
9.7383189524
 20
4.6007854862
 11
10.1758089722
 21
4.8533704669
  0
SPLINE
  5
281
100
AcDbEntity
  8
0
100
AcDbSpline
 62
9
  6
CONTINUOUS
 70
0
 71
3
 72
32
 73
28
 74
26
 42
0.0000001
 43
0.0000001
 44
0.0000000001
 12
-0.034011398
 22
0.0
 32
0.0
 13
0.0008920421
 23
-0.0339996979
 33
0.0
 40
0.0
 40
0.0
 40
0.0
 40
0.0
 40
0.0806807286
 40
0.1610375025
 40
0.2404680958
 40
0.3183530296
 40
0.3565237607
 40
0.3940758425
 40
0.4670554992
 40
0.5023701259
 40
0.5368234942
 40
0.5703643871
 40
0.6029469013
 40
0.634531685
 40
0.6650874589
 40
0.7230484466
 40
0.750504301
 40
0.7769716648
 40
0.827056567
 40
0.8507935525
 40
0.8737304274
 40
0.8959420752
 40
0.917519403
 40
0.9385793379
 40
0.9592532818
 40
0.9796793017
 40
1.0
 40
1.0
 40
1.0
 40
1.0
 10
3.5938089722
 20
4.4647443507
 30
0.0
 10
3.592894284
 20
4.4647443507
 30
0.0
 10
3.5910682286
 20
4.464693769
 30
0.0
 10
3.5883496405
 20
4.4644750482
 30
0.0
 10
3.5856772133
 20
4.4641217953
 30
0.0
 10
3.5834966757
 20
4.4637196074
 30
0.0
 10
3.5817977039
 20
4.463336355
 30
0.0
 10
3.5801635695
 20
4.4629213828
 30
0.0
 10
3.5785780371
 20
4.462448272
 30
0.0
 10
3.577050276
 20
4.4619137368
 30
0.0
 10
3.5759577923
 20
4.4614908999
 30
0.0
 10
3.5749091982
 20
4.4610423534
 30
0.0
 10
3.5739075554
 20
4.4605686687
 30
0.0
 10
3.5729558688
 20
4.460070371
 30
0.0
 10
3.5717783915
 20
4.4593860274
 30
0.0
 10
3.5706893114
 20
4.4586445193
 30
0.0
 10
3.5697028592
 20
4.4578460969
 30
0.0
 10
3.5688301848
 20
4.4570524648
 30
0.0
 10
3.5680585645
 20
4.4562120822
 30
0.0
 10
3.567406246
 20
4.4553291229
 30
0.0
 10
3.5669899824
 20
4.4546673967
 30
0.0
 10
3.5666391678
 20
4.4539962152
 30
0.0
 10
3.5663550072
 20
4.4533171278
 30
0.0
 10
3.5661379306
 20
4.4526319333
 30
0.0
 10
3.5659880139
 20
4.4519422705
 30
0.0
 10
3.5659053383
 20
4.4512498354
 30
0.0
 10
3.5658950801
 20
4.4507871449
 30
0.0
 10
3.5659011224
 20
4.4505568457
 30
0.0
 11
3.5938089722
 21
4.4647443507
 31
0.0
 11
3.5910659262
 21
4.4646695977
 31
0.0
 11
3.5883416442
 21
4.464450899
 31
0.0
 11
3.5856634327
 21
4.464096595
 31
0.0
 11
3.5830585982
 21
4.463615026
 31
0.0
 11
3.5817922307
 21
4.4633291235
 31
0.0
 11
3.5805543993
 21
4.4630144648
 31
0.0
 11
3.578176869
 21
4.4623014646
 31
0.0
 11
3.5770433393
 21
4.4619042853
 31
0.0
 11
3.5759507462
 21
4.4614807616
 31
0.0
 11
3.5749021741
 21
4.4610314744
 31
0.0
 11
3.5739007078
 21
4.4605570051
 31
0.0
 11
3.5729494318
 21
4.4600579348
 31
0.0
 11
3.5720514307
 21
4.4595348445
 31
0.0
 11
3.5704254227
 21
4.4584202789
 31
0.0
 11
3.5697001032
 21
4.4578321323
 31
0.0
 11
3.56903472
 21
4.457225823
 31
0.0
 11
3.5678882028
 21
4.4559659556
 31
0.0
 11
3.5674092886
 21
4.4553160173
 31
0.0
 11
3.5669947506
 21
4.4546551558
 31
0.0
 11
3.5666456987
 21
4.453985181
 31
0.0
 11
3.5663631482
 21
4.4533078791
 31
0.0
 11
3.5661474144
 21
4.4526248616
 31
0.0
 11
3.5659984989
 21
4.4519376617
 31
0.0
 11
3.5659164015
 21
4.4512478122
 31
0.0
 11
3.5659011224
 21
4.4505568457
 31
0.0
  0
LINE
  5
282
100
AcDbEntity
  8
0
100
AcDbLine
 62
6
  6
CONTINUOUS
 10
9.1628089722
 20
4.9330563282
 11
9.1628089722
 21
5.4382262896
  0
LINE
  5
283
100
AcDbEntity
  8
0
100
AcDbLine
 62
6
  6
CONTINUOUS
 10
8.5872989919
 20
4.6007854862
 11
8.5577717405
 21
4.6178330528
  0
LINE
  5
284
100
AcDbEntity
  8
0
100
AcDbLine
 62
6
  6
CONTINUOUS
 10
8.5577717405
 20
4.6178330528
 11
8.5553161261
 21
4.6192508025
  0
LINE
  5
285
100
AcDbEntity
  8
0
100
AcDbLine
 62
6
  6
CONTINUOUS
 10
8.4472267753
 20
4.6816562182
 11
8.1498089722
 21
4.8533704669
  0
LINE
  5
286
100
AcDbEntity
  8
0
100
AcDbLine
 62
6
  6
CONTINUOUS
 10
1.9992989919
 20
3.9362438022
 11
1.5618089722
 21
3.6836588215
  0
LINE
  5
287
100
AcDbEntity
  8
0
100
AcDbLine
 62
6
  6
CONTINUOUS
 10
2.5748089722
 20
3.6039729602
 11
2.5748089722
 21
3.0988029989
  0
LINE
  5
288
100
AcDbEntity
  8
0
100
AcDbLine
 62
6
  6
CONTINUOUS
 10
3.1503189524
 20
3.9362438022
 11
3.1865908549
 21
3.9153022096
  0
LINE
  5
289
100
AcDbEntity
  8
0
100
AcDbLine
 62
6
  6
CONTINUOUS
 10
3.2110461629
 20
3.9011829309
 11
3.5878089722
 21
3.6836588215
  0
LINE
  5
28A
100
AcDbEntity
  8
0
100
AcDbLine
 62
6
  6
CONTINUOUS
 10
3.1503189524
 20
4.6007854862
 11
3.1865908549
 21
4.6217270789
  0
LINE
  5
28B
100
AcDbEntity
  8
0
100
AcDbLine
 62
6
  6
CONTINUOUS
 10
3.2110461629
 20
4.6358463576
 11
3.5878089722
 21
4.8533704669
  0
LINE
  5
28C
100
AcDbEntity
  8
0
100
AcDbLine
 62
6
  6
CONTINUOUS
 10
2.5748089722
 20
4.9330563282
 11
2.5748089722
 21
5.4382262896
  0
LINE
  5
28D
100
AcDbEntity
  8
0
100
AcDbLine
 62
6
  6
CONTINUOUS
 10
1.9992989919
 20
4.6007854862
 11
1.5618089722
 21
4.8533704669
  0
SPLINE
  5
28E
100
AcDbEntity
  8
0
100
AcDbSpline
 62
6
  6
CONTINUOUS
 70
0
 71
3
 72
23
 73
19
 74
17
 42
0.0000001
 43
0.0000001
 44
0.0000000001
 12
-0.011808092
 22
-0.0306808802
 32
0.0
 13
-0.032866861
 23
-0.000718952
 33
0.0
 40
0.0
 40
0.0
 40
0.0
 40
0.0
 40
0.0625813701
 40
0.1251049039
 40
0.1875473903
 40
0.2499071722
 40
0.3122176624
 40
0.374552428
 40
0.4369658319
 40
0.4994838303
 40
0.56210942
 40
0.6248281053
 40
0.6876075857
 40
0.750374109
 40
0.8130473222
 40
0.8755636442
 40
0.937883702
 40
1.0
 40
1.0
 40
1.0
 40
1.0
 10
3.5948067572
 20
3.893289197
 30
0.0
 10
3.594560435
 20
3.8926491798
 30
0.0
 10
3.5940211972
 20
3.8913871812
 30
0.0
 10
3.5930758243
 20
3.8895602972
 30
0.0
 10
3.5919972109
 20
3.8878114138
 30
0.0
 10
3.5907886674
 20
3.8861524032
 30
0.0
 10
3.5894530546
 20
3.8845953981
 30
0.0
 10
3.5880010238
 20
3.8831457458
 30
0.0
 10
3.5864429809
 20
3.8818073467
 30
0.0
 10
3.584789096
 20
3.8805841507
 30
0.0
 10
3.5830495404
 20
3.8794800692
 30
0.0
 10
3.5812344954
 20
3.8784991199
 30
0.0
 10
3.5793545998
 20
3.8776453314
 30
0.0
 10
3.577420388
 20
3.8769242932
 30
0.0
 10
3.5754428558
 20
3.8763422567
 30
0.0
 10
3.57343312
 20
3.8759055106
 30
0.0
 10
3.5714025094
 20
3.8756204063
 30
0.0
 10
3.5700398618
 20
3.8755355615
 30
0.0
 10
3.5693593392
 20
3.8755206753
 30
0.0
 11
3.5948067572
 21
3.893289197
 31
0.0
 11
3.5939980817
 21
3.8913974482
 31
0.0
 11
3.593052979
 21
3.8895721728
 31
0.0
 11
3.5919748357
 21
3.8878253155
 31
0.0
 11
3.590767038
 21
3.8861688212
 31
0.0
 11
3.5894339057
 21
3.884613551
 31
0.0
 11
3.5879842693
 21
3.8831651273
 31
0.0
 11
3.58642832
 21
3.8818275918
 31
0.0
 11
3.5847762495
 21
3.8806049862
 31
0.0
 11
3.5830382494
 21
3.8795013518
 31
0.0
 11
3.5812245114
 21
3.8785207303
 31
0.0
 11
3.5793453353
 21
3.8776673796
 31
0.0
 11
3.5774117386
 21
3.8769469938
 31
0.0
 11
3.5754350305
 21
3.8763658509
 31
0.0
 11
3.5734265211
 21
3.8759302303
 31
0.0
 11
3.5713975207
 21
3.875646412
 31
0.0
 11
3.5693593392
 21
3.8755206753
 31
0.0
  0
SPLINE
  5
28F
100
AcDbEntity
  8
0
100
AcDbSpline
 62
9
  6
CONTINUOUS
 70
0
 71
3
 72
38
 73
34
 74
32
 42
0.0000001
 43
0.0000001
 44
0.0000000001
 12
-0.0285673668
 22
0.0
 32
0.0
 13
0.0058179772
 23
-0.0279686537
 33
0.0
 40
0.0
 40
0.0
 40
0.0
 40
0.0
 40
0.0967017853
 40
0.192745345
 40
0.2871675758
 40
0.3790044561
 40
0.4672940577
 40
0.5511220702
 40
0.629622539
 40
0.6666068531
 40
0.7019381156
 40
0.735510608
 40
0.7672196521
 40
0.7969734574
 40
0.8247272693
 40
0.8504490753
 40
0.8741088452
 40
0.8956794084
 40
0.9151378371
 40
0.9324677236
 40
0.9476631189
 40
0.9544641946
 40
0.9607383695
 40
0.966492995
 40
0.9717419127
 40
0.9765044204
 40
0.9808063544
 40
0.9846827592
 40
0.9881814792
 40
0.9913674098
 40
0.9943260934
 40
0.9971636934
 40
1.0
 40
1.0
 40
1.0
 40
1.0
 10
8.3438089722
 20
4.3163839219
 30
0.0
 10
8.3428881337
 20
4.3163839219
 30
0.0
 10
8.3410527052
 20
4.3163720777
 30
0.0
 10
8.3383185818
 20
4.3163208395
 30
0.0
 10
8.3356315741
 20
4.3162381053
 30
0.0
 10
8.3330195419
 20
4.3161258416
 30
0.0
 10
8.3305098598
 20
4.3159861127
 30
0.0
 10
8.3281290341
 20
4.3158204826
 30
0.0
 10
8.3262378748
 20
4.3156588431
 30
0.0
 10
8.3248088446
 20
4.3155159079
 30
0.0
 10
8.3238066276
 20
4.3154049943
 30
0.0
 10
8.3228556442
 20
4.3152883879
 30
0.0
 10
8.3219589258
 20
4.3151662271
 30
0.0
 10
8.3211189746
 20
4.31503855
 30
0.0
 10
8.3203375664
 20
4.3149058645
 30
0.0
 10
8.3196159259
 20
4.3147686349
 30
0.0
 10
8.318955163
 20
4.3146273105
 30
0.0
 10
8.3183563796
 20
4.3144823459
 30
0.0
 10
8.31782064
 20
4.3143342114
 30
0.0
 10
8.3173490208
 20
4.314183363
 30
0.0
 10
8.3169982996
 20
4.3140513818
 30
0.0
 10
8.3167515806
 20
4.3139435282
 30
0.0
 10
8.3165902209
 20
4.3138652088
 30
0.0
 10
8.316445677
 20
4.3137864729
 30
0.0
 10
8.31631797
 20
4.3137073639
 30
0.0
 10
8.3162070762
 20
4.3136279076
 30
0.0
 10
8.3161129635
 20
4.3135481018
 30
0.0
 10
8.3160356082
 20
4.3134679106
 30
0.0
 10
8.3159750264
 20
4.3133872508
 30
0.0
 10
8.3159313303
 20
4.3133060147
 30
0.0
 10
8.3159047877
 20
4.3132241392
 30
0.0
 10
8.3158957514
 20
4.3131418436
 30
0.0
 10
8.3159014532
 20
4.3130876467
 30
0.0
 10
8.3159069538
 20
4.3130612041
 30
0.0
 11
8.3438089722
 21
4.3163839219
 31
0.0
 11
8.3410465126
 21
4.3163663621
 31
0.0
 11
8.3383032818
 21
4.316314998
 31
0.0
 11
8.3356071706
 21
4.3162318031
 31
0.0
 11
8.3329860697
 21
4.3161187506
 31
0.0
 11
8.3304678101
 21
4.3159777945
 31
0.0
 11
8.3280789177
 21
4.3158104641
 31
0.0
 11
8.3258446509
 21
4.3156178765
 31
0.0
 11
8.324793379
 21
4.3155124552
 31
0.0
 11
8.3237902158
 21
4.3154011321
 31
0.0
 11
8.3228383122
 21
4.3152840448
 31
0.0
 11
8.3219408187
 21
4.3151613309
 31
0.0
 11
8.3211005474
 21
4.3150331767
 31
0.0
 11
8.3203189655
 21
4.3148999623
 31
0.0
 11
8.3195972067
 21
4.314762116
 31
0.0
 11
8.318936405
 21
4.3146200659
 31
0.0
 11
8.318337694
 21
4.3144742402
 31
0.0
 11
8.3178022077
 21
4.3143250672
 31
0.0
 11
8.3173310798
 21
4.3141729751
 31
0.0
 11
8.3169254441
 21
4.314018392
 31
0.0
 11
8.3167475401
 21
4.3139403001
 31
0.0
 11
8.3165864345
 21
4.3138617461
 31
0.0
 11
8.3164422462
 21
4.3137827821
 31
0.0
 11
8.3163150003
 21
4.313703455
 31
0.0
 11
8.3162046965
 21
4.31362381
 31
0.0
 11
8.3161113351
 21
4.3135438926
 31
0.0
 11
8.3160349159
 21
4.3134637479
 31
0.0
 11
8.3159754389
 21
4.3133834215
 31
0.0
 11
8.3159329043
 21
4.3133029585
 31
0.0
 11
8.3159073118
 21
4.3132224044
 31
0.0
 11
8.3158986617
 21
4.3131418045
 31
0.0
 11
8.3159069538
 21
4.3130612041
 31
0.0
  0
SPLINE
  5
290
100
AcDbEntity
  8
0
100
AcDbSpline
 62
9
  6
CONTINUOUS
 70
0
 71
3
 72
33
 73
29
 74
27
 42
0.0000001
 43
0.0000001
 44
0.0000000001
 12
-0.0008804459
 22
0.0336262508
 32
0.0
 13
-0.0336377753
 23
-0.0
 33
0.0
 40
0.0
 40
0.0
 40
0.0
 40
0.0
 40
0.0202364352
 40
0.040649375
 40
0.0613738384
 40
0.0825394878
 40
0.1042679227
 40
0.1266594372
 40
0.149793485
 40
0.1737365085
 40
0.2242350412
 40
0.250897475
 40
0.2785358883
 40
0.307174367
 40
0.3368318921
 40
0.36750971
 40
0.3991851342
 40
0.4318257804
 40
0.4653920615
 40
0.4998385257
 40
0.5351149478
 40
0.6079307198
 40
0.6453604614
 40
0.6833839355
 40
0.7609094354
 40
0.8399142488
 40
0.9198037559
 40
1.0
 40
1.0
 40
1.0
 40
1.0
 10
3.6217168319
 20
4.4509314736
 30
0.0
 10
3.6217108929
 20
4.4511582987
 30
0.0
 10
3.6216772079
 20
4.4516136482
 30
0.0
 10
3.6215618003
 20
4.45229303
 30
0.0
 10
3.6213814513
 20
4.4529689423
 30
0.0
 10
3.6211362607
 20
4.4536397854
 30
0.0
 10
3.6208263144
 20
4.454303903
 30
0.0
 10
3.6204524797
 20
4.4549597003
 30
0.0
 10
3.6200158763
 20
4.4556056387
 30
0.0
 10
3.6193395985
 20
4.4564666137
 30
0.0
 10
3.6185498417
 20
4.4572848754
 30
0.0
 10
3.617663553
 20
4.4580569945
 30
0.0
 10
3.6169292205
 20
4.4586284206
 30
0.0
 10
3.6161385867
 20
4.4591798684
 30
0.0
 10
3.6152926723
 20
4.4597094612
 30
0.0
 10
3.614393499
 20
4.4602159622
 30
0.0
 10
3.6134439371
 20
4.4606991299
 30
0.0
 10
3.6124468449
 20
4.4611583838
 30
0.0
 10
3.6114051372
 20
4.4615931973
 30
0.0
 10
3.610321708
 20
4.462003033
 30
0.0
 10
3.6088094743
 20
4.4625208631
 30
0.0
 10
3.6072424291
 20
4.4629793478
 30
0.0
 10
3.6056291907
 20
4.4633815228
 30
0.0
 10
3.6039543509
 20
4.4637526578
 30
0.0
 10
3.6018069023
 20
4.4641420222
 30
0.0
 10
3.5991770572
 20
4.4644839011
 30
0.0
 10
3.5965034912
 20
4.4646954585
 30
0.0
 10
3.5947081799
 20
4.4647443507
 30
0.0
 10
3.5938089722
 20
4.4647443507
 30
0.0
 11
3.6217168319
 21
4.4509314736
 31
0.0
 11
3.6216667587
 21
4.451610338
 31
0.0
 11
3.621552112
 21
4.4522873452
 31
0.0
 11
3.6213728919
 21
4.4529610389
 31
0.0
 11
3.6211290983
 21
4.4536299629
 31
0.0
 11
3.6208207839
 21
4.454292648
 31
0.0
 11
3.6204486077
 21
4.4549474733
 31
0.0
 11
3.6200136178
 21
4.4555927211
 31
0.0
 11
3.6195168688
 21
4.4562266718
 31
0.0
 11
3.6183423112
 21
4.4574538044
 31
0.0
 11
3.6176666115
 21
4.4580435473
 31
0.0
 11
3.6169333706
 21
4.4586151154
 31
0.0
 11
3.6161436429
 21
4.4591667892
 31
0.0
 11
3.6152985091
 21
4.4596968655
 31
0.0
 11
3.6143998739
 21
4.460204154
 31
0.0
 11
3.613450612
 21
4.4606880677
 31
0.0
 11
3.612453654
 21
4.4611480547
 31
0.0
 11
3.6114119303
 21
4.4615835628
 31
0.0
 11
3.6103283713
 21
4.4619940398
 31
0.0
 11
3.6092059077
 21
4.4623789336
 31
0.0
 11
3.6068559882
 21
4.4630697633
 31
0.0
 11
3.6056343937
 21
4.4633745943
 31
0.0
 11
3.6043857051
 21
4.4636515092
 31
0.0
 11
3.6018199359
 21
4.4641177419
 31
0.0
 11
3.5991845959
 21
4.4644605755
 31
0.0
 11
3.5965056273
 21
4.4646720863
 31
0.0
 11
3.5938089722
 21
4.4647443507
 31
0.0
  0
ENDSEC
  0
SECTION
  2
OBJECTS
  0
DICTIONARY
  5
C
100
AcDbDictionary
280
0
281
1
  3
ACAD_GROUP
350
D
  3
ACAD_MLINESTYLE
350
17
  3
ACAD_LAYOUT
350
1A
  3
ACAD_PLOTSETTINGS
350
19
  3
ACAD_PLOTSTYLENAME
350
E
  0
DICTIONARY
  5
D
102
{ACAD_REACTORS
330
C
102
}
100
AcDbDictionary
280
0
281
1
  0
ACDBDICTIONARYWDFLT
  5
E
102
{ACAD_REACTORS
330
C
102
}
100
AcDbDictionary
281
1
  3
Normal
350
F
100
AcDbDictionaryWithDefault
340
F
  0
DICTIONARY
  5
17
102
{ACAD_REACTORS
330
C
102
}
100
AcDbDictionary
280
0
281
1
  3
Standard
350
18
  0
DICTIONARY
  5
19
102
{ACAD_REACTORS
330
C
102
}
100
AcDbDictionary
281
1
  0
DICTIONARY
  5
1A
102
{ACAD_REACTORS
330
C
102
}
100
AcDbDictionary
281
1
  3
Model
350
291
  3
Layout1
350
292
  0
ACDBPLACEHOLDER
  5
F
102
{ACAD_REACTORS
330
E
102
}
  0
MLINESTYLE
  5
18
102
{ACAD_REACTORS
330
17
102
}
100
AcDbMlineStyle
  2
STANDARD
 70
0
  3

 62
256
 51
90.0
 52
90.0
 71
2
 49
0.5
 62
256
  6
BYLAYER
 49
-0.5
 62
256
  6
BYLAYER
  0
LAYOUT
  5
291
102
{ACAD_REACTORS
330
1A
102
}
100
AcDbPlotSettings
  1

  2
none_device
  4
ISO_A4_(297.00_x_210.00_MM)
  6

 40
0.0
 41
0.0
 42
0.0
 43
0.0
 44
297.0
 45
210.0
 46
0.0
 47
0.0
 48
0.0
 49
0.0
140
0.0
141
0.0
142
1.0
143
1.0
 70
1024
 72
0
 73
0
 74
0
  7

 75
0
147
1.0
148
0.0
149
0.0
100
AcDbLayout
  1
Model
 70
0
 71
0
 10
0.0
 20
0.0
 11
11.6929133858
 21
8.2677165354
 12
0.0
 22
0.0
 32
0.0
 14
0.0
 24
0.0
 34
0.0
 15
0.0
 25
0.0
 35
0.0
146
0.0
 13
0.0
 23
0.0
 33
0.0
 16
1.0
 26
0.0
 36
0.0
 17
0.0
 27
1.0
 37
0.0
 76
0
330
203
345
0
346
0
  0
LAYOUT
  5
292
102
{ACAD_REACTORS
330
1A
102
}
100
AcDbPlotSettings
  1

  2
none_device
  4
ISO_A4_(297.00_x_210.00_MM)
  6

 40
0.0
 41
0.0
 42
0.0
 43
0.0
 44
297.0
 45
210.0
 46
0.0
 47
0.0
 48
0.0
 49
0.0
140
0.0
141
0.0
142
1.0
143
1.0
 70
0
 72
0
 73
0
 74
0
  7

 75
0
147
1.0
148
0.0
149
0.0
100
AcDbLayout
  1
Layout1
 70
0
 71
1
 10
0.0
 20
0.0
 11
11.6929133858
 21
8.2677165354
 12
0.0
 22
0.0
 32
0.0
 14
0.0
 24
0.0
 34
0.0
 15
0.0
 25
0.0
 35
0.0
146
0.0
 13
0.0
 23
0.0
 33
0.0
 16
1.0
 26
0.0
 36
0.0
 17
0.0
 27
1.0
 37
0.0
 76
0
330
204
345
0
346
0
  0
ENDSEC
  0
EOF
