  0
SECTION
  2
HEADER
  9
$ACADVER
  1
AC1021
  9
$DWGCODEPAGE
  3
ANSI_1252
  9
$EXTMAX
 10
11.6929133858
 20
8.2677165354
 30
0.0
  9
$EXTMIN
 10
0.0
 20
0.0
 30
0.0
  9
$LIMMIN
 10
0.0
 20
0.0
  9
$LIMMAX
 10
11.6929133858
 20
8.2677165354
  9
$VIEWCTR
 10
5.8464566929
 20
4.1338582677
  9
$VIEWSIZE
 40
8.2677165354
  9
$CLAYER
  8
0
  9
$LTSCALE
 40
0.6431102362
  9
$CELTYPE
  6
BYLAYER
  9
$DIMSCALE
 40
1.0
  9
$DIMASZ
 40
0.1875
  9
$DIMEXO
 40
0.0730807087
  9
$DIMDLI
 40
0.4443307087
  9
$DIMEXE
 40
0.2104724409
  9
$DIMCEN
 40
0.1052362205
  9
$DIMLFAC
 40
1.0
  9
$DIMBLK
  1
_CLOSED
  9
$DIMTXT
 40
0.15625
  9
$DIMTOL
 70
0
  9
$DIMLIM
 70
0
  9
$DIMTFAC
 40
1.0
  9
$PDMODE
 70
3
  9
$PDSIZE
 40
0.3125
  9
$HANDSEED
  5
229
  9
$TILEMODE
 70
1
  9
$MEASUREMENT
 70
0
  9
$INSUNITS
 70
1
  0
ENDSEC
  0
SECTION
  2
CLASSES
  0
CLASS
  1
ACDBDICTIONARYWDFLT
  2
AcDbDictionaryWithDefault
  3
AutoCAD 2000
 90
0
 91
1
280
0
281
0
  0
CLASS
  1
ACDBPLACEHOLDER
  2
AcDbPlaceHolder
  3
AutoCAD 2000
 90
0
 91
1
280
0
281
0
  0
CLASS
  1
LAYOUT
  2
AcDbLayout
  3
AutoCAD 2000
 90
0
 91
0
280
0
281
0
  0
ENDSEC
  0
SECTION
  2
TABLES
  0
TABLE
  2
VPORT
  5
8
100
AcDbSymbolTable
 70
2
  0
VPORT
  5
1F4
100
AcDbSymbolTableRecord
100
AcDbViewportTableRecord
  2
*ACTIVE
 70
0
 10
0.0
 20
0.0
 11
1.0
 21
1.0
 12
5.8464566929
 22
4.1338582677
 13
0.0
 23
0.0
 14
1.0
 24
1.0
 15
0.0
 25
0.0
 16
0.0
 26
0.0
 36
1.0
 17
0.0
 27
0.0
 37
0.0
 40
8.2677165354
 41
1.4142857143
 42
50.0
 43
0.0
 44
0.0
 50
0.0
 51
0.0
 71
0
 72
100
 73
1
 74
1
 75
0
 76
0
 77
0
 78
0
  0
ENDTAB
  0
TABLE
  2
LTYPE
  5
5
100
AcDbSymbolTable
 70
6
  0
LTYPE
  5
14
100
AcDbSymbolTableRecord
100
AcDbLinetypeTableRecord
  2
BYBLOCK
 70
0
  3

 72
65
 73
0
 40
0.0
  0
LTYPE
  5
15
100
AcDbSymbolTableRecord
100
AcDbLinetypeTableRecord
  2
BYLAYER
 70
0
  3

 72
65
 73
0
 40
0.0
  0
LTYPE
  5
16
100
AcDbSymbolTableRecord
100
AcDbLinetypeTableRecord
  2
CONTINUOUS
 70
64
  3
Solid line
 72
65
 73
0
 40
0.0
  0
LTYPE
  5
1F5
100
AcDbSymbolTableRecord
100
AcDbLinetypeTableRecord
  2
CENTER
 70
64
  3
____ _ ____ _ ____ _ ____ _ ____ _ ____ _ ____
 72
65
 73
4
 40
0.6
 49
0.375
 74
0
 49
-0.075
 74
0
 49
0.075
 74
0
 49
-0.075
 74
0
  0
LTYPE
  5
1F6
100
AcDbSymbolTableRecord
100
AcDbLinetypeTableRecord
  2
HIDDEN
 70
64
  3
- - - - - - - - - - - - - - - - - - - -
 72
65
 73
2
 40
0.2
 49
0.1
 74
0
 49
-0.1
 74
0
  0
LTYPE
  5
1F7
100
AcDbSymbolTableRecord
100
AcDbLinetypeTableRecord
  2
PHANTOM
 70
64
  3
_____ _ _ _____ _ _ _____ _ _ _____
 72
65
 73
6
 40
0.8
 49
0.45
 74
0
 49
-0.05
 74
0
 49
0.1
 74
0
 49
-0.05
 74
0
 49
0.1
 74
0
 49
-0.05
 74
0
  0
LTYPE
  5
1F8
100
AcDbSymbolTableRecord
100
AcDbLinetypeTableRecord
  2
DOT
 70
64
  3
. . . . . . . . . . . . . . . . . . . .
 72
65
 73
2
 40
0.2
 49
0.1
 74
0
 49
-0.1
 74
0
  0
LTYPE
  5
1F9
100
AcDbSymbolTableRecord
100
AcDbLinetypeTableRecord
  2
DASHED
 70
64
  3
- - - - - - - - - - - - - - - - - - - -
 72
65
 73
2
 40
0.2
 49
0.1
 74
0
 49
-0.1
 74
0
  0
ENDTAB
  0
TABLE
  2
LAYER
  5
2
100
AcDbSymbolTable
 70
36
  0
LAYER
  5
10
100
AcDbSymbolTableRecord
100
AcDbLayerTableRecord
  2
0
 70
0
 62
7
  6
CONTINUOUS
370
-3
390
F
  0
LAYER
  5
1FA
100
AcDbSymbolTableRecord
100
AcDbLayerTableRecord
  2
DEFAULT_1
 70
0
 62
7
  6
CENTER
370
-3
390
F
  0
LAYER
  5
1FB
100
AcDbSymbolTableRecord
100
AcDbLayerTableRecord
  2
DEFAULT_2
 70
0
 62
8
  6
HIDDEN
370
-3
390
F
  0
LAYER
  5
1FC
100
AcDbSymbolTableRecord
100
AcDbLayerTableRecord
  2
DEFAULT_3
 70
0
 62
7
  6
PHANTOM
370
-3
390
F
  0
LAYER
  5
1FD
100
AcDbSymbolTableRecord
100
AcDbLayerTableRecord
  2
DEFAULT_COORDINATE_SYSTEM
 70
0
 62
7
  6
CONTINUOUS
370
-3
390
F
  0
LAYER
  5
1FE
100
AcDbSymbolTableRecord
100
AcDbLayerTableRecord
  2
DEFAULT_DATUM_AXES
 70
0
 62
7
  6
CONTINUOUS
370
-3
390
F
  0
LAYER
  5
1FF
100
AcDbSymbolTableRecord
100
AcDbLayerTableRecord
  2
DEFAULT_DATUM_CURVES
 70
0
 62
7
  6
CONTINUOUS
370
-3
390
F
  0
LAYER
  5
200
100
AcDbSymbolTableRecord
100
AcDbLayerTableRecord
  2
DEFAULT_DATUM_PLANES
 70
0
 62
7
  6
CONTINUOUS
370
-3
390
F
  0
ENDTAB
  0
TABLE
  2
STYLE
  5
3
100
AcDbSymbolTable
 70
1
  0
STYLE
  5
11
100
AcDbSymbolTableRecord
100
AcDbTextStyleTableRecord
  2
STANDARD
 70
0
 40
0.0
 41
0.8
 50
0.0
 71
0
 42
0.2
  3
txt
  4

  0
STYLE
  5
201
100
AcDbSymbolTableRecord
100
AcDbTextStyleTableRecord
  2
TEXTSTYLE_1
 70
0
 40
0.0
 41
0.8
 50
0.0
 71
0
 42
0.2
  3
gdt
  4

  0
ENDTAB
  0
TABLE
  2
VIEW
  5
6
100
AcDbSymbolTable
 70
0
  0
ENDTAB
  0
TABLE
  2
UCS
  5
7
100
AcDbSymbolTable
 70
0
  0
ENDTAB
  0
TABLE
  2
APPID
  5
9
100
AcDbSymbolTable
 70
1
  0
APPID
  5
202
100
AcDbSymbolTableRecord
100
AcDbRegAppTableRecord
  2
ACAD
 70
0
  0
ENDTAB
  0
TABLE
  2
BLOCK_RECORD
  5
1
100
AcDbSymbolTable
 70
0
  0
BLOCK_RECORD
  5
203
100
AcDbSymbolTableRecord
100
AcDbBlockTableRecord
  2
*Model_Space
  0
BLOCK_RECORD
  5
204
100
AcDbSymbolTableRecord
100
AcDbBlockTableRecord
  2
*Paper_Space
  0
ENDTAB
  0
TABLE
  2
DIMSTYLE
  5
A
100
AcDbSymbolTable
 70
1
100
AcDbDimStyleTable
 71
0
  0
DIMSTYLE
105
205
100
AcDbSymbolTableRecord
100
AcDbDimStyleTableRecord
  2
STANDARD
 70
0
  3

  4

 40
1.0
 41
0.1875
 42
0.0625
 43
0.38
 44
0.18
 45
0.0
 46
0.0
 47
0.001
 48
0.001
140
0.15625
141
0.09
142
0.0
143
25.4
144
1.0
145
0.0
146
1.0
147
0.09
 71
0.0
 72
0.0
 73
1
 74
1
 75
0
 76
0
 77
0
 78
4
170
0
171
2
172
0
173
0
174
0
175
0
176
0
177
0
178
0
270
2
271
3
272
3
273
2
274
2
275
0
280
0
281
0
282
0
283
1
284
4
285
0
286
0
287
3
288
0
340
11
  0
ENDTAB
  0
ENDSEC
  0
SECTION
  2
BLOCKS
  0
BLOCK
  5
20
100
AcDbEntity
  8
0
100
AcDbBlockBegin
  2
*Model_Space
 70
0
 10
0.0
 20
0.0
 30
0.0
  3
*Model_Space
  1

  0
ENDBLK
  5
21
100
AcDbEntity
  8
0
100
AcDbBlockEnd
  0
BLOCK
  5
1C
100
AcDbEntity
  8
0
100
AcDbBlockBegin
  2
*Paper_Space
 70
0
 10
0.0
 20
0.0
 30
0.0
  3
*Paper_Space
  1

  0
ENDBLK
  5
1D
100
AcDbEntity
  8
0
100
AcDbBlockEnd
  0
ENDSEC
  0
SECTION
  2
ENTITIES
  0
LINE
  5
206
100
AcDbEntity
  8
0
100
AcDbLine
 62
6
  6
CONTINUOUS
 10
4.2262470269
 20
4.3788042028
 11
4.2262470269
 21
4.3771224913
  0
LINE
  5
207
100
AcDbEntity
  8
0
100
AcDbLine
 62
6
  6
CONTINUOUS
 10
4.3082472626
 20
3.8879633471
 11
4.3082472626
 21
4.8679633471
  0
LINE
  5
208
100
AcDbEntity
  8
0
100
AcDbLine
 62
6
  6
CONTINUOUS
 10
6.8445000198
 20
3.1904633471
 11
7.1512472626
 21
3.1904633471
  0
LINE
  5
209
100
AcDbEntity
  8
0
100
AcDbLine
 62
6
  6
CONTINUOUS
 10
4.9932472626
 20
3.8879633471
 11
4.9932472626
 21
4.8679633471
  0
LINE
  5
20A
100
AcDbEntity
  8
0
100
AcDbLine
 62
6
  6
CONTINUOUS
 10
4.9932472626
 20
3.8879633471
 11
4.3082472626
 21
3.8879633471
  0
LINE
  5
20B
100
AcDbEntity
  8
0
100
AcDbLine
 62
6
  6
CONTINUOUS
 10
5.6242472626
 20
3.8006130779
 11
6.0170554128
 21
3.7134216631
  0
LINE
  5
20C
100
AcDbEntity
  8
0
100
AcDbLine
 62
6
  6
CONTINUOUS
 10
5.6242472626
 20
3.9479633471
 11
5.5042472626
 21
3.9479633471
  0
LINE
  5
20D
100
AcDbEntity
  8
0
100
AcDbLine
 62
6
  6
CONTINUOUS
 10
5.5042472626
 20
4.0654633471
 11
4.9932472626
 21
4.0654633471
  0
LINE
  5
20E
100
AcDbEntity
  8
0
100
AcDbLine
 62
6
  6
CONTINUOUS
 10
5.6242472626
 20
4.0892882125
 11
6.0170554128
 21
4.0456925051
  0
LINE
  5
20F
100
AcDbEntity
  8
0
100
AcDbLine
 62
6
  6
CONTINUOUS
 10
5.5042472626
 20
3.9479633471
 11
5.5042472626
 21
4.8079633471
  0
LINE
  5
210
100
AcDbEntity
  8
0
100
AcDbLine
 62
6
  6
CONTINUOUS
 10
5.6242472626
 20
3.8006130779
 11
5.6242472626
 21
4.9553136162
  0
LINE
  5
211
100
AcDbEntity
  8
0
100
AcDbLine
 62
6
  6
CONTINUOUS
 10
6.8294791358
 20
5.5476749924
 11
6.8445000198
 21
5.5654633471
  0
LINE
  5
212
100
AcDbEntity
  8
0
100
AcDbLine
 62
6
  6
CONTINUOUS
 10
6.8294791358
 20
4.9628191697
 11
6.8445000198
 21
4.9717133471
  0
LINE
  5
213
100
AcDbEntity
  8
0
100
AcDbLine
 62
6
  6
CONTINUOUS
 10
6.8294791358
 20
3.7931075244
 11
6.8445000198
 21
3.7842133471
  0
LINE
  5
214
100
AcDbEntity
  8
0
100
AcDbLine
 62
6
  6
CONTINUOUS
 10
6.8294791358
 20
3.2082517017
 11
6.8445000198
 21
3.1904633471
  0
LINE
  5
215
100
AcDbEntity
  8
0
100
AcDbLine
 62
9
  6
CONTINUOUS
 10
6.0170554128
 20
3.7134216631
 11
6.0170554128
 21
5.0425050311
  0
LINE
  5
216
100
AcDbEntity
  8
0
100
AcDbLine
 62
6
  6
CONTINUOUS
 10
5.6242472626
 20
4.6666384817
 11
6.0170554128
 21
4.7102341891
  0
LINE
  5
217
100
AcDbEntity
  8
0
100
AcDbLine
 62
6
  6
CONTINUOUS
 10
5.5042472626
 20
4.6904633471
 11
4.9932472626
 21
4.6904633471
  0
LINE
  5
218
100
AcDbEntity
  8
0
100
AcDbLine
 62
6
  6
CONTINUOUS
 10
5.6242472626
 20
4.8079633471
 11
5.5042472626
 21
4.8079633471
  0
LINE
  5
219
100
AcDbEntity
  8
0
100
AcDbLine
 62
6
  6
CONTINUOUS
 10
4.9932472626
 20
4.8679633471
 11
4.3082472626
 21
4.8679633471
  0
LINE
  5
21A
100
AcDbEntity
  8
0
100
AcDbLine
 62
6
  6
CONTINUOUS
 10
5.6242472626
 20
4.9553136162
 11
6.0170554128
 21
5.0425050311
  0
LINE
  5
21B
100
AcDbEntity
  8
0
100
AcDbLine
 62
9
  6
CONTINUOUS
 10
6.8294791358
 20
3.2082517017
 11
6.8294791358
 21
5.5476749924
  0
LINE
  5
21C
100
AcDbEntity
  8
0
100
AcDbLine
 62
6
  6
CONTINUOUS
 10
7.1512472626
 20
5.5654633471
 11
6.8445000198
 21
5.5654633471
  0
LINE
  5
21D
100
AcDbEntity
  8
0
100
AcDbLine
 62
6
  6
CONTINUOUS
 10
7.1512472626
 20
5.5654608756
 11
7.1512472626
 21
3.1904643039
  0
ARC
  5
21E
100
AcDbEntity
  8
0
100
AcDbCircle
 62
6
  6
CONTINUOUS
 10
5.7262470269
 20
4.3771224913
 40
1.5
100
AcDbArc
 50
180.0
 51
199.0326009568
  0
ARC
  5
21F
100
AcDbEntity
  8
0
100
AcDbCircle
 62
6
  6
CONTINUOUS
 10
5.7262470269
 20
4.3788042028
 40
1.5
100
AcDbArc
 50
160.9673990432
 51
180.0
  0
SPLINE
  5
220
100
AcDbEntity
  8
0
100
AcDbSpline
 62
6
  6
CONTINUOUS
 70
0
 71
3
 72
34
 73
30
 74
28
 42
0.0000001
 43
0.0000001
 44
0.0000000001
 12
0.9506789601
 22
-0.2110216998
 32
0.0
 13
0.6282788098
 23
-0.7440338569
 33
0.0
 40
0.0
 40
0.0
 40
0.0
 40
0.0
 40
0.0624899407
 40
0.0937445364
 40
0.125000418
 40
0.1562546733
 40
0.1875067111
 40
0.2187574784
 40
0.2500076949
 40
0.2812578341
 40
0.3125082117
 40
0.3437590364
 40
0.3750102428
 40
0.4062614877
 40
0.4375122644
 40
0.4687627273
 40
0.5000132496
 40
0.5625112895
 40
0.6250088005
 40
0.687506125
 40
0.7187554227
 40
0.7500042016
 40
0.7812533148
 40
0.8125033679
 40
0.8437546981
 40
0.8750072843
 40
0.906260109
 40
0.9375115578
 40
1.0
 40
1.0
 40
1.0
 40
1.0
 10
6.0170554128
 20
3.7134216631
 30
0.0
 10
6.0368580368
 20
3.7090260852
 30
0.0
 10
6.0664225603
 20
3.701763928
 30
0.0
 10
6.105485009
 20
3.6907774378
 30
0.0
 10
6.1345980059
 20
3.6818901775
 30
0.0
 10
6.1635069164
 20
3.6723636064
 30
0.0
 10
6.1921984022
 20
3.6622057954
 30
0.0
 10
6.2206604307
 20
3.6514256043
 30
0.0
 10
6.2488815933
 20
3.6400314475
 30
0.0
 10
6.2768504703
 20
3.6280317176
 30
0.0
 10
6.304555822
 20
3.6154350809
 30
0.0
 10
6.3319871501
 20
3.6022516421
 30
0.0
 10
6.3591339487
 20
3.5884912896
 30
0.0
 10
6.3859858056
 20
3.5741639813
 30
0.0
 10
6.4125324269
 20
3.5592793465
 30
0.0
 10
6.4387647736
 20
3.5438478542
 30
0.0
 10
6.4733093619
 20
3.5225587854
 30
0.0
 10
6.5156650077
 20
3.4946319876
 30
0.0
 10
6.5650991888
 20
3.459104135
 30
0.0
 10
6.6050918739
 20
3.4278899366
 30
0.0
 10
6.6363351422
 20
3.401999909
 30
0.0
 10
6.6593881607
 20
3.3821324029
 30
0.0
 10
6.6820559807
 20
3.3618263752
 30
0.0
 10
6.7043339908
 20
3.3410922107
 30
0.0
 10
6.7262174542
 20
3.3199404595
 30
0.0
 10
6.7477013559
 20
3.2983818264
 30
0.0
 10
6.7687812057
 20
3.2764276821
 30
0.0
 10
6.7963394744
 20
3.2466474029
 30
0.0
 10
6.8163924145
 20
3.2237495406
 30
0.0
 10
6.8294791358
 20
3.2082517017
 30
0.0
 11
6.0170554128
 21
3.7134216631
 31
0.0
 11
6.0761536043
 21
3.69890998
 31
0.0
 11
6.1054532171
 21
3.6906698666
 31
0.0
 11
6.1345646259
 21
3.6817834222
 31
0.0
 11
6.163471622
 21
3.6722580777
 31
0.0
 11
6.1921607521
 21
3.6621018493
 31
0.0
 11
6.2206205488
 21
3.6513231747
 31
0.0
 11
6.2488395885
 21
3.6399305013
 31
0.0
 11
6.2768064487
 21
3.6279322779
 31
0.0
 11
6.3045099676
 21
3.6153373666
 31
0.0
 11
6.3319395752
 21
3.6021555653
 31
0.0
 11
6.3590847828
 21
3.5883968011
 31
0.0
 11
6.3859351015
 21
3.5740710011
 31
0.0
 11
6.4124801702
 21
3.5591881336
 31
0.0
 11
6.4387108878
 21
3.5437585755
 31
0.0
 11
6.4646188734
 21
3.5277929367
 31
0.0
 11
6.5154331586
 21
3.4942958684
 31
0.0
 11
6.5648587413
 21
3.4587825717
 31
0.0
 11
6.612839908
 21
3.421341044
 31
0.0
 11
6.6362720054
 21
3.4019248248
 31
0.0
 11
6.6593238493
 21
3.3820594151
 31
0.0
 11
6.6819906855
 21
3.3617553182
 31
0.0
 11
6.704267796
 21
3.3410230276
 31
0.0
 11
6.7261504629
 21
3.3198730368
 31
0.0
 11
6.7476339544
 21
3.2983159669
 31
0.0
 11
6.7687134405
 21
3.2763633572
 31
0.0
 11
6.7893840482
 21
3.2540271484
 31
0.0
 11
6.8294791358
 21
3.2082517017
 31
0.0
  0
SPLINE
  5
221
100
AcDbEntity
  8
0
100
AcDbSpline
 62
6
  6
CONTINUOUS
 70
0
 71
3
 72
34
 73
30
 74
28
 42
0.0000001
 43
0.0000001
 44
0.0000000001
 12
0.9506789601
 22
0.2110216998
 32
0.0
 13
0.6282788098
 23
0.7440338569
 33
0.0
 40
0.0
 40
0.0
 40
0.0
 40
0.0
 40
0.0624899407
 40
0.0937445364
 40
0.125000418
 40
0.1562546733
 40
0.1875067111
 40
0.2187574784
 40
0.2500076949
 40
0.2812578341
 40
0.3125082117
 40
0.3437590364
 40
0.3750102428
 40
0.4062614877
 40
0.4375122644
 40
0.4687627273
 40
0.5000132496
 40
0.5625112895
 40
0.6250088005
 40
0.687506125
 40
0.7187554227
 40
0.7500042016
 40
0.7812533148
 40
0.8125033679
 40
0.8437546981
 40
0.8750072843
 40
0.906260109
 40
0.9375115578
 40
1.0
 40
1.0
 40
1.0
 40
1.0
 10
6.0170554128
 20
5.0425050311
 30
0.0
 10
6.0368580368
 20
5.0469006089
 30
0.0
 10
6.0664225603
 20
5.0541627661
 30
0.0
 10
6.105485009
 20
5.0651492563
 30
0.0
 10
6.1345980059
 20
5.0740365166
 30
0.0
 10
6.1635069164
 20
5.0835630877
 30
0.0
 10
6.1921984022
 20
5.0937208987
 30
0.0
 10
6.2206604307
 20
5.1045010899
 30
0.0
 10
6.2488815933
 20
5.1158952466
 30
0.0
 10
6.2768504703
 20
5.1278949766
 30
0.0
 10
6.304555822
 20
5.1404916132
 30
0.0
 10
6.3319871501
 20
5.153675052
 30
0.0
 10
6.3591339487
 20
5.1674354046
 30
0.0
 10
6.3859858056
 20
5.1817627129
 30
0.0
 10
6.4125324269
 20
5.1966473476
 30
0.0
 10
6.4387647736
 20
5.2120788399
 30
0.0
 10
6.4733093619
 20
5.2333679087
 30
0.0
 10
6.5156650077
 20
5.2612947065
 30
0.0
 10
6.5650991888
 20
5.2968225591
 30
0.0
 10
6.6050918739
 20
5.3280367575
 30
0.0
 10
6.6363351422
 20
5.3539267851
 30
0.0
 10
6.6593881607
 20
5.3737942912
 30
0.0
 10
6.6820559807
 20
5.3941003189
 30
0.0
 10
6.7043339908
 20
5.4148344834
 30
0.0
 10
6.7262174542
 20
5.4359862346
 30
0.0
 10
6.7477013559
 20
5.4575448677
 30
0.0
 10
6.7687812057
 20
5.479499012
 30
0.0
 10
6.7963394744
 20
5.5092792912
 30
0.0
 10
6.8163924145
 20
5.5321771536
 30
0.0
 10
6.8294791358
 20
5.5476749924
 30
0.0
 11
6.0170554128
 21
5.0425050311
 31
0.0
 11
6.0761536043
 21
5.0570167141
 31
0.0
 11
6.1054532171
 21
5.0652568276
 31
0.0
 11
6.1345646259
 21
5.074143272
 31
0.0
 11
6.163471622
 21
5.0836686164
 31
0.0
 11
6.1921607521
 21
5.0938248449
 31
0.0
 11
6.2206205488
 21
5.1046035194
 31
0.0
 11
6.2488395885
 21
5.1159961928
 31
0.0
 11
6.2768064487
 21
5.1279944162
 31
0.0
 11
6.3045099676
 21
5.1405893276
 31
0.0
 11
6.3319395752
 21
5.1537711289
 31
0.0
 11
6.3590847828
 21
5.167529893
 31
0.0
 11
6.3859351015
 21
5.181855693
 31
0.0
 11
6.4124801702
 21
5.1967385605
 31
0.0
 11
6.4387108878
 21
5.2121681186
 31
0.0
 11
6.4646188734
 21
5.2281337575
 31
0.0
 11
6.5154331586
 21
5.2616308258
 31
0.0
 11
6.5648587413
 21
5.2971441224
 31
0.0
 11
6.612839908
 21
5.3345856502
 31
0.0
 11
6.6362720054
 21
5.3540018693
 31
0.0
 11
6.6593238493
 21
5.373867279
 31
0.0
 11
6.6819906855
 21
5.3941713759
 31
0.0
 11
6.704267796
 21
5.4149036665
 31
0.0
 11
6.7261504629
 21
5.4360536573
 31
0.0
 11
6.7476339544
 21
5.4576107272
 31
0.0
 11
6.7687134405
 21
5.4795633369
 31
0.0
 11
6.7893840482
 21
5.5018995457
 31
0.0
 11
6.8294791358
 21
5.5476749924
 31
0.0
  0
SPLINE
  5
222
100
AcDbEntity
  8
0
100
AcDbSpline
 62
6
  6
CONTINUOUS
 70
0
 71
3
 72
33
 73
29
 74
27
 42
0.0000001
 43
0.0000001
 44
0.0000000001
 12
0.8517348751
 22
-0.0945295671
 32
0.0
 13
0.7373918417
 23
-0.4366250202
 33
0.0
 40
0.0
 40
0.0
 40
0.0
 40
0.0
 40
0.0694800635
 40
0.1040064325
 40
0.1383702102
 40
0.1725568243
 40
0.2065548367
 40
0.2403550503
 40
0.2739483146
 40
0.3073254881
 40
0.340477691
 40
0.3733966059
 40
0.406073993
 40
0.4385016238
 40
0.4706714288
 40
0.502576714
 40
0.5342115663
 40
0.5966450954
 40
0.6579293644
 40
0.6881303087
 40
0.7180312535
 40
0.7769170538
 40
0.8058989502
 40
0.8345709072
 40
0.8909773973
 40
0.918710199
 40
0.9461263789
 40
1.0
 40
1.0
 40
1.0
 40
1.0
 10
6.0170554128
 20
4.0456925051
 30
0.0
 10
6.0367816105
 20
4.0435031983
 30
0.0
 10
6.0662738585
 20
4.0398838438
 30
0.0
 10
6.1054156025
 20
4.0343805609
 30
0.0
 10
6.1345237324
 20
4.0299385311
 30
0.0
 10
6.1634282703
 20
4.0251769021
 30
0.0
 10
6.1921156037
 20
4.0200997239
 30
0.0
 10
6.2205736445
 20
4.0147114373
 30
0.0
 10
6.2487909657
 20
4.009016249
 30
0.0
 10
6.2767562115
 20
4.0030183403
 30
0.0
 10
6.3044582777
 20
3.9967220053
 30
0.0
 10
6.3318864944
 20
3.990132327
 30
0.0
 10
6.3590303514
 20
3.983254248
 30
0.0
 10
6.3858794173
 20
3.9760927516
 30
0.0
 10
6.4124236112
 20
3.9686525845
 30
0.0
 10
6.4386537421
 20
3.9609390246
 30
0.0
 10
6.4730444767
 20
3.9503439653
 30
0.0
 10
6.5151988947
 20
3.9364579383
 30
0.0
 10
6.5565852084
 20
3.9215979389
 30
0.0
 10
6.5889748224
 20
3.9092162872
 30
0.0
 10
6.6205549436
 20
3.8966452353
 30
0.0
 10
6.6515511529
 20
3.8835563432
 30
0.0
 10
6.6819348315
 20
3.869950159
 30
0.0
 10
6.7114767652
 20
3.8562056549
 30
0.0
 10
6.7403957037
 20
3.8419749682
 30
0.0
 10
6.768661752
 20
3.8272588694
 30
0.0
 10
6.7960629276
 20
3.8124567154
 30
0.0
 10
6.8162371463
 20
3.8009483813
 30
0.0
 10
6.8294791358
 20
3.7931075244
 30
0.0
 11
6.0170554128
 21
4.0456925051
 31
0.0
 11
6.0761536043
 21
4.0384366635
 31
0.0
 11
6.1054532171
 21
4.0343166068
 31
0.0
 11
6.1345646259
 21
4.0298733846
 31
0.0
 11
6.163471622
 21
4.0251107124
 31
0.0
 11
6.1921607521
 21
4.0200325982
 31
0.0
 11
6.2206205488
 21
4.0146432609
 31
0.0
 11
6.2488395885
 21
4.0089469242
 31
0.0
 11
6.2768064487
 21
4.0029478125
 31
0.0
 11
6.3045099676
 21
3.9966503568
 31
0.0
 11
6.3319395752
 21
3.9900594562
 31
0.0
 11
6.3590847828
 21
3.9831800741
 31
0.0
 11
6.3859351015
 21
3.9760171741
 31
0.0
 11
6.4124801702
 21
3.9685757403
 31
0.0
 11
6.4387108878
 21
3.9608609613
 31
0.0
 11
6.4646188734
 21
3.9528781419
 31
0.0
 11
6.5154331586
 21
3.9361296077
 31
0.0
 11
6.5648587413
 21
3.9183729594
 31
0.0
 11
6.5890332525
 21
3.9091303274
 31
0.0
 11
6.612839908
 21
3.8996521955
 31
0.0
 11
6.6593238493
 21
3.8800113811
 31
0.0
 11
6.6819906855
 21
3.8698593327
 31
0.0
 11
6.704267796
 21
3.8594931874
 31
0.0
 11
6.7476339544
 21
3.838139657
 31
0.0
 11
6.7687134405
 21
3.8271633522
 31
0.0
 11
6.7893840482
 21
3.8159952477
 31
0.0
 11
6.8294791358
 21
3.7931075244
 31
0.0
  0
SPLINE
  5
223
100
AcDbEntity
  8
0
100
AcDbSpline
 62
6
  6
CONTINUOUS
 70
0
 71
3
 72
33
 73
29
 74
27
 42
0.0000001
 43
0.0000001
 44
0.0000000001
 12
0.8517348751
 22
0.0945295671
 32
0.0
 13
0.7373918417
 23
0.4366250202
 33
0.0
 40
0.0
 40
0.0
 40
0.0
 40
0.0
 40
0.0694800635
 40
0.1040064325
 40
0.1383702102
 40
0.1725568243
 40
0.2065548367
 40
0.2403550503
 40
0.2739483146
 40
0.3073254881
 40
0.340477691
 40
0.3733966059
 40
0.406073993
 40
0.4385016238
 40
0.4706714288
 40
0.502576714
 40
0.5342115663
 40
0.5966450954
 40
0.6579293644
 40
0.6881303087
 40
0.7180312535
 40
0.7769170538
 40
0.8058989502
 40
0.8345709072
 40
0.8909773973
 40
0.918710199
 40
0.9461263789
 40
1.0
 40
1.0
 40
1.0
 40
1.0
 10
6.0170554128
 20
4.7102341891
 30
0.0
 10
6.0367816105
 20
4.7124234958
 30
0.0
 10
6.0662738585
 20
4.7160428503
 30
0.0
 10
6.1054156025
 20
4.7215461332
 30
0.0
 10
6.1345237324
 20
4.725988163
 30
0.0
 10
6.1634282703
 20
4.730749792
 30
0.0
 10
6.1921156037
 20
4.7358269702
 30
0.0
 10
6.2205736445
 20
4.7412152569
 30
0.0
 10
6.2487909657
 20
4.7469104451
 30
0.0
 10
6.2767562115
 20
4.7529083538
 30
0.0
 10
6.3044582777
 20
4.7592046888
 30
0.0
 10
6.3318864944
 20
4.7657943671
 30
0.0
 10
6.3590303514
 20
4.7726724461
 30
0.0
 10
6.3858794173
 20
4.7798339426
 30
0.0
 10
6.4124236112
 20
4.7872741096
 30
0.0
 10
6.4386537421
 20
4.7949876695
 30
0.0
 10
6.4730444767
 20
4.8055827288
 30
0.0
 10
6.5151988947
 20
4.8194687559
 30
0.0
 10
6.5565852084
 20
4.8343287552
 30
0.0
 10
6.5889748224
 20
4.846710407
 30
0.0
 10
6.6205549436
 20
4.8592814588
 30
0.0
 10
6.6515511529
 20
4.8723703509
 30
0.0
 10
6.6819348315
 20
4.8859765351
 30
0.0
 10
6.7114767652
 20
4.8997210392
 30
0.0
 10
6.7403957037
 20
4.913951726
 30
0.0
 10
6.768661752
 20
4.9286678247
 30
0.0
 10
6.7960629276
 20
4.9434699787
 30
0.0
 10
6.8162371463
 20
4.9549783128
 30
0.0
 10
6.8294791358
 20
4.9628191697
 30
0.0
 11
6.0170554128
 21
4.7102341891
 31
0.0
 11
6.0761536043
 21
4.7174900306
 31
0.0
 11
6.1054532171
 21
4.7216100873
 31
0.0
 11
6.1345646259
 21
4.7260533095
 31
0.0
 11
6.163471622
 21
4.7308159817
 31
0.0
 11
6.1921607521
 21
4.735894096
 31
0.0
 11
6.2206205488
 21
4.7412834332
 31
0.0
 11
6.2488395885
 21
4.7469797699
 31
0.0
 11
6.2768064487
 21
4.7529788816
 31
0.0
 11
6.3045099676
 21
4.7592763373
 31
0.0
 11
6.3319395752
 21
4.765867238
 31
0.0
 11
6.3590847828
 21
4.7727466201
 31
0.0
 11
6.3859351015
 21
4.77990952
 31
0.0
 11
6.4124801702
 21
4.7873509538
 31
0.0
 11
6.4387108878
 21
4.7950657329
 31
0.0
 11
6.4646188734
 21
4.8030485523
 31
0.0
 11
6.5154331586
 21
4.8197970864
 31
0.0
 11
6.5648587413
 21
4.8375537348
 31
0.0
 11
6.5890332525
 21
4.8467963667
 31
0.0
 11
6.612839908
 21
4.8562744986
 31
0.0
 11
6.6593238493
 21
4.875915313
 31
0.0
 11
6.6819906855
 21
4.8860673615
 31
0.0
 11
6.704267796
 21
4.8964335068
 31
0.0
 11
6.7476339544
 21
4.9177870371
 31
0.0
 11
6.7687134405
 21
4.928763342
 31
0.0
 11
6.7893840482
 21
4.9399314464
 31
0.0
 11
6.8294791358
 21
4.9628191697
 31
0.0
  0
ELLIPSE
  5
224
100
AcDbEntity
  8
0
100
AcDbEllipse
 62
6
  6
CONTINUOUS
 10
5.8417484922
 20
4.3779633471
 30
0.0
 11
1.1162095399
 21
-1.1492470711
 31
0.0
 40
0.2678505055
 41
-0.2545090966
 42
0.7926884546
  0
ELLIPSE
  5
225
100
AcDbEntity
  8
0
100
AcDbEllipse
 62
6
  6
CONTINUOUS
 10
5.8417484922
 20
4.3779633471
 30
0.0
 11
0.0
 21
1.1875
 31
0.0
 40
0.9750549296
 41
-2.0943951024
 42
-1.0471975512
  0
ELLIPSE
  5
226
100
AcDbEntity
  8
0
100
AcDbEllipse
 62
6
  6
CONTINUOUS
 10
5.8417484922
 20
4.3779633471
 30
0.0
 11
1.1162095399
 21
1.1492470711
 31
0.0
 40
0.2678505055
 41
-0.7926884546
 42
0.2545090966
  0
ENDSEC
  0
SECTION
  2
OBJECTS
  0
DICTIONARY
  5
C
100
AcDbDictionary
280
0
281
1
  3
ACAD_GROUP
350
D
  3
ACAD_MLINESTYLE
350
17
  3
ACAD_LAYOUT
350
1A
  3
ACAD_PLOTSETTINGS
350
19
  3
ACAD_PLOTSTYLENAME
350
E
  0
DICTIONARY
  5
D
102
{ACAD_REACTORS
330
C
102
}
100
AcDbDictionary
280
0
281
1
  0
ACDBDICTIONARYWDFLT
  5
E
102
{ACAD_REACTORS
330
C
102
}
100
AcDbDictionary
281
1
  3
Normal
350
F
100
AcDbDictionaryWithDefault
340
F
  0
DICTIONARY
  5
17
102
{ACAD_REACTORS
330
C
102
}
100
AcDbDictionary
280
0
281
1
  3
Standard
350
18
  0
DICTIONARY
  5
19
102
{ACAD_REACTORS
330
C
102
}
100
AcDbDictionary
281
1
  0
DICTIONARY
  5
1A
102
{ACAD_REACTORS
330
C
102
}
100
AcDbDictionary
281
1
  3
Model
350
227
  3
Layout1
350
228
  0
ACDBPLACEHOLDER
  5
F
102
{ACAD_REACTORS
330
E
102
}
  0
MLINESTYLE
  5
18
102
{ACAD_REACTORS
330
17
102
}
100
AcDbMlineStyle
  2
STANDARD
 70
0
  3

 62
256
 51
90.0
 52
90.0
 71
2
 49
0.5
 62
256
  6
BYLAYER
 49
-0.5
 62
256
  6
BYLAYER
  0
LAYOUT
  5
227
102
{ACAD_REACTORS
330
1A
102
}
100
AcDbPlotSettings
  1

  2
none_device
  4
ISO_A4_(297.00_x_210.00_MM)
  6

 40
0.0
 41
0.0
 42
0.0
 43
0.0
 44
297.0
 45
210.0
 46
0.0
 47
0.0
 48
0.0
 49
0.0
140
0.0
141
0.0
142
1.0
143
1.0
 70
1024
 72
0
 73
0
 74
0
  7

 75
0
147
1.0
148
0.0
149
0.0
100
AcDbLayout
  1
Model
 70
0
 71
0
 10
0.0
 20
0.0
 11
11.6929133858
 21
8.2677165354
 12
0.0
 22
0.0
 32
0.0
 14
0.0
 24
0.0
 34
0.0
 15
0.0
 25
0.0
 35
0.0
146
0.0
 13
0.0
 23
0.0
 33
0.0
 16
1.0
 26
0.0
 36
0.0
 17
0.0
 27
1.0
 37
0.0
 76
0
330
203
345
0
346
0
  0
LAYOUT
  5
228
102
{ACAD_REACTORS
330
1A
102
}
100
AcDbPlotSettings
  1

  2
none_device
  4
ISO_A4_(297.00_x_210.00_MM)
  6

 40
0.0
 41
0.0
 42
0.0
 43
0.0
 44
297.0
 45
210.0
 46
0.0
 47
0.0
 48
0.0
 49
0.0
140
0.0
141
0.0
142
1.0
143
1.0
 70
0
 72
0
 73
0
 74
0
  7

 75
0
147
1.0
148
0.0
149
0.0
100
AcDbLayout
  1
Layout1
 70
0
 71
1
 10
0.0
 20
0.0
 11
11.6929133858
 21
8.2677165354
 12
0.0
 22
0.0
 32
0.0
 14
0.0
 24
0.0
 34
0.0
 15
0.0
 25
0.0
 35
0.0
146
0.0
 13
0.0
 23
0.0
 33
0.0
 16
1.0
 26
0.0
 36
0.0
 17
0.0
 27
1.0
 37
0.0
 76
0
330
204
345
0
346
0
  0
ENDSEC
  0
EOF
