  0
SECTION
  2
HEADER
  9
$ACADVER
  1
AC1021
  9
$DWGCODEPAGE
  3
ANSI_1252
  9
$EXTMAX
 10
11.6929133858
 20
8.2677165354
 30
0.0
  9
$EXTMIN
 10
0.0
 20
0.0
 30
0.0
  9
$LIMMIN
 10
0.0
 20
0.0
  9
$LIMMAX
 10
11.6929133858
 20
8.2677165354
  9
$VIEWCTR
 10
5.8464566929
 20
4.1338582677
  9
$VIEWSIZE
 40
8.2677165354
  9
$CLAYER
  8
0
  9
$LTSCALE
 40
0.6431102362
  9
$CELTYPE
  6
BYLAYER
  9
$DIMSCALE
 40
1.0
  9
$DIMASZ
 40
0.1875
  9
$DIMEXO
 40
0.0730807087
  9
$DIMDLI
 40
0.4443307087
  9
$DIMEXE
 40
0.2104724409
  9
$DIMCEN
 40
0.1052362205
  9
$DIMLFAC
 40
1.0
  9
$DIMBLK
  1
_CLOSED
  9
$DIMTXT
 40
0.15625
  9
$DIMTOL
 70
0
  9
$DIMLIM
 70
0
  9
$DIMTFAC
 40
1.0
  9
$PDMODE
 70
3
  9
$PDSIZE
 40
0.3125
  9
$HANDSEED
  5
27D
  9
$TILEMODE
 70
1
  9
$MEASUREMENT
 70
0
  9
$INSUNITS
 70
1
  0
ENDSEC
  0
SECTION
  2
CLASSES
  0
CLASS
  1
ACDBDICTIONARYWDFLT
  2
AcDbDictionaryWithDefault
  3
AutoCAD 2000
 90
0
 91
1
280
0
281
0
  0
CLASS
  1
ACDBPLACEHOLDER
  2
AcDbPlaceHolder
  3
AutoCAD 2000
 90
0
 91
1
280
0
281
0
  0
CLASS
  1
LAYOUT
  2
AcDbLayout
  3
AutoCAD 2000
 90
0
 91
0
280
0
281
0
  0
ENDSEC
  0
SECTION
  2
TABLES
  0
TABLE
  2
VPORT
  5
8
100
AcDbSymbolTable
 70
2
  0
VPORT
  5
1F4
100
AcDbSymbolTableRecord
100
AcDbViewportTableRecord
  2
*ACTIVE
 70
0
 10
0.0
 20
0.0
 11
1.0
 21
1.0
 12
5.8464566929
 22
4.1338582677
 13
0.0
 23
0.0
 14
1.0
 24
1.0
 15
0.0
 25
0.0
 16
0.0
 26
0.0
 36
1.0
 17
0.0
 27
0.0
 37
0.0
 40
8.2677165354
 41
1.4142857143
 42
50.0
 43
0.0
 44
0.0
 50
0.0
 51
0.0
 71
0
 72
100
 73
1
 74
1
 75
0
 76
0
 77
0
 78
0
  0
ENDTAB
  0
TABLE
  2
LTYPE
  5
5
100
AcDbSymbolTable
 70
6
  0
LTYPE
  5
14
100
AcDbSymbolTableRecord
100
AcDbLinetypeTableRecord
  2
BYBLOCK
 70
0
  3

 72
65
 73
0
 40
0.0
  0
LTYPE
  5
15
100
AcDbSymbolTableRecord
100
AcDbLinetypeTableRecord
  2
BYLAYER
 70
0
  3

 72
65
 73
0
 40
0.0
  0
LTYPE
  5
16
100
AcDbSymbolTableRecord
100
AcDbLinetypeTableRecord
  2
CONTINUOUS
 70
64
  3
Solid line
 72
65
 73
0
 40
0.0
  0
LTYPE
  5
1F5
100
AcDbSymbolTableRecord
100
AcDbLinetypeTableRecord
  2
CENTER
 70
64
  3
____ _ ____ _ ____ _ ____ _ ____ _ ____ _ ____
 72
65
 73
4
 40
0.6
 49
0.375
 74
0
 49
-0.075
 74
0
 49
0.075
 74
0
 49
-0.075
 74
0
  0
LTYPE
  5
1F6
100
AcDbSymbolTableRecord
100
AcDbLinetypeTableRecord
  2
HIDDEN
 70
64
  3
- - - - - - - - - - - - - - - - - - - -
 72
65
 73
2
 40
0.2
 49
0.1
 74
0
 49
-0.1
 74
0
  0
LTYPE
  5
1F7
100
AcDbSymbolTableRecord
100
AcDbLinetypeTableRecord
  2
PHANTOM
 70
64
  3
_____ _ _ _____ _ _ _____ _ _ _____
 72
65
 73
6
 40
0.8
 49
0.45
 74
0
 49
-0.05
 74
0
 49
0.1
 74
0
 49
-0.05
 74
0
 49
0.1
 74
0
 49
-0.05
 74
0
  0
LTYPE
  5
1F8
100
AcDbSymbolTableRecord
100
AcDbLinetypeTableRecord
  2
DOT
 70
64
  3
. . . . . . . . . . . . . . . . . . . .
 72
65
 73
2
 40
0.2
 49
0.1
 74
0
 49
-0.1
 74
0
  0
LTYPE
  5
1F9
100
AcDbSymbolTableRecord
100
AcDbLinetypeTableRecord
  2
DASHED
 70
64
  3
- - - - - - - - - - - - - - - - - - - -
 72
65
 73
2
 40
0.2
 49
0.1
 74
0
 49
-0.1
 74
0
  0
ENDTAB
  0
TABLE
  2
LAYER
  5
2
100
AcDbSymbolTable
 70
36
  0
LAYER
  5
10
100
AcDbSymbolTableRecord
100
AcDbLayerTableRecord
  2
0
 70
0
 62
7
  6
CONTINUOUS
370
-3
390
F
  0
LAYER
  5
1FA
100
AcDbSymbolTableRecord
100
AcDbLayerTableRecord
  2
DEFAULT_1
 70
0
 62
7
  6
CENTER
370
-3
390
F
  0
LAYER
  5
1FB
100
AcDbSymbolTableRecord
100
AcDbLayerTableRecord
  2
DEFAULT_2
 70
0
 62
8
  6
HIDDEN
370
-3
390
F
  0
LAYER
  5
1FC
100
AcDbSymbolTableRecord
100
AcDbLayerTableRecord
  2
DEFAULT_3
 70
0
 62
7
  6
PHANTOM
370
-3
390
F
  0
LAYER
  5
1FD
100
AcDbSymbolTableRecord
100
AcDbLayerTableRecord
  2
DEFAULT_COORDINATE_SYSTEM
 70
0
 62
7
  6
CONTINUOUS
370
-3
390
F
  0
LAYER
  5
1FE
100
AcDbSymbolTableRecord
100
AcDbLayerTableRecord
  2
DEFAULT_DATUM_AXES
 70
0
 62
7
  6
CONTINUOUS
370
-3
390
F
  0
LAYER
  5
1FF
100
AcDbSymbolTableRecord
100
AcDbLayerTableRecord
  2
DEFAULT_DATUM_CURVES
 70
0
 62
7
  6
CONTINUOUS
370
-3
390
F
  0
LAYER
  5
200
100
AcDbSymbolTableRecord
100
AcDbLayerTableRecord
  2
DEFAULT_DATUM_PLANES
 70
0
 62
7
  6
CONTINUOUS
370
-3
390
F
  0
ENDTAB
  0
TABLE
  2
STYLE
  5
3
100
AcDbSymbolTable
 70
1
  0
STYLE
  5
11
100
AcDbSymbolTableRecord
100
AcDbTextStyleTableRecord
  2
STANDARD
 70
0
 40
0.0
 41
0.8
 50
0.0
 71
0
 42
0.2
  3
txt
  4

  0
STYLE
  5
201
100
AcDbSymbolTableRecord
100
AcDbTextStyleTableRecord
  2
TEXTSTYLE_1
 70
0
 40
0.0
 41
0.8
 50
0.0
 71
0
 42
0.2
  3
gdt
  4

  0
ENDTAB
  0
TABLE
  2
VIEW
  5
6
100
AcDbSymbolTable
 70
0
  0
ENDTAB
  0
TABLE
  2
UCS
  5
7
100
AcDbSymbolTable
 70
0
  0
ENDTAB
  0
TABLE
  2
APPID
  5
9
100
AcDbSymbolTable
 70
1
  0
APPID
  5
202
100
AcDbSymbolTableRecord
100
AcDbRegAppTableRecord
  2
ACAD
 70
0
  0
ENDTAB
  0
TABLE
  2
BLOCK_RECORD
  5
1
100
AcDbSymbolTable
 70
0
  0
BLOCK_RECORD
  5
203
100
AcDbSymbolTableRecord
100
AcDbBlockTableRecord
  2
*Model_Space
  0
BLOCK_RECORD
  5
204
100
AcDbSymbolTableRecord
100
AcDbBlockTableRecord
  2
*Paper_Space
  0
ENDTAB
  0
TABLE
  2
DIMSTYLE
  5
A
100
AcDbSymbolTable
 70
1
100
AcDbDimStyleTable
 71
0
  0
DIMSTYLE
105
205
100
AcDbSymbolTableRecord
100
AcDbDimStyleTableRecord
  2
STANDARD
 70
0
  3

  4

 40
1.0
 41
0.1875
 42
0.0625
 43
0.38
 44
0.18
 45
0.0
 46
0.0
 47
0.001
 48
0.001
140
0.15625
141
0.09
142
0.0
143
25.4
144
1.0
145
0.0
146
1.0
147
0.09
 71
0.0
 72
0.0
 73
1
 74
1
 75
0
 76
0
 77
0
 78
4
170
0
171
2
172
0
173
0
174
0
175
0
176
0
177
0
178
0
270
2
271
3
272
3
273
2
274
2
275
0
280
0
281
0
282
0
283
1
284
4
285
0
286
0
287
3
288
0
340
11
  0
ENDTAB
  0
ENDSEC
  0
SECTION
  2
BLOCKS
  0
BLOCK
  5
20
100
AcDbEntity
  8
0
100
AcDbBlockBegin
  2
*Model_Space
 70
0
 10
0.0
 20
0.0
 30
0.0
  3
*Model_Space
  1

  0
ENDBLK
  5
21
100
AcDbEntity
  8
0
100
AcDbBlockEnd
  0
BLOCK
  5
1C
100
AcDbEntity
  8
0
100
AcDbBlockBegin
  2
*Paper_Space
 70
0
 10
0.0
 20
0.0
 30
0.0
  3
*Paper_Space
  1

  0
ENDBLK
  5
1D
100
AcDbEntity
  8
0
100
AcDbBlockEnd
  0
ENDSEC
  0
SECTION
  2
ENTITIES
  0
LINE
  5
206
100
AcDbEntity
  8
0
100
AcDbLine
 62
6
  6
CONTINUOUS
 10
1.2287376232
 20
5.9854614511
 11
1.2287376232
 21
5.832051594
  0
LINE
  5
207
100
AcDbEntity
  8
0
100
AcDbLine
 62
6
  6
CONTINUOUS
 10
1.9262376232
 20
3.8274614511
 11
1.9262376232
 21
3.1424614511
  0
LINE
  5
208
100
AcDbEntity
  8
0
100
AcDbLine
 62
6
  6
CONTINUOUS
 10
1.9162376232
 20
4.4584614511
 11
1.840727643
 21
4.8512696014
  0
LINE
  5
209
100
AcDbEntity
  8
0
100
AcDbLine
 62
6
  6
CONTINUOUS
 10
1.9862376232
 20
4.3384614511
 11
1.9862376232
 21
4.4584614511
  0
LINE
  5
20A
100
AcDbEntity
  8
0
100
AcDbLine
 62
6
  6
CONTINUOUS
 10
2.1037376232
 20
4.3384614511
 11
2.1037376232
 21
3.8274614511
  0
LINE
  5
20B
100
AcDbEntity
  8
0
100
AcDbLine
 62
6
  6
CONTINUOUS
 10
2.4162376232
 20
4.4584614511
 11
2.4162376232
 21
4.8512696014
  0
LINE
  5
20C
100
AcDbEntity
  8
0
100
AcDbLine
 62
6
  6
CONTINUOUS
 10
2.4162376232
 20
5.6636933244
 11
2.4162376232
 21
5.6787142084
  0
LINE
  5
20D
100
AcDbEntity
  8
0
100
AcDbLine
 62
6
  6
CONTINUOUS
 10
2.7287376232
 20
4.3384614511
 11
2.7287376232
 21
4.1984614511
  0
LINE
  5
20E
100
AcDbEntity
  8
0
100
AcDbLine
 62
6
  6
CONTINUOUS
 10
2.7287376232
 20
4.0084614511
 11
2.7287376232
 21
3.8274614511
  0
LINE
  5
20F
100
AcDbEntity
  8
0
100
AcDbLine
 62
6
  6
CONTINUOUS
 10
2.8462376232
 20
4.3384614511
 11
2.8462376232
 21
4.4584614511
  0
LINE
  5
210
100
AcDbEntity
  8
0
100
AcDbLine
 62
9
  6
CONTINUOUS
 10
2.8702376232
 20
3.227157187
 11
2.8702376232
 21
3.7437627694
  0
LINE
  5
211
100
AcDbEntity
  8
0
100
AcDbLine
 62
6
  6
CONTINUOUS
 10
2.9062376232
 20
3.8274614511
 11
2.9062376232
 21
3.8029614511
  0
LINE
  5
212
100
AcDbEntity
  8
0
100
AcDbLine
 62
6
  6
CONTINUOUS
 10
2.9062376232
 20
3.1679614511
 11
2.9062376232
 21
3.1424614511
  0
LINE
  5
213
100
AcDbEntity
  8
0
100
AcDbLine
 62
9
  6
CONTINUOUS
 10
2.9452376232
 20
3.1729614511
 11
2.9452376232
 21
3.7979614511
  0
LINE
  5
214
100
AcDbEntity
  8
0
100
AcDbLine
 62
9
  6
CONTINUOUS
 10
3.0178560609
 20
3.1417114511
 11
3.0178560609
 21
3.8292114511
  0
LINE
  5
215
100
AcDbEntity
  8
0
100
AcDbLine
 62
9
  6
CONTINUOUS
 10
3.0904744987
 20
3.1104614511
 11
3.0904744987
 21
3.8604614511
  0
LINE
  5
216
100
AcDbEntity
  8
0
100
AcDbLine
 62
6
  6
CONTINUOUS
 10
2.9162376232
 20
4.4584614511
 11
2.9917476034
 21
4.8512696014
  0
LINE
  5
217
100
AcDbEntity
  8
0
100
AcDbLine
 62
6
  6
CONTINUOUS
 10
3.4292376232
 20
5.6636933244
 11
3.6037529181
 21
5.833855323
  0
LINE
  5
218
100
AcDbEntity
  8
0
100
AcDbLine
 62
6
  6
CONTINUOUS
 10
1.4032376232
 20
5.6636933244
 11
1.2287223283
 21
5.833855323
  0
LINE
  5
219
100
AcDbEntity
  8
0
100
AcDbLine
 62
6
  6
CONTINUOUS
 10
3.6037376232
 20
5.9854614511
 11
3.6037376232
 21
5.832051594
  0
LWPOLYLINE
  5
21A
100
AcDbEntity
  8
0
100
AcDbPolyline
 62
6
  6
CONTINUOUS
 90
10
 70
0
 10
8.1943829715
 20
3.0718283643
 10
8.1977230142
 20
3.0719743532
 10
8.2017395053
 20
3.0725341394
 10
8.2057946185
 20
3.0735268694
 10
8.2098629505
 20
3.0749668581
 10
8.213906981
 20
3.0768641076
 10
8.2178591795
 20
3.0792061612
 10
8.2216271132
 20
3.0819398642
 10
8.2251571526
 20
3.0850049634
 10
8.2256042157
 20
3.0854614511
  0
LWPOLYLINE
  5
21B
100
AcDbEntity
  8
0
100
AcDbPolyline
 62
6
  6
CONTINUOUS
 90
25
 70
0
 10
8.3095881971
 20
3.0674864661
 10
8.3111772484
 20
3.0675360811
 10
8.3132673056
 20
3.0677503576
 10
8.3154037597
 20
3.0681428159
 10
8.3175468785
 20
3.0687145031
 10
8.3196588504
 20
3.069458358
 10
8.3217042911
 20
3.0703600871
 10
8.3236506345
 20
3.0713987882
 10
8.3254674018
 20
3.0725465168
 10
8.3271244554
 20
3.073766021
 10
8.3286007639
 20
3.0750161554
 10
8.3299009885
 20
3.0762710495
 10
8.3310414983
 20
3.077517424
 10
8.3320384203
 20
3.0787460856
 10
8.3329037855
 20
3.0799462537
 10
8.333648725
 20
3.0811076746
 10
8.3342863651
 20
3.082224951
 10
8.3348357834
 20
3.083305379
 10
8.3353104425
 20
3.0843512573
 10
8.3357201003
 20
3.0853623011
 10
8.3360714714
 20
3.0863339602
 10
8.3363678609
 20
3.0872522802
 10
8.3366141354
 20
3.0881060722
 10
8.3368168632
 20
3.0888903447
 10
8.3368855262
 20
3.0891857048
  0
LWPOLYLINE
  5
21C
100
AcDbEntity
  8
0
100
AcDbPolyline
 62
6
  6
CONTINUOUS
 90
6
 70
0
 10
7.7143694515
 20
3.0807770792
 10
7.7178788952
 20
3.0809313909
 10
7.7221034213
 20
3.0815223238
 10
7.726387628
 20
3.0825726254
 10
7.7307143887
 20
3.084103175
 10
7.7336177667
 20
3.0854614511
  0
LWPOLYLINE
  5
21D
100
AcDbEntity
  8
0
100
AcDbPolyline
 62
6
  6
CONTINUOUS
 90
7
 70
0
 10
4.353948446
 20
3.1035213691
 10
4.3574754297
 20
3.1036739644
 10
4.3617311921
 20
3.1042603313
 10
4.3660499439
 20
3.1053038528
 10
4.3704191453
 20
3.1068272741
 10
4.3748144162
 20
3.108853703
 10
4.3775827262
 20
3.1104614511
  0
LWPOLYLINE
  5
21E
100
AcDbEntity
  8
0
100
AcDbPolyline
 62
6
  6
CONTINUOUS
 90
5
 70
0
 10
4.8339463574
 20
3.1084551371
 10
4.8374819933
 20
3.1086077442
 10
4.841859438
 20
3.1092152941
 10
4.846349265
 20
3.1103183643
 10
4.8467507843
 20
3.1104614511
  0
LWPOLYLINE
  5
21F
100
AcDbEntity
  8
0
100
AcDbPolyline
 62
6
  6
CONTINUOUS
 90
9
 70
0
 10
3.8739503496
 20
3.0985876064
 10
3.8774537124
 20
3.0987388924
 10
3.8817068833
 20
3.0993251133
 10
3.886029536
 20
3.1003720433
 10
3.8903909864
 20
3.1018974936
 10
3.8947515293
 20
3.103913132
 10
3.8990450756
 20
3.1064078352
 10
3.9031801068
 20
3.1093285957
 10
3.9045328899
 20
3.1104614511
  0
LWPOLYLINE
  5
220
100
AcDbEntity
  8
0
100
AcDbPolyline
 62
6
  6
CONTINUOUS
 90
17
 70
0
 10
3.4433317383
 20
3.0931770264
 10
3.4454123572
 20
3.0932577681
 10
3.4479310693
 20
3.093568442
 10
3.4504157021
 20
3.0941020381
 10
3.4528311296
 20
3.0948409931
 10
3.4551446445
 20
3.0957615937
 10
3.4573244385
 20
3.0968333921
 10
3.4593445289
 20
3.0980212816
 10
3.461188416
 20
3.0992890713
 10
3.4628572842
 20
3.1006090756
 10
3.4643657243
 20
3.1019655696
 10
3.46572885
 20
3.1033473691
 10
3.4669621372
 20
3.1047474796
 10
3.4680818332
 20
3.1061636567
 10
3.4691036958
 20
3.1075971021
 10
3.4700334882
 20
3.1090369269
 10
3.4708716041
 20
3.1104614511
  0
LINE
  5
221
100
AcDbEntity
  8
0
100
AcDbLine
 62
6
  6
CONTINUOUS
 10
9.005078479
 20
3.0604612155
 11
9.0033967674
 21
3.0604612155
  0
LINE
  5
222
100
AcDbEntity
  8
0
100
AcDbLine
 62
6
  6
CONTINUOUS
 10
2.417078479
 20
3.0604612155
 11
2.4153967674
 21
3.0604612155
  0
LINE
  5
223
100
AcDbEntity
  8
0
100
AcDbLine
 62
6
  6
CONTINUOUS
 10
5.4102376232
 20
3.0854614511
 11
8.2834190595
 21
3.0854614511
  0
LINE
  5
224
100
AcDbEntity
  8
0
100
AcDbLine
 62
6
  6
CONTINUOUS
 10
5.4102376232
 20
3.1104614511
 11
3.0904744987
 21
3.1104614511
  0
LINE
  5
225
100
AcDbEntity
  8
0
100
AcDbLine
 62
6
  6
CONTINUOUS
 10
9.4942376232
 20
3.1424614511
 11
8.5142376232
 21
3.1424614511
  0
LINE
  5
226
100
AcDbEntity
  8
0
100
AcDbLine
 62
6
  6
CONTINUOUS
 10
1.9262376232
 20
3.1424614511
 11
2.9062376232
 21
3.1424614511
  0
LINE
  5
227
100
AcDbEntity
  8
0
100
AcDbLine
 62
6
  6
CONTINUOUS
 10
2.9452376232
 20
3.1729614511
 11
2.9030201264
 21
3.1729614511
  0
LINE
  5
228
100
AcDbEntity
  8
0
100
AcDbLine
 62
6
  6
CONTINUOUS
 10
8.4752376232
 20
3.1729614511
 11
8.5174550625
 21
3.1729614511
  0
LWPOLYLINE
  5
229
100
AcDbEntity
  8
0
100
AcDbPolyline
 62
6
  6
CONTINUOUS
 90
8
 70
0
 10
7.9543668464
 20
3.8945391348
 10
7.9509149111
 20
3.89438923
 10
7.9466949166
 20
3.8938028333
 10
7.9424169257
 20
3.8927567068
 10
7.9380971487
 20
3.8912299788
 10
7.9337640136
 20
3.8892026276
 10
7.9294608642
 20
3.8866637255
 10
7.9277943883
 20
3.8854614511
  0
LWPOLYLINE
  5
22A
100
AcDbEntity
  8
0
100
AcDbPolyline
 62
6
  6
CONTINUOUS
 90
3
 70
0
 10
7.4743724354
 20
3.8857525147
 10
7.4708952593
 20
3.8856015987
 10
7.4698862425
 20
3.8854614511
  0
LWPOLYLINE
  5
22B
100
AcDbEntity
  8
0
100
AcDbPolyline
 62
6
  6
CONTINUOUS
 90
6
 70
0
 10
4.593947464
 20
3.8649346501
 10
4.5904800673
 20
3.8647875023
 10
4.5862233391
 20
3.8642085082
 10
4.5819033451
 20
3.8631734153
 10
4.577531136
 20
3.861659122
 10
4.5749182646
 20
3.8604614511
  0
LWPOLYLINE
  5
22C
100
AcDbEntity
  8
0
100
AcDbPolyline
 62
6
  6
CONTINUOUS
 90
20
 70
0
 10
8.2919246857
 20
3.9027592292
 10
8.2903138122
 20
3.9027084065
 10
8.2881716587
 20
3.9024855362
 10
8.2859910856
 20
3.9020781818
 10
8.2838112718
 20
3.9014868789
 10
8.2816696918
 20
3.9007201614
 10
8.2796018567
 20
3.8997939143
 10
8.2776403019
 20
3.8987306514
 10
8.275815712
 20
3.897560252
 10
8.2741577864
 20
3.8963217978
 10
8.272687043
 20
3.8950583581
 10
8.271409154
 20
3.8938089495
 10
8.2703192433
 20
3.8926070834
 10
8.2694029812
 20
3.8914769768
 10
8.2686208217
 20
3.8904049718
 10
8.267931193
 20
3.8893575661
 10
8.2673068077
 20
3.8883051795
 10
8.266735194
 20
3.8872321827
 10
8.2662228097
 20
3.8861589025
 10
8.2659245185
 20
3.8854614511
  0
LINE
  5
22D
100
AcDbEntity
  8
0
100
AcDbLine
 62
6
  6
CONTINUOUS
 10
2.9452376232
 20
3.7979614511
 11
2.9030201597
 21
3.7979614511
  0
LINE
  5
22E
100
AcDbEntity
  8
0
100
AcDbLine
 62
6
  6
CONTINUOUS
 10
8.4752376232
 20
3.7979614511
 11
8.5174550906
 21
3.7979614511
  0
LINE
  5
22F
100
AcDbEntity
  8
0
100
AcDbLine
 62
6
  6
CONTINUOUS
 10
9.4942376232
 20
3.8274614511
 11
8.5142376232
 21
3.8274614511
  0
LINE
  5
230
100
AcDbEntity
  8
0
100
AcDbLine
 62
6
  6
CONTINUOUS
 10
1.9262376232
 20
3.8274614511
 11
2.9062376232
 21
3.8274614511
  0
LINE
  5
231
100
AcDbEntity
  8
0
100
AcDbLine
 62
6
  6
CONTINUOUS
 10
5.4102376232
 20
3.8604614511
 11
3.0904744987
 21
3.8604614511
  0
LINE
  5
232
100
AcDbEntity
  8
0
100
AcDbLine
 62
6
  6
CONTINUOUS
 10
5.4102376232
 20
3.8854614511
 11
8.3098781662
 21
3.8854614511
  0
LINE
  5
233
100
AcDbEntity
  8
0
100
AcDbLine
 62
6
  6
CONTINUOUS
 10
5.4102376232
 20
3.085472354
 11
5.4102376232
 21
3.8854505483
  0
LWPOLYLINE
  5
234
100
AcDbEntity
  8
0
100
AcDbPolyline
 62
6
  6
CONTINUOUS
 90
8
 70
0
 10
4.1139495172
 20
3.8698684144
 10
4.1104609668
 20
3.8697187544
 10
4.1061857471
 20
3.8691313071
 10
4.101847288
 20
3.8680815626
 10
4.0974581591
 20
3.8665463954
 10
4.0930432025
 20
3.8645022495
 10
4.0886433117
 20
3.8619337557
 10
4.0865800896
 20
3.8604614511
  0
LWPOLYLINE
  5
235
100
AcDbEntity
  8
0
100
AcDbPolyline
 62
6
  6
CONTINUOUS
 90
10
 70
0
 10
3.633951409
 20
3.8748021795
 10
3.6305003925
 20
3.8746550184
 10
3.6262599436
 20
3.8740752782
 10
3.6219509463
 20
3.8730368895
 10
3.6175875493
 20
3.8715157909
 10
3.6132017354
 20
3.8694909894
 10
3.6088833687
 20
3.8669800029
 10
3.6047245691
 20
3.8640356243
 10
3.6007703323
 20
3.8607115536
 10
3.6005148516
 20
3.8604614511
  0
LWPOLYLINE
  5
236
100
AcDbEntity
  8
0
100
AcDbPolyline
 62
6
  6
CONTINUOUS
 90
21
 70
0
 10
3.4176578434
 20
3.8783003473
 10
3.4160863804
 20
3.8782518874
 10
3.413962457
 20
3.8780344907
 10
3.411785985
 20
3.8776321882
 10
3.4096040278
 20
3.8770444529
 10
3.4074613639
 20
3.8762811291
 10
3.4053996812
 20
3.8753614164
 10
3.4034564697
 20
3.8743128088
 10
3.4016603825
 20
3.8731675582
 10
3.4000290173
 20
3.8719586371
 10
3.398572919
 20
3.8707198213
 10
3.3972928007
 20
3.8694811174
 10
3.3961828703
 20
3.8682686427
 10
3.3952308355
 20
3.8671018246
 10
3.3944076894
 20
3.8659748588
 10
3.3936840027
 20
3.8648696061
 10
3.3930389416
 20
3.8637686419
 10
3.3924618433
 20
3.8626649619
 10
3.3919547371
 20
3.8615772847
 10
3.3915182755
 20
3.8605275935
 10
3.3914937112
 20
3.8604614511
  0
LINE
  5
237
100
AcDbEntity
  8
0
100
AcDbLine
 62
6
  6
CONTINUOUS
 10
1.9862493437
 20
4.3384614511
 11
2.8462259026
 21
4.3384614511
  0
LINE
  5
238
100
AcDbEntity
  8
0
100
AcDbLine
 62
6
  6
CONTINUOUS
 10
8.5742493437
 20
4.3384614511
 11
9.4342259026
 21
4.3384614511
  0
LINE
  5
239
100
AcDbEntity
  8
0
100
AcDbLine
 62
6
  6
CONTINUOUS
 10
9.5042376232
 20
4.4584614511
 11
8.5042376232
 21
4.4584614511
  0
LINE
  5
23A
100
AcDbEntity
  8
0
100
AcDbLine
 62
6
  6
CONTINUOUS
 10
2.9162376232
 20
4.4584614511
 11
1.9162376232
 21
4.4584614511
  0
LWPOLYLINE
  5
23B
100
AcDbEntity
  8
0
100
AcDbPolyline
 62
6
  6
CONTINUOUS
 90
7
 70
0
 10
8.1699584361
 20
3.0795838329
 10
8.1737620974
 20
3.0773141532
 10
8.1780818903
 20
3.0752446565
 10
8.1824734026
 20
3.0736531131
 10
8.1868348768
 20
3.0725648495
 10
8.1910610539
 20
3.07197223
 10
8.1943831099
 20
3.0718283643
  0
LINE
  5
23C
100
AcDbEntity
  8
0
100
AcDbLine
 62
9
  6
CONTINUOUS
 10
9.5797476034
 20
4.8512696014
 11
8.428727643
 21
4.8512696014
  0
LINE
  5
23D
100
AcDbEntity
  8
0
100
AcDbLine
 62
9
  6
CONTINUOUS
 10
2.9917476034
 20
4.8512696014
 11
1.840727643
 21
4.8512696014
  0
LINE
  5
23E
100
AcDbEntity
  8
0
100
AcDbLine
 62
9
  6
CONTINUOUS
 10
8.1700963577
 20
3.079485894
 11
8.1697837453
 21
3.0796880725
  0
LINE
  5
23F
100
AcDbEntity
  8
0
100
AcDbLine
 62
6
  6
CONTINUOUS
 10
8.1697930966
 20
3.0797012413
 11
8.1700963577
 21
3.079485894
  0
LINE
  5
240
100
AcDbEntity
  8
0
100
AcDbLine
 62
9
  6
CONTINUOUS
 10
10.0172376232
 20
5.6636933244
 11
7.9912376232
 21
5.6636933244
  0
LINE
  5
241
100
AcDbEntity
  8
0
100
AcDbLine
 62
9
  6
CONTINUOUS
 10
3.4292376232
 20
5.6636933244
 11
1.4032376232
 21
5.6636933244
  0
LINE
  5
242
100
AcDbEntity
  8
0
100
AcDbLine
 62
6
  6
CONTINUOUS
 10
1.2287480257
 20
5.9854614511
 11
3.6037376232
 21
5.9854614511
  0
LINE
  5
243
100
AcDbEntity
  8
0
100
AcDbLine
 62
6
  6
CONTINUOUS
 10
7.8167480257
 20
5.9854614511
 11
10.1917376232
 21
5.9854614511
  0
LINE
  5
244
100
AcDbEntity
  8
0
100
AcDbLine
 62
6
  6
CONTINUOUS
 10
7.8167376232
 20
5.9854614511
 11
7.8167376232
 21
5.832051594
  0
LINE
  5
245
100
AcDbEntity
  8
0
100
AcDbLine
 62
6
  6
CONTINUOUS
 10
10.0172376232
 20
5.6636933244
 11
10.1917529181
 21
5.833855323
  0
LINE
  5
246
100
AcDbEntity
  8
0
100
AcDbLine
 62
6
  6
CONTINUOUS
 10
7.9912376232
 20
5.6636933244
 11
7.8167223283
 21
5.833855323
  0
LINE
  5
247
100
AcDbEntity
  8
0
100
AcDbLine
 62
9
  6
CONTINUOUS
 10
8.3925578947
 20
3.1292114511
 11
8.3925578947
 21
3.8417114511
  0
LINE
  5
248
100
AcDbEntity
  8
0
100
AcDbLine
 62
9
  6
CONTINUOUS
 10
8.4752376232
 20
3.1729614511
 11
8.4752376232
 21
3.7979614511
  0
LINE
  5
249
100
AcDbEntity
  8
0
100
AcDbLine
 62
6
  6
CONTINUOUS
 10
8.5142376232
 20
3.8274614511
 11
8.5142376232
 21
3.8029614511
  0
LINE
  5
24A
100
AcDbEntity
  8
0
100
AcDbLine
 62
6
  6
CONTINUOUS
 10
8.5142376232
 20
3.1679614511
 11
8.5142376232
 21
3.1424614511
  0
LINE
  5
24B
100
AcDbEntity
  8
0
100
AcDbLine
 62
9
  6
CONTINUOUS
 10
8.5502376232
 20
3.2271604873
 11
8.5502376232
 21
3.7437654146
  0
LINE
  5
24C
100
AcDbEntity
  8
0
100
AcDbLine
 62
6
  6
CONTINUOUS
 10
8.5742376232
 20
4.3384614511
 11
8.5742376232
 21
4.4584614511
  0
LINE
  5
24D
100
AcDbEntity
  8
0
100
AcDbLine
 62
6
  6
CONTINUOUS
 10
8.5042376232
 20
4.4584614511
 11
8.428727643
 21
4.8512696014
  0
LINE
  5
24E
100
AcDbEntity
  8
0
100
AcDbLine
 62
6
  6
CONTINUOUS
 10
8.6917376232
 20
4.3384614511
 11
8.6917376232
 21
4.1984614511
  0
LINE
  5
24F
100
AcDbEntity
  8
0
100
AcDbLine
 62
6
  6
CONTINUOUS
 10
8.6917376232
 20
4.0084614511
 11
8.6917376232
 21
3.8274614511
  0
LINE
  5
250
100
AcDbEntity
  8
0
100
AcDbLine
 62
6
  6
CONTINUOUS
 10
9.0042376232
 20
4.4584614511
 11
9.0042376232
 21
4.8512696014
  0
LINE
  5
251
100
AcDbEntity
  8
0
100
AcDbLine
 62
6
  6
CONTINUOUS
 10
9.0042376232
 20
5.6636933244
 11
9.0042376232
 21
5.6787142084
  0
LINE
  5
252
100
AcDbEntity
  8
0
100
AcDbLine
 62
6
  6
CONTINUOUS
 10
9.3167376232
 20
4.3384614511
 11
9.3167376232
 21
3.8274614511
  0
LINE
  5
253
100
AcDbEntity
  8
0
100
AcDbLine
 62
6
  6
CONTINUOUS
 10
9.4342376232
 20
4.3384614511
 11
9.4342376232
 21
4.4584614511
  0
LINE
  5
254
100
AcDbEntity
  8
0
100
AcDbLine
 62
6
  6
CONTINUOUS
 10
9.4942376232
 20
3.8274614511
 11
9.4942376232
 21
3.1424614511
  0
LINE
  5
255
100
AcDbEntity
  8
0
100
AcDbLine
 62
6
  6
CONTINUOUS
 10
9.5042376232
 20
4.4584614511
 11
9.5797476034
 21
4.8512696014
  0
LINE
  5
256
100
AcDbEntity
  8
0
100
AcDbLine
 62
6
  6
CONTINUOUS
 10
10.1917376232
 20
5.9854614511
 11
10.1917376232
 21
5.832051594
  0
ARC
  5
257
100
AcDbEntity
  8
0
100
AcDbCircle
 62
6
  6
CONTINUOUS
 10
11.0930410022
 20
4.5603674026
 40
1.541
100
AcDbArc
 50
134.2763891045
 51
169.1186996529
  0
ARC
  5
258
100
AcDbEntity
  8
0
100
AcDbCircle
 62
6
  6
CONTINUOUS
 10
6.9154342442
 20
4.5603674026
 40
1.541
100
AcDbArc
 50
10.8813003471
 51
45.7236108955
  0
ARC
  5
259
100
AcDbEntity
  8
0
100
AcDbCircle
 62
6
  6
CONTINUOUS
 10
4.5050410022
 20
4.5603674026
 40
1.541
100
AcDbArc
 50
134.2763891045
 51
169.1186996529
  0
ARC
  5
25A
100
AcDbEntity
  8
0
100
AcDbCircle
 62
6
  6
CONTINUOUS
 10
0.3274342442
 20
4.5603674026
 40
1.541
100
AcDbArc
 50
10.8813003471
 51
45.7236108955
  0
ARC
  5
25B
100
AcDbEntity
  8
0
100
AcDbCircle
 62
6
  6
CONTINUOUS
 10
9.0033967674
 20
4.5604612155
 40
1.5
100
AcDbArc
 50
250.9673990432
 51
270.0
  0
ARC
  5
25C
100
AcDbEntity
  8
0
100
AcDbCircle
 62
6
  6
CONTINUOUS
 10
9.005078479
 20
4.5604612155
 40
1.5
100
AcDbArc
 50
270.0
 51
289.0326009568
  0
ARC
  5
25D
100
AcDbEntity
  8
0
100
AcDbCircle
 62
6
  6
CONTINUOUS
 10
2.4153967674
 20
4.5604612155
 40
1.5
100
AcDbArc
 50
250.9673990432
 51
270.0
  0
ARC
  5
25E
100
AcDbEntity
  8
0
100
AcDbCircle
 62
6
  6
CONTINUOUS
 10
2.417078479
 20
4.5604612155
 40
1.5
100
AcDbArc
 50
270.0
 51
289.0326009568
  0
ARC
  5
25F
100
AcDbEntity
  8
0
100
AcDbCircle
 62
6
  6
CONTINUOUS
 10
8.2602652439
 20
4.0949349834
 40
0.4432981961
100
AcDbArc
 50
1.0172272157
 51
4.0515406012
  0
ARC
  5
260
100
AcDbEntity
  8
0
100
AcDbCircle
 62
6
  6
CONTINUOUS
 10
8.3168758698
 20
4.1034539173
 40
0.3862533121
100
AcDbArc
 50
355.2802818992
 51
3.3940338922
  0
ARC
  5
261
100
AcDbEntity
  8
0
100
AcDbCircle
 62
6
  6
CONTINUOUS
 10
3.1035993766
 20
4.1034539173
 40
0.3862533121
100
AcDbArc
 50
176.6059661106
 51
184.7197181036
  0
ARC
  5
262
100
AcDbEntity
  8
0
100
AcDbCircle
 62
6
  6
CONTINUOUS
 10
8.3996988398
 20
4.1035460154
 40
0.3037961571
100
AcDbArc
 50
353.9933446532
 51
359.8602201303
  0
ARC
  5
263
100
AcDbEntity
  8
0
100
AcDbCircle
 62
6
  6
CONTINUOUS
 10
8.4752376232
 20
3.8979614511
 40
0.1
100
AcDbArc
 50
214.2288663278
 51
270.0
  0
ARC
  5
264
100
AcDbEntity
  8
0
100
AcDbCircle
 62
6
  6
CONTINUOUS
 10
8.3098781662
 20
3.7854614511
 40
0.1
100
AcDbArc
 50
34.2288663278
 51
85.292246148
  0
ARC
  5
265
100
AcDbEntity
  8
0
100
AcDbCircle
 62
6
  6
CONTINUOUS
 10
8.4752376232
 20
3.0729614511
 40
0.1
100
AcDbArc
 50
90.0
 51
145.7711336722
  0
ARC
  5
266
100
AcDbEntity
  8
0
100
AcDbCircle
 62
6
  6
CONTINUOUS
 10
8.3098781662
 20
3.1854614511
 40
0.1
100
AcDbArc
 50
270.0
 51
325.7711336722
  0
ARC
  5
267
100
AcDbEntity
  8
0
100
AcDbCircle
 62
6
  6
CONTINUOUS
 10
2.9452376232
 20
3.8979614511
 40
0.1
100
AcDbArc
 50
270.0
 51
316.5674634422
  0
ARC
  5
268
100
AcDbEntity
  8
0
100
AcDbCircle
 62
6
  6
CONTINUOUS
 10
3.0904744987
 20
3.7604614511
 40
0.1
100
AcDbArc
 50
90.0
 51
136.5674634422
  0
ARC
  5
269
100
AcDbEntity
  8
0
100
AcDbCircle
 62
6
  6
CONTINUOUS
 10
2.9452376232
 20
3.0729614511
 40
0.1
100
AcDbArc
 50
43.4325365578
 51
90.0
  0
ARC
  5
26A
100
AcDbEntity
  8
0
100
AcDbCircle
 62
6
  6
CONTINUOUS
 10
3.0904744987
 20
3.2104614511
 40
0.1
100
AcDbArc
 50
223.4325365578
 51
270.0
  0
SPLINE
  5
26B
100
AcDbEntity
  8
0
100
AcDbSpline
 62
7
  6
CONTINUOUS
 70
0
 71
3
 72
89
 73
85
 74
83
 42
0.0000001
 43
0.0000001
 44
0.0000000001
 12
0.3736573291
 22
-0.5754861399
 32
0.0
 13
-0.3736552889
 23
-0.5754874643
 33
0.0
 40
0.0
 40
0.0
 40
0.0
 40
0.0
 40
0.0007109305
 40
0.0028320015
 40
0.0063456387
 40
0.0112289161
 40
0.0174406222
 40
0.0249356757
 40
0.0336648385
 40
0.043570572
 40
0.0489464202
 40
0.0545944894
 40
0.0666770526
 40
0.0797578161
 40
0.0937770145
 40
0.108677796
 40
0.1244050715
 40
0.1409055926
 40
0.1581307556
 40
0.1670005345
 40
0.1760341339
 40
0.1945713833
 40
0.2137024938
 40
0.2234789992
 40
0.2333900103
 40
0.2535969529
 40
0.2742885148
 40
0.2848062567
 40
0.2954332864
 40
0.3169962238
 40
0.3389434524
 40
0.3612433456
 40
0.3838544129
 40
0.3952641744
 40
0.4067370486
 40
0.4182674837
 40
0.4298481281
 40
0.4414717698
 40
0.4531315173
 40
0.4648208289
 40
0.476533316
 40
0.488261548
 40
0.4999976303
 40
0.5117336521
 40
0.5234617163
 40
0.5293203926
 40
0.5351741569
 40
0.5468635191
 40
0.5585235356
 40
0.5701474746
 40
0.5817282738
 40
0.5932585691
 40
0.6047311662
 40
0.6161410336
 40
0.6387527853
 40
0.6610527937
 40
0.6830002116
 40
0.7045636149
 40
0.7151907473
 40
0.7257085354
 40
0.7464004115
 40
0.7666077482
 40
0.7765189022
 40
0.7862955343
 40
0.8054269124
 40
0.8239644694
 40
0.8418680243
 40
0.8590934169
 40
0.8755941756
 40
0.891321682
 40
0.9062226355
 40
0.9202419828
 40
0.9333228667
 40
0.9454055138
 40
0.9510536127
 40
0.9564294832
 40
0.9663352453
 40
0.9750644234
 40
0.9825594733
 40
0.9887711473
 40
0.9936544078
 40
0.9971680382
 40
0.9992890841
 40
1.0
 40
1.0
 40
1.0
 40
1.0
 10
8.5142376232
 20
3.8029614511
 30
0.0
 10
8.5143261713
 20
3.8028250742
 30
0.0
 10
8.5146786523
 20
3.8022816518
 30
0.0
 10
8.515466568
 20
3.8010627888
 30
0.0
 10
8.5167698868
 20
3.7990407886
 30
0.0
 10
8.5185752643
 20
3.7962292883
 30
0.0
 10
8.5208620127
 20
3.7926447149
 30
0.0
 10
8.5236067588
 20
3.7883089814
 30
0.0
 10
8.5267826877
 20
3.7832463047
 30
0.0
 10
8.5296772746
 20
3.7785793857
 30
0.0
 10
8.532183243
 20
3.7745007502
 30
0.0
 10
8.534936104
 20
3.769989491
 30
0.0
 10
8.5385762501
 20
3.7639552726
 30
0.0
 10
8.5431470625
 20
3.7562467252
 30
0.0
 10
8.5479772006
 20
3.7479429284
 30
0.0
 10
8.553027664
 20
3.7390675143
 30
0.0
 10
8.5582594155
 20
3.7296429251
 30
0.0
 10
8.5636339572
 20
3.7196903684
 30
0.0
 10
8.5681512611
 20
3.7110582667
 30
0.0
 10
8.5718005486
 20
3.7039002686
 30
0.0
 10
8.5755304781
 20
3.696446795
 30
0.0
 10
8.5801969062
 20
3.6868379138
 30
0.0
 10
8.5847664549
 20
3.6769947659
 30
0.0
 10
8.5883899501
 20
3.6688892071
 30
0.0
 10
8.5920306887
 20
3.6605223201
 30
0.0
 10
8.596498744
 20
3.6497935296
 30
0.0
 10
8.6007687475
 20
3.6388350434
 30
0.0
 10
8.6040752145
 20
3.6298555301
 30
0.0
 10
8.6073303252
 20
3.62064562
 30
0.0
 10
8.6112154206
 20
3.6088869142
 30
0.0
 10
8.615511059
 20
3.5944585121
 30
0.0
 10
8.6194015241
 20
3.5796672377
 30
0.0
 10
8.6222485101
 20
3.5671012032
 30
0.0
 10
8.6242680337
 20
3.5568933533
 30
0.0
 10
8.6256485079
 20
3.549143983
 30
0.0
 10
8.6268834507
 20
3.5413305245
 30
0.0
 10
8.6279680507
 20
3.5334599472
 30
0.0
 10
8.628897018
 20
3.5255396851
 30
0.0
 10
8.6296651356
 20
3.5175772158
 30
0.0
 10
8.6302672549
 20
3.5095800653
 30
0.0
 10
8.6306978366
 20
3.501556145
 30
0.0
 10
8.6309563287
 20
3.4935141456
 30
0.0
 10
8.6310427089
 20
3.4854630695
 30
0.0
 10
8.6309568046
 20
3.4774120443
 30
0.0
 10
8.6307414555
 20
3.4707083217
 30
0.0
 10
8.6304827555
 20
3.4653532308
 30
0.0
 10
8.6301666522
 20
3.4600100884
 30
0.0
 10
8.629665011
 20
3.4533491447
 30
0.0
 10
8.6288970665
 20
3.4453865324
 30
0.0
 10
8.627968452
 20
3.4374660598
 30
0.0
 10
8.626884183
 20
3.4295953647
 30
0.0
 10
8.6256493122
 20
3.4217819524
 30
0.0
 10
8.6242685368
 20
3.4140327078
 30
0.0
 10
8.6222489747
 20
3.4038247486
 30
0.0
 10
8.6194022081
 20
3.3912584533
 30
0.0
 10
8.6155118628
 20
3.3764669101
 30
0.0
 10
8.6112161263
 20
3.3620383526
 30
0.0
 10
8.6073310223
 20
3.3502794687
 30
0.0
 10
8.604075967
 20
3.3410693899
 30
0.0
 10
8.6007695481
 20
3.3320897458
 30
0.0
 10
8.5964994422
 20
3.3211311128
 30
0.0
 10
8.5920312813
 20
3.3104021571
 30
0.0
 10
8.5883905933
 20
3.3020350822
 30
0.0
 10
8.5847670972
 20
3.2939293905
 30
0.0
 10
8.5801974512
 20
3.2840860981
 30
0.0
 10
8.5746446338
 20
3.272652188
 30
0.0
 10
8.5691096551
 20
3.2616960253
 30
0.0
 10
8.5636342849
 20
3.2512331358
 30
0.0
 10
8.558259654
 20
3.241280435
 30
0.0
 10
8.5530278634
 20
3.2318557027
 30
0.0
 10
8.5479773206
 20
3.2229801878
 30
0.0
 10
8.5431471371
 20
3.2146763008
 30
0.0
 10
8.5385762871
 20
3.2069676818
 30
0.0
 10
8.5349361103
 20
3.2009334194
 30
0.0
 10
8.532183232
 20
3.1964221344
 30
0.0
 10
8.5296772542
 20
3.1923434829
 30
0.0
 10
8.5267826609
 20
3.1876765501
 30
0.0
 10
8.5236067266
 20
3.1826138659
 30
0.0
 10
8.5208619783
 20
3.1782781394
 30
0.0
 10
8.5185752402
 20
3.1746935736
 30
0.0
 10
8.5167698694
 20
3.1718820842
 30
0.0
 10
8.5154665523
 20
3.1698600961
 30
0.0
 10
8.5146786435
 20
3.1686412413
 30
0.0
 10
8.514326169
 20
3.1680978255
 30
0.0
 10
8.5142376232
 20
3.1679614511
 30
0.0
 11
8.5142376232
 21
3.8029614511
 31
0.0
 11
8.5145030882
 21
3.8025522042
 31
0.0
 11
8.5152934558
 21
3.801330141
 31
0.0
 11
8.5165996844
 21
3.7993037784
 31
0.0
 11
8.51840986
 21
3.7964841612
 31
0.0
 11
8.5207022566
 21
3.7928909699
 31
0.0
 11
8.523453034
 21
3.7885457402
 31
0.0
 11
8.5266356357
 21
3.7834717383
 31
0.0
 11
8.5302180986
 21
3.7776956746
 31
0.0
 11
8.5321490897
 21
3.7745528439
 31
0.0
 11
8.5341677204
 21
3.7712446575
 31
0.0
 11
8.5384496842
 21
3.7641455969
 31
0.0
 11
8.5430271524
 21
3.7564252128
 31
0.0
 11
8.5478630274
 21
3.7481098576
 31
0.0
 11
8.5529188823
 21
3.7392232121
 31
0.0
 11
8.5581556925
 21
3.7297877555
 31
0.0
 11
8.5635339826
 21
3.719824902
 31
0.0
 11
8.5690127158
 21
3.7093523696
 31
0.0
 11
8.571776818
 21
3.703930259
 31
0.0
 11
8.5745505059
 21
3.6983870615
 31
0.0
 11
8.5801046676
 21
3.6869444461
 31
0.0
 11
8.585629838
 21
3.6750370354
 31
0.0
 11
8.5883672724
 21
3.668912828
 31
0.0
 11
8.5910802555
 21
3.6626769709
 31
0.0
 11
8.596407311
 21
3.6498761361
 31
0.0
 11
8.6015585898
 21
3.6366460699
 31
0.0
 11
8.6040518497
 21
3.6298736742
 31
0.0
 11
8.6064811807
 21
3.6229985011
 31
0.0
 11
8.6111184822
 21
3.6089485709
 31
0.0
 11
8.6154109277
 21
3.5945141632
 31
0.0
 11
8.6192988185
 21
3.5797152399
 31
0.0
 11
8.6227221855
 21
3.5645830251
 31
0.0
 11
8.6242409027
 21
3.5569029209
 31
0.0
 11
8.6256209858
 21
3.549152708
 31
0.0
 11
8.6268558667
 21
3.5413380496
 31
0.0
 11
8.6279402387
 21
3.5334663109
 31
0.0
 11
8.6288688867
 21
3.5255449804
 31
0.0
 11
8.6296365957
 21
3.5175815466
 31
0.0
 11
8.6302381506
 21
3.5095834983
 31
0.0
 11
8.630668918
 21
3.5015585107
 31
0.0
 11
8.6309275792
 21
3.4935153247
 31
0.0
 11
8.6310139883
 21
3.4854630578
 31
0.0
 11
8.6309280008
 21
3.4774108278
 31
0.0
 11
8.6306694719
 21
3.4693677528
 31
0.0
 11
8.6304754593
 21
3.4653524977
 31
0.0
 11
8.6302383089
 21
3.4613429357
 31
0.0
 11
8.6296365321
 21
3.4533448692
 31
0.0
 11
8.6288689666
 21
3.4453812362
 31
0.0
 11
8.6279406308
 21
3.4374596637
 31
0.0
 11
8.6268565432
 21
3.4295877785
 31
0.0
 11
8.6256217223
 21
3.4217732078
 31
0.0
 11
8.624241472
 21
3.4140232178
 31
0.0
 11
8.6227226991
 21
3.4063430506
 31
0.0
 11
8.6192994481
 21
3.391210328
 31
0.0
 11
8.6154116985
 21
3.3764112859
 31
0.0
 11
8.6111192229
 21
3.3619767517
 31
0.0
 11
8.6064818817
 21
3.3479264979
 31
0.0
 11
8.604052596
 21
3.3410512341
 31
0.0
 11
8.6015593811
 21
3.334278788
 31
0.0
 11
8.5964080166
 21
3.3210485239
 31
0.0
 11
8.5910808649
 21
3.3082474362
 31
0.0
 11
8.5883679068
 21
3.3020114612
 31
0.0
 11
8.5856304753
 21
3.2958871574
 31
0.0
 11
8.5801052127
 21
3.2839795871
 31
0.0
 11
8.5745509543
 21
3.272536784
 31
0.0
 11
8.5690131208
 21
3.2615712654
 31
0.0
 11
8.5635343043
 21
3.2510985988
 31
0.0
 11
8.5581559378
 21
3.2411356013
 31
0.0
 11
8.5529190669
 21
3.2316999971
 31
0.0
 11
8.5478631482
 21
3.2228132522
 31
0.0
 11
8.5430272235
 21
3.2144978077
 31
0.0
 11
8.5384497156
 21
3.206777351
 31
0.0
 11
8.53416772
 21
3.1996782424
 31
0.0
 11
8.5321490779
 21
3.1963700391
 31
0.0
 11
8.530218079
 21
3.1932271952
 31
0.0
 11
8.5266356069
 21
3.1874511142
 31
0.0
 11
8.5234529986
 21
3.1823771041
 31
0.0
 11
8.5207022201
 21
3.1780318779
 31
0.0
 11
8.5184098374
 21
3.1744387039
 31
0.0
 11
8.5165996671
 21
3.171619097
 31
0.0
 11
8.5152934386
 21
3.16959274
 31
0.0
 11
8.5145030815
 21
3.1683706904
 31
0.0
 11
8.5142376232
 21
3.1679614511
 31
0.0
  0
SPLINE
  5
26C
100
AcDbEntity
  8
0
100
AcDbSpline
 62
6
  6
CONTINUOUS
 70
0
 71
3
 72
27
 73
23
 74
21
 42
0.0000001
 43
0.0000001
 44
0.0000000001
 12
0.0166754088
 22
-0.0711573746
 32
0.0
 13
0.0043076372
 23
-0.0729580634
 33
0.0
 40
0.0
 40
0.0
 40
0.0
 40
0.0
 40
0.0052515597
 40
0.011767091
 40
0.0208323245
 40
0.0464565037
 40
0.0816123043
 40
0.1025674967
 40
0.1256659197
 40
0.1779231367
 40
0.2376379168
 40
0.304079156
 40
0.3765395369
 40
0.4543351103
 40
0.536834189
 40
0.6234270292
 40
0.6680867769
 40
0.7135694581
 40
0.7598113004
 40
0.8067480762
 40
0.9024196394
 40
1.0
 40
1.0
 40
1.0
 40
1.0
 10
8.6917376232
 20
4.1984614511
 30
0.0
 10
8.6917668138
 20
4.1983368887
 30
0.0
 10
8.6918319495
 20
4.1980577203
 30
0.0
 10
8.6919464589
 20
4.1975632962
 30
0.0
 10
8.6921717165
 20
4.1965850736
 30
0.0
 10
8.6925500045
 20
4.1949261046
 30
0.0
 10
8.692983489
 20
4.1929826421
 30
0.0
 10
8.6933954783
 20
4.1910974559
 30
0.0
 10
8.6938889024
 20
4.1888036257
 30
0.0
 10
8.694562189
 20
4.1855826577
 30
0.0
 10
8.6954140541
 20
4.1813204383
 30
0.0
 10
8.696314706
 20
4.1765662716
 30
0.0
 10
8.6972386891
 20
4.1713685203
 30
0.0
 10
8.6981611476
 20
4.1657735835
 30
0.0
 10
8.699059386
 20
4.1598262379
 30
0.0
 10
8.6997613158
 20
4.1546661863
 30
0.0
 10
8.7002923774
 20
4.1503934532
 30
0.0
 10
8.7006758338
 20
4.1470930633
 30
0.0
 10
8.7010380718
 20
4.1437344746
 30
0.0
 10
8.7014924715
 20
4.1391562082
 30
0.0
 10
8.7019946799
 20
4.133326086
 30
0.0
 10
8.7023155143
 20
4.1286287826
 30
0.0
 10
8.7024556279
 20
4.1262556913
 30
0.0
 11
8.6917376232
 21
4.1984614511
 31
0.0
 11
8.6918248622
 21
4.1980876863
 31
0.0
 11
8.6919323623
 21
4.1976237907
 31
0.0
 11
8.6920810727
 21
4.1969781623
 31
0.0
 11
8.6924971643
 21
4.1951522252
 31
0.0
 11
8.6930565498
 21
4.1926444914
 31
0.0
 11
8.6933835531
 21
4.1911482962
 31
0.0
 11
8.6937385338
 21
4.1894978894
 31
0.0
 11
8.6945198929
 21
4.1857594462
 31
0.0
 11
8.6953751525
 21
4.1814798069
 31
0.0
 11
8.6962788085
 21
4.1767087651
 31
0.0
 11
8.6972054319
 21
4.1714946872
 31
0.0
 11
8.698130237
 21
4.1658847044
 31
0.0
 11
8.6990302272
 21
4.1599227965
 31
0.0
 11
8.6998830782
 21
4.153651877
 31
0.0
 11
8.7002856286
 21
4.1504128327
 31
0.0
 11
8.7006692069
 21
4.1471109308
 31
0.0
 11
8.7010315231
 21
4.1437508177
 31
0.0
 11
8.7013703388
 21
4.1403372111
 31
0.0
 11
8.7019702893
 21
4.1333708298
 31
0.0
 11
8.7024556279
 21
4.1262556913
 31
0.0
  0
SPLINE
  5
26D
100
AcDbEntity
  8
0
100
AcDbSpline
 62
6
  6
CONTINUOUS
 70
0
 71
3
 72
18
 73
14
 74
12
 42
0.0000001
 43
0.0000001
 44
0.0000000001
 12
-0.0052338595
 22
-0.0639368801
 32
0.0
 13
-0.014566173
 23
-0.0624734507
 33
0.0
 40
0.0
 40
0.0
 40
0.0
 40
0.0
 40
0.0998571291
 40
0.1972906003
 40
0.2449302368
 40
0.2917634623
 40
0.3827695495
 40
0.4698288627
 40
0.5524303753
 40
0.6300019737
 40
0.7019526542
 40
0.9207282475
 40
1.0
 40
1.0
 40
1.0
 40
1.0
 10
8.7018276232
 20
4.0717555179
 30
0.0
 10
8.7016534105
 20
4.0696273335
 30
0.0
 10
8.7012749404
 20
4.0654253524
 30
0.0
 10
8.7007235017
 20
4.0602167656
 30
0.0
 10
8.7002449727
 20
4.0561410827
 30
0.0
 10
8.699753224
 20
4.0522054502
 30
0.0
 10
8.6991061348
 20
4.0474398739
 30
0.0
 10
8.6982816246
 20
4.0419270418
 30
0.0
 10
8.6974332464
 20
4.0367087111
 30
0.0
 10
8.6965795823
 20
4.0318189167
 30
0.0
 10
8.6951416385
 20
4.0240756908
 30
0.0
 10
8.693537709
 20
4.0163266185
 30
0.0
 10
8.6921225185
 20
4.0101122444
 30
0.0
 10
8.6917376232
 20
4.0084614511
 30
0.0
 11
8.7018276232
 21
4.0717555179
 31
0.0
 11
8.7012534568
 21
4.0653753922
 31
0.0
 11
8.7005955499
 21
4.0591596839
 31
0.0
 11
8.7002391739
 21
4.0561244156
 31
0.0
 11
8.6998667403
 21
4.0531432027
 31
0.0
 11
8.6990814844
 21
4.0473581461
 31
0.0
 11
8.6982555329
 21
4.0418346389
 31
0.0
 11
8.6974055019
 21
4.0366043136
 31
0.0
 11
8.6965497885
 21
4.0317021636
 31
0.0
 11
8.6957072175
 21
4.0271640291
 31
0.0
 11
8.6928666032
 21
4.013419889
 31
0.0
 11
8.6917376232
 21
4.0084614511
 31
0.0
  0
SPLINE
  5
26E
100
AcDbEntity
  8
0
100
AcDbSpline
 62
6
  6
CONTINUOUS
 70
0
 71
3
 72
22
 73
18
 74
16
 42
0.0000001
 43
0.0000001
 44
0.0000000001
 12
-0.0146230766
 22
0.0623764897
 32
0.0
 13
-0.005237523
 23
0.0638531413
 33
0.0
 40
0.0
 40
0.0
 40
0.0
 40
0.0
 40
0.0050856873
 40
0.0201818976
 40
0.0450423764
 40
0.0792704815
 40
0.1222989812
 40
0.1735381754
 40
0.2323363966
 40
0.298028023
 40
0.4475384285
 40
0.5301341918
 40
0.6172048467
 40
0.7082194725
 40
0.8026708096
 40
0.9000858351
 40
1.0
 40
1.0
 40
1.0
 40
1.0
 10
2.7287376232
 20
4.0084614511
 30
0.0
 10
2.7287128337
 20
4.0085671936
 30
0.0
 10
2.7286147876
 20
4.0089868953
 30
0.0
 10
2.7283983885
 20
4.0099241582
 30
0.0
 10
2.7280452351
 20
4.0114685776
 30
0.0
 10
2.7275671315
 20
4.0135963307
 30
0.0
 10
2.7269798255
 20
4.0162769001
 30
0.0
 10
2.7262999409
 20
4.0194742936
 30
0.0
 10
2.7255470766
 20
4.0231508936
 30
0.0
 10
2.7244227416
 20
4.0288934263
 30
0.0
 10
2.7232950864
 20
4.0351529806
 30
0.0
 10
2.7222010315
 20
4.0418810397
 30
0.0
 10
2.7213766708
 20
4.047386902
 30
0.0
 10
2.7205927453
 20
4.0531543109
 30
0.0
 10
2.7198653139
 20
4.0591517446
 30
0.0
 10
2.7192075475
 20
4.0653483881
 30
0.0
 10
2.718829017
 20
4.0695457068
 30
0.0
 10
2.7186545828
 20
4.0716723179
 30
0.0
 11
2.7287376232
 21
4.0084614511
 31
0.0
 11
2.7286634888
 21
4.008778733
 31
0.0
 11
2.7284455497
 21
4.0097210362
 31
0.0
 11
2.7280906507
 21
4.0112737441
 31
0.0
 11
2.7276100219
 21
4.0134133373
 31
0.0
 11
2.7270198841
 21
4.0161061627
 31
0.0
 11
2.7263372753
 21
4.0193171802
 31
0.0
 11
2.7255816313
 21
4.0230076737
 31
0.0
 11
2.7247730363
 21
4.0271379717
 31
0.0
 11
2.7230762695
 21
4.0365652633
 31
0.0
 11
2.7222270418
 21
4.0417883866
 31
0.0
 11
2.7214013153
 21
4.0473053419
 31
0.0
 11
2.7206162485
 21
4.0530833387
 31
0.0
 11
2.7198876832
 21
4.0590905884
 31
0.0
 11
2.7192293422
 21
4.0652969144
 31
0.0
 11
2.7186545828
 21
4.0716723179
 31
0.0
  0
SPLINE
  5
26F
100
AcDbEntity
  8
0
100
AcDbSpline
 62
6
  6
CONTINUOUS
 70
0
 71
3
 72
22
 73
18
 74
16
 42
0.0000001
 43
0.0000001
 44
0.0000000001
 12
0.0043192311
 22
0.0728912207
 32
0.0
 13
0.0166696066
 23
0.0710909058
 33
0.0
 40
0.0
 40
0.0
 40
0.0
 40
0.0
 40
0.0976428903
 40
0.1932930752
 40
0.2864519973
 40
0.3766004287
 40
0.5457006459
 40
0.6234920618
 40
0.695948597
 40
0.8220946561
 40
0.8743466375
 40
0.9183939375
 40
0.9535492113
 40
0.9791669907
 40
0.9882306082
 40
0.994746566
 40
1.0
 40
1.0
 40
1.0
 40
1.0
 10
2.7180236387
 20
4.1263210463
 30
0.0
 10
2.7181642194
 20
4.1286934828
 30
0.0
 10
2.7184852029
 20
4.1333875192
 30
0.0
 10
2.7190844902
 20
4.1403342087
 30
0.0
 10
2.7197853478
 20
4.1470880245
 30
0.0
 10
2.720809697
 20
4.1556044217
 30
0.0
 10
2.7219760877
 20
4.1637259466
 30
0.0
 10
2.7232411413
 20
4.1713953066
 30
0.0
 10
2.7244190866
 20
4.1780188665
 30
0.0
 10
2.7255847427
 20
4.1840127882
 30
0.0
 10
2.7266928474
 20
4.1893124707
 30
0.0
 10
2.7273705324
 20
4.1924394694
 30
0.0
 10
2.7279260781
 20
4.1949295574
 30
0.0
 10
2.7283039026
 20
4.196586842
 30
0.0
 10
2.7285288902
 20
4.1975640063
 30
0.0
 10
2.7286433161
 20
4.1980579962
 30
0.0
 10
2.7287084323
 20
4.1983369607
 30
0.0
 10
2.7287376232
 20
4.1984614511
 30
0.0
 11
2.7180236387
 21
4.1263210463
 31
0.0
 11
2.7185097956
 21
4.1334342461
 31
0.0
 11
2.7191100689
 21
4.140392691
 31
0.0
 11
2.7198115794
 21
4.1471588006
 31
0.0
 11
2.720597572
 21
4.1536942616
 31
0.0
 11
2.7223500668
 21
4.1659168045
 31
0.0
 11
2.7232743768
 21
4.1715213541
 31
0.0
 11
2.7242004456
 21
4.176730385
 31
0.0
 11
2.7259579666
 21
4.1857722273
 31
0.0
 11
2.7267386466
 21
4.1895068961
 31
0.0
 11
2.7274199179
 21
4.1926502084
 31
0.0
 11
2.7279788664
 21
4.1951556214
 31
0.0
 11
2.7283944295
 21
4.196979464
 31
0.0
 11
2.7285429686
 21
4.1976243965
 31
0.0
 11
2.7286503953
 21
4.1980878993
 31
0.0
 11
2.7287376232
 21
4.1984614511
 31
0.0
  0
SPLINE
  5
270
100
AcDbEntity
  8
0
100
AcDbSpline
 62
7
  6
CONTINUOUS
 70
0
 71
3
 72
90
 73
86
 74
84
 42
0.0000001
 43
0.0000001
 44
0.0000000001
 12
-0.3736603939
 22
0.5754848789
 32
0.0
 13
0.3736579277
 23
0.5754864798
 33
0.0
 40
0.0
 40
0.0
 40
0.0
 40
0.0
 40
0.0007109488
 40
0.0028320499
 40
0.0063456924
 40
0.0112289924
 40
0.0174407496
 40
0.0249358242
 40
0.0336650122
 40
0.0435707779
 40
0.0489466348
 40
0.0545947076
 40
0.0666772735
 40
0.079758038
 40
0.093777229
 40
0.1086779826
 40
0.1244052289
 40
0.1409057127
 40
0.1581308225
 40
0.1670005736
 40
0.1760341462
 40
0.194571338
 40
0.2137023826
 40
0.2234788519
 40
0.233389825
 40
0.2535966895
 40
0.2742881747
 40
0.2848058799
 40
0.2954328693
 40
0.3169957242
 40
0.3389429036
 40
0.3612427687
 40
0.3725125132
 40
0.3838546963
 40
0.3952644587
 40
0.4067373549
 40
0.4182678112
 40
0.429848472
 40
0.4414721281
 40
0.4531318919
 40
0.4648212256
 40
0.4765337422
 40
0.4882620076
 40
0.4999981255
 40
0.5117341833
 40
0.5234622821
 40
0.5293209745
 40
0.5351747532
 40
0.5468641364
 40
0.5585241685
 40
0.5701481227
 40
0.5817289412
 40
0.5932592638
 40
0.6047318818
 40
0.6161417444
 40
0.6387534527
 40
0.6610534386
 40
0.6830008038
 40
0.704564124
 40
0.7151912196
 40
0.7257089728
 40
0.7464007694
 40
0.7666080229
 40
0.7765191377
 40
0.7862957326
 40
0.8054270424
 40
0.823964538
 40
0.8418680341
 40
0.8590933714
 40
0.8755940894
 40
0.8913215617
 40
0.9062224837
 40
0.9202418187
 40
0.9333226984
 40
0.9454053438
 40
0.9510534439
 40
0.9564293203
 40
0.9663351069
 40
0.975064304
 40
0.9825593695
 40
0.9887710855
 40
0.9936543645
 40
0.9971679983
 40
0.999289069
 40
1.0
 40
1.0
 40
1.0
 40
1.0
 10
2.9062376232
 20
3.1679614511
 30
0.0
 10
2.906149072
 20
3.1680978312
 30
0.0
 10
2.9057965825
 20
3.168641262
 30
0.0
 10
2.9050086582
 20
3.1698601355
 30
0.0
 10
2.9037053368
 20
3.1718821525
 30
0.0
 10
2.9018999476
 20
3.1746936702
 30
0.0
 10
2.8996131796
 20
3.1782782614
 30
0.0
 10
2.8968684276
 20
3.182614023
 30
0.0
 10
2.8936924841
 20
3.1876767179
 30
0.0
 10
2.890797883
 20
3.1923436516
 30
0.0
 10
2.8882919115
 20
3.1964223023
 30
0.0
 10
2.8855390505
 20
3.200933571
 30
0.0
 10
2.8818988959
 20
3.2069677935
 30
0.0
 10
2.8773280805
 20
3.2146763474
 30
0.0
 10
2.872497951
 20
3.2229801501
 30
0.0
 10
2.8674474833
 20
3.2318555552
 30
0.0
 10
2.8622157448
 20
3.241280138
 30
0.0
 10
2.8568412157
 20
3.2512326817
 30
0.0
 10
2.8523239164
 20
3.259864765
 30
0.0
 10
2.8486746379
 20
3.2670227481
 30
0.0
 10
2.844944723
 20
3.2744762087
 30
0.0
 10
2.8402783066
 20
3.2840850678
 30
0.0
 10
2.8357087672
 20
3.2939281904
 30
0.0
 10
2.8320852818
 20
3.3020337272
 30
0.0
 10
2.8284445557
 20
3.3104005905
 30
0.0
 10
2.8239765153
 20
3.3211293508
 30
0.0
 10
2.8197065235
 20
3.3320878054
 30
0.0
 10
2.8164000608
 20
3.3410672927
 30
0.0
 10
2.8131449559
 20
3.3502771721
 30
0.0
 10
2.8092598618
 20
3.3620358737
 30
0.0
 10
2.8049642546
 20
3.3764641552
 30
0.0
 10
2.8017336595
 20
3.3887466519
 30
0.0
 10
2.7993768728
 20
3.3987451912
 30
0.0
 10
2.7977265365
 20
3.4063499714
 30
0.0
 10
2.7962072375
 20
3.4140293925
 30
0.0
 10
2.7948267778
 20
3.4217787647
 30
0.0
 10
2.7935918303
 20
3.4295922481
 30
0.0
 10
2.7925072195
 20
3.4374628417
 30
0.0
 10
2.7915782392
 20
3.4453831207
 30
0.0
 10
2.790810112
 20
3.4533456083
 30
0.0
 10
2.7902079932
 20
3.4613427817
 30
0.0
 10
2.7897774218
 20
3.4693667291
 30
0.0
 10
2.7895189356
 20
3.4774087584
 30
0.0
 10
2.7894325591
 20
3.4854598657
 30
0.0
 10
2.7895184628
 20
3.4935109223
 30
0.0
 10
2.7897338074
 20
3.5002146709
 30
0.0
 10
2.7899925003
 20
3.5055697817
 30
0.0
 10
2.7903085959
 20
3.5109129413
 30
0.0
 10
2.7908102406
 20
3.5175739025
 30
0.0
 10
2.7915781992
 20
3.5255365325
 30
0.0
 10
2.792506831
 20
3.5334570218
 30
0.0
 10
2.7935911136
 20
3.5413277363
 30
0.0
 10
2.794825983
 20
3.5491411715
 30
0.0
 10
2.7962067464
 20
3.5568904354
 30
0.0
 10
2.7982263117
 20
3.5670983972
 30
0.0
 10
2.8010730974
 20
3.5796646835
 30
0.0
 10
2.8049634502
 20
3.5944562105
 30
0.0
 10
2.809259179
 20
3.6088847464
 30
0.0
 10
2.8131442783
 20
3.6206436021
 30
0.0
 10
2.8163993319
 20
3.6298536531
 30
0.0
 10
2.8197057472
 20
3.6388332707
 30
0.0
 10
2.8239758403
 20
3.6497918714
 30
0.0
 10
2.8284439856
 20
3.6605207948
 30
0.0
 10
2.8320846637
 20
3.6688878431
 30
0.0
 10
2.835708151
 20
3.6769935111
 30
0.0
 10
2.8402777867
 20
3.6868367768
 30
0.0
 10
2.8458305874
 20
3.6982706596
 30
0.0
 10
2.8513655483
 20
3.7092267987
 30
0.0
 10
2.8568409119
 20
3.7196896635
 30
0.0
 10
2.8622155288
 20
3.7296423495
 30
0.0
 10
2.8674473073
 20
3.7390670718
 30
0.0
 10
2.8724978517
 20
3.7479425756
 30
0.0
 10
2.8773280261
 20
3.756246465
 30
0.0
 10
2.8818988778
 20
3.7639550876
 30
0.0
 10
2.8855390612
 20
3.7699893521
 30
0.0
 10
2.888291939
 20
3.7745006444
 30
0.0
 10
2.8907979188
 20
3.7785793081
 30
0.0
 10
2.8936925239
 20
3.7832462527
 30
0.0
 10
2.8968684702
 20
3.7883089515
 30
0.0
 10
2.899613223
 20
3.7926447014
 30
0.0
 10
2.9018999774
 20
3.7962292819
 30
0.0
 10
2.9037053581
 20
3.7990407858
 30
0.0
 10
2.9050086772
 20
3.8010627879
 30
0.0
 10
2.9057965933
 20
3.8022816513
 30
0.0
 10
2.9061490748
 20
3.8028250741
 30
0.0
 10
2.9062376232
 20
3.8029614511
 30
0.0
 11
2.9062376232
 21
3.1679614511
 31
0.0
 11
2.9059721495
 21
3.1683707079
 31
0.0
 11
2.9051817683
 21
3.1695927885
 31
0.0
 11
2.9038755399
 21
3.171619158
 31
0.0
 11
2.9020653549
 21
3.1744387912
 31
0.0
 11
2.8997729345
 21
3.1780320135
 31
0.0
 11
2.897022151
 21
3.1823772619
 31
0.0
 11
2.893839537
 21
3.1874512827
 31
0.0
 11
2.8902570574
 21
3.1932273691
 31
0.0
 11
2.8883260641
 21
3.1963702094
 31
0.0
 11
2.8863074329
 21
3.1996784024
 31
0.0
 11
2.8820254628
 21
3.20677747
 31
0.0
 11
2.8774479909
 21
3.2144978621
 31
0.0
 11
2.8726121192
 21
3.2228132232
 31
0.0
 11
2.8675562673
 21
3.2316998588
 31
0.0
 11
2.8623194664
 21
3.2411353086
 31
0.0
 11
2.8569411871
 21
3.2510981504
 31
0.0
 11
2.8514624642
 21
3.2615706588
 31
0.0
 11
2.8486983692
 21
3.2669927577
 31
0.0
 11
2.8459246907
 21
3.2725359456
 31
0.0
 11
2.8403705438
 21
3.2839785369
 31
0.0
 11
2.8348453861
 21
3.2958859165
 31
0.0
 11
2.8321079595
 21
3.3020101067
 31
0.0
 11
2.8293949855
 21
3.308245946
 31
0.0
 11
2.8240679478
 21
3.3210467436
 31
0.0
 11
2.8189166821
 21
3.3342767719
 31
0.0
 11
2.8164234255
 21
3.3410491489
 31
0.0
 11
2.8139940986
 21
3.347924301
 31
0.0
 11
2.8093568079
 21
3.361974189
 31
0.0
 11
2.8050643671
 21
3.3764085768
 31
0.0
 11
2.8011764677
 21
3.391207492
 31
0.0
 11
2.799402959
 21
3.3987341267
 31
0.0
 11
2.7977530913
 21
3.4063396948
 31
0.0
 11
2.7962343746
 21
3.4140198068
 31
0.0
 11
2.7948542968
 21
3.4217700431
 31
0.0
 11
2.7936194131
 21
3.4295847229
 31
0.0
 11
2.7925350311
 21
3.4374564787
 31
0.0
 11
2.7916063711
 21
3.445377825
 31
0.0
 11
2.7908386537
 21
3.4533412763
 31
0.0
 11
2.7902370993
 21
3.461339347
 31
0.0
 11
2.7898063397
 21
3.4693643625
 31
0.0
 11
2.7895476847
 21
3.4774075788
 31
0.0
 11
2.7894612789
 21
3.4854598773
 31
0.0
 11
2.7895472658
 21
3.4935121392
 31
0.0
 11
2.789805789
 21
3.5015552453
 31
0.0
 11
2.7899997965
 21
3.5055705153
 31
0.0
 11
2.7902369421
 21
3.5095800911
 31
0.0
 11
2.7908387213
 21
3.517578179
 31
0.0
 11
2.7916062997
 21
3.5255418286
 31
0.0
 11
2.7925346514
 21
3.5334634169
 31
0.0
 11
2.7936187506
 21
3.541335321
 31
0.0
 11
2.7948535715
 21
3.5491499179
 31
0.0
 11
2.7962338151
 21
3.5568999307
 31
0.0
 11
2.7977525891
 21
3.5645801015
 31
0.0
 11
2.8011758542
 21
3.5797128046
 31
0.0
 11
2.8050636143
 21
3.5945118419
 31
0.0
 11
2.8093560854
 21
3.6089463539
 31
0.0
 11
2.8139934183
 21
3.6229965642
 31
0.0
 11
2.8164227025
 21
3.6298718086
 31
0.0
 11
2.8189159152
 21
3.6366442368
 31
0.0
 11
2.8240672658
 21
3.6498744614
 31
0.0
 11
2.8293943995
 21
3.6626755082
 31
0.0
 11
2.8321073499
 21
3.6689114636
 31
0.0
 11
2.8348447746
 21
3.6750357492
 31
0.0
 11
2.8403700237
 21
3.686943287
 31
0.0
 11
2.8459242663
 21
3.6983860635
 31
0.0
 11
2.8514620838
 21
3.7093515572
 31
0.0
 11
2.8569408893
 21
3.7198241986
 31
0.0
 11
2.8623192442
 21
3.7297871822
 31
0.0
 11
2.8675561054
 21
3.7392227759
 31
0.0
 11
2.8726120197
 21
3.7481095089
 31
0.0
 11
2.8774479401
 21
3.7564249561
 31
0.0
 11
2.88202545
 21
3.7641454175
 31
0.0
 11
2.8863074503
 21
3.7712445306
 31
0.0
 11
2.8883260924
 21
3.7745527389
 31
0.0
 11
2.8902570928
 21
3.7776955905
 31
0.0
 11
2.8938395785
 21
3.78347169
 31
0.0
 11
2.897022197
 21
3.7885457153
 31
0.0
 11
2.8997729801
 21
3.7928909567
 31
0.0
 11
2.9020653828
 21
3.7964841566
 31
0.0
 11
2.903875561
 21
3.799303777
 31
0.0
 11
2.9051817892
 21
3.8013301396
 31
0.0
 11
2.9059721576
 21
3.8025522036
 31
0.0
 11
2.9062376232
 21
3.8029614511
 31
0.0
  0
LINE
  5
271
100
AcDbEntity
  8
0
100
AcDbLine
 62
6
  6
CONTINUOUS
 10
9.0042376232
 20
4.8512696014
 11
9.0042376232
 21
5.6636933244
  0
SPLINE
  5
272
100
AcDbEntity
  8
0
100
AcDbSpline
 62
9
  6
CONTINUOUS
 70
0
 71
3
 72
13
 73
9
 74
7
 42
0.0000001
 43
0.0000001
 44
0.0000000001
 12
-0.0160128081
 22
0.0
 32
0.0
 13
-0.0135279912
 23
0.008567583
 33
0.0
 40
0.0
 40
0.0
 40
0.0
 40
0.0
 40
0.1241498043
 40
0.2486706747
 40
0.3735748509
 40
0.4988044822
 40
0.7496009374
 40
1.0
 40
1.0
 40
1.0
 40
1.0
 10
8.1852376232
 20
3.0749366243
 30
0.0
 10
8.1845749609
 20
3.0749366243
 30
0.0
 10
8.1832471063
 20
3.0749897001
 30
0.0
 10
8.1812648712
 20
3.0752214661
 30
0.0
 10
8.1792992444
 20
3.0755990873
 30
0.0
 10
8.1767139833
 20
3.0762886936
 30
0.0
 10
8.1735793711
 20
3.0774821926
 30
0.0
 10
8.1712191161
 20
3.0787608602
 30
0.0
 10
8.170089984
 20
3.0794759651
 30
0.0
 11
8.1852376232
 21
3.0749366243
 31
0.0
 11
8.1832511757
 21
3.0750148454
 31
0.0
 11
8.1812706115
 21
3.0752453182
 31
0.0
 11
8.1793062898
 21
3.0756217575
 31
0.0
 11
8.1773685694
 21
3.0761378776
 31
0.0
 11
8.1736143691
 21
3.0775640188
 31
0.0
 11
8.170089984
 21
3.0794759651
 31
0.0
  0
LINE
  5
273
100
AcDbEntity
  8
0
100
AcDbLine
 62
6
  6
CONTINUOUS
 10
2.4162376232
 20
4.8512696014
 11
2.4162376232
 21
5.6636933244
  0
SPLINE
  5
274
100
AcDbEntity
  8
0
100
AcDbSpline
 62
9
  6
CONTINUOUS
 70
0
 71
3
 72
28
 73
24
 74
22
 42
0.0000001
 43
0.0000001
 44
0.0000000001
 12
-0.0400157463
 22
0.0
 32
0.0
 13
-0.0018109302
 23
0.0399747481
 33
0.0
 40
0.0
 40
0.0
 40
0.0
 40
0.0
 40
0.0663035081
 40
0.1327142335
 40
0.1659191659
 40
0.1990858823
 40
0.265176523
 40
0.2980522002
 40
0.3307677046
 40
0.3956145176
 40
0.459598781
 40
0.5226418772
 40
0.5538126856
 40
0.5847504529
 40
0.6154674601
 40
0.6459804636
 40
0.6763037187
 40
0.7064487998
 40
0.7662214124
 40
0.8253825756
 40
0.8839911701
 40
0.942136003
 40
1.0
 40
1.0
 40
1.0
 40
1.0
 10
3.4352376232
 20
3.1455816296
 30
0.0
 10
3.4343532284
 20
3.1455816296
 30
0.0
 10
3.4325821102
 20
3.1456639483
 30
0.0
 10
3.4303861715
 20
3.1459606562
 30
0.0
 10
3.4286489858
 20
3.146308098
 30
0.0
 10
3.4269318887
 20
3.1467261598
 30
0.0
 10
3.4252459578
 20
3.1472477601
 30
0.0
 10
3.4236021824
 20
3.1478678012
 30
0.0
 10
3.4220000349
 20
3.1485472399
 30
0.0
 10
3.4200688944
 20
3.1495092966
 30
0.0
 10
3.4178807551
 20
3.1508427044
 30
0.0
 10
3.4161817607
 20
3.1520997722
 30
0.0
 10
3.4149141847
 20
3.1531868938
 30
0.0
 10
3.4140148908
 20
3.1540387474
 30
0.0
 10
3.4131664818
 20
3.1549292322
 30
0.0
 10
3.4123714792
 20
3.1558569391
 30
0.0
 10
3.4116306865
 20
3.1568188962
 30
0.0
 10
3.4107193952
 20
3.1581394104
 30
0.0
 10
3.4097188633
 20
3.1598624164
 30
0.0
 10
3.4087483412
 20
3.1620272167
 30
0.0
 10
3.4080185454
 20
3.1642621064
 30
0.0
 10
3.4075379055
 20
3.1665455626
 30
0.0
 10
3.4073842135
 20
3.1680888773
 30
0.0
 10
3.4073492843
 20
3.1688599102
 30
0.0
 11
3.4352376232
 21
3.1455816296
 31
0.0
 11
3.4325871968
 21
3.1457025717
 31
0.0
 11
3.4299534244
 21
3.1460567117
 31
0.0
 11
3.4286504799
 21
3.1463171594
 31
0.0
 11
3.4273609347
 21
3.1466310206
 31
0.0
 11
3.4248343563
 21
3.147412469
 31
0.0
 11
3.4236034803
 21
3.1478767988
 31
0.0
 11
3.4223983048
 21
3.1483880593
 31
0.0
 11
3.4200765372
 21
3.1495468811
 31
0.0
 11
3.4178914342
 21
3.1508813701
 31
0.0
 11
3.4158652527
 21
3.152384263
 31
0.0
 11
3.4149187128
 21
3.1531965913
 31
0.0
 11
3.4140202495
 21
3.1540482969
 31
0.0
 11
3.4131726409
 21
3.1549384675
 31
0.0
 11
3.4123781148
 21
3.1558655979
 31
0.0
 11
3.4116378026
 21
3.1568270011
 31
0.0
 11
3.4109527052
 21
3.1578198495
 31
0.0
 11
3.4097521594
 21
3.1598885727
 31
0.0
 11
3.4087844862
 21
3.1620491484
 31
0.0
 11
3.4080576942
 21
3.1642789576
 31
0.0
 11
3.4075787397
 21
3.1665558364
 31
0.0
 11
3.4073492843
 21
3.1688599102
 31
0.0
  0
SPLINE
  5
275
100
AcDbEntity
  8
0
100
AcDbSpline
 62
9
  6
CONTINUOUS
 70
0
 71
3
 72
27
 73
23
 74
21
 42
0.0000001
 43
0.0000001
 44
0.0000000001
 12
0.0019106131
 22
-0.0419170354
 32
0.0
 13
-0.0419605564
 23
-0.0
 33
0.0
 40
0.0
 40
0.0
 40
0.0
 40
0.0
 40
0.0580019134
 40
0.1161338711
 40
0.1453299127
 40
0.1746425548
 40
0.2040889678
 40
0.2336788225
 40
0.2932994268
 40
0.3535928786
 40
0.4146388792
 40
0.4454902364
 40
0.4765765109
 40
0.5394780668
 40
0.6033877578
 40
0.6682410959
 40
0.7009914559
 40
0.7339246038
 40
0.8001897451
 40
0.8667762811
 40
0.9334409663
 40
1.0
 40
1.0
 40
1.0
 40
1.0
 10
3.4631256911
 20
3.1708067359
 30
0.0
 10
3.4631626308
 20
3.1699963131
 30
0.0
 10
3.4631444038
 20
3.1683680348
 30
0.0
 10
3.462890499
 20
3.1663466554
 30
0.0
 10
3.462549982
 20
3.1647503814
 30
0.0
 10
3.4622250037
 20
3.1635631597
 30
0.0
 10
3.4618317398
 20
3.1623909747
 30
0.0
 10
3.4612165678
 20
3.1608487997
 30
0.0
 10
3.460280714
 20
3.1589736036
 30
0.0
 10
3.4589063669
 20
3.1568424364
 30
0.0
 10
3.4575606625
 20
3.1551869965
 30
0.0
 10
3.4563684163
 20
3.1539460349
 30
0.0
 10
3.4550922764
 20
3.1527531757
 30
0.0
 10
3.4533632891
 20
3.151372607
 30
0.0
 10
3.4511138171
 20
3.1499075529
 30
0.0
 10
3.4491138429
 20
3.1488501664
 30
0.0
 10
3.4474473548
 20
3.1481031339
 30
0.0
 10
3.4457321523
 20
3.1474205511
 30
0.0
 10
3.4435245124
 20
3.1467013475
 30
0.0
 10
3.4408035303
 20
3.1460664106
 30
0.0
 10
3.4380330535
 20
3.145672852
 30
0.0
 10
3.4361685745
 20
3.1455816296
 30
0.0
 10
3.4352376232
 20
3.1455816296
 30
0.0
 11
3.4631256911
 21
3.1708067359
 31
0.0
 11
3.4630983601
 21
3.1683730968
 31
0.0
 11
3.4627945818
 21
3.1659528373
 31
0.0
 11
3.4625390249
 21
3.1647547067
 31
0.0
 11
3.4622144366
 21
3.163568334
 31
0.0
 11
3.4618216094
 21
3.1623968544
 31
0.0
 11
3.4613617079
 21
3.1612435644
 31
0.0
 11
3.4602453516
 21
3.1590047432
 31
0.0
 11
3.4588747086
 21
3.1568782512
 31
0.0
 11
3.4572591193
 21
3.1548904692
 31
0.0
 11
3.456362581
 21
3.1539566313
 31
0.0
 11
3.4554100179
 21
3.1530655219
 31
0.0
 11
3.4533497906
 21
3.15141573
 31
0.0
 11
3.451104394
 21
3.1499495668
 31
0.0
 11
3.4486997862
 21
3.1486755032
 31
0.0
 11
3.4474458901
 21
3.148113156
 31
0.0
 11
3.4461619664
 21
3.1476021093
 31
0.0
 11
3.4435181628
 21
3.1467409436
 31
0.0
 11
3.4407970214
 21
3.146107011
 31
0.0
 11
3.4380272666
 21
3.1457155076
 31
0.0
 11
3.4352376232
 21
3.1455816296
 31
0.0
  0
SPLINE
  5
276
100
AcDbEntity
  8
0
100
AcDbSpline
 62
9
  6
CONTINUOUS
 70
0
 71
3
 72
43
 73
39
 74
37
 42
0.0000001
 43
0.0000001
 44
0.0000000001
 12
0.0628183942
 22
-0.0363979052
 32
0.0
 13
-0.0726013647
 23
0.0
 33
0.0
 40
0.0
 40
0.0
 40
0.0
 40
0.0
 40
0.0313765344
 40
0.062675283
 40
0.0939000551
 40
0.1250717692
 40
0.1406536445
 40
0.1562390001
 40
0.1718310066
 40
0.1874308794
 40
0.2186469286
 40
0.2498845871
 40
0.2811242421
 40
0.3123414544
 40
0.3435198754
 40
0.3746728419
 40
0.4058160155
 40
0.4369625675
 40
0.4681265452
 40
0.48372376
 40
0.4993316504
 40
0.5305637085
 40
0.5618051994
 40
0.5930335568
 40
0.624233707
 40
0.6554032329
 40
0.6865629714
 40
0.7177584736
 40
0.7490203081
 40
0.7803599807
 40
0.8117740139
 40
0.827507564
 40
0.8432528292
 40
0.8747445887
 40
0.9061992439
 40
0.9375729051
 40
0.9688401517
 40
1.0
 40
1.0
 40
1.0
 40
1.0
 10
8.1993898015
 20
3.1266236591
 30
0.0
 10
8.2000468094
 20
3.1262429791
 30
0.0
 10
8.2013306062
 20
3.1254318752
 30
0.0
 10
8.2031525092
 20
3.124069871
 30
0.0
 10
8.2048551636
 20
3.1225686358
 30
0.0
 10
8.2061634963
 20
3.1212052511
 30
0.0
 10
8.2071356261
 20
3.1200510623
 30
0.0
 10
8.2078261001
 20
3.1191540698
 30
0.0
 10
8.2084773898
 20
3.118227719
 30
0.0
 10
8.209292792
 20
3.1169560029
 30
0.0
 10
8.2102111691
 20
3.1153026181
 30
0.0
 10
8.2111461716
 20
3.1132342457
 30
0.0
 10
8.2119098231
 20
3.1110965969
 30
0.0
 10
8.2124972503
 20
3.1089054503
 30
0.0
 10
8.212903609
 20
3.1066757577
 30
0.0
 10
8.2131285246
 20
3.1044223933
 30
0.0
 10
8.213172021
 20
3.1021590173
 30
0.0
 10
8.2130341225
 20
3.099899228
 30
0.0
 10
8.21276802
 20
3.098030442
 30
0.0
 10
8.2124646321
 20
3.0965515169
 30
0.0
 10
8.2121007177
 20
3.0950846137
 30
0.0
 10
8.2115340779
 20
3.0932796002
 30
0.0
 10
8.2106806464
 20
3.0911760539
 30
0.0
 10
8.2096583154
 20
3.0891499194
 30
0.0
 10
8.2084719134
 20
3.0872172392
 30
0.0
 10
8.2071260592
 20
3.0853938095
 30
0.0
 10
8.2056253742
 20
3.0836956964
 30
0.0
 10
8.2039848216
 20
3.0821294156
 30
0.0
 10
8.2022183222
 20
3.0806999725
 30
0.0
 10
8.2003397329
 20
3.0794123757
 30
0.0
 10
8.1986927996
 20
3.0784620511
 30
0.0
 10
8.1973329802
 20
3.0777776297
 30
0.0
 10
8.1959465437
 20
3.0771443322
 30
0.0
 10
8.1941702031
 20
3.0764522692
 30
0.0
 10
8.1919834945
 20
3.075789771
 30
0.0
 10
8.1897560769
 20
3.0753043382
 30
0.0
 10
8.1875032622
 20
3.0750053843
 30
0.0
 10
8.1859917057
 20
3.0749366243
 30
0.0
 10
8.1852376232
 20
3.0749366243
 30
0.0
 11
8.1993898015
 21
3.1266236591
 31
0.0
 11
8.2013152237
 21
3.1254063101
 31
0.0
 11
8.2031346681
 21
3.1240450187
 31
0.0
 11
8.2048343439
 21
3.1225449471
 31
0.0
 11
8.2064004603
 21
3.1209112575
 31
0.0
 11
8.2071291241
 21
3.1200459192
 31
0.0
 11
8.2078194312
 21
3.1191493651
 31
0.0
 11
8.2084705966
 21
3.1182234008
 31
0.0
 11
8.209082
 21
3.1172700355
 31
0.0
 11
8.2101830393
 21
3.1152891383
 31
0.0
 11
8.2111175865
 21
3.1132227461
 31
0.0
 11
8.2118806791
 21
3.1110869319
 31
0.0
 11
8.2124673544
 21
3.1088977684
 31
0.0
 11
8.2128735007
 21
3.1066709071
 31
0.0
 11
8.2130983144
 21
3.10442036
 31
0.0
 11
8.2131417955
 21
3.1021597412
 31
0.0
 11
8.213003944
 21
3.0999026647
 31
0.0
 11
8.2126847598
 21
3.0976627447
 31
0.0
 11
8.212457168
 21
3.0965534727
 31
0.0
 11
8.2121843534
 21
3.0954536498
 31
0.0
 11
8.2115052469
 21
3.0932902438
 31
0.0
 11
8.2106523061
 21
3.0911885518
 31
0.0
 11
8.2096304935
 21
3.0891646467
 31
0.0
 11
8.2084447715
 21
3.0872346016
 31
0.0
 11
8.2071001025
 21
3.0854144893
 31
0.0
 11
8.2056029308
 21
3.0837185516
 31
0.0
 11
8.203965586
 21
3.0821537564
 31
0.0
 11
8.2022018588
 21
3.0807252656
 31
0.0
 11
8.2003255399
 21
3.0794382415
 31
0.0
 11
8.1983504201
 21
3.078297846
 31
0.0
 11
8.1973301194
 21
3.0777842472
 31
0.0
 11
8.1962903185
 21
3.0773093208
 31
0.0
 11
8.1941597472
 21
3.0764798402
 31
0.0
 11
8.1919739327
 21
3.0758185714
 31
0.0
 11
8.1897481343
 21
3.0753347733
 31
0.0
 11
8.1874976114
 21
3.0750377047
 31
0.0
 11
8.1852376232
 21
3.0749366243
 31
0.0
  0
ELLIPSE
  5
277
100
AcDbEntity
  8
0
100
AcDbEllipse
 62
6
  6
CONTINUOUS
 10
9.0042376232
 20
4.6759626807
 30
0.0
 11
1.0411369379
 21
0.9898582626
 31
0.0
 40
0.5769821704
 41
0.021858488
 42
1.0690560392
  0
ELLIPSE
  5
278
100
AcDbEntity
  8
0
100
AcDbEllipse
 62
6
  6
CONTINUOUS
 10
9.0042376232
 20
4.6759626807
 30
0.0
 11
-1.0411369379
 21
0.9898582626
 31
0.0
 40
0.5769821704
 41
-1.0690560392
 42
-0.021858488
  0
ELLIPSE
  5
279
100
AcDbEntity
  8
0
100
AcDbEllipse
 62
6
  6
CONTINUOUS
 10
2.4162376232
 20
4.6759626807
 30
0.0
 11
1.0411369379
 21
0.9898582626
 31
0.0
 40
0.5769821704
 41
0.021858488
 42
1.0690560392
  0
ELLIPSE
  5
27A
100
AcDbEntity
  8
0
100
AcDbEllipse
 62
6
  6
CONTINUOUS
 10
2.4162376232
 20
4.6759626807
 30
0.0
 11
-1.0411369379
 21
0.9898582626
 31
0.0
 40
0.5769821704
 41
-1.0690560392
 42
-0.021858488
  0
ENDSEC
  0
SECTION
  2
OBJECTS
  0
DICTIONARY
  5
C
100
AcDbDictionary
280
0
281
1
  3
ACAD_GROUP
350
D
  3
ACAD_MLINESTYLE
350
17
  3
ACAD_LAYOUT
350
1A
  3
ACAD_PLOTSETTINGS
350
19
  3
ACAD_PLOTSTYLENAME
350
E
  0
DICTIONARY
  5
D
102
{ACAD_REACTORS
330
C
102
}
100
AcDbDictionary
280
0
281
1
  0
ACDBDICTIONARYWDFLT
  5
E
102
{ACAD_REACTORS
330
C
102
}
100
AcDbDictionary
281
1
  3
Normal
350
F
100
AcDbDictionaryWithDefault
340
F
  0
DICTIONARY
  5
17
102
{ACAD_REACTORS
330
C
102
}
100
AcDbDictionary
280
0
281
1
  3
Standard
350
18
  0
DICTIONARY
  5
19
102
{ACAD_REACTORS
330
C
102
}
100
AcDbDictionary
281
1
  0
DICTIONARY
  5
1A
102
{ACAD_REACTORS
330
C
102
}
100
AcDbDictionary
281
1
  3
Model
350
27B
  3
Layout1
350
27C
  0
ACDBPLACEHOLDER
  5
F
102
{ACAD_REACTORS
330
E
102
}
  0
MLINESTYLE
  5
18
102
{ACAD_REACTORS
330
17
102
}
100
AcDbMlineStyle
  2
STANDARD
 70
0
  3

 62
256
 51
90.0
 52
90.0
 71
2
 49
0.5
 62
256
  6
BYLAYER
 49
-0.5
 62
256
  6
BYLAYER
  0
LAYOUT
  5
27B
102
{ACAD_REACTORS
330
1A
102
}
100
AcDbPlotSettings
  1

  2
none_device
  4
ISO_A4_(297.00_x_210.00_MM)
  6

 40
0.0
 41
0.0
 42
0.0
 43
0.0
 44
297.0
 45
210.0
 46
0.0
 47
0.0
 48
0.0
 49
0.0
140
0.0
141
0.0
142
1.0
143
1.0
 70
1024
 72
0
 73
0
 74
0
  7

 75
0
147
1.0
148
0.0
149
0.0
100
AcDbLayout
  1
Model
 70
0
 71
0
 10
0.0
 20
0.0
 11
11.6929133858
 21
8.2677165354
 12
0.0
 22
0.0
 32
0.0
 14
0.0
 24
0.0
 34
0.0
 15
0.0
 25
0.0
 35
0.0
146
0.0
 13
0.0
 23
0.0
 33
0.0
 16
1.0
 26
0.0
 36
0.0
 17
0.0
 27
1.0
 37
0.0
 76
0
330
203
345
0
346
0
  0
LAYOUT
  5
27C
102
{ACAD_REACTORS
330
1A
102
}
100
AcDbPlotSettings
  1

  2
none_device
  4
ISO_A4_(297.00_x_210.00_MM)
  6

 40
0.0
 41
0.0
 42
0.0
 43
0.0
 44
297.0
 45
210.0
 46
0.0
 47
0.0
 48
0.0
 49
0.0
140
0.0
141
0.0
142
1.0
143
1.0
 70
0
 72
0
 73
0
 74
0
  7

 75
0
147
1.0
148
0.0
149
0.0
100
AcDbLayout
  1
Layout1
 70
0
 71
1
 10
0.0
 20
0.0
 11
11.6929133858
 21
8.2677165354
 12
0.0
 22
0.0
 32
0.0
 14
0.0
 24
0.0
 34
0.0
 15
0.0
 25
0.0
 35
0.0
146
0.0
 13
0.0
 23
0.0
 33
0.0
 16
1.0
 26
0.0
 36
0.0
 17
0.0
 27
1.0
 37
0.0
 76
0
330
204
345
0
346
0
  0
ENDSEC
  0
EOF
