999
DXF file: 2403_right.dxf
999
Pro/ENGINEER 2018400 by Parametric Technology Corporation
  0
SECTION
  2
HEADER
  9
$ACADVER
  1
AC1027
  9
$DWGCODEPAGE
  3
ANSI_1252
  9
$EXTMAX
 10
11.0
 20
8.5
 30
0.0
  9
$EXTMIN
 10
0.0
 20
0.0
 30
0.0
  9
$LIMMIN
 10
0.0
 20
0.0
  9
$LIMMAX
 10
11.0
 20
8.5
  9
$VIEWCTR
 10
5.5
 20
4.25
  9
$VIEWSIZE
 40
8.5
  9
$CLAYER
  8
0
  9
$LTSCALE
 40
0.605
  9
$CELTYPE
  6
BYLAYER
  9
$DIMSCALE
 40
1.0
  9
$DIMASZ
 40
0.1
  9
$DIMEXO
 40
0.0625
  9
$DIMDLI
 40
0.418
  9
$DIMEXE
 40
0.125
  9
$DIMCEN
 40
0.099
  9
$DIMLFAC
 40
1.0
  9
$DIMBLK
  1
_FILLED
  9
$DIMALT
 70
1
  9
$DIMALTD
 70
2
  9
$DIMALTTD
 70
2
  9
$DIMALTF
 40
25.4
  9
$DIMTXT
 40
0.08
  9
$DIMTOL
 70
1
  9
$DIMLIM
 70
0
  9
$DIMTFAC
 40
1.0
  9
$DIMTP
 40
0.001
  9
$DIMTM
 40
0.001
  9
$DIMGAP
 40
0.09
  9
$DIMDSEP
 70
46
  9
$AUNITS
 70
0
  9
$PDMODE
 70
3
  9
$PDSIZE
 40
0.3125
  9
$HANDSEED
  5
245
  9
$TILEMODE
 70
1
  9
$MEASUREMENT
 70
0
  9
$INSUNITS
 70
1
  0
ENDSEC
  0
SECTION
  2
CLASSES
  0
CLASS
  1
ACDBDICTIONARYWDFLT
  2
AcDbDictionaryWithDefault
  3
AutoCAD 2000
 90
0
 91
1
280
0
281
0
  0
CLASS
  1
ACDBPLACEHOLDER
  2
AcDbPlaceHolder
  3
AutoCAD 2000
 90
0
 91
1
280
0
281
0
  0
CLASS
  1
LAYOUT
  2
AcDbLayout
  3
AutoCAD 2000
 90
0
 91
0
280
0
281
0
  0
ENDSEC
  0
SECTION
  2
TABLES
  0
TABLE
  2
VPORT
  5
8
100
AcDbSymbolTable
 70
2
  0
VPORT
  5
1F4
100
AcDbSymbolTableRecord
100
AcDbViewportTableRecord
  2
*ACTIVE
 70
0
 10
0.0
 20
0.0
 11
1.0
 21
1.0
 12
5.5
 22
4.25
 13
0.0
 23
0.0
 14
1.0
 24
1.0
 15
0.0
 25
0.0
 16
0.0
 26
0.0
 36
1.0
 17
0.0
 27
0.0
 37
0.0
 40
8.5
 41
1.2941176471
 42
50.0
 43
0.0
 44
0.0
 50
0.0
 51
0.0
 71
0
 72
100
 73
1
 74
1
 75
0
 76
0
 77
0
 78
0
  0
ENDTAB
  0
TABLE
  2
LTYPE
  5
5
100
AcDbSymbolTable
 70
6
  0
LTYPE
  5
14
100
AcDbSymbolTableRecord
100
AcDbLinetypeTableRecord
  2
BYBLOCK
 70
0
  3

 72
65
 73
0
 40
0.0
  0
LTYPE
  5
15
100
AcDbSymbolTableRecord
100
AcDbLinetypeTableRecord
  2
BYLAYER
 70
0
  3

 72
65
 73
0
 40
0.0
  0
LTYPE
  5
16
100
AcDbSymbolTableRecord
100
AcDbLinetypeTableRecord
  2
CONTINUOUS
 70
64
  3
Solid line
 72
65
 73
0
 40
0.0
  0
LTYPE
  5
1F5
100
AcDbSymbolTableRecord
100
AcDbLinetypeTableRecord
  2
CENTER
 70
64
  3
____ _ ____ _ ____ _ ____ _ ____ _ ____ _ ____
 72
65
 73
4
 40
0.6
 49
0.375
 74
0
 49
-0.075
 74
0
 49
0.075
 74
0
 49
-0.075
 74
0
  0
LTYPE
  5
1F6
100
AcDbSymbolTableRecord
100
AcDbLinetypeTableRecord
  2
HIDDEN
 70
64
  3
- - - - - - - - - - - - - - - - - - - -
 72
65
 73
2
 40
0.2
 49
0.1
 74
0
 49
-0.1
 74
0
  0
LTYPE
  5
1F7
100
AcDbSymbolTableRecord
100
AcDbLinetypeTableRecord
  2
PHANTOM
 70
64
  3
_____ _ _ _____ _ _ _____ _ _ _____
 72
65
 73
6
 40
0.8
 49
0.45
 74
0
 49
-0.05
 74
0
 49
0.1
 74
0
 49
-0.05
 74
0
 49
0.1
 74
0
 49
-0.05
 74
0
  0
LTYPE
  5
1F8
100
AcDbSymbolTableRecord
100
AcDbLinetypeTableRecord
  2
DOT
 70
64
  3
. . . . . . . . . . . . . . . . . . . .
 72
65
 73
2
 40
0.2
 49
0.1
 74
0
 49
-0.1
 74
0
  0
LTYPE
  5
1F9
100
AcDbSymbolTableRecord
100
AcDbLinetypeTableRecord
  2
DASHED
 70
64
  3
- - - - - - - - - - - - - - - - - - - -
 72
65
 73
2
 40
0.2
 49
0.1
 74
0
 49
-0.1
 74
0
  0
ENDTAB
  0
TABLE
  2
LAYER
  5
2
100
AcDbSymbolTable
 70
36
  0
LAYER
  5
10
100
AcDbSymbolTableRecord
100
AcDbLayerTableRecord
  2
0
 70
0
 62
7
  6
CONTINUOUS
370
-3
390
F
  0
LAYER
  5
1FA
100
AcDbSymbolTableRecord
100
AcDbLayerTableRecord
  2
DEFAULT_1
 70
0
 62
7
  6
CENTER
370
-3
390
F
  0
LAYER
  5
1FB
100
AcDbSymbolTableRecord
100
AcDbLayerTableRecord
  2
DEFAULT_2
 70
0
 62
8
  6
HIDDEN
370
-3
390
F
  0
LAYER
  5
1FC
100
AcDbSymbolTableRecord
100
AcDbLayerTableRecord
  2
DEFAULT_3
 70
0
 62
7
  6
PHANTOM
370
-3
390
F
  0
LAYER
  5
1FD
100
AcDbSymbolTableRecord
100
AcDbLayerTableRecord
  2
DEFAULT_COORDINATE_SYSTEM
 70
0
 62
7
  6
CONTINUOUS
370
-3
390
F
  0
LAYER
  5
1FE
100
AcDbSymbolTableRecord
100
AcDbLayerTableRecord
  2
DEFAULT_DATUM_AXES
 70
0
 62
7
  6
CONTINUOUS
370
-3
390
F
  0
LAYER
  5
1FF
100
AcDbSymbolTableRecord
100
AcDbLayerTableRecord
  2
DEFAULT_DATUM_PLANES
 70
0
 62
7
  6
CONTINUOUS
370
-3
390
F
  0
ENDTAB
  0
TABLE
  2
STYLE
  5
3
100
AcDbSymbolTable
 70
1
  0
STYLE
  5
11
100
AcDbSymbolTableRecord
100
AcDbTextStyleTableRecord
  2
STANDARD
 70
0
 40
0.0
 41
0.8
 50
0.0
 71
0
 42
0.2
  3
txt
  4

  0
STYLE
  5
200
100
AcDbSymbolTableRecord
100
AcDbTextStyleTableRecord
  2
TEXTSTYLE_1
 70
0
 40
0.0
 41
0.8
 50
0.0
 71
0
 42
0.2
  3
gdt
  4

  0
ENDTAB
  0
TABLE
  2
VIEW
  5
6
100
AcDbSymbolTable
 70
0
  0
ENDTAB
  0
TABLE
  2
UCS
  5
7
100
AcDbSymbolTable
 70
0
  0
ENDTAB
  0
TABLE
  2
APPID
  5
9
100
AcDbSymbolTable
 70
1
  0
APPID
  5
201
100
AcDbSymbolTableRecord
100
AcDbRegAppTableRecord
  2
ACAD
 70
0
  0
ENDTAB
  0
TABLE
  2
BLOCK_RECORD
  5
1
100
AcDbSymbolTable
 70
0
  0
BLOCK_RECORD
  5
202
100
AcDbSymbolTableRecord
100
AcDbBlockTableRecord
  2
*Model_Space
  0
BLOCK_RECORD
  5
203
100
AcDbSymbolTableRecord
100
AcDbBlockTableRecord
  2
*Paper_Space
  0
BLOCK_RECORD
  5
204
100
AcDbSymbolTableRecord
100
AcDbBlockTableRecord
  2
_FILLED
  0
ENDTAB
  0
TABLE
  2
DIMSTYLE
  5
A
100
AcDbSymbolTable
 70
1
100
AcDbDimStyleTable
 71
0
  0
DIMSTYLE
105
205
100
AcDbSymbolTableRecord
100
AcDbDimStyleTableRecord
  2
STANDARD
 70
0
  3

  4

 40
1.0
 41
0.1
 42
0.0625
 43
0.38
 44
0.125
 45
0.0
 46
0.0
 47
0.001
 48
0.001
140
0.08
141
0.09
142
0.0
143
25.4
144
1.0
145
0.0
146
1.0
147
0.09
 71
1.0
 72
0.0
 73
1
 74
1
 75
0
 76
0
 77
0
 78
4
 79
1
170
1
171
2
172
0
173
0
174
0
175
0
176
0
177
0
178
0
270
2
179
3
271
3
272
3
273
2
274
2
275
0
280
0
281
0
282
0
283
1
284
4
285
0
286
0
287
3
288
0
340
11
278
46
341
204
342
204
343
204
344
204
  0
ENDTAB
  0
ENDSEC
  0
SECTION
  2
BLOCKS
  0
BLOCK
  5
20
100
AcDbEntity
  8
0
100
AcDbBlockBegin
  2
*Model_Space
 70
0
 10
0.0
 20
0.0
 30
0.0
  3
*Model_Space
  1

  0
ENDBLK
  5
21
100
AcDbEntity
  8
0
100
AcDbBlockEnd
  0
BLOCK
  5
1C
100
AcDbEntity
  8
0
100
AcDbBlockBegin
  2
*Paper_Space
 70
0
 10
0.0
 20
0.0
 30
0.0
  3
*Paper_Space
  1

  0
ENDBLK
  5
1D
100
AcDbEntity
  8
0
100
AcDbBlockEnd
  0
BLOCK
  5
206
100
AcDbEntity
  8
0
100
AcDbBlockBegin
  2
_FILLED
 70
64
 10
0.0
 20
0.0
  3
_FILLED
  1

  0
SOLID
  5
207
100
AcDbEntity
  8
0
  6
BYBLOCK
 62
0
100
AcDbTrace
 10
0.0
 20
0.0
 11
-1.0
 21
0.2
 12
-1.0
 22
-0.2
 13
-1.0
 23
-0.2
  0
ENDBLK
  5
208
100
AcDbEntity
  8
0
  6
BYBLOCK
 62
0
100
AcDbBlockEnd
  0
ENDSEC
  0
SECTION
  2
ENTITIES
  0
MTEXT
  5
209
100
AcDbEntity
  8
0
100
AcDbMText
 62
2
  6
CONTINUOUS
  7
STANDARD
 71
3
 72
1
 10
4.6913518242
 20
1.1685170807
 30
0.0
 11
1.0
 21
0.0
 31
0.0
 73
2
 44
0.9
  1
SCALE  .500
 40
0.08
 41
0.704
  0
LINE
  5
20A
100
AcDbEntity
  8
0
100
AcDbLine
 62
7
  6
CONTINUOUS
 10
0.0
 20
0.0
 11
0.0
 21
8.5
  0
LINE
  5
20B
100
AcDbEntity
  8
0
100
AcDbLine
 62
7
  6
CONTINUOUS
 10
0.0
 20
0.0
 11
11.0
 21
0.0
  0
LINE
  5
20C
100
AcDbEntity
  8
0
100
AcDbLine
 62
7
  6
CONTINUOUS
 10
0.0
 20
8.5
 11
11.0
 21
8.5
  0
LINE
  5
20D
100
AcDbEntity
  8
0
100
AcDbLine
 62
7
  6
CONTINUOUS
 10
11.0
 20
0.0
 11
11.0
 21
8.5
  0
LINE
  5
20E
100
AcDbEntity
  8
0
100
AcDbLine
 62
7
  6
CONTINUOUS
 10
6.2915978288
 20
2.1282298137
 11
5.4166020007
 21
2.1282298137
  0
LINE
  5
20F
100
AcDbEntity
  8
0
100
AcDbLine
 62
7
  6
CONTINUOUS
 10
5.4165999148
 20
2.2432298137
 11
6.2915999148
 21
2.2432298137
  0
LINE
  5
210
100
AcDbEntity
  8
0
100
AcDbLine
 62
7
  6
CONTINUOUS
 10
5.4266017494
 20
2.2532298137
 11
6.2815980802
 21
2.2532298137
  0
LINE
  5
211
100
AcDbEntity
  8
0
100
AcDbLine
 62
7
  6
CONTINUOUS
 10
2.92227205
 20
5.4911499977
 11
2.8874787747
 21
5.2435829805
  0
LINE
  5
212
100
AcDbEntity
  8
0
100
AcDbLine
 62
7
  6
CONTINUOUS
 10
5.9242357143
 20
3.1562011959
 11
5.9243518528
 21
3.1562287214
  0
LINE
  5
213
100
AcDbEntity
  8
0
100
AcDbLine
 62
7
  6
CONTINUOUS
 10
3.3555143301
 20
5.4302617661
 11
3.3207210548
 21
5.1826947489
  0
LINE
  5
214
100
AcDbEntity
  8
0
100
AcDbLine
 62
7
  6
CONTINUOUS
 10
5.8015999148
 20
3.0882298137
 11
5.9065999148
 21
3.0882298137
  0
LINE
  5
215
100
AcDbEntity
  8
0
100
AcDbLine
 62
7
  6
CONTINUOUS
 10
5.7915999148
 20
3.0982298137
 11
5.9165999148
 21
3.0982298137
  0
LINE
  5
216
100
AcDbEntity
  8
0
100
AcDbLine
 62
7
  6
CONTINUOUS
 10
5.7838479768
 20
3.1562287214
 11
5.7839711184
 21
3.1561994892
  0
LINE
  5
217
100
AcDbEntity
  8
0
100
AcDbLine
 62
7
  6
CONTINUOUS
 10
4.4790999148
 20
6.4069798137
 11
4.4790999148
 21
6.8444798137
  0
LINE
  5
218
100
AcDbEntity
  8
0
100
AcDbLine
 62
7
  6
CONTINUOUS
 10
5.9165999148
 20
4.7232298137
 11
5.7915999148
 21
4.7232298137
  0
LINE
  5
219
100
AcDbEntity
  8
0
100
AcDbLine
 62
7
  6
CONTINUOUS
 10
5.9065999148
 20
4.7332298137
 11
5.8015999148
 21
4.7332298137
  0
LINE
  5
21A
100
AcDbEntity
  8
0
100
AcDbLine
 62
7
  6
CONTINUOUS
 10
3.3207210548
 20
5.1826947489
 11
2.8874787747
 21
5.2435829805
  0
LINE
  5
21B
100
AcDbEntity
  8
0
100
AcDbLine
 62
7
  6
CONTINUOUS
 10
5.6353499148
 20
5.2507298137
 11
6.0728499148
 21
5.2507298137
  0
LINE
  5
21C
100
AcDbEntity
  8
0
100
AcDbLine
 62
7
  6
CONTINUOUS
 10
3.3555143301
 20
5.4302617661
 11
2.92227205
 21
5.4911499977
  0
LINE
  5
21D
100
AcDbEntity
  8
0
100
AcDbLine
 62
7
  6
CONTINUOUS
 10
5.4165999148
 20
2.1282298137
 11
5.4165999148
 21
2.2432298137
  0
LINE
  5
21E
100
AcDbEntity
  8
0
100
AcDbLine
 62
7
  6
CONTINUOUS
 10
5.6353499148
 20
2.2532298137
 11
5.6353499148
 21
3.2375601753
  0
LINE
  5
21F
100
AcDbEntity
  8
0
100
AcDbLine
 62
7
  6
CONTINUOUS
 10
5.6353499148
 20
3.6838994521
 11
5.6353499148
 21
5.2507298137
  0
LINE
  5
220
100
AcDbEntity
  8
0
100
AcDbLine
 62
7
  6
CONTINUOUS
 10
5.7815999148
 20
3.7563379101
 11
5.7815999148
 21
3.1689672274
  0
LINE
  5
221
100
AcDbEntity
  8
0
100
AcDbLine
 62
7
  6
CONTINUOUS
 10
5.7915999148
 20
3.0982298137
 11
5.7915999148
 21
4.7232298137
  0
LINE
  5
222
100
AcDbEntity
  8
0
100
AcDbLine
 62
7
  6
CONTINUOUS
 10
5.8015999148
 20
3.0882298137
 11
5.8015999148
 21
4.7332298137
  0
LINE
  5
223
100
AcDbEntity
  8
0
100
AcDbLine
 62
7
  6
CONTINUOUS
 10
5.9065999148
 20
3.0882298137
 11
5.9065999148
 21
4.7332298137
  0
LINE
  5
224
100
AcDbEntity
  8
0
100
AcDbLine
 62
7
  6
CONTINUOUS
 10
5.9165999148
 20
4.7232298137
 11
5.9165999148
 21
3.0982298137
  0
LINE
  5
225
100
AcDbEntity
  8
0
100
AcDbLine
 62
7
  6
CONTINUOUS
 10
5.9265999148
 20
3.1689672422
 11
5.9265999148
 21
3.7563378255
  0
LINE
  5
226
100
AcDbEntity
  8
0
100
AcDbLine
 62
7
  6
CONTINUOUS
 10
6.0728499148
 20
2.2532298137
 11
6.0728499148
 21
3.2375601753
  0
LINE
  5
227
100
AcDbEntity
  8
0
100
AcDbLine
 62
7
  6
CONTINUOUS
 10
6.0728499148
 20
3.6838994521
 11
6.0728499148
 21
5.2507298137
  0
LINE
  5
228
100
AcDbEntity
  8
0
100
AcDbLine
 62
7
  6
CONTINUOUS
 10
6.2915999148
 20
2.1282298137
 11
6.2915999148
 21
2.2432298137
  0
ARC
  5
229
100
AcDbEntity
  8
0
100
AcDbCircle
 62
7
  6
CONTINUOUS
 10
4.4790999148
 20
5.2507298137
 40
1.59375
100
AcDbArc
 50
0.0
 51
90.0
  0
ARC
  5
22A
100
AcDbEntity
  8
0
100
AcDbCircle
 62
7
  6
CONTINUOUS
 10
4.4790999148
 20
5.2723521101
 40
1.5721277035
100
AcDbArc
 50
90.0
 51
172.0
  0
ARC
  5
22B
100
AcDbEntity
  8
0
100
AcDbCircle
 62
7
  6
CONTINUOUS
 10
4.4790999148
 20
5.2507298137
 40
1.15625
100
AcDbArc
 50
0.0
 51
90.0
  0
ARC
  5
22C
100
AcDbEntity
  8
0
100
AcDbCircle
 62
7
  6
CONTINUOUS
 10
4.4790999148
 20
5.2723521101
 40
1.1346277035
100
AcDbArc
 50
90.0
 51
172.0
  0
ARC
  5
22D
100
AcDbEntity
  8
0
100
AcDbCircle
 62
7
  6
CONTINUOUS
 10
5.8540999148
 20
3.4607298137
 40
0.3125
100
AcDbArc
 50
102.9914956696
 51
257.0085040443
  0
ARC
  5
22E
100
AcDbEntity
  8
0
100
AcDbCircle
 62
7
  6
CONTINUOUS
 10
5.8540999148
 20
3.4607298137
 40
0.3125
100
AcDbArc
 50
282.9914956695
 51
77.0085040442
  0
ARC
  5
22F
100
AcDbEntity
  8
0
100
AcDbCircle
 62
7
  6
CONTINUOUS
 10
5.8540967
 20
3.4626545907
 40
0.3025036539
100
AcDbArc
 50
283.867446764
 51
76.132503657
  0
ARC
  5
230
100
AcDbEntity
  8
0
100
AcDbCircle
 62
7
  6
CONTINUOUS
 10
5.8541028961
 20
3.4626543376
 40
0.3025033449
100
AcDbArc
 50
103.867572332
 51
256.1325853539
  0
ARC
  5
231
100
AcDbEntity
  8
0
100
AcDbCircle
 62
7
  6
CONTINUOUS
 10
5.4265999148
 20
2.2432298137
 40
0.01
100
AcDbArc
 50
90.0
 51
180.0
  0
ARC
  5
232
100
AcDbEntity
  8
0
100
AcDbCircle
 62
7
  6
CONTINUOUS
 10
6.2815999148
 20
2.2432298137
 40
0.01
100
AcDbArc
 50
0.0
 51
90.0
  0
ARC
  5
233
100
AcDbEntity
  8
0
100
AcDbCircle
 62
7
  6
CONTINUOUS
 10
5.7815999148
 20
3.1464846864
 40
0.01
100
AcDbArc
 50
0.0001193135
 51
77.0089417747
  0
ARC
  5
234
100
AcDbEntity
  8
0
100
AcDbCircle
 62
7
  6
CONTINUOUS
 10
5.9265999148
 20
3.7749749409
 40
0.01
100
AcDbArc
 50
180.0001193136
 51
257.0089417747
  0
ARC
  5
235
100
AcDbEntity
  8
0
100
AcDbCircle
 62
7
  6
CONTINUOUS
 10
5.8015999148
 20
4.7232298137
 40
0.01
100
AcDbArc
 50
90.0
 51
180.0
  0
ARC
  5
236
100
AcDbEntity
  8
0
100
AcDbCircle
 62
7
  6
CONTINUOUS
 10
5.9065999148
 20
4.7232298137
 40
0.01
100
AcDbArc
 50
0.0
 51
90.0
  0
ARC
  5
237
100
AcDbEntity
  8
0
100
AcDbCircle
 62
7
  6
CONTINUOUS
 10
5.8015999148
 20
3.0982298137
 40
0.01
100
AcDbArc
 50
180.0
 51
270.0
  0
ARC
  5
238
100
AcDbEntity
  8
0
100
AcDbCircle
 62
7
  6
CONTINUOUS
 10
5.9065999148
 20
3.0982298137
 40
0.01
100
AcDbArc
 50
270.0
 51
360.0
  0
ARC
  5
239
100
AcDbEntity
  8
0
100
AcDbCircle
 62
7
  6
CONTINUOUS
 10
5.9265999148
 20
3.1464846886
 40
0.0100000181
100
AcDbArc
 50
102.9910700051
 51
179.9998990506
  0
ARC
  5
23A
100
AcDbEntity
  8
0
100
AcDbCircle
 62
7
  6
CONTINUOUS
 10
5.7815999148
 20
3.7749746796
 40
0.0099998899
100
AcDbArc
 50
282.9914037583
 51
0.0013836856
  0
SPLINE
  5
23B
100
AcDbEntity
  8
0
100
AcDbSpline
 62
7
  6
CONTINUOUS
 70
0
 71
3
 72
30
 73
26
 74
0
 42
0.0000001
 43
0.0000001
 44
0.0000000001
 40
0.0
 40
0.0
 40
0.0
 40
0.0
 40
0.0008300818
 40
0.0019051313
 40
0.0035176506
 40
0.0057580948
 40
0.0086582595
 40
0.012231974
 40
0.016485969
 40
0.021420428
 40
0.0333118824
 40
0.0478619906
 40
0.0650175767
 40
0.0847000042
 40
0.1068098617
 40
0.1312461804
 40
0.186638463
 40
0.2498658709
 40
0.3198645379
 40
0.3955428758
 40
0.475830444
 40
0.559680717
 40
0.6461105671
 40
0.8230779413
 40
1.0
 40
1.0
 40
1.0
 40
1.0
 10
5.9243519915
 20
3.156228793
 30
0.0
 10
5.9243484959
 20
3.1562279847
 30
0.0
 10
5.9243393706
 20
3.1562297943
 30
0.0
 10
5.9243306715
 20
3.1562433033
 30
0.0
 10
5.9243240914
 20
3.1562634142
 30
0.0
 10
5.9243190831
 20
3.156292337
 30
0.0
 10
5.9243157087
 20
3.1563298316
 30
0.0
 10
5.9243140272
 20
3.1563762011
 30
0.0
 10
5.924314086
 20
3.156431366
 30
0.0
 10
5.9243166885
 20
3.1565224526
 30
0.0
 10
5.9243249247
 20
3.1566578457
 30
0.0
 10
5.924341109
 20
3.1568455987
 30
0.0
 10
5.924364201
 20
3.1570665182
 30
0.0
 10
5.9243941058
 20
3.1573195512
 30
0.0
 10
5.9244307227
 20
3.1576034619
 30
0.0
 10
5.9244909043
 20
3.1580399423
 30
0.0
 10
5.9245822371
 20
3.1586515046
 30
0.0
 10
5.9247109376
 20
3.1594565509
 30
0.0
 10
5.9248611465
 20
3.1603469211
 30
0.0
 10
5.9250314073
 20
3.1613086553
 30
0.0
 10
5.9252194851
 20
3.1623280075
 30
0.0
 10
5.9254230035
 20
3.1633917419
 30
0.0
 10
5.9257141556
 20
3.164864135
 30
0.0
 10
5.9261000925
 20
3.1667278278
 30
0.0
 10
5.9264302874
 20
3.1682214159
 30
0.0
 10
5.926599551
 20
3.1689671523
 30
0.0
  0
SPLINE
  5
23C
100
AcDbEntity
  8
0
100
AcDbSpline
 62
7
  6
CONTINUOUS
 70
0
 71
3
 72
26
 73
22
 74
0
 42
0.0000001
 43
0.0000001
 44
0.0000000001
 40
0.0
 40
0.0
 40
0.0
 40
0.0
 40
0.1928734707
 40
0.3759306444
 40
0.4623041185
 40
0.5444857097
 40
0.6218470528
 40
0.6937451424
 40
0.7595369038
 40
0.8185804664
 40
0.8702538732
 40
0.9139658822
 40
0.9326593388
 40
0.9491624133
 40
0.9634178713
 40
0.9753710194
 40
0.9849791919
 40
0.9922329087
 40
0.9971639198
 40
0.9988105673
 40
1.0
 40
1.0
 40
1.0
 40
1.0
 10
5.9265994665
 20
3.7563379362
 30
0.0
 10
5.9264686138
 20
3.7569138261
 30
0.0
 10
5.9262116468
 20
3.7580358589
 30
0.0
 10
5.9258930419
 20
3.7594150918
 30
0.0
 10
5.9256476021
 20
3.760463362
 30
0.0
 10
5.925473696
 20
3.7611959895
 30
0.0
 10
5.9253078071
 20
3.7618849617
 30
0.0
 10
5.925151487
 20
3.7625246153
 30
0.0
 10
5.9250058867
 20
3.7631091447
 30
0.0
 10
5.9248718879
 20
3.7636327368
 30
0.0
 10
5.9247504196
 20
3.7640897301
 30
0.0
 10
5.9246561782
 20
3.764426102
 30
0.0
 10
5.9245870651
 20
3.7646576276
 30
0.0
 10
5.9245417529
 20
3.7648021119
 30
0.0
 10
5.9245003903
 20
3.7649261975
 30
0.0
 10
5.9244631485
 20
3.7650293425
 30
0.0
 10
5.9244302384
 20
3.7651112976
 30
0.0
 10
5.9244017295
 20
3.7651715454
 30
0.0
 10
5.9243797701
 20
3.7652081993
 30
0.0
 10
5.9243633321
 20
3.7652254582
 30
0.0
 10
5.9243555779
 20
3.7652300068
 30
0.0
 10
5.9243520288
 20
3.7652308237
 30
0.0
  0
SPLINE
  5
23D
100
AcDbEntity
  8
0
100
AcDbSpline
 62
7
  6
CONTINUOUS
 70
0
 71
3
 72
22
 73
18
 74
0
 42
0.0000001
 43
0.0000001
 44
0.0000000001
 40
0.0
 40
0.0
 40
0.0
 40
0.0
 40
0.1863434495
 40
0.365798109
 40
0.531773397
 40
0.6078089072
 40
0.6782974886
 40
0.7426324198
 40
0.800308749
 40
0.8509048428
 40
0.8941612156
 40
0.9299988347
 40
0.9587088559
 40
0.9706714976
 40
0.9813003398
 40
0.9909265717
 40
1.0
 40
1.0
 40
1.0
 40
1.0
 10
5.7815999148
 20
3.16896884
 30
0.0
 10
5.7822503324
 20
3.16896884
 30
0.0
 10
5.7835272714
 20
3.1689925624
 30
0.0
 10
5.785380795
 20
3.1690985949
 30
0.0
 10
5.7868451825
 20
3.1692454761
 30
0.0
 10
5.7879253037
 20
3.169398374
 30
0.0
 10
5.7886506754
 20
3.1695237297
 30
0.0
 10
5.7893083879
 20
3.1696619225
 30
0.0
 10
5.7898922732
 20
3.169811424
 30
0.0
 10
5.7903969003
 20
3.1699708387
 30
0.0
 10
5.7908181027
 20
3.1701383927
 30
0.0
 10
5.7911523342
 20
3.1703126244
 30
0.0
 10
5.7913697339
 20
3.1704713458
 30
0.0
 10
5.7914913214
 20
3.1706036226
 30
0.0
 10
5.7915533123
 20
3.1706982037
 30
0.0
 10
5.7915912437
 20
3.1707941653
 30
0.0
 10
5.7915999148
 20
3.1708596968
 30
0.0
 10
5.7915999148
 20
3.1708913669
 30
0.0
  0
SPLINE
  5
23E
100
AcDbEntity
  8
0
100
AcDbSpline
 62
7
  6
CONTINUOUS
 70
0
 71
3
 72
22
 73
18
 74
0
 42
0.0000001
 43
0.0000001
 44
0.0000000001
 40
0.0
 40
0.0
 40
0.0
 40
0.0
 40
0.1863434487
 40
0.3657981073
 40
0.5317733942
 40
0.6078089041
 40
0.6782974851
 40
0.742632416
 40
0.8003087449
 40
0.8509048387
 40
0.8941612117
 40
0.9299988313
 40
0.9587088532
 40
0.9706714955
 40
0.9813003383
 40
0.9909265709
 40
1.0
 40
1.0
 40
1.0
 40
1.0
 10
5.9265999148
 20
3.1689688406
 30
0.0
 10
5.9259494972
 20
3.1689688406
 30
0.0
 10
5.9246725581
 20
3.168992563
 30
0.0
 10
5.9228190345
 20
3.1690985955
 30
0.0
 10
5.9213546471
 20
3.1692454767
 30
0.0
 10
5.9202745259
 20
3.1693983745
 30
0.0
 10
5.9195491542
 20
3.1695237302
 30
0.0
 10
5.9188914417
 20
3.169661923
 30
0.0
 10
5.9183075563
 20
3.1698114246
 30
0.0
 10
5.9178029293
 20
3.1699708393
 30
0.0
 10
5.9173817268
 20
3.1701383933
 30
0.0
 10
5.9170474953
 20
3.170312625
 30
0.0
 10
5.9168300957
 20
3.1704713464
 30
0.0
 10
5.9167085082
 20
3.1706036232
 30
0.0
 10
5.9166465173
 20
3.1706982044
 30
0.0
 10
5.9166085858
 20
3.1707941659
 30
0.0
 10
5.9165999148
 20
3.1708596974
 30
0.0
 10
5.9165999148
 20
3.1708913675
 30
0.0
  0
SPLINE
  5
23F
100
AcDbEntity
  8
0
100
AcDbSpline
 62
7
  6
CONTINUOUS
 70
0
 71
3
 72
22
 73
18
 74
0
 42
0.0000001
 43
0.0000001
 44
0.0000000001
 40
0.0
 40
0.0
 40
0.0
 40
0.0
 40
0.1863434428
 40
0.3657980951
 40
0.5317733789
 40
0.6078088879
 40
0.6782974687
 40
0.7426324002
 40
0.8003087304
 40
0.8509048258
 40
0.8941612009
 40
0.9299988227
 40
0.9587088475
 40
0.9706714912
 40
0.9813003355
 40
0.9909265696
 40
1.0
 40
1.0
 40
1.0
 40
1.0
 10
5.9265999148
 20
3.7563358412
 30
0.0
 10
5.9259494972
 20
3.7563358412
 30
0.0
 10
5.9246725582
 20
3.7563595635
 30
0.0
 10
5.9228190346
 20
3.756465596
 30
0.0
 10
5.9213546472
 20
3.7566124771
 30
0.0
 10
5.920274526
 20
3.7567653749
 30
0.0
 10
5.9195491543
 20
3.7568907306
 30
0.0
 10
5.9188914417
 20
3.7570289234
 30
0.0
 10
5.9183075564
 20
3.757178425
 30
0.0
 10
5.9178029294
 20
3.7573378397
 30
0.0
 10
5.9173817269
 20
3.7575053937
 30
0.0
 10
5.9170474953
 20
3.7576796255
 30
0.0
 10
5.9168300957
 20
3.7578383469
 30
0.0
 10
5.9167085082
 20
3.7579706238
 30
0.0
 10
5.9166465173
 20
3.7580652049
 30
0.0
 10
5.9166085858
 20
3.7581611665
 30
0.0
 10
5.9165999148
 20
3.758226698
 30
0.0
 10
5.9165999148
 20
3.7582583681
 30
0.0
  0
SPLINE
  5
240
100
AcDbEntity
  8
0
100
AcDbSpline
 62
7
  6
CONTINUOUS
 70
0
 71
3
 72
25
 73
21
 74
0
 42
0.0000001
 43
0.0000001
 44
0.0000000001
 40
0.0
 40
0.0
 40
0.0
 40
0.0
 40
0.0028043265
 40
0.0077352584
 40
0.0149888645
 40
0.0245970128
 40
0.0365503207
 40
0.0508061093
 40
0.0673096373
 40
0.0860036232
 40
0.129716781
 40
0.1813915047
 40
0.2404366745
 40
0.3062303888
 40
0.3781307922
 40
0.4554947799
 40
0.537679257
 40
0.6240557833
 40
0.8071194058
 40
1.0
 40
1.0
 40
1.0
 40
1.0
 10
5.7838478087
 20
3.7652308275
 30
0.0
 10
5.7838394413
 20
3.7652289009
 30
0.0
 10
5.783821539
 20
3.7652104258
 30
0.0
 10
5.7837982912
 20
3.7651719713
 30
0.0
 10
5.7837695245
 20
3.7651111329
 30
0.0
 10
5.7837367193
 20
3.7650294235
 30
0.0
 10
5.7836994378
 20
3.7649261923
 30
0.0
 10
5.7836580876
 20
3.7648021409
 30
0.0
 10
5.7836127699
 20
3.7646576489
 30
0.0
 10
5.7835436576
 20
3.7644261315
 30
0.0
 10
5.7834494162
 20
3.764089762
 30
0.0
 10
5.7833279522
 20
3.7636327759
 30
0.0
 10
5.7831939588
 20
3.7631091895
 30
0.0
 10
5.7830483637
 20
3.7625246659
 30
0.0
 10
5.7828920453
 20
3.7618850179
 30
0.0
 10
5.7827261536
 20
3.7611960516
 30
0.0
 10
5.7825522418
 20
3.7604634302
 30
0.0
 10
5.7823067896
 20
3.7594151694
 30
0.0
 10
5.781988197
 20
3.7580359409
 30
0.0
 10
5.78173126
 20
3.7569139071
 30
0.0
 10
5.7816003821
 20
3.7563380254
 30
0.0
  0
SPLINE
  5
241
100
AcDbEntity
  8
0
100
AcDbSpline
 62
7
  6
CONTINUOUS
 70
0
 71
3
 72
30
 73
26
 74
0
 42
0.0000001
 43
0.0000001
 44
0.0000000001
 40
0.0
 40
0.0
 40
0.0
 40
0.0
 40
0.1769247168
 40
0.3538946152
 40
0.4403256394
 40
0.5241769125
 40
0.6044651952
 40
0.6801438668
 40
0.7501425971
 40
0.813370229
 40
0.8687624813
 40
0.8931983613
 40
0.9153075101
 40
0.9349891267
 40
0.9521439526
 40
0.9666933271
 40
0.9785838904
 40
0.9835177831
 40
0.9877710984
 40
0.9913440407
 40
0.9942434211
 40
0.9964831559
 40
0.9980951355
 40
0.9991699204
 40
1.0
 40
1.0
 40
1.0
 40
1.0
 10
5.7816002818
 20
3.1689671367
 30
0.0
 10
5.7817695549
 20
3.1682213919
 30
0.0
 10
5.7820997474
 20
3.1667277828
 30
0.0
 10
5.7824856685
 20
3.164864062
 30
0.0
 10
5.7827768474
 20
3.163391656
 30
0.0
 10
5.782980381
 20
3.1623279135
 30
0.0
 10
5.7831684477
 20
3.161308552
 30
0.0
 10
5.7833386894
 20
3.1603468111
 30
0.0
 10
5.7834888848
 20
3.1594564374
 30
0.0
 10
5.7836175999
 20
3.1586513938
 30
0.0
 10
5.7837089595
 20
3.1580398375
 30
0.0
 10
5.7837691402
 20
3.1576033628
 30
0.0
 10
5.7838057471
 20
3.1573194598
 30
0.0
 10
5.7838356384
 20
3.1570664355
 30
0.0
 10
5.7838587185
 20
3.1568455251
 30
0.0
 10
5.7838748956
 20
3.1566577823
 30
0.0
 10
5.7838831293
 20
3.1565223987
 30
0.0
 10
5.7838857321
 20
3.1564313215
 30
0.0
 10
5.7838857923
 20
3.1563761654
 30
0.0
 10
5.7838841128
 20
3.1563298057
 30
0.0
 10
5.7838807411
 20
3.1562923206
 30
0.0
 10
5.7838757352
 20
3.1562634066
 30
0.0
 10
5.7838691575
 20
3.1562433014
 30
0.0
 10
5.7838604583
 20
3.156229797
 30
0.0
 10
5.7838513352
 20
3.1562279875
 30
0.0
 10
5.7838478393
 20
3.1562287947
 30
0.0
  0
SPLINE
  5
242
100
AcDbEntity
  8
0
100
AcDbSpline
 62
7
  6
CONTINUOUS
 70
0
 71
3
 72
22
 73
18
 74
0
 42
0.0000001
 43
0.0000001
 44
0.0000000001
 40
0.0
 40
0.0
 40
0.0
 40
0.0
 40
0.186343444
 40
0.3657980975
 40
0.5317733833
 40
0.6078088931
 40
0.6782974748
 40
0.7426324072
 40
0.8003087379
 40
0.8509048336
 40
0.8941612085
 40
0.9299988296
 40
0.958708853
 40
0.9706714956
 40
0.9813003387
 40
0.9909265712
 40
1.0
 40
1.0
 40
1.0
 40
1.0
 10
5.7815999148
 20
3.7563358406
 30
0.0
 10
5.7822503324
 20
3.7563358406
 30
0.0
 10
5.7835272714
 20
3.756359563
 30
0.0
 10
5.7853807949
 20
3.7564655955
 30
0.0
 10
5.7868451824
 20
3.7566124766
 30
0.0
 10
5.7879253036
 20
3.7567653745
 30
0.0
 10
5.7886506753
 20
3.7568907302
 30
0.0
 10
5.7893083878
 20
3.757028923
 30
0.0
 10
5.7898922732
 20
3.7571784245
 30
0.0
 10
5.7903969002
 20
3.7573378392
 30
0.0
 10
5.7908181027
 20
3.7575053932
 30
0.0
 10
5.7911523342
 20
3.757679625
 30
0.0
 10
5.7913697338
 20
3.7578383463
 30
0.0
 10
5.7914913214
 20
3.7579706232
 30
0.0
 10
5.7915533123
 20
3.7580652043
 30
0.0
 10
5.7915912437
 20
3.7581611659
 30
0.0
 10
5.7915999148
 20
3.7582266974
 30
0.0
 10
5.7915999148
 20
3.7582583675
 30
0.0
  0
ENDSEC
  0
SECTION
  2
OBJECTS
  0
DICTIONARY
  5
C
100
AcDbDictionary
280
0
281
1
  3
ACAD_GROUP
350
D
  3
ACAD_MLINESTYLE
350
17
  3
ACAD_LAYOUT
350
1A
  3
ACAD_PLOTSETTINGS
350
19
  3
ACAD_PLOTSTYLENAME
350
E
  0
DICTIONARY
  5
D
102
{ACAD_REACTORS
330
C
102
}
100
AcDbDictionary
280
0
281
1
  0
ACDBDICTIONARYWDFLT
  5
E
102
{ACAD_REACTORS
330
C
102
}
100
AcDbDictionary
281
1
  3
Normal
350
F
100
AcDbDictionaryWithDefault
340
F
  0
DICTIONARY
  5
17
102
{ACAD_REACTORS
330
C
102
}
100
AcDbDictionary
280
0
281
1
  3
Standard
350
18
  0
DICTIONARY
  5
19
102
{ACAD_REACTORS
330
C
102
}
100
AcDbDictionary
281
1
  0
DICTIONARY
  5
1A
102
{ACAD_REACTORS
330
C
102
}
100
AcDbDictionary
281
1
  3
Model
350
243
  3
Layout1
350
244
  0
ACDBPLACEHOLDER
  5
F
102
{ACAD_REACTORS
330
E
102
}
  0
MLINESTYLE
  5
18
102
{ACAD_REACTORS
330
17
102
}
100
AcDbMlineStyle
  2
STANDARD
 70
0
  3

 62
256
 51
90.0
 52
90.0
 71
2
 49
0.5
 62
256
  6
BYLAYER
 49
-0.5
 62
256
  6
BYLAYER
  0
LAYOUT
  5
243
102
{ACAD_REACTORS
330
1A
102
}
100
AcDbPlotSettings
  1

  2
none_device
  4
ANSI_A_(11.00_x_8.50_Inches)
  6

 40
0.0
 41
0.0
 42
0.0
 43
0.0
 44
279.4
 45
215.9
 46
0.0
 47
0.0
 48
0.0
 49
0.0
140
0.0
141
0.0
142
1.0
143
1.0
 70
1024
 72
0
 73
0
 74
0
  7

 75
0
147
1.0
148
0.0
149
0.0
100
AcDbLayout
  1
Model
 70
0
 71
0
 10
0.0
 20
0.0
 11
11.0
 21
8.5
 12
0.0
 22
0.0
 32
0.0
 14
0.0
 24
0.0
 34
0.0
 15
0.0
 25
0.0
 35
0.0
146
0.0
 13
0.0
 23
0.0
 33
0.0
 16
1.0
 26
0.0
 36
0.0
 17
0.0
 27
1.0
 37
0.0
 76
0
330
202
345
0
346
0
  0
LAYOUT
  5
244
102
{ACAD_REACTORS
330
1A
102
}
100
AcDbPlotSettings
  1

  2
none_device
  4
ANSI_A_(11.00_x_8.50_Inches)
  6

 40
0.0
 41
0.0
 42
0.0
 43
0.0
 44
279.4
 45
215.9
 46
0.0
 47
0.0
 48
0.0
 49
0.0
140
0.0
141
0.0
142
1.0
143
1.0
 70
0
 72
0
 73
0
 74
0
  7

 75
0
147
1.0
148
0.0
149
0.0
100
AcDbLayout
  1
Layout1
 70
0
 71
1
 10
0.0
 20
0.0
 11
11.0
 21
8.5
 12
0.0
 22
0.0
 32
0.0
 14
0.0
 24
0.0
 34
0.0
 15
0.0
 25
0.0
 35
0.0
146
0.0
 13
0.0
 23
0.0
 33
0.0
 16
1.0
 26
0.0
 36
0.0
 17
0.0
 27
1.0
 37
0.0
 76
0
330
203
345
0
346
0
  0
ENDSEC
  0
EOF
