999
DXF file: E:\BT Custom\CADOUTPUT\_TOP.dxf
999
Pro/ENGINEER 2018400 by Parametric Technology Corporation
  0
SECTION
  2
HEADER
  9
$ACADVER
  1
AC1018
  9
$DWGCODEPAGE
  3
ANSI_1252
  9
$EXTMAX
 10
22.0
 20
17.0
 30
0.0
  9
$EXTMIN
 10
0.0
 20
0.0
 30
0.0
  9
$LIMMIN
 10
0.0
 20
0.0
  9
$LIMMAX
 10
22.0
 20
17.0
  9
$VIEWCTR
 10
11.0
 20
8.5
  9
$VIEWSIZE
 40
17.0
  9
$CLAYER
  8
0
  9
$LTSCALE
 40
1.21
  9
$CELTYPE
  6
BYLAYER
  9
$DIMSCALE
 40
1.0
  9
$DIMASZ
 40
0.1
  9
$DIMEXO
 40
0.0625
  9
$DIMDLI
 40
0.836
  9
$DIMEXE
 40
0.125
  9
$DIMCEN
 40
0.198
  9
$DIMLFAC
 40
1.0
  9
$DIMBLK
  1
_FILLED
  9
$DIMALT
 70
1
  9
$DIMALTD
 70
2
  9
$DIMALTTD
 70
2
  9
$DIMALTF
 40
25.4
  9
$DIMTXT
 40
0.08
  9
$DIMTOL
 70
1
  9
$DIMLIM
 70
0
  9
$DIMTFAC
 40
1.0
  9
$DIMTP
 40
0.001
  9
$DIMTM
 40
0.001
  9
$DIMGAP
 40
0.09
  9
$DIMDSEP
 70
46
  9
$AUNITS
 70
0
  9
$PDMODE
 70
3
  9
$PDSIZE
 40
0.06
  9
$HANDSEED
  5
2EF
  9
$TILEMODE
 70
1
  9
$MEASUREMENT
 70
0
  9
$INSUNITS
 70
1
  0
ENDSEC
  0
SECTION
  2
CLASSES
  0
CLASS
  1
ACDBDICTIONARYWDFLT
  2
AcDbDictionaryWithDefault
  3
AutoCAD 2000
 90
0
 91
1
280
0
281
0
  0
CLASS
  1
ACDBPLACEHOLDER
  2
AcDbPlaceHolder
  3
AutoCAD 2000
 90
0
 91
1
280
0
281
0
  0
CLASS
  1
LAYOUT
  2
AcDbLayout
  3
AutoCAD 2000
 90
0
 91
0
280
0
281
0
  0
ENDSEC
  0
SECTION
  2
TABLES
  0
TABLE
  2
VPORT
  5
8
100
AcDbSymbolTable
 70
2
  0
VPORT
  5
1F4
100
AcDbSymbolTableRecord
100
AcDbViewportTableRecord
  2
*ACTIVE
 70
0
 10
0.0
 20
0.0
 11
1.0
 21
1.0
 12
11.0
 22
8.5
 13
0.0
 23
0.0
 14
1.0
 24
1.0
 15
0.0
 25
0.0
 16
0.0
 26
0.0
 36
1.0
 17
0.0
 27
0.0
 37
0.0
 40
17.0
 41
1.2941176471
 42
50.0
 43
0.0
 44
0.0
 50
0.0
 51
0.0
 71
0
 72
100
 73
1
 74
1
 75
0
 76
0
 77
0
 78
0
  0
ENDTAB
  0
TABLE
  2
LTYPE
  5
5
100
AcDbSymbolTable
 70
6
  0
LTYPE
  5
14
100
AcDbSymbolTableRecord
100
AcDbLinetypeTableRecord
  2
BYBLOCK
 70
0
  3

 72
65
 73
0
 40
0.0
  0
LTYPE
  5
15
100
AcDbSymbolTableRecord
100
AcDbLinetypeTableRecord
  2
BYLAYER
 70
0
  3

 72
65
 73
0
 40
0.0
  0
LTYPE
  5
16
100
AcDbSymbolTableRecord
100
AcDbLinetypeTableRecord
  2
CONTINUOUS
 70
64
  3
Solid line
 72
65
 73
0
 40
0.0
  0
LTYPE
  5
1F5
100
AcDbSymbolTableRecord
100
AcDbLinetypeTableRecord
  2
CENTER
 70
64
  3
____ _ ____ _ ____ _ ____ _ ____ _ ____ _ ____
 72
65
 73
4
 40
0.6
 49
0.375
 74
0
 49
-0.075
 74
0
 49
0.075
 74
0
 49
-0.075
 74
0
  0
LTYPE
  5
1F6
100
AcDbSymbolTableRecord
100
AcDbLinetypeTableRecord
  2
HIDDEN
 70
64
  3
- - - - - - - - - - - - - - - - - - - -
 72
65
 73
2
 40
0.2
 49
0.1
 74
0
 49
-0.1
 74
0
  0
LTYPE
  5
1F7
100
AcDbSymbolTableRecord
100
AcDbLinetypeTableRecord
  2
PHANTOM
 70
64
  3
_____ _ _ _____ _ _ _____ _ _ _____
 72
65
 73
6
 40
0.8
 49
0.45
 74
0
 49
-0.05
 74
0
 49
0.1
 74
0
 49
-0.05
 74
0
 49
0.1
 74
0
 49
-0.05
 74
0
  0
LTYPE
  5
1F8
100
AcDbSymbolTableRecord
100
AcDbLinetypeTableRecord
  2
DOT
 70
64
  3
. . . . . . . . . . . . . . . . . . . .
 72
65
 73
2
 40
0.2
 49
0.1
 74
0
 49
-0.1
 74
0
  0
LTYPE
  5
1F9
100
AcDbSymbolTableRecord
100
AcDbLinetypeTableRecord
  2
DASHED
 70
64
  3
- - - - - - - - - - - - - - - - - - - -
 72
65
 73
2
 40
0.2
 49
0.1
 74
0
 49
-0.1
 74
0
  0
ENDTAB
  0
TABLE
  2
LAYER
  5
2
100
AcDbSymbolTable
 70
36
  0
LAYER
  5
10
100
AcDbSymbolTableRecord
100
AcDbLayerTableRecord
  2
0
 70
0
 62
7
  6
CONTINUOUS
370
-3
390
F
  0
LAYER
  5
1FA
100
AcDbSymbolTableRecord
100
AcDbLayerTableRecord
  2
DEFAULT_1
 70
0
 62
7
  6
CENTER
370
-3
390
F
  0
LAYER
  5
1FB
100
AcDbSymbolTableRecord
100
AcDbLayerTableRecord
  2
DEFAULT_2
 70
0
 62
8
  6
HIDDEN
370
-3
390
F
  0
LAYER
  5
1FC
100
AcDbSymbolTableRecord
100
AcDbLayerTableRecord
  2
DEFAULT_3
 70
0
 62
7
  6
PHANTOM
370
-3
390
F
  0
LAYER
  5
1FD
100
AcDbSymbolTableRecord
100
AcDbLayerTableRecord
  2
ALL_FEATURES
 70
0
 62
7
  6
CONTINUOUS
370
-3
390
F
  0
LAYER
  5
1FE
100
AcDbSymbolTableRecord
100
AcDbLayerTableRecord
  2
AXES_FEATURES
 70
0
 62
7
  6
CONTINUOUS
370
-3
390
F
  0
LAYER
  5
1FF
100
AcDbSymbolTableRecord
100
AcDbLayerTableRecord
  2
DIMENSIONS
 70
0
 62
7
  6
CONTINUOUS
370
-3
390
F
  0
ENDTAB
  0
TABLE
  2
STYLE
  5
3
100
AcDbSymbolTable
 70
1
  0
STYLE
  5
11
100
AcDbSymbolTableRecord
100
AcDbTextStyleTableRecord
  2
STANDARD
 70
0
 40
0.0
 41
0.8
 50
0.0
 71
0
 42
0.2
  3
txt
  4

  0
STYLE
  5
200
100
AcDbSymbolTableRecord
100
AcDbTextStyleTableRecord
  2
TEXTSTYLE_1
 70
0
 40
0.0
 41
0.8
 50
0.0
 71
0
 42
0.2
  3
gdt
  4

  0
ENDTAB
  0
TABLE
  2
VIEW
  5
6
100
AcDbSymbolTable
 70
0
  0
ENDTAB
  0
TABLE
  2
UCS
  5
7
100
AcDbSymbolTable
 70
0
  0
ENDTAB
  0
TABLE
  2
APPID
  5
9
100
AcDbSymbolTable
 70
1
  0
APPID
  5
201
100
AcDbSymbolTableRecord
100
AcDbRegAppTableRecord
  2
ACAD
 70
0
  0
ENDTAB
  0
TABLE
  2
BLOCK_RECORD
  5
1
100
AcDbSymbolTable
 70
0
  0
BLOCK_RECORD
  5
202
100
AcDbSymbolTableRecord
100
AcDbBlockTableRecord
  2
*Model_Space
  0
BLOCK_RECORD
  5
203
100
AcDbSymbolTableRecord
100
AcDbBlockTableRecord
  2
*Paper_Space
  0
BLOCK_RECORD
  5
204
100
AcDbSymbolTableRecord
100
AcDbBlockTableRecord
  2
_FILLED
  0
ENDTAB
  0
TABLE
  2
DIMSTYLE
  5
A
100
AcDbSymbolTable
 70
1
100
AcDbDimStyleTable
 71
0
  0
DIMSTYLE
105
205
100
AcDbSymbolTableRecord
100
AcDbDimStyleTableRecord
  2
STANDARD
 70
0
  3

  4

 40
1.0
 41
0.1
 42
0.0625
 43
0.38
 44
0.125
 45
0.0
 46
0.0
 47
0.001
 48
0.001
140
0.08
141
0.09
142
0.0
143
25.4
144
1.0
145
0.0
146
1.0
147
0.09
 71
1.0
 72
0.0
 73
1
 74
1
 75
0
 76
0
 77
0
 78
4
 79
1
170
1
171
2
172
0
173
0
174
0
175
0
176
0
177
0
178
0
270
2
179
3
271
3
272
3
273
2
274
2
275
0
280
0
281
0
282
0
283
1
284
4
285
0
286
0
287
3
288
0
340
11
278
46
341
204
342
204
343
204
344
204
  0
ENDTAB
  0
ENDSEC
  0
SECTION
  2
BLOCKS
  0
BLOCK
  5
20
100
AcDbEntity
  8
0
100
AcDbBlockBegin
  2
*Model_Space
 70
0
 10
0.0
 20
0.0
 30
0.0
  3
*Model_Space
  1

  0
ENDBLK
  5
21
100
AcDbEntity
  8
0
100
AcDbBlockEnd
  0
BLOCK
  5
1C
100
AcDbEntity
  8
0
100
AcDbBlockBegin
  2
*Paper_Space
 70
0
 10
0.0
 20
0.0
 30
0.0
  3
*Paper_Space
  1

  0
ENDBLK
  5
1D
100
AcDbEntity
  8
0
100
AcDbBlockEnd
  0
BLOCK
  5
206
100
AcDbEntity
  8
0
100
AcDbBlockBegin
  2
_FILLED
 70
64
 10
0.0
 20
0.0
  3
_FILLED
  1

  0
SOLID
  5
207
100
AcDbEntity
  8
0
  6
BYBLOCK
 62
0
100
AcDbTrace
 10
0.0
 20
0.0
 11
-1.0
 21
0.2
 12
-1.0
 22
-0.2
 13
-1.0
 23
-0.2
  0
ENDBLK
  5
208
100
AcDbEntity
  8
0
  6
BYBLOCK
 62
0
100
AcDbBlockEnd
  0
ENDSEC
  0
SECTION
  2
ENTITIES
  0
LINE
  5
209
100
AcDbEntity
  8
0
100
AcDbLine
 62
7
  6
CONTINUOUS
 10
3.7473183383
 20
9.8603990691
 11
3.7473183383
 21
9.3613904416
  0
LINE
  5
20A
100
AcDbEntity
  8
0
100
AcDbLine
 62
9
  6
CONTINUOUS
 10
3.7698056438
 20
9.9072263944
 11
3.7698056438
 21
9.3145631163
  0
LINE
  5
20B
100
AcDbEntity
  8
0
100
AcDbLine
 62
9
  6
CONTINUOUS
 10
3.8673641439
 20
10.0576119541
 11
3.8673641439
 21
9.1641775567
  0
LINE
  5
20C
100
AcDbEntity
  8
0
100
AcDbLine
 62
9
  6
CONTINUOUS
 10
3.925415466
 20
10.1024447554
 11
3.925415466
 21
9.1193447554
  0
LINE
  5
20D
100
AcDbEntity
  8
0
100
AcDbLine
 62
9
  6
CONTINUOUS
 10
3.9473183383
 20
9.1193447554
 11
3.9473183383
 21
10.1024447554
  0
LINE
  5
20E
100
AcDbEntity
  8
0
100
AcDbLine
 62
7
  6
CONTINUOUS
 10
3.9873183383
 20
9.1593447606
 11
3.9873183383
 21
10.0624447502
  0
LINE
  5
20F
100
AcDbEntity
  8
0
100
AcDbLine
 62
7
  6
CONTINUOUS
 10
6.162318338
 20
9.889894747
 11
6.162318338
 21
9.3318947554
  0
LINE
  5
210
100
AcDbEntity
  8
0
100
AcDbLine
 62
9
  6
CONTINUOUS
 10
6.2426937292
 20
9.9375987295
 11
6.2426937292
 21
9.2841907813
  0
LINE
  5
211
100
AcDbEntity
  8
0
100
AcDbLine
 62
9
  6
CONTINUOUS
 10
6.5103161119
 20
9.9132744724
 11
6.5103161119
 21
9.3085150384
  0
LINE
  5
212
100
AcDbEntity
  8
0
100
AcDbLine
 62
7
  6
CONTINUOUS
 10
6.5573183383
 20
9.3478973851
 11
6.5573183383
 21
9.8738921256
  0
LINE
  5
213
100
AcDbEntity
  8
0
100
AcDbLine
 62
7
  6
CONTINUOUS
 10
6.6593183383
 20
9.3802447554
 11
6.6593183383
 21
9.8415447554
  0
LINE
  5
214
100
AcDbEntity
  8
0
100
AcDbLine
 62
7
  6
CONTINUOUS
 10
10.4848183383
 20
7.9548947554
 11
10.4848183383
 21
7.9631101373
  0
LINE
  5
215
100
AcDbEntity
  8
0
100
AcDbLine
 62
7
  6
CONTINUOUS
 10
10.4848183383
 20
8.8526793734
 11
10.4848183383
 21
8.8608947554
  0
LINE
  5
216
100
AcDbEntity
  8
0
100
AcDbLine
 62
7
  6
CONTINUOUS
 10
10.5973183383
 20
6.8682947554
 11
10.5973272822
 21
7.8848947554
  0
LINE
  5
217
100
AcDbEntity
  8
0
100
AcDbLine
 62
9
  6
CONTINUOUS
 10
11.0473183383
 20
4.1645519834
 11
11.0473183386
 21
7.8848947554
  0
LINE
  5
218
100
AcDbEntity
  8
0
100
AcDbLine
 62
9
  6
CONTINUOUS
 10
10.5964099369
 20
6.7116988182
 11
10.5964142696
 21
6.7124383445
  0
LINE
  5
219
100
AcDbEntity
  8
0
100
AcDbLine
 62
7
  6
CONTINUOUS
 10
10.5973183383
 20
6.8682948001
 11
10.5972189564
 21
6.8169433258
  0
LINE
  5
21A
100
AcDbEntity
  8
0
100
AcDbLine
 62
7
  6
CONTINUOUS
 10
10.5972189564
 20
6.8169433258
 11
10.5968968995
 21
6.7615886724
  0
LINE
  5
21B
100
AcDbEntity
  8
0
100
AcDbLine
 62
7
  6
CONTINUOUS
 10
10.5968968995
 20
6.7615886724
 11
10.5964142696
 21
6.7124383445
  0
LWPOLYLINE
  5
21C
100
AcDbEntity
  8
0
100
AcDbPolyline
 62
7
  6
CONTINUOUS
 90
5
 70
0
 10
10.5964142758
 20
6.7124388728
 10
10.5891578743
 20
6.4122399985
 10
10.5744223466
 20
6.127233004
 10
10.5527497658
 20
5.8680583733
 10
10.5258819545
 20
5.6443831787
  0
LINE
  5
21D
100
AcDbEntity
  8
0
100
AcDbLine
 62
9
  6
CONTINUOUS
 10
10.5246895753
 20
5.6270782865
 11
10.5258818821
 21
5.6443826638
  0
LINE
  5
21E
100
AcDbEntity
  8
0
100
AcDbLine
 62
9
  6
CONTINUOUS
 10
10.5043507423
 20
5.4945442823
 11
10.5061075104
 21
5.5159448337
  0
LWPOLYLINE
  5
21F
100
AcDbEntity
  8
0
100
AcDbPolyline
 62
7
  6
CONTINUOUS
 90
4
 70
0
 10
10.5258818818
 20
5.6443826611
 10
10.5200156247
 20
5.6038310062
 10
10.5127350885
 20
5.5565189825
 10
10.5061076713
 20
5.5159457923
  0
LWPOLYLINE
  5
220
100
AcDbEntity
  8
0
100
AcDbPolyline
 62
7
  6
CONTINUOUS
 90
5
 70
0
 10
10.5061075108
 20
5.5159448356
 10
10.4739593176
 20
5.3439308226
 10
10.4351368984
 20
5.1726031417
 10
10.3917582056
 20
5.0110377583
 10
10.3464442746
 20
4.8659225992
  0
LWPOLYLINE
  5
221
100
AcDbEntity
  8
0
100
AcDbPolyline
 62
7
  6
CONTINUOUS
 90
3
 70
0
 10
11.8560797873
 20
4.591547428
 10
11.8252971075
 20
4.6609423018
 10
11.7923565512
 20
4.7428124941
  0
LINE
  5
222
100
AcDbEntity
  8
0
100
AcDbLine
 62
7
  6
CONTINUOUS
 10
11.7923565512
 20
4.7428124941
 11
11.7606789785
 21
4.8294317382
  0
LWPOLYLINE
  5
223
100
AcDbEntity
  8
0
100
AcDbPolyline
 62
7
  6
CONTINUOUS
 90
4
 70
0
 10
11.7606792488
 20
4.8294309639
 10
11.7570081894
 20
4.8400085496
 10
11.7518304034
 20
4.855140102
 10
11.7481947708
 20
4.8659155381
  0
LWPOLYLINE
  5
224
100
AcDbEntity
  8
0
100
AcDbPolyline
 62
7
  6
CONTINUOUS
 90
4
 70
0
 10
11.748192402
 20
4.8659225992
 10
11.702878471
 20
5.0110377583
 10
11.6594997782
 20
5.1726031417
 10
11.620677359
 20
5.3439308226
  0
LINE
  5
225
100
AcDbEntity
  8
0
100
AcDbLine
 62
9
  6
CONTINUOUS
 10
11.5885291661
 20
5.5159448338
 11
11.5902859343
 21
5.4945442823
  0
LINE
  5
226
100
AcDbEntity
  8
0
100
AcDbLine
 62
9
  6
CONTINUOUS
 10
11.5687547944
 20
5.6443826637
 11
11.5699471013
 21
5.6270782865
  0
LINE
  5
227
100
AcDbEntity
  8
0
100
AcDbLine
 62
7
  6
CONTINUOUS
 10
11.5054788023
 20
6.4122399985
 11
11.4982224008
 21
6.7124388728
  0
LINE
  5
228
100
AcDbEntity
  8
0
100
AcDbLine
 62
7
  6
CONTINUOUS
 10
11.498222407
 20
6.7124383445
 11
11.497739777
 21
6.7615886724
  0
LWPOLYLINE
  5
229
100
AcDbEntity
  8
0
100
AcDbPolyline
 62
7
  6
CONTINUOUS
 90
3
 70
0
 10
11.497739777
 20
6.7615886724
 10
11.4974099429
 20
6.8182800592
 10
11.4973183383
 20
6.8682947729
  0
LINE
  5
22A
100
AcDbEntity
  8
0
100
AcDbLine
 62
9
  6
CONTINUOUS
 10
11.498222407
 20
6.7124383445
 11
11.4982267397
 21
6.7116988182
  0
LINE
  5
22B
100
AcDbEntity
  8
0
100
AcDbLine
 62
7
  6
CONTINUOUS
 10
11.4973183383
 20
6.8682947554
 11
11.4973093944
 21
7.8848947554
  0
LINE
  5
22C
100
AcDbEntity
  8
0
100
AcDbLine
 62
7
  6
CONTINUOUS
 10
11.6098183383
 20
7.9548947554
 11
11.6098183383
 21
7.9631101373
  0
LINE
  5
22D
100
AcDbEntity
  8
0
100
AcDbLine
 62
7
  6
CONTINUOUS
 10
11.6098183383
 20
8.8526793734
 11
11.6098183383
 21
8.8608947554
  0
LWPOLYLINE
  5
22E
100
AcDbEntity
  8
0
100
AcDbPolyline
 62
7
  6
CONTINUOUS
 90
4
 70
0
 10
10.3464442746
 20
4.8659225992
 10
10.3428062732
 20
4.855140102
 10
10.3376284871
 20
4.8400085496
 10
10.3339574278
 20
4.8294309639
  0
LWPOLYLINE
  5
22F
100
AcDbEntity
  8
0
100
AcDbPolyline
 62
7
  6
CONTINUOUS
 90
4
 70
0
 10
10.3339576981
 20
4.8294317382
 10
10.3022801254
 20
4.7428124941
 10
10.2693395691
 20
4.6609423018
 10
10.2385568892
 20
4.591547428
  0
LINE
  5
230
100
AcDbEntity
  8
0
100
AcDbLine
 62
7
  6
CONTINUOUS
 10
11.5398183383
 20
7.8848947554
 11
10.5548183383
 21
7.8848947554
  0
LINE
  5
231
100
AcDbEntity
  8
0
100
AcDbLine
 62
9
  6
CONTINUOUS
 10
10.4848183383
 20
7.9548947554
 11
11.6098183383
 21
7.9548947554
  0
LINE
  5
232
100
AcDbEntity
  8
0
100
AcDbLine
 62
9
  6
CONTINUOUS
 10
11.6098183383
 20
7.9631101373
 11
10.4848183383
 21
7.9631101373
  0
LINE
  5
233
100
AcDbEntity
  8
0
100
AcDbLine
 62
9
  6
CONTINUOUS
 10
10.5259468476
 20
8.0268787778
 11
11.568689829
 21
8.0268787778
  0
LINE
  5
234
100
AcDbEntity
  8
0
100
AcDbLine
 62
9
  6
CONTINUOUS
 10
10.5546810274
 20
8.0644328699
 11
11.5399556492
 21
8.0644328699
  0
LINE
  5
235
100
AcDbEntity
  8
0
100
AcDbLine
 62
7
  6
CONTINUOUS
 10
11.620677359
 20
5.3439308226
 11
11.5885291658
 21
5.5159448356
  0
LWPOLYLINE
  5
236
100
AcDbEntity
  8
0
100
AcDbPolyline
 62
7
  6
CONTINUOUS
 90
3
 70
0
 10
11.5885290053
 20
5.5159457923
 10
11.581901588
 20
5.5565189825
 10
11.5746210519
 20
5.6038310062
  0
LINE
  5
237
100
AcDbEntity
  8
0
100
AcDbLine
 62
7
  6
CONTINUOUS
 10
11.5746210519
 20
5.6038310062
 11
11.5687547948
 21
5.6443826611
  0
LWPOLYLINE
  5
238
100
AcDbEntity
  8
0
100
AcDbPolyline
 62
7
  6
CONTINUOUS
 90
4
 70
0
 10
11.5687547221
 20
5.6443831787
 10
11.5418869107
 20
5.8680583733
 10
11.5202143299
 20
6.127233004
 10
11.5054788023
 20
6.4122399985
  0
LINE
  5
239
100
AcDbEntity
  8
0
100
AcDbLine
 62
9
  6
CONTINUOUS
 10
11.5399556492
 20
8.7513566409
 11
10.5546810274
 21
8.7513566409
  0
LINE
  5
23A
100
AcDbEntity
  8
0
100
AcDbLine
 62
9
  6
CONTINUOUS
 10
11.568689829
 20
8.7889107329
 11
10.5259468476
 21
8.7889107329
  0
LINE
  5
23B
100
AcDbEntity
  8
0
100
AcDbLine
 62
9
  6
CONTINUOUS
 10
10.4848183383
 20
8.8526793734
 11
11.6098183383
 21
8.8526793734
  0
LINE
  5
23C
100
AcDbEntity
  8
0
100
AcDbLine
 62
9
  6
CONTINUOUS
 10
11.6098183383
 20
8.8608947554
 11
10.4848183383
 21
8.8608947554
  0
LINE
  5
23D
100
AcDbEntity
  8
0
100
AcDbLine
 62
7
  6
CONTINUOUS
 10
10.554824979
 20
8.9308947554
 11
11.5398116976
 21
8.9308947554
  0
LINE
  5
23E
100
AcDbEntity
  8
0
100
AcDbLine
 62
9
  6
CONTINUOUS
 10
11.5068820537
 20
8.9396396314
 11
11.0473183383
 21
8.9396373841
  0
LINE
  5
23F
100
AcDbEntity
  8
0
100
AcDbLine
 62
9
  6
CONTINUOUS
 10
11.0435704225
 20
8.9396391639
 11
10.587756111
 21
8.9396386151
  0
LINE
  5
240
100
AcDbEntity
  8
0
100
AcDbLine
 62
7
  6
CONTINUOUS
 10
18.1692212105
 20
9.1193447554
 11
18.1473183383
 21
9.1193447554
  0
LINE
  5
241
100
AcDbEntity
  8
0
100
AcDbLine
 62
7
  6
CONTINUOUS
 10
3.925415466
 20
9.1193447554
 11
3.9473183383
 21
9.1193447554
  0
LINE
  5
242
100
AcDbEntity
  8
0
100
AcDbLine
 62
7
  6
CONTINUOUS
 10
15.5373183383
 20
9.3802447554
 11
15.4353183383
 21
9.3802447554
  0
LINE
  5
243
100
AcDbEntity
  8
0
100
AcDbLine
 62
7
  6
CONTINUOUS
 10
6.5573183383
 20
9.3802447554
 11
6.6593183383
 21
9.3802447554
  0
LINE
  5
244
100
AcDbEntity
  8
0
100
AcDbLine
 62
7
  6
CONTINUOUS
 10
15.5373183383
 20
9.8415447554
 11
15.4353183383
 21
9.8415447554
  0
LINE
  5
245
100
AcDbEntity
  8
0
100
AcDbLine
 62
7
  6
CONTINUOUS
 10
6.5573183383
 20
9.8415447554
 11
6.6593183383
 21
9.8415447554
  0
LINE
  5
246
100
AcDbEntity
  8
0
100
AcDbLine
 62
7
  6
CONTINUOUS
 10
18.1692212105
 20
10.1024447554
 11
18.1473183383
 21
10.1024447554
  0
LINE
  5
247
100
AcDbEntity
  8
0
100
AcDbLine
 62
7
  6
CONTINUOUS
 10
3.925415466
 20
10.1024447554
 11
3.9473183383
 21
10.1024447554
  0
LINE
  5
248
100
AcDbEntity
  8
0
100
AcDbLine
 62
7
  6
CONTINUOUS
 10
15.4353183383
 20
9.8415447554
 11
15.4353183383
 21
9.3802447554
  0
LINE
  5
249
100
AcDbEntity
  8
0
100
AcDbLine
 62
7
  6
CONTINUOUS
 10
15.5373183383
 20
9.3478973851
 11
15.5373183383
 21
9.8738921256
  0
LINE
  5
24A
100
AcDbEntity
  8
0
100
AcDbLine
 62
9
  6
CONTINUOUS
 10
15.5843205647
 20
9.3085150384
 11
15.5843205647
 21
9.9132744724
  0
LINE
  5
24B
100
AcDbEntity
  8
0
100
AcDbLine
 62
9
  6
CONTINUOUS
 10
15.8519429474
 20
9.2841907813
 11
15.8519429474
 21
9.9375987295
  0
LINE
  5
24C
100
AcDbEntity
  8
0
100
AcDbLine
 62
7
  6
CONTINUOUS
 10
15.9323183386
 20
9.3318947638
 11
15.9323183386
 21
9.8898947554
  0
LINE
  5
24D
100
AcDbEntity
  8
0
100
AcDbLine
 62
7
  6
CONTINUOUS
 10
18.1073183383
 20
9.1593447606
 11
18.1073183383
 21
10.0624447502
  0
LINE
  5
24E
100
AcDbEntity
  8
0
100
AcDbLine
 62
9
  6
CONTINUOUS
 10
18.1473183383
 20
10.1024447554
 11
18.1473183383
 21
9.1193447554
  0
LINE
  5
24F
100
AcDbEntity
  8
0
100
AcDbLine
 62
9
  6
CONTINUOUS
 10
18.1692212105
 20
9.1193447554
 11
18.1692212105
 21
10.1024447554
  0
LINE
  5
250
100
AcDbEntity
  8
0
100
AcDbLine
 62
9
  6
CONTINUOUS
 10
18.2272725327
 20
9.1641775567
 11
18.2272725327
 21
10.0576119541
  0
LINE
  5
251
100
AcDbEntity
  8
0
100
AcDbLine
 62
9
  6
CONTINUOUS
 10
18.3248310328
 20
9.3145631163
 11
18.3248310328
 21
9.9072263944
  0
LINE
  5
252
100
AcDbEntity
  8
0
100
AcDbLine
 62
7
  6
CONTINUOUS
 10
18.3473183383
 20
9.3613904416
 11
18.3473183383
 21
9.8603990691
  0
ARC
  5
253
100
AcDbEntity
  8
0
100
AcDbCircle
 62
7
  6
CONTINUOUS
 10
1.9744264486
 20
-31.9007507406
 40
41.9999581993
100
AcDbArc
 50
84.2774244856
 51
87.2529875987
  0
ARC
  5
254
100
AcDbEntity
  8
0
100
AcDbCircle
 62
7
  6
CONTINUOUS
 10
-3.0364552521
 20
6.8681569235
 40
13.6337735911
100
AcDbArc
 50
359.7847743887
 51
0.0005793084
  0
ARC
  5
255
100
AcDbEntity
  8
0
100
AcDbCircle
 62
7
  6
CONTINUOUS
 10
-2.7194880352
 20
6.8668412872
 40
13.316803669
100
AcDbArc
 50
359.5471430959
 51
359.7853120982
  0
ARC
  5
256
100
AcDbEntity
  8
0
100
AcDbCircle
 62
7
  6
CONTINUOUS
 10
-2.3553087849
 20
6.8637276729
 40
12.9526109589
100
AcDbArc
 50
359.3307589936
 51
359.4674448589
  0
ARC
  5
257
100
AcDbEntity
  8
0
100
AcDbCircle
 62
9
  6
CONTINUOUS
 10
-1.1830996662
 20
6.8447187753
 40
11.7802536292
100
AcDbArc
 50
357.8577596877
 51
359.2642103834
  0
ARC
  5
258
100
AcDbEntity
  8
0
100
AcDbCircle
 62
9
  6
CONTINUOUS
 10
0.767606987
 20
6.7706902393
 40
9.8281431487
100
AcDbArc
 50
356.5225646306
 51
357.8639306857
  0
ARC
  5
259
100
AcDbEntity
  8
0
100
AcDbCircle
 62
9
  6
CONTINUOUS
 10
1.6514552376
 20
6.7182439268
 40
8.9427412063
100
AcDbArc
 50
356.1937218379
 51
356.5144889143
  0
ARC
  5
25A
100
AcDbEntity
  8
0
100
AcDbCircle
 62
9
  6
CONTINUOUS
 10
5.2121032835
 20
6.3708242727
 40
5.3643947655
100
AcDbArc
 50
352.0305598488
 51
352.211570151
  0
ARC
  5
25B
100
AcDbEntity
  8
0
100
AcDbCircle
 62
9
  6
CONTINUOUS
 10
5.5348906284
 20
6.3249023162
 40
5.0383580577
100
AcDbArc
 50
350.7566037088
 51
352.038811559
  0
ARC
  5
25C
100
AcDbEntity
  8
0
100
AcDbCircle
 62
9
  6
CONTINUOUS
 10
5.6819343663
 20
6.3011970251
 40
4.8894159518
100
AcDbArc
 50
350.5039642132
 51
350.754002416
  0
ARC
  5
25D
100
AcDbEntity
  8
0
100
AcDbCircle
 62
9
  6
CONTINUOUS
 10
6.7884158834
 20
6.0048321628
 40
3.7431545703
100
AcDbArc
 50
341.5295784815
 51
342.2267206485
  0
ARC
  5
25E
100
AcDbEntity
  8
0
100
AcDbCircle
 62
9
  6
CONTINUOUS
 10
6.9360987581
 20
5.9553546235
 40
3.5874040075
100
AcDbArc
 50
340.8765567026
 51
341.5318250671
  0
ARC
  5
25F
100
AcDbEntity
  8
0
100
AcDbCircle
 62
9
  6
CONTINUOUS
 10
8.185282187
 20
5.4639832152
 40
2.2446273381
100
AcDbArc
 50
335.1643633462
 51
336.9605191753
  0
ARC
  5
260
100
AcDbEntity
  8
0
100
AcDbCircle
 62
7
  6
CONTINUOUS
 10
8.4343183383
 20
8.4078947554
 40
2.148
100
AcDbArc
 50
350.79899765
 51
9.2010023501
  0
ARC
  5
261
100
AcDbEntity
  8
0
100
AcDbCircle
 62
7
  6
CONTINUOUS
 10
6.4210377405
 20
8.806390181
 40
0.51
100
AcDbArc
 50
79.9181045501
 51
110.4686084913
  0
ARC
  5
262
100
AcDbEntity
  8
0
100
AcDbCircle
 62
7
  6
CONTINUOUS
 10
3.5916203675
 20
9.0921333357
 40
0.285
100
AcDbArc
 50
14.6424786005
 51
51.3022876339
  0
ARC
  5
263
100
AcDbEntity
  8
0
100
AcDbCircle
 62
7
  6
CONTINUOUS
 10
10.5548183383
 20
7.9548947554
 40
0.07
100
AcDbArc
 50
180.0
 51
270.0
  0
ARC
  5
264
100
AcDbEntity
  8
0
100
AcDbCircle
 62
7
  6
CONTINUOUS
 10
10.5548183383
 20
7.9631101568
 40
0.07
100
AcDbArc
 50
114.3588249536
 51
180.0
  0
ARC
  5
265
100
AcDbEntity
  8
0
100
AcDbCircle
 62
7
  6
CONTINUOUS
 10
10.5548183383
 20
8.8526793539
 40
0.07
100
AcDbArc
 50
180.0
 51
245.6411750463
  0
ARC
  5
266
100
AcDbEntity
  8
0
100
AcDbCircle
 62
7
  6
CONTINUOUS
 10
10.5548183383
 20
8.8608947554
 40
0.07
100
AcDbArc
 50
90.0
 51
180.0
  0
ARC
  5
267
100
AcDbEntity
  8
0
100
AcDbCircle
 62
7
  6
CONTINUOUS
 10
6.2217120777
 20
9.3404026154
 40
0.06
100
AcDbArc
 50
188.1518829329
 51
290.4686116332
  0
ARC
  5
268
100
AcDbEntity
  8
0
100
AcDbCircle
 62
7
  6
CONTINUOUS
 10
3.8073183383
 20
9.3613904348
 40
0.06
100
AcDbArc
 50
179.9999934221
 51
231.3022818139
  0
ARC
  5
269
100
AcDbEntity
  8
0
100
AcDbCircle
 62
7
  6
CONTINUOUS
 10
3.9254154667
 20
9.1793447554
 40
0.06
100
AcDbArc
 50
194.6424729899
 51
270.0
  0
ARC
  5
26A
100
AcDbEntity
  8
0
100
AcDbCircle
 62
7
  6
CONTINUOUS
 10
10.505324354
 20
8.0724277927
 40
0.05
100
AcDbArc
 50
294.3588251741
 51
350.7989976493
  0
ARC
  5
26B
100
AcDbEntity
  8
0
100
AcDbCircle
 62
7
  6
CONTINUOUS
 10
10.505324354
 20
8.7433617181
 40
0.05
100
AcDbArc
 50
9.2010023507
 51
65.6411748256
  0
ARC
  5
26C
100
AcDbEntity
  8
0
100
AcDbCircle
 62
7
  6
CONTINUOUS
 10
10.6160037779
 20
8.9808947554
 40
0.05
100
AcDbArc
 50
235.6034421107
 51
270.0
  0
ARC
  5
26D
100
AcDbEntity
  8
0
100
AcDbCircle
 62
7
  6
CONTINUOUS
 10
6.5173183383
 20
9.3478973799
 40
0.04
100
AcDbArc
 50
259.9181027975
 51
0.0000074452
  0
ARC
  5
26E
100
AcDbEntity
  8
0
100
AcDbCircle
 62
7
  6
CONTINUOUS
 10
3.9473183383
 20
9.1593447554
 40
0.04
100
AcDbArc
 50
270.0
 51
0.0000074009
  0
ARC
  5
26F
100
AcDbEntity
  8
0
100
AcDbCircle
 62
7
  6
CONTINUOUS
 10
3.5916203675
 20
10.1296561751
 40
0.285
100
AcDbArc
 50
308.6977123661
 51
345.3575213995
  0
ARC
  5
270
100
AcDbEntity
  8
0
100
AcDbCircle
 62
7
  6
CONTINUOUS
 10
3.9254154667
 20
10.0424447554
 40
0.06
100
AcDbArc
 50
90.0
 51
165.3575270101
  0
ARC
  5
271
100
AcDbEntity
  8
0
100
AcDbCircle
 62
7
  6
CONTINUOUS
 10
3.8073183383
 20
9.860399076
 40
0.06
100
AcDbArc
 50
128.6977181861
 51
180.0000065779
  0
ARC
  5
272
100
AcDbEntity
  8
0
100
AcDbCircle
 62
7
  6
CONTINUOUS
 10
3.9473183383
 20
10.0624447554
 40
0.04
100
AcDbArc
 50
359.9999925991
 51
90.0
  0
ARC
  5
273
100
AcDbEntity
  8
0
100
AcDbCircle
 62
7
  6
CONTINUOUS
 10
1.9744264691
 20
51.1225399166
 40
41.999957864
100
AcDbArc
 50
272.7470123953
 51
275.7225755321
  0
ARC
  5
274
100
AcDbEntity
  8
0
100
AcDbCircle
 62
7
  6
CONTINUOUS
 10
6.2217120777
 20
9.8813868953
 40
0.06
100
AcDbArc
 50
69.531388363
 51
171.848117068
  0
ARC
  5
275
100
AcDbEntity
  8
0
100
AcDbCircle
 62
7
  6
CONTINUOUS
 10
6.5173183383
 20
9.8738921308
 40
0.04
100
AcDbArc
 50
359.9999925548
 51
100.0818972025
  0
ARC
  5
276
100
AcDbEntity
  8
0
100
AcDbCircle
 62
7
  6
CONTINUOUS
 10
6.4210377405
 20
10.4153993298
 40
0.51
100
AcDbArc
 50
249.5313915087
 51
280.0818954499
  0
ARC
  5
277
100
AcDbEntity
  8
0
100
AcDbCircle
 62
7
  6
CONTINUOUS
 10
7.0473183383
 20
9.6108947554
 40
1.1134351517
100
AcDbArc
 50
195.4534889887
 51
164.5465110027
  0
ARC
  5
278
100
AcDbEntity
  8
0
100
AcDbCircle
 62
9
  6
CONTINUOUS
 10
7.0473183383
 20
9.6108947554
 40
1.1032228357
100
AcDbArc
 50
195.5487740397
 51
164.4508729589
  0
ARC
  5
279
100
AcDbEntity
  8
0
100
AcDbCircle
 62
9
  6
CONTINUOUS
 10
7.0473183383
 20
9.6108947554
 40
0.9347230309
100
AcDbArc
 50
197.422196407
 51
162.574215774
  0
ARC
  5
27A
100
AcDbEntity
  8
0
100
AcDbCircle
 62
7
  6
CONTINUOUS
 10
7.0473183383
 20
9.6108947554
 40
0.928
100
AcDbArc
 50
199.2019151418
 51
160.7980848571
  0
ARC
  5
27B
100
AcDbEntity
  8
0
100
AcDbCircle
 62
9
  6
CONTINUOUS
 10
7.0473183383
 20
9.6108947554
 40
0.9159658819
100
AcDbArc
 50
200.6643913433
 51
159.3356086565
  0
ARC
  5
27C
100
AcDbEntity
  8
0
100
AcDbCircle
 62
9
  6
CONTINUOUS
 10
7.0473183383
 20
9.6108947554
 40
0.8160949729
100
AcDbArc
 50
202.4316968181
 51
157.5683031819
  0
ARC
  5
27D
100
AcDbEntity
  8
0
100
AcDbCircle
 62
7
  6
CONTINUOUS
 10
7.0473183383
 20
9.6108947554
 40
0.7554637704
100
AcDbArc
 50
203.3519823663
 51
156.6479673568
  0
ARC
  5
27E
100
AcDbEntity
  8
0
100
AcDbCircle
 62
7
  6
CONTINUOUS
 10
7.0473183383
 20
9.6108947554
 40
0.5181047788
100
AcDbArc
 50
206.5105644333
 51
153.4894355667
  0
ARC
  5
27F
100
AcDbEntity
  8
0
100
AcDbCircle
 62
9
  6
CONTINUOUS
 10
7.0473183383
 20
9.6108947554
 40
0.4757780862
100
AcDbArc
 50
209.0350166217
 51
150.9760100956
  0
ARC
  5
280
100
AcDbEntity
  8
0
100
AcDbCircle
 62
7
  6
CONTINUOUS
 10
7.0473185465
 20
9.610894889
 40
0.450999443
100
AcDbArc
 50
210.727498138
 51
149.2741046088
  0
CIRCLE
  5
281
100
AcDbEntity
  8
0
100
AcDbCircle
 62
9
  6
CONTINUOUS
 10
7.0473183383
 20
9.6108947554
 40
0.2988618953
  0
CIRCLE
  5
282
100
AcDbEntity
  8
0
100
AcDbCircle
 62
9
  6
CONTINUOUS
 10
7.0473183383
 20
9.6108947554
 40
0.2922352458
  0
CIRCLE
  5
283
100
AcDbEntity
  8
0
100
AcDbCircle
 62
7
  6
CONTINUOUS
 10
7.0473183383
 20
9.6108947554
 40
0.28
  0
ARC
  5
284
100
AcDbEntity
  8
0
100
AcDbCircle
 62
7
  6
CONTINUOUS
 10
7.0473183383
 20
9.6108947554
 40
0.28
100
AcDbArc
 50
90.0
 51
94.2715523519
  0
CIRCLE
  5
285
100
AcDbEntity
  8
0
100
AcDbCircle
 62
9
  6
CONTINUOUS
 10
7.0473183383
 20
9.6108947554
 40
0.2258064518
  0
ARC
  5
286
100
AcDbEntity
  8
0
100
AcDbCircle
 62
7
  6
CONTINUOUS
 10
20.1202102074
 20
-31.9007504058
 40
41.9999578639
100
AcDbArc
 50
92.7470123953
 51
95.7225755321
  0
ARC
  5
287
100
AcDbEntity
  8
0
100
AcDbCircle
 62
7
  6
CONTINUOUS
 10
25.1310919271
 20
6.8681569235
 40
13.6337735895
100
AcDbArc
 50
179.9994206916
 51
180.2152256113
  0
ARC
  5
288
100
AcDbEntity
  8
0
100
AcDbCircle
 62
7
  6
CONTINUOUS
 10
24.8141247115
 20
6.8668412872
 40
13.3168036688
100
AcDbArc
 50
180.2146879019
 51
180.4528569041
  0
ARC
  5
289
100
AcDbEntity
  8
0
100
AcDbCircle
 62
7
  6
CONTINUOUS
 10
24.4499455271
 20
6.8637276736
 40
12.9526110245
100
AcDbArc
 50
180.532555145
 51
180.669240925
  0
ARC
  5
28A
100
AcDbEntity
  8
0
100
AcDbCircle
 62
9
  6
CONTINUOUS
 10
23.2777363428
 20
6.8447187753
 40
11.7802536292
100
AcDbArc
 50
180.7357896166
 51
182.1422403123
  0
ARC
  5
28B
100
AcDbEntity
  8
0
100
AcDbCircle
 62
9
  6
CONTINUOUS
 10
21.3270296896
 20
6.7706902393
 40
9.8281431487
100
AcDbArc
 50
182.1360693143
 51
183.4774353694
  0
ARC
  5
28C
100
AcDbEntity
  8
0
100
AcDbCircle
 62
9
  6
CONTINUOUS
 10
20.4431814388
 20
6.7182439268
 40
8.9427412061
100
AcDbArc
 50
183.4855110857
 51
183.8062781621
  0
ARC
  5
28D
100
AcDbEntity
  8
0
100
AcDbCircle
 62
9
  6
CONTINUOUS
 10
16.8825333906
 20
6.3708242723
 40
5.364394763
100
AcDbArc
 50
187.788429849
 51
187.9694401513
  0
ARC
  5
28E
100
AcDbEntity
  8
0
100
AcDbCircle
 62
9
  6
CONTINUOUS
 10
16.5597460481
 20
6.3249023162
 40
5.0383580577
100
AcDbArc
 50
187.961188441
 51
189.2433962912
  0
ARC
  5
28F
100
AcDbEntity
  8
0
100
AcDbCircle
 62
9
  6
CONTINUOUS
 10
16.4127023089
 20
6.3011970249
 40
4.8894159505
100
AcDbArc
 50
189.245997584
 51
189.4960357868
  0
ARC
  5
290
100
AcDbEntity
  8
0
100
AcDbCircle
 62
9
  6
CONTINUOUS
 10
15.3062207931
 20
6.0048321628
 40
3.7431545703
100
AcDbArc
 50
197.7732793515
 51
198.4704215185
  0
ARC
  5
291
100
AcDbEntity
  8
0
100
AcDbCircle
 62
9
  6
CONTINUOUS
 10
15.1585379185
 20
5.9553546235
 40
3.5874040075
100
AcDbArc
 50
198.4681749329
 51
199.1234432974
  0
ARC
  5
292
100
AcDbEntity
  8
0
100
AcDbCircle
 62
9
  6
CONTINUOUS
 10
13.9093544893
 20
5.4639832152
 40
2.2446273377
100
AcDbArc
 50
203.0394808271
 51
204.8356366544
  0
ARC
  5
293
100
AcDbEntity
  8
0
100
AcDbCircle
 62
7
  6
CONTINUOUS
 10
13.6603183383
 20
8.4078947554
 40
2.148
100
AcDbArc
 50
170.7989976498
 51
189.2010023503
  0
ARC
  5
294
100
AcDbEntity
  8
0
100
AcDbCircle
 62
7
  6
CONTINUOUS
 10
11.0473192305
 20
9.6108943206
 40
0.8135004348
100
AcDbArc
 50
90.0000628404
 51
235.6033640455
  0
ARC
  5
295
100
AcDbEntity
  8
0
100
AcDbCircle
 62
7
  6
CONTINUOUS
 10
15.673598936
 20
8.806390181
 40
0.51
100
AcDbArc
 50
69.5313915087
 51
100.0818954499
  0
ARC
  5
296
100
AcDbEntity
  8
0
100
AcDbCircle
 62
7
  6
CONTINUOUS
 10
15.0473181198
 20
9.6108945839
 40
0.450999443
100
AcDbArc
 50
179.9999782167
 51
329.2741094162
  0
ARC
  5
297
100
AcDbEntity
  8
0
100
AcDbCircle
 62
7
  6
CONTINUOUS
 10
18.5030163091
 20
9.0921333357
 40
0.285
100
AcDbArc
 50
128.6977123661
 51
165.3575213995
  0
ARC
  5
298
100
AcDbEntity
  8
0
100
AcDbCircle
 62
7
  6
CONTINUOUS
 10
11.5398183383
 20
7.9548947554
 40
0.07
100
AcDbArc
 50
270.0
 51
360.0
  0
ARC
  5
299
100
AcDbEntity
  8
0
100
AcDbCircle
 62
7
  6
CONTINUOUS
 10
11.5398183383
 20
7.9631101568
 40
0.07
100
AcDbArc
 50
0.0
 51
65.6411750456
  0
ARC
  5
29A
100
AcDbEntity
  8
0
100
AcDbCircle
 62
7
  6
CONTINUOUS
 10
11.5398183383
 20
8.8608947554
 40
0.07
100
AcDbArc
 50
0.0
 51
90.0
  0
ARC
  5
29B
100
AcDbEntity
  8
0
100
AcDbCircle
 62
7
  6
CONTINUOUS
 10
11.5398183383
 20
8.8526793539
 40
0.07
100
AcDbArc
 50
294.3588249543
 51
360.0
  0
ARC
  5
29C
100
AcDbEntity
  8
0
100
AcDbCircle
 62
7
  6
CONTINUOUS
 10
15.8729245989
 20
9.3404026154
 40
0.06
100
AcDbArc
 50
249.5313883631
 51
351.848117068
  0
ARC
  5
29D
100
AcDbEntity
  8
0
100
AcDbCircle
 62
7
  6
CONTINUOUS
 10
18.1692212098
 20
9.1793447554
 40
0.06
100
AcDbArc
 50
270.0
 51
345.3575270101
  0
ARC
  5
29E
100
AcDbEntity
  8
0
100
AcDbCircle
 62
7
  6
CONTINUOUS
 10
18.2873183383
 20
9.3613904348
 40
0.06
100
AcDbArc
 50
308.6977181861
 51
0.0000065779
  0
ARC
  5
29F
100
AcDbEntity
  8
0
100
AcDbCircle
 62
7
  6
CONTINUOUS
 10
11.5893123226
 20
8.7433617181
 40
0.05
100
AcDbArc
 50
114.358825175
 51
170.7989976491
  0
ARC
  5
2A0
100
AcDbEntity
  8
0
100
AcDbCircle
 62
7
  6
CONTINUOUS
 10
11.5893123226
 20
8.0724277927
 40
0.05
100
AcDbArc
 50
189.201002351
 51
245.6411748251
  0
ARC
  5
2A1
100
AcDbEntity
  8
0
100
AcDbCircle
 62
7
  6
CONTINUOUS
 10
11.4786328987
 20
8.9808947554
 40
0.05
100
AcDbArc
 50
270.0
 51
304.3965591281
  0
ARC
  5
2A2
100
AcDbEntity
  8
0
100
AcDbCircle
 62
7
  6
CONTINUOUS
 10
15.5773183383
 20
9.3478973799
 40
0.04
100
AcDbArc
 50
179.9999925548
 51
280.0818972025
  0
ARC
  5
2A3
100
AcDbEntity
  8
0
100
AcDbCircle
 62
7
  6
CONTINUOUS
 10
18.1473183383
 20
9.1593447554
 40
0.04
100
AcDbArc
 50
179.9999925991
 51
270.0
  0
ARC
  5
2A4
100
AcDbEntity
  8
0
100
AcDbCircle
 62
7
  6
CONTINUOUS
 10
11.0473183383
 20
9.6108947554
 40
1.189216982
100
AcDbArc
 50
293.3139914735
 51
246.6860085265
  0
ARC
  5
2A5
100
AcDbEntity
  8
0
100
AcDbCircle
 62
9
  6
CONTINUOUS
 10
11.0473183383
 20
9.6108947554
 40
1.1800034528
100
AcDbArc
 50
293.4803151628
 51
246.520700971
  0
ARC
  5
2A6
100
AcDbEntity
  8
0
100
AcDbCircle
 62
9
  6
CONTINUOUS
 10
11.0473183383
 20
9.6108947554
 40
1.0515175178
100
AcDbArc
 50
297.4036773362
 51
242.5934759881
  0
ARC
  5
2A7
100
AcDbEntity
  8
0
100
AcDbCircle
 62
7
  6
CONTINUOUS
 10
11.0473183383
 20
9.6108947554
 40
1.0448553528
100
AcDbArc
 50
297.7317740516
 51
242.2682259484
  0
ARC
  5
2A8
100
AcDbEntity
  8
0
100
AcDbCircle
 62
9
  6
CONTINUOUS
 10
11.0473183383
 20
9.6108947554
 40
1.0445660263
100
AcDbArc
 50
297.7441126672
 51
242.258542898
  0
ARC
  5
2A9
100
AcDbEntity
  8
0
100
AcDbCircle
 62
9
  6
CONTINUOUS
 10
11.0473183383
 20
9.6108947554
 40
1.040800326
100
AcDbArc
 50
297.8883412213
 51
242.1137737251
  0
ARC
  5
2AA
100
AcDbEntity
  8
0
100
AcDbCircle
 62
9
  6
CONTINUOUS
 10
11.0473183383
 20
9.6108947554
 40
1.0044590263
100
AcDbArc
 50
299.3384295681
 51
240.6615241583
  0
ARC
  5
2AB
100
AcDbEntity
  8
0
100
AcDbCircle
 62
7
  6
CONTINUOUS
 10
11.0473183383
 20
9.6108947554
 40
0.974012329
100
AcDbArc
 50
303.5050664993
 51
359.9955765007
  0
ARC
  5
2AC
100
AcDbEntity
  8
0
100
AcDbCircle
 62
7
  6
CONTINUOUS
 10
11.0473183383
 20
9.6108947554
 40
0.974012329
100
AcDbArc
 50
301.4997230113
 51
302.5883081955
  0
ARC
  5
2AD
100
AcDbEntity
  8
0
100
AcDbCircle
 62
7
  6
CONTINUOUS
 10
11.0473183383
 20
9.6108947554
 40
0.974012329
100
AcDbArc
 50
237.4116798283
 51
238.5003010734
  0
ARC
  5
2AE
100
AcDbEntity
  8
0
100
AcDbCircle
 62
7
  6
CONTINUOUS
 10
11.0473183383
 20
9.6108947554
 40
0.974012329
100
AcDbArc
 50
180.0
 51
236.4949206205
  0
ARC
  5
2AF
100
AcDbEntity
  8
0
100
AcDbCircle
 62
7
  6
CONTINUOUS
 10
11.0473183383
 20
9.6108947554
 40
0.9740123289
100
AcDbArc
 50
0.0
 51
179.9955207571
  0
ARC
  5
2B0
100
AcDbEntity
  8
0
100
AcDbCircle
 62
7
  6
CONTINUOUS
 10
11.0473183383
 20
9.6108947554
 40
0.8135
100
AcDbArc
 50
304.3965670275
 51
90.0
  0
CIRCLE
  5
2B1
100
AcDbEntity
  8
0
100
AcDbCircle
 62
7
  6
CONTINUOUS
 10
11.0473183383
 20
9.6108947554
 40
0.505
  0
CIRCLE
  5
2B2
100
AcDbEntity
  8
0
100
AcDbCircle
 62
9
  6
CONTINUOUS
 10
11.0473183383
 20
9.6108947554
 40
0.4849999995
  0
CIRCLE
  5
2B3
100
AcDbEntity
  8
0
100
AcDbCircle
 62
7
  6
CONTINUOUS
 10
11.0473183383
 20
9.6108947554
 40
0.4559605246
  0
ARC
  5
2B4
100
AcDbEntity
  8
0
100
AcDbCircle
 62
7
  6
CONTINUOUS
 10
15.0473183383
 20
9.6108947554
 40
1.1134351517
100
AcDbArc
 50
15.4534889887
 51
344.5465110027
  0
ARC
  5
2B5
100
AcDbEntity
  8
0
100
AcDbCircle
 62
9
  6
CONTINUOUS
 10
15.0473183383
 20
9.6108947554
 40
1.1032228357
100
AcDbArc
 50
15.5487740397
 51
344.4508729589
  0
ARC
  5
2B6
100
AcDbEntity
  8
0
100
AcDbCircle
 62
9
  6
CONTINUOUS
 10
15.0473183383
 20
9.6108947554
 40
0.9347230309
100
AcDbArc
 50
17.422196407
 51
342.574215774
  0
ARC
  5
2B7
100
AcDbEntity
  8
0
100
AcDbCircle
 62
7
  6
CONTINUOUS
 10
15.0473183383
 20
9.6108947554
 40
0.928
100
AcDbArc
 50
19.2019151418
 51
340.7980848571
  0
ARC
  5
2B8
100
AcDbEntity
  8
0
100
AcDbCircle
 62
9
  6
CONTINUOUS
 10
15.0473183383
 20
9.6108947554
 40
0.9159658819
100
AcDbArc
 50
20.6643913433
 51
339.3356086565
  0
ARC
  5
2B9
100
AcDbEntity
  8
0
100
AcDbCircle
 62
9
  6
CONTINUOUS
 10
15.0473183383
 20
9.6108947554
 40
0.8160949729
100
AcDbArc
 50
22.4316968181
 51
337.5683031819
  0
ARC
  5
2BA
100
AcDbEntity
  8
0
100
AcDbCircle
 62
7
  6
CONTINUOUS
 10
15.0473183383
 20
9.6108947554
 40
0.7554637704
100
AcDbArc
 50
23.3519823663
 51
336.6479673568
  0
ARC
  5
2BB
100
AcDbEntity
  8
0
100
AcDbCircle
 62
7
  6
CONTINUOUS
 10
15.0473183383
 20
9.6108947554
 40
0.5181047788
100
AcDbArc
 50
26.5105644333
 51
333.4894355667
  0
ARC
  5
2BC
100
AcDbEntity
  8
0
100
AcDbCircle
 62
9
  6
CONTINUOUS
 10
15.0473183383
 20
9.6108947554
 40
0.4757780862
100
AcDbArc
 50
29.0350166217
 51
330.9760100956
  0
ARC
  5
2BD
100
AcDbEntity
  8
0
100
AcDbCircle
 62
7
  6
CONTINUOUS
 10
15.0473183383
 20
9.6108947554
 40
0.451
100
AcDbArc
 50
30.727498138
 51
180.0
  0
CIRCLE
  5
2BE
100
AcDbEntity
  8
0
100
AcDbCircle
 62
9
  6
CONTINUOUS
 10
15.0473183383
 20
9.6108947554
 40
0.2988618953
  0
CIRCLE
  5
2BF
100
AcDbEntity
  8
0
100
AcDbCircle
 62
9
  6
CONTINUOUS
 10
15.0473183383
 20
9.6108947554
 40
0.2922352458
  0
CIRCLE
  5
2C0
100
AcDbEntity
  8
0
100
AcDbCircle
 62
7
  6
CONTINUOUS
 10
15.0473183383
 20
9.6108947554
 40
0.28
  0
CIRCLE
  5
2C1
100
AcDbEntity
  8
0
100
AcDbCircle
 62
9
  6
CONTINUOUS
 10
15.0473183383
 20
9.6108947554
 40
0.2258064518
  0
ARC
  5
2C2
100
AcDbEntity
  8
0
100
AcDbCircle
 62
7
  6
CONTINUOUS
 10
15.5773183383
 20
9.8738921308
 40
0.04
100
AcDbArc
 50
79.9181027975
 51
180.0000074452
  0
ARC
  5
2C3
100
AcDbEntity
  8
0
100
AcDbCircle
 62
7
  6
CONTINUOUS
 10
15.673598936
 20
10.4153993298
 40
0.51
100
AcDbArc
 50
259.9181045501
 51
290.4686084913
  0
ARC
  5
2C4
100
AcDbEntity
  8
0
100
AcDbCircle
 62
7
  6
CONTINUOUS
 10
18.5030163091
 20
10.1296561751
 40
0.285
100
AcDbArc
 50
194.6424786005
 51
231.3022876339
  0
ARC
  5
2C5
100
AcDbEntity
  8
0
100
AcDbCircle
 62
7
  6
CONTINUOUS
 10
15.8729245989
 20
9.8813868953
 40
0.06
100
AcDbArc
 50
8.1518829329
 51
110.4686116332
  0
ARC
  5
2C6
100
AcDbEntity
  8
0
100
AcDbCircle
 62
7
  6
CONTINUOUS
 10
18.2873183383
 20
9.860399076
 40
0.06
100
AcDbArc
 50
359.9999934221
 51
51.3022818139
  0
ARC
  5
2C7
100
AcDbEntity
  8
0
100
AcDbCircle
 62
7
  6
CONTINUOUS
 10
18.1692212098
 20
10.0424447554
 40
0.06
100
AcDbArc
 50
14.6424729899
 51
90.0
  0
ARC
  5
2C8
100
AcDbEntity
  8
0
100
AcDbCircle
 62
7
  6
CONTINUOUS
 10
18.1473183383
 20
10.0624447554
 40
0.04
100
AcDbArc
 50
90.0
 51
180.0000074009
  0
ARC
  5
2C9
100
AcDbEntity
  8
0
100
AcDbCircle
 62
7
  6
CONTINUOUS
 10
20.120210228
 20
51.1225402513
 40
41.9999581993
100
AcDbArc
 50
264.2774244856
 51
267.2529875987
  0
LINE
  5
2CA
100
AcDbEntity
  8
0
100
AcDbLine
 62
9
  6
CONTINUOUS
 10
11.0473183383
 20
8.9396373841
 11
11.0435704225
 21
8.9396391639
  0
LINE
  5
2CB
100
AcDbEntity
  8
0
100
AcDbLine
 62
7
  6
CONTINUOUS
 10
10.5964099369
 20
6.7116988182
 11
10.5964186015
 21
6.7124386712
  0
LINE
  5
2CC
100
AcDbEntity
  8
0
100
AcDbLine
 62
7
  6
CONTINUOUS
 10
10.5967426637
 20
6.7433369515
 11
10.5968996806
 21
6.7615884441
  0
LINE
  5
2CD
100
AcDbEntity
  8
0
100
AcDbLine
 62
7
  6
CONTINUOUS
 10
11.4982267397
 20
6.7116988182
 11
11.4982180749
 21
6.7124386896
  0
LINE
  5
2CE
100
AcDbEntity
  8
0
100
AcDbLine
 62
7
  6
CONTINUOUS
 10
11.4978940129
 20
6.7433369506
 11
11.4977369959
 21
6.7615884441
  0
SPLINE
  5
2CF
100
AcDbEntity
  8
0
100
AcDbSpline
 62
7
  6
CONTINUOUS
 70
0
 71
3
 72
32
 73
28
 74
0
 42
0.0000001
 43
0.0000001
 44
0.0000000001
 40
0.0
 40
0.0
 40
0.0
 40
0.0
 40
0.076243347
 40
0.1496924684
 40
0.220619925
 40
0.2892890079
 40
0.3559238549
 40
0.4206343026
 40
0.4835069005
 40
0.5446158894
 40
0.6040416892
 40
0.6618517577
 40
0.7181485253
 40
0.74577328
 40
0.7730880935
 40
0.8001446415
 40
0.8270118546
 40
0.8537986088
 40
0.8806814126
 40
0.8942480959
 40
0.9079629935
 40
0.9218950903
 40
0.9361277158
 40
0.9507777752
 40
0.9660784383
 40
0.9823546389
 40
1.0
 40
1.0
 40
1.0
 40
1.0
 10
11.0473183383
 20
4.1645519834
 30
0.0
 10
11.0718377213
 20
4.1645519834
 30
0.0
 10
11.1199833903
 20
4.1654401914
 30
0.0
 10
11.1908356771
 20
4.1694698219
 30
0.0
 10
11.2590544841
 20
4.1760112608
 30
0.0
 10
11.3247945345
 20
4.1849050758
 30
0.0
 10
11.3881746139
 20
4.1959788126
 30
0.0
 10
11.4492236126
 20
4.2092658857
 30
0.0
 10
11.5079081387
 20
4.2247939287
 30
0.0
 10
11.5641470056
 20
4.2426575913
 30
0.0
 10
11.6178299912
 20
4.2629411338
 30
0.0
 10
11.6687428813
 20
4.2858864761
 30
0.0
 10
11.7089068414
 20
4.3075522986
 30
0.0
 10
11.739176997
 20
4.3266393592
 30
0.0
 10
11.7607614567
 20
4.3418081834
 30
0.0
 10
11.7812916151
 20
4.3579903393
 30
0.0
 10
11.8006231034
 20
4.3753410355
 30
0.0
 10
11.8186072649
 20
4.3940160375
 30
0.0
 10
11.8321907202
 20
4.4108869494
 30
0.0
 10
11.8420468388
 20
4.4252582533
 30
0.0
 10
11.8489116167
 20
4.4366054671
 30
0.0
 10
11.8551564918
 20
4.4485490106
 30
0.0
 10
11.8607176105
 20
4.461155938
 30
0.0
 10
11.8655388555
 20
4.4745372811
 30
0.0
 10
11.8693219545
 20
4.4889383159
 30
0.0
 10
11.8717786026
 20
4.5046040207
 30
0.0
 10
11.8723183383
 20
4.5155235394
 30
0.0
 10
11.8723183383
 20
4.521198177
 30
0.0
  0
SPLINE
  5
2D0
100
AcDbEntity
  8
0
100
AcDbSpline
 62
7
  6
CONTINUOUS
 70
0
 71
3
 72
15
 73
11
 74
0
 42
0.0000001
 43
0.0000001
 44
0.0000000001
 40
0.0
 40
0.0
 40
0.0
 40
0.0
 40
0.1431616937
 40
0.2789441138
 40
0.4085812219
 40
0.5332098724
 40
0.6538509386
 40
0.7713969694
 40
0.8866060302
 40
1.0
 40
1.0
 40
1.0
 40
1.0
 10
11.8723183383
 20
4.521198177
 30
0.0
 10
11.8723183383
 20
4.5246724019
 30
0.0
 10
11.8721140669
 20
4.5314439537
 30
0.0
 10
11.871187464
 20
4.5413223297
 30
0.0
 10
11.8697091995
 20
4.5506781334
 30
0.0
 10
11.8677391366
 20
4.559566007
 30
0.0
 10
11.8653378405
 20
4.5680417227
 30
0.0
 10
11.8625645631
 20
4.5761608639
 30
0.0
 10
11.8594846703
 20
4.5839787896
 30
0.0
 10
11.8572421972
 20
4.5890549861
 30
0.0
 10
11.8560790894
 20
4.5915489247
 30
0.0
  0
SPLINE
  5
2D1
100
AcDbEntity
  8
0
100
AcDbSpline
 62
7
  6
CONTINUOUS
 70
0
 71
3
 72
32
 73
28
 74
0
 42
0.0000001
 43
0.0000001
 44
0.0000000001
 40
0.0
 40
0.0
 40
0.0
 40
0.0
 40
0.0176453611
 40
0.0339215617
 40
0.0492222248
 40
0.0638722842
 40
0.0781049097
 40
0.0920370065
 40
0.1057519041
 40
0.1193185874
 40
0.1462013912
 40
0.1729881454
 40
0.1998553585
 40
0.2269119065
 40
0.25422672
 40
0.2818514747
 40
0.3381482423
 40
0.3959583108
 40
0.4553841106
 40
0.5164930995
 40
0.5793656974
 40
0.6440761451
 40
0.7107109921
 40
0.779380075
 40
0.8503075316
 40
0.923756653
 40
1.0
 40
1.0
 40
1.0
 40
1.0
 10
10.2223183383
 20
4.521198177
 30
0.0
 10
10.2223183383
 20
4.5155235394
 30
0.0
 10
10.222858074
 20
4.5046040207
 30
0.0
 10
10.225314722
 20
4.4889383159
 30
0.0
 10
10.229097821
 20
4.4745372811
 30
0.0
 10
10.2339190661
 20
4.461155938
 30
0.0
 10
10.2394801847
 20
4.4485490106
 30
0.0
 10
10.2457250598
 20
4.4366054671
 30
0.0
 10
10.2525898378
 20
4.4252582533
 30
0.0
 10
10.2624459564
 20
4.4108869494
 30
0.0
 10
10.2760294117
 20
4.3940160375
 30
0.0
 10
10.2940135732
 20
4.3753410355
 30
0.0
 10
10.3133450615
 20
4.3579903393
 30
0.0
 10
10.3338752199
 20
4.3418081834
 30
0.0
 10
10.3554596796
 20
4.3266393592
 30
0.0
 10
10.3857298352
 20
4.3075522986
 30
0.0
 10
10.4258937953
 20
4.2858864761
 30
0.0
 10
10.4768066854
 20
4.2629411338
 30
0.0
 10
10.530489671
 20
4.2426575913
 30
0.0
 10
10.5867285378
 20
4.2247939287
 30
0.0
 10
10.645413064
 20
4.2092658857
 30
0.0
 10
10.7064620627
 20
4.1959788126
 30
0.0
 10
10.769842142
 20
4.1849050758
 30
0.0
 10
10.8355821925
 20
4.1760112608
 30
0.0
 10
10.9038009995
 20
4.1694698219
 30
0.0
 10
10.9746532863
 20
4.1654401914
 30
0.0
 10
11.0227989553
 20
4.1645519834
 30
0.0
 10
11.0473183383
 20
4.1645519834
 30
0.0
  0
SPLINE
  5
2D2
100
AcDbEntity
  8
0
100
AcDbSpline
 62
7
  6
CONTINUOUS
 70
0
 71
3
 72
15
 73
11
 74
0
 42
0.0000001
 43
0.0000001
 44
0.0000000001
 40
0.0
 40
0.0
 40
0.0
 40
0.0
 40
0.1133939878
 40
0.2286030743
 40
0.346149154
 40
0.4667902804
 40
0.5914189822
 40
0.7210561052
 40
0.8568384703
 40
1.0
 40
1.0
 40
1.0
 40
1.0
 10
10.238557146
 20
4.5915479785
 30
0.0
 10
10.2373940673
 20
4.5890540694
 30
0.0
 10
10.2351516506
 20
4.5839779338
 30
0.0
 10
10.2320718353
 20
4.5761601046
 30
0.0
 10
10.2292986324
 20
4.5680410645
 30
0.0
 10
10.2268974035
 20
4.5595654571
 30
0.0
 10
10.2249273979
 20
4.5506777015
 30
0.0
 10
10.2234491778
 20
4.5413220281
 30
0.0
 10
10.2225226034
 20
4.5314437975
 30
0.0
 10
10.2223183383
 20
4.5246723481
 30
0.0
 10
10.2223183383
 20
4.521198177
 30
0.0
  0
SPLINE
  5
2D3
100
AcDbEntity
  8
0
100
AcDbSpline
 62
9
  6
CONTINUOUS
 70
0
 71
3
 72
29
 73
25
 74
0
 42
0.0000001
 43
0.0000001
 44
0.0000000001
 40
0.0
 40
0.0
 40
0.0
 40
0.0
 40
0.0182056166
 40
0.0351229534
 40
0.0510925038
 40
0.0664010556
 40
0.0812607165
 40
0.0957765639
 40
0.1240582916
 40
0.1517259956
 40
0.1790775818
 40
0.2063148945
 40
0.2335756906
 40
0.2885210701
 40
0.344467266
 40
0.4017115735
 40
0.4604812296
 40
0.5209408709
 40
0.5832007677
 40
0.6473407638
 40
0.7134415909
 40
0.7815911692
 40
0.8519481513
 40
1.0
 40
1.0
 40
1.0
 40
1.0
 10
11.5699471013
 20
5.6270782865
 30
0.0
 10
11.5699471013
 20
5.6232475914
 30
0.0
 10
11.5696224868
 20
5.6158519569
 30
0.0
 10
11.5681618522
 20
5.605187043
 30
0.0
 10
11.56591311
 20
5.5952864848
 30
0.0
 10
11.5630436904
 20
5.5860046848
 30
0.0
 10
11.5597279055
 20
5.5772009778
 30
0.0
 10
11.5547998686
 20
5.5661087412
 30
0.0
 10
11.547675277
 20
5.5530736523
 30
0.0
 10
11.5378554139
 20
5.5385291367
 30
0.0
 10
11.5270038206
 20
5.525023747
 30
0.0
 10
11.5152854938
 20
5.5123851813
 30
0.0
 10
11.4985713062
 20
5.4965259872
 30
0.0
 10
11.4758033394
 20
5.478356311
 30
0.0
 10
11.4461050129
 20
5.4590517998
 30
0.0
 10
11.4142569641
 20
5.4418074393
 30
0.0
 10
11.3803975201
 20
5.4264966899
 30
0.0
 10
11.3446557284
 20
5.4129845755
 30
0.0
 10
11.3071181119
 20
5.401221572
 30
0.0
 10
11.2678654822
 20
5.3911582799
 30
0.0
 10
11.2269541089
 20
5.3827867483
 30
0.0
 10
11.1844091552
 20
5.3760958949
 30
0.0
 10
11.1244660756
 20
5.3694481102
 30
0.0
 10
11.0784703451
 20
5.3675254273
 30
0.0
 10
11.0473183383
 20
5.3675254273
 30
0.0
  0
SPLINE
  5
2D4
100
AcDbEntity
  8
0
100
AcDbSpline
 62
9
  6
CONTINUOUS
 70
0
 71
3
 72
11
 73
7
 74
0
 42
0.0000001
 43
0.0000001
 44
0.0000000001
 40
0.0
 40
0.0
 40
0.0
 40
0.0
 40
0.2424980751
 40
0.4905536637
 40
0.7433370337
 40
1.0
 40
1.0
 40
1.0
 40
1.0
 10
10.5270127212
 20
5.6438656296
 30
0.0
 10
10.5323055803
 20
5.6825602101
 30
0.0
 10
10.5421704606
 20
5.7609531967
 30
0.0
 10
10.5548563129
 20
5.880001487
 30
0.0
 10
10.5657024349
 20
6.0015212412
 30
0.0
 10
10.5717261291
 20
6.0833508667
 30
0.0
 10
10.5744705486
 20
6.1245958474
 30
0.0
  0
LINE
  5
2D5
100
AcDbEntity
  8
0
100
AcDbLine
 62
9
  6
CONTINUOUS
 10
10.5961826019
 20
6.6934414887
 11
10.5964099369
 21
6.7116987988
  0
SPLINE
  5
2D6
100
AcDbEntity
  8
0
100
AcDbSpline
 62
9
  6
CONTINUOUS
 70
0
 71
3
 72
29
 73
25
 74
0
 42
0.0000001
 43
0.0000001
 44
0.0000000001
 40
0.0
 40
0.0
 40
0.0
 40
0.0
 40
0.1480518487
 40
0.2184088308
 40
0.2865584091
 40
0.3526592362
 40
0.4167992323
 40
0.4790591291
 40
0.5395187704
 40
0.5982884265
 40
0.655532734
 40
0.7114789299
 40
0.7664243094
 40
0.7936851055
 40
0.8209224182
 40
0.8482740044
 40
0.8759417084
 40
0.9042234361
 40
0.9187392835
 40
0.9335989444
 40
0.9489074962
 40
0.9648770466
 40
0.9817943834
 40
1.0
 40
1.0
 40
1.0
 40
1.0
 10
11.0473183383
 20
5.3675254273
 30
0.0
 10
11.0161663314
 20
5.3675254273
 30
0.0
 10
10.9701706009
 20
5.3694481102
 30
0.0
 10
10.9102275214
 20
5.3760958949
 30
0.0
 10
10.8676825676
 20
5.3827867483
 30
0.0
 10
10.8267711944
 20
5.3911582799
 30
0.0
 10
10.7875185647
 20
5.401221572
 30
0.0
 10
10.7499809481
 20
5.4129845755
 30
0.0
 10
10.7142391565
 20
5.4264966899
 30
0.0
 10
10.6803797124
 20
5.4418074393
 30
0.0
 10
10.6485316637
 20
5.4590517998
 30
0.0
 10
10.6188333372
 20
5.478356311
 30
0.0
 10
10.5960653704
 20
5.4965259872
 30
0.0
 10
10.5793511828
 20
5.5123851813
 30
0.0
 10
10.5676328559
 20
5.525023747
 30
0.0
 10
10.5567812627
 20
5.5385291367
 30
0.0
 10
10.5469613995
 20
5.5530736523
 30
0.0
 10
10.539836808
 20
5.5661087412
 30
0.0
 10
10.534908771
 20
5.5772009778
 30
0.0
 10
10.5315929862
 20
5.5860046848
 30
0.0
 10
10.5287235666
 20
5.5952864848
 30
0.0
 10
10.5264748244
 20
5.605187043
 30
0.0
 10
10.5250141898
 20
5.6158519569
 30
0.0
 10
10.5246895753
 20
5.6232475914
 30
0.0
 10
10.5246895753
 20
5.6270782865
 30
0.0
  0
SPLINE
  5
2D7
100
AcDbEntity
  8
0
100
AcDbSpline
 62
9
  6
CONTINUOUS
 70
0
 71
3
 72
30
 73
26
 74
0
 42
0.0000001
 43
0.0000001
 44
0.0000000001
 40
0.0
 40
0.0
 40
0.0
 40
0.0
 40
0.1701991446
 40
0.2520609874
 40
0.331331238
 40
0.4076843265
 40
0.4807941141
 40
0.5503395189
 40
0.6159979219
 40
0.6774886696
 40
0.7346495597
 40
0.7615813734
 40
0.7873975768
 40
0.8120960846
 40
0.835689419
 40
0.8582099579
 40
0.8797225397
 40
0.9003287489
 40
0.9201802143
 40
0.9395151956
 40
0.9587103503
 40
0.9684375402
 40
0.9784211147
 40
0.9888616536
 40
1.0
 40
1.0
 40
1.0
 40
1.0
 10
11.0473183383
 20
6.7353338119
 30
0.0
 10
11.0192646234
 20
6.7353338119
 30
0.0
 10
10.9777056542
 20
6.7364362539
 30
0.0
 10
10.9232109894
 20
6.7400950808
 30
0.0
 10
10.8842344679
 20
6.7437722336
 30
0.0
 10
10.8468064843
 20
6.7483496756
 30
0.0
 10
10.8111170101
 20
6.7538110654
 30
0.0
 10
10.7773617275
 20
6.7601388906
 30
0.0
 10
10.7457396792
 20
6.7673343818
 30
0.0
 10
10.7164395298
 20
6.7754037008
 30
0.0
 10
10.6936698148
 20
6.7830304331
 30
0.0
 10
10.6768060241
 20
6.7896590181
 30
0.0
 10
10.665111861
 20
6.7947870783
 30
0.0
 10
10.6541502801
 20
6.8001876699
 30
0.0
 10
10.6439530753
 20
6.8058785254
 30
0.0
 10
10.6345499239
 20
6.8118786315
 30
0.0
 10
10.6259807666
 20
6.8182265629
 30
0.0
 10
10.6182839873
 20
6.8249626153
 30
0.0
 10
10.6115343416
 20
6.8321702381
 30
0.0
 10
10.6058102198
 20
6.8399381581
 30
0.0
 10
10.6020391634
 20
6.8469801644
 30
0.0
 10
10.5997115076
 20
6.8529632987
 30
0.0
 10
10.598364649
 20
6.8577567476
 30
0.0
 10
10.5975062806
 20
6.862898221
 30
0.0
 10
10.5973183383
 20
6.8664588355
 30
0.0
 10
10.5973183383
 20
6.8682947554
 30
0.0
  0
SPLINE
  5
2D8
100
AcDbEntity
  8
0
100
AcDbSpline
 62
9
  6
CONTINUOUS
 70
0
 71
3
 72
31
 73
27
 74
0
 42
0.0000001
 43
0.0000001
 44
0.0000000001
 40
0.0
 40
0.0
 40
0.0
 40
0.0
 40
0.0183648671
 40
0.0354287292
 40
0.0515378307
 40
0.0669832569
 40
0.0819797488
 40
0.0966330028
 40
0.1110183488
 40
0.1252003959
 40
0.1531449814
 40
0.1807693041
 40
0.2082700897
 40
0.2357796682
 40
0.2911604649
 40
0.3474360731
 40
0.4048857824
 40
0.4637249942
 40
0.5241137897
 40
0.5861691312
 40
0.6499836319
 40
0.7156545504
 40
0.7832905922
 40
0.8530788224
 40
0.925238425
 40
1.0
 40
1.0
 40
1.0
 40
1.0
 10
11.5902859343
 20
5.4945442823
 30
0.0
 10
11.5902859341
 20
5.490511809
 30
0.0
 10
11.5899424388
 20
5.4827268814
 30
0.0
 10
11.5883974108
 20
5.4715014574
 30
0.0
 10
11.586020208
 20
5.4610813201
 30
0.0
 10
11.5829890529
 20
5.4513116495
 30
0.0
 10
11.5794897933
 20
5.4420429941
 30
0.0
 10
11.575557186
 20
5.4332042201
 30
0.0
 10
11.5712300153
 20
5.4247528929
 30
0.0
 10
11.5650217998
 20
5.4140041737
 30
0.0
 10
11.5564571996
 20
5.4012812069
 30
0.0
 10
11.5450591692
 20
5.3870200041
 30
0.0
 10
11.5327676654
 20
5.3736548174
 30
0.0
 10
11.5152664699
 20
5.3568664467
 30
0.0
 10
11.4914796
 20
5.3375883823
 30
0.0
 10
11.4605074822
 20
5.3170284608
 30
0.0
 10
11.4273599783
 20
5.2986000743
 30
0.0
 10
11.3921798285
 20
5.2821816421
 30
0.0
 10
11.355098927
 20
5.2676425198
 30
0.0
 10
11.3162001582
 20
5.2549440877
 30
0.0
 10
11.2755592746
 20
5.2440468672
 30
0.0
 10
11.2332243699
 20
5.2349552786
 30
0.0
 10
11.1892120087
 20
5.2276700377
 30
0.0
 10
11.1434867861
 20
5.222320981
 30
0.0
 10
11.0959998619
 20
5.2190308361
 30
0.0
 10
11.0637341421
 20
5.2183052669
 30
0.0
 10
11.0473183383
 20
5.2183052669
 30
0.0
  0
SPLINE
  5
2D9
100
AcDbEntity
  8
0
100
AcDbSpline
 62
9
  6
CONTINUOUS
 70
0
 71
3
 72
31
 73
27
 74
0
 42
0.0000001
 43
0.0000001
 44
0.0000000001
 40
0.0
 40
0.0
 40
0.0
 40
0.0
 40
0.074761575
 40
0.1469211776
 40
0.2167094078
 40
0.2843454496
 40
0.3500163681
 40
0.4138308688
 40
0.4758862103
 40
0.5362750058
 40
0.5951142176
 40
0.6525639269
 40
0.7088395351
 40
0.7642203318
 40
0.7917299103
 40
0.8192306959
 40
0.8468550186
 40
0.8747996041
 40
0.8889816512
 40
0.9033669972
 40
0.9180202512
 40
0.9330167431
 40
0.9484621693
 40
0.9645712708
 40
0.9816351329
 40
1.0
 40
1.0
 40
1.0
 40
1.0
 10
11.0473183383
 20
5.2183052669
 30
0.0
 10
11.0309025345
 20
5.2183052669
 30
0.0
 10
10.9986368147
 20
5.2190308361
 30
0.0
 10
10.9511498905
 20
5.222320981
 30
0.0
 10
10.9054246679
 20
5.2276700377
 30
0.0
 10
10.8614123067
 20
5.2349552786
 30
0.0
 10
10.819077402
 20
5.2440468672
 30
0.0
 10
10.7784365184
 20
5.2549440877
 30
0.0
 10
10.7395377495
 20
5.2676425198
 30
0.0
 10
10.702456848
 20
5.2821816421
 30
0.0
 10
10.6672766983
 20
5.2986000743
 30
0.0
 10
10.6341291944
 20
5.3170284608
 30
0.0
 10
10.6031570766
 20
5.3375883823
 30
0.0
 10
10.5793702067
 20
5.3568664467
 30
0.0
 10
10.5618690112
 20
5.3736548174
 30
0.0
 10
10.5495775073
 20
5.3870200041
 30
0.0
 10
10.538179477
 20
5.4012812069
 30
0.0
 10
10.5296148767
 20
5.4140041737
 30
0.0
 10
10.5234066613
 20
5.4247528929
 30
0.0
 10
10.5190794905
 20
5.4332042201
 30
0.0
 10
10.5151468833
 20
5.4420429941
 30
0.0
 10
10.5116476237
 20
5.4513116495
 30
0.0
 10
10.5086164686
 20
5.4610813201
 30
0.0
 10
10.5062392658
 20
5.4715014574
 30
0.0
 10
10.5046942378
 20
5.4827268814
 30
0.0
 10
10.5043507425
 20
5.490511809
 30
0.0
 10
10.5043507423
 20
5.4945442823
 30
0.0
  0
SPLINE
  5
2DA
100
AcDbEntity
  8
0
100
AcDbSpline
 62
9
  6
CONTINUOUS
 70
0
 71
3
 72
11
 73
7
 74
0
 42
0.0000001
 43
0.0000001
 44
0.0000000001
 40
0.0
 40
0.0
 40
0.0
 40
0.0
 40
0.2249228595
 40
0.4673450808
 40
0.7260776786
 40
1.0
 40
1.0
 40
1.0
 40
1.0
 10
10.3529166269
 20
4.8622296129
 30
0.0
 10
10.3678118618
 20
4.9086872449
 30
0.0
 10
10.3969292493
 20
5.0058123903
 30
0.0
 10
10.4367510255
 20
5.1582182543
 30
0.0
 10
10.4734310373
 20
5.3223224169
 30
0.0
 10
10.4945483113
 20
5.4359431245
 30
0.0
 10
10.5043507423
 20
5.4945442907
 30
0.0
  0
SPLINE
  5
2DB
100
AcDbEntity
  8
0
100
AcDbSpline
 62
9
  6
CONTINUOUS
 70
0
 71
3
 72
32
 73
28
 74
0
 42
0.0000001
 43
0.0000001
 44
0.0000000001
 40
0.0
 40
0.0
 40
0.0
 40
0.0
 40
0.0757728285
 40
0.148777123
 40
0.2192771786
 40
0.2875285815
 40
0.3537506358
 40
0.4180587169
 40
0.4805491935
 40
0.5413092983
 40
0.6004391907
 40
0.6580444014
 40
0.7142739063
 40
0.7419347792
 40
0.7693419838
 40
0.7965553369
 40
0.8236548846
 40
0.8507606121
 40
0.878060153
 40
0.891873866
 40
0.9058623561
 40
0.9200942876
 40
0.9346515813
 40
0.9496490394
 40
0.9653168551
 40
0.981972912
 40
1.0
 40
1.0
 40
1.0
 40
1.0
 10
11.0473183383
 20
4.4975205682
 30
0.0
 10
11.0261647145
 20
4.4975205682
 30
0.0
 10
10.9846251822
 20
4.4983185126
 30
0.0
 10
10.9235008677
 20
4.5019455233
 30
0.0
 10
10.8646628696
 20
4.5078438405
 30
0.0
 10
10.8079911462
 20
4.5158780224
 30
0.0
 10
10.7533932139
 20
4.5259017788
 30
0.0
 10
10.7008516099
 20
4.5379452043
 30
0.0
 10
10.6503994337
 20
4.5520334998
 30
0.0
 10
10.6021098475
 20
4.5682498664
 30
0.0
 10
10.5560760943
 20
4.5866709693
 30
0.0
 10
10.5124758093
 20
4.6075052476
 30
0.0
 10
10.4781487012
 20
4.6271527762
 30
0.0
 10
10.4523109906
 20
4.6444308102
 30
0.0
 10
10.4338820451
 20
4.6581611316
 30
0.0
 10
10.4163623284
 20
4.672794883
 30
0.0
 10
10.3998731222
 20
4.688464625
 30
0.0
 10
10.3845377263
 20
4.7053048876
 30
0.0
 10
10.3729690568
 20
4.7204722263
 30
0.0
 10
10.3645729263
 20
4.7333689408
 30
0.0
 10
10.3587196695
 20
4.7435473615
 30
0.0
 10
10.3533944723
 20
4.7542452911
 30
0.0
 10
10.3486514129
 20
4.7655204715
 30
0.0
 10
10.3445383523
 20
4.7774688382
 30
0.0
 10
10.3413103061
 20
4.7902987386
 30
0.0
 10
10.3392129583
 20
4.8042206682
 30
0.0
 10
10.3387505855
 20
4.8139118099
 30
0.0
 10
10.3387505855
 20
4.8189444614
 30
0.0
  0
SPLINE
  5
2DC
100
AcDbEntity
  8
0
100
AcDbSpline
 62
9
  6
CONTINUOUS
 70
0
 71
3
 72
11
 73
7
 74
0
 42
0.0000001
 43
0.0000001
 44
0.0000000001
 40
0.0
 40
0.0
 40
0.0
 40
0.0
 40
0.230973085
 40
0.4720104581
 40
0.7268947822
 40
1.0
 40
1.0
 40
1.0
 40
1.0
 10
11.7481947708
 20
4.8659155382
 30
0.0
 10
11.74936516
 20
4.8624264699
 30
0.0
 10
11.7515190649
 20
4.8552131433
 30
0.0
 10
11.7539685645
 20
4.8438805145
 30
0.0
 10
11.7555392584
 20
4.8317137565
 30
0.0
 10
11.755886091
 20
4.8232958974
 30
0.0
 10
11.755886091
 20
4.8189444614
 30
0.0
  0
SPLINE
  5
2DD
100
AcDbEntity
  8
0
100
AcDbSpline
 62
9
  6
CONTINUOUS
 70
0
 71
3
 72
11
 73
7
 74
0
 42
0.0000001
 43
0.0000001
 44
0.0000000001
 40
0.0
 40
0.0
 40
0.0
 40
0.0
 40
0.230742414
 40
0.4715002368
 40
0.7263361557
 40
1.0
 40
1.0
 40
1.0
 40
1.0
 10
11.7606792488
 20
4.8294309639
 30
0.0
 10
11.7619536665
 20
4.8257804518
 30
0.0
 10
11.7643065169
 20
4.8182294577
 30
0.0
 10
11.7669942358
 20
4.806344034
 30
0.0
 10
11.7687232652
 20
4.7935529833
 30
0.0
 10
11.7691049888
 20
4.7846907039
 30
0.0
 10
11.7691049888
 20
4.7801048934
 30
0.0
  0
SPLINE
  5
2DE
100
AcDbEntity
  8
0
100
AcDbSpline
 62
9
  6
CONTINUOUS
 70
0
 71
3
 72
11
 73
7
 74
0
 42
0.0000001
 43
0.0000001
 44
0.0000000001
 40
0.0
 40
0.0
 40
0.0
 40
0.0
 40
0.2731052178
 40
0.5279895419
 40
0.769026915
 40
1.0
 40
1.0
 40
1.0
 40
1.0
 10
10.3387505855
 20
4.8189444614
 30
0.0
 10
10.3387505855
 20
4.8232958974
 30
0.0
 10
10.3390974181
 20
4.8317137565
 30
0.0
 10
10.3406681121
 20
4.8438805145
 30
0.0
 10
10.3431176116
 20
4.8552131433
 30
0.0
 10
10.3452715166
 20
4.8624264699
 30
0.0
 10
10.3464419058
 20
4.8659155382
 30
0.0
  0
SPLINE
  5
2DF
100
AcDbEntity
  8
0
100
AcDbSpline
 62
9
  6
CONTINUOUS
 70
0
 71
3
 72
11
 73
7
 74
0
 42
0.0000001
 43
0.0000001
 44
0.0000000001
 40
0.0
 40
0.0
 40
0.0
 40
0.0
 40
0.2249228595
 40
0.4673450808
 40
0.7260776786
 40
1.0
 40
1.0
 40
1.0
 40
1.0
 10
11.7417200497
 20
4.8622296129
 30
0.0
 10
11.7268248148
 20
4.9086872449
 30
0.0
 10
11.6977074272
 20
5.0058123903
 30
0.0
 10
11.6578856511
 20
5.1582182543
 30
0.0
 10
11.6212056392
 20
5.3223224169
 30
0.0
 10
11.6000883653
 20
5.4359431245
 30
0.0
 10
11.5902859343
 20
5.4945442907
 30
0.0
  0
SPLINE
  5
2E0
100
AcDbEntity
  8
0
100
AcDbSpline
 62
9
  6
CONTINUOUS
 70
0
 71
3
 72
32
 73
28
 74
0
 42
0.0000001
 43
0.0000001
 44
0.0000000001
 40
0.0
 40
0.0
 40
0.0
 40
0.0
 40
0.018027088
 40
0.0346831449
 40
0.0503509606
 40
0.0653484187
 40
0.0799057124
 40
0.0941376439
 40
0.108126134
 40
0.121939847
 40
0.1492393879
 40
0.1763451154
 40
0.2034446631
 40
0.2306580162
 40
0.2580652208
 40
0.2857260937
 40
0.3419555986
 40
0.3995608093
 40
0.4586907017
 40
0.5194508065
 40
0.5819412831
 40
0.6462493642
 40
0.7124714185
 40
0.7807228214
 40
0.851222877
 40
0.9242271715
 40
1.0
 40
1.0
 40
1.0
 40
1.0
 10
11.755886091
 20
4.8189444614
 30
0.0
 10
11.755886091
 20
4.8139118099
 30
0.0
 10
11.7554237183
 20
4.8042206682
 30
0.0
 10
11.7533263705
 20
4.7902987386
 30
0.0
 10
11.7500983243
 20
4.7774688382
 30
0.0
 10
11.7459852636
 20
4.7655204715
 30
0.0
 10
11.7412422042
 20
4.7542452911
 30
0.0
 10
11.7359170071
 20
4.7435473615
 30
0.0
 10
11.7300637502
 20
4.7333689408
 30
0.0
 10
11.7216676198
 20
4.7204722263
 30
0.0
 10
11.7100989503
 20
4.7053048876
 30
0.0
 10
11.6947635544
 20
4.688464625
 30
0.0
 10
11.6782743481
 20
4.672794883
 30
0.0
 10
11.6607546314
 20
4.6581611316
 30
0.0
 10
11.642325686
 20
4.6444308102
 30
0.0
 10
11.6164879754
 20
4.6271527762
 30
0.0
 10
11.5821608673
 20
4.6075052476
 30
0.0
 10
11.5385605823
 20
4.5866709693
 30
0.0
 10
11.4925268291
 20
4.5682498664
 30
0.0
 10
11.4442372428
 20
4.5520334998
 30
0.0
 10
11.3937850667
 20
4.5379452043
 30
0.0
 10
11.3412434627
 20
4.5259017788
 30
0.0
 10
11.2866455304
 20
4.5158780224
 30
0.0
 10
11.229973807
 20
4.5078438405
 30
0.0
 10
11.1711358088
 20
4.5019455233
 30
0.0
 10
11.1100114944
 20
4.4983185126
 30
0.0
 10
11.0684719621
 20
4.4975205682
 30
0.0
 10
11.0473183383
 20
4.4975205682
 30
0.0
  0
SPLINE
  5
2E1
100
AcDbEntity
  8
0
100
AcDbSpline
 62
9
  6
CONTINUOUS
 70
0
 71
3
 72
31
 73
27
 74
0
 42
0.0000001
 43
0.0000001
 44
0.0000000001
 40
0.0
 40
0.0
 40
0.0
 40
0.0
 40
0.0180037226
 40
0.0346257973
 40
0.0502519862
 40
0.0652025544
 40
0.079709258
 40
0.0938881336
 40
0.1078221813
 40
0.1215809075
 40
0.1487711106
 40
0.1757717853
 40
0.2027727286
 40
0.2298954782
 40
0.2572209898
 40
0.2848101192
 40
0.340928159
 40
0.3984653701
 40
0.4575709149
 40
0.5183488829
 40
0.5808986332
 40
0.6453055639
 40
0.7116631627
 40
0.7800831758
 40
0.8507819109
 40
1.0
 40
1.0
 40
1.0
 40
1.0
 10
11.7691049888
 20
4.7801048934
 30
0.0
 10
11.7691049889
 20
4.7750044305
 30
0.0
 10
11.7686342436
 20
4.7651860876
 30
0.0
 10
11.7664965708
 20
4.7510876986
 30
0.0
 10
11.7632059027
 20
4.7381072787
 30
0.0
 10
11.7590127359
 20
4.7260303278
 30
0.0
 10
11.7541770381
 20
4.7146440119
 30
0.0
 10
11.7487476258
 20
4.7038504976
 30
0.0
 10
11.7427796832
 20
4.6935908076
 30
0.0
 10
11.7342190671
 20
4.6806036828
 30
0.0
 10
11.7224226177
 20
4.6653508656
 30
0.0
 10
11.7067859603
 20
4.6484495179
 30
0.0
 10
11.6899734789
 20
4.632753341
 30
0.0
 10
11.6721115069
 20
4.6181236653
 30
0.0
 10
11.6533238027
 20
4.6044234267
 30
0.0
 10
11.6269798381
 20
4.587213407
 30
0.0
 10
11.5919840863
 20
4.5677038626
 30
0.0
 10
11.5475510966
 20
4.5470962469
 30
0.0
 10
11.500647476
 20
4.5289415724
 30
0.0
 10
11.451454509
 20
4.5130132219
 30
0.0
 10
11.4000676036
 20
4.4992194023
 30
0.0
 10
11.3465604805
 20
4.4874614035
 30
0.0
 10
11.2909667546
 20
4.4776994722
 30
0.0
 10
11.2332656282
 20
4.4698892408
 30
0.0
 10
11.1519349627
 20
4.4621165279
 30
0.0
 10
11.0895918919
 20
4.4598799577
 30
0.0
 10
11.0473183383
 20
4.4598799577
 30
0.0
  0
SPLINE
  5
2E2
100
AcDbEntity
  8
0
100
AcDbSpline
 62
9
  6
CONTINUOUS
 70
0
 71
3
 72
31
 73
27
 74
0
 42
0.0000001
 43
0.0000001
 44
0.0000000001
 40
0.0
 40
0.0
 40
0.0
 40
0.0
 40
0.1492180891
 40
0.2199168242
 40
0.2883368373
 40
0.3546944361
 40
0.4191013668
 40
0.4816511171
 40
0.5424290851
 40
0.6015346299
 40
0.659071841
 40
0.7151898808
 40
0.7427790102
 40
0.7701045218
 40
0.7972272714
 40
0.8242282147
 40
0.8512288894
 40
0.8784190925
 40
0.8921778187
 40
0.9061118664
 40
0.920290742
 40
0.9347974456
 40
0.9497480138
 40
0.9653742027
 40
0.9819962774
 40
1.0
 40
1.0
 40
1.0
 40
1.0
 10
11.0473183383
 20
4.4598799577
 30
0.0
 10
11.0050447847
 20
4.4598799577
 30
0.0
 10
10.9427017139
 20
4.4621165279
 30
0.0
 10
10.8613710484
 20
4.4698892408
 30
0.0
 10
10.8036699219
 20
4.4776994722
 30
0.0
 10
10.7480761961
 20
4.4874614035
 30
0.0
 10
10.694569073
 20
4.4992194023
 30
0.0
 10
10.6431821675
 20
4.5130132219
 30
0.0
 10
10.5939892005
 20
4.5289415724
 30
0.0
 10
10.54708558
 20
4.5470962469
 30
0.0
 10
10.5026525903
 20
4.5677038626
 30
0.0
 10
10.4676568385
 20
4.587213407
 30
0.0
 10
10.4413128739
 20
4.6044234267
 30
0.0
 10
10.4225251696
 20
4.6181236653
 30
0.0
 10
10.4046631977
 20
4.632753341
 30
0.0
 10
10.3878507162
 20
4.6484495179
 30
0.0
 10
10.3722140589
 20
4.6653508656
 30
0.0
 10
10.3604176094
 20
4.6806036828
 30
0.0
 10
10.3518569934
 20
4.6935908076
 30
0.0
 10
10.3458890508
 20
4.7038504976
 30
0.0
 10
10.3404596385
 20
4.7146440119
 30
0.0
 10
10.3356239406
 20
4.7260303278
 30
0.0
 10
10.3314307738
 20
4.7381072787
 30
0.0
 10
10.3281401058
 20
4.7510876986
 30
0.0
 10
10.326002433
 20
4.7651860876
 30
0.0
 10
10.3255316877
 20
4.7750044305
 30
0.0
 10
10.3255316877
 20
4.7801048934
 30
0.0
  0
SPLINE
  5
2E3
100
AcDbEntity
  8
0
100
AcDbSpline
 62
9
  6
CONTINUOUS
 70
0
 71
3
 72
11
 73
7
 74
0
 42
0.0000001
 43
0.0000001
 44
0.0000000001
 40
0.0
 40
0.0
 40
0.0
 40
0.0
 40
0.2736638443
 40
0.5284997632
 40
0.769257586
 40
1.0
 40
1.0
 40
1.0
 40
1.0
 10
10.3255316877
 20
4.7801048934
 30
0.0
 10
10.3255316878
 20
4.7846907039
 30
0.0
 10
10.3259134113
 20
4.7935529833
 30
0.0
 10
10.3276424408
 20
4.806344034
 30
0.0
 10
10.3303301597
 20
4.8182294577
 30
0.0
 10
10.3326830101
 20
4.8257804518
 30
0.0
 10
10.3339574278
 20
4.8294309639
 30
0.0
  0
SPLINE
  5
2E4
100
AcDbEntity
  8
0
100
AcDbSpline
 62
9
  6
CONTINUOUS
 70
0
 71
3
 72
10
 73
6
 74
0
 42
0.0000001
 43
0.0000001
 44
0.0000000001
 40
0.0
 40
0.0
 40
0.0
 40
0.0
 40
0.2319046688
 40
0.4760960376
 40
1.0
 40
1.0
 40
1.0
 40
1.0
 10
11.8437689675
 20
4.5855139001
 30
0.0
 10
11.8374514208
 20
4.6003383071
 30
0.0
 10
11.8247742963
 20
4.6308981434
 30
0.0
 10
11.7992970304
 20
4.6955489125
 30
0.0
 10
11.7810320469
 20
4.7457133159
 30
0.0
 10
11.7691049888
 20
4.7801087139
 30
0.0
  0
SPLINE
  5
2E5
100
AcDbEntity
  8
0
100
AcDbSpline
 62
9
  6
CONTINUOUS
 70
0
 71
3
 72
30
 73
26
 74
0
 42
0.0000001
 43
0.0000001
 44
0.0000000001
 40
0.0
 40
0.0
 40
0.0
 40
0.0
 40
0.1768371374
 40
0.2621569313
 40
0.3447886389
 40
0.4242698667
 40
0.5001559646
 40
0.5720096118
 40
0.6393898868
 40
0.7018958402
 40
0.75925366
 40
0.7859386193
 40
0.8112568103
 40
0.8351876767
 40
0.8577229516
 40
0.8788727565
 40
0.8986796096
 40
0.9172205514
 40
0.9346178979
 40
0.9510796606
 40
0.9669514407
 40
0.9748405619
 40
0.9828512435
 40
0.9911646041
 40
1.0
 40
1.0
 40
1.0
 40
1.0
 10
11.0473183383
 20
7.0118947554
 30
0.0
 10
11.018988622
 20
7.0118947554
 30
0.0
 10
10.9769835315
 20
7.0127518977
 30
0.0
 10
10.9218172101
 20
7.0155744401
 30
0.0
 10
10.8822766233
 20
7.0184132246
 30
0.0
 10
10.8443096604
 20
7.0219463088
 30
0.0
 10
10.8081493778
 20
7.0261602035
 30
0.0
 10
10.7740294943
 20
7.0310405313
 30
0.0
 10
10.7421836197
 20
7.0365866931
 30
0.0
 10
10.712830349
 20
7.0428029027
 30
0.0
 10
10.6900921576
 20
7.0486942259
 30
0.0
 10
10.673338413
 20
7.0538273856
 30
0.0
 10
10.6618308108
 20
7.057779956
 30
0.0
 10
10.6511062732
 20
7.0619409962
 30
0.0
 10
10.6411954829
 20
7.066324008
 30
0.0
 10
10.6321265453
 20
7.0709435233
 30
0.0
 10
10.6239324996
 20
7.0758290316
 30
0.0
 10
10.6166444082
 20
7.0810109686
 30
0.0
 10
10.6103184383
 20
7.0865561505
 30
0.0
 10
10.6050151389
 20
7.092535741
 30
0.0
 10
10.6015412816
 20
7.0980054366
 30
0.0
 10
10.5994387518
 20
7.1026493265
 30
0.0
 10
10.5982402389
 20
7.1063485455
 30
0.0
 10
10.5974827056
 20
7.1103179758
 30
0.0
 10
10.5973183383
 20
7.1130690729
 30
0.0
 10
10.5973183383
 20
7.1144845237
 30
0.0
  0
SPLINE
  5
2E6
100
AcDbEntity
  8
0
100
AcDbSpline
 62
9
  6
CONTINUOUS
 70
0
 71
3
 72
10
 73
6
 74
0
 42
0.0000001
 43
0.0000001
 44
0.0000000001
 40
0.0
 40
0.0
 40
0.0
 40
0.0
 40
0.2319046689
 40
0.4760960376
 40
1.0
 40
1.0
 40
1.0
 40
1.0
 10
10.2508677091
 20
4.5855139001
 30
0.0
 10
10.2571852558
 20
4.6003383071
 30
0.0
 10
10.2698623803
 20
4.6308981434
 30
0.0
 10
10.2953396462
 20
4.6955489125
 30
0.0
 10
10.3136046296
 20
4.7457133159
 30
0.0
 10
10.3255316878
 20
4.7801087139
 30
0.0
  0
SPLINE
  5
2E7
100
AcDbEntity
  8
0
100
AcDbSpline
 62
9
  6
CONTINUOUS
 70
0
 71
3
 72
30
 73
26
 74
0
 42
0.0000001
 43
0.0000001
 44
0.0000000001
 40
0.0
 40
0.0
 40
0.0
 40
0.0
 40
0.0111383464
 40
0.0215788853
 40
0.0315624598
 40
0.0412896497
 40
0.0604848044
 40
0.0798197857
 40
0.0996712511
 40
0.1202774603
 40
0.1417900421
 40
0.164310581
 40
0.1879039154
 40
0.2126024232
 40
0.2384186266
 40
0.2653504403
 40
0.3225113304
 40
0.3840020781
 40
0.4496604811
 40
0.5192058859
 40
0.5923156735
 40
0.668668762
 40
0.7479390126
 40
0.8298008554
 40
1.0
 40
1.0
 40
1.0
 40
1.0
 10
11.4973183383
 20
6.8682947554
 30
0.0
 10
11.4973183383
 20
6.8664588355
 30
0.0
 10
11.497130396
 20
6.862898221
 30
0.0
 10
11.4962720276
 20
6.8577567476
 30
0.0
 10
11.494925169
 20
6.8529632987
 30
0.0
 10
11.4925975132
 20
6.8469801644
 30
0.0
 10
11.4888264567
 20
6.8399381581
 30
0.0
 10
11.483102335
 20
6.8321702381
 30
0.0
 10
11.4763526893
 20
6.8249626153
 30
0.0
 10
11.4686559099
 20
6.8182265629
 30
0.0
 10
11.4600867527
 20
6.8118786315
 30
0.0
 10
11.4506836013
 20
6.8058785254
 30
0.0
 10
11.4404863964
 20
6.8001876699
 30
0.0
 10
11.4295248156
 20
6.7947870783
 30
0.0
 10
11.4178306524
 20
6.7896590181
 30
0.0
 10
11.4009668618
 20
6.7830304331
 30
0.0
 10
11.3781971468
 20
6.7754037008
 30
0.0
 10
11.3488969974
 20
6.7673343818
 30
0.0
 10
11.317274949
 20
6.7601388906
 30
0.0
 10
11.2835196665
 20
6.7538110654
 30
0.0
 10
11.2478301922
 20
6.7483496756
 30
0.0
 10
11.2104022087
 20
6.7437722336
 30
0.0
 10
11.1714256872
 20
6.7400950808
 30
0.0
 10
11.1169310224
 20
6.7364362539
 30
0.0
 10
11.0753720532
 20
6.7353338119
 30
0.0
 10
11.0473183383
 20
6.7353338119
 30
0.0
  0
SPLINE
  5
2E8
100
AcDbEntity
  8
0
100
AcDbSpline
 62
9
  6
CONTINUOUS
 70
0
 71
3
 72
28
 73
24
 74
0
 42
0.0000001
 43
0.0000001
 44
0.0000000001
 40
0.0
 40
0.0
 40
0.0
 40
0.0
 40
0.0124899535
 40
0.0241768296
 40
0.0353161947
 40
0.0461217216
 40
0.0672753114
 40
0.0883179483
 40
0.1096421169
 40
0.1314997168
 40
0.1540558182
 40
0.1774232903
 40
0.2268457416
 40
0.2800772537
 40
0.3371587406
 40
0.3980685303
 40
0.4627118742
 40
0.5308814648
 40
0.6023271823
 40
0.6767991185
 40
0.754043482
 40
0.8338177334
 40
1.0
 40
1.0
 40
1.0
 40
1.0
 10
11.4982267397
 20
6.7116988182
 30
0.0
 10
11.4982267403
 20
6.7095992405
 30
0.0
 10
11.4980236532
 20
6.705531239
 30
0.0
 10
11.4971000377
 20
6.6996564117
 30
0.0
 10
11.4956569957
 20
6.6941805467
 30
0.0
 10
11.4931809912
 20
6.6873645026
 30
0.0
 10
11.4892100368
 20
6.6793517091
 30
0.0
 10
11.4832099095
 20
6.6704874551
 30
0.0
 10
11.4761818987
 20
6.6622664778
 30
0.0
 10
11.4682146557
 20
6.6545884006
 30
0.0
 10
11.459394096
 20
6.6473589425
 30
0.0
 10
11.4463093909
 20
6.6380843631
 30
0.0
 10
11.4279415174
 20
6.627439402
 30
0.0
 10
11.4035405007
 20
6.6161684978
 30
0.0
 10
11.3765961415
 20
6.6059887473
 30
0.0
 10
11.3472686154
 20
6.59685828
 30
0.0
 10
11.3157227059
 20
6.5887293053
 30
0.0
 10
11.2821272969
 20
6.5815916395
 30
0.0
 10
11.2466609293
 20
6.5754395578
 30
0.0
 10
11.20949581
 20
6.5702892857
 30
0.0
 10
11.170795437
 20
6.5661556794
 30
0.0
 10
11.1166149883
 20
6.5620438152
 30
0.0
 10
11.0752537978
 20
6.560812975
 30
0.0
 10
11.0473183383
 20
6.560812975
 30
0.0
  0
SPLINE
  5
2E9
100
AcDbEntity
  8
0
100
AcDbSpline
 62
9
  6
CONTINUOUS
 70
0
 71
3
 72
30
 73
26
 74
0
 42
0.0000001
 43
0.0000001
 44
0.0000000001
 40
0.0
 40
0.0
 40
0.0
 40
0.0
 40
0.0088353959
 40
0.0171487565
 40
0.0251594381
 40
0.0330485593
 40
0.0489203394
 40
0.0653821021
 40
0.0827794486
 40
0.1013203904
 40
0.1211272435
 40
0.1422770484
 40
0.1648123233
 40
0.1887431897
 40
0.2140613807
 40
0.24074634
 40
0.2981041598
 40
0.3606101132
 40
0.4279903882
 40
0.4998440354
 40
0.5757301333
 40
0.6552113611
 40
0.7378430687
 40
0.8231628626
 40
1.0
 40
1.0
 40
1.0
 40
1.0
 10
11.4973183383
 20
7.1144845237
 30
0.0
 10
11.4973183383
 20
7.1130690729
 30
0.0
 10
11.497153971
 20
7.1103179758
 30
0.0
 10
11.4963964377
 20
7.1063485455
 30
0.0
 10
11.4951979248
 20
7.1026493265
 30
0.0
 10
11.493095395
 20
7.0980054366
 30
0.0
 10
11.4896215377
 20
7.092535741
 30
0.0
 10
11.4843182383
 20
7.0865561505
 30
0.0
 10
11.4779922683
 20
7.0810109686
 30
0.0
 10
11.4707041769
 20
7.0758290316
 30
0.0
 10
11.4625101312
 20
7.0709435233
 30
0.0
 10
11.4534411937
 20
7.066324008
 30
0.0
 10
11.4435304034
 20
7.0619409962
 30
0.0
 10
11.4328058658
 20
7.057779956
 30
0.0
 10
11.4212982635
 20
7.0538273856
 30
0.0
 10
11.404544519
 20
7.0486942259
 30
0.0
 10
11.3818063275
 20
7.0428029027
 30
0.0
 10
11.3524530568
 20
7.0365866931
 30
0.0
 10
11.3206071823
 20
7.0310405313
 30
0.0
 10
11.2864872988
 20
7.0261602035
 30
0.0
 10
11.2503270162
 20
7.0219463088
 30
0.0
 10
11.2123600533
 20
7.0184132246
 30
0.0
 10
11.1728194664
 20
7.0155744401
 30
0.0
 10
11.117653145
 20
7.0127518977
 30
0.0
 10
11.0756480545
 20
7.0118947554
 30
0.0
 10
11.0473183383
 20
7.0118947554
 30
0.0
  0
SPLINE
  5
2EA
100
AcDbEntity
  8
0
100
AcDbSpline
 62
9
  6
CONTINUOUS
 70
0
 71
3
 72
28
 73
24
 74
0
 42
0.0000001
 43
0.0000001
 44
0.0000000001
 40
0.0
 40
0.0
 40
0.0
 40
0.0
 40
0.1661822666
 40
0.245956518
 40
0.3232008815
 40
0.3976728177
 40
0.4691185352
 40
0.5372881258
 40
0.6019314697
 40
0.6628412594
 40
0.7199227463
 40
0.7731542584
 40
0.8225767097
 40
0.8459441818
 40
0.8685002832
 40
0.8903578831
 40
0.9116820517
 40
0.9327246886
 40
0.9538782784
 40
0.9646838053
 40
0.9758231704
 40
0.9875100465
 40
1.0
 40
1.0
 40
1.0
 40
1.0
 10
11.0473183383
 20
6.560812975
 30
0.0
 10
11.0193828788
 20
6.560812975
 30
0.0
 10
10.9780216883
 20
6.5620438152
 30
0.0
 10
10.9238412396
 20
6.5661556794
 30
0.0
 10
10.8851408666
 20
6.5702892857
 30
0.0
 10
10.8479757472
 20
6.5754395578
 30
0.0
 10
10.8125093797
 20
6.5815916395
 30
0.0
 10
10.7789139707
 20
6.5887293053
 30
0.0
 10
10.7473680612
 20
6.59685828
 30
0.0
 10
10.7180405351
 20
6.6059887473
 30
0.0
 10
10.6910961758
 20
6.6161684978
 30
0.0
 10
10.6666951591
 20
6.627439402
 30
0.0
 10
10.6483272856
 20
6.6380843631
 30
0.0
 10
10.6352425806
 20
6.6473589425
 30
0.0
 10
10.6264220209
 20
6.6545884006
 30
0.0
 10
10.6184547778
 20
6.6622664778
 30
0.0
 10
10.611426767
 20
6.6704874551
 30
0.0
 10
10.6054266397
 20
6.6793517091
 30
0.0
 10
10.6014556853
 20
6.6873645026
 30
0.0
 10
10.5989796809
 20
6.6941805467
 30
0.0
 10
10.5975366389
 20
6.6996564117
 30
0.0
 10
10.5966130234
 20
6.705531239
 30
0.0
 10
10.5964099362
 20
6.7095992405
 30
0.0
 10
10.5964099369
 20
6.7116988182
 30
0.0
  0
SPLINE
  5
2EB
100
AcDbEntity
  8
0
100
AcDbSpline
 62
9
  6
CONTINUOUS
 70
0
 71
3
 72
11
 73
7
 74
0
 42
0.0000001
 43
0.0000001
 44
0.0000000001
 40
0.0
 40
0.0
 40
0.0
 40
0.0
 40
0.2424980751
 40
0.4905536637
 40
0.7433370337
 40
1.0
 40
1.0
 40
1.0
 40
1.0
 10
11.5676239553
 20
5.6438656296
 30
0.0
 10
11.5623310962
 20
5.6825602101
 30
0.0
 10
11.552466216
 20
5.7609531967
 30
0.0
 10
11.5397803636
 20
5.880001487
 30
0.0
 10
11.5289342417
 20
6.0015212412
 30
0.0
 10
11.5229105474
 20
6.0833508667
 30
0.0
 10
11.520166128
 20
6.1245958474
 30
0.0
  0
LINE
  5
2EC
100
AcDbEntity
  8
0
100
AcDbLine
 62
9
  6
CONTINUOUS
 10
11.4984540747
 20
6.6934414887
 11
11.4982267397
 21
6.7116987988
  0
ENDSEC
  0
SECTION
  2
OBJECTS
  0
DICTIONARY
  5
C
100
AcDbDictionary
280
0
281
1
  3
ACAD_GROUP
350
D
  3
ACAD_MLINESTYLE
350
17
  3
ACAD_LAYOUT
350
1A
  3
ACAD_PLOTSETTINGS
350
19
  3
ACAD_PLOTSTYLENAME
350
E
  0
DICTIONARY
  5
D
102
{ACAD_REACTORS
330
C
102
}
100
AcDbDictionary
280
0
281
1
  0
ACDBDICTIONARYWDFLT
  5
E
102
{ACAD_REACTORS
330
C
102
}
100
AcDbDictionary
281
1
  3
Normal
350
F
100
AcDbDictionaryWithDefault
340
F
  0
DICTIONARY
  5
17
102
{ACAD_REACTORS
330
C
102
}
100
AcDbDictionary
280
0
281
1
  3
Standard
350
18
  0
DICTIONARY
  5
19
102
{ACAD_REACTORS
330
C
102
}
100
AcDbDictionary
281
1
  0
DICTIONARY
  5
1A
102
{ACAD_REACTORS
330
C
102
}
100
AcDbDictionary
281
1
  3
Model
350
2ED
  3
Layout1
350
2EE
  0
ACDBPLACEHOLDER
  5
F
102
{ACAD_REACTORS
330
E
102
}
  0
MLINESTYLE
  5
18
102
{ACAD_REACTORS
330
17
102
}
100
AcDbMlineStyle
  2
STANDARD
 70
0
  3

 62
256
 51
90.0
 52
90.0
 71
2
 49
0.5
 62
256
  6
BYLAYER
 49
-0.5
 62
256
  6
BYLAYER
  0
LAYOUT
  5
2ED
102
{ACAD_REACTORS
330
1A
102
}
100
AcDbPlotSettings
  1

  2
none_device
  4
ANSI_C_(22.00_x_17.00_Inches)
  6

 40
0.0
 41
0.0
 42
0.0
 43
0.0
 44
558.8
 45
431.8
 46
0.0
 47
0.0
 48
0.0
 49
0.0
140
0.0
141
0.0
142
1.0
143
1.0
 70
1024
 72
0
 73
0
 74
0
  7

 75
0
147
1.0
148
0.0
149
0.0
100
AcDbLayout
  1
Model
 70
0
 71
0
 10
0.0
 20
0.0
 11
22.0
 21
17.0
 12
0.0
 22
0.0
 32
0.0
 14
0.0
 24
0.0
 34
0.0
 15
0.0
 25
0.0
 35
0.0
146
0.0
 13
0.0
 23
0.0
 33
0.0
 16
1.0
 26
0.0
 36
0.0
 17
0.0
 27
1.0
 37
0.0
 76
0
330
202
345
0
346
0
  0
LAYOUT
  5
2EE
102
{ACAD_REACTORS
330
1A
102
}
100
AcDbPlotSettings
  1

  2
none_device
  4
ANSI_C_(22.00_x_17.00_Inches)
  6

 40
0.0
 41
0.0
 42
0.0
 43
0.0
 44
558.8
 45
431.8
 46
0.0
 47
0.0
 48
0.0
 49
0.0
140
0.0
141
0.0
142
1.0
143
1.0
 70
0
 72
0
 73
0
 74
0
  7

 75
0
147
1.0
148
0.0
149
0.0
100
AcDbLayout
  1
Layout1
 70
0
 71
1
 10
0.0
 20
0.0
 11
22.0
 21
17.0
 12
0.0
 22
0.0
 32
0.0
 14
0.0
 24
0.0
 34
0.0
 15
0.0
 25
0.0
 35
0.0
146
0.0
 13
0.0
 23
0.0
 33
0.0
 16
1.0
 26
0.0
 36
0.0
 17
0.0
 27
1.0
 37
0.0
 76
0
330
203
345
0
346
0
  0
ENDSEC
  0
EOF
