999
DXF file: E:\BT Custom\CADOUTPUT\_RIGHT.dxf
999
Pro/ENGINEER 2018400 by Parametric Technology Corporation
  0
SECTION
  2
HEADER
  9
$ACADVER
  1
AC1018
  9
$DWGCODEPAGE
  3
ANSI_1252
  9
$EXTMAX
 10
22.0
 20
17.0
 30
0.0
  9
$EXTMIN
 10
0.0
 20
0.0
 30
0.0
  9
$LIMMIN
 10
0.0
 20
0.0
  9
$LIMMAX
 10
22.0
 20
17.0
  9
$VIEWCTR
 10
11.0
 20
8.5
  9
$VIEWSIZE
 40
17.0
  9
$CLAYER
  8
0
  9
$LTSCALE
 40
1.21
  9
$CELTYPE
  6
BYLAYER
  9
$DIMSCALE
 40
1.0
  9
$DIMASZ
 40
0.1
  9
$DIMEXO
 40
0.0625
  9
$DIMDLI
 40
0.836
  9
$DIMEXE
 40
0.125
  9
$DIMCEN
 40
0.198
  9
$DIMLFAC
 40
1.0
  9
$DIMBLK
  1
_FILLED
  9
$DIMALT
 70
1
  9
$DIMALTD
 70
2
  9
$DIMALTTD
 70
2
  9
$DIMALTF
 40
25.4
  9
$DIMTXT
 40
0.08
  9
$DIMTOL
 70
1
  9
$DIMLIM
 70
0
  9
$DIMTFAC
 40
1.0
  9
$DIMTP
 40
0.001
  9
$DIMTM
 40
0.001
  9
$DIMGAP
 40
0.09
  9
$DIMDSEP
 70
46
  9
$AUNITS
 70
0
  9
$PDMODE
 70
3
  9
$PDSIZE
 40
0.06
  9
$HANDSEED
  5
2FB
  9
$TILEMODE
 70
1
  9
$MEASUREMENT
 70
0
  9
$INSUNITS
 70
1
  0
ENDSEC
  0
SECTION
  2
CLASSES
  0
CLASS
  1
ACDBDICTIONARYWDFLT
  2
AcDbDictionaryWithDefault
  3
AutoCAD 2000
 90
0
 91
1
280
0
281
0
  0
CLASS
  1
ACDBPLACEHOLDER
  2
AcDbPlaceHolder
  3
AutoCAD 2000
 90
0
 91
1
280
0
281
0
  0
CLASS
  1
LAYOUT
  2
AcDbLayout
  3
AutoCAD 2000
 90
0
 91
0
280
0
281
0
  0
ENDSEC
  0
SECTION
  2
TABLES
  0
TABLE
  2
VPORT
  5
8
100
AcDbSymbolTable
 70
2
  0
VPORT
  5
1F4
100
AcDbSymbolTableRecord
100
AcDbViewportTableRecord
  2
*ACTIVE
 70
0
 10
0.0
 20
0.0
 11
1.0
 21
1.0
 12
11.0
 22
8.5
 13
0.0
 23
0.0
 14
1.0
 24
1.0
 15
0.0
 25
0.0
 16
0.0
 26
0.0
 36
1.0
 17
0.0
 27
0.0
 37
0.0
 40
17.0
 41
1.2941176471
 42
50.0
 43
0.0
 44
0.0
 50
0.0
 51
0.0
 71
0
 72
100
 73
1
 74
1
 75
0
 76
0
 77
0
 78
0
  0
ENDTAB
  0
TABLE
  2
LTYPE
  5
5
100
AcDbSymbolTable
 70
6
  0
LTYPE
  5
14
100
AcDbSymbolTableRecord
100
AcDbLinetypeTableRecord
  2
BYBLOCK
 70
0
  3

 72
65
 73
0
 40
0.0
  0
LTYPE
  5
15
100
AcDbSymbolTableRecord
100
AcDbLinetypeTableRecord
  2
BYLAYER
 70
0
  3

 72
65
 73
0
 40
0.0
  0
LTYPE
  5
16
100
AcDbSymbolTableRecord
100
AcDbLinetypeTableRecord
  2
CONTINUOUS
 70
64
  3
Solid line
 72
65
 73
0
 40
0.0
  0
LTYPE
  5
1F5
100
AcDbSymbolTableRecord
100
AcDbLinetypeTableRecord
  2
CENTER
 70
64
  3
____ _ ____ _ ____ _ ____ _ ____ _ ____ _ ____
 72
65
 73
4
 40
0.6
 49
0.375
 74
0
 49
-0.075
 74
0
 49
0.075
 74
0
 49
-0.075
 74
0
  0
LTYPE
  5
1F6
100
AcDbSymbolTableRecord
100
AcDbLinetypeTableRecord
  2
HIDDEN
 70
64
  3
- - - - - - - - - - - - - - - - - - - -
 72
65
 73
2
 40
0.2
 49
0.1
 74
0
 49
-0.1
 74
0
  0
LTYPE
  5
1F7
100
AcDbSymbolTableRecord
100
AcDbLinetypeTableRecord
  2
PHANTOM
 70
64
  3
_____ _ _ _____ _ _ _____ _ _ _____
 72
65
 73
6
 40
0.8
 49
0.45
 74
0
 49
-0.05
 74
0
 49
0.1
 74
0
 49
-0.05
 74
0
 49
0.1
 74
0
 49
-0.05
 74
0
  0
LTYPE
  5
1F8
100
AcDbSymbolTableRecord
100
AcDbLinetypeTableRecord
  2
DOT
 70
64
  3
. . . . . . . . . . . . . . . . . . . .
 72
65
 73
2
 40
0.2
 49
0.1
 74
0
 49
-0.1
 74
0
  0
LTYPE
  5
1F9
100
AcDbSymbolTableRecord
100
AcDbLinetypeTableRecord
  2
DASHED
 70
64
  3
- - - - - - - - - - - - - - - - - - - -
 72
65
 73
2
 40
0.2
 49
0.1
 74
0
 49
-0.1
 74
0
  0
ENDTAB
  0
TABLE
  2
LAYER
  5
2
100
AcDbSymbolTable
 70
36
  0
LAYER
  5
10
100
AcDbSymbolTableRecord
100
AcDbLayerTableRecord
  2
0
 70
0
 62
7
  6
CONTINUOUS
370
-3
390
F
  0
LAYER
  5
1FA
100
AcDbSymbolTableRecord
100
AcDbLayerTableRecord
  2
DEFAULT_1
 70
0
 62
7
  6
CENTER
370
-3
390
F
  0
LAYER
  5
1FB
100
AcDbSymbolTableRecord
100
AcDbLayerTableRecord
  2
DEFAULT_2
 70
0
 62
8
  6
HIDDEN
370
-3
390
F
  0
LAYER
  5
1FC
100
AcDbSymbolTableRecord
100
AcDbLayerTableRecord
  2
DEFAULT_3
 70
0
 62
7
  6
PHANTOM
370
-3
390
F
  0
LAYER
  5
1FD
100
AcDbSymbolTableRecord
100
AcDbLayerTableRecord
  2
ALL_FEATURES
 70
0
 62
7
  6
CONTINUOUS
370
-3
390
F
  0
LAYER
  5
1FE
100
AcDbSymbolTableRecord
100
AcDbLayerTableRecord
  2
AXES_FEATURES
 70
0
 62
7
  6
CONTINUOUS
370
-3
390
F
  0
LAYER
  5
1FF
100
AcDbSymbolTableRecord
100
AcDbLayerTableRecord
  2
DIMENSIONS
 70
0
 62
7
  6
CONTINUOUS
370
-3
390
F
  0
ENDTAB
  0
TABLE
  2
STYLE
  5
3
100
AcDbSymbolTable
 70
1
  0
STYLE
  5
11
100
AcDbSymbolTableRecord
100
AcDbTextStyleTableRecord
  2
STANDARD
 70
0
 40
0.0
 41
0.8
 50
0.0
 71
0
 42
0.2
  3
txt
  4

  0
STYLE
  5
200
100
AcDbSymbolTableRecord
100
AcDbTextStyleTableRecord
  2
TEXTSTYLE_1
 70
0
 40
0.0
 41
0.8
 50
0.0
 71
0
 42
0.2
  3
gdt
  4

  0
ENDTAB
  0
TABLE
  2
VIEW
  5
6
100
AcDbSymbolTable
 70
0
  0
ENDTAB
  0
TABLE
  2
UCS
  5
7
100
AcDbSymbolTable
 70
0
  0
ENDTAB
  0
TABLE
  2
APPID
  5
9
100
AcDbSymbolTable
 70
1
  0
APPID
  5
201
100
AcDbSymbolTableRecord
100
AcDbRegAppTableRecord
  2
ACAD
 70
0
  0
ENDTAB
  0
TABLE
  2
BLOCK_RECORD
  5
1
100
AcDbSymbolTable
 70
0
  0
BLOCK_RECORD
  5
202
100
AcDbSymbolTableRecord
100
AcDbBlockTableRecord
  2
*Model_Space
  0
BLOCK_RECORD
  5
203
100
AcDbSymbolTableRecord
100
AcDbBlockTableRecord
  2
*Paper_Space
  0
BLOCK_RECORD
  5
204
100
AcDbSymbolTableRecord
100
AcDbBlockTableRecord
  2
_FILLED
  0
ENDTAB
  0
TABLE
  2
DIMSTYLE
  5
A
100
AcDbSymbolTable
 70
1
100
AcDbDimStyleTable
 71
0
  0
DIMSTYLE
105
205
100
AcDbSymbolTableRecord
100
AcDbDimStyleTableRecord
  2
STANDARD
 70
0
  3

  4

 40
1.0
 41
0.1
 42
0.0625
 43
0.38
 44
0.125
 45
0.0
 46
0.0
 47
0.001
 48
0.001
140
0.08
141
0.09
142
0.0
143
25.4
144
1.0
145
0.0
146
1.0
147
0.09
 71
1.0
 72
0.0
 73
1
 74
1
 75
0
 76
0
 77
0
 78
4
 79
1
170
1
171
2
172
0
173
0
174
0
175
0
176
0
177
0
178
0
270
2
179
3
271
3
272
3
273
2
274
2
275
0
280
0
281
0
282
0
283
1
284
4
285
0
286
0
287
3
288
0
340
11
278
46
341
204
342
204
343
204
344
204
  0
ENDTAB
  0
ENDSEC
  0
SECTION
  2
BLOCKS
  0
BLOCK
  5
20
100
AcDbEntity
  8
0
100
AcDbBlockBegin
  2
*Model_Space
 70
0
 10
0.0
 20
0.0
 30
0.0
  3
*Model_Space
  1

  0
ENDBLK
  5
21
100
AcDbEntity
  8
0
100
AcDbBlockEnd
  0
BLOCK
  5
1C
100
AcDbEntity
  8
0
100
AcDbBlockBegin
  2
*Paper_Space
 70
0
 10
0.0
 20
0.0
 30
0.0
  3
*Paper_Space
  1

  0
ENDBLK
  5
1D
100
AcDbEntity
  8
0
100
AcDbBlockEnd
  0
BLOCK
  5
206
100
AcDbEntity
  8
0
100
AcDbBlockBegin
  2
_FILLED
 70
64
 10
0.0
 20
0.0
  3
_FILLED
  1

  0
SOLID
  5
207
100
AcDbEntity
  8
0
  6
BYBLOCK
 62
0
100
AcDbTrace
 10
0.0
 20
0.0
 11
-1.0
 21
0.2
 12
-1.0
 22
-0.2
 13
-1.0
 23
-0.2
  0
ENDBLK
  5
208
100
AcDbEntity
  8
0
  6
BYBLOCK
 62
0
100
AcDbBlockEnd
  0
ENDSEC
  0
SECTION
  2
ENTITIES
  0
LINE
  5
209
100
AcDbEntity
  8
0
100
AcDbLine
 62
7
  6
CONTINUOUS
 10
7.7028617341
 20
8.5521038059
 11
7.7052949388
 21
8.5595924399
  0
LINE
  5
20A
100
AcDbEntity
  8
0
100
AcDbLine
 62
9
  6
CONTINUOUS
 10
7.7928759371
 20
8.5311356485
 11
7.7904427325
 21
8.5236470145
  0
LINE
  5
20B
100
AcDbEntity
  8
0
100
AcDbLine
 62
9
  6
CONTINUOUS
 10
7.8165874259
 20
8.5151520887
 11
7.8190206306
 21
8.5226407227
  0
LINE
  5
20C
100
AcDbEntity
  8
0
100
AcDbLine
 62
7
  6
CONTINUOUS
 10
7.9065361033
 20
8.4942052218
 11
7.9041028987
 21
8.4867165879
  0
LINE
  5
20D
100
AcDbEntity
  8
0
100
AcDbLine
 62
7
  6
CONTINUOUS
 10
7.3647036121
 20
8.6702572703
 11
7.6976721969
 21
9.2031183936
  0
LINE
  5
20E
100
AcDbEntity
  8
0
100
AcDbLine
 62
7
  6
CONTINUOUS
 10
11.7168392491
 20
6.728891804
 11
14.0152535191
 21
6.728891804
  0
LINE
  5
20F
100
AcDbEntity
  8
0
100
AcDbLine
 62
9
  6
CONTINUOUS
 10
13.9692692199
 20
6.7814405859
 11
11.7628235484
 21
6.7814405859
  0
LINE
  5
210
100
AcDbEntity
  8
0
100
AcDbLine
 62
9
  6
CONTINUOUS
 10
14.046049837
 20
6.7944298779
 11
13.9549021022
 21
6.7944298779
  0
LINE
  5
211
100
AcDbEntity
  8
0
100
AcDbLine
 62
9
  6
CONTINUOUS
 10
11.777190666
 20
6.7944298779
 11
11.6860429313
 21
6.7944298779
  0
LINE
  5
212
100
AcDbEntity
  8
0
100
AcDbLine
 62
7
  6
CONTINUOUS
 10
8.0779959994
 20
8.4384945245
 11
8.3200706073
 21
8.7973848897
  0
LINE
  5
213
100
AcDbEntity
  8
0
100
AcDbLine
 62
9
  6
CONTINUOUS
 10
11.8145288663
 20
6.9210132492
 11
11.9096265592
 21
6.9210132492
  0
LINE
  5
214
100
AcDbEntity
  8
0
100
AcDbLine
 62
9
  6
CONTINUOUS
 10
13.8224662091
 20
6.9210132492
 11
13.9175639019
 21
6.9210132492
  0
LINE
  5
215
100
AcDbEntity
  8
0
100
AcDbLine
 62
9
  6
CONTINUOUS
 10
11.9313233532
 20
6.9430991483
 11
13.800769415
 21
6.9430991483
  0
LINE
  5
216
100
AcDbEntity
  8
0
100
AcDbLine
 62
9
  6
CONTINUOUS
 10
13.906770812
 20
6.9698806254
 11
13.7897157268
 21
6.9698806254
  0
LINE
  5
217
100
AcDbEntity
  8
0
100
AcDbLine
 62
9
  6
CONTINUOUS
 10
11.9423770415
 20
6.9698806254
 11
11.8253219562
 21
6.9698806254
  0
LINE
  5
218
100
AcDbEntity
  8
0
100
AcDbLine
 62
9
  6
CONTINUOUS
 10
11.9405342085
 20
6.9827067821
 11
13.7915585598
 21
6.9827067821
  0
LINE
  5
219
100
AcDbEntity
  8
0
100
AcDbLine
 62
9
  6
CONTINUOUS
 10
13.9106124104
 20
6.9923863331
 11
13.793607352
 21
6.9923863331
  0
LINE
  5
21A
100
AcDbEntity
  8
0
100
AcDbLine
 62
9
  6
CONTINUOUS
 10
11.9384854162
 20
6.9923863331
 11
11.8214803578
 21
6.9923863331
  0
LINE
  5
21B
100
AcDbEntity
  8
0
100
AcDbLine
 62
9
  6
CONTINUOUS
 10
13.9068467102
 20
7.0072357115
 11
13.7930976185
 21
7.0072357115
  0
LINE
  5
21C
100
AcDbEntity
  8
0
100
AcDbLine
 62
9
  6
CONTINUOUS
 10
11.9389951497
 20
7.0072357115
 11
11.8252460581
 21
7.0072357115
  0
LINE
  5
21D
100
AcDbEntity
  8
0
100
AcDbLine
 62
9
  6
CONTINUOUS
 10
11.9500805022
 20
7.032891804
 11
13.782012266
 21
7.032891804
  0
LINE
  5
21E
100
AcDbEntity
  8
0
100
AcDbLine
 62
9
  6
CONTINUOUS
 10
13.8705054105
 20
7.1455772544
 11
13.6907613875
 21
7.1455772544
  0
LINE
  5
21F
100
AcDbEntity
  8
0
100
AcDbLine
 62
9
  6
CONTINUOUS
 10
12.0413313807
 20
7.1455772544
 11
11.8615873578
 21
7.1455772544
  0
LINE
  5
220
100
AcDbEntity
  8
0
100
AcDbLine
 62
9
  6
CONTINUOUS
 10
13.682141357
 20
7.1562221056
 11
12.0499514112
 21
7.1562221056
  0
LINE
  5
221
100
AcDbEntity
  8
0
100
AcDbLine
 62
7
  6
CONTINUOUS
 10
13.6277411397
 20
7.1821696783
 11
12.1043516285
 21
7.1821696783
  0
LINE
  5
222
100
AcDbEntity
  8
0
100
AcDbLine
 62
7
  6
CONTINUOUS
 10
13.840058713
 20
7.1898918103
 11
13.6142416555
 21
7.1898918103
  0
LINE
  5
223
100
AcDbEntity
  8
0
100
AcDbLine
 62
7
  6
CONTINUOUS
 10
12.1178511127
 20
7.1898918102
 11
11.8920340551
 21
7.1898918102
  0
LINE
  5
224
100
AcDbEntity
  8
0
100
AcDbLine
 62
7
  6
CONTINUOUS
 10
13.3710463841
 20
7.398891804
 11
12.3610463841
 21
7.398891804
  0
LINE
  5
225
100
AcDbEntity
  8
0
100
AcDbLine
 62
9
  6
CONTINUOUS
 10
12.3902682979
 20
7.4891968744
 11
13.3418244703
 21
7.4891968744
  0
LINE
  5
226
100
AcDbEntity
  8
0
100
AcDbLine
 62
9
  6
CONTINUOUS
 10
12.4348358594
 20
7.5377226258
 11
13.2972569089
 21
7.5377226258
  0
LINE
  5
227
100
AcDbEntity
  8
0
100
AcDbLine
 62
7
  6
CONTINUOUS
 10
13.5010458003
 20
7.658891804
 11
13.280832464
 21
7.658891804
  0
LINE
  5
228
100
AcDbEntity
  8
0
100
AcDbLine
 62
7
  6
CONTINUOUS
 10
12.4512603042
 20
7.658891804
 11
12.2310469679
 21
7.658891804
  0
LINE
  5
229
100
AcDbEntity
  8
0
100
AcDbLine
 62
7
  6
CONTINUOUS
 10
7.7028617341
 20
8.5521038059
 11
7.9041028987
 21
8.4867165879
  0
LINE
  5
22A
100
AcDbEntity
  8
0
100
AcDbLine
 62
7
  6
CONTINUOUS
 10
7.3647036121
 20
8.6702572703
 11
8.0779959994
 21
8.4384945245
  0
LINE
  5
22B
100
AcDbEntity
  8
0
100
AcDbLine
 62
9
  6
CONTINUOUS
 10
13.5053191031
 20
7.7810182727
 11
13.2645618621
 21
7.7810182727
  0
LINE
  5
22C
100
AcDbEntity
  8
0
100
AcDbLine
 62
9
  6
CONTINUOUS
 10
12.4675309061
 20
7.7810182727
 11
12.2267736651
 21
7.7810182727
  0
LINE
  5
22D
100
AcDbEntity
  8
0
100
AcDbLine
 62
9
  6
CONTINUOUS
 10
12.2460463841
 20
7.8152290871
 11
12.4703024497
 21
7.8152290871
  0
LINE
  5
22E
100
AcDbEntity
  8
0
100
AcDbLine
 62
9
  6
CONTINUOUS
 10
13.2617903186
 20
7.8152290871
 11
13.4860463841
 21
7.8152290871
  0
LINE
  5
22F
100
AcDbEntity
  8
0
100
AcDbLine
 62
9
  6
CONTINUOUS
 10
13.4860463841
 20
8.0862871284
 11
13.2436682484
 21
8.0862871284
  0
LINE
  5
230
100
AcDbEntity
  8
0
100
AcDbLine
 62
9
  6
CONTINUOUS
 10
12.4884245199
 20
8.0862871284
 11
12.2460463841
 21
8.0862871284
  0
LINE
  5
231
100
AcDbEntity
  8
0
100
AcDbLine
 62
9
  6
CONTINUOUS
 10
13.5163166542
 20
8.1579653313
 11
13.2417363608
 21
8.1579653313
  0
LINE
  5
232
100
AcDbEntity
  8
0
100
AcDbLine
 62
9
  6
CONTINUOUS
 10
12.4903564074
 20
8.1579653313
 11
12.215776114
 21
8.1579653313
  0
LINE
  5
233
100
AcDbEntity
  8
0
100
AcDbLine
 62
9
  6
CONTINUOUS
 10
13.4961231768
 20
8.2943769302
 11
13.2397695132
 21
8.2943769302
  0
LINE
  5
234
100
AcDbEntity
  8
0
100
AcDbLine
 62
9
  6
CONTINUOUS
 10
12.492323255
 20
8.2943769302
 11
12.2359695914
 21
8.2943769302
  0
LINE
  5
235
100
AcDbEntity
  8
0
100
AcDbLine
 62
9
  6
CONTINUOUS
 10
13.4691526643
 20
8.3367037255
 11
13.2404897805
 21
8.3367037255
  0
LINE
  5
236
100
AcDbEntity
  8
0
100
AcDbLine
 62
9
  6
CONTINUOUS
 10
12.4916029877
 20
8.3367037255
 11
12.2629401039
 21
8.3367037255
  0
LINE
  5
237
100
AcDbEntity
  8
0
100
AcDbLine
 62
9
  6
CONTINUOUS
 10
13.2623247822
 20
8.7099252812
 11
12.469767986
 21
8.7099252812
  0
LINE
  5
238
100
AcDbEntity
  8
0
100
AcDbLine
 62
9
  6
CONTINUOUS
 10
13.289029373
 20
8.7539315231
 11
12.4430633952
 21
8.7539315231
  0
LINE
  5
239
100
AcDbEntity
  8
0
100
AcDbLine
 62
9
  6
CONTINUOUS
 10
12.4160463841
 20
8.8040526395
 11
13.3160463841
 21
8.8040526395
  0
LINE
  5
23A
100
AcDbEntity
  8
0
100
AcDbLine
 62
9
  6
CONTINUOUS
 10
13.3160463841
 20
8.808891804
 11
12.4160463841
 21
8.808891804
  0
LINE
  5
23B
100
AcDbEntity
  8
0
100
AcDbLine
 62
7
  6
CONTINUOUS
 10
13.2560463831
 20
8.868891804
 11
12.4760463851
 21
8.868891804
  0
LINE
  5
23C
100
AcDbEntity
  8
0
100
AcDbLine
 62
7
  6
CONTINUOUS
 10
13.1905463841
 20
8.948891804
 11
12.5415463841
 21
8.948891804
  0
LINE
  5
23D
100
AcDbEntity
  8
0
100
AcDbLine
 62
9
  6
CONTINUOUS
 10
13.488871047
 20
9.1798298614
 11
13.1761313402
 21
9.1798298614
  0
LINE
  5
23E
100
AcDbEntity
  8
0
100
AcDbLine
 62
9
  6
CONTINUOUS
 10
12.5561830379
 20
9.1798298614
 11
12.2432217212
 21
9.1798298614
  0
LINE
  5
23F
100
AcDbEntity
  8
0
100
AcDbLine
 62
9
  6
CONTINUOUS
 10
13.5086508825
 20
9.2109061664
 11
13.2108612601
 21
9.2109061664
  0
LINE
  5
240
100
AcDbEntity
  8
0
100
AcDbLine
 62
9
  6
CONTINUOUS
 10
12.5209178462
 20
9.2109061664
 11
12.2234418857
 21
9.2109061664
  0
LINE
  5
241
100
AcDbEntity
  8
0
100
AcDbLine
 62
9
  6
CONTINUOUS
 10
12.1910463841
 20
9.2671374186
 11
12.4717480609
 21
9.2671374186
  0
LINE
  5
242
100
AcDbEntity
  8
0
100
AcDbLine
 62
9
  6
CONTINUOUS
 10
13.2599907457
 20
9.2671374186
 11
13.5410463841
 21
9.2671374186
  0
LINE
  5
243
100
AcDbEntity
  8
0
100
AcDbLine
 62
9
  6
CONTINUOUS
 10
13.5410463841
 20
9.273891804
 11
13.2644888285
 21
9.273891804
  0
LINE
  5
244
100
AcDbEntity
  8
0
100
AcDbLine
 62
9
  6
CONTINUOUS
 10
12.4673543087
 20
9.273891804
 11
12.1910463841
 21
9.273891804
  0
LINE
  5
245
100
AcDbEntity
  8
0
100
AcDbLine
 62
7
  6
CONTINUOUS
 10
11.2100463841
 20
9.315391804
 11
11.2182617661
 21
9.315391804
  0
LINE
  5
246
100
AcDbEntity
  8
0
100
AcDbLine
 62
7
  6
CONTINUOUS
 10
12.1078310022
 20
9.315391804
 11
12.1160463841
 21
9.315391804
  0
LINE
  5
247
100
AcDbEntity
  8
0
100
AcDbLine
 62
7
  6
CONTINUOUS
 10
11.1400463841
 20
9.385391804
 11
11.1400463841
 21
10.3703694823
  0
LINE
  5
248
100
AcDbEntity
  8
0
100
AcDbLine
 62
9
  6
CONTINUOUS
 10
11.2100463841
 20
10.440391804
 11
11.2100463841
 21
9.315391804
  0
LINE
  5
249
100
AcDbEntity
  8
0
100
AcDbLine
 62
9
  6
CONTINUOUS
 10
11.2182617661
 20
9.315391804
 11
11.2182617661
 21
10.440391804
  0
LINE
  5
24A
100
AcDbEntity
  8
0
100
AcDbLine
 62
9
  6
CONTINUOUS
 10
11.2820304066
 20
10.3992632947
 11
11.2820304066
 21
9.3565203134
  0
LINE
  5
24B
100
AcDbEntity
  8
0
100
AcDbLine
 62
7
  6
CONTINUOUS
 10
13.4760384265
 20
9.338891804
 11
13.3040227374
 21
9.338891804
  0
LINE
  5
24C
100
AcDbEntity
  8
0
100
AcDbLine
 62
7
  6
CONTINUOUS
 10
12.4277871782
 20
9.338891804
 11
12.2560543417
 21
9.338891804
  0
LINE
  5
24D
100
AcDbEntity
  8
0
100
AcDbLine
 62
7
  6
CONTINUOUS
 10
10.0680463841
 20
9.427891804
 11
11.1400463895
 21
9.4278897022
  0
LINE
  5
24E
100
AcDbEntity
  8
0
100
AcDbLine
 62
9
  6
CONTINUOUS
 10
11.3195844986
 20
10.370529115
 11
11.3195844986
 21
9.3852544931
  0
LINE
  5
24F
100
AcDbEntity
  8
0
100
AcDbLine
 62
9
  6
CONTINUOUS
 10
12.1947862878
 20
9.4183353514
 11
12.1947920521
 21
9.418339791
  0
LINE
  5
250
100
AcDbEntity
  8
0
100
AcDbLine
 62
9
  6
CONTINUOUS
 10
10.0684463841
 20
9.8765829327
 11
11.1400463902
 21
9.877891805
  0
LINE
  5
251
100
AcDbEntity
  8
0
100
AcDbLine
 62
9
  6
CONTINUOUS
 10
12.6402399323
 20
10.0022427961
 11
12.655454715
 21
10.0022427961
  0
LINE
  5
252
100
AcDbEntity
  8
0
100
AcDbLine
 62
9
  6
CONTINUOUS
 10
13.0772199415
 20
10.0022427961
 11
13.0918528359
 21
10.0022427961
  0
LINE
  5
253
100
AcDbEntity
  8
0
100
AcDbLine
 62
9
  6
CONTINUOUS
 10
12.0065082696
 20
9.3852544931
 11
12.0065082696
 21
10.370529115
  0
LINE
  5
254
100
AcDbEntity
  8
0
100
AcDbLine
 62
9
  6
CONTINUOUS
 10
12.0440623617
 20
9.3565203134
 11
12.0440623617
 21
10.3992632947
  0
LINE
  5
255
100
AcDbEntity
  8
0
100
AcDbLine
 62
7
  6
CONTINUOUS
 10
10.2120463841
 20
10.327891804
 11
11.1400463894
 21
10.3278939177
  0
LINE
  5
256
100
AcDbEntity
  8
0
100
AcDbLine
 62
7
  6
CONTINUOUS
 10
13.682141357
 20
7.1562221056
 11
13.782012266
 21
7.032891804
  0
LINE
  5
257
100
AcDbEntity
  8
0
100
AcDbLine
 62
9
  6
CONTINUOUS
 10
12.1078310022
 20
10.440391804
 11
12.1078310022
 21
9.315391804
  0
LINE
  5
258
100
AcDbEntity
  8
0
100
AcDbLine
 62
9
  6
CONTINUOUS
 10
12.1160463841
 20
9.315391804
 11
12.1160463841
 21
10.440391804
  0
LINE
  5
259
100
AcDbEntity
  8
0
100
AcDbLine
 62
7
  6
CONTINUOUS
 10
12.1860463841
 20
9.3853918044
 11
12.1860463841
 21
10.370381577
  0
LINE
  5
25A
100
AcDbEntity
  8
0
100
AcDbLine
 62
7
  6
CONTINUOUS
 10
12.1910463841
 20
9.2671374186
 11
12.1910463841
 21
9.273891804
  0
LINE
  5
25B
100
AcDbEntity
  8
0
100
AcDbLine
 62
9
  6
CONTINUOUS
 10
12.1947920521
 20
9.418339791
 11
12.1947890128
 21
10.337452237
  0
LINE
  5
25C
100
AcDbEntity
  8
0
100
AcDbLine
 62
7
  6
CONTINUOUS
 10
12.2460463841
 20
7.8152290871
 11
12.2460463841
 21
8.0862871284
  0
LINE
  5
25D
100
AcDbEntity
  8
0
100
AcDbLine
 62
7
  6
CONTINUOUS
 10
12.3610463841
 20
11.180891804
 11
12.3610463841
 21
11.100891804
  0
LINE
  5
25E
100
AcDbEntity
  8
0
100
AcDbLine
 62
7
  6
CONTINUOUS
 10
12.5025520593
 20
10.6629847474
 11
12.4955164828
 21
10.6116237862
  0
LINE
  5
25F
100
AcDbEntity
  8
0
100
AcDbLine
 62
7
  6
CONTINUOUS
 10
11.8252460559
 20
7.0072357059
 11
11.8214803578
 21
6.9923863331
  0
LINE
  5
260
100
AcDbEntity
  8
0
100
AcDbLine
 62
7
  6
CONTINUOUS
 10
12.5645463841
 20
10.7206309511
 11
12.5609903516
 21
10.7204194495
  0
LINE
  5
261
100
AcDbEntity
  8
0
100
AcDbLine
 62
7
  6
CONTINUOUS
 10
11.2100463841
 20
10.440391804
 11
11.2182617661
 21
10.440391804
  0
LINE
  5
262
100
AcDbEntity
  8
0
100
AcDbLine
 62
7
  6
CONTINUOUS
 10
12.1078310022
 20
10.440391804
 11
12.1160463841
 21
10.440391804
  0
LINE
  5
263
100
AcDbEntity
  8
0
100
AcDbLine
 62
9
  6
CONTINUOUS
 10
13.2470248318
 20
10.5966669235
 11
12.4850679365
 21
10.5966669235
  0
LINE
  5
264
100
AcDbEntity
  8
0
100
AcDbLine
 62
9
  6
CONTINUOUS
 10
12.4955164828
 20
10.6116237862
 11
13.2365712541
 21
10.6116237862
  0
LINE
  5
265
100
AcDbEntity
  8
0
100
AcDbLine
 62
9
  6
CONTINUOUS
 10
13.2295407089
 20
10.6629847474
 11
12.5025520593
 21
10.6629847474
  0
LINE
  5
266
100
AcDbEntity
  8
0
100
AcDbLine
 62
7
  6
CONTINUOUS
 10
12.4160463841
 20
8.808891804
 11
12.4160463841
 21
8.8040526395
  0
LINE
  5
267
100
AcDbEntity
  8
0
100
AcDbLine
 62
7
  6
CONTINUOUS
 10
12.5415463841
 20
8.948891804
 11
12.5415463841
 21
8.868891804
  0
LINE
  5
268
100
AcDbEntity
  8
0
100
AcDbLine
 62
7
  6
CONTINUOUS
 10
12.6075463841
 20
9.1423840305
 11
12.6075463841
 21
8.948891804
  0
LINE
  5
269
100
AcDbEntity
  8
0
100
AcDbLine
 62
9
  6
CONTINUOUS
 10
12.5610173873
 20
10.7204194495
 11
13.1711024166
 21
10.7204194495
  0
LINE
  5
26A
100
AcDbEntity
  8
0
100
AcDbLine
 62
7
  6
CONTINUOUS
 10
13.1675463841
 20
10.7206309511
 11
12.5645463841
 21
10.7206309511
  0
LINE
  5
26B
100
AcDbEntity
  8
0
100
AcDbLine
 62
7
  6
CONTINUOUS
 10
13.0910463841
 20
10.840891804
 11
12.6410463841
 21
10.840891804
  0
LINE
  5
26C
100
AcDbEntity
  8
0
100
AcDbLine
 62
7
  6
CONTINUOUS
 10
13.1675463841
 20
10.7206309511
 11
13.1711024166
 21
10.7204194495
  0
LINE
  5
26D
100
AcDbEntity
  8
0
100
AcDbLine
 62
7
  6
CONTINUOUS
 10
12.6410463841
 20
10.840891804
 11
12.6410463841
 21
10.7206309511
  0
LINE
  5
26E
100
AcDbEntity
  8
0
100
AcDbLine
 62
7
  6
CONTINUOUS
 10
12.3810463843
 20
11.080891804
 11
13.3510409111
 21
11.080891804
  0
LINE
  5
26F
100
AcDbEntity
  8
0
100
AcDbLine
 62
9
  6
CONTINUOUS
 10
12.3610463841
 20
11.100891804
 11
13.3710463841
 21
11.100891804
  0
LINE
  5
270
100
AcDbEntity
  8
0
100
AcDbLine
 62
9
  6
CONTINUOUS
 10
13.3710463841
 20
11.180891804
 11
12.3610463841
 21
11.180891804
  0
LINE
  5
271
100
AcDbEntity
  8
0
100
AcDbLine
 62
7
  6
CONTINUOUS
 10
13.3510463836
 20
11.200891804
 11
12.3810463846
 21
11.200891804
  0
LINE
  5
272
100
AcDbEntity
  8
0
100
AcDbLine
 62
7
  6
CONTINUOUS
 10
13.0910463841
 20
10.840891804
 11
13.0910463841
 21
10.7206309511
  0
LINE
  5
273
100
AcDbEntity
  8
0
100
AcDbLine
 62
7
  6
CONTINUOUS
 10
13.1245463841
 20
9.1420214243
 11
13.1245463841
 21
8.948891804
  0
LINE
  5
274
100
AcDbEntity
  8
0
100
AcDbLine
 62
7
  6
CONTINUOUS
 10
12.0499514112
 20
7.1562221056
 11
11.9500805022
 21
7.032891804
  0
LINE
  5
275
100
AcDbEntity
  8
0
100
AcDbLine
 62
7
  6
CONTINUOUS
 10
13.1905463841
 20
8.948891804
 11
13.1905463841
 21
8.868891804
  0
LINE
  5
276
100
AcDbEntity
  8
0
100
AcDbLine
 62
7
  6
CONTINUOUS
 10
13.3160463841
 20
8.808891804
 11
13.3160463841
 21
8.8040526395
  0
LINE
  5
277
100
AcDbEntity
  8
0
100
AcDbLine
 62
7
  6
CONTINUOUS
 10
13.3710463841
 20
11.180891804
 11
13.3710463841
 21
11.100891804
  0
LINE
  5
278
100
AcDbEntity
  8
0
100
AcDbLine
 62
7
  6
CONTINUOUS
 10
13.9068467123
 20
7.0072357059
 11
13.9106124104
 21
6.9923863331
  0
LINE
  5
279
100
AcDbEntity
  8
0
100
AcDbLine
 62
7
  6
CONTINUOUS
 10
13.2295407089
 20
10.6629847474
 11
13.2365762854
 21
10.6116237862
  0
LINE
  5
27A
100
AcDbEntity
  8
0
100
AcDbLine
 62
7
  6
CONTINUOUS
 10
13.4860463841
 20
7.8152290871
 11
13.4860463841
 21
8.0862871284
  0
LINE
  5
27B
100
AcDbEntity
  8
0
100
AcDbLine
 62
7
  6
CONTINUOUS
 10
13.5410463841
 20
9.2671374186
 11
13.5410463841
 21
9.273891804
  0
ARC
  5
27C
100
AcDbEntity
  8
0
100
AcDbCircle
 62
7
  6
CONTINUOUS
 10
5.7685463841
 20
8.6066115097
 40
6.5
100
AcDbArc
 50
357.6201500742
 51
5.0593403217
  0
ARC
  5
27D
100
AcDbEntity
  8
0
100
AcDbCircle
 62
7
  6
CONTINUOUS
 10
8.033984959
 20
8.2554916365
 40
4.459
100
AcDbArc
 50
350.7367478167
 51
5.8493864074
  0
ARC
  5
27E
100
AcDbEntity
  8
0
100
AcDbCircle
 62
9
  6
CONTINUOUS
 10
10.0719917006
 20
5.4340702815
 40
4.4425140312
100
AcDbArc
 50
90.0457242712
 51
92.0658136751
  0
ARC
  5
27F
100
AcDbEntity
  8
0
100
AcDbCircle
 62
7
  6
CONTINUOUS
 10
10.0686352676
 20
5.4300496033
 40
3.9978449197
100
AcDbArc
 50
90.008439687
 51
103.8594922323
  0
ARC
  5
280
100
AcDbEntity
  8
0
100
AcDbCircle
 62
7
  6
CONTINUOUS
 10
10.068114152
 20
5.4346353471
 40
3.9932652244
100
AcDbArc
 50
103.8679939566
 51
105.7357908941
  0
ARC
  5
281
100
AcDbEntity
  8
0
100
AcDbCircle
 62
7
  6
CONTINUOUS
 10
10.212057054
 20
6.3875881626
 40
3.9403036415
100
AcDbArc
 50
90.000155151
 51
94.0249250513
  0
ARC
  5
282
100
AcDbEntity
  8
0
100
AcDbCircle
 62
7
  6
CONTINUOUS
 10
10.2120576383
 20
6.3877704778
 40
3.940121817
100
AcDbArc
 50
94.0251196126
 51
96.5740413991
  0
ARC
  5
283
100
AcDbEntity
  8
0
100
AcDbCircle
 62
7
  6
CONTINUOUS
 10
12.3540463841
 20
6.4727674429
 40
1.65
100
AcDbArc
 50
25.7611690767
 51
45.9607077617
  0
ARC
  5
284
100
AcDbEntity
  8
0
100
AcDbCircle
 62
7
  6
CONTINUOUS
 10
12.8350463841
 20
6.5987518163
 40
0.93
100
AcDbArc
 50
120.6423451974
 51
141.168495232
  0
ARC
  5
285
100
AcDbEntity
  8
0
100
AcDbCircle
 62
7
  6
CONTINUOUS
 10
12.3787385247
 20
6.219823217
 40
0.9
100
AcDbArc
 50
128.8217507713
 51
140.3235258513
  0
ARC
  5
286
100
AcDbEntity
  8
0
100
AcDbCircle
 62
7
  6
CONTINUOUS
 10
12.1043516285
 20
7.1121696783
 40
0.07
100
AcDbArc
 50
90.0
 51
141.0
  0
ARC
  5
287
100
AcDbEntity
  8
0
100
AcDbCircle
 62
7
  6
CONTINUOUS
 10
11.9920463841
 20
6.9989085029
 40
0.054
100
AcDbArc
 50
141.0
 51
197.4595172065
  0
ARC
  5
288
100
AcDbEntity
  8
0
100
AcDbCircle
 62
7
  6
CONTINUOUS
 10
11.9023770415
 20
6.9707055068
 40
0.04
100
AcDbArc
 50
316.357306396
 51
17.4595179393
  0
ARC
  5
289
100
AcDbEntity
  8
0
100
AcDbCircle
 62
7
  6
CONTINUOUS
 10
11.7894528815
 20
6.9521772506
 40
0.04
100
AcDbArc
 50
308.8217507713
 51
26.2688900873
  0
ARC
  5
28A
100
AcDbEntity
  8
0
100
AcDbCircle
 62
7
  6
CONTINUOUS
 10
11.8611910313
 20
6.9875839994
 40
0.04
100
AcDbArc
 50
173.1049134125
 51
206.2688894476
  0
ARC
  5
28B
100
AcDbEntity
  8
0
100
AcDbCircle
 62
7
  6
CONTINUOUS
 10
11.7168294021
 20
6.768891804
 40
0.04
100
AcDbArc
 50
140.3235258513
 51
269.9999984673
  0
ARC
  5
28C
100
AcDbEntity
  8
0
100
AcDbCircle
 62
7
  6
CONTINUOUS
 10
11.7826112324
 20
6.758891804
 40
0.03
100
AcDbArc
 50
131.2685707348
 51
269.9999980768
  0
ARC
  5
28D
100
AcDbEntity
  8
0
100
AcDbCircle
 62
7
  6
CONTINUOUS
 10
10.0281033009
 20
8.7582171699
 40
2.63
100
AcDbArc
 50
311.2685692541
 51
316.3573080546
  0
ARC
  5
28E
100
AcDbEntity
  8
0
100
AcDbCircle
 62
9
  6
CONTINUOUS
 10
9.9967318709
 20
7.4027802018
 40
2.5502028085
100
AcDbArc
 50
142.2519524929
 51
153.155514946
  0
ARC
  5
28F
100
AcDbEntity
  8
0
100
AcDbCircle
 62
9
  6
CONTINUOUS
 10
9.9743974407
 20
7.4197355189
 40
2.5221663236
100
AcDbArc
 50
140.8274128776
 51
142.2459297839
  0
ARC
  5
290
100
AcDbEntity
  8
0
100
AcDbCircle
 62
7
  6
CONTINUOUS
 10
11.6630463841
 20
7.264891804
 40
2.148
100
AcDbArc
 50
80.7989976499
 51
99.20100235
  0
ARC
  5
291
100
AcDbEntity
  8
0
100
AcDbCircle
 62
7
  6
CONTINUOUS
 10
9.4108281318
 20
8.132487982
 40
2.0202170665
100
AcDbArc
 50
114.6678153975
 51
119.4208070128
  0
ARC
  5
292
100
AcDbEntity
  8
0
100
AcDbCircle
 62
9
  6
CONTINUOUS
 10
9.6516974569
 20
7.8189330204
 40
2.0054505743
100
AcDbArc
 50
114.2747943515
 51
118.5027060096
  0
ARC
  5
293
100
AcDbEntity
  8
0
100
AcDbCircle
 62
7
  6
CONTINUOUS
 10
9.3085978217
 20
8.1306104101
 40
1.1923817594
100
AcDbArc
 50
143.3485953028
 51
145.9998225552
  0
ARC
  5
294
100
AcDbEntity
  8
0
100
AcDbCircle
 62
7
  6
CONTINUOUS
 10
11.2672427736
 20
7.2277631122
 40
0.6
100
AcDbArc
 50
338.4356683281
 51
352.1270771931
  0
ARC
  5
295
100
AcDbEntity
  8
0
100
AcDbCircle
 62
7
  6
CONTINUOUS
 10
12.1460463841
 20
8.0862871284
 40
0.1
100
AcDbArc
 50
0.0
 51
45.7894338741
  0
ARC
  5
296
100
AcDbEntity
  8
0
100
AcDbCircle
 62
7
  6
CONTINUOUS
 10
12.2750463841
 20
8.218891804
 40
0.085
100
AcDbArc
 50
117.3694974839
 51
225.7894340203
  0
ARC
  5
297
100
AcDbEntity
  8
0
100
AcDbCircle
 62
7
  6
CONTINUOUS
 10
12.2630463841
 20
7.7211493337
 40
0.07
100
AcDbArc
 50
121.2103702925
 51
242.7971055878
  0
ARC
  5
298
100
AcDbEntity
  8
0
100
AcDbCircle
 62
7
  6
CONTINUOUS
 10
12.3756183093
 20
7.5473808742
 40
0.06
100
AcDbArc
 50
284.1325804472
 51
350.7367502601
  0
ARC
  5
299
100
AcDbEntity
  8
0
100
AcDbCircle
 62
7
  6
CONTINUOUS
 10
12.4100803918
 20
8.7038104549
 40
0.06
100
AcDbArc
 50
5.8493846555
 51
56.6524188184
  0
ARC
  5
29A
100
AcDbEntity
  8
0
100
AcDbCircle
 62
7
  6
CONTINUOUS
 10
12.4760463841
 20
8.804052601
 40
0.06
100
AcDbArc
 50
180.0
 51
236.6524354024
  0
ARC
  5
29B
100
AcDbEntity
  8
0
100
AcDbCircle
 62
7
  6
CONTINUOUS
 10
12.4760463841
 20
8.808891804
 40
0.06
100
AcDbArc
 50
89.9999990721
 51
180.0
  0
ARC
  5
29C
100
AcDbEntity
  8
0
100
AcDbCircle
 62
7
  6
CONTINUOUS
 10
11.9210218465
 20
7.1373588877
 40
0.06
100
AcDbArc
 50
118.8900181201
 51
172.1270963865
  0
ARC
  5
29D
100
AcDbEntity
  8
0
100
AcDbCircle
 62
7
  6
CONTINUOUS
 10
12.4039416053
 20
7.434891804
 40
0.056
100
AcDbArc
 50
104.1325643299
 51
220.0052008848
  0
ARC
  5
29E
100
AcDbEntity
  8
0
100
AcDbCircle
 62
7
  6
CONTINUOUS
 10
12.2129832291
 20
8.3387799385
 40
0.05
100
AcDbArc
 50
297.3695085744
 51
357.6201500682
  0
ARC
  5
29F
100
AcDbEntity
  8
0
100
AcDbCircle
 62
7
  6
CONTINUOUS
 10
12.2060463841
 20
7.8152290871
 40
0.04
100
AcDbArc
 50
301.2103841902
 51
360.0
  0
ARC
  5
2A0
100
AcDbEntity
  8
0
100
AcDbCircle
 62
7
  6
CONTINUOUS
 10
11.6630463841
 20
12.490891804
 40
2.148
100
AcDbArc
 50
260.7989976497
 51
279.2010023502
  0
ARC
  5
2A1
100
AcDbEntity
  8
0
100
AcDbCircle
 62
7
  6
CONTINUOUS
 10
12.7911868004
 20
11.3605880904
 40
0.6
100
AcDbArc
 50
299.9845180961
 51
332.2146479711
  0
ARC
  5
2A2
100
AcDbEntity
  8
0
100
AcDbCircle
 62
7
  6
CONTINUOUS
 10
12.6660463841
 20
9.9265194374
 40
0.08
100
AcDbArc
 50
108.8190635135
 51
143.6546263136
  0
ARC
  5
2A3
100
AcDbEntity
  8
0
100
AcDbCircle
 62
7
  6
CONTINUOUS
 10
12.1160463841
 20
10.370391804
 40
0.07
100
AcDbArc
 50
359.9999997341
 51
90.0
  0
ARC
  5
2A4
100
AcDbEntity
  8
0
100
AcDbCircle
 62
7
  6
CONTINUOUS
 10
12.1078309827
 20
10.370391804
 40
0.07
100
AcDbArc
 50
90.0
 51
155.6411752039
  0
ARC
  5
2A5
100
AcDbEntity
  8
0
100
AcDbCircle
 62
7
  6
CONTINUOUS
 10
12.1078309827
 20
9.385391804
 40
0.07
100
AcDbArc
 50
204.3588247967
 51
270.0
  0
ARC
  5
2A6
100
AcDbEntity
  8
0
100
AcDbCircle
 62
7
  6
CONTINUOUS
 10
12.1160463841
 20
9.385391804
 40
0.07
100
AcDbArc
 50
270.0
 51
0.0000002659
  0
ARC
  5
2A7
100
AcDbEntity
  8
0
100
AcDbCircle
 62
7
  6
CONTINUOUS
 10
11.2182617856
 20
9.385391804
 40
0.07
100
AcDbArc
 50
270.0
 51
335.6411752031
  0
ARC
  5
2A8
100
AcDbEntity
  8
0
100
AcDbCircle
 62
7
  6
CONTINUOUS
 10
11.2182617856
 20
10.370391804
 40
0.07
100
AcDbArc
 50
24.3588247961
 51
90.0
  0
ARC
  5
2A9
100
AcDbEntity
  8
0
100
AcDbCircle
 62
7
  6
CONTINUOUS
 10
11.2100463841
 20
10.370391804
 40
0.07
100
AcDbArc
 50
90.0
 51
180.0
  0
ARC
  5
2AA
100
AcDbEntity
  8
0
100
AcDbCircle
 62
7
  6
CONTINUOUS
 10
11.2100463841
 20
9.385391804
 40
0.07
100
AcDbArc
 50
180.0
 51
270.0
  0
ARC
  5
2AB
100
AcDbEntity
  8
0
100
AcDbCircle
 62
7
  6
CONTINUOUS
 10
12.5689321646
 20
10.653891804
 40
0.067
100
AcDbArc
 50
96.8075332506
 51
172.2
  0
ARC
  5
2AC
100
AcDbEntity
  8
0
100
AcDbCircle
 62
7
  6
CONTINUOUS
 10
12.2560463841
 20
9.273891804
 40
0.065
100
AcDbArc
 50
90.0
 51
180.0
  0
ARC
  5
2AD
100
AcDbEntity
  8
0
100
AcDbCircle
 62
7
  6
CONTINUOUS
 10
12.2560463841
 20
9.267137356
 40
0.065
100
AcDbArc
 50
180.0
 51
239.8935717269
  0
ARC
  5
2AE
100
AcDbEntity
  8
0
100
AcDbCircle
 62
7
  6
CONTINUOUS
 10
12.2360463841
 20
9.4465772437
 40
0.05
100
AcDbArc
 50
179.9999911602
 51
214.3965578893
  0
ARC
  5
2AF
100
AcDbEntity
  8
0
100
AcDbCircle
 62
7
  6
CONTINUOUS
 10
12.2360463841
 20
10.3092063644
 40
0.05
100
AcDbArc
 50
145.6034408719
 51
180.0000076012
  0
ARC
  5
2B0
100
AcDbEntity
  8
0
100
AcDbCircle
 62
7
  6
CONTINUOUS
 10
11.9985133468
 20
10.4198857884
 40
0.05
100
AcDbArc
 50
279.2010023228
 51
335.6411748256
  0
ARC
  5
2B1
100
AcDbEntity
  8
0
100
AcDbCircle
 62
7
  6
CONTINUOUS
 10
11.3275794214
 20
9.3358978197
 40
0.05
100
AcDbArc
 50
99.2010023226
 51
155.6411748259
  0
ARC
  5
2B2
100
AcDbEntity
  8
0
100
AcDbCircle
 62
7
  6
CONTINUOUS
 10
11.3275794214
 20
10.4198857884
 40
0.05
100
AcDbArc
 50
204.3588251749
 51
260.7989976763
  0
ARC
  5
2B3
100
AcDbEntity
  8
0
100
AcDbCircle
 62
7
  6
CONTINUOUS
 10
11.9985133468
 20
9.3358978197
 40
0.05
100
AcDbArc
 50
24.358825175
 51
80.7989976771
  0
ARC
  5
2B4
100
AcDbEntity
  8
0
100
AcDbCircle
 62
7
  6
CONTINUOUS
 10
12.2033775652
 20
9.1763023654
 40
0.04
100
AcDbArc
 50
5.0593403352
 51
59.8935575796
  0
ARC
  5
2B5
100
AcDbEntity
  8
0
100
AcDbCircle
 62
7
  6
CONTINUOUS
 10
12.3810463841
 20
11.100891804
 40
0.02
100
AcDbArc
 50
180.0
 51
270.0000004884
  0
ARC
  5
2B6
100
AcDbEntity
  8
0
100
AcDbCircle
 62
7
  6
CONTINUOUS
 10
12.3810463841
 20
11.180891804
 40
0.02
100
AcDbArc
 50
89.9999986524
 51
180.0
  0
ARC
  5
2B7
100
AcDbEntity
  8
0
100
AcDbCircle
 62
7
  6
CONTINUOUS
 10
12.4757015258
 20
10.6143380965
 40
0.02
100
AcDbArc
 50
297.9253336896
 51
352.2000035239
  0
ARC
  5
2B8
100
AcDbEntity
  8
0
100
AcDbCircle
 62
7
  6
CONTINUOUS
 10
19.9635463841
 20
8.6066115097
 40
6.5
100
AcDbArc
 50
174.9406596781
 51
182.3798499258
  0
ARC
  5
2B9
100
AcDbEntity
  8
0
100
AcDbCircle
 62
7
  6
CONTINUOUS
 10
17.6981078092
 20
8.2554916365
 40
4.459
100
AcDbArc
 50
174.1506135929
 51
189.2632521833
  0
ARC
  5
2BA
100
AcDbEntity
  8
0
100
AcDbCircle
 62
7
  6
CONTINUOUS
 10
15.7039894673
 20
8.7582171699
 40
2.63
100
AcDbArc
 50
223.6426919454
 51
228.7314307459
  0
ARC
  5
2BB
100
AcDbEntity
  8
0
100
AcDbCircle
 62
7
  6
CONTINUOUS
 10
13.3780463841
 20
6.4727674429
 40
1.65
100
AcDbArc
 50
134.0392922383
 51
154.2388309264
  0
ARC
  5
2BC
100
AcDbEntity
  8
0
100
AcDbCircle
 62
7
  6
CONTINUOUS
 10
12.8970463841
 20
6.5987518163
 40
0.93
100
AcDbArc
 50
38.831504768
 51
59.3576548026
  0
ARC
  5
2BD
100
AcDbEntity
  8
0
100
AcDbCircle
 62
7
  6
CONTINUOUS
 10
13.3533542435
 20
6.2198232169
 40
0.9
100
AcDbArc
 50
39.6764741488
 51
51.1782492271
  0
ARC
  5
2BE
100
AcDbEntity
  8
0
100
AcDbCircle
 62
7
  6
CONTINUOUS
 10
14.4648499947
 20
7.2277631122
 40
0.6
100
AcDbArc
 50
187.8729228069
 51
201.5643316719
  0
ARC
  5
2BF
100
AcDbEntity
  8
0
100
AcDbCircle
 62
7
  6
CONTINUOUS
 10
13.5860463841
 20
8.0862871284
 40
0.1
100
AcDbArc
 50
134.2105661259
 51
180.0
  0
ARC
  5
2C0
100
AcDbEntity
  8
0
100
AcDbCircle
 62
7
  6
CONTINUOUS
 10
13.4570463841
 20
8.218891804
 40
0.085
100
AcDbArc
 50
314.2105659797
 51
62.6305025161
  0
ARC
  5
2C1
100
AcDbEntity
  8
0
100
AcDbCircle
 62
7
  6
CONTINUOUS
 10
13.6277411397
 20
7.1121696783
 40
0.07
100
AcDbArc
 50
39.0
 51
90.0
  0
ARC
  5
2C2
100
AcDbEntity
  8
0
100
AcDbCircle
 62
7
  6
CONTINUOUS
 10
13.4690463841
 20
7.7211493337
 40
0.07
100
AcDbArc
 50
297.2028944122
 51
58.7896297075
  0
ARC
  5
2C3
100
AcDbEntity
  8
0
100
AcDbCircle
 62
7
  6
CONTINUOUS
 10
13.3564744589
 20
7.5473808742
 40
0.06
100
AcDbArc
 50
189.2632497399
 51
255.8674195528
  0
ARC
  5
2C4
100
AcDbEntity
  8
0
100
AcDbCircle
 62
7
  6
CONTINUOUS
 10
13.3220123764
 20
8.7038104548
 40
0.06
100
AcDbArc
 50
123.3475811806
 51
174.1506153445
  0
ARC
  5
2C5
100
AcDbEntity
  8
0
100
AcDbCircle
 62
7
  6
CONTINUOUS
 10
13.2560463841
 20
8.804052601
 40
0.06
100
AcDbArc
 50
303.3475645995
 51
360.0
  0
ARC
  5
2C6
100
AcDbEntity
  8
0
100
AcDbCircle
 62
7
  6
CONTINUOUS
 10
13.2560463841
 20
8.808891804
 40
0.06
100
AcDbArc
 50
0.0
 51
90.0000009279
  0
ARC
  5
2C7
100
AcDbEntity
  8
0
100
AcDbCircle
 62
7
  6
CONTINUOUS
 10
13.8110709217
 20
7.1373588877
 40
0.06
100
AcDbArc
 50
7.872903608
 51
61.1099819126
  0
ARC
  5
2C8
100
AcDbEntity
  8
0
100
AcDbCircle
 62
7
  6
CONTINUOUS
 10
13.3281511629
 20
7.434891804
 40
0.056
100
AcDbArc
 50
319.9947991152
 51
75.8674356701
  0
ARC
  5
2C9
100
AcDbEntity
  8
0
100
AcDbCircle
 62
7
  6
CONTINUOUS
 10
13.7400463841
 20
6.9989085029
 40
0.054
100
AcDbArc
 50
342.5404827935
 51
39.0
  0
ARC
  5
2CA
100
AcDbEntity
  8
0
100
AcDbCircle
 62
7
  6
CONTINUOUS
 10
13.5191095391
 20
8.3387799385
 40
0.05
100
AcDbArc
 50
182.3798499318
 51
242.6304914256
  0
ARC
  5
2CB
100
AcDbEntity
  8
0
100
AcDbCircle
 62
7
  6
CONTINUOUS
 10
13.8297157268
 20
6.9707055068
 40
0.04
100
AcDbArc
 50
162.5404820607
 51
223.642693604
  0
ARC
  5
2CC
100
AcDbEntity
  8
0
100
AcDbCircle
 62
7
  6
CONTINUOUS
 10
13.5260463841
 20
7.8152290871
 40
0.04
100
AcDbArc
 50
180.0
 51
238.7896158098
  0
ARC
  5
2CD
100
AcDbEntity
  8
0
100
AcDbCircle
 62
7
  6
CONTINUOUS
 10
13.8709017369
 20
6.9875839994
 40
0.04
100
AcDbArc
 50
333.731110575
 51
6.8950864621
  0
ARC
  5
2CE
100
AcDbEntity
  8
0
100
AcDbCircle
 62
7
  6
CONTINUOUS
 10
13.9426398868
 20
6.9521772506
 40
0.04
100
AcDbArc
 50
153.7311099352
 51
231.1782492271
  0
ARC
  5
2CF
100
AcDbEntity
  8
0
100
AcDbCircle
 62
7
  6
CONTINUOUS
 10
14.0152633661
 20
6.768891804
 40
0.04
100
AcDbArc
 50
270.0000015327
 51
39.6764741488
  0
ARC
  5
2D0
100
AcDbEntity
  8
0
100
AcDbCircle
 62
7
  6
CONTINUOUS
 10
13.9494815359
 20
6.758891804
 40
0.03
100
AcDbArc
 50
270.0000019232
 51
48.7314292652
  0
ARC
  5
2D1
100
AcDbEntity
  8
0
100
AcDbCircle
 62
7
  6
CONTINUOUS
 10
12.8660463841
 20
10.090891804
 40
1.2
100
AcDbArc
 50
67.6683549908
 51
112.3316450092
  0
ARC
  5
2D2
100
AcDbEntity
  8
0
100
AcDbCircle
 62
7
  6
CONTINUOUS
 10
12.8660463841
 20
9.877891804
 40
0.8135
100
AcDbArc
 50
318.5038939732
 51
62.0746905704
  0
ARC
  5
2D3
100
AcDbEntity
  8
0
100
AcDbCircle
 62
7
  6
CONTINUOUS
 10
12.8660463841
 20
9.877891804
 40
0.8135
100
AcDbArc
 50
117.9251296409
 51
145.603433458
  0
ARC
  5
2D4
100
AcDbEntity
  8
0
100
AcDbCircle
 62
7
  6
CONTINUOUS
 10
12.8660463841
 20
9.877891804
 40
0.8135
100
AcDbArc
 50
214.3965664658
 51
221.4961060268
  0
ARC
  5
2D5
100
AcDbEntity
  8
0
100
AcDbCircle
 62
7
  6
CONTINUOUS
 10
12.8660463841
 20
9.3396634074
 40
0.7
100
AcDbArc
 50
104.7671956027
 51
108.8190633855
  0
ARC
  5
2D6
100
AcDbEntity
  8
0
100
AcDbCircle
 62
7
  6
CONTINUOUS
 10
12.8660463841
 20
9.3396634074
 40
0.7
100
AcDbArc
 50
71.1809366145
 51
75.6380947974
  0
CIRCLE
  5
2D7
100
AcDbEntity
  8
0
100
AcDbCircle
 62
7
  6
CONTINUOUS
 10
12.8660463841
 20
9.5593914573
 40
0.49155
  0
ARC
  5
2D8
100
AcDbEntity
  8
0
100
AcDbCircle
 62
7
  6
CONTINUOUS
 10
12.8660463841
 20
9.5593914573
 40
0.49155
100
AcDbArc
 50
189.4404051283
 51
359.9999999997
  0
CIRCLE
  5
2D9
100
AcDbEntity
  8
0
100
AcDbCircle
 62
9
  6
CONTINUOUS
 10
12.8660463841
 20
9.5593914573
 40
0.4467171987
  0
CIRCLE
  5
2DA
100
AcDbEntity
  8
0
100
AcDbCircle
 62
9
  6
CONTINUOUS
 10
12.8660463841
 20
9.5593914573
 40
0.2963316391
  0
CIRCLE
  5
2DB
100
AcDbEntity
  8
0
100
AcDbCircle
 62
9
  6
CONTINUOUS
 10
12.8660463841
 20
9.5593914573
 40
0.2495043137
  0
ARC
  5
2DC
100
AcDbEntity
  8
0
100
AcDbCircle
 62
7
  6
CONTINUOUS
 10
13.0660463841
 20
9.9265194374
 40
0.08
100
AcDbArc
 50
35.6743539884
 51
71.1809364865
  0
ARC
  5
2DD
100
AcDbEntity
  8
0
100
AcDbCircle
 62
7
  6
CONTINUOUS
 10
12.9409059678
 20
11.3605880904
 40
0.6
100
AcDbArc
 50
207.7853520289
 51
240.0154819039
  0
ARC
  5
2DE
100
AcDbEntity
  8
0
100
AcDbCircle
 62
7
  6
CONTINUOUS
 10
13.1631606036
 20
10.653891804
 40
0.067
100
AcDbArc
 50
7.8
 51
83.1924667494
  0
ARC
  5
2DF
100
AcDbEntity
  8
0
100
AcDbCircle
 62
7
  6
CONTINUOUS
 10
13.4760463841
 20
9.273891804
 40
0.065
100
AcDbArc
 50
0.0
 51
90.0
  0
ARC
  5
2E0
100
AcDbEntity
  8
0
100
AcDbCircle
 62
7
  6
CONTINUOUS
 10
13.4760463841
 20
9.267137356
 40
0.065
100
AcDbArc
 50
300.1064282742
 51
360.0
  0
ARC
  5
2E1
100
AcDbEntity
  8
0
100
AcDbCircle
 62
7
  6
CONTINUOUS
 10
13.528715203
 20
9.1763023654
 40
0.04
100
AcDbArc
 50
120.1064424211
 51
174.9406596646
  0
ARC
  5
2E2
100
AcDbEntity
  8
0
100
AcDbCircle
 62
7
  6
CONTINUOUS
 10
13.3510463841
 20
11.180891804
 40
0.02
100
AcDbArc
 50
0.0
 51
90.0000013476
  0
ARC
  5
2E3
100
AcDbEntity
  8
0
100
AcDbCircle
 62
7
  6
CONTINUOUS
 10
13.3510463841
 20
11.100891804
 40
0.02
100
AcDbArc
 50
269.9999995116
 51
360.0
  0
ARC
  5
2E4
100
AcDbEntity
  8
0
100
AcDbCircle
 62
7
  6
CONTINUOUS
 10
13.2563912424
 20
10.6143380965
 40
0.02
100
AcDbArc
 50
187.7999964761
 51
242.0746663104
  0
SPLINE
  5
2E5
100
AcDbEntity
  8
0
100
AcDbSpline
 62
7
  6
CONTINUOUS
 70
0
 71
3
 72
11
 73
7
 74
0
 42
0.0000001
 43
0.0000001
 44
0.0000000001
 40
0.0
 40
0.0
 40
0.0
 40
0.0
 40
0.2499987121
 40
0.5
 40
0.7500012879
 40
1.0
 40
1.0
 40
1.0
 40
1.0
 10
8.567677056
 20
9.9683456178
 30
0.0
 10
8.6618736714
 20
10.0116066214
 30
0.0
 10
8.8537952992
 20
10.0906675097
 30
0.0
 10
9.1500536215
 20
10.1861930899
 30
0.0
 10
9.4528949996
 20
10.2581738495
 30
0.0
 10
9.6579904147
 20
10.2901176432
 30
0.0
 10
9.7609646037
 20
10.3019849592
 30
0.0
  0
SPLINE
  5
2E6
100
AcDbEntity
  8
0
100
AcDbSpline
 62
7
  6
CONTINUOUS
 70
0
 71
3
 72
15
 73
11
 74
0
 42
0.0000001
 43
0.0000001
 44
0.0000000001
 40
0.0
 40
0.0
 40
0.0
 40
0.0
 40
0.1250014552
 40
0.2500059307
 40
0.375007471
 40
0.5
 40
0.624992529
 40
0.7499940693
 40
0.8749985448
 40
1.0
 40
1.0
 40
1.0
 40
1.0
 10
8.3519711242
 20
8.8423966294
 30
0.0
 10
8.3714322719
 20
8.8685518605
 30
0.0
 10
8.4125401741
 20
8.9192761366
 30
0.0
 10
8.4802033456
 20
8.9900404416
 30
0.0
 10
8.5534141845
 20
9.0550551265
 30
0.0
 10
8.6316977186
 20
9.1138593012
 30
0.0
 10
8.7145738679
 20
9.1659916957
 30
0.0
 10
8.8014403711
 20
9.2111685349
 30
0.0
 10
8.8916971455
 20
9.2491106795
 30
0.0
 10
8.9537543147
 20
9.2694015532
 30
0.0
 10
8.9851336079
 20
9.2782430655
 30
0.0
  0
SPLINE
  5
2E7
100
AcDbEntity
  8
0
100
AcDbSpline
 62
7
  6
CONTINUOUS
 70
0
 71
3
 72
13
 73
9
 74
0
 42
0.0000001
 43
0.0000001
 44
0.0000000001
 40
0.0
 40
0.0
 40
0.0
 40
0.0
 40
0.1250308484
 40
0.2500627041
 40
0.5
 40
0.749937296
 40
0.8749691516
 40
1.0
 40
1.0
 40
1.0
 40
1.0
 10
7.6976721969
 20
9.2031183936
 30
0.0
 10
7.7199156545
 20
9.2387153669
 30
0.0
 10
7.7666486503
 20
9.3085373784
 30
0.0
 10
7.8685686486
 20
9.4420193065
 30
0.0
 10
8.0112390804
 20
9.5966255835
 30
0.0
 10
8.1721083322
 20
9.7321948897
 30
0.0
 10
8.310041034
 20
9.8280055413
 30
0.0
 10
8.3818951146
 20
9.8715495109
 30
0.0
 10
8.4184568957
 20
9.8921687273
 30
0.0
  0
SPLINE
  5
2E8
100
AcDbEntity
  8
0
100
AcDbSpline
 62
9
  6
CONTINUOUS
 70
0
 71
3
 72
27
 73
23
 74
0
 42
0.0000001
 43
0.0000001
 44
0.0000000001
 40
0.0
 40
0.0
 40
0.0
 40
0.0
 40
0.0045814335
 40
0.0180328052
 40
0.0399158197
 40
0.0697937446
 40
0.1072562742
 40
0.1519920892
 40
0.2037272591
 40
0.2622430062
 40
0.3273532551
 40
0.3989469816
 40
0.4770150925
 40
0.5618710824
 40
0.6540585195
 40
0.7032677375
 40
0.7549331063
 40
0.8094649603
 40
0.8674974528
 40
0.898094452
 40
0.9301205872
 40
1.0
 40
1.0
 40
1.0
 40
1.0
 10
8.9851336079
 20
9.2782430655
 30
0.0
 10
8.9847034333
 20
9.2787202636
 30
0.0
 10
8.9830143088
 20
9.2806021915
 30
0.0
 10
8.9793054765
 20
9.2847947373
 30
0.0
 10
8.9732917903
 20
9.2916843006
 30
0.0
 10
8.9651386802
 20
9.3011754747
 30
0.0
 10
8.95499069
 20
9.3131770518
 30
0.0
 10
8.9429048487
 20
9.3275538006
 30
0.0
 10
8.9289239403
 20
9.3441944519
 30
0.0
 10
8.9130604617
 20
9.3629850916
 30
0.0
 10
8.8953110996
 20
9.3838280051
 30
0.0
 10
8.8755961248
 20
9.406597403
 30
0.0
 10
8.8537897455
 20
9.4312168043
 30
0.0
 10
8.8296227053
 20
9.4575975375
 30
0.0
 10
8.8077035468
 20
9.4805418776
 30
0.0
 10
8.7885960606
 20
9.499723673
 30
0.0
 10
8.7729507232
 20
9.5148965556
 30
0.0
 10
8.7561030252
 20
9.5306011992
 30
0.0
 10
8.7410929969
 20
9.5439366272
 30
0.0
 10
8.7282260225
 20
9.5549250156
 30
0.0
 10
8.7138893654
 20
9.5667465009
 30
0.0
 10
8.7025776101
 20
9.5754891508
 30
0.0
 10
8.6946959111
 20
9.5813121076
 30
0.0
  0
SPLINE
  5
2E9
100
AcDbEntity
  8
0
100
AcDbSpline
 62
9
  6
CONTINUOUS
 70
0
 71
3
 72
26
 73
22
 74
0
 42
0.0000001
 43
0.0000001
 44
0.0000000001
 40
0.0
 40
0.0
 40
0.0
 40
0.0
 40
0.0566376248
 40
0.1105759947
 40
0.1627063031
 40
0.2133454199
 40
0.2626455323
 40
0.310678338
 40
0.4030451715
 40
0.4903528986
 40
0.5722822773
 40
0.6484457903
 40
0.7183511292
 40
0.7814965451
 40
0.8374544775
 40
0.8858113654
 40
0.9261365171
 40
0.9580199469
 40
0.9811500961
 40
0.9952394565
 40
1.0
 40
1.0
 40
1.0
 40
1.0
 10
9.911850447
 20
9.8736970335
 30
0.0
 10
9.9076121539
 20
9.8811661072
 30
0.0
 10
9.8997498168
 20
9.8959853299
 30
0.0
 10
9.8891915106
 20
9.91828747
 30
0.0
 10
9.8796164434
 20
9.9400364486
 30
0.0
 10
9.870811103
 20
9.961348551
 30
0.0
 10
9.8626205877
 20
9.9822377767
 30
0.0
 10
9.8525301903
 20
10.0091743206
 30
0.0
 10
9.8410043213
 20
10.041723207
 30
0.0
 10
9.8284141046
 20
10.0793397761
 30
0.0
 10
9.817085826
 20
10.1147836561
 30
0.0
 10
9.8068691847
 20
10.1478105685
 30
0.0
 10
9.797707436
 20
10.178181475
 30
0.0
 10
9.7895461226
 20
10.2056537117
 30
0.0
 10
9.7823849511
 20
10.2300144695
 30
0.0
 10
9.7762212204
 20
10.2510618231
 30
0.0
 10
9.7710702081
 20
10.268602123
 30
0.0
 10
9.7669387684
 20
10.2824551595
 30
0.0
 10
9.7638998483
 20
10.2924826832
 30
0.0
 10
9.7620308875
 20
10.298567458
 30
0.0
 10
9.7611802846
 20
10.3012961069
 30
0.0
 10
9.7609646037
 20
10.3019849592
 30
0.0
  0
SPLINE
  5
2EA
100
AcDbEntity
  8
0
100
AcDbSpline
 62
9
  6
CONTINUOUS
 70
0
 71
3
 72
26
 73
22
 74
0
 42
0.0000001
 43
0.0000001
 44
0.0000000001
 40
0.0
 40
0.0
 40
0.0
 40
0.0
 40
0.0703610933
 40
0.1025779908
 40
0.1333391411
 40
0.1916347137
 40
0.2463590534
 40
0.2981612211
 40
0.3474628856
 40
0.4397334095
 40
0.5245772902
 40
0.6025710655
 40
0.6740476227
 40
0.7390108717
 40
0.7973573704
 40
0.8489091509
 40
0.8934537729
 40
0.9307227343
 40
0.9821295569
 40
0.9954634631
 40
1.0
 40
1.0
 40
1.0
 40
1.0
 10
8.6946959111
 20
9.5813121076
 30
0.0
 10
8.6868191825
 20
9.5871313926
 30
0.0
 10
8.6755282626
 20
9.5958808554
 30
0.0
 10
8.6612549001
 20
9.6077439389
 30
0.0
 10
8.6484811537
 20
9.6187790583
 30
0.0
 10
8.6336300267
 20
9.6321973905
 30
0.0
 10
8.6170399108
 20
9.6480453876
 30
0.0
 10
8.6017149049
 20
9.6633957802
 30
0.0
 10
8.5831067523
 20
9.6828438572
 30
0.0
 10
8.5619313143
 20
9.7061911251
 30
0.0
 10
8.5388354308
 20
9.7331654901
 30
0.0
 10
8.5182272668
 20
9.758445391
 30
0.0
 10
8.4997922619
 20
9.7819189459
 30
0.0
 10
8.4833648349
 20
9.803487513
 30
0.0
 10
8.4688223486
 20
9.8230035466
 30
0.0
 10
8.4561210074
 20
9.8403461788
 30
0.0
 10
8.4452308571
 20
9.8553785054
 30
0.0
 10
8.4343860267
 20
9.8704186346
 30
0.0
 10
8.4260314055
 20
9.8818987725
 30
0.0
 10
8.4203146167
 20
9.8896636799
 30
0.0
 10
8.418833408
 20
9.8916618468
 30
0.0
 10
8.4184568957
 20
9.8921687273
 30
0.0
  0
SPLINE
  5
2EB
100
AcDbEntity
  8
0
100
AcDbSpline
 62
9
  6
CONTINUOUS
 70
0
 71
3
 72
14
 73
10
 74
0
 42
0.0000001
 43
0.0000001
 44
0.0000000001
 40
0.0
 40
0.0
 40
0.0
 40
0.0
 40
0.017279364
 40
0.0682454911
 40
0.2660097035
 40
0.4099695862
 40
0.5815601567
 40
0.7788674998
 40
1.0
 40
1.0
 40
1.0
 40
1.0
 10
10.204202212
 20
9.427891804
 30
0.0
 10
10.2039653876
 20
9.428765409
 30
0.0
 10
10.2030341274
 20
9.4322168452
 30
0.0
 10
10.1994576961
 20
9.4456843395
 30
0.0
 10
10.1943157822
 20
9.4656016421
 30
0.0
 10
10.1877071499
 20
9.491665502
 30
0.0
 10
10.1811060446
 20
9.5177066195
 30
0.0
 10
10.1734652188
 20
9.5476544895
 30
0.0
 10
10.1679817546
 20
9.5688764775
 30
0.0
 10
10.1650561797
 20
9.5800843964
 30
0.0
  0
SPLINE
  5
2EC
100
AcDbEntity
  8
0
100
AcDbSpline
 62
9
  6
CONTINUOUS
 70
0
 71
3
 72
19
 73
15
 74
0
 42
0.0000001
 43
0.0000001
 44
0.0000000001
 40
0.0
 40
0.0
 40
0.0
 40
0.0
 40
0.10319099
 40
0.2135351937
 40
0.3303792582
 40
0.4531425603
 40
0.5813145873
 40
0.7146386605
 40
0.7832980871
 40
0.8181719905
 40
0.8534320446
 40
0.8891320174
 40
0.9253802235
 40
1.0
 40
1.0
 40
1.0
 40
1.0
 10
10.1650561797
 20
9.5800843964
 30
0.0
 10
10.1623433512
 20
9.5904772803
 30
0.0
 10
10.1566771233
 20
9.6119698301
 30
0.0
 10
10.14770141
 20
9.6451671932
 30
0.0
 10
10.1378799224
 20
9.680245145
 30
0.0
 10
10.1271175676
 20
9.7169844421
 30
0.0
 10
10.1152795837
 20
9.7551919108
 30
0.0
 10
10.1043836216
 20
9.7877895576
 30
0.0
 10
10.0960054101
 20
9.8109782614
 30
0.0
 10
10.0908901664
 20
9.8244895949
 30
0.0
 10
10.086878715
 20
9.8347497055
 30
0.0
 10
10.0826837316
 20
9.8450909927
 30
0.0
 10
10.0767144742
 20
9.8591312947
 30
0.0
 10
10.0718768941
 20
9.8696144224
 30
0.0
 10
10.0684463841
 20
9.8765829327
 30
0.0
  0
SPLINE
  5
2ED
100
AcDbEntity
  8
0
100
AcDbSpline
 62
9
  6
CONTINUOUS
 70
0
 71
3
 72
26
 73
22
 74
0
 42
0.0000001
 43
0.0000001
 44
0.0000000001
 40
0.0
 40
0.0
 40
0.0
 40
0.0
 40
0.0050109235
 40
0.019783329
 40
0.0439269986
 40
0.0770521753
 40
0.1187459666
 40
0.1685009307
 40
0.225789753
 40
0.290101569
 40
0.3609120037
 40
0.4376252678
 40
0.5196544878
 40
0.606513301
 40
0.6977808327
 40
0.7449862972
 40
0.7932536055
 40
0.8426375318
 40
0.8932704039
 40
0.945443237
 40
1.0
 40
1.0
 40
1.0
 40
1.0
 10
10.0680463841
 20
9.427891804
 30
0.0
 10
10.0678108286
 20
9.428646234
 30
0.0
 10
10.0668842284
 20
9.4316258046
 30
0.0
 10
10.0648518786
 20
9.4382494275
 30
0.0
 10
10.0615561949
 20
9.4491237074
 30
0.0
 10
10.0570900722
 20
9.464080058
 30
0.0
 10
10.051542167
 20
9.4829289803
 30
0.0
 10
10.0449349859
 20
9.5054389534
 30
0.0
 10
10.0372993546
 20
9.531364996
 30
0.0
 10
10.0286481843
 20
9.5604538722
 30
0.0
 10
10.0189968512
 20
9.5924414802
 30
0.0
 10
10.0083065778
 20
9.6270338608
 30
0.0
 10
9.9965364235
 20
9.6639407269
 30
0.0
 10
9.9835518779
 20
9.7028665906
 30
0.0
 10
9.9717317861
 20
9.7363868313
 30
0.0
 10
9.9614387054
 20
9.7639842576
 30
0.0
 10
9.9531294448
 20
9.7852683355
 30
0.0
 10
9.9442289663
 20
9.806898477
 30
0.0
 10
9.9345842263
 20
9.8288823075
 30
0.0
 10
9.9239841095
 20
9.8513299724
 30
0.0
 10
9.9160972124
 20
9.8662130261
 30
0.0
 10
9.911850447
 20
9.8736970334
 30
0.0
  0
SPLINE
  5
2EE
100
AcDbEntity
  8
0
100
AcDbSpline
 62
9
  6
CONTINUOUS
 70
0
 71
3
 72
14
 73
10
 74
0
 42
0.0000001
 43
0.0000001
 44
0.0000000001
 40
0.0
 40
0.0
 40
0.0
 40
0.0
 40
0.2497268259
 40
0.3747848088
 40
0.4998639082
 40
0.6249249189
 40
0.7499535468
 40
0.8749635697
 40
1.0
 40
1.0
 40
1.0
 40
1.0
 10
8.0190960901
 20
9.0128832205
 30
0.0
 10
8.0658075332
 20
9.0702105317
 30
0.0
 10
8.139767725
 20
9.1532194418
 30
0.0
 10
8.2456161889
 20
9.256740141
 30
0.0
 10
8.3286415693
 20
9.330636478
 30
0.0
 10
8.4151306256
 20
9.4004303315
 30
0.0
 10
8.5049717035
 20
9.4658263466
 30
0.0
 10
8.5980438709
 20
9.5265212733
 30
0.0
 10
8.6621580717
 20
9.5636436376
 30
0.0
 10
8.6946959195
 20
9.5813121014
 30
0.0
  0
SPLINE
  5
2EF
100
AcDbEntity
  8
0
100
AcDbSpline
 62
9
  6
CONTINUOUS
 70
0
 71
3
 72
26
 73
22
 74
0
 42
0.0000001
 43
0.0000001
 44
0.0000000001
 40
0.0
 40
0.0
 40
0.0
 40
0.0
 40
0.0040979468
 40
0.0160914518
 40
0.0355308491
 40
0.0619676788
 40
0.09502459
 40
0.1346037578
 40
0.1807010615
 40
0.233409974
 40
0.2928997848
 40
0.35954611
 40
0.4339116805
 40
0.5171009954
 40
0.6105881106
 40
0.6619829096
 40
0.7172013234
 40
0.7769812598
 40
0.8424149386
 40
0.9153124741
 40
1.0
 40
1.0
 40
1.0
 40
1.0
 10
8.3519711242
 20
8.8423966294
 30
0.0
 10
8.3515131114
 20
8.8426232791
 30
0.0
 10
8.349716407
 20
8.8435168393
 30
0.0
 10
8.3457623007
 20
8.8455161328
 30
0.0
 10
8.3393424172
 20
8.8488120747
 30
0.0
 10
8.3306191434
 20
8.8533720835
 30
0.0
 10
8.3197132963
 20
8.8591772938
 30
0.0
 10
8.3066758778
 20
8.8661953412
 30
0.0
 10
8.2915064925
 20
8.8744228767
 30
0.0
 10
8.2741699801
 20
8.8838625055
 30
0.0
 10
8.2545889583
 20
8.8945385618
 30
0.0
 10
8.2326166244
 20
8.9064702863
 30
0.0
 10
8.2080031583
 20
8.9197312259
 30
0.0
 10
8.1803524428
 20
8.9344105925
 30
0.0
 10
8.1551260468
 20
8.9475461747
 30
0.0
 10
8.1328997444
 20
8.9588884529
 30
0.0
 10
8.1143527001
 20
8.968192182
 30
0.0
 10
8.0941620464
 20
8.9781224948
 30
0.0
 10
8.0718922057
 20
8.98881841
 30
0.0
 10
8.0466977472
 20
9.0005965937
 30
0.0
 10
8.0287650294
 20
9.00863585
 30
0.0
 10
8.0190960901
 20
9.0128832205
 30
0.0
  0
SPLINE
  5
2F0
100
AcDbEntity
  8
0
100
AcDbSpline
 62
9
  6
CONTINUOUS
 70
0
 71
3
 72
15
 73
11
 74
0
 42
0.0000001
 43
0.0000001
 44
0.0000000001
 40
0.0
 40
0.0
 40
0.0
 40
0.0
 40
0.1235155609
 40
0.2475507219
 40
0.3721710817
 40
0.4973417679
 40
0.622940128
 40
0.7487676366
 40
0.8745606682
 40
1.0
 40
1.0
 40
1.0
 40
1.0
 10
8.8272299152
 20
9.6470701164
 30
0.0
 10
8.8690715176
 20
9.6659399608
 30
0.0
 10
8.9542289847
 20
9.7009399832
 30
0.0
 10
9.085238081
 20
9.7454988109
 30
0.0
 10
9.2191583889
 20
9.7826881909
 30
0.0
 10
9.3553883384
 20
9.8129755537
 30
0.0
 10
9.4933365714
 20
9.8368300726
 30
0.0
 10
9.6324099657
 20
9.8547174678
 30
0.0
 10
9.7720132515
 20
9.8671019
 30
0.0
 10
9.8652662846
 20
9.8720099086
 30
0.0
 10
9.9118504275
 20
9.8736970678
 30
0.0
  0
SPLINE
  5
2F1
100
AcDbEntity
  8
0
100
AcDbSpline
 62
9
  6
CONTINUOUS
 70
0
 71
3
 72
25
 73
21
 74
0
 42
0.0000001
 43
0.0000001
 44
0.0000000001
 40
0.0
 40
0.0
 40
0.0
 40
0.0
 40
0.0846147064
 40
0.1221840532
 40
0.1574223295
 40
0.2227548651
 40
0.282430207
 40
0.3375464605
 40
0.3888462864
 40
0.4821757807
 40
0.565265818
 40
0.6395985811
 40
0.7062740854
 40
0.7658456145
 40
0.8186732597
 40
0.8649110487
 40
0.9046347568
 40
0.9378215992
 40
0.9838619537
 40
1.0
 40
1.0
 40
1.0
 40
1.0
 10
8.0190960901
 20
9.0128832205
 30
0.0
 10
8.0094291992
 20
9.0171296912
 30
0.0
 10
7.9955268069
 20
9.023392472
 30
0.0
 10
7.9777475715
 20
9.0317459321
 30
0.0
 10
7.962215437
 20
9.0392219993
 30
0.0
 10
7.9442978078
 20
9.0481007841
 30
0.0
 10
7.9243147918
 20
9.0583917806
 30
0.0
 10
7.9060258356
 20
9.0681428801
 30
0.0
 10
7.8841928649
 20
9.0801677999
 30
0.0
 10
7.8595526283
 20
9.0943260527
 30
0.0
 10
7.8327666509
 20
9.1105028741
 30
0.0
 10
7.8091228504
 20
9.1254368723
 30
0.0
 10
7.7881859355
 20
9.1391534065
 30
0.0
 10
7.7696754229
 20
9.1516717664
 30
0.0
 10
7.7534080087
 20
9.1629516356
 30
0.0
 10
7.7392750113
 20
9.1729614818
 30
0.0
 10
7.7272063034
 20
9.1816446262
 30
0.0
 10
7.715200724
 20
9.1903728763
 30
0.0
 10
7.7055769052
 20
9.197372228
 30
0.0
 10
7.6993011422
 20
9.2019344435
 30
0.0
 10
7.6976721969
 20
9.2031183936
 30
0.0
  0
SPLINE
  5
2F2
100
AcDbEntity
  8
0
100
AcDbSpline
 62
9
  6
CONTINUOUS
 70
0
 71
3
 72
28
 73
24
 74
0
 42
0.0000001
 43
0.0000001
 44
0.0000000001
 40
0.0
 40
0.0
 40
0.0
 40
0.0
 40
0.00481401
 40
0.0189256834
 40
0.0418403142
 40
0.0730643845
 40
0.1121225869
 40
0.1586072489
 40
0.2121386105
 40
0.2723846008
 40
0.339038486
 40
0.4118460099
 40
0.4906392732
 40
0.5755319394
 40
0.6668406363
 40
0.7151711566
 40
0.7655912352
 40
0.8184422543
 40
0.8742641902
 40
0.9035206196
 40
0.9340020864
 40
0.9660466431
 40
1.0
 40
1.0
 40
1.0
 40
1.0
 10
9.1109853727
 20
9.3114989831
 30
0.0
 10
9.1105504712
 20
9.3120563643
 30
0.0
 10
9.1088447269
 20
9.3142507583
 30
0.0
 10
9.1051033365
 20
9.3191249984
 30
0.0
 10
9.0990453092
 20
9.3271101809
 30
0.0
 10
9.0908468181
 20
9.3380697613
 30
0.0
 10
9.0806665737
 20
9.351869078
 30
0.0
 10
9.0685741987
 20
9.3683286083
 30
0.0
 10
9.0546304166
 20
9.3872890457
 30
0.0
 10
9.0388665047
 20
9.4085875623
 30
0.0
 10
9.021301832
 20
9.4320749174
 30
0.0
 10
9.0018793401
 20
9.4575729449
 30
0.0
 10
8.9805044558
 20
9.4849486789
 30
0.0
 10
8.9569407761
 20
9.514056374
 30
0.0
 10
8.9356291932
 20
9.5392234528
 30
0.0
 10
8.9171213864
 20
9.5601180676
 30
0.0
 10
8.9020539625
 20
9.5765105801
 30
0.0
 10
8.8858805108
 20
9.5933744649
 30
0.0
 10
8.8714854292
 20
9.607629175
 30
0.0
 10
8.859173974
 20
9.6193106897
 30
0.0
 10
8.8492222439
 20
9.6284030694
 30
0.0
 10
8.8385526714
 20
9.6377275659
 30
0.0
 10
8.8311015221
 20
9.6439278528
 30
0.0
 10
8.8272299152
 20
9.6470701164
 30
0.0
  0
SPLINE
  5
2F3
100
AcDbEntity
  8
0
100
AcDbSpline
 62
9
  6
CONTINUOUS
 70
0
 71
3
 72
25
 73
21
 74
0
 42
0.0000001
 43
0.0000001
 44
0.0000000001
 40
0.0
 40
0.0
 40
0.0
 40
0.0
 40
0.0867943762
 40
0.1252376515
 40
0.1612387865
 40
0.2278391692
 40
0.2884903072
 40
0.3443400869
 40
0.3961676087
 40
0.4900527153
 40
0.5731692629
 40
0.6471234734
 40
0.7131268627
 40
0.7718229368
 40
0.8236545254
 40
0.8688471158
 40
0.9075442999
 40
0.9397869749
 40
0.9844035978
 40
1.0
 40
1.0
 40
1.0
 40
1.0
 10
7.9802565222
 20
8.9639909904
 30
0.0
 10
7.9704700789
 20
8.9681473952
 30
0.0
 10
7.956397725
 20
8.97426107
 30
0.0
 10
7.9383943762
 20
8.9823871508
 30
0.0
 10
7.9227054299
 20
8.9896260487
 30
0.0
 10
7.9046319096
 20
8.9981892343
 30
0.0
 10
7.8844957934
 20
9.0080728044
 30
0.0
 10
7.8661020137
 20
9.0173949033
 30
0.0
 10
7.8442153299
 20
9.0288266181
 30
0.0
 10
7.8195821928
 20
9.0422106824
 30
0.0
 10
7.7928655378
 20
9.0574240014
 30
0.0
 10
7.7693723659
 20
9.0713851367
 30
0.0
 10
7.7486471899
 20
9.0841415727
 30
0.0
 10
7.7303888728
 20
9.0957311451
 30
0.0
 10
7.7143978189
 20
9.1061328654
 30
0.0
 10
7.7005481956
 20
9.1153320028
 30
0.0
 10
7.6887548011
 20
9.1232888399
 30
0.0
 10
7.6770588124
 20
9.1312634574
 30
0.0
 10
7.6677029858
 20
9.1376468261
 30
0.0
 10
7.6616098572
 20
9.1418040554
 30
0.0
 10
7.6600315865
 20
9.142880825
 30
0.0
  0
SPLINE
  5
2F4
100
AcDbEntity
  8
0
100
AcDbSpline
 62
9
  6
CONTINUOUS
 70
0
 71
3
 72
27
 73
23
 74
0
 42
0.0000001
 43
0.0000001
 44
0.0000000001
 40
0.0
 40
0.0
 40
0.0
 40
0.0
 40
0.0360278315
 40
0.0699331582
 40
0.102087183
 40
0.1328528472
 40
0.1912788178
 40
0.2462438157
 40
0.298349013
 40
0.3479836737
 40
0.4409152228
 40
0.5263261026
 40
0.6047423818
 40
0.6764660425
 40
0.74149657
 40
0.7997379744
 40
0.8510389673
 40
0.8952200642
 40
0.9320506542
 40
0.9825620515
 40
0.9955841338
 40
1.0
 40
1.0
 40
1.0
 40
1.0
 10
8.8272299152
 20
9.6470701164
 30
0.0
 10
8.8233635133
 20
9.6502081555
 30
0.0
 10
8.8159337248
 20
9.6563928289
 30
0.0
 10
8.8053151845
 20
9.6656866099
 30
0.0
 10
8.7954478122
 20
9.6747287414
 30
0.0
 10
8.7833079051
 20
9.6863019712
 30
0.0
 10
8.7692000631
 20
9.7003762548
 30
0.0
 10
8.7534641956
 20
9.7169810227
 30
0.0
 10
8.7389411553
 20
9.7330518794
 30
0.0
 10
8.7213247502
 20
9.7533916655
 30
0.0
 10
8.7013243263
 20
9.7777477891
 30
0.0
 10
8.6795720418
 20
9.8057921972
 30
0.0
 10
8.6602240837
 20
9.8319789147
 30
0.0
 10
8.6429704842
 20
9.856203704
 30
0.0
 10
8.6276465414
 20
9.8783754607
 30
0.0
 10
8.6141233221
 20
9.8983586304
 30
0.0
 10
8.6023497361
 20
9.9160453526
 30
0.0
 10
8.5922854912
 20
9.93131457
 30
0.0
 10
8.5823053897
 20
9.9465084683
 30
0.0
 10
8.5746275863
 20
9.9580620286
 30
0.0
 10
8.5693766258
 20
9.9658486066
 30
0.0
 10
8.5680209677
 20
9.9678413951
 30
0.0
 10
8.567677056
 20
9.9683456178
 30
0.0
  0
SPLINE
  5
2F5
100
AcDbEntity
  8
0
100
AcDbSpline
 62
9
  6
CONTINUOUS
 70
0
 71
3
 72
25
 73
21
 74
0
 42
0.0000001
 43
0.0000001
 44
0.0000000001
 40
0.0
 40
0.0
 40
0.0
 40
0.0
 40
0.0041734889
 40
0.0163698214
 40
0.0361034152
 40
0.062889585
 40
0.0963158391
 40
0.1362547676
 40
0.182674452
 40
0.2356416529
 40
0.2953003927
 40
0.3620055572
 40
0.4363015972
 40
0.5192799236
 40
0.6124047891
 40
0.7185068988
 40
0.7779823367
 40
0.8430859826
 40
0.915639534
 40
1.0
 40
1.0
 40
1.0
 40
1.0
 10
8.3200706073
 20
8.7973848897
 30
0.0
 10
8.3195954796
 20
8.7976120361
 30
0.0
 10
8.3177333853
 20
8.7985061319
 30
0.0
 10
8.3136377126
 20
8.8005011797
 30
0.0
 10
8.3069940173
 20
8.8037808575
 30
0.0
 10
8.2979765193
 20
8.808303423
 30
0.0
 10
8.2867166964
 20
8.8140415734
 30
0.0
 10
8.2732767385
 20
8.8209576704
 30
0.0
 10
8.2576653522
 20
8.8290428246
 30
0.0
 10
8.239856008
 20
8.8382947353
 30
0.0
 10
8.2197783302
 20
8.848732767
 30
0.0
 10
8.1972927183
 20
8.8603737652
 30
0.0
 10
8.1721529948
 20
8.8732883457
 30
0.0
 10
8.143965725
 20
8.887565466
 30
0.0
 10
8.1120807806
 20
8.9034227464
 30
0.0
 10
8.0826991251
 20
8.9176505823
 30
0.0
 10
8.056368691
 20
8.9300613525
 30
0.0
 10
8.0337788577
 20
8.9404770946
 30
0.0
 10
8.0082274395
 20
8.9519667973
 30
0.0
 10
7.990054476
 20
8.9598296968
 30
0.0
 10
7.9802565222
 20
8.9639909904
 30
0.0
  0
SPLINE
  5
2F6
100
AcDbEntity
  8
0
100
AcDbSpline
 62
9
  6
CONTINUOUS
 70
0
 71
3
 72
26
 73
22
 74
0
 42
0.0000001
 43
0.0000001
 44
0.0000000001
 40
0.0
 40
0.0
 40
0.0
 40
0.0
 40
0.0547671669
 40
0.107369979
 40
0.1585092813
 40
0.2084186499
 40
0.2571977709
 40
0.3048809861
 40
0.3969480939
 40
0.4843583721
 40
0.5666820176
 40
0.6434377821
 40
0.7140598335
 40
0.7779818099
 40
0.8347254999
 40
0.8838310569
 40
0.924824785
 40
0.9572588482
 40
0.9808015382
 40
0.9951497542
 40
1.0
 40
1.0
 40
1.0
 40
1.0
 10
10.0684463841
 20
9.8765829327
 30
0.0
 10
10.06472263
 20
9.8841471197
 30
0.0
 10
10.0578247148
 20
9.8991771442
 30
0.0
 10
10.0486013543
 20
9.9217725551
 30
0.0
 10
10.0402213729
 20
9.9438942281
 30
0.0
 10
10.0325072054
 20
9.9656325592
 30
0.0
 10
10.0253243027
 20
9.9869910119
 30
0.0
 10
10.0164553719
 20
10.0146264719
 30
0.0
 10
10.0063162357
 20
10.048096801
 30
0.0
 10
9.9952345663
 20
10.0868472893
 30
0.0
 10
9.9852463619
 20
10.1234554964
 30
0.0
 10
9.9762229337
 20
10.1576463327
 30
0.0
 10
9.9681188521
 20
10.1891491645
 30
0.0
 10
9.9608890207
 20
10.2176955382
 30
0.0
 10
9.9545369384
 20
10.2430471811
 30
0.0
 10
9.9490631724
 20
10.2649800802
 30
0.0
 10
9.9444841638
 20
10.2832791917
 30
0.0
 10
9.9408078317
 20
10.2977475172
 30
0.0
 10
9.9381015614
 20
10.3082299515
 30
0.0
 10
9.9364361654
 20
10.3145954744
 30
0.0
 10
9.9356778079
 20
10.3174520164
 30
0.0
 10
9.9354854406
 20
10.318173479
 30
0.0
  0
SPLINE
  5
2F7
100
AcDbEntity
  8
0
100
AcDbSpline
 62
9
  6
CONTINUOUS
 70
0
 71
3
 72
25
 73
21
 74
0
 42
0.0000001
 43
0.0000001
 44
0.0000000001
 40
0.0
 40
0.0
 40
0.0
 40
0.0
 40
0.0048950747
 40
0.0193861661
 40
0.0431823352
 40
0.075993002
 40
0.1174920226
 40
0.1672094881
 40
0.2246416994
 40
0.2892945933
 40
0.3606489968
 40
0.4380754
 40
0.5209320599
 40
0.6086356386
 40
0.7006310854
 40
0.796451518
 40
0.8457268277
 40
0.8959395673
 40
0.9472144278
 40
1.0
 40
1.0
 40
1.0
 40
1.0
 10
10.4192033878
 20
9.427891804
 30
0.0
 10
10.4190471695
 20
9.4286282906
 30
0.0
 10
10.4184314796
 20
9.4315456583
 30
0.0
 10
10.4170822988
 20
9.4380487172
 30
0.0
 10
10.4148938232
 20
9.4487624919
 30
0.0
 10
10.4119275061
 20
9.4635569458
 30
0.0
 10
10.4082421876
 20
9.4822731895
 30
0.0
 10
10.4038486975
 20
9.504709507
 30
0.0
 10
10.3987659512
 20
9.5306396046
 30
0.0
 10
10.3930005685
 20
9.559827001
 30
0.0
 10
10.3865624015
 20
9.5920160179
 30
0.0
 10
10.3794220191
 20
9.6269195506
 30
0.0
 10
10.3715517145
 20
9.664239859
 30
0.0
 10
10.3628579445
 20
9.7036752397
 30
0.0
 10
10.3532427186
 20
9.7449465528
 30
0.0
 10
10.3443531658
 20
9.7803148391
 30
0.0
 10
10.3364550317
 20
9.809297879
 30
0.0
 10
10.3299750721
 20
9.831562997
 30
0.0
 10
10.3228677991
 20
9.8542036556
 30
0.0
 10
10.317526081
 20
9.8692968918
 30
0.0
 10
10.3146361524
 20
9.8768836333
 30
0.0
  0
SPLINE
  5
2F8
100
AcDbEntity
  8
0
100
AcDbSpline
 62
9
  6
CONTINUOUS
 70
0
 71
3
 72
25
 73
21
 74
0
 42
0.0000001
 43
0.0000001
 44
0.0000000001
 40
0.0
 40
0.0
 40
0.0
 40
0.0
 40
0.0526140319
 40
0.103738779
 40
0.1538213663
 40
0.2029856163
 40
0.2986376845
 40
0.3905304612
 40
0.4781892944
 40
0.5610511094
 40
0.6385240046
 40
0.7099577368
 40
0.7747140623
 40
0.8322648481
 40
0.8821069441
 40
0.9237275893
 40
0.9566478182
 40
0.9805327499
 40
0.9950832645
 40
1.0
 40
1.0
 40
1.0
 40
1.0
 10
10.3146361524
 20
9.8768836333
 30
0.0
 10
10.3117458028
 20
9.8844714799
 30
0.0
 10
10.3064069601
 20
9.8995710879
 30
0.0
 10
10.2993163911
 20
9.9222287362
 30
0.0
 10
10.2928632378
 20
9.9445210828
 30
0.0
 10
10.2850116764
 20
9.973557376
 30
0.0
 10
10.2762017511
 20
10.0090131214
 30
0.0
 10
10.2667134543
 20
10.0504120733
 30
0.0
 10
10.2581695074
 20
10.0899985834
 30
0.0
 10
10.2504662137
 20
10.1274875362
 30
0.0
 10
10.2435041523
 20
10.1625714673
 30
0.0
 10
10.237249919
 20
10.1949466919
 30
0.0
 10
10.231668504
 20
10.2243203508
 30
0.0
 10
10.2267638554
 20
10.2504307614
 30
0.0
 10
10.2225367351
 20
10.2730355416
 30
0.0
 10
10.2190003144
 20
10.2919024757
 30
0.0
 10
10.2161598707
 20
10.3068241974
 30
0.0
 10
10.2140684837
 20
10.3176358068
 30
0.0
 10
10.2127813346
 20
10.3242011941
 30
0.0
 10
10.2121950764
 20
10.3271477362
 30
0.0
 10
10.2120463841
 20
10.327891804
 30
0.0
  0
ENDSEC
  0
SECTION
  2
OBJECTS
  0
DICTIONARY
  5
C
100
AcDbDictionary
280
0
281
1
  3
ACAD_GROUP
350
D
  3
ACAD_MLINESTYLE
350
17
  3
ACAD_LAYOUT
350
1A
  3
ACAD_PLOTSETTINGS
350
19
  3
ACAD_PLOTSTYLENAME
350
E
  0
DICTIONARY
  5
D
102
{ACAD_REACTORS
330
C
102
}
100
AcDbDictionary
280
0
281
1
  0
ACDBDICTIONARYWDFLT
  5
E
102
{ACAD_REACTORS
330
C
102
}
100
AcDbDictionary
281
1
  3
Normal
350
F
100
AcDbDictionaryWithDefault
340
F
  0
DICTIONARY
  5
17
102
{ACAD_REACTORS
330
C
102
}
100
AcDbDictionary
280
0
281
1
  3
Standard
350
18
  0
DICTIONARY
  5
19
102
{ACAD_REACTORS
330
C
102
}
100
AcDbDictionary
281
1
  0
DICTIONARY
  5
1A
102
{ACAD_REACTORS
330
C
102
}
100
AcDbDictionary
281
1
  3
Model
350
2F9
  3
Layout1
350
2FA
  0
ACDBPLACEHOLDER
  5
F
102
{ACAD_REACTORS
330
E
102
}
  0
MLINESTYLE
  5
18
102
{ACAD_REACTORS
330
17
102
}
100
AcDbMlineStyle
  2
STANDARD
 70
0
  3

 62
256
 51
90.0
 52
90.0
 71
2
 49
0.5
 62
256
  6
BYLAYER
 49
-0.5
 62
256
  6
BYLAYER
  0
LAYOUT
  5
2F9
102
{ACAD_REACTORS
330
1A
102
}
100
AcDbPlotSettings
  1

  2
none_device
  4
ANSI_C_(22.00_x_17.00_Inches)
  6

 40
0.0
 41
0.0
 42
0.0
 43
0.0
 44
558.8
 45
431.8
 46
0.0
 47
0.0
 48
0.0
 49
0.0
140
0.0
141
0.0
142
1.0
143
1.0
 70
1024
 72
0
 73
0
 74
0
  7

 75
0
147
1.0
148
0.0
149
0.0
100
AcDbLayout
  1
Model
 70
0
 71
0
 10
0.0
 20
0.0
 11
22.0
 21
17.0
 12
0.0
 22
0.0
 32
0.0
 14
0.0
 24
0.0
 34
0.0
 15
0.0
 25
0.0
 35
0.0
146
0.0
 13
0.0
 23
0.0
 33
0.0
 16
1.0
 26
0.0
 36
0.0
 17
0.0
 27
1.0
 37
0.0
 76
0
330
202
345
0
346
0
  0
LAYOUT
  5
2FA
102
{ACAD_REACTORS
330
1A
102
}
100
AcDbPlotSettings
  1

  2
none_device
  4
ANSI_C_(22.00_x_17.00_Inches)
  6

 40
0.0
 41
0.0
 42
0.0
 43
0.0
 44
558.8
 45
431.8
 46
0.0
 47
0.0
 48
0.0
 49
0.0
140
0.0
141
0.0
142
1.0
143
1.0
 70
0
 72
0
 73
0
 74
0
  7

 75
0
147
1.0
148
0.0
149
0.0
100
AcDbLayout
  1
Layout1
 70
0
 71
1
 10
0.0
 20
0.0
 11
22.0
 21
17.0
 12
0.0
 22
0.0
 32
0.0
 14
0.0
 24
0.0
 34
0.0
 15
0.0
 25
0.0
 35
0.0
146
0.0
 13
0.0
 23
0.0
 33
0.0
 16
1.0
 26
0.0
 36
0.0
 17
0.0
 27
1.0
 37
0.0
 76
0
330
203
345
0
346
0
  0
ENDSEC
  0
EOF
