999
DXF file: E:\BT Custom\CADOUTPUT\_RIGHT.dxf
999
Pro/ENGINEER 2018400 by Parametric Technology Corporation
  0
SECTION
  2
HEADER
  9
$ACADVER
  1
AC1018
  9
$DWGCODEPAGE
  3
ANSI_1252
  9
$EXTMAX
 10
22.0
 20
17.0
 30
0.0
  9
$EXTMIN
 10
0.0
 20
0.0
 30
0.0
  9
$LIMMIN
 10
0.0
 20
0.0
  9
$LIMMAX
 10
22.0
 20
17.0
  9
$VIEWCTR
 10
11.0
 20
8.5
  9
$VIEWSIZE
 40
17.0
  9
$CLAYER
  8
0
  9
$LTSCALE
 40
1.21
  9
$CELTYPE
  6
BYLAYER
  9
$DIMSCALE
 40
1.0
  9
$DIMASZ
 40
0.1
  9
$DIMEXO
 40
0.0625
  9
$DIMDLI
 40
0.836
  9
$DIMEXE
 40
0.125
  9
$DIMCEN
 40
0.198
  9
$DIMLFAC
 40
1.0
  9
$DIMBLK
  1
_FILLED
  9
$DIMALT
 70
1
  9
$DIMALTD
 70
2
  9
$DIMALTTD
 70
2
  9
$DIMALTF
 40
25.4
  9
$DIMTXT
 40
0.08
  9
$DIMTOL
 70
1
  9
$DIMLIM
 70
0
  9
$DIMTFAC
 40
1.0
  9
$DIMTP
 40
0.001
  9
$DIMTM
 40
0.001
  9
$DIMGAP
 40
0.09
  9
$DIMDSEP
 70
46
  9
$AUNITS
 70
0
  9
$PDMODE
 70
3
  9
$PDSIZE
 40
0.06
  9
$HANDSEED
  5
2EC
  9
$TILEMODE
 70
1
  9
$MEASUREMENT
 70
0
  9
$INSUNITS
 70
1
  0
ENDSEC
  0
SECTION
  2
CLASSES
  0
CLASS
  1
ACDBDICTIONARYWDFLT
  2
AcDbDictionaryWithDefault
  3
AutoCAD 2000
 90
0
 91
1
280
0
281
0
  0
CLASS
  1
ACDBPLACEHOLDER
  2
AcDbPlaceHolder
  3
AutoCAD 2000
 90
0
 91
1
280
0
281
0
  0
CLASS
  1
LAYOUT
  2
AcDbLayout
  3
AutoCAD 2000
 90
0
 91
0
280
0
281
0
  0
ENDSEC
  0
SECTION
  2
TABLES
  0
TABLE
  2
VPORT
  5
8
100
AcDbSymbolTable
 70
2
  0
VPORT
  5
1F4
100
AcDbSymbolTableRecord
100
AcDbViewportTableRecord
  2
*ACTIVE
 70
0
 10
0.0
 20
0.0
 11
1.0
 21
1.0
 12
11.0
 22
8.5
 13
0.0
 23
0.0
 14
1.0
 24
1.0
 15
0.0
 25
0.0
 16
0.0
 26
0.0
 36
1.0
 17
0.0
 27
0.0
 37
0.0
 40
17.0
 41
1.2941176471
 42
50.0
 43
0.0
 44
0.0
 50
0.0
 51
0.0
 71
0
 72
100
 73
1
 74
1
 75
0
 76
0
 77
0
 78
0
  0
ENDTAB
  0
TABLE
  2
LTYPE
  5
5
100
AcDbSymbolTable
 70
6
  0
LTYPE
  5
14
100
AcDbSymbolTableRecord
100
AcDbLinetypeTableRecord
  2
BYBLOCK
 70
0
  3

 72
65
 73
0
 40
0.0
  0
LTYPE
  5
15
100
AcDbSymbolTableRecord
100
AcDbLinetypeTableRecord
  2
BYLAYER
 70
0
  3

 72
65
 73
0
 40
0.0
  0
LTYPE
  5
16
100
AcDbSymbolTableRecord
100
AcDbLinetypeTableRecord
  2
CONTINUOUS
 70
64
  3
Solid line
 72
65
 73
0
 40
0.0
  0
LTYPE
  5
1F5
100
AcDbSymbolTableRecord
100
AcDbLinetypeTableRecord
  2
CENTER
 70
64
  3
____ _ ____ _ ____ _ ____ _ ____ _ ____ _ ____
 72
65
 73
4
 40
0.6
 49
0.375
 74
0
 49
-0.075
 74
0
 49
0.075
 74
0
 49
-0.075
 74
0
  0
LTYPE
  5
1F6
100
AcDbSymbolTableRecord
100
AcDbLinetypeTableRecord
  2
HIDDEN
 70
64
  3
- - - - - - - - - - - - - - - - - - - -
 72
65
 73
2
 40
0.2
 49
0.1
 74
0
 49
-0.1
 74
0
  0
LTYPE
  5
1F7
100
AcDbSymbolTableRecord
100
AcDbLinetypeTableRecord
  2
PHANTOM
 70
64
  3
_____ _ _ _____ _ _ _____ _ _ _____
 72
65
 73
6
 40
0.8
 49
0.45
 74
0
 49
-0.05
 74
0
 49
0.1
 74
0
 49
-0.05
 74
0
 49
0.1
 74
0
 49
-0.05
 74
0
  0
LTYPE
  5
1F8
100
AcDbSymbolTableRecord
100
AcDbLinetypeTableRecord
  2
DOT
 70
64
  3
. . . . . . . . . . . . . . . . . . . .
 72
65
 73
2
 40
0.2
 49
0.1
 74
0
 49
-0.1
 74
0
  0
LTYPE
  5
1F9
100
AcDbSymbolTableRecord
100
AcDbLinetypeTableRecord
  2
DASHED
 70
64
  3
- - - - - - - - - - - - - - - - - - - -
 72
65
 73
2
 40
0.2
 49
0.1
 74
0
 49
-0.1
 74
0
  0
ENDTAB
  0
TABLE
  2
LAYER
  5
2
100
AcDbSymbolTable
 70
36
  0
LAYER
  5
10
100
AcDbSymbolTableRecord
100
AcDbLayerTableRecord
  2
0
 70
0
 62
7
  6
CONTINUOUS
370
-3
390
F
  0
LAYER
  5
1FA
100
AcDbSymbolTableRecord
100
AcDbLayerTableRecord
  2
DEFAULT_1
 70
0
 62
7
  6
CENTER
370
-3
390
F
  0
LAYER
  5
1FB
100
AcDbSymbolTableRecord
100
AcDbLayerTableRecord
  2
DEFAULT_2
 70
0
 62
8
  6
HIDDEN
370
-3
390
F
  0
LAYER
  5
1FC
100
AcDbSymbolTableRecord
100
AcDbLayerTableRecord
  2
DEFAULT_3
 70
0
 62
7
  6
PHANTOM
370
-3
390
F
  0
LAYER
  5
1FD
100
AcDbSymbolTableRecord
100
AcDbLayerTableRecord
  2
ALL_FEATURES
 70
0
 62
7
  6
CONTINUOUS
370
-3
390
F
  0
LAYER
  5
1FE
100
AcDbSymbolTableRecord
100
AcDbLayerTableRecord
  2
AXES_FEATURES
 70
0
 62
7
  6
CONTINUOUS
370
-3
390
F
  0
LAYER
  5
1FF
100
AcDbSymbolTableRecord
100
AcDbLayerTableRecord
  2
DIMENSIONS
 70
0
 62
7
  6
CONTINUOUS
370
-3
390
F
  0
ENDTAB
  0
TABLE
  2
STYLE
  5
3
100
AcDbSymbolTable
 70
1
  0
STYLE
  5
11
100
AcDbSymbolTableRecord
100
AcDbTextStyleTableRecord
  2
STANDARD
 70
0
 40
0.0
 41
0.8
 50
0.0
 71
0
 42
0.2
  3
txt
  4

  0
STYLE
  5
200
100
AcDbSymbolTableRecord
100
AcDbTextStyleTableRecord
  2
TEXTSTYLE_1
 70
0
 40
0.0
 41
0.8
 50
0.0
 71
0
 42
0.2
  3
gdt
  4

  0
ENDTAB
  0
TABLE
  2
VIEW
  5
6
100
AcDbSymbolTable
 70
0
  0
ENDTAB
  0
TABLE
  2
UCS
  5
7
100
AcDbSymbolTable
 70
0
  0
ENDTAB
  0
TABLE
  2
APPID
  5
9
100
AcDbSymbolTable
 70
1
  0
APPID
  5
201
100
AcDbSymbolTableRecord
100
AcDbRegAppTableRecord
  2
ACAD
 70
0
  0
ENDTAB
  0
TABLE
  2
BLOCK_RECORD
  5
1
100
AcDbSymbolTable
 70
0
  0
BLOCK_RECORD
  5
202
100
AcDbSymbolTableRecord
100
AcDbBlockTableRecord
  2
*Model_Space
  0
BLOCK_RECORD
  5
203
100
AcDbSymbolTableRecord
100
AcDbBlockTableRecord
  2
*Paper_Space
  0
BLOCK_RECORD
  5
204
100
AcDbSymbolTableRecord
100
AcDbBlockTableRecord
  2
_FILLED
  0
ENDTAB
  0
TABLE
  2
DIMSTYLE
  5
A
100
AcDbSymbolTable
 70
1
100
AcDbDimStyleTable
 71
0
  0
DIMSTYLE
105
205
100
AcDbSymbolTableRecord
100
AcDbDimStyleTableRecord
  2
STANDARD
 70
0
  3

  4

 40
1.0
 41
0.1
 42
0.0625
 43
0.38
 44
0.125
 45
0.0
 46
0.0
 47
0.001
 48
0.001
140
0.08
141
0.09
142
0.0
143
25.4
144
1.0
145
0.0
146
1.0
147
0.09
 71
1.0
 72
0.0
 73
1
 74
1
 75
0
 76
0
 77
0
 78
4
 79
1
170
1
171
2
172
0
173
0
174
0
175
0
176
0
177
0
178
0
270
2
179
3
271
3
272
3
273
2
274
2
275
0
280
0
281
0
282
0
283
1
284
4
285
0
286
0
287
3
288
0
340
11
278
46
341
204
342
204
343
204
344
204
  0
ENDTAB
  0
ENDSEC
  0
SECTION
  2
BLOCKS
  0
BLOCK
  5
20
100
AcDbEntity
  8
0
100
AcDbBlockBegin
  2
*Model_Space
 70
0
 10
0.0
 20
0.0
 30
0.0
  3
*Model_Space
  1

  0
ENDBLK
  5
21
100
AcDbEntity
  8
0
100
AcDbBlockEnd
  0
BLOCK
  5
1C
100
AcDbEntity
  8
0
100
AcDbBlockBegin
  2
*Paper_Space
 70
0
 10
0.0
 20
0.0
 30
0.0
  3
*Paper_Space
  1

  0
ENDBLK
  5
1D
100
AcDbEntity
  8
0
100
AcDbBlockEnd
  0
BLOCK
  5
206
100
AcDbEntity
  8
0
100
AcDbBlockBegin
  2
_FILLED
 70
64
 10
0.0
 20
0.0
  3
_FILLED
  1

  0
SOLID
  5
207
100
AcDbEntity
  8
0
  6
BYBLOCK
 62
0
100
AcDbTrace
 10
0.0
 20
0.0
 11
-1.0
 21
0.2
 12
-1.0
 22
-0.2
 13
-1.0
 23
-0.2
  0
ENDBLK
  5
208
100
AcDbEntity
  8
0
  6
BYBLOCK
 62
0
100
AcDbBlockEnd
  0
ENDSEC
  0
SECTION
  2
ENTITIES
  0
LINE
  5
209
100
AcDbEntity
  8
0
100
AcDbLine
 62
7
  6
CONTINUOUS
 10
7.3135621031
 20
9.7087572703
 11
7.6465306879
 21
10.2416183936
  0
LINE
  5
20A
100
AcDbEntity
  8
0
100
AcDbLine
 62
7
  6
CONTINUOUS
 10
11.7064048751
 20
5.566391804
 11
14.1064048751
 21
5.566391804
  0
LINE
  5
20B
100
AcDbEntity
  8
0
100
AcDbLine
 62
9
  6
CONTINUOUS
 10
14.0064048751
 20
5.6758908236
 11
11.8064048751
 21
5.6758908236
  0
LINE
  5
20C
100
AcDbEntity
  8
0
100
AcDbLine
 62
9
  6
CONTINUOUS
 10
14.1064048751
 20
5.6845412361
 11
14.0054575945
 21
5.6845412361
  0
LINE
  5
20D
100
AcDbEntity
  8
0
100
AcDbLine
 62
9
  6
CONTINUOUS
 10
11.8073521557
 20
5.6845412361
 11
11.7064048751
 21
5.6845412361
  0
LINE
  5
20E
100
AcDbEntity
  8
0
100
AcDbLine
 62
9
  6
CONTINUOUS
 10
11.7601066693
 20
5.8041267322
 11
11.8799337114
 21
5.8041267322
  0
LINE
  5
20F
100
AcDbEntity
  8
0
100
AcDbLine
 62
9
  6
CONTINUOUS
 10
13.9328760388
 20
5.8041267322
 11
14.0526892774
 21
5.8041267322
  0
LINE
  5
210
100
AcDbEntity
  8
0
100
AcDbLine
 62
9
  6
CONTINUOUS
 10
13.9256814223
 20
5.8089350251
 11
11.887128328
 21
5.8089350251
  0
LINE
  5
211
100
AcDbEntity
  8
0
100
AcDbLine
 62
7
  6
CONTINUOUS
 10
7.6517202251
 20
9.5906038059
 11
7.6541534298
 21
9.5980924399
  0
LINE
  5
212
100
AcDbEntity
  8
0
100
AcDbLine
 62
9
  6
CONTINUOUS
 10
7.7417344282
 20
9.5696356485
 11
7.7393012235
 21
9.5621470145
  0
LINE
  5
213
100
AcDbEntity
  8
0
100
AcDbLine
 62
9
  6
CONTINUOUS
 10
7.7654459169
 20
9.5536520887
 11
7.7678791216
 21
9.5611407227
  0
LINE
  5
214
100
AcDbEntity
  8
0
100
AcDbLine
 62
7
  6
CONTINUOUS
 10
7.8553945943
 20
9.5327052218
 11
7.8529613897
 21
9.5252165879
  0
LINE
  5
215
100
AcDbEntity
  8
0
100
AcDbLine
 62
9
  6
CONTINUOUS
 10
13.9299022519
 20
5.9132830247
 11
13.7949841221
 21
5.9132830247
  0
LINE
  5
216
100
AcDbEntity
  8
0
100
AcDbLine
 62
9
  6
CONTINUOUS
 10
12.0178256281
 20
5.9132830247
 11
11.8829215126
 21
5.9132830247
  0
LINE
  5
217
100
AcDbEntity
  8
0
100
AcDbLine
 62
9
  6
CONTINUOUS
 10
13.7419793603
 20
5.9862503491
 11
12.07083039
 21
5.9862503491
  0
LINE
  5
218
100
AcDbEntity
  8
0
100
AcDbLine
 62
9
  6
CONTINUOUS
 10
11.9335716243
 20
5.989378148
 11
12.0734189391
 21
5.989378148
  0
LINE
  5
219
100
AcDbEntity
  8
0
100
AcDbLine
 62
9
  6
CONTINUOUS
 10
13.7393908112
 20
5.989378148
 11
13.879238126
 21
5.989378148
  0
LINE
  5
21A
100
AcDbEntity
  8
0
100
AcDbLine
 62
7
  6
CONTINUOUS
 10
13.7245779503
 20
5.996391804
 11
12.0882318
 21
5.996391804
  0
LINE
  5
21B
100
AcDbEntity
  8
0
100
AcDbLine
 62
7
  6
CONTINUOUS
 10
13.841404874
 20
6.016391804
 11
13.6514048751
 21
6.016391804
  0
LINE
  5
21C
100
AcDbEntity
  8
0
100
AcDbLine
 62
7
  6
CONTINUOUS
 10
12.1614048751
 20
6.016391804
 11
11.9714048762
 21
6.016391804
  0
LINE
  5
21D
100
AcDbEntity
  8
0
100
AcDbLine
 62
7
  6
CONTINUOUS
 10
13.6514048751
 20
6.206391804
 11
12.1614048751
 21
6.206391804
  0
LINE
  5
21E
100
AcDbEntity
  8
0
100
AcDbLine
 62
9
  6
CONTINUOUS
 10
13.7914048751
 20
6.233391804
 11
13.6164048751
 21
6.233391804
  0
LINE
  5
21F
100
AcDbEntity
  8
0
100
AcDbLine
 62
9
  6
CONTINUOUS
 10
12.1964048751
 20
6.233391804
 11
12.0214048751
 21
6.233391804
  0
LINE
  5
220
100
AcDbEntity
  8
0
100
AcDbLine
 62
7
  6
CONTINUOUS
 10
13.6164048751
 20
6.276391804
 11
12.1964048751
 21
6.276391804
  0
LINE
  5
221
100
AcDbEntity
  8
0
100
AcDbLine
 62
7
  6
CONTINUOUS
 10
13.7314048751
 20
6.293391804
 11
13.587497871
 21
6.293391804
  0
LINE
  5
222
100
AcDbEntity
  8
0
100
AcDbLine
 62
7
  6
CONTINUOUS
 10
12.2253118792
 20
6.293391804
 11
12.0814048751
 21
6.293391804
  0
LINE
  5
223
100
AcDbEntity
  8
0
100
AcDbLine
 62
9
  6
CONTINUOUS
 10
13.7314048751
 20
6.328712974
 11
13.5301356939
 21
6.328712974
  0
LINE
  5
224
100
AcDbEntity
  8
0
100
AcDbLine
 62
9
  6
CONTINUOUS
 10
12.2826740563
 20
6.328712974
 11
12.0814048751
 21
6.328712974
  0
LINE
  5
225
100
AcDbEntity
  8
0
100
AcDbLine
 62
9
  6
CONTINUOUS
 10
13.7085073327
 20
6.4310189971
 11
13.4211117349
 21
6.4310189971
  0
LINE
  5
226
100
AcDbEntity
  8
0
100
AcDbLine
 62
9
  6
CONTINUOUS
 10
12.3916980153
 20
6.4310189971
 11
12.1043024176
 21
6.4310189971
  0
LINE
  5
227
100
AcDbEntity
  8
0
100
AcDbLine
 62
7
  6
CONTINUOUS
 10
8.0268544904
 20
9.4769945245
 11
8.2689290983
 21
9.8358848897
  0
LINE
  5
228
100
AcDbEntity
  8
0
100
AcDbLine
 62
9
  6
CONTINUOUS
 10
13.315986929
 20
6.6107054365
 11
12.4968228212
 21
6.6107054365
  0
LINE
  5
229
100
AcDbEntity
  8
0
100
AcDbLine
 62
9
  6
CONTINUOUS
 10
13.2936697025
 20
7.1752311232
 11
12.5191400477
 21
7.1752311232
  0
LINE
  5
22A
100
AcDbEntity
  8
0
100
AcDbLine
 62
9
  6
CONTINUOUS
 10
13.4116613507
 20
7.4568974003
 11
12.4011483995
 21
7.4568974003
  0
LINE
  5
22B
100
AcDbEntity
  8
0
100
AcDbLine
 62
9
  6
CONTINUOUS
 10
13.4811704332
 20
7.5591390546
 11
12.3316393171
 21
7.5591390546
  0
LINE
  5
22C
100
AcDbEntity
  8
0
100
AcDbLine
 62
7
  6
CONTINUOUS
 10
13.4341360518
 20
7.656391804
 11
12.3786736985
 21
7.656391804
  0
LINE
  5
22D
100
AcDbEntity
  8
0
100
AcDbLine
 62
9
  6
CONTINUOUS
 10
13.3564048751
 20
7.726391804
 11
12.4564048751
 21
7.726391804
  0
LINE
  5
22E
100
AcDbEntity
  8
0
100
AcDbLine
 62
7
  6
CONTINUOUS
 10
13.3464048702
 20
7.736391804
 11
12.4664048801
 21
7.736391804
  0
LINE
  5
22F
100
AcDbEntity
  8
0
100
AcDbLine
 62
9
  6
CONTINUOUS
 10
13.2364048751
 20
7.806391804
 11
12.5764048751
 21
7.806391804
  0
LINE
  5
230
100
AcDbEntity
  8
0
100
AcDbLine
 62
7
  6
CONTINUOUS
 10
13.2264048742
 20
7.816391804
 11
12.5864048761
 21
7.816391804
  0
LINE
  5
231
100
AcDbEntity
  8
0
100
AcDbLine
 62
7
  6
CONTINUOUS
 10
7.6517202251
 20
9.5906038059
 11
7.8529613897
 21
9.5252165879
  0
LINE
  5
232
100
AcDbEntity
  8
0
100
AcDbLine
 62
7
  6
CONTINUOUS
 10
7.3135621031
 20
9.7087572703
 11
8.0268544904
 21
9.4769945245
  0
LINE
  5
233
100
AcDbEntity
  8
0
100
AcDbLine
 62
7
  6
CONTINUOUS
 10
12.2914048751
 20
10.313391804
 11
12.151114574
 21
10.2113624941
  0
LINE
  5
234
100
AcDbEntity
  8
0
100
AcDbLine
 62
9
  6
CONTINUOUS
 10
12.4109345426
 20
8.7987845669
 11
12.6254812724
 21
8.7987845669
  0
LINE
  5
235
100
AcDbEntity
  8
0
100
AcDbLine
 62
9
  6
CONTINUOUS
 10
13.1877679561
 20
8.7987845669
 11
13.4018752076
 21
8.7987845669
  0
LINE
  5
236
100
AcDbEntity
  8
0
100
AcDbLine
 62
9
  6
CONTINUOUS
 10
12.6805984233
 20
8.8397427961
 11
12.695813206
 21
8.8397427961
  0
LINE
  5
237
100
AcDbEntity
  8
0
100
AcDbLine
 62
9
  6
CONTINUOUS
 10
13.1175784325
 20
8.8397427961
 11
13.1322113269
 21
8.8397427961
  0
LINE
  5
238
100
AcDbEntity
  8
0
100
AcDbLine
 62
7
  6
CONTINUOUS
 10
13.9299022519
 20
5.9132830247
 11
14.052703081
 21
5.8041267322
  0
LINE
  5
239
100
AcDbEntity
  8
0
100
AcDbLine
 62
7
  6
CONTINUOUS
 10
11.0339048751
 20
11.4288917984
 11
11.0339048751
 21
10.4038918097
  0
LINE
  5
23A
100
AcDbEntity
  8
0
100
AcDbLine
 62
9
  6
CONTINUOUS
 10
11.0514048751
 20
11.446391804
 11
11.0514048751
 21
10.386391804
  0
LINE
  5
23B
100
AcDbEntity
  8
0
100
AcDbLine
 62
9
  6
CONTINUOUS
 10
11.0921014762
 20
10.386391804
 11
11.0921014762
 21
11.446391804
  0
LINE
  5
23C
100
AcDbEntity
  8
0
100
AcDbLine
 62
9
  6
CONTINUOUS
 10
11.14427639
 20
10.3630584772
 11
11.14427639
 21
11.4697251309
  0
LINE
  5
23D
100
AcDbEntity
  8
0
100
AcDbLine
 62
9
  6
CONTINUOUS
 10
11.2641344538
 20
10.3637382396
 11
11.2641344538
 21
11.4690453685
  0
LINE
  5
23E
100
AcDbEntity
  8
0
100
AcDbLine
 62
9
  6
CONTINUOUS
 10
11.3217112886
 20
10.4146428973
 11
11.3217112886
 21
11.4181407108
  0
LINE
  5
23F
100
AcDbEntity
  8
0
100
AcDbLine
 62
7
  6
CONTINUOUS
 10
11.7064048751
 20
5.6845412361
 11
11.7064048751
 21
5.566391804
  0
LINE
  5
240
100
AcDbEntity
  8
0
100
AcDbLine
 62
9
  6
CONTINUOUS
 10
13.6034811766
 20
9.9614417848
 11
12.2093285736
 21
9.9614417848
  0
LINE
  5
241
100
AcDbEntity
  8
0
100
AcDbLine
 62
9
  6
CONTINUOUS
 10
13.6356088333
 20
10.0011203492
 11
12.177200917
 21
10.0011203492
  0
LINE
  5
242
100
AcDbEntity
  8
0
100
AcDbLine
 62
7
  6
CONTINUOUS
 10
11.8064048751
 20
5.6758908236
 11
11.8064048751
 21
5.566391804
  0
LINE
  5
243
100
AcDbEntity
  8
0
100
AcDbLine
 62
9
  6
CONTINUOUS
 10
11.8958750526
 20
10.5171458233
 11
11.8958750526
 21
11.3156377847
  0
LINE
  5
244
100
AcDbEntity
  8
0
100
AcDbLine
 62
7
  6
CONTINUOUS
 10
12.0214048751
 20
6.233391804
 11
12.0214048751
 21
6.016391804
  0
LINE
  5
245
100
AcDbEntity
  8
0
100
AcDbLine
 62
9
  6
CONTINUOUS
 10
12.0383219265
 20
10.3841570574
 11
12.0383219265
 21
11.4486010395
  0
LINE
  5
246
100
AcDbEntity
  8
0
100
AcDbLine
 62
9
  6
CONTINUOUS
 10
12.1264048751
 20
10.0821330058
 11
13.6864048751
 21
10.0821330058
  0
LINE
  5
247
100
AcDbEntity
  8
0
100
AcDbLine
 62
9
  6
CONTINUOUS
 10
13.6864048751
 20
10.1628383291
 11
12.1264048751
 21
10.1628383291
  0
LINE
  5
248
100
AcDbEntity
  8
0
100
AcDbLine
 62
9
  6
CONTINUOUS
 10
12.151114574
 20
10.2113624941
 11
13.6616951763
 21
10.2113624941
  0
LINE
  5
249
100
AcDbEntity
  8
0
100
AcDbLine
 62
7
  6
CONTINUOUS
 10
13.5214048751
 20
10.313391804
 11
12.2914048751
 21
10.313391804
  0
LINE
  5
24A
100
AcDbEntity
  8
0
100
AcDbLine
 62
9
  6
CONTINUOUS
 10
12.0764048751
 20
11.476391804
 11
12.0764048751
 21
10.356391804
  0
LINE
  5
24B
100
AcDbEntity
  8
0
100
AcDbLine
 62
7
  6
CONTINUOUS
 10
12.0814048751
 20
6.328712974
 11
12.0814048751
 21
6.293391804
  0
LINE
  5
24C
100
AcDbEntity
  8
0
100
AcDbLine
 62
7
  6
CONTINUOUS
 10
12.1264048751
 20
10.1628383291
 11
12.1264048751
 21
10.0821330058
  0
LINE
  5
24D
100
AcDbEntity
  8
0
100
AcDbLine
 62
7
  6
CONTINUOUS
 10
12.1614048751
 20
6.206391804
 11
12.1614048751
 21
5.996391804
  0
LINE
  5
24E
100
AcDbEntity
  8
0
100
AcDbLine
 62
7
  6
CONTINUOUS
 10
12.1964048751
 20
6.276391804
 11
12.1964048751
 21
6.206391804
  0
LINE
  5
24F
100
AcDbEntity
  8
0
100
AcDbLine
 62
9
  6
CONTINUOUS
 10
12.2064048751
 20
10.356391804
 11
12.2064048751
 21
11.476391804
  0
LINE
  5
250
100
AcDbEntity
  8
0
100
AcDbLine
 62
7
  6
CONTINUOUS
 10
12.2464048751
 20
10.3628917966
 11
12.2464048751
 21
11.4658984954
  0
LINE
  5
251
100
AcDbEntity
  8
0
100
AcDbLine
 62
7
  6
CONTINUOUS
 10
12.0764048751
 20
10.356391804
 11
12.2064048751
 21
10.356391804
  0
LINE
  5
252
100
AcDbEntity
  8
0
100
AcDbLine
 62
7
  6
CONTINUOUS
 10
11.0514048751
 20
10.386391804
 11
11.0921014762
 21
10.386391804
  0
LINE
  5
253
100
AcDbEntity
  8
0
100
AcDbLine
 62
7
  6
CONTINUOUS
 10
10.0169048751
 20
10.466391804
 11
11.0339048751
 21
10.4663898626
  0
LINE
  5
254
100
AcDbEntity
  8
0
100
AcDbLine
 62
7
  6
CONTINUOUS
 10
12.4014048751
 20
12.343391804
 11
12.4014048751
 21
12.263391804
  0
LINE
  5
255
100
AcDbEntity
  8
0
100
AcDbLine
 62
7
  6
CONTINUOUS
 10
12.4464048751
 20
11.853391804
 11
12.4464048751
 21
11.743391804
  0
LINE
  5
256
100
AcDbEntity
  8
0
100
AcDbLine
 62
7
  6
CONTINUOUS
 10
12.4564048751
 20
7.726391804
 11
12.4564048751
 21
7.656391804
  0
LINE
  5
257
100
AcDbEntity
  8
0
100
AcDbLine
 62
7
  6
CONTINUOUS
 10
12.5764048751
 20
7.806391804
 11
12.5764048751
 21
7.736391804
  0
LINE
  5
258
100
AcDbEntity
  8
0
100
AcDbLine
 62
7
  6
CONTINUOUS
 10
12.6479048751
 20
7.9798840305
 11
12.6479048751
 21
7.816391804
  0
LINE
  5
259
100
AcDbEntity
  8
0
100
AcDbLine
 62
7
  6
CONTINUOUS
 10
12.6814048751
 20
12.003391804
 11
12.6814048751
 21
11.893391804
  0
LINE
  5
25A
100
AcDbEntity
  8
0
100
AcDbLine
 62
9
  6
CONTINUOUS
 10
10.0173048751
 20
10.9150829327
 11
11.0339048751
 21
10.916324627
  0
LINE
  5
25B
100
AcDbEntity
  8
0
100
AcDbLine
 62
7
  6
CONTINUOUS
 10
13.1314048751
 20
12.003391804
 11
13.1314048751
 21
11.893391804
  0
LINE
  5
25C
100
AcDbEntity
  8
0
100
AcDbLine
 62
7
  6
CONTINUOUS
 10
13.1649048751
 20
7.9795214243
 11
13.1649048751
 21
7.816391804
  0
LINE
  5
25D
100
AcDbEntity
  8
0
100
AcDbLine
 62
7
  6
CONTINUOUS
 10
13.2364048751
 20
7.806391804
 11
13.2364048751
 21
7.736391804
  0
LINE
  5
25E
100
AcDbEntity
  8
0
100
AcDbLine
 62
7
  6
CONTINUOUS
 10
10.1609048751
 20
11.366391804
 11
11.0339048751
 21
11.3663937924
  0
LINE
  5
25F
100
AcDbEntity
  8
0
100
AcDbLine
 62
7
  6
CONTINUOUS
 10
11.0514048751
 20
11.446391804
 11
11.0921014762
 21
11.446391804
  0
LINE
  5
260
100
AcDbEntity
  8
0
100
AcDbLine
 62
7
  6
CONTINUOUS
 10
12.0764048751
 20
11.476391804
 11
12.2064048751
 21
11.476391804
  0
LINE
  5
261
100
AcDbEntity
  8
0
100
AcDbLine
 62
7
  6
CONTINUOUS
 10
13.3564048751
 20
7.726391804
 11
13.3564048751
 21
7.656391804
  0
LINE
  5
262
100
AcDbEntity
  8
0
100
AcDbLine
 62
7
  6
CONTINUOUS
 10
13.3664048751
 20
11.853391804
 11
13.3664048751
 21
11.743391804
  0
LINE
  5
263
100
AcDbEntity
  8
0
100
AcDbLine
 62
7
  6
CONTINUOUS
 10
13.4114048751
 20
12.343391804
 11
13.4114048751
 21
12.263391804
  0
LINE
  5
264
100
AcDbEntity
  8
0
100
AcDbLine
 62
7
  6
CONTINUOUS
 10
13.6164048751
 20
6.276391804
 11
13.6164048751
 21
6.206391804
  0
LINE
  5
265
100
AcDbEntity
  8
0
100
AcDbLine
 62
7
  6
CONTINUOUS
 10
13.6514048751
 20
6.206391804
 11
13.6514048751
 21
5.996391804
  0
LINE
  5
266
100
AcDbEntity
  8
0
100
AcDbLine
 62
9
  6
CONTINUOUS
 10
12.4888249672
 20
11.6663523609
 11
13.3239847831
 21
11.6663523609
  0
LINE
  5
267
100
AcDbEntity
  8
0
100
AcDbLine
 62
9
  6
CONTINUOUS
 10
12.4815441628
 20
11.703688234
 11
13.3312471255
 21
11.703688234
  0
LINE
  5
268
100
AcDbEntity
  8
0
100
AcDbLine
 62
9
  6
CONTINUOUS
 10
12.4464048751
 20
11.743391804
 11
13.3664048751
 21
11.743391804
  0
LINE
  5
269
100
AcDbEntity
  8
0
100
AcDbLine
 62
9
  6
CONTINUOUS
 10
13.3664048751
 20
11.853391804
 11
12.4464048751
 21
11.853391804
  0
LINE
  5
26A
100
AcDbEntity
  8
0
100
AcDbLine
 62
7
  6
CONTINUOUS
 10
13.3264048704
 20
11.893391804
 11
12.4864048798
 21
11.893391804
  0
LINE
  5
26B
100
AcDbEntity
  8
0
100
AcDbLine
 62
7
  6
CONTINUOUS
 10
13.5214048751
 20
10.313391804
 11
13.6616951763
 21
10.2113624941
  0
LINE
  5
26C
100
AcDbEntity
  8
0
100
AcDbLine
 62
7
  6
CONTINUOUS
 10
13.6864048751
 20
10.1628383291
 11
13.6864048751
 21
10.0821330058
  0
LINE
  5
26D
100
AcDbEntity
  8
0
100
AcDbLine
 62
7
  6
CONTINUOUS
 10
13.7314048751
 20
6.328712974
 11
13.7314048751
 21
6.293391804
  0
LINE
  5
26E
100
AcDbEntity
  8
0
100
AcDbLine
 62
7
  6
CONTINUOUS
 10
13.7914048751
 20
6.233391804
 11
13.7914048751
 21
6.016391804
  0
LINE
  5
26F
100
AcDbEntity
  8
0
100
AcDbLine
 62
7
  6
CONTINUOUS
 10
11.8829074983
 20
5.9132830247
 11
11.7601066693
 21
5.8041267322
  0
LINE
  5
270
100
AcDbEntity
  8
0
100
AcDbLine
 62
7
  6
CONTINUOUS
 10
13.1314048751
 20
12.003391804
 11
12.6814048751
 21
12.003391804
  0
LINE
  5
271
100
AcDbEntity
  8
0
100
AcDbLine
 62
7
  6
CONTINUOUS
 10
12.4214048753
 20
12.243391804
 11
13.3913994021
 21
12.243391804
  0
LINE
  5
272
100
AcDbEntity
  8
0
100
AcDbLine
 62
9
  6
CONTINUOUS
 10
12.4014048751
 20
12.263391804
 11
13.4114048751
 21
12.263391804
  0
LINE
  5
273
100
AcDbEntity
  8
0
100
AcDbLine
 62
7
  6
CONTINUOUS
 10
14.0064048751
 20
5.6758908236
 11
14.0064048751
 21
5.566391804
  0
LINE
  5
274
100
AcDbEntity
  8
0
100
AcDbLine
 62
7
  6
CONTINUOUS
 10
14.1064048751
 20
5.6845412361
 11
14.1064048751
 21
5.566391804
  0
LINE
  5
275
100
AcDbEntity
  8
0
100
AcDbLine
 62
9
  6
CONTINUOUS
 10
13.4114048751
 20
12.343391804
 11
12.4014048751
 21
12.343391804
  0
LINE
  5
276
100
AcDbEntity
  8
0
100
AcDbLine
 62
7
  6
CONTINUOUS
 10
13.3914048747
 20
12.363391804
 11
12.4214048756
 21
12.363391804
  0
ARC
  5
277
100
AcDbEntity
  8
0
100
AcDbCircle
 62
7
  6
CONTINUOUS
 10
3.955308826
 20
7.9313782375
 40
8.5
100
AcDbArc
 50
5.8571043435
 51
13.8175556419
  0
ARC
  5
278
100
AcDbEntity
  8
0
100
AcDbCircle
 62
7
  6
CONTINUOUS
 10
6.243301667
 20
8.1660881855
 40
6.2
100
AcDbArc
 50
3.2776038822
 51
5.8571043435
  0
ARC
  5
279
100
AcDbEntity
  8
0
100
AcDbCircle
 62
7
  6
CONTINUOUS
 10
6.243301667
 20
8.1660881855
 40
6.2
100
AcDbArc
 50
355.2837621273
 51
0.6459645508
  0
ARC
  5
27A
100
AcDbEntity
  8
0
100
AcDbCircle
 62
9
  6
CONTINUOUS
 10
10.0208501916
 20
6.4725702815
 40
4.4425140312
100
AcDbArc
 50
90.0457242712
 51
92.0658136751
  0
ARC
  5
27B
100
AcDbEntity
  8
0
100
AcDbCircle
 62
7
  6
CONTINUOUS
 10
10.0174937586
 20
6.4685496033
 40
3.9978449197
100
AcDbArc
 50
90.008439687
 51
103.8594922323
  0
ARC
  5
27C
100
AcDbEntity
  8
0
100
AcDbCircle
 62
7
  6
CONTINUOUS
 10
10.016972643
 20
6.4731353471
 40
3.9932652244
100
AcDbArc
 50
103.8679939566
 51
105.7357908941
  0
ARC
  5
27D
100
AcDbEntity
  8
0
100
AcDbCircle
 62
7
  6
CONTINUOUS
 10
10.1609155451
 20
7.4260881626
 40
3.9403036415
100
AcDbArc
 50
90.000155151
 51
94.0249250513
  0
ARC
  5
27E
100
AcDbEntity
  8
0
100
AcDbCircle
 62
7
  6
CONTINUOUS
 10
10.1609161293
 20
7.4262704778
 40
3.940121817
100
AcDbArc
 50
94.0251196126
 51
96.5740413991
  0
ARC
  5
27F
100
AcDbEntity
  8
0
100
AcDbCircle
 62
7
  6
CONTINUOUS
 10
9.028684256
 20
7.8803543358
 40
3.4
100
AcDbArc
 50
334.7686002164
 51
352.8431352443
  0
ARC
  5
280
100
AcDbEntity
  8
0
100
AcDbCircle
 62
9
  6
CONTINUOUS
 10
9.9455903619
 20
8.4412802018
 40
2.5502028085
100
AcDbArc
 50
142.2519524929
 51
153.155514946
  0
ARC
  5
281
100
AcDbEntity
  8
0
100
AcDbCircle
 62
9
  6
CONTINUOUS
 10
9.9232559317
 20
8.4582355189
 40
2.5221663236
100
AcDbArc
 50
140.8274128776
 51
142.2459297839
  0
ARC
  5
282
100
AcDbEntity
  8
0
100
AcDbCircle
 62
9
  6
CONTINUOUS
 10
9.6005559479
 20
8.8574330204
 40
2.0054505743
100
AcDbArc
 50
114.2747943515
 51
118.5027060096
  0
ARC
  5
283
100
AcDbEntity
  8
0
100
AcDbCircle
 62
7
  6
CONTINUOUS
 10
11.3623303447
 20
6.8561836174
 40
1.2
100
AcDbArc
 50
15.418828384
 51
30.0393607241
  0
ARC
  5
284
100
AcDbEntity
  8
0
100
AcDbCircle
 62
7
  6
CONTINUOUS
 10
11.6226125279
 20
6.9279693062
 40
0.93
100
AcDbArc
 50
340.053415241
 51
15.4188283841
  0
ARC
  5
285
100
AcDbEntity
  8
0
100
AcDbCircle
 62
7
  6
CONTINUOUS
 10
11.665318944
 20
7.031391804
 40
0.85
100
AcDbArc
 50
30.0393607241
 51
38.3803608088
  0
ARC
  5
286
100
AcDbEntity
  8
0
100
AcDbCircle
 62
7
  6
CONTINUOUS
 10
11.9328161804
 20
6.815391804
 40
0.6
100
AcDbArc
 50
296.0601511633
 51
340.0534152411
  0
ARC
  5
287
100
AcDbEntity
  8
0
100
AcDbCircle
 62
7
  6
CONTINUOUS
 10
11.6792986557
 20
6.2080676187
 40
0.45
100
AcDbArc
 50
297.506143265
 51
330.466835469
  0
ARC
  5
288
100
AcDbEntity
  8
0
100
AcDbCircle
 62
7
  6
CONTINUOUS
 10
12.3214048751
 20
6.3287129712
 40
0.24
100
AcDbArc
 50
154.7685996985
 51
180.0
  0
ARC
  5
289
100
AcDbEntity
  8
0
100
AcDbCircle
 62
7
  6
CONTINUOUS
 10
11.7633219932
 20
6.0478166895
 40
0.18
100
AcDbArc
 50
311.6335453427
 51
341.0551095424
  0
ARC
  5
28A
100
AcDbEntity
  8
0
100
AcDbCircle
 62
7
  6
CONTINUOUS
 10
11.8664048751
 20
5.6845412338
 40
0.16
100
AcDbArc
 50
131.6335353375
 51
180.0
  0
ARC
  5
28B
100
AcDbEntity
  8
0
100
AcDbCircle
 62
7
  6
CONTINUOUS
 10
11.9564048751
 20
5.6758908218
 40
0.15
100
AcDbArc
 50
117.5061388495
 51
180.0
  0
ARC
  5
28C
100
AcDbEntity
  8
0
100
AcDbCircle
 62
7
  6
CONTINUOUS
 10
12.7064048751
 20
8.7640194374
 40
0.08
100
AcDbArc
 50
108.8190635135
 51
143.6546263136
  0
ARC
  5
28D
100
AcDbEntity
  8
0
100
AcDbCircle
 62
7
  6
CONTINUOUS
 10
12.0814048751
 20
6.233391804
 40
0.06
100
AcDbArc
 50
90.0
 51
180.0
  0
ARC
  5
28E
100
AcDbEntity
  8
0
100
AcDbCircle
 62
7
  6
CONTINUOUS
 10
12.3786736945
 20
7.596391804
 40
0.06
100
AcDbArc
 50
89.9999961752
 51
218.3803636402
  0
ARC
  5
28F
100
AcDbEntity
  8
0
100
AcDbCircle
 62
7
  6
CONTINUOUS
 10
11.9714048751
 20
5.976391804
 40
0.04
100
AcDbArc
 50
89.9999983887
 51
161.0551073477
  0
ARC
  5
290
100
AcDbEntity
  8
0
100
AcDbCircle
 62
7
  6
CONTINUOUS
 10
12.0882318005
 20
5.976391804
 40
0.02
100
AcDbArc
 50
90.0000015034
 51
150.4668362206
  0
ARC
  5
291
100
AcDbEntity
  8
0
100
AcDbCircle
 62
7
  6
CONTINUOUS
 10
12.4664048751
 20
7.726391804
 40
0.01
100
AcDbArc
 50
89.9999715131
 51
180.0
  0
ARC
  5
292
100
AcDbEntity
  8
0
100
AcDbCircle
 62
7
  6
CONTINUOUS
 10
12.5864048751
 20
7.806391804
 40
0.01
100
AcDbArc
 50
89.9999944337
 51
180.0
  0
ARC
  5
293
100
AcDbEntity
  8
0
100
AcDbCircle
 62
7
  6
CONTINUOUS
 10
9.3596866228
 20
9.170987982
 40
2.0202170665
100
AcDbArc
 50
114.6678153975
 51
119.4208070128
  0
ARC
  5
294
100
AcDbEntity
  8
0
100
AcDbCircle
 62
7
  6
CONTINUOUS
 10
9.2574563127
 20
9.1691104101
 40
1.1923817594
100
AcDbArc
 50
143.3485953028
 51
145.9998225552
  0
ARC
  5
295
100
AcDbEntity
  8
0
100
AcDbCircle
 62
7
  6
CONTINUOUS
 10
11.7239102515
 20
12.0117104154
 40
0.717
100
AcDbArc
 50
235.8786890595
 51
283.8770578133
  0
ARC
  5
296
100
AcDbEntity
  8
0
100
AcDbCircle
 62
7
  6
CONTINUOUS
 10
11.7239102515
 20
9.8210731927
 40
0.717
100
AcDbArc
 50
76.1229421867
 51
124.1213109405
  0
ARC
  5
297
100
AcDbEntity
  8
0
100
AcDbCircle
 62
7
  6
CONTINUOUS
 10
12.8315452914
 20
12.5230880904
 40
0.6
100
AcDbArc
 50
299.9845180961
 51
332.2146479711
  0
ARC
  5
298
100
AcDbEntity
  8
0
100
AcDbCircle
 62
7
  6
CONTINUOUS
 10
11.4899953735
 20
10.1662873724
 40
0.3
100
AcDbArc
 50
124.1213109481
 51
138.8395782175
  0
ARC
  5
299
100
AcDbEntity
  8
0
100
AcDbCircle
 62
7
  6
CONTINUOUS
 10
11.4899953735
 20
11.6664962357
 40
0.3
100
AcDbArc
 50
221.1604217825
 51
235.8786890519
  0
ARC
  5
29A
100
AcDbEntity
  8
0
100
AcDbCircle
 62
7
  6
CONTINUOUS
 10
11.8479071902
 20
10.3229833033
 40
0.2
100
AcDbArc
 50
17.8104388498
 51
76.1229433697
  0
ARC
  5
29B
100
AcDbEntity
  8
0
100
AcDbCircle
 62
7
  6
CONTINUOUS
 10
11.8479071902
 20
11.5098003048
 40
0.2
100
AcDbArc
 50
283.8770566303
 51
342.1895611502
  0
ARC
  5
29C
100
AcDbEntity
  8
0
100
AcDbCircle
 62
7
  6
CONTINUOUS
 10
12.2164048751
 20
10.0821330005
 40
0.09
100
AcDbArc
 50
180.0
 51
244.1765506493
  0
ARC
  5
29D
100
AcDbEntity
  8
0
100
AcDbCircle
 62
7
  6
CONTINUOUS
 10
11.2039048751
 20
11.416391804
 40
0.08
100
AcDbArc
 50
41.1604216964
 51
138.1896913017
  0
ARC
  5
29E
100
AcDbEntity
  8
0
100
AcDbCircle
 62
7
  6
CONTINUOUS
 10
11.2039048751
 20
10.416391804
 40
0.08
100
AcDbArc
 50
221.8103086983
 51
318.8395783036
  0
ARC
  5
29F
100
AcDbEntity
  8
0
100
AcDbCircle
 62
7
  6
CONTINUOUS
 10
11.0921014762
 20
11.516391804
 40
0.07
100
AcDbArc
 50
270.0
 51
318.1896780214
  0
ARC
  5
2A0
100
AcDbEntity
  8
0
100
AcDbCircle
 62
7
  6
CONTINUOUS
 10
11.0921014762
 20
10.316391804
 40
0.07
100
AcDbArc
 50
41.8103219786
 51
90.0
  0
ARC
  5
2A1
100
AcDbEntity
  8
0
100
AcDbCircle
 62
7
  6
CONTINUOUS
 10
12.151064902
 20
9.9471119358
 40
0.06
100
AcDbArc
 50
13.8175445415
 51
64.1765051726
  0
ARC
  5
2A2
100
AcDbEntity
  8
0
100
AcDbCircle
 62
7
  6
CONTINUOUS
 10
12.1864048751
 20
10.1628383285
 40
0.06
100
AcDbArc
 50
126.0273725379
 51
180.0
  0
ARC
  5
2A3
100
AcDbEntity
  8
0
100
AcDbCircle
 62
7
  6
CONTINUOUS
 10
12.2064048751
 20
10.396391804
 40
0.04
100
AcDbArc
 50
270.0
 51
0.0000004101
  0
ARC
  5
2A4
100
AcDbEntity
  8
0
100
AcDbCircle
 62
7
  6
CONTINUOUS
 10
12.2064048751
 20
11.436391804
 40
0.04
100
AcDbArc
 50
359.9999995899
 51
90.0
  0
ARC
  5
2A5
100
AcDbEntity
  8
0
100
AcDbCircle
 62
7
  6
CONTINUOUS
 10
12.0764048751
 20
11.436391804
 40
0.04
100
AcDbArc
 50
90.0
 51
162.1895675047
  0
ARC
  5
2A6
100
AcDbEntity
  8
0
100
AcDbCircle
 62
7
  6
CONTINUOUS
 10
12.0764048751
 20
10.396391804
 40
0.04
100
AcDbArc
 50
197.8104324953
 51
270.0
  0
ARC
  5
2A7
100
AcDbEntity
  8
0
100
AcDbCircle
 62
7
  6
CONTINUOUS
 10
12.4864048751
 20
11.853391804
 40
0.04
100
AcDbArc
 50
89.9999932563
 51
180.0
  0
ARC
  5
2A8
100
AcDbEntity
  8
0
100
AcDbCircle
 62
7
  6
CONTINUOUS
 10
12.4864048751
 20
11.743391804
 40
0.04
100
AcDbArc
 50
180.0
 51
263.0202923014
  0
ARC
  5
2A9
100
AcDbEntity
  8
0
100
AcDbCircle
 62
7
  6
CONTINUOUS
 10
12.4214048751
 20
12.263391804
 40
0.02
100
AcDbArc
 50
180.0
 51
270.0000004884
  0
ARC
  5
2AA
100
AcDbEntity
  8
0
100
AcDbCircle
 62
7
  6
CONTINUOUS
 10
12.4214048751
 20
12.343391804
 40
0.02
100
AcDbArc
 50
89.9999986524
 51
180.0
  0
ARC
  5
2AB
100
AcDbEntity
  8
0
100
AcDbCircle
 62
7
  6
CONTINUOUS
 10
12.4791138056
 20
11.6838364491
 40
0.02
100
AcDbArc
 50
299.0490427187
 51
83.0202892404
  0
ARC
  5
2AC
100
AcDbEntity
  8
0
100
AcDbCircle
 62
7
  6
CONTINUOUS
 10
11.0514048751
 20
10.403891804
 40
0.0175
100
AcDbArc
 50
179.9999815174
 51
270.0
  0
ARC
  5
2AD
100
AcDbEntity
  8
0
100
AcDbCircle
 62
7
  6
CONTINUOUS
 10
11.0514048751
 20
11.428891804
 40
0.0175
100
AcDbArc
 50
90.0
 51
180.0000184826
  0
ARC
  5
2AE
100
AcDbEntity
  8
0
100
AcDbCircle
 62
7
  6
CONTINUOUS
 10
14.4504794055
 20
6.8561836174
 40
1.2
100
AcDbArc
 50
149.9606392759
 51
164.581171616
  0
ARC
  5
2AF
100
AcDbEntity
  8
0
100
AcDbCircle
 62
7
  6
CONTINUOUS
 10
14.1901972224
 20
6.9279693062
 40
0.93
100
AcDbArc
 50
164.5811716159
 51
199.946584759
  0
ARC
  5
2B0
100
AcDbEntity
  8
0
100
AcDbCircle
 62
7
  6
CONTINUOUS
 10
14.1474908062
 20
7.031391804
 40
0.85
100
AcDbArc
 50
141.6196391912
 51
149.9606392759
  0
ARC
  5
2B1
100
AcDbEntity
  8
0
100
AcDbCircle
 62
7
  6
CONTINUOUS
 10
13.8799935699
 20
6.815391804
 40
0.6
100
AcDbArc
 50
199.9465847589
 51
243.9398488367
  0
ARC
  5
2B2
100
AcDbEntity
  8
0
100
AcDbCircle
 62
7
  6
CONTINUOUS
 10
14.1335110945
 20
6.2080676187
 40
0.45
100
AcDbArc
 50
209.533164531
 51
242.493856735
  0
ARC
  5
2B3
100
AcDbEntity
  8
0
100
AcDbCircle
 62
7
  6
CONTINUOUS
 10
13.4914048751
 20
6.3287129712
 40
0.24
100
AcDbArc
 50
0.0
 51
25.2314003015
  0
ARC
  5
2B4
100
AcDbEntity
  8
0
100
AcDbCircle
 62
7
  6
CONTINUOUS
 10
14.049487757
 20
6.0478166895
 40
0.18
100
AcDbArc
 50
198.9448904576
 51
228.3664546573
  0
ARC
  5
2B5
100
AcDbEntity
  8
0
100
AcDbCircle
 62
7
  6
CONTINUOUS
 10
13.9464048751
 20
5.6845412338
 40
0.16
100
AcDbArc
 50
0.0
 51
48.3664646625
  0
ARC
  5
2B6
100
AcDbEntity
  8
0
100
AcDbCircle
 62
7
  6
CONTINUOUS
 10
13.8564048751
 20
5.6758908218
 40
0.15
100
AcDbArc
 50
0.0
 51
62.4938611505
  0
ARC
  5
2B7
100
AcDbEntity
  8
0
100
AcDbCircle
 62
7
  6
CONTINUOUS
 10
13.7314048751
 20
6.233391804
 40
0.06
100
AcDbArc
 50
0.0
 51
90.0
  0
ARC
  5
2B8
100
AcDbEntity
  8
0
100
AcDbCircle
 62
7
  6
CONTINUOUS
 10
13.8414048751
 20
5.976391804
 40
0.04
100
AcDbArc
 50
18.9448926523
 51
90.0000016113
  0
ARC
  5
2B9
100
AcDbEntity
  8
0
100
AcDbCircle
 62
7
  6
CONTINUOUS
 10
13.7245779497
 20
5.976391804
 40
0.02
100
AcDbArc
 50
29.5331637794
 51
89.9999984966
  0
ARC
  5
2BA
100
AcDbEntity
  8
0
100
AcDbCircle
 62
7
  6
CONTINUOUS
 10
12.9064048751
 20
8.1771634074
 40
0.7
100
AcDbArc
 50
104.7671956027
 51
108.8190633855
  0
ARC
  5
2BB
100
AcDbEntity
  8
0
100
AcDbCircle
 62
7
  6
CONTINUOUS
 10
12.9064048751
 20
8.1771634074
 40
0.7
100
AcDbArc
 50
71.1809366145
 51
75.6380947974
  0
ARC
  5
2BC
100
AcDbEntity
  8
0
100
AcDbCircle
 62
7
  6
CONTINUOUS
 10
13.4341360558
 20
7.596391804
 40
0.06
100
AcDbArc
 50
321.6196363598
 51
90.0000038248
  0
ARC
  5
2BD
100
AcDbEntity
  8
0
100
AcDbCircle
 62
7
  6
CONTINUOUS
 10
13.3464048751
 20
7.726391804
 40
0.01
100
AcDbArc
 50
0.0
 51
90.0000284869
  0
ARC
  5
2BE
100
AcDbEntity
  8
0
100
AcDbCircle
 62
7
  6
CONTINUOUS
 10
13.2264048751
 20
7.806391804
 40
0.01
100
AcDbArc
 50
0.0
 51
90.0000055663
  0
CIRCLE
  5
2BF
100
AcDbEntity
  8
0
100
AcDbCircle
 62
7
  6
CONTINUOUS
 10
12.9064048751
 20
8.3968914573
 40
0.49155
  0
ARC
  5
2C0
100
AcDbEntity
  8
0
100
AcDbCircle
 62
7
  6
CONTINUOUS
 10
12.9064048751
 20
8.3968914573
 40
0.49155
100
AcDbArc
 50
180.0
 51
354.5198220955
  0
CIRCLE
  5
2C1
100
AcDbEntity
  8
0
100
AcDbCircle
 62
9
  6
CONTINUOUS
 10
12.9064048751
 20
8.3968914573
 40
0.4467171987
  0
CIRCLE
  5
2C2
100
AcDbEntity
  8
0
100
AcDbCircle
 62
9
  6
CONTINUOUS
 10
12.9064048751
 20
8.3968914573
 40
0.2963316391
  0
CIRCLE
  5
2C3
100
AcDbEntity
  8
0
100
AcDbCircle
 62
9
  6
CONTINUOUS
 10
12.9064048751
 20
8.3968914573
 40
0.2495043137
  0
ARC
  5
2C4
100
AcDbEntity
  8
0
100
AcDbCircle
 62
7
  6
CONTINUOUS
 10
13.1064048751
 20
8.7640194374
 40
0.08
100
AcDbArc
 50
35.6743539884
 51
71.1809364865
  0
ARC
  5
2C5
100
AcDbEntity
  8
0
100
AcDbCircle
 62
7
  6
CONTINUOUS
 10
16.7841254943
 20
7.8803543358
 40
3.4
100
AcDbArc
 50
187.1568647557
 51
205.2313997836
  0
ARC
  5
2C6
100
AcDbEntity
  8
0
100
AcDbCircle
 62
7
  6
CONTINUOUS
 10
21.8575009243
 20
7.9313782375
 40
8.5
100
AcDbArc
 50
166.182444358
 51
174.1428956565
  0
ARC
  5
2C7
100
AcDbEntity
  8
0
100
AcDbCircle
 62
7
  6
CONTINUOUS
 10
19.5695080833
 20
8.1660881855
 40
6.2
100
AcDbArc
 50
174.1428956565
 51
176.7219867771
  0
ARC
  5
2C8
100
AcDbEntity
  8
0
100
AcDbCircle
 62
7
  6
CONTINUOUS
 10
19.5695080833
 20
8.1660881855
 40
6.2
100
AcDbArc
 50
179.3501698557
 51
184.7162378727
  0
ARC
  5
2C9
100
AcDbEntity
  8
0
100
AcDbCircle
 62
7
  6
CONTINUOUS
 10
12.9064048751
 20
11.253391804
 40
1.2
100
AcDbArc
 50
67.6683549908
 51
112.3316450092
  0
ARC
  5
2CA
100
AcDbEntity
  8
0
100
AcDbCircle
 62
7
  6
CONTINUOUS
 10
12.9064048751
 20
10.9145365454
 40
0.86
100
AcDbArc
 50
315.6527294631
 51
60.95096035
  0
ARC
  5
2CB
100
AcDbEntity
  8
0
100
AcDbCircle
 62
7
  6
CONTINUOUS
 10
12.9064048751
 20
10.9145365454
 40
0.86
100
AcDbArc
 50
119.04903965
 51
140.1247226429
  0
ARC
  5
2CC
100
AcDbEntity
  8
0
100
AcDbCircle
 62
7
  6
CONTINUOUS
 10
12.9064048751
 20
10.9145365454
 40
0.86
100
AcDbArc
 50
219.8964652074
 51
224.3472705369
  0
ARC
  5
2CD
100
AcDbEntity
  8
0
100
AcDbCircle
 62
7
  6
CONTINUOUS
 10
12.9812644588
 20
12.5230880904
 40
0.6
100
AcDbArc
 50
207.7853520289
 51
240.0154819039
  0
ARC
  5
2CE
100
AcDbEntity
  8
0
100
AcDbCircle
 62
7
  6
CONTINUOUS
 10
13.5964048751
 20
10.0821330005
 40
0.09
100
AcDbArc
 50
295.8234493498
 51
360.0
  0
ARC
  5
2CF
100
AcDbEntity
  8
0
100
AcDbCircle
 62
7
  6
CONTINUOUS
 10
13.6617448482
 20
9.9471119358
 40
0.06
100
AcDbArc
 50
115.8234948281
 51
166.1824554595
  0
ARC
  5
2D0
100
AcDbEntity
  8
0
100
AcDbCircle
 62
7
  6
CONTINUOUS
 10
13.6264048751
 20
10.1628383285
 40
0.06
100
AcDbArc
 50
0.0
 51
53.9726274621
  0
ARC
  5
2D1
100
AcDbEntity
  8
0
100
AcDbCircle
 62
7
  6
CONTINUOUS
 10
13.3264048751
 20
11.853391804
 40
0.04
100
AcDbArc
 50
0.0
 51
90.0000067437
  0
ARC
  5
2D2
100
AcDbEntity
  8
0
100
AcDbCircle
 62
7
  6
CONTINUOUS
 10
13.3264048751
 20
11.743391804
 40
0.04
100
AcDbArc
 50
276.9797076986
 51
360.0
  0
ARC
  5
2D3
100
AcDbEntity
  8
0
100
AcDbCircle
 62
7
  6
CONTINUOUS
 10
13.3914048751
 20
12.343391804
 40
0.02
100
AcDbArc
 50
0.0
 51
90.0000013476
  0
ARC
  5
2D4
100
AcDbEntity
  8
0
100
AcDbCircle
 62
7
  6
CONTINUOUS
 10
13.3914048751
 20
12.263391804
 40
0.02
100
AcDbArc
 50
269.9999995116
 51
360.0
  0
ARC
  5
2D5
100
AcDbEntity
  8
0
100
AcDbCircle
 62
7
  6
CONTINUOUS
 10
13.3336959447
 20
11.6838364491
 40
0.02
100
AcDbArc
 50
96.9797107596
 51
240.9509572813
  0
SPLINE
  5
2D6
100
AcDbEntity
  8
0
100
AcDbSpline
 62
7
  6
CONTINUOUS
 70
0
 71
3
 72
11
 73
7
 74
0
 42
0.0000001
 43
0.0000001
 44
0.0000000001
 40
0.0
 40
0.0
 40
0.0
 40
0.0
 40
0.2499987121
 40
0.5
 40
0.7500012879
 40
1.0
 40
1.0
 40
1.0
 40
1.0
 10
8.516535547
 20
11.0068456178
 30
0.0
 10
8.6107321624
 20
11.0501066214
 30
0.0
 10
8.8026537902
 20
11.1291675097
 30
0.0
 10
9.0989121125
 20
11.2246930899
 30
0.0
 10
9.4017534906
 20
11.2966738495
 30
0.0
 10
9.6068489057
 20
11.3286176432
 30
0.0
 10
9.7098230947
 20
11.3404849592
 30
0.0
  0
SPLINE
  5
2D7
100
AcDbEntity
  8
0
100
AcDbSpline
 62
7
  6
CONTINUOUS
 70
0
 71
3
 72
15
 73
11
 74
0
 42
0.0000001
 43
0.0000001
 44
0.0000000001
 40
0.0
 40
0.0
 40
0.0
 40
0.0
 40
0.1250014552
 40
0.2500059307
 40
0.375007471
 40
0.5
 40
0.624992529
 40
0.7499940693
 40
0.8749985448
 40
1.0
 40
1.0
 40
1.0
 40
1.0
 10
8.3008296152
 20
9.8808966294
 30
0.0
 10
8.3202907629
 20
9.9070518605
 30
0.0
 10
8.3613986651
 20
9.9577761366
 30
0.0
 10
8.4290618367
 20
10.0285404416
 30
0.0
 10
8.5022726755
 20
10.0935551265
 30
0.0
 10
8.5805562097
 20
10.1523593012
 30
0.0
 10
8.6634323589
 20
10.2044916957
 30
0.0
 10
8.7502988621
 20
10.2496685349
 30
0.0
 10
8.8405556365
 20
10.2876106795
 30
0.0
 10
8.9026128057
 20
10.3079015532
 30
0.0
 10
8.9339920989
 20
10.3167430655
 30
0.0
  0
SPLINE
  5
2D8
100
AcDbEntity
  8
0
100
AcDbSpline
 62
7
  6
CONTINUOUS
 70
0
 71
3
 72
13
 73
9
 74
0
 42
0.0000001
 43
0.0000001
 44
0.0000000001
 40
0.0
 40
0.0
 40
0.0
 40
0.0
 40
0.1250308484
 40
0.2500627041
 40
0.5
 40
0.749937296
 40
0.8749691516
 40
1.0
 40
1.0
 40
1.0
 40
1.0
 10
7.6465306879
 20
10.2416183936
 30
0.0
 10
7.6687741456
 20
10.2772153669
 30
0.0
 10
7.7155071413
 20
10.3470373784
 30
0.0
 10
7.8174271396
 20
10.4805193065
 30
0.0
 10
7.9600975714
 20
10.6351255835
 30
0.0
 10
8.1209668232
 20
10.7706948897
 30
0.0
 10
8.258899525
 20
10.8665055413
 30
0.0
 10
8.3307536056
 20
10.9100495109
 30
0.0
 10
8.3673153867
 20
10.9306687273
 30
0.0
  0
SPLINE
  5
2D9
100
AcDbEntity
  8
0
100
AcDbSpline
 62
9
  6
CONTINUOUS
 70
0
 71
3
 72
27
 73
23
 74
0
 42
0.0000001
 43
0.0000001
 44
0.0000000001
 40
0.0
 40
0.0
 40
0.0
 40
0.0
 40
0.0045814335
 40
0.0180328052
 40
0.0399158197
 40
0.0697937446
 40
0.1072562742
 40
0.1519920892
 40
0.2037272591
 40
0.2622430062
 40
0.3273532551
 40
0.3989469816
 40
0.4770150925
 40
0.5618710824
 40
0.6540585195
 40
0.7032677375
 40
0.7549331063
 40
0.8094649603
 40
0.8674974528
 40
0.898094452
 40
0.9301205872
 40
1.0
 40
1.0
 40
1.0
 40
1.0
 10
8.9339920989
 20
10.3167430655
 30
0.0
 10
8.9335619243
 20
10.3172202636
 30
0.0
 10
8.9318727998
 20
10.3191021915
 30
0.0
 10
8.9281639675
 20
10.3232947373
 30
0.0
 10
8.9221502813
 20
10.3301843006
 30
0.0
 10
8.9139971712
 20
10.3396754747
 30
0.0
 10
8.903849181
 20
10.3516770518
 30
0.0
 10
8.8917633397
 20
10.3660538006
 30
0.0
 10
8.8777824313
 20
10.3826944519
 30
0.0
 10
8.8619189528
 20
10.4014850916
 30
0.0
 10
8.8441695906
 20
10.4223280051
 30
0.0
 10
8.8244546158
 20
10.445097403
 30
0.0
 10
8.8026482365
 20
10.4697168043
 30
0.0
 10
8.7784811963
 20
10.4960975375
 30
0.0
 10
8.7565620378
 20
10.5190418776
 30
0.0
 10
8.7374545516
 20
10.538223673
 30
0.0
 10
8.7218092142
 20
10.5533965556
 30
0.0
 10
8.7049615162
 20
10.5691011992
 30
0.0
 10
8.6899514879
 20
10.5824366272
 30
0.0
 10
8.6770845135
 20
10.5934250156
 30
0.0
 10
8.6627478564
 20
10.6052465009
 30
0.0
 10
8.6514361011
 20
10.6139891508
 30
0.0
 10
8.6435544021
 20
10.6198121076
 30
0.0
  0
SPLINE
  5
2DA
100
AcDbEntity
  8
0
100
AcDbSpline
 62
9
  6
CONTINUOUS
 70
0
 71
3
 72
26
 73
22
 74
0
 42
0.0000001
 43
0.0000001
 44
0.0000000001
 40
0.0
 40
0.0
 40
0.0
 40
0.0
 40
0.0566376248
 40
0.1105759947
 40
0.1627063031
 40
0.2133454199
 40
0.2626455323
 40
0.310678338
 40
0.4030451715
 40
0.4903528986
 40
0.5722822773
 40
0.6484457903
 40
0.7183511292
 40
0.7814965451
 40
0.8374544775
 40
0.8858113654
 40
0.9261365171
 40
0.9580199469
 40
0.9811500961
 40
0.9952394565
 40
1.0
 40
1.0
 40
1.0
 40
1.0
 10
9.860708938
 20
10.9121970335
 30
0.0
 10
9.8564706449
 20
10.9196661072
 30
0.0
 10
9.8486083078
 20
10.9344853299
 30
0.0
 10
9.8380500016
 20
10.95678747
 30
0.0
 10
9.8284749344
 20
10.9785364486
 30
0.0
 10
9.819669594
 20
10.999848551
 30
0.0
 10
9.8114790787
 20
11.0207377767
 30
0.0
 10
9.8013886813
 20
11.0476743206
 30
0.0
 10
9.7898628123
 20
11.080223207
 30
0.0
 10
9.7772725956
 20
11.1178397761
 30
0.0
 10
9.765944317
 20
11.1532836561
 30
0.0
 10
9.7557276757
 20
11.1863105685
 30
0.0
 10
9.746565927
 20
11.216681475
 30
0.0
 10
9.7384046136
 20
11.2441537117
 30
0.0
 10
9.7312434421
 20
11.2685144695
 30
0.0
 10
9.7250797114
 20
11.2895618231
 30
0.0
 10
9.7199286991
 20
11.307102123
 30
0.0
 10
9.7157972594
 20
11.3209551595
 30
0.0
 10
9.7127583393
 20
11.3309826832
 30
0.0
 10
9.7108893785
 20
11.337067458
 30
0.0
 10
9.7100387756
 20
11.3397961069
 30
0.0
 10
9.7098230947
 20
11.3404849592
 30
0.0
  0
SPLINE
  5
2DB
100
AcDbEntity
  8
0
100
AcDbSpline
 62
9
  6
CONTINUOUS
 70
0
 71
3
 72
26
 73
22
 74
0
 42
0.0000001
 43
0.0000001
 44
0.0000000001
 40
0.0
 40
0.0
 40
0.0
 40
0.0
 40
0.0703610933
 40
0.1025779908
 40
0.1333391411
 40
0.1916347137
 40
0.2463590534
 40
0.2981612211
 40
0.3474628856
 40
0.4397334095
 40
0.5245772902
 40
0.6025710655
 40
0.6740476227
 40
0.7390108717
 40
0.7973573704
 40
0.8489091509
 40
0.8934537729
 40
0.9307227343
 40
0.9821295569
 40
0.9954634631
 40
1.0
 40
1.0
 40
1.0
 40
1.0
 10
8.6435544021
 20
10.6198121076
 30
0.0
 10
8.6356776735
 20
10.6256313926
 30
0.0
 10
8.6243867536
 20
10.6343808554
 30
0.0
 10
8.6101133911
 20
10.6462439389
 30
0.0
 10
8.5973396447
 20
10.6572790583
 30
0.0
 10
8.5824885177
 20
10.6706973905
 30
0.0
 10
8.5658984018
 20
10.6865453876
 30
0.0
 10
8.5505733959
 20
10.7018957802
 30
0.0
 10
8.5319652433
 20
10.7213438572
 30
0.0
 10
8.5107898053
 20
10.7446911251
 30
0.0
 10
8.4876939218
 20
10.7716654901
 30
0.0
 10
8.4670857578
 20
10.796945391
 30
0.0
 10
8.4486507529
 20
10.8204189459
 30
0.0
 10
8.4322233259
 20
10.841987513
 30
0.0
 10
8.4176808396
 20
10.8615035466
 30
0.0
 10
8.4049794984
 20
10.8788461788
 30
0.0
 10
8.3940893481
 20
10.8938785054
 30
0.0
 10
8.3832445177
 20
10.9089186346
 30
0.0
 10
8.3748898965
 20
10.9203987725
 30
0.0
 10
8.3691731077
 20
10.9281636799
 30
0.0
 10
8.367691899
 20
10.9301618468
 30
0.0
 10
8.3673153867
 20
10.9306687273
 30
0.0
  0
SPLINE
  5
2DC
100
AcDbEntity
  8
0
100
AcDbSpline
 62
9
  6
CONTINUOUS
 70
0
 71
3
 72
14
 73
10
 74
0
 42
0.0000001
 43
0.0000001
 44
0.0000000001
 40
0.0
 40
0.0
 40
0.0
 40
0.0
 40
0.017279364
 40
0.0682454911
 40
0.2660097035
 40
0.4099695862
 40
0.5815601567
 40
0.7788674998
 40
1.0
 40
1.0
 40
1.0
 40
1.0
 10
10.1530607031
 20
10.466391804
 30
0.0
 10
10.1528238786
 20
10.467265409
 30
0.0
 10
10.1518926184
 20
10.4707168452
 30
0.0
 10
10.1483161871
 20
10.4841843395
 30
0.0
 10
10.1431742732
 20
10.5041016421
 30
0.0
 10
10.136565641
 20
10.530165502
 30
0.0
 10
10.1299645357
 20
10.5562066195
 30
0.0
 10
10.1223237098
 20
10.5861544895
 30
0.0
 10
10.1168402457
 20
10.6073764775
 30
0.0
 10
10.1139146707
 20
10.6185843964
 30
0.0
  0
SPLINE
  5
2DD
100
AcDbEntity
  8
0
100
AcDbSpline
 62
9
  6
CONTINUOUS
 70
0
 71
3
 72
19
 73
15
 74
0
 42
0.0000001
 43
0.0000001
 44
0.0000000001
 40
0.0
 40
0.0
 40
0.0
 40
0.0
 40
0.10319099
 40
0.2135351937
 40
0.3303792582
 40
0.4531425603
 40
0.5813145873
 40
0.7146386605
 40
0.7832980871
 40
0.8181719905
 40
0.8534320446
 40
0.8891320174
 40
0.9253802235
 40
1.0
 40
1.0
 40
1.0
 40
1.0
 10
10.1139146707
 20
10.6185843964
 30
0.0
 10
10.1112018422
 20
10.6289772803
 30
0.0
 10
10.1055356143
 20
10.6504698301
 30
0.0
 10
10.0965599011
 20
10.6836671932
 30
0.0
 10
10.0867384134
 20
10.718745145
 30
0.0
 10
10.0759760586
 20
10.7554844421
 30
0.0
 10
10.0641380747
 20
10.7936919108
 30
0.0
 10
10.0532421126
 20
10.8262895576
 30
0.0
 10
10.0448639011
 20
10.8494782614
 30
0.0
 10
10.0397486574
 20
10.8629895949
 30
0.0
 10
10.035737206
 20
10.8732497055
 30
0.0
 10
10.0315422226
 20
10.8835909927
 30
0.0
 10
10.0255729652
 20
10.8976312947
 30
0.0
 10
10.0207353851
 20
10.9081144224
 30
0.0
 10
10.0173048751
 20
10.9150829327
 30
0.0
  0
SPLINE
  5
2DE
100
AcDbEntity
  8
0
100
AcDbSpline
 62
9
  6
CONTINUOUS
 70
0
 71
3
 72
26
 73
22
 74
0
 42
0.0000001
 43
0.0000001
 44
0.0000000001
 40
0.0
 40
0.0
 40
0.0
 40
0.0
 40
0.0050109235
 40
0.019783329
 40
0.0439269986
 40
0.0770521753
 40
0.1187459666
 40
0.1685009307
 40
0.225789753
 40
0.290101569
 40
0.3609120037
 40
0.4376252678
 40
0.5196544878
 40
0.606513301
 40
0.6977808327
 40
0.7449862972
 40
0.7932536055
 40
0.8426375318
 40
0.8932704039
 40
0.945443237
 40
1.0
 40
1.0
 40
1.0
 40
1.0
 10
10.0169048751
 20
10.466391804
 30
0.0
 10
10.0166693197
 20
10.467146234
 30
0.0
 10
10.0157427194
 20
10.4701258046
 30
0.0
 10
10.0137103696
 20
10.4767494275
 30
0.0
 10
10.0104146859
 20
10.4876237074
 30
0.0
 10
10.0059485632
 20
10.502580058
 30
0.0
 10
10.0004006581
 20
10.5214289803
 30
0.0
 10
9.9937934769
 20
10.5439389534
 30
0.0
 10
9.9861578456
 20
10.569864996
 30
0.0
 10
9.9775066753
 20
10.5989538722
 30
0.0
 10
9.9678553422
 20
10.6309414802
 30
0.0
 10
9.9571650688
 20
10.6655338608
 30
0.0
 10
9.9453949145
 20
10.7024407269
 30
0.0
 10
9.9324103689
 20
10.7413665906
 30
0.0
 10
9.9205902771
 20
10.7748868313
 30
0.0
 10
9.9102971964
 20
10.8024842576
 30
0.0
 10
9.9019879358
 20
10.8237683355
 30
0.0
 10
9.8930874573
 20
10.845398477
 30
0.0
 10
9.8834427173
 20
10.8673823075
 30
0.0
 10
9.8728426005
 20
10.8898299724
 30
0.0
 10
9.8649557034
 20
10.9047130261
 30
0.0
 10
9.860708938
 20
10.9121970334
 30
0.0
  0
SPLINE
  5
2DF
100
AcDbEntity
  8
0
100
AcDbSpline
 62
9
  6
CONTINUOUS
 70
0
 71
3
 72
14
 73
10
 74
0
 42
0.0000001
 43
0.0000001
 44
0.0000000001
 40
0.0
 40
0.0
 40
0.0
 40
0.0
 40
0.2497268259
 40
0.3747848088
 40
0.4998639082
 40
0.6249249189
 40
0.7499535468
 40
0.8749635697
 40
1.0
 40
1.0
 40
1.0
 40
1.0
 10
7.9679545811
 20
10.0513832205
 30
0.0
 10
8.0146660242
 20
10.1087105317
 30
0.0
 10
8.088626216
 20
10.1917194418
 30
0.0
 10
8.1944746799
 20
10.295240141
 30
0.0
 10
8.2775000603
 20
10.369136478
 30
0.0
 10
8.3639891166
 20
10.4389303315
 30
0.0
 10
8.4538301945
 20
10.5043263466
 30
0.0
 10
8.5469023619
 20
10.5650212733
 30
0.0
 10
8.6110165627
 20
10.6021436376
 30
0.0
 10
8.6435544105
 20
10.6198121014
 30
0.0
  0
SPLINE
  5
2E0
100
AcDbEntity
  8
0
100
AcDbSpline
 62
9
  6
CONTINUOUS
 70
0
 71
3
 72
26
 73
22
 74
0
 42
0.0000001
 43
0.0000001
 44
0.0000000001
 40
0.0
 40
0.0
 40
0.0
 40
0.0
 40
0.0040979468
 40
0.0160914518
 40
0.0355308491
 40
0.0619676788
 40
0.09502459
 40
0.1346037578
 40
0.1807010615
 40
0.233409974
 40
0.2928997848
 40
0.35954611
 40
0.4339116805
 40
0.5171009954
 40
0.6105881106
 40
0.6619829096
 40
0.7172013234
 40
0.7769812598
 40
0.8424149386
 40
0.9153124741
 40
1.0
 40
1.0
 40
1.0
 40
1.0
 10
8.3008296152
 20
9.8808966294
 30
0.0
 10
8.3003716024
 20
9.8811232791
 30
0.0
 10
8.2985748981
 20
9.8820168393
 30
0.0
 10
8.2946207917
 20
9.8840161328
 30
0.0
 10
8.2882009082
 20
9.8873120747
 30
0.0
 10
8.2794776344
 20
9.8918720835
 30
0.0
 10
8.2685717873
 20
9.8976772938
 30
0.0
 10
8.2555343688
 20
9.9046953412
 30
0.0
 10
8.2403649835
 20
9.9129228767
 30
0.0
 10
8.2230284711
 20
9.9223625055
 30
0.0
 10
8.2034474493
 20
9.9330385618
 30
0.0
 10
8.1814751154
 20
9.9449702863
 30
0.0
 10
8.1568616493
 20
9.9582312259
 30
0.0
 10
8.1292109338
 20
9.9729105925
 30
0.0
 10
8.1039845378
 20
9.9860461747
 30
0.0
 10
8.0817582354
 20
9.9973884529
 30
0.0
 10
8.0632111911
 20
10.006692182
 30
0.0
 10
8.0430205374
 20
10.0166224948
 30
0.0
 10
8.0207506967
 20
10.02731841
 30
0.0
 10
7.9955562382
 20
10.0390965937
 30
0.0
 10
7.9776235204
 20
10.04713585
 30
0.0
 10
7.9679545811
 20
10.0513832205
 30
0.0
  0
SPLINE
  5
2E1
100
AcDbEntity
  8
0
100
AcDbSpline
 62
9
  6
CONTINUOUS
 70
0
 71
3
 72
15
 73
11
 74
0
 42
0.0000001
 43
0.0000001
 44
0.0000000001
 40
0.0
 40
0.0
 40
0.0
 40
0.0
 40
0.1235155609
 40
0.2475507219
 40
0.3721710817
 40
0.4973417679
 40
0.622940128
 40
0.7487676366
 40
0.8745606682
 40
1.0
 40
1.0
 40
1.0
 40
1.0
 10
8.7760884062
 20
10.6855701164
 30
0.0
 10
8.8179300086
 20
10.7044399608
 30
0.0
 10
8.9030874757
 20
10.7394399832
 30
0.0
 10
9.034096572
 20
10.7839988109
 30
0.0
 10
9.1680168799
 20
10.8211881909
 30
0.0
 10
9.3042468294
 20
10.8514755537
 30
0.0
 10
9.4421950624
 20
10.8753300726
 30
0.0
 10
9.5812684567
 20
10.8932174678
 30
0.0
 10
9.7208717425
 20
10.9056019
 30
0.0
 10
9.8141247756
 20
10.9105099086
 30
0.0
 10
9.8607089185
 20
10.9121970678
 30
0.0
  0
SPLINE
  5
2E2
100
AcDbEntity
  8
0
100
AcDbSpline
 62
9
  6
CONTINUOUS
 70
0
 71
3
 72
25
 73
21
 74
0
 42
0.0000001
 43
0.0000001
 44
0.0000000001
 40
0.0
 40
0.0
 40
0.0
 40
0.0
 40
0.0846147064
 40
0.1221840532
 40
0.1574223295
 40
0.2227548651
 40
0.282430207
 40
0.3375464605
 40
0.3888462864
 40
0.4821757807
 40
0.565265818
 40
0.6395985811
 40
0.7062740854
 40
0.7658456145
 40
0.8186732597
 40
0.8649110487
 40
0.9046347568
 40
0.9378215992
 40
0.9838619537
 40
1.0
 40
1.0
 40
1.0
 40
1.0
 10
7.9679545811
 20
10.0513832205
 30
0.0
 10
7.9582876902
 20
10.0556296912
 30
0.0
 10
7.9443852979
 20
10.061892472
 30
0.0
 10
7.9266060625
 20
10.0702459321
 30
0.0
 10
7.911073928
 20
10.0777219993
 30
0.0
 10
7.8931562988
 20
10.0866007841
 30
0.0
 10
7.8731732828
 20
10.0968917806
 30
0.0
 10
7.8548843266
 20
10.1066428801
 30
0.0
 10
7.8330513559
 20
10.1186677999
 30
0.0
 10
7.8084111193
 20
10.1328260527
 30
0.0
 10
7.7816251419
 20
10.1490028741
 30
0.0
 10
7.7579813414
 20
10.1639368723
 30
0.0
 10
7.7370444265
 20
10.1776534065
 30
0.0
 10
7.7185339139
 20
10.1901717664
 30
0.0
 10
7.7022664997
 20
10.2014516356
 30
0.0
 10
7.6881335023
 20
10.2114614818
 30
0.0
 10
7.6760647944
 20
10.2201446262
 30
0.0
 10
7.664059215
 20
10.2288728763
 30
0.0
 10
7.6544353962
 20
10.235872228
 30
0.0
 10
7.6481596332
 20
10.2404344435
 30
0.0
 10
7.6465306879
 20
10.2416183936
 30
0.0
  0
SPLINE
  5
2E3
100
AcDbEntity
  8
0
100
AcDbSpline
 62
9
  6
CONTINUOUS
 70
0
 71
3
 72
28
 73
24
 74
0
 42
0.0000001
 43
0.0000001
 44
0.0000000001
 40
0.0
 40
0.0
 40
0.0
 40
0.0
 40
0.00481401
 40
0.0189256834
 40
0.0418403142
 40
0.0730643845
 40
0.1121225869
 40
0.1586072489
 40
0.2121386105
 40
0.2723846008
 40
0.339038486
 40
0.4118460099
 40
0.4906392732
 40
0.5755319394
 40
0.6668406363
 40
0.7151711566
 40
0.7655912352
 40
0.8184422543
 40
0.8742641902
 40
0.9035206196
 40
0.9340020864
 40
0.9660466431
 40
1.0
 40
1.0
 40
1.0
 40
1.0
 10
9.0598438637
 20
10.3499989831
 30
0.0
 10
9.0594089622
 20
10.3505563643
 30
0.0
 10
9.0577032179
 20
10.3527507583
 30
0.0
 10
9.0539618275
 20
10.3576249984
 30
0.0
 10
9.0479038002
 20
10.3656101809
 30
0.0
 10
9.0397053091
 20
10.3765697613
 30
0.0
 10
9.0295250647
 20
10.390369078
 30
0.0
 10
9.0174326897
 20
10.4068286083
 30
0.0
 10
9.0034889076
 20
10.4257890457
 30
0.0
 10
8.9877249957
 20
10.4470875623
 30
0.0
 10
8.9701603231
 20
10.4705749174
 30
0.0
 10
8.9507378311
 20
10.4960729449
 30
0.0
 10
8.9293629468
 20
10.5234486789
 30
0.0
 10
8.9057992672
 20
10.552556374
 30
0.0
 10
8.8844876842
 20
10.5777234528
 30
0.0
 10
8.8659798774
 20
10.5986180676
 30
0.0
 10
8.8509124535
 20
10.6150105801
 30
0.0
 10
8.8347390019
 20
10.6318744649
 30
0.0
 10
8.8203439202
 20
10.646129175
 30
0.0
 10
8.808032465
 20
10.6578106897
 30
0.0
 10
8.7980807349
 20
10.6669030694
 30
0.0
 10
8.7874111624
 20
10.6762275659
 30
0.0
 10
8.7799600131
 20
10.6824278528
 30
0.0
 10
8.7760884062
 20
10.6855701164
 30
0.0
  0
SPLINE
  5
2E4
100
AcDbEntity
  8
0
100
AcDbSpline
 62
9
  6
CONTINUOUS
 70
0
 71
3
 72
25
 73
21
 74
0
 42
0.0000001
 43
0.0000001
 44
0.0000000001
 40
0.0
 40
0.0
 40
0.0
 40
0.0
 40
0.0867943762
 40
0.1252376515
 40
0.1612387865
 40
0.2278391692
 40
0.2884903072
 40
0.3443400869
 40
0.3961676087
 40
0.4900527153
 40
0.5731692629
 40
0.6471234734
 40
0.7131268627
 40
0.7718229368
 40
0.8236545254
 40
0.8688471158
 40
0.9075442999
 40
0.9397869749
 40
0.9844035978
 40
1.0
 40
1.0
 40
1.0
 40
1.0
 10
7.9291150132
 20
10.0024909904
 30
0.0
 10
7.9193285699
 20
10.0066473952
 30
0.0
 10
7.905256216
 20
10.01276107
 30
0.0
 10
7.8872528672
 20
10.0208871508
 30
0.0
 10
7.8715639209
 20
10.0281260487
 30
0.0
 10
7.8534904006
 20
10.0366892343
 30
0.0
 10
7.8333542844
 20
10.0465728044
 30
0.0
 10
7.8149605047
 20
10.0558949033
 30
0.0
 10
7.7930738209
 20
10.0673266181
 30
0.0
 10
7.7684406838
 20
10.0807106824
 30
0.0
 10
7.7417240288
 20
10.0959240014
 30
0.0
 10
7.7182308569
 20
10.1098851367
 30
0.0
 10
7.6975056809
 20
10.1226415727
 30
0.0
 10
7.6792473638
 20
10.1342311451
 30
0.0
 10
7.6632563099
 20
10.1446328654
 30
0.0
 10
7.6494066866
 20
10.1538320028
 30
0.0
 10
7.6376132921
 20
10.1617888399
 30
0.0
 10
7.6259173034
 20
10.1697634574
 30
0.0
 10
7.6165614768
 20
10.1761468261
 30
0.0
 10
7.6104683482
 20
10.1803040554
 30
0.0
 10
7.6088900775
 20
10.181380825
 30
0.0
  0
SPLINE
  5
2E5
100
AcDbEntity
  8
0
100
AcDbSpline
 62
9
  6
CONTINUOUS
 70
0
 71
3
 72
27
 73
23
 74
0
 42
0.0000001
 43
0.0000001
 44
0.0000000001
 40
0.0
 40
0.0
 40
0.0
 40
0.0
 40
0.0360278315
 40
0.0699331582
 40
0.102087183
 40
0.1328528472
 40
0.1912788178
 40
0.2462438157
 40
0.298349013
 40
0.3479836737
 40
0.4409152228
 40
0.5263261026
 40
0.6047423818
 40
0.6764660425
 40
0.74149657
 40
0.7997379744
 40
0.8510389673
 40
0.8952200642
 40
0.9320506542
 40
0.9825620515
 40
0.9955841338
 40
1.0
 40
1.0
 40
1.0
 40
1.0
 10
8.7760884062
 20
10.6855701164
 30
0.0
 10
8.7722220044
 20
10.6887081555
 30
0.0
 10
8.7647922158
 20
10.6948928289
 30
0.0
 10
8.7541736755
 20
10.7041866099
 30
0.0
 10
8.7443063032
 20
10.7132287414
 30
0.0
 10
8.7321663961
 20
10.7248019712
 30
0.0
 10
8.7180585542
 20
10.7388762548
 30
0.0
 10
8.7023226866
 20
10.7554810227
 30
0.0
 10
8.6877996463
 20
10.7715518794
 30
0.0
 10
8.6701832412
 20
10.7918916655
 30
0.0
 10
8.6501828174
 20
10.8162477891
 30
0.0
 10
8.6284305328
 20
10.8442921972
 30
0.0
 10
8.6090825747
 20
10.8704789147
 30
0.0
 10
8.5918289752
 20
10.894703704
 30
0.0
 10
8.5765050324
 20
10.9168754607
 30
0.0
 10
8.5629818131
 20
10.9368586304
 30
0.0
 10
8.5512082271
 20
10.9545453526
 30
0.0
 10
8.5411439822
 20
10.96981457
 30
0.0
 10
8.5311638807
 20
10.9850084683
 30
0.0
 10
8.5234860773
 20
10.9965620286
 30
0.0
 10
8.5182351168
 20
11.0043486066
 30
0.0
 10
8.5168794587
 20
11.0063413951
 30
0.0
 10
8.516535547
 20
11.0068456178
 30
0.0
  0
SPLINE
  5
2E6
100
AcDbEntity
  8
0
100
AcDbSpline
 62
9
  6
CONTINUOUS
 70
0
 71
3
 72
25
 73
21
 74
0
 42
0.0000001
 43
0.0000001
 44
0.0000000001
 40
0.0
 40
0.0
 40
0.0
 40
0.0
 40
0.0041734889
 40
0.0163698214
 40
0.0361034152
 40
0.062889585
 40
0.0963158391
 40
0.1362547676
 40
0.182674452
 40
0.2356416529
 40
0.2953003927
 40
0.3620055572
 40
0.4363015972
 40
0.5192799236
 40
0.6124047891
 40
0.7185068988
 40
0.7779823367
 40
0.8430859826
 40
0.915639534
 40
1.0
 40
1.0
 40
1.0
 40
1.0
 10
8.2689290983
 20
9.8358848897
 30
0.0
 10
8.2684539707
 20
9.8361120361
 30
0.0
 10
8.2665918763
 20
9.8370061319
 30
0.0
 10
8.2624962037
 20
9.8390011797
 30
0.0
 10
8.2558525083
 20
9.8422808575
 30
0.0
 10
8.2468350103
 20
9.846803423
 30
0.0
 10
8.2355751875
 20
9.8525415734
 30
0.0
 10
8.2221352295
 20
9.8594576704
 30
0.0
 10
8.2065238432
 20
9.8675428246
 30
0.0
 10
8.188714499
 20
9.8767947353
 30
0.0
 10
8.1686368212
 20
9.887232767
 30
0.0
 10
8.1461512093
 20
9.8988737652
 30
0.0
 10
8.1210114858
 20
9.9117883457
 30
0.0
 10
8.092824216
 20
9.926065466
 30
0.0
 10
8.0609392716
 20
9.9419227464
 30
0.0
 10
8.0315576161
 20
9.9561505823
 30
0.0
 10
8.005227182
 20
9.9685613525
 30
0.0
 10
7.9826373487
 20
9.9789770946
 30
0.0
 10
7.9570859305
 20
9.9904667973
 30
0.0
 10
7.938912967
 20
9.9983296968
 30
0.0
 10
7.9291150132
 20
10.0024909904
 30
0.0
  0
SPLINE
  5
2E7
100
AcDbEntity
  8
0
100
AcDbSpline
 62
9
  6
CONTINUOUS
 70
0
 71
3
 72
26
 73
22
 74
0
 42
0.0000001
 43
0.0000001
 44
0.0000000001
 40
0.0
 40
0.0
 40
0.0
 40
0.0
 40
0.0547671669
 40
0.107369979
 40
0.1585092813
 40
0.2084186499
 40
0.2571977709
 40
0.3048809861
 40
0.3969480939
 40
0.4843583721
 40
0.5666820176
 40
0.6434377821
 40
0.7140598335
 40
0.7779818099
 40
0.8347254999
 40
0.8838310569
 40
0.924824785
 40
0.9572588482
 40
0.9808015382
 40
0.9951497542
 40
1.0
 40
1.0
 40
1.0
 40
1.0
 10
10.0173048751
 20
10.9150829327
 30
0.0
 10
10.013581121
 20
10.9226471197
 30
0.0
 10
10.0066832058
 20
10.9376771442
 30
0.0
 10
9.9974598453
 20
10.9602725551
 30
0.0
 10
9.9890798639
 20
10.9823942281
 30
0.0
 10
9.9813656964
 20
11.0041325592
 30
0.0
 10
9.9741827937
 20
11.0254910119
 30
0.0
 10
9.9653138629
 20
11.0531264719
 30
0.0
 10
9.9551747267
 20
11.086596801
 30
0.0
 10
9.9440930573
 20
11.1253472893
 30
0.0
 10
9.9341048529
 20
11.1619554964
 30
0.0
 10
9.9250814248
 20
11.1961463327
 30
0.0
 10
9.9169773431
 20
11.2276491645
 30
0.0
 10
9.9097475117
 20
11.2561955382
 30
0.0
 10
9.9033954294
 20
11.2815471811
 30
0.0
 10
9.8979216634
 20
11.3034800802
 30
0.0
 10
9.8933426548
 20
11.3217791917
 30
0.0
 10
9.8896663227
 20
11.3362475172
 30
0.0
 10
9.8869600524
 20
11.3467299515
 30
0.0
 10
9.8852946564
 20
11.3530954744
 30
0.0
 10
9.8845362989
 20
11.3559520164
 30
0.0
 10
9.8843439317
 20
11.356673479
 30
0.0
  0
SPLINE
  5
2E8
100
AcDbEntity
  8
0
100
AcDbSpline
 62
9
  6
CONTINUOUS
 70
0
 71
3
 72
25
 73
21
 74
0
 42
0.0000001
 43
0.0000001
 44
0.0000000001
 40
0.0
 40
0.0
 40
0.0
 40
0.0
 40
0.0048950747
 40
0.0193861661
 40
0.0431823352
 40
0.075993002
 40
0.1174920226
 40
0.1672094881
 40
0.2246416994
 40
0.2892945933
 40
0.3606489968
 40
0.4380754
 40
0.5209320599
 40
0.6086356386
 40
0.7006310854
 40
0.796451518
 40
0.8457268277
 40
0.8959395673
 40
0.9472144278
 40
1.0
 40
1.0
 40
1.0
 40
1.0
 10
10.3680618788
 20
10.466391804
 30
0.0
 10
10.3679056605
 20
10.4671282906
 30
0.0
 10
10.3672899706
 20
10.4700456583
 30
0.0
 10
10.3659407898
 20
10.4765487172
 30
0.0
 10
10.3637523142
 20
10.4872624919
 30
0.0
 10
10.3607859971
 20
10.5020569458
 30
0.0
 10
10.3571006786
 20
10.5207731895
 30
0.0
 10
10.3527071885
 20
10.543209507
 30
0.0
 10
10.3476244422
 20
10.5691396046
 30
0.0
 10
10.3418590596
 20
10.598327001
 30
0.0
 10
10.3354208925
 20
10.6305160179
 30
0.0
 10
10.3282805101
 20
10.6654195506
 30
0.0
 10
10.3204102055
 20
10.702739859
 30
0.0
 10
10.3117164355
 20
10.7421752397
 30
0.0
 10
10.3021012096
 20
10.7834465528
 30
0.0
 10
10.2932116568
 20
10.8188148391
 30
0.0
 10
10.2853135227
 20
10.847797879
 30
0.0
 10
10.2788335631
 20
10.870062997
 30
0.0
 10
10.2717262901
 20
10.8927036556
 30
0.0
 10
10.266384572
 20
10.9077968918
 30
0.0
 10
10.2634946434
 20
10.9153836333
 30
0.0
  0
SPLINE
  5
2E9
100
AcDbEntity
  8
0
100
AcDbSpline
 62
9
  6
CONTINUOUS
 70
0
 71
3
 72
25
 73
21
 74
0
 42
0.0000001
 43
0.0000001
 44
0.0000000001
 40
0.0
 40
0.0
 40
0.0
 40
0.0
 40
0.0526140319
 40
0.103738779
 40
0.1538213663
 40
0.2029856163
 40
0.2986376845
 40
0.3905304612
 40
0.4781892944
 40
0.5610511094
 40
0.6385240046
 40
0.7099577368
 40
0.7747140623
 40
0.8322648481
 40
0.8821069441
 40
0.9237275893
 40
0.9566478182
 40
0.9805327499
 40
0.9950832645
 40
1.0
 40
1.0
 40
1.0
 40
1.0
 10
10.2634946434
 20
10.9153836333
 30
0.0
 10
10.2606042939
 20
10.9229714799
 30
0.0
 10
10.2552654511
 20
10.9380710879
 30
0.0
 10
10.2481748821
 20
10.9607287362
 30
0.0
 10
10.2417217289
 20
10.9830210828
 30
0.0
 10
10.2338701674
 20
11.012057376
 30
0.0
 10
10.2250602421
 20
11.0475131214
 30
0.0
 10
10.2155719453
 20
11.0889120733
 30
0.0
 10
10.2070279984
 20
11.1284985834
 30
0.0
 10
10.1993247048
 20
11.1659875362
 30
0.0
 10
10.1923626433
 20
11.2010714673
 30
0.0
 10
10.18610841
 20
11.2334466919
 30
0.0
 10
10.180526995
 20
11.2628203508
 30
0.0
 10
10.1756223464
 20
11.2889307614
 30
0.0
 10
10.1713952261
 20
11.3115355416
 30
0.0
 10
10.1678588054
 20
11.3304024757
 30
0.0
 10
10.1650183617
 20
11.3453241974
 30
0.0
 10
10.1629269747
 20
11.3561358068
 30
0.0
 10
10.1616398256
 20
11.3627011941
 30
0.0
 10
10.1610535675
 20
11.3656477362
 30
0.0
 10
10.1609048751
 20
11.366391804
 30
0.0
  0
ENDSEC
  0
SECTION
  2
OBJECTS
  0
DICTIONARY
  5
C
100
AcDbDictionary
280
0
281
1
  3
ACAD_GROUP
350
D
  3
ACAD_MLINESTYLE
350
17
  3
ACAD_LAYOUT
350
1A
  3
ACAD_PLOTSETTINGS
350
19
  3
ACAD_PLOTSTYLENAME
350
E
  0
DICTIONARY
  5
D
102
{ACAD_REACTORS
330
C
102
}
100
AcDbDictionary
280
0
281
1
  0
ACDBDICTIONARYWDFLT
  5
E
102
{ACAD_REACTORS
330
C
102
}
100
AcDbDictionary
281
1
  3
Normal
350
F
100
AcDbDictionaryWithDefault
340
F
  0
DICTIONARY
  5
17
102
{ACAD_REACTORS
330
C
102
}
100
AcDbDictionary
280
0
281
1
  3
Standard
350
18
  0
DICTIONARY
  5
19
102
{ACAD_REACTORS
330
C
102
}
100
AcDbDictionary
281
1
  0
DICTIONARY
  5
1A
102
{ACAD_REACTORS
330
C
102
}
100
AcDbDictionary
281
1
  3
Model
350
2EA
  3
Layout1
350
2EB
  0
ACDBPLACEHOLDER
  5
F
102
{ACAD_REACTORS
330
E
102
}
  0
MLINESTYLE
  5
18
102
{ACAD_REACTORS
330
17
102
}
100
AcDbMlineStyle
  2
STANDARD
 70
0
  3

 62
256
 51
90.0
 52
90.0
 71
2
 49
0.5
 62
256
  6
BYLAYER
 49
-0.5
 62
256
  6
BYLAYER
  0
LAYOUT
  5
2EA
102
{ACAD_REACTORS
330
1A
102
}
100
AcDbPlotSettings
  1

  2
none_device
  4
ANSI_C_(22.00_x_17.00_Inches)
  6

 40
0.0
 41
0.0
 42
0.0
 43
0.0
 44
558.8
 45
431.8
 46
0.0
 47
0.0
 48
0.0
 49
0.0
140
0.0
141
0.0
142
1.0
143
1.0
 70
1024
 72
0
 73
0
 74
0
  7

 75
0
147
1.0
148
0.0
149
0.0
100
AcDbLayout
  1
Model
 70
0
 71
0
 10
0.0
 20
0.0
 11
22.0
 21
17.0
 12
0.0
 22
0.0
 32
0.0
 14
0.0
 24
0.0
 34
0.0
 15
0.0
 25
0.0
 35
0.0
146
0.0
 13
0.0
 23
0.0
 33
0.0
 16
1.0
 26
0.0
 36
0.0
 17
0.0
 27
1.0
 37
0.0
 76
0
330
202
345
0
346
0
  0
LAYOUT
  5
2EB
102
{ACAD_REACTORS
330
1A
102
}
100
AcDbPlotSettings
  1

  2
none_device
  4
ANSI_C_(22.00_x_17.00_Inches)
  6

 40
0.0
 41
0.0
 42
0.0
 43
0.0
 44
558.8
 45
431.8
 46
0.0
 47
0.0
 48
0.0
 49
0.0
140
0.0
141
0.0
142
1.0
143
1.0
 70
0
 72
0
 73
0
 74
0
  7

 75
0
147
1.0
148
0.0
149
0.0
100
AcDbLayout
  1
Layout1
 70
0
 71
1
 10
0.0
 20
0.0
 11
22.0
 21
17.0
 12
0.0
 22
0.0
 32
0.0
 14
0.0
 24
0.0
 34
0.0
 15
0.0
 25
0.0
 35
0.0
146
0.0
 13
0.0
 23
0.0
 33
0.0
 16
1.0
 26
0.0
 36
0.0
 17
0.0
 27
1.0
 37
0.0
 76
0
330
203
345
0
346
0
  0
ENDSEC
  0
EOF
