999
DXF file: 2470-5313_right.dxf
999
Pro/ENGINEER 2018400 by Parametric Technology Corporation
  0
SECTION
  2
HEADER
  9
$ACADVER
  1
AC1027
  9
$DWGCODEPAGE
  3
ANSI_1252
  9
$EXTMAX
 10
11.0
 20
8.5
 30
0.0
  9
$EXTMIN
 10
0.0
 20
0.0
 30
0.0
  9
$LIMMIN
 10
0.0
 20
0.0
  9
$LIMMAX
 10
11.0
 20
8.5
  9
$VIEWCTR
 10
5.5
 20
4.25
  9
$VIEWSIZE
 40
8.5
  9
$CLAYER
  8
0
  9
$LTSCALE
 40
0.605
  9
$CELTYPE
  6
BYLAYER
  9
$DIMSCALE
 40
1.0
  9
$DIMASZ
 40
0.1
  9
$DIMEXO
 40
0.0625
  9
$DIMDLI
 40
0.418
  9
$DIMEXE
 40
0.125
  9
$DIMCEN
 40
0.099
  9
$DIMLFAC
 40
1.0
  9
$DIMBLK
  1
_FILLED
  9
$DIMALT
 70
1
  9
$DIMALTD
 70
2
  9
$DIMALTTD
 70
2
  9
$DIMALTF
 40
25.4
  9
$DIMTXT
 40
0.08
  9
$DIMTOL
 70
1
  9
$DIMLIM
 70
0
  9
$DIMTFAC
 40
1.0
  9
$DIMTP
 40
0.001
  9
$DIMTM
 40
0.001
  9
$DIMGAP
 40
0.09
  9
$DIMDSEP
 70
46
  9
$AUNITS
 70
0
  9
$PDMODE
 70
3
  9
$PDSIZE
 40
0.3125
  9
$HANDSEED
  5
5A2
  9
$TILEMODE
 70
1
  9
$MEASUREMENT
 70
0
  9
$INSUNITS
 70
1
  0
ENDSEC
  0
SECTION
  2
CLASSES
  0
CLASS
  1
ACDBDICTIONARYWDFLT
  2
AcDbDictionaryWithDefault
  3
AutoCAD 2000
 90
0
 91
1
280
0
281
0
  0
CLASS
  1
ACDBPLACEHOLDER
  2
AcDbPlaceHolder
  3
AutoCAD 2000
 90
0
 91
1
280
0
281
0
  0
CLASS
  1
LAYOUT
  2
AcDbLayout
  3
AutoCAD 2000
 90
0
 91
0
280
0
281
0
  0
ENDSEC
  0
SECTION
  2
TABLES
  0
TABLE
  2
VPORT
  5
8
100
AcDbSymbolTable
 70
2
  0
VPORT
  5
1F4
100
AcDbSymbolTableRecord
100
AcDbViewportTableRecord
  2
*ACTIVE
 70
0
 10
0.0
 20
0.0
 11
1.0
 21
1.0
 12
5.5
 22
4.25
 13
0.0
 23
0.0
 14
1.0
 24
1.0
 15
0.0
 25
0.0
 16
0.0
 26
0.0
 36
1.0
 17
0.0
 27
0.0
 37
0.0
 40
8.5
 41
1.2941176471
 42
50.0
 43
0.0
 44
0.0
 50
0.0
 51
0.0
 71
0
 72
100
 73
1
 74
1
 75
0
 76
0
 77
0
 78
0
  0
ENDTAB
  0
TABLE
  2
LTYPE
  5
5
100
AcDbSymbolTable
 70
6
  0
LTYPE
  5
14
100
AcDbSymbolTableRecord
100
AcDbLinetypeTableRecord
  2
BYBLOCK
 70
0
  3

 72
65
 73
0
 40
0.0
  0
LTYPE
  5
15
100
AcDbSymbolTableRecord
100
AcDbLinetypeTableRecord
  2
BYLAYER
 70
0
  3

 72
65
 73
0
 40
0.0
  0
LTYPE
  5
16
100
AcDbSymbolTableRecord
100
AcDbLinetypeTableRecord
  2
CONTINUOUS
 70
64
  3
Solid line
 72
65
 73
0
 40
0.0
  0
LTYPE
  5
1F5
100
AcDbSymbolTableRecord
100
AcDbLinetypeTableRecord
  2
CENTER
 70
64
  3
____ _ ____ _ ____ _ ____ _ ____ _ ____ _ ____
 72
65
 73
4
 40
0.6
 49
0.375
 74
0
 49
-0.075
 74
0
 49
0.075
 74
0
 49
-0.075
 74
0
  0
LTYPE
  5
1F6
100
AcDbSymbolTableRecord
100
AcDbLinetypeTableRecord
  2
HIDDEN
 70
64
  3
- - - - - - - - - - - - - - - - - - - -
 72
65
 73
2
 40
0.2
 49
0.1
 74
0
 49
-0.1
 74
0
  0
LTYPE
  5
1F7
100
AcDbSymbolTableRecord
100
AcDbLinetypeTableRecord
  2
PHANTOM
 70
64
  3
_____ _ _ _____ _ _ _____ _ _ _____
 72
65
 73
6
 40
0.8
 49
0.45
 74
0
 49
-0.05
 74
0
 49
0.1
 74
0
 49
-0.05
 74
0
 49
0.1
 74
0
 49
-0.05
 74
0
  0
LTYPE
  5
1F8
100
AcDbSymbolTableRecord
100
AcDbLinetypeTableRecord
  2
DOT
 70
64
  3
. . . . . . . . . . . . . . . . . . . .
 72
65
 73
2
 40
0.2
 49
0.1
 74
0
 49
-0.1
 74
0
  0
LTYPE
  5
1F9
100
AcDbSymbolTableRecord
100
AcDbLinetypeTableRecord
  2
DASHED
 70
64
  3
- - - - - - - - - - - - - - - - - - - -
 72
65
 73
2
 40
0.2
 49
0.1
 74
0
 49
-0.1
 74
0
  0
ENDTAB
  0
TABLE
  2
LAYER
  5
2
100
AcDbSymbolTable
 70
36
  0
LAYER
  5
10
100
AcDbSymbolTableRecord
100
AcDbLayerTableRecord
  2
0
 70
0
 62
7
  6
CONTINUOUS
370
-3
390
F
  0
LAYER
  5
1FA
100
AcDbSymbolTableRecord
100
AcDbLayerTableRecord
  2
DEFAULT_1
 70
0
 62
7
  6
CENTER
370
-3
390
F
  0
LAYER
  5
1FB
100
AcDbSymbolTableRecord
100
AcDbLayerTableRecord
  2
DEFAULT_2
 70
0
 62
8
  6
HIDDEN
370
-3
390
F
  0
LAYER
  5
1FC
100
AcDbSymbolTableRecord
100
AcDbLayerTableRecord
  2
DEFAULT_3
 70
0
 62
7
  6
PHANTOM
370
-3
390
F
  0
LAYER
  5
1FD
100
AcDbSymbolTableRecord
100
AcDbLayerTableRecord
  2
11719
 70
0
 62
7
  6
CONTINUOUS
370
-3
390
F
  0
LAYER
  5
1FE
100
AcDbSymbolTableRecord
100
AcDbLayerTableRecord
  2
11720
 70
0
 62
7
  6
CONTINUOUS
370
-3
390
F
  0
LAYER
  5
1FF
100
AcDbSymbolTableRecord
100
AcDbLayerTableRecord
  2
11721
 70
0
 62
7
  6
CONTINUOUS
370
-3
390
F
  0
LAYER
  5
200
100
AcDbSymbolTableRecord
100
AcDbLayerTableRecord
  2
11802
 70
0
 62
7
  6
CONTINUOUS
370
-3
390
F
  0
LAYER
  5
201
100
AcDbSymbolTableRecord
100
AcDbLayerTableRecord
  2
11803
 70
0
 62
7
  6
CONTINUOUS
370
-3
390
F
  0
LAYER
  5
202
100
AcDbSymbolTableRecord
100
AcDbLayerTableRecord
  2
11804
 70
0
 62
7
  6
CONTINUOUS
370
-3
390
F
  0
LAYER
  5
203
100
AcDbSymbolTableRecord
100
AcDbLayerTableRecord
  2
11830
 70
0
 62
7
  6
CONTINUOUS
370
-3
390
F
  0
LAYER
  5
204
100
AcDbSymbolTableRecord
100
AcDbLayerTableRecord
  2
11837
 70
0
 62
7
  6
CONTINUOUS
370
-3
390
F
  0
LAYER
  5
205
100
AcDbSymbolTableRecord
100
AcDbLayerTableRecord
  2
11852
 70
0
 62
7
  6
CONTINUOUS
370
-3
390
F
  0
LAYER
  5
206
100
AcDbSymbolTableRecord
100
AcDbLayerTableRecord
  2
11853
 70
0
 62
7
  6
CONTINUOUS
370
-3
390
F
  0
LAYER
  5
207
100
AcDbSymbolTableRecord
100
AcDbLayerTableRecord
  2
11855
 70
0
 62
7
  6
CONTINUOUS
370
-3
390
F
  0
LAYER
  5
208
100
AcDbSymbolTableRecord
100
AcDbLayerTableRecord
  2
11923
 70
0
 62
7
  6
CONTINUOUS
370
-3
390
F
  0
LAYER
  5
209
100
AcDbSymbolTableRecord
100
AcDbLayerTableRecord
  2
12020
 70
0
 62
7
  6
CONTINUOUS
370
-3
390
F
  0
LAYER
  5
20A
100
AcDbSymbolTableRecord
100
AcDbLayerTableRecord
  2
12835
 70
0
 62
7
  6
CONTINUOUS
370
-3
390
F
  0
LAYER
  5
20B
100
AcDbSymbolTableRecord
100
AcDbLayerTableRecord
  2
12846
 70
0
 62
7
  6
CONTINUOUS
370
-3
390
F
  0
LAYER
  5
20C
100
AcDbSymbolTableRecord
100
AcDbLayerTableRecord
  2
13374
 70
0
 62
7
  6
CONTINUOUS
370
-3
390
F
  0
LAYER
  5
20D
100
AcDbSymbolTableRecord
100
AcDbLayerTableRecord
  2
13377
 70
0
 62
7
  6
CONTINUOUS
370
-3
390
F
  0
LAYER
  5
20E
100
AcDbSymbolTableRecord
100
AcDbLayerTableRecord
  2
2-708
 70
0
 62
7
  6
CONTINUOUS
370
-3
390
F
  0
LAYER
  5
20F
100
AcDbSymbolTableRecord
100
AcDbLayerTableRecord
  2
2-735
 70
0
 62
7
  6
CONTINUOUS
370
-3
390
F
  0
LAYER
  5
210
100
AcDbSymbolTableRecord
100
AcDbLayerTableRecord
  2
2-746
 70
0
 62
7
  6
CONTINUOUS
370
-3
390
F
  0
LAYER
  5
211
100
AcDbSymbolTableRecord
100
AcDbLayerTableRecord
  2
2-778
 70
0
 62
7
  6
CONTINUOUS
370
-3
390
F
  0
LAYER
  5
212
100
AcDbSymbolTableRecord
100
AcDbLayerTableRecord
  2
2-783
 70
0
 62
7
  6
CONTINUOUS
370
-3
390
F
  0
LAYER
  5
213
100
AcDbSymbolTableRecord
100
AcDbLayerTableRecord
  2
2-786
 70
0
 62
7
  6
CONTINUOUS
370
-3
390
F
  0
LAYER
  5
214
100
AcDbSymbolTableRecord
100
AcDbLayerTableRecord
  2
2-788
 70
0
 62
7
  6
CONTINUOUS
370
-3
390
F
  0
LAYER
  5
215
100
AcDbSymbolTableRecord
100
AcDbLayerTableRecord
  2
2-800
 70
0
 62
7
  6
CONTINUOUS
370
-3
390
F
  0
LAYER
  5
216
100
AcDbSymbolTableRecord
100
AcDbLayerTableRecord
  2
20-314
 70
0
 62
7
  6
CONTINUOUS
370
-3
390
F
  0
LAYER
  5
217
100
AcDbSymbolTableRecord
100
AcDbLayerTableRecord
  2
2470-5703
 70
0
 62
7
  6
CONTINUOUS
370
-3
390
F
  0
LAYER
  5
218
100
AcDbSymbolTableRecord
100
AcDbLayerTableRecord
  2
91049
 70
0
 62
7
  6
CONTINUOUS
370
-3
390
F
  0
LAYER
  5
219
100
AcDbSymbolTableRecord
100
AcDbLayerTableRecord
  2
91114
 70
0
 62
7
  6
CONTINUOUS
370
-3
390
F
  0
LAYER
  5
21A
100
AcDbSymbolTableRecord
100
AcDbLayerTableRecord
  2
91353
 70
0
 62
7
  6
CONTINUOUS
370
-3
390
F
  0
LAYER
  5
21B
100
AcDbSymbolTableRecord
100
AcDbLayerTableRecord
  2
91543
 70
0
 62
7
  6
CONTINUOUS
370
-3
390
F
  0
LAYER
  5
21C
100
AcDbSymbolTableRecord
100
AcDbLayerTableRecord
  2
91791
 70
0
 62
7
  6
CONTINUOUS
370
-3
390
F
  0
LAYER
  5
21D
100
AcDbSymbolTableRecord
100
AcDbLayerTableRecord
  2
92005
 70
0
 62
7
  6
CONTINUOUS
370
-3
390
F
  0
LAYER
  5
21E
100
AcDbSymbolTableRecord
100
AcDbLayerTableRecord
  2
ALL_ASSEMBLY_MEMBERS
 70
0
 62
7
  6
CONTINUOUS
370
-3
390
F
  0
LAYER
  5
21F
100
AcDbSymbolTableRecord
100
AcDbLayerTableRecord
  2
ALL_ASSEMBLY_MEMBERS_1
 70
0
 62
7
  6
CONTINUOUS
370
-3
390
F
  0
LAYER
  5
220
100
AcDbSymbolTableRecord
100
AcDbLayerTableRecord
  2
ALL_ASSEMBLY_MEMBERS_2
 70
0
 62
7
  6
CONTINUOUS
370
-3
390
F
  0
LAYER
  5
221
100
AcDbSymbolTableRecord
100
AcDbLayerTableRecord
  2
COLOR131
 70
0
 62
7
  6
CONTINUOUS
370
-3
390
F
  0
LAYER
  5
222
100
AcDbSymbolTableRecord
100
AcDbLayerTableRecord
  2
COLOR147
 70
0
 62
7
  6
CONTINUOUS
370
-3
390
F
  0
LAYER
  5
223
100
AcDbSymbolTableRecord
100
AcDbLayerTableRecord
  2
COLOR148
 70
0
 62
7
  6
CONTINUOUS
370
-3
390
F
  0
LAYER
  5
224
100
AcDbSymbolTableRecord
100
AcDbLayerTableRecord
  2
COLOR149
 70
0
 62
7
  6
CONTINUOUS
370
-3
390
F
  0
LAYER
  5
225
100
AcDbSymbolTableRecord
100
AcDbLayerTableRecord
  2
COLOR150
 70
0
 62
7
  6
CONTINUOUS
370
-3
390
F
  0
LAYER
  5
226
100
AcDbSymbolTableRecord
100
AcDbLayerTableRecord
  2
COLOR152
 70
0
 62
7
  6
CONTINUOUS
370
-3
390
F
  0
LAYER
  5
227
100
AcDbSymbolTableRecord
100
AcDbLayerTableRecord
  2
COLOR153
 70
0
 62
7
  6
CONTINUOUS
370
-3
390
F
  0
LAYER
  5
228
100
AcDbSymbolTableRecord
100
AcDbLayerTableRecord
  2
COLOR48
 70
0
 62
7
  6
CONTINUOUS
370
-3
390
F
  0
LAYER
  5
229
100
AcDbSymbolTableRecord
100
AcDbLayerTableRecord
  2
COLOR67
 70
0
 62
7
  6
CONTINUOUS
370
-3
390
F
  0
LAYER
  5
22A
100
AcDbSymbolTableRecord
100
AcDbLayerTableRecord
  2
INTF_CYAN
 70
0
 62
7
  6
CONTINUOUS
370
-3
390
F
  0
LAYER
  5
22B
100
AcDbSymbolTableRecord
100
AcDbLayerTableRecord
  2
NONE
 70
0
 62
7
  6
CONTINUOUS
370
-3
390
F
  0
ENDTAB
  0
TABLE
  2
STYLE
  5
3
100
AcDbSymbolTable
 70
1
  0
STYLE
  5
11
100
AcDbSymbolTableRecord
100
AcDbTextStyleTableRecord
  2
STANDARD
 70
0
 40
0.0
 41
0.8
 50
0.0
 71
0
 42
0.2
  3
txt
  4

  0
STYLE
  5
22C
100
AcDbSymbolTableRecord
100
AcDbTextStyleTableRecord
  2
TEXTSTYLE_1
 70
0
 40
0.0
 41
0.8
 50
0.0
 71
0
 42
0.2
  3
gdt
  4

  0
ENDTAB
  0
TABLE
  2
VIEW
  5
6
100
AcDbSymbolTable
 70
0
  0
ENDTAB
  0
TABLE
  2
UCS
  5
7
100
AcDbSymbolTable
 70
0
  0
ENDTAB
  0
TABLE
  2
APPID
  5
9
100
AcDbSymbolTable
 70
1
  0
APPID
  5
22D
100
AcDbSymbolTableRecord
100
AcDbRegAppTableRecord
  2
ACAD
 70
0
  0
ENDTAB
  0
TABLE
  2
BLOCK_RECORD
  5
1
100
AcDbSymbolTable
 70
0
  0
BLOCK_RECORD
  5
22E
100
AcDbSymbolTableRecord
100
AcDbBlockTableRecord
  2
*Model_Space
  0
BLOCK_RECORD
  5
22F
100
AcDbSymbolTableRecord
100
AcDbBlockTableRecord
  2
*Paper_Space
  0
BLOCK_RECORD
  5
230
100
AcDbSymbolTableRecord
100
AcDbBlockTableRecord
  2
_FILLED
  0
ENDTAB
  0
TABLE
  2
DIMSTYLE
  5
A
100
AcDbSymbolTable
 70
1
100
AcDbDimStyleTable
 71
0
  0
DIMSTYLE
105
231
100
AcDbSymbolTableRecord
100
AcDbDimStyleTableRecord
  2
STANDARD
 70
0
  3

  4

 40
1.0
 41
0.1
 42
0.0625
 43
0.38
 44
0.125
 45
0.0
 46
0.0
 47
0.001
 48
0.001
140
0.08
141
0.09
142
0.0
143
25.4
144
1.0
145
0.0
146
1.0
147
0.09
 71
1.0
 72
0.0
 73
1
 74
1
 75
0
 76
0
 77
0
 78
4
 79
1
170
1
171
2
172
0
173
0
174
0
175
0
176
0
177
0
178
0
270
2
179
3
271
3
272
3
273
2
274
2
275
0
280
0
281
0
282
0
283
1
284
4
285
0
286
0
287
3
288
0
340
11
278
46
341
230
342
230
343
230
344
230
  0
ENDTAB
  0
ENDSEC
  0
SECTION
  2
BLOCKS
  0
BLOCK
  5
20
100
AcDbEntity
  8
0
100
AcDbBlockBegin
  2
*Model_Space
 70
0
 10
0.0
 20
0.0
 30
0.0
  3
*Model_Space
  1

  0
ENDBLK
  5
21
100
AcDbEntity
  8
0
100
AcDbBlockEnd
  0
BLOCK
  5
1C
100
AcDbEntity
  8
0
100
AcDbBlockBegin
  2
*Paper_Space
 70
0
 10
0.0
 20
0.0
 30
0.0
  3
*Paper_Space
  1

  0
ENDBLK
  5
1D
100
AcDbEntity
  8
0
100
AcDbBlockEnd
  0
BLOCK
  5
232
100
AcDbEntity
  8
0
100
AcDbBlockBegin
  2
_FILLED
 70
64
 10
0.0
 20
0.0
  3
_FILLED
  1

  0
SOLID
  5
233
100
AcDbEntity
  8
0
  6
BYBLOCK
 62
0
100
AcDbTrace
 10
0.0
 20
0.0
 11
-1.0
 21
0.2
 12
-1.0
 22
-0.2
 13
-1.0
 23
-0.2
  0
ENDBLK
  5
234
100
AcDbEntity
  8
0
  6
BYBLOCK
 62
0
100
AcDbBlockEnd
  0
ENDSEC
  0
SECTION
  2
ENTITIES
  0
MTEXT
  5
235
100
AcDbEntity
  8
0
100
AcDbMText
 62
2
  6
CONTINUOUS
  7
STANDARD
 71
3
 72
1
 10
5.5573629705
 20
1.0805081939
 30
0.0
 11
1.0
 21
0.0
 31
0.0
 73
2
 44
0.9
  1
SCALE  .500
 40
0.08
 41
0.704
  0
LINE
  5
236
100
AcDbEntity
  8
0
100
AcDbLine
 62
7
  6
CONTINUOUS
 10
0.0
 20
0.0
 11
0.0
 21
8.5
  0
LINE
  5
237
100
AcDbEntity
  8
0
100
AcDbLine
 62
7
  6
CONTINUOUS
 10
0.0
 20
0.0
 11
11.0
 21
0.0
  0
LINE
  5
238
100
AcDbEntity
  8
0
100
AcDbLine
 62
7
  6
CONTINUOUS
 10
0.0
 20
8.5
 11
11.0
 21
8.5
  0
LINE
  5
239
100
AcDbEntity
  8
0
100
AcDbLine
 62
7
  6
CONTINUOUS
 10
11.0
 20
0.0
 11
11.0
 21
8.5
  0
LINE
  5
23A
100
AcDbEntity
  8
0
100
AcDbLine
 62
7
  6
CONTINUOUS
 10
2.6003858028
 20
5.7350899583
 11
2.6161281731
 21
5.5551538417
  0
LINE
  5
23B
100
AcDbEntity
  8
0
100
AcDbLine
 62
7
  6
CONTINUOUS
 10
2.6481182447
 20
5.9650968301
 11
2.6481182447
 21
5.8499383181
  0
LINE
  5
23C
100
AcDbEntity
  8
0
100
AcDbLine
 62
7
  6
CONTINUOUS
 10
6.8792943322
 20
1.8809045743
 11
6.8842374396
 21
1.8815246957
  0
LINE
  5
23D
100
AcDbEntity
  8
0
100
AcDbLine
 62
7
  6
CONTINUOUS
 10
8.0154722548
 20
1.6029383181
 11
6.7701070485
 21
1.6029383181
  0
LINE
  5
23E
100
AcDbEntity
  8
0
100
AcDbLine
 62
7
  6
CONTINUOUS
 10
6.8161010542
 20
1.6189509764
 11
7.9694782492
 21
1.6189509764
  0
LINE
  5
23F
100
AcDbEntity
  8
0
100
AcDbLine
 62
7
  6
CONTINUOUS
 10
6.7576791823
 20
1.6263376122
 11
6.8227013698
 21
1.6263376122
  0
LINE
  5
240
100
AcDbEntity
  8
0
100
AcDbLine
 62
7
  6
CONTINUOUS
 10
7.9628779335
 20
1.6263376122
 11
8.027900121
 21
1.6263376122
  0
LINE
  5
241
100
AcDbEntity
  8
0
100
AcDbLine
 62
7
  6
CONTINUOUS
 10
6.8526172315
 20
1.6598174618
 11
7.9329620719
 21
1.6598174618
  0
LINE
  5
242
100
AcDbEntity
  8
0
100
AcDbLine
 62
7
  6
CONTINUOUS
 10
7.9281377462
 20
1.681788936
 11
6.8574415572
 21
1.681788936
  0
LINE
  5
243
100
AcDbEntity
  8
0
100
AcDbLine
 62
7
  6
CONTINUOUS
 10
6.8591930646
 20
1.6941321472
 11
7.9263862388
 21
1.6941321472
  0
LINE
  5
244
100
AcDbEntity
  8
0
100
AcDbLine
 62
7
  6
CONTINUOUS
 10
7.9280396518
 20
1.7344383176
 11
7.9019853003
 21
1.7344383176
  0
LINE
  5
245
100
AcDbEntity
  8
0
100
AcDbLine
 62
7
  6
CONTINUOUS
 10
6.8835940031
 20
1.7344383176
 11
6.8575396516
 21
1.7344383176
  0
LINE
  5
246
100
AcDbEntity
  8
0
100
AcDbLine
 62
7
  6
CONTINUOUS
 10
7.889173933
 20
1.7556005017
 11
6.8964053704
 21
1.7556005017
  0
LINE
  5
247
100
AcDbEntity
  8
0
100
AcDbLine
 62
7
  6
CONTINUOUS
 10
7.8777896517
 20
1.7629383181
 11
6.9080851006
 21
1.7629383181
  0
LINE
  5
248
100
AcDbEntity
  8
0
100
AcDbLine
 62
7
  6
CONTINUOUS
 10
7.9471170857
 20
1.7673144449
 11
7.8593737161
 21
1.7673144449
  0
LINE
  5
249
100
AcDbEntity
  8
0
100
AcDbLine
 62
7
  6
CONTINUOUS
 10
6.9262055873
 20
1.7673144449
 11
6.8384622177
 21
1.7673144449
  0
LINE
  5
24A
100
AcDbEntity
  8
0
100
AcDbLine
 62
7
  6
CONTINUOUS
 10
7.8564361623
 20
1.7703928185
 11
6.9291431411
 21
1.7703928185
  0
LINE
  5
24B
100
AcDbEntity
  8
0
100
AcDbLine
 62
7
  6
CONTINUOUS
 10
3.1308506866
 20
5.7350899583
 11
3.1151083163
 21
5.5551538417
  0
LINE
  5
24C
100
AcDbEntity
  8
0
100
AcDbLine
 62
7
  6
CONTINUOUS
 10
7.9281019895
 20
1.8579828758
 11
7.7757510989
 21
1.8579828758
  0
LINE
  5
24D
100
AcDbEntity
  8
0
100
AcDbLine
 62
7
  6
CONTINUOUS
 10
7.0098282045
 20
1.8579828758
 11
6.8574773138
 21
1.8579828758
  0
LINE
  5
24E
100
AcDbEntity
  8
0
100
AcDbLine
 62
7
  6
CONTINUOUS
 10
6.8792943322
 20
1.8809045743
 11
7.0365941286
 21
1.8809045743
  0
LINE
  5
24F
100
AcDbEntity
  8
0
100
AcDbLine
 62
7
  6
CONTINUOUS
 10
7.7489851748
 20
1.8809045743
 11
7.9062849712
 21
1.8809045743
  0
LINE
  5
250
100
AcDbEntity
  8
0
100
AcDbLine
 62
7
  6
CONTINUOUS
 10
6.8842374396
 20
1.8815246957
 11
7.0373377185
 21
1.8815246957
  0
LINE
  5
251
100
AcDbEntity
  8
0
100
AcDbLine
 62
7
  6
CONTINUOUS
 10
7.7482415848
 20
1.8815246957
 11
7.9013418638
 21
1.8815246957
  0
LINE
  5
252
100
AcDbEntity
  8
0
100
AcDbLine
 62
7
  6
CONTINUOUS
 10
7.0381592267
 20
1.8822097975
 11
7.7474200767
 21
1.8822097975
  0
LINE
  5
253
100
AcDbEntity
  8
0
100
AcDbLine
 62
7
  6
CONTINUOUS
 10
7.721591324
 20
1.9289108755
 11
7.0639879794
 21
1.9289108755
  0
LINE
  5
254
100
AcDbEntity
  8
0
100
AcDbLine
 62
7
  6
CONTINUOUS
 10
7.6912893798
 20
1.9559383181
 11
7.0942899235
 21
1.9559383181
  0
LINE
  5
255
100
AcDbEntity
  8
0
100
AcDbLine
 62
6
  6
CONTINUOUS
 10
7.6800396517
 20
1.9684383181
 11
7.1055396517
 21
1.9684383181
  0
LINE
  5
256
100
AcDbEntity
  8
0
100
AcDbLine
 62
6
  6
CONTINUOUS
 10
7.706005841
 20
2.0002304831
 11
7.0795734623
 21
2.0002304831
  0
LINE
  5
257
100
AcDbEntity
  8
0
100
AcDbLine
 62
6
  6
CONTINUOUS
 10
7.0868198182
 20
2.0163116299
 11
7.6987594852
 21
2.0163116299
  0
LINE
  5
258
100
AcDbEntity
  8
0
100
AcDbLine
 62
7
  6
CONTINUOUS
 10
3.0831182447
 20
5.8499383181
 11
3.0831182447
 21
5.9650968301
  0
LINE
  5
259
100
AcDbEntity
  8
0
100
AcDbLine
 62
7
  6
CONTINUOUS
 10
4.1643573613
 20
6.9497540256
 11
3.9874269216
 21
6.5523617515
  0
LINE
  5
25A
100
AcDbEntity
  8
0
100
AcDbLine
 62
6
  6
CONTINUOUS
 10
7.1120839013
 20
2.0792218983
 11
7.673495402
 21
2.0792218983
  0
LINE
  5
25B
100
AcDbEntity
  8
0
100
AcDbLine
 62
7
  6
CONTINUOUS
 10
6.9895947052
 20
2.1124048123
 11
7.1156470595
 21
2.1124048123
  0
LINE
  5
25C
100
AcDbEntity
  8
0
100
AcDbLine
 62
7
  6
CONTINUOUS
 10
7.6699322439
 20
2.1124048123
 11
7.7959845981
 21
2.1124048123
  0
LINE
  5
25D
100
AcDbEntity
  8
0
100
AcDbLine
 62
7
  6
CONTINUOUS
 10
7.7962034338
 20
2.1354399309
 11
7.6674587489
 21
2.1354399309
  0
LINE
  5
25E
100
AcDbEntity
  8
0
100
AcDbLine
 62
7
  6
CONTINUOUS
 10
7.1181205544
 20
2.1354399309
 11
6.9893758696
 21
2.1354399309
  0
LINE
  5
25F
100
AcDbEntity
  8
0
100
AcDbLine
 62
7
  6
CONTINUOUS
 10
7.0004947818
 20
2.1971395199
 11
7.1247458132
 21
2.1971395199
  0
LINE
  5
260
100
AcDbEntity
  8
0
100
AcDbLine
 62
7
  6
CONTINUOUS
 10
7.6608334901
 20
2.1971395199
 11
7.7850845216
 21
2.1971395199
  0
LINE
  5
261
100
AcDbEntity
  8
0
100
AcDbLine
 62
7
  6
CONTINUOUS
 10
7.7732152651
 20
2.2157351273
 11
7.6591793182
 21
2.2157351273
  0
LINE
  5
262
100
AcDbEntity
  8
0
100
AcDbLine
 62
7
  6
CONTINUOUS
 10
7.1263999852
 20
2.2157351273
 11
7.0123640383
 21
2.2157351273
  0
LINE
  5
263
100
AcDbEntity
  8
0
100
AcDbLine
 62
7
  6
CONTINUOUS
 10
7.9013418638
 20
1.8815246957
 11
7.9062849712
 21
1.8809045743
  0
LINE
  5
264
100
AcDbEntity
  8
0
100
AcDbLine
 62
7
  6
CONTINUOUS
 10
7.0205761594
 20
2.4731937922
 11
7.1442326566
 21
2.4731937922
  0
LINE
  5
265
100
AcDbEntity
  8
0
100
AcDbLine
 62
7
  6
CONTINUOUS
 10
7.6413466467
 20
2.4731937922
 11
7.765003144
 21
2.4731937922
  0
LINE
  5
266
100
AcDbEntity
  8
0
100
AcDbLine
 62
7
  6
CONTINUOUS
 10
7.7805666164
 20
2.511925715
 11
7.6397851575
 21
2.511925715
  0
LINE
  5
267
100
AcDbEntity
  8
0
100
AcDbLine
 62
7
  6
CONTINUOUS
 10
7.1457941459
 20
2.511925715
 11
7.005012687
 21
2.511925715
  0
LINE
  5
268
100
AcDbEntity
  8
0
100
AcDbLine
 62
7
  6
CONTINUOUS
 10
7.0170580149
 20
2.5706042619
 11
7.1480461747
 21
2.5706042619
  0
LINE
  5
269
100
AcDbEntity
  8
0
100
AcDbLine
 62
7
  6
CONTINUOUS
 10
7.6375331287
 20
2.5706042619
 11
7.7685212885
 21
2.5706042619
  0
LINE
  5
26A
100
AcDbEntity
  8
0
100
AcDbLine
 62
7
  6
CONTINUOUS
 10
7.7553743701
 20
2.5910297515
 11
7.6371640373
 21
2.5910297515
  0
LINE
  5
26B
100
AcDbEntity
  8
0
100
AcDbLine
 62
7
  6
CONTINUOUS
 10
7.148415266
 20
2.5910297515
 11
7.0302049332
 21
2.5910297515
  0
LINE
  5
26C
100
AcDbEntity
  8
0
100
AcDbLine
 62
7
  6
CONTINUOUS
 10
8.0664067368
 20
2.732740399
 11
8.0398063444
 21
2.7332047106
  0
LINE
  5
26D
100
AcDbEntity
  8
0
100
AcDbLine
 62
7
  6
CONTINUOUS
 10
8.0193664857
 20
2.8135770338
 11
8.0459668777
 21
2.8131127232
  0
LINE
  5
26E
100
AcDbEntity
  8
0
100
AcDbLine
 62
7
  6
CONTINUOUS
 10
7.739839565
 20
3.6148256273
 11
7.7177896517
 21
3.6105395584
  0
LINE
  5
26F
100
AcDbEntity
  8
0
100
AcDbLine
 62
7
  6
CONTINUOUS
 10
7.7177896517
 20
3.6461946427
 11
7.7373797534
 21
3.6500025727
  0
LINE
  5
270
100
AcDbEntity
  8
0
100
AcDbLine
 62
7
  6
CONTINUOUS
 10
7.733075083
 20
3.7115622271
 11
7.7177896517
 21
3.7085910403
  0
LINE
  5
271
100
AcDbEntity
  8
0
100
AcDbLine
 62
6
  6
CONTINUOUS
 10
7.1318787439
 20
3.1746670978
 11
7.6537005595
 21
3.1746670978
  0
LINE
  5
272
100
AcDbEntity
  8
0
100
AcDbLine
 62
6
  6
CONTINUOUS
 10
7.6794880823
 20
3.2306678282
 11
7.106091221
 21
3.2306678282
  0
LINE
  5
273
100
AcDbEntity
  8
0
100
AcDbLine
 62
6
  6
CONTINUOUS
 10
7.6585396517
 20
3.2809383181
 11
7.1270396517
 21
3.2809383181
  0
LINE
  5
274
100
AcDbEntity
  8
0
100
AcDbLine
 62
7
  6
CONTINUOUS
 10
7.1319637671
 20
3.2960950317
 11
7.6536155363
 21
3.2960950317
  0
LINE
  5
275
100
AcDbEntity
  8
0
100
AcDbLine
 62
7
  6
CONTINUOUS
 10
7.7177896517
 20
3.8779526908
 11
7.7213909777
 21
3.8786527176
  0
LINE
  5
276
100
AcDbEntity
  8
0
100
AcDbLine
 62
7
  6
CONTINUOUS
 10
6.7422812892
 20
3.6026188361
 11
6.7403317299
 21
3.6024808164
  0
LINE
  5
277
100
AcDbEntity
  8
0
100
AcDbLine
 62
7
  6
CONTINUOUS
 10
7.7408597767
 20
3.6002359207
 11
7.7608110577
 21
3.6016310502
  0
LINE
  5
278
100
AcDbEntity
  8
0
100
AcDbLine
 62
7
  6
CONTINUOUS
 10
7.7791023308
 20
3.6948975033
 11
7.7990536118
 21
3.6962926328
  0
LINE
  5
279
100
AcDbEntity
  8
0
100
AcDbLine
 62
7
  6
CONTINUOUS
 10
7.7766232676
 20
3.7303497587
 11
7.7965745486
 21
3.7317448881
  0
LINE
  5
27A
100
AcDbEntity
  8
0
100
AcDbLine
 62
7
  6
CONTINUOUS
 10
7.7318285644
 20
3.7293882727
 11
7.7517798455
 21
3.7307834022
  0
LINE
  5
27B
100
AcDbEntity
  8
0
100
AcDbLine
 62
7
  6
CONTINUOUS
 10
6.7441918034
 20
3.6512254003
 11
6.7403317299
 21
3.6509750213
  0
LWPOLYLINE
  5
27C
100
AcDbEntity
  8
0
100
AcDbPolyline
 62
7
  6
CONTINUOUS
 90
3
 70
0
 10
7.6597435957
 20
3.4540693764
 10
7.6644698431
 20
3.4542080074
 10
7.7081329031
 20
3.4556038202
  0
LINE
  5
27D
100
AcDbEntity
  8
0
100
AcDbLine
 62
7
  6
CONTINUOUS
 10
7.1521138303
 20
3.343476833
 11
7.633465473
 21
3.343476833
  0
LINE
  5
27E
100
AcDbEntity
  8
0
100
AcDbLine
 62
7
  6
CONTINUOUS
 10
7.6485474397
 20
3.4079112075
 11
7.1370318636
 21
3.4079112075
  0
LINE
  5
27F
100
AcDbEntity
  8
0
100
AcDbLine
 62
7
  6
CONTINUOUS
 10
6.8808802029
 20
3.4123299318
 11
7.0083802029
 21
3.4123299318
  0
LINE
  5
280
100
AcDbEntity
  8
0
100
AcDbLine
 62
7
  6
CONTINUOUS
 10
7.0083802029
 20
3.4129850291
 11
6.8808802029
 21
3.4129850291
  0
LINE
  5
281
100
AcDbEntity
  8
0
100
AcDbLine
 62
7
  6
CONTINUOUS
 10
7.0083802029
 20
3.4145180251
 11
6.8808802029
 21
3.4145180251
  0
LINE
  5
282
100
AcDbEntity
  8
0
100
AcDbLine
 62
7
  6
CONTINUOUS
 10
6.8808802029
 20
3.4148916695
 11
7.0083802029
 21
3.4148916695
  0
LINE
  5
283
100
AcDbEntity
  8
0
100
AcDbLine
 62
7
  6
CONTINUOUS
 10
7.0083802029
 20
3.4168497839
 11
6.8808802029
 21
3.4168497839
  0
LINE
  5
284
100
AcDbEntity
  8
0
100
AcDbLine
 62
7
  6
CONTINUOUS
 10
6.8808802029
 20
3.4173714515
 11
7.0083802029
 21
3.4173714515
  0
LINE
  5
285
100
AcDbEntity
  8
0
100
AcDbLine
 62
7
  6
CONTINUOUS
 10
7.0083802029
 20
3.4199739142
 11
6.8808802029
 21
3.4199739142
  0
LINE
  5
286
100
AcDbEntity
  8
0
100
AcDbLine
 62
7
  6
CONTINUOUS
 10
6.8808802029
 20
3.4206421752
 11
7.0083802029
 21
3.4206421752
  0
LINE
  5
287
100
AcDbEntity
  8
0
100
AcDbLine
 62
7
  6
CONTINUOUS
 10
7.0083802029
 20
3.4238818531
 11
6.8808802029
 21
3.4238818531
  0
LINE
  5
288
100
AcDbEntity
  8
0
100
AcDbLine
 62
7
  6
CONTINUOUS
 10
6.8808802029
 20
3.4246973526
 11
7.0083802029
 21
3.4246973526
  0
LINE
  5
289
100
AcDbEntity
  8
0
100
AcDbLine
 62
7
  6
CONTINUOUS
 10
7.0083802029
 20
3.428560065
 11
6.8374143196
 21
3.4284383181
  0
LINE
  5
28A
100
AcDbEntity
  8
0
100
AcDbLine
 62
7
  6
CONTINUOUS
 10
6.8808802029
 20
3.4295184451
 11
7.0083802029
 21
3.4295184451
  0
LINE
  5
28B
100
AcDbEntity
  8
0
100
AcDbLine
 62
7
  6
CONTINUOUS
 10
7.0083802029
 20
3.434004192
 11
6.8808802029
 21
3.434004192
  0
LINE
  5
28C
100
AcDbEntity
  8
0
100
AcDbLine
 62
7
  6
CONTINUOUS
 10
6.8808802029
 20
3.4350996621
 11
7.0083802029
 21
3.4350996621
  0
LINE
  5
28D
100
AcDbEntity
  8
0
100
AcDbLine
 62
7
  6
CONTINUOUS
 10
7.0083802029
 20
3.4401908474
 11
6.8808802029
 21
3.4401908474
  0
LINE
  5
28E
100
AcDbEntity
  8
0
100
AcDbLine
 62
7
  6
CONTINUOUS
 10
6.8808802029
 20
3.441423229
 11
7.0083802029
 21
3.441423229
  0
LINE
  5
28F
100
AcDbEntity
  8
0
100
AcDbLine
 62
7
  6
CONTINUOUS
 10
7.1713614255
 20
3.4470841793
 11
7.6199066201
 21
3.4470841786
  0
LINE
  5
290
100
AcDbEntity
  8
0
100
AcDbLine
 62
7
  6
CONTINUOUS
 10
7.0083802029
 20
3.4471058981
 11
6.8808802029
 21
3.4471058981
  0
LINE
  5
291
100
AcDbEntity
  8
0
100
AcDbLine
 62
7
  6
CONTINUOUS
 10
6.8808802029
 20
3.4484718134
 11
7.0083802029
 21
3.4484718134
  0
LINE
  5
292
100
AcDbEntity
  8
0
100
AcDbLine
 62
7
  6
CONTINUOUS
 10
7.0180691812
 20
3.4501888958
 11
7.129839282
 21
3.4501887574
  0
LINE
  5
293
100
AcDbEntity
  8
0
100
AcDbLine
 62
7
  6
CONTINUOUS
 10
7.6175272841
 20
3.453285833
 11
7.1736811612
 21
3.4532858285
  0
LINE
  5
294
100
AcDbEntity
  8
0
100
AcDbLine
 62
7
  6
CONTINUOUS
 10
7.0083802029
 20
3.4547303905
 11
6.8808802029
 21
3.4547303905
  0
LINE
  5
295
100
AcDbEntity
  8
0
100
AcDbLine
 62
7
  6
CONTINUOUS
 10
6.8808802029
 20
3.4562260955
 11
7.0083802029
 21
3.4562260955
  0
LINE
  5
296
100
AcDbEntity
  8
0
100
AcDbLine
 62
7
  6
CONTINUOUS
 10
7.0083802029
 20
3.4630434264
 11
6.8808802029
 21
3.4630434264
  0
LINE
  5
297
100
AcDbEntity
  8
0
100
AcDbLine
 62
7
  6
CONTINUOUS
 10
6.8808802029
 20
3.4646697153
 11
7.0083802029
 21
3.4646697153
  0
LINE
  5
298
100
AcDbEntity
  8
0
100
AcDbLine
 62
7
  6
CONTINUOUS
 10
7.0083802029
 20
3.472017031
 11
6.8808802029
 21
3.472017031
  0
LINE
  5
299
100
AcDbEntity
  8
0
100
AcDbLine
 62
7
  6
CONTINUOUS
 10
6.8808802029
 20
3.4737648615
 11
7.0083802029
 21
3.4737648615
  0
LINE
  5
29A
100
AcDbEntity
  8
0
100
AcDbLine
 62
7
  6
CONTINUOUS
 10
7.0083802029
 20
3.4816421619
 11
6.8808802029
 21
3.4816421619
  0
LINE
  5
29B
100
AcDbEntity
  8
0
100
AcDbLine
 62
7
  6
CONTINUOUS
 10
6.8808802029
 20
3.4835012727
 11
7.0083802029
 21
3.4835012727
  0
LINE
  5
29C
100
AcDbEntity
  8
0
100
AcDbLine
 62
7
  6
CONTINUOUS
 10
7.0083802029
 20
3.4918768837
 11
6.8808802029
 21
3.4918768837
  0
LINE
  5
29D
100
AcDbEntity
  8
0
100
AcDbLine
 62
7
  6
CONTINUOUS
 10
6.8808802029
 20
3.4938473684
 11
7.0083802029
 21
3.4938473684
  0
LINE
  5
29E
100
AcDbEntity
  8
0
100
AcDbLine
 62
7
  6
CONTINUOUS
 10
7.608323837
 20
3.5019347277
 11
7.1840950999
 21
3.5019382617
  0
LINE
  5
29F
100
AcDbEntity
  8
0
100
AcDbLine
 62
7
  6
CONTINUOUS
 10
7.0083802029
 20
3.5026983331
 11
6.8808802029
 21
3.5026983331
  0
LINE
  5
2A0
100
AcDbEntity
  8
0
100
AcDbLine
 62
7
  6
CONTINUOUS
 10
6.8808802029
 20
3.5047747906
 11
7.0083802029
 21
3.5047747906
  0
LINE
  5
2A1
100
AcDbEntity
  8
0
100
AcDbLine
 62
7
  6
CONTINUOUS
 10
7.0083802029
 20
3.5140768491
 11
6.8808802029
 21
3.5140768491
  0
LINE
  5
2A2
100
AcDbEntity
  8
0
100
AcDbLine
 62
7
  6
CONTINUOUS
 10
6.8808802029
 20
3.5162535881
 11
7.0083802029
 21
3.5162535881
  0
LINE
  5
2A3
100
AcDbEntity
  8
0
100
AcDbLine
 62
7
  6
CONTINUOUS
 10
7.0083802029
 20
3.525981244
 11
6.8808802029
 21
3.525981244
  0
LINE
  5
2A4
100
AcDbEntity
  8
0
100
AcDbLine
 62
7
  6
CONTINUOUS
 10
6.8808802029
 20
3.52825913
 11
7.0083802029
 21
3.52825913
  0
LINE
  5
2A5
100
AcDbEntity
  8
0
100
AcDbLine
 62
7
  6
CONTINUOUS
 10
7.0083802029
 20
3.5383718424
 11
6.8808802029
 21
3.5383718424
  0
LINE
  5
2A6
100
AcDbEntity
  8
0
100
AcDbLine
 62
7
  6
CONTINUOUS
 10
6.8808802029
 20
3.5407380334
 11
7.0083802029
 21
3.5407380334
  0
LINE
  5
2A7
100
AcDbEntity
  8
0
100
AcDbLine
 62
7
  6
CONTINUOUS
 10
7.0180691741
 20
3.5500492072
 11
6.8808802029
 21
3.5500492072
  0
LINE
  5
2A8
100
AcDbEntity
  8
0
100
AcDbLine
 62
7
  6
CONTINUOUS
 10
7.0083802029
 20
3.5512358023
 11
6.8808802029
 21
3.5512358023
  0
LINE
  5
2A9
100
AcDbEntity
  8
0
100
AcDbLine
 62
7
  6
CONTINUOUS
 10
6.8808802029
 20
3.5536765711
 11
7.0083802029
 21
3.5536765711
  0
LINE
  5
2AA
100
AcDbEntity
  8
0
100
AcDbLine
 62
7
  6
CONTINUOUS
 10
7.0180691741
 20
3.5628259988
 11
6.8808802029
 21
3.5628259988
  0
LINE
  5
2AB
100
AcDbEntity
  8
0
100
AcDbLine
 62
7
  6
CONTINUOUS
 10
7.0083802029
 20
3.5645167447
 11
6.8808802029
 21
3.5645167447
  0
LINE
  5
2AC
100
AcDbEntity
  8
0
100
AcDbLine
 62
7
  6
CONTINUOUS
 10
6.8808802029
 20
3.5670324476
 11
7.0083802029
 21
3.5670324476
  0
LINE
  5
2AD
100
AcDbEntity
  8
0
100
AcDbLine
 62
7
  6
CONTINUOUS
 10
7.0180691741
 20
3.5759950514
 11
6.8808802029
 21
3.5759950514
  0
LINE
  5
2AE
100
AcDbEntity
  8
0
100
AcDbLine
 62
7
  6
CONTINUOUS
 10
7.0083802029
 20
3.5781853138
 11
6.8808802029
 21
3.5781853138
  0
LINE
  5
2AF
100
AcDbEntity
  8
0
100
AcDbLine
 62
7
  6
CONTINUOUS
 10
6.8808802029
 20
3.5807690555
 11
7.0083802029
 21
3.5807690555
  0
LINE
  5
2B0
100
AcDbEntity
  8
0
100
AcDbLine
 62
7
  6
CONTINUOUS
 10
6.7317983105
 20
3.7143770948
 11
6.7301202463
 21
3.7142700313
  0
LINE
  5
2B1
100
AcDbEntity
  8
0
100
AcDbLine
 62
7
  6
CONTINUOUS
 10
6.7453399691
 20
3.7080825809
 11
6.7403317299
 21
3.7078368899
  0
LINE
  5
2B2
100
AcDbEntity
  8
0
100
AcDbLine
 62
7
  6
CONTINUOUS
 10
6.7314530336
 20
3.7772430631
 11
6.7301202463
 21
3.7771951039
  0
LINE
  5
2B3
100
AcDbEntity
  8
0
100
AcDbLine
 62
7
  6
CONTINUOUS
 10
6.7454165234
 20
3.7645408162
 11
6.7403317299
 21
3.7644097181
  0
LINE
  5
2B4
100
AcDbEntity
  8
0
100
AcDbLine
 62
7
  6
CONTINUOUS
 10
7.0180691741
 20
3.5895202695
 11
6.8808802029
 21
3.5895202695
  0
LINE
  5
2B5
100
AcDbEntity
  8
0
100
AcDbLine
 62
7
  6
CONTINUOUS
 10
7.0083802029
 20
3.592204045
 11
6.8808802029
 21
3.592204045
  0
LINE
  5
2B6
100
AcDbEntity
  8
0
100
AcDbLine
 62
7
  6
CONTINUOUS
 10
6.8808802029
 20
3.5948487436
 11
7.0083802029
 21
3.5948487436
  0
LINE
  5
2B7
100
AcDbEntity
  8
0
100
AcDbLine
 62
7
  6
CONTINUOUS
 10
7.0180691741
 20
3.6033645813
 11
6.8808802029
 21
3.6033645813
  0
LINE
  5
2B8
100
AcDbEntity
  8
0
100
AcDbLine
 62
7
  6
CONTINUOUS
 10
7.0083802029
 20
3.6065345139
 11
6.8808802029
 21
3.6065345139
  0
LINE
  5
2B9
100
AcDbEntity
  8
0
100
AcDbLine
 62
7
  6
CONTINUOUS
 10
6.8808802029
 20
3.6092410215
 11
7.0083802029
 21
3.6092410215
  0
LINE
  5
2BA
100
AcDbEntity
  8
0
100
AcDbLine
 62
7
  6
CONTINUOUS
 10
7.0180665107
 20
3.6174868254
 11
6.8808802029
 21
3.6174868254
  0
LINE
  5
2BB
100
AcDbEntity
  8
0
100
AcDbLine
 62
7
  6
CONTINUOUS
 10
7.0083802029
 20
3.6211292279
 11
6.8808802029
 21
3.6211292279
  0
LINE
  5
2BC
100
AcDbEntity
  8
0
100
AcDbLine
 62
7
  6
CONTINUOUS
 10
6.8808802029
 20
3.6238821603
 11
7.0083802029
 21
3.6238821603
  0
LINE
  5
2BD
100
AcDbEntity
  8
0
100
AcDbLine
 62
7
  6
CONTINUOUS
 10
7.0180691741
 20
3.6318579305
 11
6.8808802029
 21
3.6318579305
  0
LINE
  5
2BE
100
AcDbEntity
  8
0
100
AcDbLine
 62
7
  6
CONTINUOUS
 10
7.0083802029
 20
3.6359728029
 11
6.8808802029
 21
3.6359728029
  0
LINE
  5
2BF
100
AcDbEntity
  8
0
100
AcDbLine
 62
7
  6
CONTINUOUS
 10
6.8808802029
 20
3.6387563102
 11
7.0083802029
 21
3.6387563102
  0
LINE
  5
2C0
100
AcDbEntity
  8
0
100
AcDbLine
 62
7
  6
CONTINUOUS
 10
7.0180691741
 20
3.6464288696
 11
6.8808802029
 21
3.6464288696
  0
LINE
  5
2C1
100
AcDbEntity
  8
0
100
AcDbLine
 62
7
  6
CONTINUOUS
 10
7.0083802029
 20
3.6509999347
 11
6.8808802029
 21
3.6509999347
  0
LINE
  5
2C2
100
AcDbEntity
  8
0
100
AcDbLine
 62
7
  6
CONTINUOUS
 10
6.8808802029
 20
3.6538146013
 11
7.0083802029
 21
3.6538146013
  0
LINE
  5
2C3
100
AcDbEntity
  8
0
100
AcDbLine
 62
7
  6
CONTINUOUS
 10
7.0180691741
 20
3.6611629199
 11
6.8808802029
 21
3.6611629199
  0
LINE
  5
2C4
100
AcDbEntity
  8
0
100
AcDbLine
 62
7
  6
CONTINUOUS
 10
7.0083802029
 20
3.6661776487
 11
6.8808802029
 21
3.6661776487
  0
LINE
  5
2C5
100
AcDbEntity
  8
0
100
AcDbLine
 62
7
  6
CONTINUOUS
 10
6.8808802029
 20
3.6690157599
 11
7.0083802029
 21
3.6690157599
  0
LINE
  5
2C6
100
AcDbEntity
  8
0
100
AcDbLine
 62
7
  6
CONTINUOUS
 10
7.0180691741
 20
3.6760196965
 11
6.8808802029
 21
3.6760196965
  0
LINE
  5
2C7
100
AcDbEntity
  8
0
100
AcDbLine
 62
7
  6
CONTINUOUS
 10
7.0083802029
 20
3.681464344
 11
6.8808802029
 21
3.681464344
  0
LINE
  5
2C8
100
AcDbEntity
  8
0
100
AcDbLine
 62
7
  6
CONTINUOUS
 10
6.8808802029
 20
3.6843181207
 11
7.0083802029
 21
3.6843181207
  0
LINE
  5
2C9
100
AcDbEntity
  8
0
100
AcDbLine
 62
7
  6
CONTINUOUS
 10
7.0180691741
 20
3.690958478
 11
6.8808802029
 21
3.690958478
  0
LINE
  5
2CA
100
AcDbEntity
  8
0
100
AcDbLine
 62
7
  6
CONTINUOUS
 10
7.0083802029
 20
3.6968181207
 11
6.8808802029
 21
3.6968181207
  0
LINE
  5
2CB
100
AcDbEntity
  8
0
100
AcDbLine
 62
7
  6
CONTINUOUS
 10
6.8808802029
 20
3.6996883181
 11
7.0083802029
 21
3.6996883181
  0
LINE
  5
2CC
100
AcDbEntity
  8
0
100
AcDbLine
 62
7
  6
CONTINUOUS
 10
7.7081327737
 20
3.7059383181
 11
7.6433227532
 21
3.7059383181
  0
LINE
  5
2CD
100
AcDbEntity
  8
0
100
AcDbLine
 62
7
  6
CONTINUOUS
 10
7.0180665107
 20
3.7059383181
 11
6.8808802029
 21
3.7059383181
  0
LINE
  5
2CE
100
AcDbEntity
  8
0
100
AcDbLine
 62
7
  6
CONTINUOUS
 10
7.0083802029
 20
3.7121883181
 11
6.8808802029
 21
3.7121883181
  0
LINE
  5
2CF
100
AcDbEntity
  8
0
100
AcDbLine
 62
7
  6
CONTINUOUS
 10
6.8808802029
 20
3.7150585155
 11
7.0083802029
 21
3.7150585155
  0
LINE
  5
2D0
100
AcDbEntity
  8
0
100
AcDbLine
 62
7
  6
CONTINUOUS
 10
7.0180691741
 20
3.7209181583
 11
6.8808802029
 21
3.7209181583
  0
LINE
  5
2D1
100
AcDbEntity
  8
0
100
AcDbLine
 62
7
  6
CONTINUOUS
 10
7.0083802029
 20
3.7275585155
 11
6.8808802029
 21
3.7275585155
  0
LINE
  5
2D2
100
AcDbEntity
  8
0
100
AcDbLine
 62
7
  6
CONTINUOUS
 10
6.8808802029
 20
3.7304122923
 11
7.0083802029
 21
3.7304122923
  0
LINE
  5
2D3
100
AcDbEntity
  8
0
100
AcDbLine
 62
7
  6
CONTINUOUS
 10
7.0180691741
 20
3.7358569398
 11
6.8808802029
 21
3.7358569398
  0
LINE
  5
2D4
100
AcDbEntity
  8
0
100
AcDbLine
 62
7
  6
CONTINUOUS
 10
7.0083802029
 20
3.7428608763
 11
6.8808802029
 21
3.7428608763
  0
LINE
  5
2D5
100
AcDbEntity
  8
0
100
AcDbLine
 62
7
  6
CONTINUOUS
 10
6.8808802029
 20
3.7456989876
 11
7.0083802029
 21
3.7456989876
  0
LINE
  5
2D6
100
AcDbEntity
  8
0
100
AcDbLine
 62
7
  6
CONTINUOUS
 10
7.0180691741
 20
3.7507137164
 11
6.8808802029
 21
3.7507137164
  0
LINE
  5
2D7
100
AcDbEntity
  8
0
100
AcDbLine
 62
7
  6
CONTINUOUS
 10
7.0083802029
 20
3.758062035
 11
6.8808802029
 21
3.758062035
  0
LINE
  5
2D8
100
AcDbEntity
  8
0
100
AcDbLine
 62
7
  6
CONTINUOUS
 10
6.8808802029
 20
3.7608767016
 11
7.0083802029
 21
3.7608767016
  0
LINE
  5
2D9
100
AcDbEntity
  8
0
100
AcDbLine
 62
7
  6
CONTINUOUS
 10
7.0180691741
 20
3.7654477667
 11
6.8808802029
 21
3.7654477667
  0
LINE
  5
2DA
100
AcDbEntity
  8
0
100
AcDbLine
 62
7
  6
CONTINUOUS
 10
7.0083802029
 20
3.7731203261
 11
6.8808802029
 21
3.7731203261
  0
LINE
  5
2DB
100
AcDbEntity
  8
0
100
AcDbLine
 62
7
  6
CONTINUOUS
 10
6.8808802029
 20
3.7759038334
 11
7.0083802029
 21
3.7759038334
  0
LINE
  5
2DC
100
AcDbEntity
  8
0
100
AcDbLine
 62
7
  6
CONTINUOUS
 10
7.0180691741
 20
3.7800187058
 11
6.8808802029
 21
3.7800187058
  0
LINE
  5
2DD
100
AcDbEntity
  8
0
100
AcDbLine
 62
7
  6
CONTINUOUS
 10
7.0083802029
 20
3.787994476
 11
6.8808802029
 21
3.787994476
  0
LINE
  5
2DE
100
AcDbEntity
  8
0
100
AcDbLine
 62
7
  6
CONTINUOUS
 10
6.8808802029
 20
3.7907474083
 11
7.0083802029
 21
3.7907474083
  0
LINE
  5
2DF
100
AcDbEntity
  8
0
100
AcDbLine
 62
7
  6
CONTINUOUS
 10
7.0180665107
 20
3.7943898109
 11
6.8808802029
 21
3.7943898109
  0
LINE
  5
2E0
100
AcDbEntity
  8
0
100
AcDbLine
 62
7
  6
CONTINUOUS
 10
7.0083802029
 20
3.8026356148
 11
6.8808802029
 21
3.8026356148
  0
LINE
  5
2E1
100
AcDbEntity
  8
0
100
AcDbLine
 62
7
  6
CONTINUOUS
 10
6.8808802029
 20
3.8053421224
 11
7.0083802029
 21
3.8053421224
  0
LINE
  5
2E2
100
AcDbEntity
  8
0
100
AcDbLine
 62
7
  6
CONTINUOUS
 10
7.0180691741
 20
3.808512055
 11
6.8808802029
 21
3.808512055
  0
LINE
  5
2E3
100
AcDbEntity
  8
0
100
AcDbLine
 62
7
  6
CONTINUOUS
 10
7.0083802029
 20
3.8170278926
 11
6.8808802029
 21
3.8170278926
  0
LINE
  5
2E4
100
AcDbEntity
  8
0
100
AcDbLine
 62
7
  6
CONTINUOUS
 10
6.8808802029
 20
3.8196725913
 11
7.0083802029
 21
3.8196725913
  0
LINE
  5
2E5
100
AcDbEntity
  8
0
100
AcDbLine
 62
7
  6
CONTINUOUS
 10
7.0180691741
 20
3.8223563668
 11
6.8808802029
 21
3.8223563668
  0
LINE
  5
2E6
100
AcDbEntity
  8
0
100
AcDbLine
 62
7
  6
CONTINUOUS
 10
7.0083802029
 20
3.8311075808
 11
6.8808802029
 21
3.8311075808
  0
LINE
  5
2E7
100
AcDbEntity
  8
0
100
AcDbLine
 62
7
  6
CONTINUOUS
 10
6.8808802029
 20
3.8336913225
 11
7.0083802029
 21
3.8336913225
  0
LINE
  5
2E8
100
AcDbEntity
  8
0
100
AcDbLine
 62
7
  6
CONTINUOUS
 10
7.0180691741
 20
3.8358815849
 11
6.8808802029
 21
3.8358815849
  0
LINE
  5
2E9
100
AcDbEntity
  8
0
100
AcDbLine
 62
7
  6
CONTINUOUS
 10
6.7432798747
 20
3.8120766261
 11
6.7403317299
 21
3.8120808057
  0
LINE
  5
2EA
100
AcDbEntity
  8
0
100
AcDbLine
 62
7
  6
CONTINUOUS
 10
7.7766233949
 20
3.7303479386
 11
7.7517799717
 21
3.7307815962
  0
LWPOLYLINE
  5
2EB
100
AcDbEntity
  8
0
100
AcDbPolyline
 62
7
  6
CONTINUOUS
 90
12
 70
0
 10
7.740049941
 20
3.9235174308
 10
7.7391216336
 20
3.9235120866
 10
7.7362372428
 20
3.923218272
 10
7.7333943813
 20
3.9225001482
 10
7.7306746882
 20
3.9213678198
 10
7.7281846376
 20
3.9198721097
 10
7.7259153718
 20
3.9180104545
 10
7.7239432576
 20
3.9158370098
 10
7.7223264285
 20
3.9134264369
 10
7.7210608173
 20
3.9107694521
 10
7.7201904977
 20
3.9079187188
 10
7.7197560001
 20
3.9050041504
  0
LINE
  5
2EC
100
AcDbEntity
  8
0
100
AcDbLine
 62
7
  6
CONTINUOUS
 10
7.0083802029
 20
3.8448441886
 11
6.8808802029
 21
3.8448441886
  0
LINE
  5
2ED
100
AcDbEntity
  8
0
100
AcDbLine
 62
7
  6
CONTINUOUS
 10
6.8808802029
 20
3.8473598915
 11
7.0083802029
 21
3.8473598915
  0
LINE
  5
2EE
100
AcDbEntity
  8
0
100
AcDbLine
 62
7
  6
CONTINUOUS
 10
7.0180691741
 20
3.8490506375
 11
6.8808802029
 21
3.8490506375
  0
LINE
  5
2EF
100
AcDbEntity
  8
0
100
AcDbLine
 62
7
  6
CONTINUOUS
 10
7.0083802029
 20
3.8582000652
 11
6.8808802029
 21
3.8582000652
  0
LINE
  5
2F0
100
AcDbEntity
  8
0
100
AcDbLine
 62
7
  6
CONTINUOUS
 10
6.8808802029
 20
3.8606408339
 11
7.0083802029
 21
3.8606408339
  0
LINE
  5
2F1
100
AcDbEntity
  8
0
100
AcDbLine
 62
7
  6
CONTINUOUS
 10
7.0180691741
 20
3.8618274291
 11
6.8808802029
 21
3.8618274291
  0
LINE
  5
2F2
100
AcDbEntity
  8
0
100
AcDbLine
 62
7
  6
CONTINUOUS
 10
7.0083802029
 20
3.8711386029
 11
6.8808802029
 21
3.8711386029
  0
LINE
  5
2F3
100
AcDbEntity
  8
0
100
AcDbLine
 62
7
  6
CONTINUOUS
 10
6.8808802029
 20
3.8735047939
 11
7.0083802029
 21
3.8735047939
  0
LINE
  5
2F4
100
AcDbEntity
  8
0
100
AcDbLine
 62
7
  6
CONTINUOUS
 10
7.0083802029
 20
3.8836175063
 11
6.8808802029
 21
3.8836175063
  0
LINE
  5
2F5
100
AcDbEntity
  8
0
100
AcDbLine
 62
7
  6
CONTINUOUS
 10
6.8808802029
 20
3.8858953922
 11
7.0083802029
 21
3.8858953922
  0
LINE
  5
2F6
100
AcDbEntity
  8
0
100
AcDbLine
 62
7
  6
CONTINUOUS
 10
7.0083802029
 20
3.8956230482
 11
6.8808802029
 21
3.8956230482
  0
LINE
  5
2F7
100
AcDbEntity
  8
0
100
AcDbLine
 62
7
  6
CONTINUOUS
 10
6.8808802029
 20
3.8977997872
 11
7.0083802029
 21
3.8977997872
  0
LINE
  5
2F8
100
AcDbEntity
  8
0
100
AcDbLine
 62
7
  6
CONTINUOUS
 10
7.0083802029
 20
3.9071018457
 11
6.8808802029
 21
3.9071018457
  0
LINE
  5
2F9
100
AcDbEntity
  8
0
100
AcDbLine
 62
7
  6
CONTINUOUS
 10
6.8808802029
 20
3.9091783032
 11
7.0083802029
 21
3.9091783032
  0
LINE
  5
2FA
100
AcDbEntity
  8
0
100
AcDbLine
 62
7
  6
CONTINUOUS
 10
7.0083802029
 20
3.9180292679
 11
6.8808802029
 21
3.9180292679
  0
LINE
  5
2FB
100
AcDbEntity
  8
0
100
AcDbLine
 62
7
  6
CONTINUOUS
 10
6.8808802029
 20
3.9199997525
 11
7.0083802029
 21
3.9199997525
  0
LINE
  5
2FC
100
AcDbEntity
  8
0
100
AcDbLine
 62
7
  6
CONTINUOUS
 10
7.0083802029
 20
3.9283753636
 11
6.8808802029
 21
3.9283753636
  0
LINE
  5
2FD
100
AcDbEntity
  8
0
100
AcDbLine
 62
7
  6
CONTINUOUS
 10
6.8808802029
 20
3.9302344743
 11
7.0083802029
 21
3.9302344743
  0
LINE
  5
2FE
100
AcDbEntity
  8
0
100
AcDbLine
 62
7
  6
CONTINUOUS
 10
7.0083802029
 20
3.9381117748
 11
6.8808802029
 21
3.9381117748
  0
LINE
  5
2FF
100
AcDbEntity
  8
0
100
AcDbLine
 62
7
  6
CONTINUOUS
 10
6.8808802029
 20
3.9398596053
 11
7.0083802029
 21
3.9398596053
  0
LINE
  5
300
100
AcDbEntity
  8
0
100
AcDbLine
 62
7
  6
CONTINUOUS
 10
7.0083802029
 20
3.9472069209
 11
6.8808802029
 21
3.9472069209
  0
LINE
  5
301
100
AcDbEntity
  8
0
100
AcDbLine
 62
7
  6
CONTINUOUS
 10
6.8808802029
 20
3.9488332099
 11
7.0083802029
 21
3.9488332099
  0
LINE
  5
302
100
AcDbEntity
  8
0
100
AcDbLine
 62
7
  6
CONTINUOUS
 10
7.0083802029
 20
3.9556505407
 11
6.8808802029
 21
3.9556505407
  0
LINE
  5
303
100
AcDbEntity
  8
0
100
AcDbLine
 62
7
  6
CONTINUOUS
 10
6.8808802029
 20
3.9571462457
 11
7.0083802029
 21
3.9571462457
  0
LINE
  5
304
100
AcDbEntity
  8
0
100
AcDbLine
 62
7
  6
CONTINUOUS
 10
7.0180691741
 20
3.9616875497
 11
7.0962535754
 21
3.9616875497
  0
LINE
  5
305
100
AcDbEntity
  8
0
100
AcDbLine
 62
7
  6
CONTINUOUS
 10
7.0083802029
 20
3.9634048229
 11
6.8808802029
 21
3.9634048229
  0
LINE
  5
306
100
AcDbEntity
  8
0
100
AcDbLine
 62
7
  6
CONTINUOUS
 10
6.8808802029
 20
3.9647707381
 11
7.0083802029
 21
3.9647707381
  0
LINE
  5
307
100
AcDbEntity
  8
0
100
AcDbLine
 62
7
  6
CONTINUOUS
 10
7.0083802029
 20
3.9704534073
 11
6.8808802029
 21
3.9704534073
  0
LINE
  5
308
100
AcDbEntity
  8
0
100
AcDbLine
 62
7
  6
CONTINUOUS
 10
6.8808802029
 20
3.9716857889
 11
7.0083802029
 21
3.9716857889
  0
LINE
  5
309
100
AcDbEntity
  8
0
100
AcDbLine
 62
7
  6
CONTINUOUS
 10
7.0083802029
 20
3.9767769742
 11
6.8808802029
 21
3.9767769742
  0
LINE
  5
30A
100
AcDbEntity
  8
0
100
AcDbLine
 62
7
  6
CONTINUOUS
 10
6.8808802029
 20
3.9778724442
 11
7.0083802029
 21
3.9778724442
  0
LINE
  5
30B
100
AcDbEntity
  8
0
100
AcDbLine
 62
7
  6
CONTINUOUS
 10
7.0083802029
 20
3.9823581912
 11
6.8808802029
 21
3.9823581912
  0
LINE
  5
30C
100
AcDbEntity
  8
0
100
AcDbLine
 62
7
  6
CONTINUOUS
 10
6.8374143196
 20
3.9834383181
 11
7.0083802029
 21
3.9833165713
  0
LINE
  5
30D
100
AcDbEntity
  8
0
100
AcDbLine
 62
7
  6
CONTINUOUS
 10
7.0083802029
 20
3.9871792837
 11
6.8808802029
 21
3.9871792837
  0
LINE
  5
30E
100
AcDbEntity
  8
0
100
AcDbLine
 62
7
  6
CONTINUOUS
 10
6.8808802029
 20
3.9879947831
 11
7.0083802029
 21
3.9879947831
  0
LINE
  5
30F
100
AcDbEntity
  8
0
100
AcDbLine
 62
7
  6
CONTINUOUS
 10
7.0083802029
 20
3.9912344611
 11
6.8808802029
 21
3.9912344611
  0
LINE
  5
310
100
AcDbEntity
  8
0
100
AcDbLine
 62
7
  6
CONTINUOUS
 10
6.8808802029
 20
3.9919027221
 11
7.0083802029
 21
3.9919027221
  0
LINE
  5
311
100
AcDbEntity
  8
0
100
AcDbLine
 62
7
  6
CONTINUOUS
 10
7.0083802029
 20
3.9945051848
 11
6.8808802029
 21
3.9945051848
  0
LINE
  5
312
100
AcDbEntity
  8
0
100
AcDbLine
 62
7
  6
CONTINUOUS
 10
6.8808802029
 20
3.9950268524
 11
7.0083802029
 21
3.9950268524
  0
LINE
  5
313
100
AcDbEntity
  8
0
100
AcDbLine
 62
7
  6
CONTINUOUS
 10
7.0083802029
 20
3.9969849667
 11
6.8808802029
 21
3.9969849667
  0
LINE
  5
314
100
AcDbEntity
  8
0
100
AcDbLine
 62
7
  6
CONTINUOUS
 10
6.8808802029
 20
3.9973586112
 11
7.0083802029
 21
3.9973586112
  0
LINE
  5
315
100
AcDbEntity
  8
0
100
AcDbLine
 62
7
  6
CONTINUOUS
 10
7.0083802029
 20
3.9986670101
 11
6.8808802029
 21
3.9986670101
  0
LINE
  5
316
100
AcDbEntity
  8
0
100
AcDbLine
 62
7
  6
CONTINUOUS
 10
7.0083802029
 20
3.9995467044
 11
6.8808802029
 21
3.9995467044
  0
LINE
  5
317
100
AcDbEntity
  8
0
100
AcDbLine
 62
7
  6
CONTINUOUS
 10
7.7400499417
 20
3.9235174716
 11
7.7648933639
 21
3.923083828
  0
LINE
  5
318
100
AcDbEntity
  8
0
100
AcDbLine
 62
7
  6
CONTINUOUS
 10
7.6552382514
 20
3.9579356696
 11
7.7081319668
 21
3.9562736937
  0
LINE
  5
319
100
AcDbEntity
  8
0
100
AcDbLine
 62
7
  6
CONTINUOUS
 10
5.9571530248
 20
5.6753831881
 11
6.1340834646
 21
6.0727754622
  0
LINE
  5
31A
100
AcDbEntity
  8
0
100
AcDbLine
 62
7
  6
CONTINUOUS
 10
7.6462379057
 20
3.4430881853
 11
7.6465667349
 21
3.4429728672
  0
LINE
  5
31B
100
AcDbEntity
  8
0
100
AcDbLine
 62
7
  6
CONTINUOUS
 10
7.6462046915
 20
3.4431146035
 11
7.6465667422
 21
3.4429728597
  0
LINE
  5
31C
100
AcDbEntity
  8
0
100
AcDbLine
 62
7
  6
CONTINUOUS
 10
6.7605759621
 20
3.4794508683
 11
6.8346100789
 21
3.4292987247
  0
LINE
  5
31D
100
AcDbEntity
  8
0
100
AcDbLine
 62
7
  6
CONTINUOUS
 10
7.9329620719
 20
1.6598174618
 11
7.9694782492
 21
1.6189509764
  0
LINE
  5
31E
100
AcDbEntity
  8
0
100
AcDbLine
 62
7
  6
CONTINUOUS
 10
7.174445799
 20
4.7319673846
 11
7.6111335044
 21
4.7319673846
  0
LINE
  5
31F
100
AcDbEntity
  8
0
100
AcDbLine
 62
7
  6
CONTINUOUS
 10
7.6271485297
 20
4.7818817053
 11
7.1584307736
 21
4.7818817053
  0
LINE
  5
320
100
AcDbEntity
  8
0
100
AcDbLine
 62
7
  6
CONTINUOUS
 10
7.1684643001
 20
4.8301167416
 11
7.6171150032
 21
4.8301167416
  0
LINE
  5
321
100
AcDbEntity
  8
0
100
AcDbLine
 62
7
  6
CONTINUOUS
 10
7.6037081046
 20
4.8390291377
 11
7.1818711988
 21
4.8390291377
  0
LINE
  5
322
100
AcDbEntity
  8
0
100
AcDbLine
 62
7
  6
CONTINUOUS
 10
7.0703193461
 20
5.2892625242
 11
7.7152599573
 21
5.2892625242
  0
LINE
  5
323
100
AcDbEntity
  8
0
100
AcDbLine
 62
7
  6
CONTINUOUS
 10
7.735863007
 20
5.3419357938
 11
7.0497162963
 21
5.3419357938
  0
LINE
  5
324
100
AcDbEntity
  8
0
100
AcDbLine
 62
7
  6
CONTINUOUS
 10
7.6592344089
 20
3.4544898361
 11
7.6597435752
 21
3.4540693758
  0
LINE
  5
325
100
AcDbEntity
  8
0
100
AcDbLine
 62
7
  6
CONTINUOUS
 10
7.9263862388
 20
1.6941321472
 11
7.889173933
 21
1.7556005017
  0
LINE
  5
326
100
AcDbEntity
  8
0
100
AcDbLine
 62
7
  6
CONTINUOUS
 10
6.4391182447
 20
6.0079383181
 11
6.4391182447
 21
5.5729383181
  0
LINE
  5
327
100
AcDbEntity
  8
0
100
AcDbLine
 62
7
  6
CONTINUOUS
 10
6.4405682447
 20
6.0339383181
 11
6.4405682447
 21
5.5469383181
  0
LINE
  5
328
100
AcDbEntity
  8
0
100
AcDbLine
 62
7
  6
CONTINUOUS
 10
6.4795682447
 20
6.0729383181
 11
6.4795682447
 21
5.5079383181
  0
LINE
  5
329
100
AcDbEntity
  8
0
100
AcDbLine
 62
7
  6
CONTINUOUS
 10
6.4877353159
 20
5.5079383181
 11
6.4877353159
 21
6.0729383181
  0
LINE
  5
32A
100
AcDbEntity
  8
0
100
AcDbLine
 62
7
  6
CONTINUOUS
 10
6.5116148913
 20
6.0647728101
 11
6.5116148913
 21
5.5161038261
  0
LINE
  5
32B
100
AcDbEntity
  8
0
100
AcDbLine
 62
7
  6
CONTINUOUS
 10
6.5496990368
 20
6.0502799331
 11
6.5496990368
 21
5.5305967031
  0
LINE
  5
32C
100
AcDbEntity
  8
0
100
AcDbLine
 62
7
  6
CONTINUOUS
 10
6.8346100789
 20
3.9825779116
 11
6.7605759621
 21
3.932425768
  0
LINE
  5
32D
100
AcDbEntity
  8
0
100
AcDbLine
 62
7
  6
CONTINUOUS
 10
7.7337453359
 20
5.4178505945
 11
7.0518339675
 21
5.4178505945
  0
LINE
  5
32E
100
AcDbEntity
  8
0
100
AcDbLine
 62
7
  6
CONTINUOUS
 10
7.7055896517
 20
5.4294383181
 11
7.0799896517
 21
5.4294383181
  0
LINE
  5
32F
100
AcDbEntity
  8
0
100
AcDbLine
 62
7
  6
CONTINUOUS
 10
3.0888854882
 20
5.4399383181
 11
2.6423510013
 21
5.4399383181
  0
LINE
  5
330
100
AcDbEntity
  8
0
100
AcDbLine
 62
7
  6
CONTINUOUS
 10
7.7049770954
 20
5.4404383181
 11
7.080602208
 21
5.4404383181
  0
LINE
  5
331
100
AcDbEntity
  8
0
100
AcDbLine
 62
7
  6
CONTINUOUS
 10
3.1203166192
 20
5.455197986
 11
2.6109198702
 21
5.455197986
  0
LINE
  5
332
100
AcDbEntity
  8
0
100
AcDbLine
 62
7
  6
CONTINUOUS
 10
6.9805682447
 20
5.4621883181
 11
6.9770682447
 21
5.4621883181
  0
LINE
  5
333
100
AcDbEntity
  8
0
100
AcDbLine
 62
7
  6
CONTINUOUS
 10
2.6040446995
 20
5.5016779621
 11
3.1271917899
 21
5.5016779621
  0
LINE
  5
334
100
AcDbEntity
  8
0
100
AcDbLine
 62
7
  6
CONTINUOUS
 10
6.4795682447
 20
5.5079383181
 11
6.4877353159
 21
5.5079383181
  0
LINE
  5
335
100
AcDbEntity
  8
0
100
AcDbLine
 62
7
  6
CONTINUOUS
 10
3.1151083163
 20
5.5551538417
 11
2.6161281731
 21
5.5551538417
  0
LINE
  5
336
100
AcDbEntity
  8
0
100
AcDbLine
 62
7
  6
CONTINUOUS
 10
7.6593929377
 20
3.4544969198
 11
7.6597436523
 21
3.4540694002
  0
LINE
  5
337
100
AcDbEntity
  8
0
100
AcDbLine
 62
7
  6
CONTINUOUS
 10
6.7555612396
 20
3.5022228035
 11
6.7453706501
 21
3.5371694083
  0
LINE
  5
338
100
AcDbEntity
  8
0
100
AcDbLine
 62
7
  6
CONTINUOUS
 10
6.745315536
 20
3.5373934072
 11
6.7403317299
 21
3.5577287444
  0
LINE
  5
339
100
AcDbEntity
  8
0
100
AcDbLine
 62
7
  6
CONTINUOUS
 10
6.7323345361
 20
3.5985682577
 11
6.7294340114
 21
3.6181333061
  0
LINE
  5
33A
100
AcDbEntity
  8
0
100
AcDbLine
 62
7
  6
CONTINUOUS
 10
6.7583802029
 20
3.9282861745
 11
6.7583802029
 21
3.4835904618
  0
LINE
  5
33B
100
AcDbEntity
  8
0
100
AcDbLine
 62
7
  6
CONTINUOUS
 10
6.7605759621
 20
3.932425768
 11
6.7605759621
 21
3.4794508683
  0
LINE
  5
33C
100
AcDbEntity
  8
0
100
AcDbLine
 62
7
  6
CONTINUOUS
 10
6.8346100789
 20
3.4292987247
 11
6.8346100789
 21
3.9825779116
  0
LINE
  5
33D
100
AcDbEntity
  8
0
100
AcDbLine
 62
7
  6
CONTINUOUS
 10
6.8374143196
 20
3.9834383181
 11
6.8374143196
 21
3.4284383181
  0
LINE
  5
33E
100
AcDbEntity
  8
0
100
AcDbLine
 62
7
  6
CONTINUOUS
 10
6.8808802029
 20
3.9996218212
 11
6.8808802029
 21
3.9995467044
  0
LINE
  5
33F
100
AcDbEntity
  8
0
100
AcDbLine
 62
7
  6
CONTINUOUS
 10
6.8808802029
 20
3.8735047939
 11
6.8808802029
 21
3.8618274291
  0
LINE
  5
340
100
AcDbEntity
  8
0
100
AcDbLine
 62
7
  6
CONTINUOUS
 10
6.8808802029
 20
3.5500492072
 11
6.8808802029
 21
3.5383718424
  0
LINE
  5
341
100
AcDbEntity
  8
0
100
AcDbLine
 62
7
  6
CONTINUOUS
 10
6.8808802029
 20
3.4123299318
 11
6.8808802029
 21
3.412254815
  0
LINE
  5
342
100
AcDbEntity
  8
0
100
AcDbLine
 62
7
  6
CONTINUOUS
 10
6.8808802029
 20
3.4132096262
 11
6.8808802029
 21
3.5376935811
  0
LINE
  5
343
100
AcDbEntity
  8
0
100
AcDbLine
 62
7
  6
CONTINUOUS
 10
6.8808802029
 20
3.5512358023
 11
6.8808802029
 21
3.8606408339
  0
LINE
  5
344
100
AcDbEntity
  8
0
100
AcDbLine
 62
7
  6
CONTINUOUS
 10
6.8808802029
 20
3.8741830552
 11
6.8808802029
 21
3.9988916072
  0
LINE
  5
345
100
AcDbEntity
  8
0
100
AcDbLine
 62
7
  6
CONTINUOUS
 10
6.8969960759
 20
6.0688109755
 11
6.8969960759
 21
5.5120656608
  0
LINE
  5
346
100
AcDbEntity
  8
0
100
AcDbLine
 62
7
  6
CONTINUOUS
 10
6.7555612396
 20
3.9096538328
 11
6.7555612396
 21
3.5022228035
  0
LINE
  5
347
100
AcDbEntity
  8
0
100
AcDbLine
 62
7
  6
CONTINUOUS
 10
6.729452984
 20
3.7938716842
 11
6.7323145061
 21
3.8131743531
  0
LINE
  5
348
100
AcDbEntity
  8
0
100
AcDbLine
 62
7
  6
CONTINUOUS
 10
6.7403317299
 20
3.8541478919
 11
6.745315536
 21
3.8744832291
  0
LINE
  5
349
100
AcDbEntity
  8
0
100
AcDbLine
 62
7
  6
CONTINUOUS
 10
6.7453706501
 20
3.874707228
 11
6.7555612396
 21
3.9096538328
  0
LINE
  5
34A
100
AcDbEntity
  8
0
100
AcDbLine
 62
7
  6
CONTINUOUS
 10
6.7451670225
 20
3.5492436729
 11
6.745315536
 21
3.5494030095
  0
LINE
  5
34B
100
AcDbEntity
  8
0
100
AcDbLine
 62
7
  6
CONTINUOUS
 10
7.7792872012
 20
3.5108179035
 11
7.7603768297
 21
3.5043065404
  0
LINE
  5
34C
100
AcDbEntity
  8
0
100
AcDbLine
 62
7
  6
CONTINUOUS
 10
2.6003858028
 20
5.7350899583
 11
3.1308506866
 21
5.7350899583
  0
LINE
  5
34D
100
AcDbEntity
  8
0
100
AcDbLine
 62
7
  6
CONTINUOUS
 10
3.1510632571
 20
5.7844945099
 11
2.5801732323
 21
5.7844945099
  0
LINE
  5
34E
100
AcDbEntity
  8
0
100
AcDbLine
 62
7
  6
CONTINUOUS
 10
3.1201986994
 20
5.8499383181
 11
2.6110377864
 21
5.8499383181
  0
LINE
  5
34F
100
AcDbEntity
  8
0
100
AcDbLine
 62
7
  6
CONTINUOUS
 10
3.9874269216
 20
6.5523617515
 11
5.9571530248
 21
5.6753831881
  0
LINE
  5
350
100
AcDbEntity
  8
0
100
AcDbLine
 62
7
  6
CONTINUOUS
 10
7.1341987101
 20
1.9684383181
 11
7.1344168984
 21
1.9559383181
  0
LINE
  5
351
100
AcDbEntity
  8
0
100
AcDbLine
 62
7
  6
CONTINUOUS
 10
6.944060214
 20
5.4804164643
 11
6.944060214
 21
6.1004601719
  0
LINE
  5
352
100
AcDbEntity
  8
0
100
AcDbLine
 62
7
  6
CONTINUOUS
 10
6.9770682447
 20
6.1186883181
 11
6.9770682447
 21
5.4621883181
  0
LINE
  5
353
100
AcDbEntity
  8
0
100
AcDbLine
 62
7
  6
CONTINUOUS
 10
6.9805682447
 20
5.4621883181
 11
6.9805682447
 21
6.1186883181
  0
LINE
  5
354
100
AcDbEntity
  8
0
100
AcDbLine
 62
7
  6
CONTINUOUS
 10
7.0083802029
 20
3.412254815
 11
7.0083802029
 21
3.4123299318
  0
LINE
  5
355
100
AcDbEntity
  8
0
100
AcDbLine
 62
7
  6
CONTINUOUS
 10
7.0083802029
 20
3.4129850291
 11
7.0083802029
 21
3.4132096262
  0
LINE
  5
356
100
AcDbEntity
  8
0
100
AcDbLine
 62
7
  6
CONTINUOUS
 10
7.0083802029
 20
3.4145180251
 11
7.0083802029
 21
3.4148916695
  0
LINE
  5
357
100
AcDbEntity
  8
0
100
AcDbLine
 62
7
  6
CONTINUOUS
 10
7.0083802029
 20
3.4168497839
 11
7.0083802029
 21
3.4173714515
  0
LINE
  5
358
100
AcDbEntity
  8
0
100
AcDbLine
 62
7
  6
CONTINUOUS
 10
7.0083802029
 20
3.4199739142
 11
7.0083802029
 21
3.4206421752
  0
LINE
  5
359
100
AcDbEntity
  8
0
100
AcDbLine
 62
7
  6
CONTINUOUS
 10
7.0083802029
 20
3.4238818531
 11
7.0083802029
 21
3.4246973526
  0
LINE
  5
35A
100
AcDbEntity
  8
0
100
AcDbLine
 62
7
  6
CONTINUOUS
 10
7.0083802029
 20
3.428560065
 11
7.0083802029
 21
3.4295184451
  0
LINE
  5
35B
100
AcDbEntity
  8
0
100
AcDbLine
 62
7
  6
CONTINUOUS
 10
7.0083802029
 20
3.434004192
 11
7.0083802029
 21
3.4350996621
  0
LINE
  5
35C
100
AcDbEntity
  8
0
100
AcDbLine
 62
7
  6
CONTINUOUS
 10
7.0083802029
 20
3.4401908474
 11
7.0083802029
 21
3.441423229
  0
LINE
  5
35D
100
AcDbEntity
  8
0
100
AcDbLine
 62
7
  6
CONTINUOUS
 10
7.0083802029
 20
3.4471058981
 11
7.0083802029
 21
3.4484718134
  0
LINE
  5
35E
100
AcDbEntity
  8
0
100
AcDbLine
 62
7
  6
CONTINUOUS
 10
7.0083802029
 20
3.4547303905
 11
7.0083802029
 21
3.4562260955
  0
LINE
  5
35F
100
AcDbEntity
  8
0
100
AcDbLine
 62
7
  6
CONTINUOUS
 10
7.0083802029
 20
3.4630434264
 11
7.0083802029
 21
3.4646697153
  0
LINE
  5
360
100
AcDbEntity
  8
0
100
AcDbLine
 62
7
  6
CONTINUOUS
 10
7.0083802029
 20
3.472017031
 11
7.0083802029
 21
3.4737648615
  0
LINE
  5
361
100
AcDbEntity
  8
0
100
AcDbLine
 62
7
  6
CONTINUOUS
 10
7.0083802029
 20
3.4816421619
 11
7.0083802029
 21
3.4835012727
  0
LINE
  5
362
100
AcDbEntity
  8
0
100
AcDbLine
 62
7
  6
CONTINUOUS
 10
7.0083802029
 20
3.4918768837
 11
7.0083802029
 21
3.4938473684
  0
LINE
  5
363
100
AcDbEntity
  8
0
100
AcDbLine
 62
7
  6
CONTINUOUS
 10
7.0083802029
 20
3.5026983331
 11
7.0083802029
 21
3.5047747906
  0
LINE
  5
364
100
AcDbEntity
  8
0
100
AcDbLine
 62
7
  6
CONTINUOUS
 10
7.0083802029
 20
3.5140768491
 11
7.0083802029
 21
3.5162535881
  0
LINE
  5
365
100
AcDbEntity
  8
0
100
AcDbLine
 62
7
  6
CONTINUOUS
 10
7.0083802029
 20
3.525981244
 11
7.0083802029
 21
3.52825913
  0
LINE
  5
366
100
AcDbEntity
  8
0
100
AcDbLine
 62
7
  6
CONTINUOUS
 10
7.0083802029
 20
3.5383718424
 11
7.0083802029
 21
3.5407380334
  0
LINE
  5
367
100
AcDbEntity
  8
0
100
AcDbLine
 62
7
  6
CONTINUOUS
 10
7.0083802029
 20
3.5512358023
 11
7.0083802029
 21
3.5536765711
  0
LINE
  5
368
100
AcDbEntity
  8
0
100
AcDbLine
 62
7
  6
CONTINUOUS
 10
7.0083802029
 20
3.5645167447
 11
7.0083802029
 21
3.5670324476
  0
LINE
  5
369
100
AcDbEntity
  8
0
100
AcDbLine
 62
7
  6
CONTINUOUS
 10
7.0083802029
 20
3.5781853138
 11
7.0083802029
 21
3.5807690555
  0
LINE
  5
36A
100
AcDbEntity
  8
0
100
AcDbLine
 62
7
  6
CONTINUOUS
 10
7.0083802029
 20
3.592204045
 11
7.0083802029
 21
3.5948487436
  0
LINE
  5
36B
100
AcDbEntity
  8
0
100
AcDbLine
 62
7
  6
CONTINUOUS
 10
7.0083802029
 20
3.6065345139
 11
7.0083802029
 21
3.6092410215
  0
LINE
  5
36C
100
AcDbEntity
  8
0
100
AcDbLine
 62
7
  6
CONTINUOUS
 10
7.0083802029
 20
3.6211292279
 11
7.0083802029
 21
3.6238821603
  0
LINE
  5
36D
100
AcDbEntity
  8
0
100
AcDbLine
 62
7
  6
CONTINUOUS
 10
7.0083802029
 20
3.6359728029
 11
7.0083802029
 21
3.6387563102
  0
LINE
  5
36E
100
AcDbEntity
  8
0
100
AcDbLine
 62
7
  6
CONTINUOUS
 10
7.0083802029
 20
3.6509999347
 11
7.0083802029
 21
3.6538146013
  0
LINE
  5
36F
100
AcDbEntity
  8
0
100
AcDbLine
 62
7
  6
CONTINUOUS
 10
7.0083802029
 20
3.6661776487
 11
7.0083802029
 21
3.6690157599
  0
LINE
  5
370
100
AcDbEntity
  8
0
100
AcDbLine
 62
7
  6
CONTINUOUS
 10
7.0083802029
 20
3.681464344
 11
7.0083802029
 21
3.6843181207
  0
LINE
  5
371
100
AcDbEntity
  8
0
100
AcDbLine
 62
7
  6
CONTINUOUS
 10
7.0083802029
 20
3.6968181207
 11
7.0083802029
 21
3.6996883181
  0
LINE
  5
372
100
AcDbEntity
  8
0
100
AcDbLine
 62
7
  6
CONTINUOUS
 10
7.0083802029
 20
3.7121883181
 11
7.0083802029
 21
3.7150585155
  0
LINE
  5
373
100
AcDbEntity
  8
0
100
AcDbLine
 62
7
  6
CONTINUOUS
 10
7.0083802029
 20
3.7275585155
 11
7.0083802029
 21
3.7304122923
  0
LINE
  5
374
100
AcDbEntity
  8
0
100
AcDbLine
 62
7
  6
CONTINUOUS
 10
7.0083802029
 20
3.7428608763
 11
7.0083802029
 21
3.7456989876
  0
LINE
  5
375
100
AcDbEntity
  8
0
100
AcDbLine
 62
7
  6
CONTINUOUS
 10
7.0083802029
 20
3.758062035
 11
7.0083802029
 21
3.7608767016
  0
LINE
  5
376
100
AcDbEntity
  8
0
100
AcDbLine
 62
7
  6
CONTINUOUS
 10
7.0083802029
 20
3.7731203261
 11
7.0083802029
 21
3.7759038334
  0
LINE
  5
377
100
AcDbEntity
  8
0
100
AcDbLine
 62
7
  6
CONTINUOUS
 10
7.0083802029
 20
3.787994476
 11
7.0083802029
 21
3.7907474083
  0
LINE
  5
378
100
AcDbEntity
  8
0
100
AcDbLine
 62
7
  6
CONTINUOUS
 10
7.0083802029
 20
3.8026356148
 11
7.0083802029
 21
3.8053421224
  0
LINE
  5
379
100
AcDbEntity
  8
0
100
AcDbLine
 62
7
  6
CONTINUOUS
 10
7.0083802029
 20
3.8170278926
 11
7.0083802029
 21
3.8196725913
  0
LINE
  5
37A
100
AcDbEntity
  8
0
100
AcDbLine
 62
7
  6
CONTINUOUS
 10
7.0083802029
 20
3.8311075808
 11
7.0083802029
 21
3.8336913225
  0
LINE
  5
37B
100
AcDbEntity
  8
0
100
AcDbLine
 62
7
  6
CONTINUOUS
 10
7.0083802029
 20
3.8448441886
 11
7.0083802029
 21
3.8473598915
  0
LINE
  5
37C
100
AcDbEntity
  8
0
100
AcDbLine
 62
7
  6
CONTINUOUS
 10
7.0083802029
 20
3.8582000652
 11
7.0083802029
 21
3.8606408339
  0
LINE
  5
37D
100
AcDbEntity
  8
0
100
AcDbLine
 62
7
  6
CONTINUOUS
 10
7.0083802029
 20
3.8711386029
 11
7.0083802029
 21
3.8735047939
  0
LINE
  5
37E
100
AcDbEntity
  8
0
100
AcDbLine
 62
7
  6
CONTINUOUS
 10
7.0083802029
 20
3.8836175063
 11
7.0083802029
 21
3.8858953922
  0
LINE
  5
37F
100
AcDbEntity
  8
0
100
AcDbLine
 62
7
  6
CONTINUOUS
 10
7.0083802029
 20
3.8956230482
 11
7.0083802029
 21
3.8977997872
  0
LINE
  5
380
100
AcDbEntity
  8
0
100
AcDbLine
 62
7
  6
CONTINUOUS
 10
7.0083802029
 20
3.9071018457
 11
7.0083802029
 21
3.9091783032
  0
LINE
  5
381
100
AcDbEntity
  8
0
100
AcDbLine
 62
7
  6
CONTINUOUS
 10
7.0083802029
 20
3.9180292679
 11
7.0083802029
 21
3.9199997525
  0
LINE
  5
382
100
AcDbEntity
  8
0
100
AcDbLine
 62
7
  6
CONTINUOUS
 10
7.0083802029
 20
3.9283753636
 11
7.0083802029
 21
3.9302344743
  0
LINE
  5
383
100
AcDbEntity
  8
0
100
AcDbLine
 62
7
  6
CONTINUOUS
 10
7.0083802029
 20
3.9381117748
 11
7.0083802029
 21
3.9398596053
  0
LINE
  5
384
100
AcDbEntity
  8
0
100
AcDbLine
 62
7
  6
CONTINUOUS
 10
7.0083802029
 20
3.9472069209
 11
7.0083802029
 21
3.9488332099
  0
LINE
  5
385
100
AcDbEntity
  8
0
100
AcDbLine
 62
7
  6
CONTINUOUS
 10
7.0083802029
 20
3.9556505407
 11
7.0083802029
 21
3.9571462457
  0
LINE
  5
386
100
AcDbEntity
  8
0
100
AcDbLine
 62
7
  6
CONTINUOUS
 10
7.0083802029
 20
3.9634048229
 11
7.0083802029
 21
3.9647707381
  0
LINE
  5
387
100
AcDbEntity
  8
0
100
AcDbLine
 62
7
  6
CONTINUOUS
 10
7.0083802029
 20
3.9704534073
 11
7.0083802029
 21
3.9716857889
  0
LINE
  5
388
100
AcDbEntity
  8
0
100
AcDbLine
 62
7
  6
CONTINUOUS
 10
7.0083802029
 20
3.9767769742
 11
7.0083802029
 21
3.9778724442
  0
LINE
  5
389
100
AcDbEntity
  8
0
100
AcDbLine
 62
7
  6
CONTINUOUS
 10
7.0083802029
 20
3.9823581912
 11
7.0083802029
 21
3.9833165713
  0
LINE
  5
38A
100
AcDbEntity
  8
0
100
AcDbLine
 62
7
  6
CONTINUOUS
 10
7.0083802029
 20
3.9871792837
 11
7.0083802029
 21
3.9879947831
  0
LINE
  5
38B
100
AcDbEntity
  8
0
100
AcDbLine
 62
7
  6
CONTINUOUS
 10
7.0083802029
 20
3.9912344611
 11
7.0083802029
 21
3.9919027221
  0
LINE
  5
38C
100
AcDbEntity
  8
0
100
AcDbLine
 62
7
  6
CONTINUOUS
 10
7.0083802029
 20
3.9945051848
 11
7.0083802029
 21
3.9950268524
  0
LINE
  5
38D
100
AcDbEntity
  8
0
100
AcDbLine
 62
7
  6
CONTINUOUS
 10
7.0083802029
 20
3.9969849667
 11
7.0083802029
 21
3.9973586112
  0
LINE
  5
38E
100
AcDbEntity
  8
0
100
AcDbLine
 62
7
  6
CONTINUOUS
 10
7.0083802029
 20
3.9986670101
 11
7.0083802029
 21
3.9988916072
  0
LINE
  5
38F
100
AcDbEntity
  8
0
100
AcDbLine
 62
7
  6
CONTINUOUS
 10
7.0083802029
 20
3.9995467044
 11
7.0083802029
 21
3.9996218212
  0
LINE
  5
390
100
AcDbEntity
  8
0
100
AcDbLine
 62
7
  6
CONTINUOUS
 10
7.0140704725
 20
6.0996533058
 11
7.0140704725
 21
5.4812233305
  0
LINE
  5
391
100
AcDbEntity
  8
0
100
AcDbLine
 62
7
  6
CONTINUOUS
 10
7.0183802029
 20
3.9800331312
 11
7.0183802029
 21
3.9725920098
  0
LINE
  5
392
100
AcDbEntity
  8
0
100
AcDbLine
 62
7
  6
CONTINUOUS
 10
7.0183802029
 20
3.963075188
 11
7.0183802029
 21
3.9384137809
  0
LINE
  5
393
100
AcDbEntity
  8
0
100
AcDbLine
 62
7
  6
CONTINUOUS
 10
7.0183802029
 20
3.9375073324
 11
7.0183802029
 21
3.8883855818
  0
LINE
  5
394
100
AcDbEntity
  8
0
100
AcDbLine
 62
7
  6
CONTINUOUS
 10
7.0183802029
 20
3.5234882139
 11
7.0183802029
 21
3.4487999372
  0
LINE
  5
395
100
AcDbEntity
  8
0
100
AcDbLine
 62
7
  6
CONTINUOUS
 10
7.0382937663
 20
5.4833655788
 11
7.0382937663
 21
6.0975110574
  0
LINE
  5
396
100
AcDbEntity
  8
0
100
AcDbLine
 62
7
  6
CONTINUOUS
 10
7.1027896517
 20
6.5019383181
 11
7.1027896517
 21
6.5319383181
  0
LINE
  5
397
100
AcDbEntity
  8
0
100
AcDbLine
 62
7
  6
CONTINUOUS
 10
7.1427896517
 20
5.4294383181
 11
7.1427896517
 21
5.4404383181
  0
LINE
  5
398
100
AcDbEntity
  8
0
100
AcDbLine
 62
7
  6
CONTINUOUS
 10
7.8510990865
 20
3.4404809521
 11
7.8321887149
 21
3.433969589
  0
LINE
  5
399
100
AcDbEntity
  8
0
100
AcDbLine
 62
7
  6
CONTINUOUS
 10
3.0831182447
 20
5.9650968301
 11
2.6481182447
 21
5.9650968301
  0
LINE
  5
39A
100
AcDbEntity
  8
0
100
AcDbLine
 62
7
  6
CONTINUOUS
 10
6.4877353159
 20
6.0729383181
 11
6.4795682447
 21
6.0729383181
  0
LINE
  5
39B
100
AcDbEntity
  8
0
100
AcDbLine
 62
7
  6
CONTINUOUS
 10
6.9770682447
 20
6.1186883181
 11
6.9805682447
 21
6.1186883181
  0
LINE
  5
39C
100
AcDbEntity
  8
0
100
AcDbLine
 62
7
  6
CONTINUOUS
 10
7.2532896517
 20
6.2319383181
 11
7.2532896517
 21
6.2229383181
  0
LINE
  5
39D
100
AcDbEntity
  8
0
100
AcDbLine
 62
7
  6
CONTINUOUS
 10
7.5741863165
 20
6.2229383181
 11
7.2113929869
 21
6.2229383181
  0
LINE
  5
39E
100
AcDbEntity
  8
0
100
AcDbLine
 62
7
  6
CONTINUOUS
 10
7.5717896517
 20
6.2319383181
 11
7.2137896517
 21
6.2319383181
  0
LINE
  5
39F
100
AcDbEntity
  8
0
100
AcDbLine
 62
7
  6
CONTINUOUS
 10
7.2408147765
 20
6.2830723626
 11
7.5447645269
 21
6.2830723626
  0
LINE
  5
3A0
100
AcDbEntity
  8
0
100
AcDbLine
 62
7
  6
CONTINUOUS
 10
7.5472539628
 20
6.363957095
 11
7.2383253406
 21
6.363957095
  0
LINE
  5
3A1
100
AcDbEntity
  8
0
100
AcDbLine
 62
7
  6
CONTINUOUS
 10
6.1340834646
 20
6.0727754622
 11
4.1643573613
 21
6.9497540256
  0
LINE
  5
3A2
100
AcDbEntity
  8
0
100
AcDbLine
 62
7
  6
CONTINUOUS
 10
8.021245021
 20
2.7466903014
 11
7.7603768297
 21
3.5043065404
  0
LINE
  5
3A3
100
AcDbEntity
  8
0
100
AcDbLine
 62
7
  6
CONTINUOUS
 10
7.7792872012
 20
3.5108179035
 11
8.0193664857
 21
2.8135770338
  0
LINE
  5
3A4
100
AcDbEntity
  8
0
100
AcDbLine
 62
7
  6
CONTINUOUS
 10
8.0459668777
 20
2.8131127232
 11
7.8321887149
 21
3.433969589
  0
LINE
  5
3A5
100
AcDbEntity
  8
0
100
AcDbLine
 62
7
  6
CONTINUOUS
 10
8.0856661564
 20
2.759248716
 11
7.8510990865
 21
3.4404809521
  0
LINE
  5
3A6
100
AcDbEntity
  8
0
100
AcDbLine
 62
7
  6
CONTINUOUS
 10
7.7408597767
 20
3.6002359207
 11
7.7197513974
 21
3.9020998084
  0
LINE
  5
3A7
100
AcDbEntity
  8
0
100
AcDbLine
 62
7
  6
CONTINUOUS
 10
7.5322896517
 20
6.2319383181
 11
7.5322896517
 21
6.2229383181
  0
LINE
  5
3A8
100
AcDbEntity
  8
0
100
AcDbLine
 62
7
  6
CONTINUOUS
 10
7.6427896517
 20
5.4294383181
 11
7.6427896517
 21
5.4404383181
  0
LINE
  5
3A9
100
AcDbEntity
  8
0
100
AcDbLine
 62
7
  6
CONTINUOUS
 10
7.6827896517
 20
6.5319383181
 11
7.6827896517
 21
6.5019383181
  0
LINE
  5
3AA
100
AcDbEntity
  8
0
100
AcDbLine
 62
7
  6
CONTINUOUS
 10
8.019367649
 20
2.8135736556
 11
8.0004572774
 21
2.8070622925
  0
LINE
  5
3AB
100
AcDbEntity
  8
0
100
AcDbLine
 62
7
  6
CONTINUOUS
 10
8.0648784128
 20
2.8196207071
 11
8.0459680413
 21
2.813109344
  0
LINE
  5
3AC
100
AcDbEntity
  8
0
100
AcDbLine
 62
7
  6
CONTINUOUS
 10
7.1344776886
 20
6.4668945707
 11
7.6511016147
 21
6.4668945707
  0
LINE
  5
3AD
100
AcDbEntity
  8
0
100
AcDbLine
 62
7
  6
CONTINUOUS
 10
7.6711921872
 20
6.4837890097
 11
7.1143871161
 21
6.4837890097
  0
LINE
  5
3AE
100
AcDbEntity
  8
0
100
AcDbLine
 62
7
  6
CONTINUOUS
 10
7.1027896517
 20
6.5019383181
 11
7.6827896517
 21
6.5019383181
  0
LINE
  5
3AF
100
AcDbEntity
  8
0
100
AcDbLine
 62
7
  6
CONTINUOUS
 10
7.6827896517
 20
6.5319383181
 11
7.1027896517
 21
6.5319383181
  0
LINE
  5
3B0
100
AcDbEntity
  8
0
100
AcDbLine
 62
7
  6
CONTINUOUS
 10
7.1182745963
 20
6.5514220107
 11
7.6673047071
 21
6.5514220107
  0
LINE
  5
3B1
100
AcDbEntity
  8
0
100
AcDbLine
 62
7
  6
CONTINUOUS
 10
7.6441935483
 20
6.5581952295
 11
7.141385755
 21
6.5581952295
  0
LINE
  5
3B2
100
AcDbEntity
  8
0
100
AcDbLine
 62
7
  6
CONTINUOUS
 10
7.4175245602
 20
6.5973916672
 11
7.3680547431
 21
6.5973916672
  0
LINE
  5
3B3
100
AcDbEntity
  8
0
100
AcDbLine
 62
7
  6
CONTINUOUS
 10
8.0398063444
 20
2.7332047106
 11
8.0396919519
 21
2.7336260151
  0
LINE
  5
3B4
100
AcDbEntity
  8
0
100
AcDbLine
 62
7
  6
CONTINUOUS
 10
8.0662930651
 20
2.7331600487
 11
8.0664067368
 21
2.732740399
  0
LINE
  5
3B5
100
AcDbEntity
  8
0
100
AcDbLine
 62
7
  6
CONTINUOUS
 10
8.0215933364
 20
2.8049837583
 11
8.0193667973
 21
2.8135770284
  0
LINE
  5
3B6
100
AcDbEntity
  8
0
100
AcDbLine
 62
7
  6
CONTINUOUS
 10
8.0459671894
 20
2.8131127177
 11
8.0481961913
 21
2.8045098396
  0
LINE
  5
3B7
100
AcDbEntity
  8
0
100
AcDbLine
 62
7
  6
CONTINUOUS
 10
8.0398063444
 20
2.7332047106
 11
8.0193667973
 21
2.8135770284
  0
LINE
  5
3B8
100
AcDbEntity
  8
0
100
AcDbLine
 62
7
  6
CONTINUOUS
 10
8.0459671894
 20
2.8131127177
 11
8.0664067372
 21
2.7327403988
  0
LINE
  5
3B9
100
AcDbEntity
  8
0
100
AcDbLine
 62
7
  6
CONTINUOUS
 10
7.7517799717
 20
3.7307815962
 11
7.7608110577
 21
3.6016310502
  0
LINE
  5
3BA
100
AcDbEntity
  8
0
100
AcDbLine
 62
7
  6
CONTINUOUS
 10
7.7791023308
 20
3.6948975033
 11
7.7766233949
 21
3.7303479386
  0
LINE
  5
3BB
100
AcDbEntity
  8
0
100
AcDbLine
 62
7
  6
CONTINUOUS
 10
7.7990536118
 20
3.6962926328
 11
7.7844973815
 21
3.9044564238
  0
LINE
  5
3BC
100
AcDbEntity
  8
0
100
AcDbLine
 62
7
  6
CONTINUOUS
 10
7.7517799551
 20
3.7307815965
 11
7.7400501448
 21
3.9235140704
  0
LINE
  5
3BD
100
AcDbEntity
  8
0
100
AcDbLine
 62
7
  6
CONTINUOUS
 10
7.7648935669
 20
3.9230804269
 11
7.7766233781
 21
3.7303479389
  0
LINE
  5
3BE
100
AcDbEntity
  8
0
100
AcDbLine
 62
7
  6
CONTINUOUS
 10
7.7177896517
 20
3.9462805234
 11
7.7177896517
 21
3.4656315064
  0
LINE
  5
3BF
100
AcDbEntity
  8
0
100
AcDbLine
 62
7
  6
CONTINUOUS
 10
7.7081162149
 20
3.4556051234
 11
7.7081327692
 21
3.956273421
  0
LINE
  5
3C0
100
AcDbEntity
  8
0
100
AcDbLine
 62
7
  6
CONTINUOUS
 10
7.7197560001
 20
3.9050041504
 11
7.7197496092
 21
3.90212538
  0
LINE
  5
3C1
100
AcDbEntity
  8
0
100
AcDbLine
 62
7
  6
CONTINUOUS
 10
7.6513805932
 20
1.9684383181
 11
7.6511624049
 21
1.9559383181
  0
LWPOLYLINE
  5
3C2
100
AcDbEntity
  8
0
100
AcDbPolyline
 62
7
  6
CONTINUOUS
 90
12
 70
0
 10
7.7844955934
 20
3.9044819954
 10
7.784108579
 20
3.9072388909
 10
7.7833216581
 20
3.9099724276
 10
7.7821404948
 20
3.9125933831
 10
7.7806155239
 20
3.914991298
 10
7.7787909132
 20
3.9171237301
 10
7.7766626345
 20
3.9189974072
 10
7.7742909834
 20
3.9205511534
 10
7.7717492553
 20
3.9217439727
 10
7.7690295282
 20
3.9225774174
 10
7.7662311456
 20
3.9230155715
 10
7.7648933632
 20
3.9230837873
  0
LINE
  5
3C3
100
AcDbEntity
  8
0
100
AcDbLine
 62
7
  6
CONTINUOUS
 10
6.8591930646
 20
1.6941321472
 11
6.8964053704
 21
1.7556005017
  0
LINE
  5
3C4
100
AcDbEntity
  8
0
100
AcDbLine
 62
7
  6
CONTINUOUS
 10
6.8526172315
 20
1.6598174618
 11
6.8161010542
 21
1.6189509764
  0
ARC
  5
3C5
100
AcDbEntity
  8
0
100
AcDbCircle
 62
7
  6
CONTINUOUS
 10
-43.9927151341
 20
4.6990054048
 40
51.0664462593
100
AcDbArc
 50
359.1727042526
 51
0.6622743033
  0
ARC
  5
3C6
100
AcDbEntity
  8
0
100
AcDbCircle
 62
7
  6
CONTINUOUS
 10
-43.9927151341
 20
4.6990054048
 40
51.0664462593
100
AcDbArc
 50
357.6342110397
 51
357.9479512105
  0
ARC
  5
3C7
100
AcDbEntity
  8
0
100
AcDbCircle
 62
6
  6
CONTINUOUS
 10
1.6637896517
 20
2.725574758
 40
5.4865
100
AcDbArc
 50
353.2343948461
 51
4.6951455564
  0
ARC
  5
3C8
100
AcDbEntity
  8
0
100
AcDbCircle
 62
7
  6
CONTINUOUS
 10
4.8268839273
 20
2.4143061753
 40
2.194482576
100
AcDbArc
 50
354.8084043001
 51
1.537682347
  0
ARC
  5
3C9
100
AcDbEntity
  8
0
100
AcDbCircle
 62
7
  6
CONTINUOUS
 10
7.3517896517
 20
1.3874383181
 40
0.6335
100
AcDbArc
 50
37.1932966364
 51
51.353381435
  0
ARC
  5
3CA
100
AcDbEntity
  8
0
100
AcDbCircle
 62
7
  6
CONTINUOUS
 10
7.160338405
 20
1.354545173
 40
0.4858059142
100
AcDbArc
 50
128.5570512616
 51
145.9808979247
  0
ARC
  5
3CB
100
AcDbEntity
  8
0
100
AcDbCircle
 62
7
  6
CONTINUOUS
 10
6.505773716
 20
1.8844190631
 40
0.3526969389
100
AcDbArc
 50
340.6081972549
 51
355.7013832824
  0
ARC
  5
3CC
100
AcDbEntity
  8
0
100
AcDbCircle
 62
6
  6
CONTINUOUS
 10
6.9829891684
 20
2.094536921
 40
0.13
100
AcDbArc
 50
323.0058837041
 51
353.2343948461
  0
ARC
  5
3CD
100
AcDbEntity
  8
0
100
AcDbCircle
 62
7
  6
CONTINUOUS
 10
6.9944431576
 20
1.9368806792
 40
0.07
100
AcDbArc
 50
308.646618565
 51
353.4624504845
  0
ARC
  5
3CE
100
AcDbEntity
  8
0
100
AcDbCircle
 62
7
  6
CONTINUOUS
 10
6.9605977106
 20
2.471585786
 40
0.06
100
AcDbArc
 50
1.5357166436
 51
42.2473174355
  0
ARC
  5
3CF
100
AcDbEntity
  8
0
100
AcDbCircle
 62
6
  6
CONTINUOUS
 10
7.1187677104
 20
1.9922423096
 40
0.04
100
AcDbArc
 50
143.0058837041
 51
168.480329994
  0
ARC
  5
3D0
100
AcDbEntity
  8
0
100
AcDbCircle
 62
7
  6
CONTINUOUS
 10
7.0942896517
 20
1.9254383181
 40
0.0305
100
AcDbArc
 50
90.0
 51
173.4624504845
  0
ARC
  5
3D1
100
AcDbEntity
  8
0
100
AcDbCircle
 62
6
  6
CONTINUOUS
 10
7.1055396517
 20
1.9949383181
 40
0.0265
100
AcDbArc
 50
168.480329994
 51
270.0
  0
ARC
  5
3D2
100
AcDbEntity
  8
0
100
AcDbCircle
 62
7
  6
CONTINUOUS
 10
6.8620473153
 20
1.7590285792
 40
0.025
100
AcDbArc
 50
160.6427122248
 51
259.6123840894
  0
ARC
  5
3D3
100
AcDbEntity
  8
0
100
AcDbCircle
 62
7
  6
CONTINUOUS
 10
6.8824062337
 20
1.856099009
 40
0.025
100
AcDbArc
 50
97.1504999999
 51
175.6783986727
  0
ARC
  5
3D4
100
AcDbEntity
  8
0
100
AcDbCircle
 62
7
  6
CONTINUOUS
 10
6.9884621774
 20
2.2179052713
 40
0.024
100
AcDbArc
 50
300.0899195195
 51
354.8121150555
  0
ARC
  5
3D5
100
AcDbEntity
  8
0
100
AcDbCircle
 62
7
  6
CONTINUOUS
 10
7.0062253448
 20
2.5920204534
 40
0.024
100
AcDbArc
 50
296.8310541572
 51
357.6342055119
  0
ARC
  5
3D6
100
AcDbEntity
  8
0
100
AcDbCircle
 62
7
  6
CONTINUOUS
 10
6.9731356779
 20
2.1237670489
 40
0.02
100
AcDbArc
 50
325.3813374049
 51
35.7072595814
  0
ARC
  5
3D7
100
AcDbEntity
  8
0
100
AcDbCircle
 62
7
  6
CONTINUOUS
 10
6.9132111281
 20
1.7824829369
 40
0.02
100
AcDbArc
 50
281.2004557679
 51
322.8067033633
  0
ARC
  5
3D8
100
AcDbEntity
  8
0
100
AcDbCircle
 62
7
  6
CONTINUOUS
 10
6.8388765064
 20
1.6743499246
 40
0.02
100
AcDbArc
 50
313.3959580375
 51
21.8359643633
  0
ARC
  5
3D9
100
AcDbEntity
  8
0
100
AcDbCircle
 62
7
  6
CONTINUOUS
 10
6.7701070485
 20
1.6179383181
 40
0.015
100
AcDbArc
 50
145.9474567342
 51
270.0
  0
ARC
  5
3DA
100
AcDbEntity
  8
0
100
AcDbCircle
 62
7
  6
CONTINUOUS
 10
6.9077896517
 20
1.7504383181
 40
0.0125
100
AcDbArc
 50
90.0
 51
155.6081627402
  0
ARC
  5
3DB
100
AcDbEntity
  8
0
100
AcDbCircle
 62
7
  6
CONTINUOUS
 10
6.8690447139
 20
1.6864383181
 40
0.0125
100
AcDbArc
 50
142.0112797187
 51
201.8359643631
  0
ARC
  5
3DC
100
AcDbEntity
  8
0
100
AcDbCircle
 62
7
  6
CONTINUOUS
 10
6.8240915448
 20
1.6129383181
 40
0.01
100
AcDbArc
 50
143.0393905811
 51
270.0
  0
ARC
  5
3DD
100
AcDbEntity
  8
0
100
AcDbCircle
 62
7
  6
CONTINUOUS
 10
4.8071034356
 20
3.7838075508
 40
2.3936484861
100
AcDbArc
 50
353.237311535
 51
354.0900594767
  0
ARC
  5
3DE
100
AcDbEntity
  8
0
100
AcDbCircle
 62
7
  6
CONTINUOUS
 10
6.7633802029
 20
3.4835904618
 40
0.005
100
AcDbArc
 50
180.0
 51
235.8855270543
  0
ARC
  5
3DF
100
AcDbEntity
  8
0
100
AcDbCircle
 62
7
  6
CONTINUOUS
 10
6.8374143196
 20
3.4334383181
 40
0.005
100
AcDbArc
 50
235.8855270539
 51
270.0
  0
ARC
  5
3E0
100
AcDbEntity
  8
0
100
AcDbCircle
 62
7
  6
CONTINUOUS
 10
6.7603212443
 20
3.5037532788
 40
0.005
100
AcDbArc
 50
197.8240571942
 51
247.1294207567
  0
ARC
  5
3E1
100
AcDbEntity
  8
0
100
AcDbCircle
 62
6
  6
CONTINUOUS
 10
7.0421807546
 20
3.1673002317
 40
0.09
100
AcDbArc
 50
4.6951455564
 51
44.7556219146
  0
ARC
  5
3E2
100
AcDbEntity
  8
0
100
AcDbCircle
 62
7
  6
CONTINUOUS
 10
6.9735491168
 20
3.3914395557
 40
0.1848939688
100
AcDbArc
 50
328.957659928
 51
344.9651429501
  0
ARC
  5
3E3
100
AcDbEntity
  8
0
100
AcDbCircle
 62
7
  6
CONTINUOUS
 10
7.0083718823
 20
3.5459704977
 40
0.0540936146
100
AcDbArc
 50
270.008813109
 51
271.5686875785
  0
ARC
  5
3E4
100
AcDbEntity
  8
0
100
AcDbCircle
 62
7
  6
CONTINUOUS
 10
7.0083717306
 20
3.5211117391
 40
0.039469578
100
AcDbArc
 50
270.0122986986
 51
272.1503649463
  0
ARC
  5
3E5
100
AcDbEntity
  8
0
100
AcDbCircle
 62
7
  6
CONTINUOUS
 10
7.0083715511
 20
3.5031633688
 40
0.031146339
100
AcDbArc
 50
270.0159155702
 51
275.254639414
  0
ARC
  5
3E6
100
AcDbEntity
  8
0
100
AcDbCircle
 62
7
  6
CONTINUOUS
 10
7.008810051
 20
3.4989123048
 40
0.026873812
100
AcDbArc
 50
275.1938465969
 51
278.0303877731
  0
ARC
  5
3E7
100
AcDbEntity
  8
0
100
AcDbCircle
 62
7
  6
CONTINUOUS
 10
7.008371294
 20
3.4888295685
 40
0.0257861437
100
AcDbArc
 50
270.0197951535
 51
273.2934683556
  0
ARC
  5
3E8
100
AcDbEntity
  8
0
100
AcDbCircle
 62
7
  6
CONTINUOUS
 10
7.008371014
 20
3.4767883398
 40
0.0220579511
100
AcDbArc
 50
270.0238682493
 51
273.851631831
  0
ARC
  5
3E9
100
AcDbEntity
  8
0
100
AcDbCircle
 62
7
  6
CONTINUOUS
 10
7.0083706968
 20
3.4664288231
 40
0.0193229273
100
AcDbArc
 50
270.0281869735
 51
274.3987525468
  0
ARC
  5
3EA
100
AcDbEntity
  8
0
100
AcDbCircle
 62
7
  6
CONTINUOUS
 10
7.0083703462
 20
3.4574285017
 40
0.0172376571
100
AcDbArc
 50
270.0327624455
 51
274.9332939683
  0
ARC
  5
3EB
100
AcDbEntity
  8
0
100
AcDbCircle
 62
7
  6
CONTINUOUS
 10
7.0025603121
 20
3.4865243195
 40
0.0158009915
100
AcDbArc
 50
341.8736701819
 51
348.9654521328
  0
ARC
  5
3EC
100
AcDbEntity
  8
0
100
AcDbCircle
 62
7
  6
CONTINUOUS
 10
7.0025733574
 20
3.4962551346
 40
0.0157879677
100
AcDbArc
 50
341.8658802146
 51
348.9604789329
  0
ARC
  5
3ED
100
AcDbEntity
  8
0
100
AcDbCircle
 62
7
  6
CONTINUOUS
 10
7.0026315054
 20
3.4773997408
 40
0.0157296834
100
AcDbArc
 50
341.7907379251
 51
348.8921030544
  0
ARC
  5
3EE
100
AcDbEntity
  8
0
100
AcDbCircle
 62
7
  6
CONTINUOUS
 10
7.0026644493
 20
3.5065620851
 40
0.0156970275
100
AcDbArc
 50
341.811207888
 51
348.9255631764
  0
ARC
  5
3EF
100
AcDbEntity
  8
0
100
AcDbCircle
 62
7
  6
CONTINUOUS
 10
7.0083699658
 20
3.4496050735
 40
0.0156008848
100
AcDbArc
 50
270.0375965687
 51
275.4537683946
  0
ARC
  5
3F0
100
AcDbEntity
  8
0
100
AcDbCircle
 62
7
  6
CONTINUOUS
 10
7.0027680796
 20
3.4688961324
 40
0.0155935723
100
AcDbArc
 50
341.748404381
 51
348.8854366225
  0
ARC
  5
3F1
100
AcDbEntity
  8
0
100
AcDbCircle
 62
7
  6
CONTINUOUS
 10
7.0028325912
 20
3.5174169338
 40
0.0155291709
100
AcDbArc
 50
341.7089785719
 51
348.8602359703
  0
ARC
  5
3F2
100
AcDbEntity
  8
0
100
AcDbCircle
 62
7
  6
CONTINUOUS
 10
7.002986519
 20
3.461047128
 40
0.0153755121
100
AcDbArc
 50
341.6138693564
 51
348.7993713401
  0
ARC
  5
3F3
100
AcDbEntity
  8
0
100
AcDbCircle
 62
7
  6
CONTINUOUS
 10
7.0032786786
 20
3.4538707862
 40
0.0150838738
100
AcDbArc
 50
341.4291735893
 51
348.6811676696
  0
ARC
  5
3F4
100
AcDbEntity
  8
0
100
AcDbCircle
 62
7
  6
CONTINUOUS
 10
7.0036410674
 20
3.4473868806
 40
0.0147221658
100
AcDbArc
 50
341.1921619805
 51
348.529176496
  0
ARC
  5
3F5
100
AcDbEntity
  8
0
100
AcDbCircle
 62
7
  6
CONTINUOUS
 10
7.0037016312
 20
3.48614958
 40
0.0145997265
100
AcDbArc
 50
334.6875941745
 51
341.8778410741
  0
ARC
  5
3F6
100
AcDbEntity
  8
0
100
AcDbCircle
 62
7
  6
CONTINUOUS
 10
7.0037122896
 20
3.4958810135
 40
0.0145891634
100
AcDbArc
 50
334.6774035854
 51
341.8700224327
  0
ARC
  5
3F7
100
AcDbEntity
  8
0
100
AcDbCircle
 62
7
  6
CONTINUOUS
 10
7.003761107
 20
3.4770270704
 40
0.0145401953
100
AcDbArc
 50
334.5963880592
 51
341.7947577219
  0
ARC
  5
3F8
100
AcDbEntity
  8
0
100
AcDbCircle
 62
7
  6
CONTINUOUS
 10
7.0037867149
 20
3.5061922955
 40
0.0145154087
100
AcDbArc
 50
334.6059081133
 51
341.8151483661
  0
ARC
  5
3F9
100
AcDbEntity
  8
0
100
AcDbCircle
 62
7
  6
CONTINUOUS
 10
7.0039240936
 20
3.5170552023
 40
0.0143792899
100
AcDbArc
 50
334.4723285752
 51
341.7125397846
  0
ARC
  5
3FA
100
AcDbEntity
  8
0
100
AcDbCircle
 62
7
  6
CONTINUOUS
 10
7.0040698167
 20
3.4416132263
 40
0.014294271
100
AcDbArc
 50
340.8996711108
 51
348.341209696
  0
ARC
  5
3FB
100
AcDbEntity
  8
0
100
AcDbCircle
 62
7
  6
CONTINUOUS
 10
7.0083695825
 20
3.4428472602
 40
0.0142871992
100
AcDbArc
 50
270.0425905325
 51
275.9534466435
  0
ARC
  5
3FC
100
AcDbEntity
  8
0
100
AcDbCircle
 62
7
  6
CONTINUOUS
 10
7.0042885711
 20
3.4535308443
 40
0.0140183021
100
AcDbArc
 50
334.1074293787
 51
341.4316837386
  0
ARC
  5
3FD
100
AcDbEntity
  8
0
100
AcDbCircle
 62
7
  6
CONTINUOUS
 10
7.004564297
 20
3.4365671749
 40
0.0138006626
100
AcDbArc
 50
340.501199275
 51
348.0626374931
  0
ARC
  5
3FE
100
AcDbEntity
  8
0
100
AcDbCircle
 62
7
  6
CONTINUOUS
 10
7.0083691334
 20
3.4370949396
 40
0.0132130911
100
AcDbArc
 50
270.0480004329
 51
276.4468266645
  0
ARC
  5
3FF
100
AcDbEntity
  8
0
100
AcDbCircle
 62
7
  6
CONTINUOUS
 10
7.0051688115
 20
3.4322405663
 40
0.0131952467
100
AcDbArc
 50
340.1127640825
 51
347.8642488015
  0
ARC
  5
400
100
AcDbEntity
  8
0
100
AcDbCircle
 62
7
  6
CONTINUOUS
 10
7.0057584573
 20
3.4286868816
 40
0.0126073006
100
AcDbArc
 50
339.6272995078
 51
347.5475336722
  0
ARC
  5
401
100
AcDbEntity
  8
0
100
AcDbCircle
 62
7
  6
CONTINUOUS
 10
7.0057824834
 20
3.4320147979
 40
0.0125413726
100
AcDbArc
 50
332.4290545469
 51
340.1289898538
  0
ARC
  5
402
100
AcDbEntity
  8
0
100
AcDbCircle
 62
7
  6
CONTINUOUS
 10
7.0083686905
 20
3.4322969802
 40
0.0123230713
100
AcDbArc
 50
270.05352626
 51
276.9167114976
  0
ARC
  5
403
100
AcDbEntity
  8
0
100
AcDbCircle
 62
7
  6
CONTINUOUS
 10
7.0063292974
 20
3.4284672392
 40
0.0119957068
100
AcDbArc
 50
331.784667103
 51
339.6615907907
  0
ARC
  5
404
100
AcDbEntity
  8
0
100
AcDbCircle
 62
7
  6
CONTINUOUS
 10
7.0063913187
 20
3.4258953364
 40
0.011976476
100
AcDbArc
 50
339.0644832648
 51
347.1784799242
  0
ARC
  5
405
100
AcDbEntity
  8
0
100
AcDbCircle
 62
7
  6
CONTINUOUS
 10
7.0083682364
 20
3.4284267445
 40
0.0115769669
100
AcDbArc
 50
270.0592235519
 51
277.3671368051
  0
ARC
  5
406
100
AcDbEntity
  8
0
100
AcDbCircle
 62
7
  6
CONTINUOUS
 10
7.0083677759
 20
3.4254638683
 40
0.0109458503
100
AcDbArc
 50
270.0650484733
 51
277.7969107208
  0
ARC
  5
407
100
AcDbEntity
  8
0
100
AcDbCircle
 62
7
  6
CONTINUOUS
 10
7.0083673142
 20
3.4233932623
 40
0.0104082412
100
AcDbArc
 50
270.0709499233
 51
278.2049109391
  0
ARC
  5
408
100
AcDbEntity
  8
0
100
AcDbCircle
 62
7
  6
CONTINUOUS
 10
6.7948384849
 20
3.7059348904
 40
0.065405866
100
AcDbArc
 50
179.0198592285
 51
179.9969972999
  0
ARC
  5
409
100
AcDbEntity
  8
0
100
AcDbCircle
 62
7
  6
CONTINUOUS
 10
6.7851013854
 20
3.7623259651
 40
0.0448181223
100
AcDbArc
 50
174.9415304556
 51
177.3351559217
  0
ARC
  5
40A
100
AcDbEntity
  8
0
100
AcDbCircle
 62
7
  6
CONTINUOUS
 10
7.002637534
 20
3.934478021
 40
0.0157235509
100
AcDbArc
 50
11.1081047713
 51
18.2190936763
  0
ARC
  5
40B
100
AcDbEntity
  8
0
100
AcDbCircle
 62
7
  6
CONTINUOUS
 10
7.0027740465
 20
3.9429816177
 40
0.0155875026
100
AcDbArc
 50
11.1147740814
 51
18.2614848335
  0
ARC
  5
40C
100
AcDbEntity
  8
0
100
AcDbCircle
 62
7
  6
CONTINUOUS
 10
7.004569428
 20
3.9753104845
 40
0.0137954309
100
AcDbArc
 50
11.9376129653
 51
19.5092438165
  0
ARC
  5
40D
100
AcDbEntity
  8
0
100
AcDbCircle
 62
7
  6
CONTINUOUS
 10
6.7633802029
 20
3.9282861745
 40
0.005
100
AcDbArc
 50
124.1144729456
 51
180.0
  0
ARC
  5
40E
100
AcDbEntity
  8
0
100
AcDbCircle
 62
7
  6
CONTINUOUS
 10
6.8374143196
 20
3.9784383181
 40
0.005
100
AcDbArc
 50
90.0
 51
124.1144729461
  0
ARC
  5
40F
100
AcDbEntity
  8
0
100
AcDbCircle
 62
7
  6
CONTINUOUS
 10
6.7603212443
 20
3.9081233575
 40
0.005
100
AcDbArc
 50
112.8705792433
 51
162.1759428058
  0
ARC
  5
410
100
AcDbEntity
  8
0
100
AcDbCircle
 62
7
  6
CONTINUOUS
 10
7.084510057
 20
3.3616352976
 40
0.07
100
AcDbArc
 50
344.9651429501
 51
41.3826298641
  0
ARC
  5
411
100
AcDbEntity
  8
0
100
AcDbCircle
 62
7
  6
CONTINUOUS
 10
7.1582697336
 20
3.3901849922
 40
0.0553114226
100
AcDbArc
 50
107.9004598592
 51
110.262008164
  0
ARC
  5
412
100
AcDbEntity
  8
0
100
AcDbCircle
 62
6
  6
CONTINUOUS
 10
7.1270396517
 20
3.2514383181
 40
0.0295
100
AcDbArc
 50
90.0
 51
224.7556219146
  0
ARC
  5
413
100
AcDbEntity
  8
0
100
AcDbCircle
 62
7
  6
CONTINUOUS
 10
7.1298355677
 20
3.4251495536
 40
0.025039266
100
AcDbArc
 50
78.7078460322
 51
89.991500702
  0
ARC
  5
414
100
AcDbEntity
  8
0
100
AcDbCircle
 62
7
  6
CONTINUOUS
 10
7.1557896517
 20
3.4244383181
 40
0.025
100
AcDbArc
 50
137.2533923981
 51
221.382629864
  0
ARC
  5
415
100
AcDbEntity
  8
0
100
AcDbCircle
 62
7
  6
CONTINUOUS
 10
7.1405316318
 20
3.2909383181
 40
0.01
100
AcDbArc
 50
148.9576599277
 51
270.0
  0
ARC
  5
416
100
AcDbEntity
  8
0
100
AcDbCircle
 62
7
  6
CONTINUOUS
 10
7.3891466598
 20
3.7059383181
 40
0.6655302365
100
AcDbArc
 50
167.1481751459
 51
170.7147267369
  0
ARC
  5
417
100
AcDbEntity
  8
0
100
AcDbCircle
 62
7
  6
CONTINUOUS
 10
7.3891466598
 20
3.7059383181
 40
0.6655302365
100
AcDbArc
 50
172.4196365177
 51
187.5803634823
  0
ARC
  5
418
100
AcDbEntity
  8
0
100
AcDbCircle
 62
7
  6
CONTINUOUS
 10
7.3891466598
 20
3.7059383181
 40
0.6655302365
100
AcDbArc
 50
189.2852732631
 51
192.8518248541
  0
ARC
  5
419
100
AcDbEntity
  8
0
100
AcDbCircle
 62
7
  6
CONTINUOUS
 10
6.6475255071
 20
4.1003224378
 40
1.4336158804
100
AcDbArc
 50
79.9786617007
 51
93.9127655787
  0
ARC
  5
41A
100
AcDbEntity
  8
0
100
AcDbCircle
 62
7
  6
CONTINUOUS
 10
7.0962519027
 20
4.2116901638
 40
0.2499981749
100
AcDbArc
 50
270.0003833306
 51
300.2857726448
  0
ARC
  5
41B
100
AcDbEntity
  8
0
100
AcDbCircle
 62
7
  6
CONTINUOUS
 10
7.0745482649
 20
4.7274416031
 40
0.1
100
AcDbArc
 50
2.5939678411
 51
32.9837411235
  0
ARC
  5
41C
100
AcDbEntity
  8
0
100
AcDbCircle
 62
7
  6
CONTINUOUS
 10
7.1877896517
 20
4.8009357411
 40
0.035
100
AcDbArc
 50
123.5148367581
 51
212.9837411234
  0
ARC
  5
41D
100
AcDbEntity
  8
0
100
AcDbCircle
 62
7
  6
CONTINUOUS
 10
7.0082998318
 20
3.9894518446
 40
0.0100986373
100
AcDbArc
 50
65.0016773664
 51
81.1544509344
  0
ARC
  5
41E
100
AcDbEntity
  8
0
100
AcDbCircle
 62
7
  6
CONTINUOUS
 10
7.0082482108
 20
3.9851195242
 40
0.0093950717
100
AcDbArc
 50
53.4154565969
 51
80.1667505344
  0
ARC
  5
41F
100
AcDbEntity
  8
0
100
AcDbCircle
 62
7
  6
CONTINUOUS
 10
7.0106844732
 20
3.9864297095
 40
0.007708114
100
AcDbArc
 50
16.656075872
 51
26.592868055
  0
ARC
  5
420
100
AcDbEntity
  8
0
100
AcDbCircle
 62
7
  6
CONTINUOUS
 10
-11.9248282469
 20
5.6170292191
 40
19.556
100
AcDbArc
 50
355.2433513319
 51
357.4060321589
  0
ARC
  5
421
100
AcDbEntity
  8
0
100
AcDbCircle
 62
7
  6
CONTINUOUS
 10
3.7259597327
 20
5.9650968301
 40
1.077841488
100
AcDbArc
 50
66.0
 51
180.0
  0
ARC
  5
422
100
AcDbEntity
  8
0
100
AcDbCircle
 62
7
  6
CONTINUOUS
 10
3.7259597327
 20
5.9650968301
 40
0.642841488
100
AcDbArc
 50
66.0
 51
180.0
  0
ARC
  5
423
100
AcDbEntity
  8
0
100
AcDbCircle
 62
7
  6
CONTINUOUS
 10
2.51072828
 20
5.7272459415
 40
0.09
100
AcDbArc
 50
5.0
 51
39.5012611871
  0
ARC
  5
424
100
AcDbEntity
  8
0
100
AcDbCircle
 62
7
  6
CONTINUOUS
 10
3.2205082094
 20
5.7272459415
 40
0.09
100
AcDbArc
 50
140.4987388129
 51
175.0
  0
ARC
  5
425
100
AcDbEntity
  8
0
100
AcDbCircle
 62
7
  6
CONTINUOUS
 10
3.2047658391
 20
5.5473098249
 40
0.09
100
AcDbArc
 50
175.0
 51
210.4655828497
  0
ARC
  5
426
100
AcDbEntity
  8
0
100
AcDbCircle
 62
7
  6
CONTINUOUS
 10
2.5264706503
 20
5.5473098249
 40
0.09
100
AcDbArc
 50
329.5344171503
 51
5.0
  0
ARC
  5
427
100
AcDbEntity
  8
0
100
AcDbCircle
 62
7
  6
CONTINUOUS
 10
2.6423510007
 20
5.4799383181
 40
0.04
100
AcDbArc
 50
218.2072845329
 51
270.0
  0
ARC
  5
428
100
AcDbEntity
  8
0
100
AcDbCircle
 62
7
  6
CONTINUOUS
 10
3.0888854887
 20
5.4799383181
 40
0.04
100
AcDbArc
 50
270.0
 51
321.7927154671
  0
ARC
  5
429
100
AcDbEntity
  8
0
100
AcDbCircle
 62
7
  6
CONTINUOUS
 10
2.6110376556
 20
5.8099383181
 40
0.04
100
AcDbArc
 50
90.0
 51
219.5012611871
  0
ARC
  5
42A
100
AcDbEntity
  8
0
100
AcDbCircle
 62
7
  6
CONTINUOUS
 10
3.1201988338
 20
5.8099383181
 40
0.04
100
AcDbArc
 50
320.4987388129
 51
90.0
  0
ARC
  5
42B
100
AcDbEntity
  8
0
100
AcDbCircle
 62
7
  6
CONTINUOUS
 10
7.3680547431
 20
5.9223916672
 40
0.675
100
AcDbArc
 50
90.0
 51
109.6215522579
  0
ARC
  5
42C
100
AcDbEntity
  8
0
100
AcDbCircle
 62
7
  6
CONTINUOUS
 10
6.9903246789
 20
5.2883388183
 40
0.08
100
AcDbArc
 50
0.6615703294
 51
42.0641470042
  0
ARC
  5
42D
100
AcDbEntity
  8
0
100
AcDbCircle
 62
7
  6
CONTINUOUS
 10
6.554475667
 20
5.4607598661
 40
0.07
100
AcDbArc
 50
93.9127655787
 51
127.7557621318
  0
ARC
  5
42E
100
AcDbEntity
  8
0
100
AcDbCircle
 62
7
  6
CONTINUOUS
 10
6.8848150308
 20
5.4431336498
 40
0.07
100
AcDbArc
 50
32.1820829817
 51
79.9786617007
  0
ARC
  5
42F
100
AcDbEntity
  8
0
100
AcDbCircle
 62
7
  6
CONTINUOUS
 10
7.0905480333
 20
5.3787837145
 40
0.055
100
AcDbArc
 50
134.7401082816
 51
222.0641469981
  0
ARC
  5
430
100
AcDbEntity
  8
0
100
AcDbCircle
 62
7
  6
CONTINUOUS
 10
7.0799896517
 20
5.3894383181
 40
0.04
100
AcDbArc
 50
90.0
 51
134.7401082383
  0
ARC
  5
431
100
AcDbEntity
  8
0
100
AcDbCircle
 62
7
  6
CONTINUOUS
 10
6.4795682447
 20
5.5469383181
 40
0.039
100
AcDbArc
 50
180.0
 51
270.0
  0
ARC
  5
432
100
AcDbEntity
  8
0
100
AcDbCircle
 62
7
  6
CONTINUOUS
 10
6.4877353163
 20
5.5469383181
 40
0.039
100
AcDbArc
 50
270.0
 51
307.7557621278
  0
ARC
  5
433
100
AcDbEntity
  8
0
100
AcDbCircle
 62
7
  6
CONTINUOUS
 10
6.9770682447
 20
5.5011883181
 40
0.039
100
AcDbArc
 50
212.1820829817
 51
270.0
  0
ARC
  5
434
100
AcDbEntity
  8
0
100
AcDbCircle
 62
7
  6
CONTINUOUS
 10
6.9805682447
 20
5.5011883181
 40
0.039
100
AcDbArc
 50
270.0
 51
329.208011109
  0
ARC
  5
435
100
AcDbEntity
  8
0
100
AcDbCircle
 62
7
  6
CONTINUOUS
 10
7.0269559448
 20
5.4735444891
 40
0.015
100
AcDbArc
 50
40.8998864832
 51
149.208011109
  0
ARC
  5
436
100
AcDbEntity
  8
0
100
AcDbCircle
 62
7
  6
CONTINUOUS
 10
7.3908354068
 20
6.3686753776
 40
2.8222094917
100
AcDbArc
 50
274.9885650897
 51
276.4545493766
  0
ARC
  5
437
100
AcDbEntity
  8
0
100
AcDbCircle
 62
7
  6
CONTINUOUS
 10
6.4391182447
 20
6.7578947957
 40
1.1849564775
100
AcDbArc
 50
246.0
 51
270.0
  0
ARC
  5
438
100
AcDbEntity
  8
0
100
AcDbCircle
 62
7
  6
CONTINUOUS
 10
6.4391182447
 20
6.7578947957
 40
0.7499564775
100
AcDbArc
 50
246.0
 51
270.0
  0
ARC
  5
439
100
AcDbEntity
  8
0
100
AcDbCircle
 62
7
  6
CONTINUOUS
 10
7.3223263236
 20
6.694725227
 40
0.4
100
AcDbArc
 50
304.2163310183
 51
325.2792910921
  0
ARC
  5
43A
100
AcDbEntity
  8
0
100
AcDbCircle
 62
7
  6
CONTINUOUS
 10
7.0708665143
 20
6.7560007822
 40
0.21
100
AcDbArc
 50
283.0471477631
 51
289.6215522579
  0
ARC
  5
43B
100
AcDbEntity
  8
0
100
AcDbCircle
 62
7
  6
CONTINUOUS
 10
6.554475667
 20
6.1201167702
 40
0.07
100
AcDbArc
 50
232.2442378682
 51
266.0872344213
  0
ARC
  5
43C
100
AcDbEntity
  8
0
100
AcDbCircle
 62
7
  6
CONTINUOUS
 10
6.8848150308
 20
6.1377429865
 40
0.07
100
AcDbArc
 50
280.0213382993
 51
327.8179170183
  0
ARC
  5
43D
100
AcDbEntity
  8
0
100
AcDbCircle
 62
7
  6
CONTINUOUS
 10
7.2836623235
 20
6.2277181603
 40
0.07
100
AcDbArc
 50
127.742068257
 51
176.5436578978
  0
ARC
  5
43E
100
AcDbEntity
  8
0
100
AcDbCircle
 62
7
  6
CONTINUOUS
 10
7.2102093857
 20
6.3226110785
 40
0.05
100
AcDbArc
 50
307.742068257
 51
55.7836689817
  0
ARC
  5
43F
100
AcDbEntity
  8
0
100
AcDbCircle
 62
7
  6
CONTINUOUS
 10
7.0933807772
 20
6.4384157387
 40
0.05
100
AcDbArc
 50
34.7207089079
 51
65.1574082513
  0
ARC
  5
440
100
AcDbEntity
  8
0
100
AcDbCircle
 62
7
  6
CONTINUOUS
 10
6.4795682447
 20
6.0339383181
 40
0.039
100
AcDbArc
 50
90.0
 51
180.0
  0
ARC
  5
441
100
AcDbEntity
  8
0
100
AcDbCircle
 62
7
  6
CONTINUOUS
 10
6.4877353163
 20
6.0339383181
 40
0.039
100
AcDbArc
 50
52.2442378722
 51
90.0
  0
ARC
  5
442
100
AcDbEntity
  8
0
100
AcDbCircle
 62
7
  6
CONTINUOUS
 10
6.9770682447
 20
6.0796883181
 40
0.039
100
AcDbArc
 50
90.0
 51
147.8179170183
  0
ARC
  5
443
100
AcDbEntity
  8
0
100
AcDbCircle
 62
7
  6
CONTINUOUS
 10
6.9805682447
 20
6.0796883181
 40
0.039
100
AcDbArc
 50
30.791988891
 51
90.0
  0
ARC
  5
444
100
AcDbEntity
  8
0
100
AcDbCircle
 62
7
  6
CONTINUOUS
 10
7.1227896517
 20
6.5319383181
 40
0.02
100
AcDbArc
 50
103.0471477631
 51
180.0
  0
ARC
  5
445
100
AcDbEntity
  8
0
100
AcDbCircle
 62
7
  6
CONTINUOUS
 10
7.1227896517
 20
6.5019383181
 40
0.02
100
AcDbArc
 50
180.0
 51
245.1574082513
  0
ARC
  5
446
100
AcDbEntity
  8
0
100
AcDbCircle
 62
7
  6
CONTINUOUS
 10
7.0269559448
 20
6.1073321472
 40
0.015
100
AcDbArc
 50
210.791988891
 51
319.1001135169
  0
ARC
  5
447
100
AcDbEntity
  8
0
100
AcDbCircle
 62
7
  6
CONTINUOUS
 10
4.6119963649
 20
8.6903462291
 40
4.63
100
AcDbArc
 50
303.5148367581
 51
303.7140595543
  0
ARC
  5
448
100
AcDbEntity
  8
0
100
AcDbCircle
 62
7
  6
CONTINUOUS
 10
6.6475255071
 20
7.4805541985
 40
1.4336158804
100
AcDbArc
 50
266.0872344213
 51
280.0213382993
  0
ARC
  5
449
100
AcDbEntity
  8
0
100
AcDbCircle
 62
6
  6
CONTINUOUS
 10
13.1217896517
 20
2.725574758
 40
5.4865
100
AcDbArc
 50
175.3048544436
 51
186.7656051539
  0
ARC
  5
44A
100
AcDbEntity
  8
0
100
AcDbCircle
 62
7
  6
CONTINUOUS
 10
9.958695376
 20
2.4143061753
 40
2.194482576
100
AcDbArc
 50
178.462317653
 51
185.1915956999
  0
ARC
  5
44B
100
AcDbEntity
  8
0
100
AcDbCircle
 62
7
  6
CONTINUOUS
 10
7.4337896517
 20
1.3874383181
 40
0.6335
100
AcDbArc
 50
128.646618565
 51
142.8067033636
  0
ARC
  5
44C
100
AcDbEntity
  8
0
100
AcDbCircle
 62
7
  6
CONTINUOUS
 10
7.6252408983
 20
1.354545173
 40
0.4858059142
100
AcDbArc
 50
34.0191020753
 51
51.4429487384
  0
ARC
  5
44D
100
AcDbEntity
  8
0
100
AcDbCircle
 62
7
  6
CONTINUOUS
 10
8.2798055873
 20
1.8844190631
 40
0.3526969389
100
AcDbArc
 50
184.2986167176
 51
199.3918027451
  0
ARC
  5
44E
100
AcDbEntity
  8
0
100
AcDbCircle
 62
6
  6
CONTINUOUS
 10
7.802590135
 20
2.094536921
 40
0.13
100
AcDbArc
 50
186.7656051539
 51
216.9941162959
  0
ARC
  5
44F
100
AcDbEntity
  8
0
100
AcDbCircle
 62
7
  6
CONTINUOUS
 10
7.7911361457
 20
1.9368806792
 40
0.07
100
AcDbArc
 50
186.5375495155
 51
231.353381435
  0
ARC
  5
450
100
AcDbEntity
  8
0
100
AcDbCircle
 62
7
  6
CONTINUOUS
 10
7.8249815928
 20
2.471585786
 40
0.06
100
AcDbArc
 50
137.7526825645
 51
178.4642833564
  0
ARC
  5
451
100
AcDbEntity
  8
0
100
AcDbCircle
 62
6
  6
CONTINUOUS
 10
7.6668115929
 20
1.9922423096
 40
0.04
100
AcDbArc
 50
11.519670006
 51
36.9941162959
  0
ARC
  5
452
100
AcDbEntity
  8
0
100
AcDbCircle
 62
7
  6
CONTINUOUS
 10
7.6912896517
 20
1.9254383181
 40
0.0305
100
AcDbArc
 50
6.5375495155
 51
90.0
  0
ARC
  5
453
100
AcDbEntity
  8
0
100
AcDbCircle
 62
6
  6
CONTINUOUS
 10
7.6800396517
 20
1.9949383181
 40
0.0265
100
AcDbArc
 50
270.0
 51
11.519670006
  0
ARC
  5
454
100
AcDbEntity
  8
0
100
AcDbCircle
 62
7
  6
CONTINUOUS
 10
7.9235319881
 20
1.7590285792
 40
0.025
100
AcDbArc
 50
280.3876159106
 51
19.3572877752
  0
ARC
  5
455
100
AcDbEntity
  8
0
100
AcDbCircle
 62
7
  6
CONTINUOUS
 10
7.9031730697
 20
1.856099009
 40
0.025
100
AcDbArc
 50
4.3216013273
 51
82.8495000001
  0
ARC
  5
456
100
AcDbEntity
  8
0
100
AcDbCircle
 62
7
  6
CONTINUOUS
 10
7.797117126
 20
2.2179052713
 40
0.024
100
AcDbArc
 50
185.1878849446
 51
239.9100804808
  0
ARC
  5
457
100
AcDbEntity
  8
0
100
AcDbCircle
 62
7
  6
CONTINUOUS
 10
7.7793539586
 20
2.5920204534
 40
0.024
100
AcDbArc
 50
182.3657944882
 51
243.1689458434
  0
ARC
  5
458
100
AcDbEntity
  8
0
100
AcDbCircle
 62
7
  6
CONTINUOUS
 10
7.8124436254
 20
2.1237670489
 40
0.02
100
AcDbArc
 50
144.2927404212
 51
214.6186625925
  0
ARC
  5
459
100
AcDbEntity
  8
0
100
AcDbCircle
 62
7
  6
CONTINUOUS
 10
7.8723681752
 20
1.7824829369
 40
0.02
100
AcDbArc
 50
217.1932966367
 51
258.7995442321
  0
ARC
  5
45A
100
AcDbEntity
  8
0
100
AcDbCircle
 62
7
  6
CONTINUOUS
 10
7.946702797
 20
1.6743499246
 40
0.02
100
AcDbArc
 50
158.1640356367
 51
226.6040419625
  0
ARC
  5
45B
100
AcDbEntity
  8
0
100
AcDbCircle
 62
7
  6
CONTINUOUS
 10
8.0401553926
 20
2.7532016645
 40
0.02
100
AcDbArc
 50
198.9999999993
 51
268.9999999993
  0
ARC
  5
45C
100
AcDbEntity
  8
0
100
AcDbCircle
 62
7
  6
CONTINUOUS
 10
8.0667557849
 20
2.7527373529
 40
0.02
100
AcDbArc
 50
269.0000000007
 51
19.0000000007
  0
ARC
  5
45D
100
AcDbEntity
  8
0
100
AcDbCircle
 62
7
  6
CONTINUOUS
 10
8.0154722548
 20
1.6179383181
 40
0.015
100
AcDbArc
 50
270.0
 51
34.0525432668
  0
ARC
  5
45E
100
AcDbEntity
  8
0
100
AcDbCircle
 62
7
  6
CONTINUOUS
 10
7.8777896517
 20
1.7504383181
 40
0.0125
100
AcDbArc
 50
24.3918372598
 51
90.0
  0
ARC
  5
45F
100
AcDbEntity
  8
0
100
AcDbCircle
 62
7
  6
CONTINUOUS
 10
7.9165345895
 20
1.6864383181
 40
0.0125
100
AcDbArc
 50
338.1640356369
 51
37.9887202813
  0
ARC
  5
460
100
AcDbEntity
  8
0
100
AcDbCircle
 62
7
  6
CONTINUOUS
 10
7.9614877585
 20
1.6129383181
 40
0.01
100
AcDbArc
 50
270.0
 51
36.9606094189
  0
ARC
  5
461
100
AcDbEntity
  8
0
100
AcDbCircle
 62
7
  6
CONTINUOUS
 10
7.3927896517
 20
3.2529383181
 40
0.52
100
AcDbArc
 50
162.1859506254
 51
242.1290339542
  0
ARC
  5
462
100
AcDbEntity
  8
0
100
AcDbCircle
 62
7
  6
CONTINUOUS
 10
7.3927896517
 20
3.2529383181
 40
0.52
100
AcDbArc
 50
1.0249420585
 51
34.5946458639
  0
ARC
  5
463
100
AcDbEntity
  8
0
100
AcDbCircle
 62
7
  6
CONTINUOUS
 10
7.3927896517
 20
3.2529383181
 40
0.52
100
AcDbArc
 50
297.8709660458
 51
344.7106104362
  0
ARC
  5
464
100
AcDbEntity
  8
0
100
AcDbCircle
 62
7
  6
CONTINUOUS
 10
7.3927896517
 20
3.2529383181
 40
0.5160526316
100
AcDbArc
 50
161.9814945151
 51
241.8757612569
  0
ARC
  5
465
100
AcDbEntity
  8
0
100
AcDbCircle
 62
7
  6
CONTINUOUS
 10
7.3927896517
 20
3.2529383181
 40
0.5160526316
100
AcDbArc
 50
298.1242387431
 51
345.3714022876
  0
ARC
  5
466
100
AcDbEntity
  8
0
100
AcDbCircle
 62
7
  6
CONTINUOUS
 10
7.3927896517
 20
3.2529383181
 40
0.5160526316
100
AcDbArc
 50
2.4741614808
 51
33.4262266923
  0
ARC
  5
467
100
AcDbEntity
  8
0
100
AcDbCircle
 62
7
  6
CONTINUOUS
 10
7.3927896517
 20
3.2529383181
 40
0.505
100
AcDbArc
 50
161.5111220264
 51
241.1970184475
  0
ARC
  5
468
100
AcDbEntity
  8
0
100
AcDbCircle
 62
7
  6
CONTINUOUS
 10
7.3927896517
 20
3.2529383181
 40
0.505
100
AcDbArc
 50
7.3930515848
 51
29.4455885989
  0
ARC
  5
469
100
AcDbEntity
  8
0
100
AcDbCircle
 62
7
  6
CONTINUOUS
 10
7.3927896517
 20
3.2529383181
 40
0.505
100
AcDbArc
 50
298.8029815525
 51
347.2499584122
  0
ARC
  5
46A
100
AcDbEntity
  8
0
100
AcDbCircle
 62
7
  6
CONTINUOUS
 10
7.3927896517
 20
3.2529383181
 40
0.4495390131
100
AcDbArc
 50
159.1371196601
 51
236.9682465208
  0
ARC
  5
46B
100
AcDbEntity
  8
0
100
AcDbCircle
 62
7
  6
CONTINUOUS
 10
7.3927896517
 20
3.2529383181
 40
0.4495390131
100
AcDbArc
 50
303.0317534792
 51
1.9125755399
  0
ARC
  5
46C
100
AcDbEntity
  8
0
100
AcDbCircle
 62
7
  6
CONTINUOUS
 10
7.3927896517
 20
3.2529383181
 40
0.4495390131
100
AcDbArc
 50
35.9794800631
 51
43.6748325481
  0
ARC
  5
46D
100
AcDbEntity
  8
0
100
AcDbCircle
 62
7
  6
CONTINUOUS
 10
7.3927896517
 20
3.2529383181
 40
0.445
100
AcDbArc
 50
158.9166309521
 51
236.5702731502
  0
ARC
  5
46E
100
AcDbEntity
  8
0
100
AcDbCircle
 62
7
  6
CONTINUOUS
 10
7.3927896517
 20
3.2529383181
 40
0.445
100
AcDbArc
 50
34.364106589
 51
42.8571428571
  0
ARC
  5
46F
100
AcDbEntity
  8
0
100
AcDbCircle
 62
7
  6
CONTINUOUS
 10
7.3927896517
 20
3.2529383181
 40
0.445
100
AcDbArc
 50
303.4297268498
 51
3.8380611129
  0
ARC
  5
470
100
AcDbEntity
  8
0
100
AcDbCircle
 62
7
  6
CONTINUOUS
 10
7.3927896517
 20
3.2529383181
 40
0.4074399772
100
AcDbArc
 50
151.0277220979
 51
232.801604351
  0
ARC
  5
471
100
AcDbEntity
  8
0
100
AcDbCircle
 62
7
  6
CONTINUOUS
 10
7.3927896517
 20
3.2529383181
 40
0.4074399772
100
AcDbArc
 50
307.198395649
 51
37.0309665639
  0
ARC
  5
472
100
AcDbEntity
  8
0
100
AcDbCircle
 62
7
  6
CONTINUOUS
 10
7.3927896517
 20
3.2529383181
 40
0.3786377351
100
AcDbArc
 50
310.9555048277
 51
32.539147355
  0
ARC
  5
473
100
AcDbEntity
  8
0
100
AcDbCircle
 62
7
  6
CONTINUOUS
 10
7.3927896517
 20
3.2529383181
 40
0.3786377351
100
AcDbArc
 50
148.5795528131
 51
229.0444951723
  0
ARC
  5
474
100
AcDbEntity
  8
0
100
AcDbCircle
 62
7
  6
CONTINUOUS
 10
7.5737941433
 20
3.8359517789
 40
0.4908259486
100
AcDbArc
 50
164.1532326515
 51
165.1347855094
  0
ARC
  5
475
100
AcDbEntity
  8
0
100
AcDbCircle
 62
7
  6
CONTINUOUS
 10
7.3927896517
 20
3.7039383181
 40
0.338
100
AcDbArc
 50
54.9314345069
 51
120.2858658987
  0
ARC
  5
476
100
AcDbEntity
  8
0
100
AcDbCircle
 62
7
  6
CONTINUOUS
 10
7.8120301865
 20
3.3914395557
 40
0.1848939688
100
AcDbArc
 50
195.0348570499
 51
211.042340072
  0
ARC
  5
477
100
AcDbEntity
  8
0
100
AcDbCircle
 62
6
  6
CONTINUOUS
 10
7.7433985488
 20
3.1673002317
 40
0.09
100
AcDbArc
 50
135.2443780853
 51
175.3048544436
  0
ARC
  5
478
100
AcDbEntity
  8
0
100
AcDbCircle
 62
7
  6
CONTINUOUS
 10
7.7010692463
 20
3.3616352976
 40
0.07
100
AcDbArc
 50
138.6173701359
 51
195.0348570499
  0
ARC
  5
479
100
AcDbEntity
  8
0
100
AcDbCircle
 62
6
  6
CONTINUOUS
 10
7.6585396517
 20
3.2514383181
 40
0.0295
100
AcDbArc
 50
315.2443780854
 51
90.0
  0
ARC
  5
47A
100
AcDbEntity
  8
0
100
AcDbCircle
 62
7
  6
CONTINUOUS
 10
7.6297896517
 20
3.4244383181
 40
0.025
100
AcDbArc
 50
318.617370136
 51
47.8492454758
  0
ARC
  5
47B
100
AcDbEntity
  8
0
100
AcDbCircle
 62
7
  6
CONTINUOUS
 10
7.6450476716
 20
3.2909383181
 40
0.01
100
AcDbArc
 50
280.0868616727
 51
31.042340072
  0
ARC
  5
47C
100
AcDbEntity
  8
0
100
AcDbCircle
 62
7
  6
CONTINUOUS
 10
7.7077896396
 20
3.465599785
 40
0.0099999975
100
AcDbArc
 50
271.8714717319
 51
0.0372131177
  0
ARC
  5
47D
100
AcDbEntity
  8
0
100
AcDbCircle
 62
7
  6
CONTINUOUS
 10
7.6499219319
 20
3.4466798214
 40
0.0049990686
100
AcDbArc
 50
115.3207663812
 51
227.8515972406
  0
ARC
  5
47E
100
AcDbEntity
  8
0
100
AcDbCircle
 62
7
  6
CONTINUOUS
 10
7.7077895158
 20
3.9462793059
 40
0.0100000079
100
AcDbArc
 50
0.0
 51
88.036206199
  0
ARC
  5
47F
100
AcDbEntity
  8
0
100
AcDbCircle
 62
7
  6
CONTINUOUS
 10
7.3927896517
 20
4.5229383181
 40
0.38
100
AcDbArc
 50
56.2859404457
 51
123.7140595543
  0
ARC
  5
480
100
AcDbEntity
  8
0
100
AcDbCircle
 62
7
  6
CONTINUOUS
 10
7.6588396079
 20
4.0829791434
 40
0.1250914313
100
AcDbArc
 50
234.9441214005
 51
268.3502893528
  0
ARC
  5
481
100
AcDbEntity
  8
0
100
AcDbCircle
 62
7
  6
CONTINUOUS
 10
7.7110310384
 20
4.7274416031
 40
0.1
100
AcDbArc
 50
147.0162588766
 51
177.4060321589
  0
ARC
  5
482
100
AcDbEntity
  8
0
100
AcDbCircle
 62
7
  6
CONTINUOUS
 10
7.5977896517
 20
4.8009357411
 40
0.035
100
AcDbArc
 50
327.0162588766
 51
56.4851632419
  0
ARC
  5
483
100
AcDbEntity
  8
0
100
AcDbCircle
 62
7
  6
CONTINUOUS
 10
8.7966176621
 20
3.7660491065
 40
1.02
100
AcDbArc
 50
184.0
 51
199.0
  0
ARC
  5
484
100
AcDbEntity
  8
0
100
AcDbCircle
 62
7
  6
CONTINUOUS
 10
8.7966176621
 20
3.7660491065
 40
1.0
100
AcDbArc
 50
184.0
 51
199.0
  0
ARC
  5
485
100
AcDbEntity
  8
0
100
AcDbCircle
 62
7
  6
CONTINUOUS
 10
8.1149462955
 20
3.6263945984
 40
0.375
100
AcDbArc
 50
184.0
 51
199.0
  0
ARC
  5
486
100
AcDbEntity
  8
0
100
AcDbCircle
 62
7
  6
CONTINUOUS
 10
8.1149462955
 20
3.6263945984
 40
0.355
100
AcDbArc
 50
184.0
 51
199.0
  0
ARC
  5
487
100
AcDbEntity
  8
0
100
AcDbCircle
 62
7
  6
CONTINUOUS
 10
58.7782944375
 20
4.6990054048
 40
51.0664462593
100
AcDbArc
 50
182.0520482125
 51
182.3657889603
  0
ARC
  5
488
100
AcDbEntity
  8
0
100
AcDbCircle
 62
7
  6
CONTINUOUS
 10
58.7782944375
 20
4.6990054048
 40
51.0664462593
100
AcDbArc
 50
179.3377256967
 51
180.8424340092
  0
ARC
  5
489
100
AcDbEntity
  8
0
100
AcDbCircle
 62
7
  6
CONTINUOUS
 10
26.7104075503
 20
5.6170292191
 40
19.556
100
AcDbArc
 50
182.5939678411
 51
184.7555093449
  0
ARC
  5
48A
100
AcDbEntity
  8
0
100
AcDbCircle
 62
7
  6
CONTINUOUS
 10
10.1735829384
 20
8.6903462291
 40
4.63
100
AcDbArc
 50
236.2859404457
 51
236.4851632419
  0
ARC
  5
48B
100
AcDbEntity
  8
0
100
AcDbCircle
 62
7
  6
CONTINUOUS
 10
7.4175245602
 20
5.9223916672
 40
0.675
100
AcDbArc
 50
70.3784477421
 51
90.0
  0
ARC
  5
48C
100
AcDbEntity
  8
0
100
AcDbCircle
 62
7
  6
CONTINUOUS
 10
7.3927896517
 20
5.7904383181
 40
0.469
100
AcDbArc
 50
220.8998864832
 51
228.2681829602
  0
ARC
  5
48D
100
AcDbEntity
  8
0
100
AcDbCircle
 62
7
  6
CONTINUOUS
 10
7.3927896517
 20
5.7904383181
 40
0.469
100
AcDbArc
 50
311.7318170398
 51
67.2461286101
  0
ARC
  5
48E
100
AcDbEntity
  8
0
100
AcDbCircle
 62
7
  6
CONTINUOUS
 10
7.3927896517
 20
5.7904383181
 40
0.469
100
AcDbArc
 50
112.7538713899
 51
139.1001135168
  0
ARC
  5
48F
100
AcDbEntity
  8
0
100
AcDbCircle
 62
7
  6
CONTINUOUS
 10
7.4632529797
 20
6.694725227
 40
0.4
100
AcDbArc
 50
214.7207089079
 51
235.7836689817
  0
ARC
  5
490
100
AcDbEntity
  8
0
100
AcDbCircle
 62
7
  6
CONTINUOUS
 10
7.7147127891
 20
6.7560007822
 40
0.21
100
AcDbArc
 50
250.3784477421
 51
256.9528522369
  0
ARC
  5
491
100
AcDbEntity
  8
0
100
AcDbCircle
 62
7
  6
CONTINUOUS
 10
7.7952546244
 20
5.2883388183
 40
0.08
100
AcDbArc
 50
137.9358529956
 51
179.3384296706
  0
ARC
  5
492
100
AcDbEntity
  8
0
100
AcDbCircle
 62
7
  6
CONTINUOUS
 10
7.5019169799
 20
6.2277181603
 40
0.07
100
AcDbArc
 50
3.4563421022
 51
52.257931743
  0
ARC
  5
493
100
AcDbEntity
  8
0
100
AcDbCircle
 62
7
  6
CONTINUOUS
 10
7.6950312701
 20
5.3787837145
 40
0.055
100
AcDbArc
 50
317.9358530019
 51
45.2598917186
  0
ARC
  5
494
100
AcDbEntity
  8
0
100
AcDbCircle
 62
7
  6
CONTINUOUS
 10
7.5753699177
 20
6.3226110785
 40
0.05
100
AcDbArc
 50
124.2163310183
 51
232.257931743
  0
ARC
  5
495
100
AcDbEntity
  8
0
100
AcDbCircle
 62
7
  6
CONTINUOUS
 10
7.6921985261
 20
6.4384157387
 40
0.05
100
AcDbArc
 50
114.8425917487
 51
145.2792910921
  0
ARC
  5
496
100
AcDbEntity
  8
0
100
AcDbCircle
 62
7
  6
CONTINUOUS
 10
7.7055896517
 20
5.3894383181
 40
0.04
100
AcDbArc
 50
45.2598917617
 51
90.0
  0
ARC
  5
497
100
AcDbEntity
  8
0
100
AcDbCircle
 62
7
  6
CONTINUOUS
 10
7.6627896517
 20
6.5319383181
 40
0.02
100
AcDbArc
 50
0.0
 51
76.9528522369
  0
ARC
  5
498
100
AcDbEntity
  8
0
100
AcDbCircle
 62
7
  6
CONTINUOUS
 10
7.6627896517
 20
6.5019383181
 40
0.02
100
AcDbArc
 50
294.8425917487
 51
360.0
  0
SPLINE
  5
499
100
AcDbEntity
  8
0
100
AcDbSpline
 62
7
  6
CONTINUOUS
 70
0
 71
3
 72
11
 73
7
 74
0
 42
0.0000001
 43
0.0000001
 44
0.0000000001
 40
0.0
 40
0.0
 40
0.0
 40
0.0
 40
0.2513765882
 40
0.5005356029
 40
0.7494252454
 40
1.0
 40
1.0
 40
1.0
 40
1.0
 10
7.9013418638
 20
1.8815246957
 30
0.0
 10
7.8959981669
 20
1.9022151489
 30
0.0
 10
7.8835940291
 20
1.9429832475
 30
0.0
 10
7.8597229489
 20
2.00213754
 30
0.0
 10
7.8307164572
 20
2.0588739186
 30
0.0
 10
7.8080860653
 20
2.0948749557
 30
0.0
 10
7.7959845981
 20
2.1124048123
 30
0.0
  0
SPLINE
  5
49A
100
AcDbEntity
  8
0
100
AcDbSpline
 62
7
  6
CONTINUOUS
 70
0
 71
3
 72
11
 73
7
 74
0
 42
0.0000001
 43
0.0000001
 44
0.0000000001
 40
0.0
 40
0.0
 40
0.0
 40
0.0
 40
0.2505747546
 40
0.4994643971
 40
0.7486234118
 40
1.0
 40
1.0
 40
1.0
 40
1.0
 10
6.9895947052
 20
2.1124048123
 30
0.0
 10
6.9774932381
 20
2.0948749557
 30
0.0
 10
6.9548628461
 20
2.0588739186
 30
0.0
 10
6.9258563545
 20
2.00213754
 30
0.0
 10
6.9019852743
 20
1.9429832475
 30
0.0
 10
6.8895811365
 20
1.9022151489
 30
0.0
 10
6.8842374396
 20
1.8815246957
 30
0.0
  0
SPLINE
  5
49B
100
AcDbEntity
  8
0
100
AcDbSpline
 62
7
  6
CONTINUOUS
 70
0
 71
3
 72
16
 73
12
 74
0
 42
0.0000001
 43
0.0000001
 44
0.0000000001
 40
0.0
 40
0.0
 40
0.0
 40
0.0
 40
0.128782922
 40
0.1935591944
 40
0.2576756235
 40
0.3839915872
 40
0.5090265392
 40
0.6331149129
 40
0.7561322871
 40
0.8781310654
 40
1.0
 40
1.0
 40
1.0
 40
1.0
 10
6.9893758696
 20
2.1354399309
 30
0.0
 10
6.9876106249
 20
2.1378958721
 30
0.0
 10
6.9852654837
 20
2.1418274787
 30
0.0
 10
6.9829319092
 20
2.1474206171
 30
0.0
 10
6.9812445894
 20
2.1531839497
 30
0.0
 10
6.9803675217
 20
2.1606042221
 30
0.0
 10
6.9811763671
 20
2.1694437842
 30
0.0
 10
6.9837014929
 20
2.1778711582
 30
0.0
 10
6.9878146656
 20
2.1855699862
 30
0.0
 10
6.9933969091
 20
2.1922163112
 30
0.0
 10
6.998018341
 20
2.1957045594
 30
0.0
 10
7.0004947818
 20
2.1971395199
 30
0.0
  0
SPLINE
  5
49C
100
AcDbEntity
  8
0
100
AcDbSpline
 62
7
  6
CONTINUOUS
 70
0
 71
3
 72
16
 73
12
 74
0
 42
0.0000001
 43
0.0000001
 44
0.0000000001
 40
0.0
 40
0.0
 40
0.0
 40
0.0
 40
0.1218689346
 40
0.2438677129
 40
0.3668850871
 40
0.4909734608
 40
0.6160084128
 40
0.7423243765
 40
0.8064408056
 40
0.871217078
 40
1.0
 40
1.0
 40
1.0
 40
1.0
 10
7.7850845216
 20
2.1971395199
 30
0.0
 10
7.7875609624
 20
2.1957045594
 30
0.0
 10
7.7921823943
 20
2.1922163112
 30
0.0
 10
7.7977646378
 20
2.1855699862
 30
0.0
 10
7.8018778105
 20
2.1778711582
 30
0.0
 10
7.8044029363
 20
2.1694437842
 30
0.0
 10
7.8052117816
 20
2.1606042221
 30
0.0
 10
7.8043347139
 20
2.1531839497
 30
0.0
 10
7.8026473942
 20
2.1474206171
 30
0.0
 10
7.8003138197
 20
2.1418274787
 30
0.0
 10
7.7979686784
 20
2.1378958721
 30
0.0
 10
7.7962034338
 20
2.1354399309
 30
0.0
  0
SPLINE
  5
49D
100
AcDbEntity
  8
0
100
AcDbSpline
 62
7
  6
CONTINUOUS
 70
0
 71
3
 72
18
 73
14
 74
0
 42
0.0000001
 43
0.0000001
 44
0.0000000001
 40
0.0
 40
0.0
 40
0.0
 40
0.0
 40
0.0700394846
 40
0.1370766371
 40
0.2019672272
 40
0.2654261027
 40
0.3899022211
 40
0.5134525751
 40
0.5752418044
 40
0.6369491276
 40
0.7595881369
 40
0.8807097603
 40
1.0
 40
1.0
 40
1.0
 40
1.0
 10
7.005012687
 20
2.511925715
 30
0.0
 10
7.003932626
 20
2.5131148813
 30
0.0
 10
7.0019633441
 20
2.5155795099
 30
0.0
 10
6.9995707846
 20
2.5195614139
 30
0.0
 10
6.997788327
 20
2.523687961
 30
0.0
 10
6.9961978941
 20
2.5292789356
 30
0.0
 10
6.9955625921
 20
2.5364712201
 30
0.0
 10
6.9965887259
 20
2.5435632803
 30
0.0
 10
6.998276006
 20
2.5489815368
 30
0.0
 10
7.0005008808
 20
2.5541791451
 30
0.0
 10
7.0042222017
 20
2.5601770034
 30
0.0
 10
7.0099905435
 20
2.5662598191
 30
0.0
 10
7.0146165113
 20
2.5693693083
 30
0.0
 10
7.0170580149
 20
2.5706042619
 30
0.0
  0
SPLINE
  5
49E
100
AcDbEntity
  8
0
100
AcDbSpline
 62
7
  6
CONTINUOUS
 70
0
 71
3
 72
18
 73
14
 74
0
 42
0.0000001
 43
0.0000001
 44
0.0000000001
 40
0.0
 40
0.0
 40
0.0
 40
0.0
 40
0.1192902397
 40
0.2404118631
 40
0.3630508724
 40
0.4247581956
 40
0.4865474249
 40
0.6100977789
 40
0.7345738973
 40
0.7980327728
 40
0.8629233629
 40
0.9299605154
 40
1.0
 40
1.0
 40
1.0
 40
1.0
 10
7.7685212885
 20
2.5706042619
 30
0.0
 10
7.770962792
 20
2.5693693083
 30
0.0
 10
7.7755887599
 20
2.5662598191
 30
0.0
 10
7.7813571017
 20
2.5601770034
 30
0.0
 10
7.7850784226
 20
2.5541791451
 30
0.0
 10
7.7873032974
 20
2.5489815368
 30
0.0
 10
7.7889905775
 20
2.5435632803
 30
0.0
 10
7.7900167113
 20
2.5364712201
 30
0.0
 10
7.7893814093
 20
2.5292789356
 30
0.0
 10
7.7877909764
 20
2.523687961
 30
0.0
 10
7.7860085187
 20
2.5195614139
 30
0.0
 10
7.7836159593
 20
2.5155795099
 30
0.0
 10
7.7816466773
 20
2.5131148813
 30
0.0
 10
7.7805666164
 20
2.511925715
 30
0.0
  0
SPLINE
  5
49F
100
AcDbEntity
  8
0
100
AcDbSpline
 62
7
  6
CONTINUOUS
 70
0
 71
3
 72
15
 73
11
 74
0
 42
0.0000001
 43
0.0000001
 44
0.0000000001
 40
0.0
 40
0.0
 40
0.0
 40
0.0
 40
0.0291326001
 40
0.0541065357
 40
0.0868902272
 40
0.1758150579
 40
0.2944210147
 40
0.4404291127
 40
0.6105196545
 40
1.0
 40
1.0
 40
1.0
 40
1.0
 10
6.7298512126
 20
3.7651583593
 30
0.0
 10
6.7299254789
 20
3.7651557074
 30
0.0
 10
6.730039211
 20
3.7652787293
 30
0.0
 10
6.7301460442
 20
3.7654620493
 30
0.0
 10
6.730302428
 20
3.7658075749
 30
0.0
 10
6.7304920294
 20
3.7663884219
 30
0.0
 10
6.7307213863
 20
3.7672621615
 30
0.0
 10
6.7309558081
 20
3.7683458097
 30
0.0
 10
6.7312831909
 20
3.7701159717
 30
0.0
 10
6.7314933661
 20
3.7715282803
 30
0.0
 10
6.7316232311
 20
3.7725132711
 30
0.0
  0
SPLINE
  5
4A0
100
AcDbEntity
  8
0
100
AcDbSpline
 62
7
  6
CONTINUOUS
 70
0
 71
3
 72
18
 73
14
 74
0
 42
0.0000001
 43
0.0000001
 44
0.0000000001
 40
0.0
 40
0.0
 40
0.0
 40
0.0
 40
0.0201793334
 40
0.0444511774
 40
0.0750607645
 40
0.1128193278
 40
0.1578746814
 40
0.2100969261
 40
0.3347839796
 40
0.4827067973
 40
0.648233708
 40
0.8240276983
 40
1.0
 40
1.0
 40
1.0
 40
1.0
 10
6.7418221051
 20
3.7561955707
 30
0.0
 10
6.7419104007
 20
3.7561898774
 30
0.0
 10
6.7421092526
 20
3.7562302633
 30
0.0
 10
6.7423846093
 20
3.7564195131
 30
0.0
 10
6.742657397
 20
3.756723379
 30
0.0
 10
6.7429311716
 20
3.7571400318
 30
0.0
 10
6.7432045424
 20
3.7576660353
 30
0.0
 10
6.7435873576
 20
3.7585615676
 30
0.0
 10
6.7440272013
 20
3.7599188705
 30
0.0
 10
6.7444824828
 20
3.7617862992
 30
0.0
 10
6.7448650607
 20
3.7638983017
 30
0.0
 10
6.7451532161
 20
3.7661488873
 30
0.0
 10
6.7452756573
 20
3.7676871871
 30
0.0
 10
6.745315536
 20
3.7684577301
 30
0.0
  0
SPLINE
  5
4A1
100
AcDbEntity
  8
0
100
AcDbSpline
 62
7
  6
CONTINUOUS
 70
0
 71
3
 72
20
 73
16
 74
0
 42
0.0000001
 43
0.0000001
 44
0.0000000001
 40
0.0
 40
0.0
 40
0.0
 40
0.0
 40
0.0045555122
 40
0.0115604034
 40
0.0345903842
 40
0.0699619884
 40
0.1170769262
 40
0.1746102329
 40
0.2410946096
 40
0.315004212
 40
0.3945492531
 40
0.5629334779
 40
0.730759929
 40
0.8819801865
 40
1.0
 40
1.0
 40
1.0
 40
1.0
 10
6.7404787939
 20
3.841927649
 30
0.0
 10
6.7405085733
 20
3.8419258774
 30
0.0
 10
6.7405827793
 20
3.8419609779
 30
0.0
 10
6.7407346669
 20
3.8421284258
 30
0.0
 10
6.7409454783
 20
3.842506871
 30
0.0
 10
6.7412218322
 20
3.8431386167
 30
0.0
 10
6.7415406002
 20
3.843999549
 30
0.0
 10
6.7418933527
 20
3.8450630917
 30
0.0
 10
6.7422700044
 20
3.8463035241
 30
0.0
 10
6.7426604803
 20
3.8476899207
 30
0.0
 10
6.743197875
 20
3.8497279393
 30
0.0
 10
6.7438331886
 20
3.8523757338
 30
0.0
 10
6.744495289
 20
3.8554988753
 30
0.0
 10
6.7450009786
 20
3.8583161007
 30
0.0
 10
6.7452462782
 20
3.860063644
 30
0.0
 10
6.745315536
 20
3.8608333965
 30
0.0
  0
SPLINE
  5
4A2
100
AcDbEntity
  8
0
100
AcDbSpline
 62
7
  6
CONTINUOUS
 70
0
 71
3
 72
23
 73
19
 74
0
 42
0.0000001
 43
0.0000001
 44
0.0000000001
 40
0.0
 40
0.0
 40
0.0
 40
0.0
 40
0.0116314996
 40
0.022284514
 40
0.0367496055
 40
0.0550139874
 40
0.0769380552
 40
0.102350443
 40
0.1310653579
 40
0.2743037263
 40
0.4478552749
 40
0.6291434832
 40
0.7150970883
 40
0.7943406815
 40
0.8644865025
 40
0.9232647603
 40
0.9689223927
 40
1.0
 40
1.0
 40
1.0
 40
1.0
 10
6.7319033541
 20
3.6271435266
 30
0.0
 10
6.7319793728
 20
3.6271397581
 30
0.0
 10
6.7320887172
 20
3.6272940522
 30
0.0
 10
6.7321541415
 20
3.6275110176
 30
0.0
 10
6.7322147715
 20
3.6277940047
 30
0.0
 10
6.7322600579
 20
3.6281470517
 30
0.0
 10
6.7322965276
 20
3.6285755193
 30
0.0
 10
6.7323211611
 20
3.6290724259
 30
0.0
 10
6.7323509578
 20
3.6303638177
 30
0.0
 10
6.7322788323
 20
3.632625263
 30
0.0
 10
6.7320369129
 20
3.6358759369
 30
0.0
 10
6.7317152655
 20
3.6387432014
 30
0.0
 10
6.7313974463
 20
3.640988177
 30
0.0
 10
6.73114797
 20
3.6425080486
 30
0.0
 10
6.7308918807
 20
3.6438459268
 30
0.0
 10
6.7306376199
 20
3.6449605893
 30
0.0
 10
6.7303940872
 20
3.6458124427
 30
0.0
 10
6.7302179755
 20
3.6462860169
 30
0.0
 10
6.7301202463
 20
3.6464643542
 30
0.0
  0
SPLINE
  5
4A3
100
AcDbEntity
  8
0
100
AcDbSpline
 62
7
  6
CONTINUOUS
 70
0
 71
3
 72
10
 73
6
 74
0
 42
0.0000001
 43
0.0000001
 44
0.0000000001
 40
0.0
 40
0.0
 40
0.0
 40
0.0
 40
0.3221999399
 40
0.613522744
 40
1.0
 40
1.0
 40
1.0
 40
1.0
 10
6.7308694767
 20
3.6961635344
 30
0.0
 10
6.731040286
 20
3.6961532189
 30
0.0
 10
6.7312850647
 20
3.696494069
 30
0.0
 10
6.7314692134
 20
3.6969569025
 30
0.0
 10
6.731573317
 20
3.6973116152
 30
0.0
 10
6.7316232311
 20
3.6975107119
 30
0.0
  0
SPLINE
  5
4A4
100
AcDbEntity
  8
0
100
AcDbSpline
 62
7
  6
CONTINUOUS
 70
0
 71
3
 72
13
 73
9
 74
0
 42
0.0000001
 43
0.0000001
 44
0.0000000001
 40
0.0
 40
0.0
 40
0.0
 40
0.0
 40
0.0668820146
 40
0.1394508702
 40
0.227195296
 40
0.3351990274
 40
0.619738207
 40
1.0
 40
1.0
 40
1.0
 40
1.0
 10
6.7446036969
 20
3.5835730603
 30
0.0
 10
6.7446467996
 20
3.5835704588
 30
0.0
 10
6.7447393096
 20
3.5835847955
 30
0.0
 10
6.7448628439
 20
3.5836702954
 30
0.0
 10
6.7449698368
 20
3.5838085906
 30
0.0
 10
6.7451084919
 20
3.5840873614
 30
0.0
 10
6.7452365032
 20
3.5845734764
 30
0.0
 10
6.7452927417
 20
3.584999245
 30
0.0
 10
6.745315536
 20
3.5852436935
 30
0.0
  0
SPLINE
  5
4A5
100
AcDbEntity
  8
0
100
AcDbSpline
 62
7
  6
CONTINUOUS
 70
0
 71
3
 72
16
 73
12
 74
0
 42
0.0000001
 43
0.0000001
 44
0.0000000001
 40
0.0
 40
0.0
 40
0.0
 40
0.0
 40
0.0230992312
 40
0.0487710971
 40
0.0793151499
 40
0.115956556
 40
0.20904174
 40
0.3288184828
 40
0.47356656
 40
0.6381933074
 40
1.0
 40
1.0
 40
1.0
 40
1.0
 10
6.7427877706
 20
3.695583114
 30
0.0
 10
6.7428692969
 20
3.695578311
 30
0.0
 10
6.7430449375
 20
3.6956033122
 30
0.0
 10
6.7432940252
 20
3.6957415053
 30
0.0
 10
6.7435316484
 20
3.6959716802
 30
0.0
 10
6.7438633569
 20
3.696433481
 30
0.0
 10
6.7442341127
 20
3.6972407828
 30
0.0
 10
6.7446063391
 20
3.6984505918
 30
0.0
 10
6.7449133171
 20
3.6999384202
 30
0.0
 10
6.7452521376
 20
3.7022877015
 30
0.0
 10
6.7454005011
 20
3.7041450714
 30
0.0
 10
6.7454704741
 20
3.7054223289
 30
0.0
  0
SPLINE
  5
4A6
100
AcDbEntity
  8
0
100
AcDbSpline
 62
7
  6
CONTINUOUS
 70
0
 71
3
 72
18
 73
14
 74
0
 42
0.0000001
 43
0.0000001
 44
0.0000000001
 40
0.0
 40
0.0
 40
0.0
 40
0.0
 40
0.0158013403
 40
0.0388225067
 40
0.0708180253
 40
0.1119631478
 40
0.1619708322
 40
0.2201443192
 40
0.3570118115
 40
0.5141605389
 40
0.6815431596
 40
0.848028853
 40
1.0
 40
1.0
 40
1.0
 40
1.0
 10
6.7410133991
 20
3.8075862793
 30
0.0
 10
6.7411021322
 20
3.8075797232
 30
0.0
 10
6.7413206479
 20
3.8076696784
 30
0.0
 10
6.7415929748
 20
3.8079632308
 30
0.0
 10
6.7418932212
 20
3.8084162448
 30
0.0
 10
6.7422079742
 20
3.8090350226
 30
0.0
 10
6.7425359658
 20
3.8098097825
 30
0.0
 10
6.7430069176
 20
3.811107225
 30
0.0
 10
6.7435715668
 20
3.8130099653
 30
0.0
 10
6.7441758941
 20
3.8155376405
 30
0.0
 10
6.7446968088
 20
3.8182540074
 30
0.0
 10
6.7450900963
 20
3.8209620625
 30
0.0
 10
6.7452636814
 20
3.8227480379
 30
0.0
 10
6.745315536
 20
3.8236021924
 30
0.0
  0
SPLINE
  5
4A7
100
AcDbEntity
  8
0
100
AcDbSpline
 62
7
  6
CONTINUOUS
 70
0
 71
3
 72
14
 73
10
 74
0
 42
0.0000001
 43
0.0000001
 44
0.0000000001
 40
0.0
 40
0.0
 40
0.0
 40
0.0
 40
0.0569376636
 40
0.1242226874
 40
0.2111008858
 40
0.3218521565
 40
0.4578074491
 40
0.6176337853
 40
1.0
 40
1.0
 40
1.0
 40
1.0
 10
6.7437652797
 20
3.6349609929
 30
0.0
 10
6.7438603663
 20
3.634955815
 30
0.0
 10
6.7440737621
 20
3.6350069901
 30
0.0
 10
6.7443426768
 20
3.6352488163
 30
0.0
 10
6.7445790828
 20
3.6356268677
 30
0.0
 10
6.7447891844
 20
3.6361458095
 30
0.0
 10
6.7449710499
 20
3.6368019081
 30
0.0
 10
6.745187035
 20
3.637916144
 30
0.0
 10
6.7452761631
 20
3.6388207507
 30
0.0
 10
6.745315536
 20
3.63945904
 30
0.0
  0
SPLINE
  5
4A8
100
AcDbEntity
  8
0
100
AcDbSpline
 62
7
  6
CONTINUOUS
 70
0
 71
3
 72
9
 73
5
 74
0
 42
0.0000001
 43
0.0000001
 44
0.0000000001
 40
0.0
 40
0.0
 40
0.0
 40
0.0
 40
0.243688789
 40
1.0
 40
1.0
 40
1.0
 40
1.0
 10
7.6597435752
 20
3.4540693758
 30
0.0
 10
7.6587410369
 20
3.4540402273
 30
0.0
 10
7.6546363857
 20
3.4537067917
 30
0.0
 10
7.6505972521
 20
3.4525307239
 30
0.0
 10
7.6477835671
 20
3.4511993258
 30
0.0
  0
SPLINE
  5
4A9
100
AcDbEntity
  8
0
100
AcDbSpline
 62
7
  6
CONTINUOUS
 70
0
 71
3
 72
12
 73
8
 74
0
 42
0.0000001
 43
0.0000001
 44
0.0000000001
 40
0.0
 40
0.0
 40
0.0
 40
0.0
 40
0.2485336326
 40
0.3746604243
 40
0.5002603593
 40
0.7495995888
 40
1.0
 40
1.0
 40
1.0
 40
1.0
 10
7.1347385543
 20
3.449704104
 30
0.0
 10
7.1355027402
 20
3.4495513964
 30
0.0
 10
7.1366135346
 20
3.4490223276
 30
0.0
 10
7.1377355659
 20
3.4479113207
 30
0.0
 10
7.1385580184
 20
3.4465561301
 30
0.0
 10
7.1389503513
 20
3.4445538674
 30
0.0
 10
7.1384741462
 20
3.4429897146
 30
0.0
 10
7.1380860349
 20
3.4423071996
 30
0.0
  0
LINE
  5
4AA
100
AcDbEntity
  8
0
100
AcDbLine
 62
7
  6
CONTINUOUS
 10
7.1380860349
 20
3.4423071996
 11
7.1374305838
 21
3.4414072499
  0
SPLINE
  5
4AB
100
AcDbEntity
  8
0
100
AcDbSpline
 62
7
  6
CONTINUOUS
 70
0
 71
3
 72
15
 73
11
 74
0
 42
0.0000001
 43
0.0000001
 44
0.0000000001
 40
0.0
 40
0.0
 40
0.0
 40
0.0
 40
0.1207375087
 40
0.2360332847
 40
0.3492687609
 40
0.46400767
 40
0.5836795071
 40
0.7113167551
 40
0.8494282052
 40
1.0
 40
1.0
 40
1.0
 40
1.0
 10
2.6040446995
 20
5.5016779621
 30
0.0
 10
2.6030185951
 20
5.4999335873
 30
0.0
 10
2.6012523151
 20
5.4963721708
 30
0.0
 10
2.5995484012
 20
5.4907415361
 30
0.0
 10
2.5988823464
 20
5.4849946633
 30
0.0
 10
2.5992575317
 20
5.4791496535
 30
0.0
 10
2.6006652834
 20
5.4732198607
 30
0.0
 10
2.6030928898
 20
5.4672100451
 30
0.0
 10
2.6065295598
 20
5.4611182876
 30
0.0
 10
2.6093588346
 20
5.4571811896
 30
0.0
 10
2.6109198702
 20
5.455197986
 30
0.0
  0
SPLINE
  5
4AC
100
AcDbEntity
  8
0
100
AcDbSpline
 62
7
  6
CONTINUOUS
 70
0
 71
3
 72
15
 73
11
 74
0
 42
0.0000001
 43
0.0000001
 44
0.0000000001
 40
0.0
 40
0.0
 40
0.0
 40
0.0
 40
0.1207375087
 40
0.2360332847
 40
0.3492687609
 40
0.46400767
 40
0.5836795071
 40
0.7113167551
 40
0.8494282052
 40
1.0
 40
1.0
 40
1.0
 40
1.0
 10
3.1271917899
 20
5.5016779621
 30
0.0
 10
3.1282178943
 20
5.4999335873
 30
0.0
 10
3.1299841743
 20
5.4963721708
 30
0.0
 10
3.1316880882
 20
5.4907415361
 30
0.0
 10
3.132354143
 20
5.4849946633
 30
0.0
 10
3.1319789577
 20
5.4791496535
 30
0.0
 10
3.130571206
 20
5.4732198607
 30
0.0
 10
3.1281435996
 20
5.4672100451
 30
0.0
 10
3.1247069296
 20
5.4611182876
 30
0.0
 10
3.1218776548
 20
5.4571811896
 30
0.0
 10
3.1203166192
 20
5.455197986
 30
0.0
  0
SPLINE
  5
4AD
100
AcDbEntity
  8
0
100
AcDbSpline
 62
7
  6
CONTINUOUS
 70
0
 71
3
 72
9
 73
5
 74
0
 42
0.0000001
 43
0.0000001
 44
0.0000000001
 40
0.0
 40
0.0
 40
0.0
 40
0.0
 40
0.4805906691
 40
1.0
 40
1.0
 40
1.0
 40
1.0
 10
7.0180691741
 20
3.4232375798
 30
0.0
 10
7.0178831686
 20
3.4226138728
 30
0.0
 10
7.0173246871
 20
3.4213620932
 30
0.0
 10
7.0164694107
 20
3.4202916942
 30
0.0
 10
7.0159695441
 20
3.4197967825
 30
0.0
  0
LINE
  5
4AE
100
AcDbEntity
  8
0
100
AcDbLine
 62
7
  6
CONTINUOUS
 10
7.0180691741
 20
3.4259683746
 11
7.0175765053
 21
3.4248025315
  0
SPLINE
  5
4AF
100
AcDbEntity
  8
0
100
AcDbSpline
 62
7
  6
CONTINUOUS
 70
0
 71
3
 72
9
 73
5
 74
0
 42
0.0000001
 43
0.0000001
 44
0.0000000001
 40
0.0
 40
0.0
 40
0.0
 40
0.0
 40
0.4439141196
 40
1.0
 40
1.0
 40
1.0
 40
1.0
 10
7.0175765053
 20
3.4248025315
 30
0.0
 10
7.0169271468
 20
3.4235849731
 30
0.0
 10
7.0146466354
 20
3.4212567786
 30
0.0
 10
7.0115688849
 20
3.4202703412
 30
0.0
 10
7.0098527136
 20
3.420063593
 30
0.0
  0
SPLINE
  5
4B0
100
AcDbEntity
  8
0
100
AcDbSpline
 62
7
  6
CONTINUOUS
 70
0
 71
3
 72
9
 73
5
 74
0
 42
0.0000001
 43
0.0000001
 44
0.0000000001
 40
0.0
 40
0.0
 40
0.0
 40
0.0
 40
0.452278758
 40
1.0
 40
1.0
 40
1.0
 40
1.0
 10
7.0180691741
 20
3.4294665476
 30
0.0
 10
7.0177669293
 20
3.4285804896
 30
0.0
 10
7.0166177621
 20
3.4267744809
 30
0.0
 10
7.0148691896
 20
3.4255701871
 30
0.0
 10
7.0138477514
 20
3.4250781993
 30
0.0
  0
LINE
  5
4B1
100
AcDbEntity
  8
0
100
AcDbLine
 62
7
  6
CONTINUOUS
 10
7.0138477514
 20
3.4250781993
 11
7.0125674324
 21
3.4245585809
  0
LINE
  5
4B2
100
AcDbEntity
  8
0
100
AcDbLine
 62
7
  6
CONTINUOUS
 10
7.0125674324
 20
3.4245585809
 11
7.0098527135
 21
3.4239654017
  0
SPLINE
  5
4B3
100
AcDbEntity
  8
0
100
AcDbSpline
 62
7
  6
CONTINUOUS
 70
0
 71
3
 72
9
 73
5
 74
0
 42
0.0000001
 43
0.0000001
 44
0.0000000001
 40
0.0
 40
0.0
 40
0.0
 40
0.0
 40
0.4588581202
 40
1.0
 40
1.0
 40
1.0
 40
1.0
 10
7.0180665107
 20
3.4337126151
 30
0.0
 10
7.0178316359
 20
3.4330793047
 30
0.0
 10
7.0170447396
 20
3.4317949617
 30
0.0
 10
7.0158950923
 20
3.4308378329
 30
0.0
 10
7.0152254007
 20
3.4304064808
 30
0.0
  0
SPLINE
  5
4B4
100
AcDbEntity
  8
0
100
AcDbSpline
 62
7
  6
CONTINUOUS
 70
0
 71
3
 72
9
 73
5
 74
0
 42
0.0000001
 43
0.0000001
 44
0.0000000001
 40
0.0
 40
0.0
 40
0.0
 40
0.0
 40
0.223217422
 40
1.0
 40
1.0
 40
1.0
 40
1.0
 10
7.0152254007
 20
3.4304064808
 30
0.0
 10
7.0148696618
 20
3.4301773473
 30
0.0
 10
7.013207339
 20
3.4292576263
 30
0.0
 10
7.0113161376
 20
3.4287888614
 30
0.0
 10
7.0098514561
 20
3.4286371191
 30
0.0
  0
LINE
  5
4B5
100
AcDbEntity
  8
0
100
AcDbLine
 62
7
  6
CONTINUOUS
 10
7.0180691741
 20
3.4387245979
 11
7.0175765053
 21
3.4378065415
  0
SPLINE
  5
4B6
100
AcDbEntity
  8
0
100
AcDbSpline
 62
7
  6
CONTINUOUS
 70
0
 71
3
 72
10
 73
6
 74
0
 42
0.0000001
 43
0.0000001
 44
0.0000000001
 40
0.0
 40
0.0
 40
0.0
 40
0.0
 40
0.4203265926
 40
0.6908819685
 40
1.0
 40
1.0
 40
1.0
 40
1.0
 10
7.0175765053
 20
3.4378065415
 30
0.0
 10
7.0168853551
 20
3.4367860558
 30
0.0
 10
7.0151863617
 20
3.4354952418
 30
0.0
 10
7.0124428695
 20
3.4344592064
 30
0.0
 10
7.0107550787
 20
3.4341604143
 30
0.0
 10
7.0098527136
 20
3.4340748106
 30
0.0
  0
SPLINE
  5
4B7
100
AcDbEntity
  8
0
100
AcDbSpline
 62
7
  6
CONTINUOUS
 70
0
 71
3
 72
11
 73
7
 74
0
 42
0.0000001
 43
0.0000001
 44
0.0000000001
 40
0.0
 40
0.0
 40
0.0
 40
0.0
 40
0.3948099861
 40
0.5257973284
 40
0.6709725148
 40
1.0
 40
1.0
 40
1.0
 40
1.0
 10
7.0180691741
 20
3.4444590996
 30
0.0
 10
7.0175566283
 20
3.4433107172
 30
0.0
 10
7.0161475441
 20
3.4421346935
 30
0.0
 10
7.0142277274
 20
3.4412259412
 30
0.0
 10
7.0123973011
 20
3.4405983063
 30
0.0
 10
7.010896916
 20
3.4403442723
 30
0.0
 10
7.0098527135
 20
3.4402547016
 30
0.0
  0
SPLINE
  5
4B8
100
AcDbEntity
  8
0
100
AcDbSpline
 62
7
  6
CONTINUOUS
 70
0
 71
3
 72
11
 73
7
 74
0
 42
0.0000001
 43
0.0000001
 44
0.0000000001
 40
0.0
 40
0.0
 40
0.0
 40
0.0
 40
0.1693050778
 40
0.3872440183
 40
0.6648433863
 40
1.0
 40
1.0
 40
1.0
 40
1.0
 10
7.0180691741
 20
3.4509102977
 30
0.0
 10
7.0178328964
 20
3.4504384384
 30
0.0
 10
7.0170316756
 20
3.4494910768
 30
0.0
 10
7.0152552674
 20
3.4483862639
 30
0.0
 10
7.0127938324
 20
3.4475281582
 30
0.0
 10
7.0108943302
 20
3.4472424519
 30
0.0
 10
7.0098527136
 20
3.447162813
 30
0.0
  0
SPLINE
  5
4B9
100
AcDbEntity
  8
0
100
AcDbSpline
 62
7
  6
CONTINUOUS
 70
0
 71
3
 72
12
 73
8
 74
0
 42
0.0000001
 43
0.0000001
 44
0.0000000001
 40
0.0
 40
0.0
 40
0.0
 40
0.0
 40
0.160648804
 40
0.2607875112
 40
0.376513095
 40
0.6572915976
 40
1.0
 40
1.0
 40
1.0
 40
1.0
 10
7.0180691741
 20
3.4580605099
 30
0.0
 10
7.0178267301
 20
3.4576366961
 30
0.0
 10
7.0172541621
 20
3.4570526091
 30
0.0
 10
7.0162995435
 20
3.4564228469
 30
0.0
 10
7.0149422594
 20
3.455751953
 30
0.0
 10
7.012778259
 20
3.4550982519
 30
0.0
 10
7.0108919812
 20
3.4548497634
 30
0.0
 10
7.0098527136
 20
3.45478021
 30
0.0
  0
SPLINE
  5
4BA
100
AcDbEntity
  8
0
100
AcDbSpline
 62
7
  6
CONTINUOUS
 70
0
 71
3
 72
12
 73
8
 74
0
 42
0.0000001
 43
0.0000001
 44
0.0000000001
 40
0.0
 40
0.0
 40
0.0
 40
0.0
 40
0.1519377903
 40
0.2501714776
 40
0.3655171744
 40
0.649689429
 40
1.0
 40
1.0
 40
1.0
 40
1.0
 10
7.0180691741
 20
3.4658901379
 30
0.0
 10
7.0178185784
 20
3.4655156647
 30
0.0
 10
7.0172358436
 20
3.4650180012
 30
0.0
 10
7.0162930313
 20
3.4644869555
 30
0.0
 10
7.0149289139
 20
3.4639119506
 30
0.0
 10
7.0127652659
 20
3.4633561159
 30
0.0
 10
7.0108898986
 20
3.4631453517
 30
0.0
 10
7.0098527135
 20
3.463086014
 30
0.0
  0
SPLINE
  5
4BB
100
AcDbEntity
  8
0
100
AcDbSpline
 62
7
  6
CONTINUOUS
 70
0
 71
3
 72
11
 73
7
 74
0
 42
0.0000001
 43
0.0000001
 44
0.0000000001
 40
0.0
 40
0.0
 40
0.0
 40
0.0
 40
0.1563844143
 40
0.3704476985
 40
0.6509487502
 40
1.0
 40
1.0
 40
1.0
 40
1.0
 10
7.0180665107
 20
3.4743693038
 30
0.0
 10
7.0178701993
 20
3.4741276514
 30
0.0
 10
7.0172772871
 20
3.4736642469
 30
0.0
 10
7.0160998023
 20
3.4731141749
 30
0.0
 10
7.0144870068
 20
3.4726274363
 30
0.0
 10
7.0132523314
 20
3.4723994432
 30
0.0
 10
7.0125642765
 20
3.4723020143
 30
0.0
  0
SPLINE
  5
4BC
100
AcDbEntity
  8
0
100
AcDbSpline
 62
7
  6
CONTINUOUS
 70
0
 71
3
 72
10
 73
6
 74
0
 42
0.0000001
 43
0.0000001
 44
0.0000000001
 40
0.0
 40
0.0
 40
0.0
 40
0.0
 40
0.1680733062
 40
0.3872731564
 40
1.0
 40
1.0
 40
1.0
 40
1.0
 10
7.0180691741
 20
3.4834999962
 30
0.0
 10
7.0179366965
 20
3.483370799
 30
0.0
 10
7.0175847327
 20
3.4831220952
 30
0.0
 10
7.0165884062
 20
3.4826487187
 30
0.0
 10
7.0156963583
 20
3.4824096353
 30
0.0
 10
7.0150375464
 20
3.4822645219
 30
0.0
  0
SPLINE
  5
4BD
100
AcDbEntity
  8
0
100
AcDbSpline
 62
7
  6
CONTINUOUS
 70
0
 71
3
 72
9
 73
5
 74
0
 42
0.0000001
 43
0.0000001
 44
0.0000000001
 40
0.0
 40
0.0
 40
0.0
 40
0.0
 40
0.4504560639
 40
1.0
 40
1.0
 40
1.0
 40
1.0
 10
7.0150375464
 20
3.4822645219
 30
0.0
 10
7.0142715475
 20
3.4820957988
 30
0.0
 10
7.0125475294
 20
3.4818282959
 30
0.0
 10
7.0108089457
 20
3.4817056584
 30
0.0
 10
7.0098527136
 20
3.4816699556
 30
0.0
  0
SPLINE
  5
4BE
100
AcDbEntity
  8
0
100
AcDbSpline
 62
7
  6
CONTINUOUS
 70
0
 71
3
 72
12
 73
8
 74
0
 42
0.0000001
 43
0.0000001
 44
0.0000000001
 40
0.0
 40
0.0
 40
0.0
 40
0.0
 40
0.0550841996
 40
0.1287199464
 40
0.3370702747
 40
0.6304043448
 40
1.0
 40
1.0
 40
1.0
 40
1.0
 10
7.0180691741
 20
3.493231959
 30
0.0
 10
7.0179436981
 20
3.493142705
 30
0.0
 10
7.0176223584
 20
3.492974895
 30
0.0
 10
7.0167353519
 20
3.4926542936
 30
0.0
 10
7.0151561205
 20
3.4923192768
 30
0.0
 10
7.0127379855
 20
3.4920228493
 30
0.0
 10
7.0108854972
 20
3.4919252818
 30
0.0
 10
7.0098527135
 20
3.491897156
 30
0.0
  0
SPLINE
  5
4BF
100
AcDbEntity
  8
0
100
AcDbSpline
 62
7
  6
CONTINUOUS
 70
0
 71
3
 72
13
 73
9
 74
0
 42
0.0000001
 43
0.0000001
 44
0.0000000001
 40
0.0
 40
0.0
 40
0.0
 40
0.0
 40
0.0497019047
 40
0.1205723439
 40
0.2138148347
 40
0.3302070144
 40
0.6315354807
 40
1.0
 40
1.0
 40
1.0
 40
1.0
 10
7.0180691741
 20
3.5035469352
 30
0.0
 10
7.0179215128
 20
3.5034811581
 30
0.0
 10
7.0175451547
 20
3.5033644893
 30
0.0
 10
7.0168650686
 20
3.5032194187
 30
0.0
 10
7.01596258
 20
3.5030820074
 30
0.0
 10
7.0143107508
 20
3.5028979264
 30
0.0
 10
7.0117570916
 20
3.5027421964
 30
0.0
 10
7.0095785878
 20
3.5026983331
 30
0.0
 10
7.0083802029
 20
3.5026983331
 30
0.0
  0
SPLINE
  5
4C0
100
AcDbEntity
  8
0
100
AcDbSpline
 62
7
  6
CONTINUOUS
 70
0
 71
3
 72
12
 73
8
 74
0
 42
0.0000001
 43
0.0000001
 44
0.0000000001
 40
0.0
 40
0.0
 40
0.0
 40
0.0
 40
0.0477723471
 40
0.1176278487
 40
0.326895728
 40
0.6294319806
 40
1.0
 40
1.0
 40
1.0
 40
1.0
 10
7.0180691741
 20
3.5144166521
 30
0.0
 10
7.017917111
 20
3.5143895281
 30
0.0
 10
7.0175392599
 20
3.5143431167
 30
0.0
 10
7.0164861408
 20
3.514253565
 30
0.0
 10
7.0146068967
 20
3.5141653853
 30
0.0
 10
7.0117548444
 20
3.5140938162
 30
0.0
 10
7.0095783681
 20
3.5140768491
 30
0.0
 10
7.0083802029
 20
3.5140768491
 30
0.0
  0
SPLINE
  5
4C1
100
AcDbEntity
  8
0
100
AcDbSpline
 62
7
  6
CONTINUOUS
 70
0
 71
3
 72
12
 73
8
 74
0
 42
0.0000001
 43
0.0000001
 44
0.0000000001
 40
0.0
 40
0.0
 40
0.0
 40
0.0
 40
0.3705584081
 40
0.6731139123
 40
0.882385806
 40
0.9522327054
 40
1.0
 40
1.0
 40
1.0
 40
1.0
 10
7.0083802029
 20
3.8977997872
 30
0.0
 10
7.009578337
 20
3.8977997872
 30
0.0
 10
7.0117548445
 20
3.897782803
 30
0.0
 10
7.0146069409
 20
3.8977112425
 30
0.0
 10
7.0164862336
 20
3.8976230801
 30
0.0
 10
7.0175393212
 20
3.8975335208
 30
0.0
 10
7.017917127
 20
3.8974871054
 30
0.0
 10
7.0180691741
 20
3.8974599841
 30
0.0
  0
SPLINE
  5
4C2
100
AcDbEntity
  8
0
100
AcDbSpline
 62
7
  6
CONTINUOUS
 70
0
 71
3
 72
13
 73
9
 74
0
 42
0.0000001
 43
0.0000001
 44
0.0000000001
 40
0.0
 40
0.0
 40
0.0
 40
0.0
 40
0.3684549362
 40
0.6698023831
 40
0.7862014905
 40
0.8794408409
 40
0.9503028972
 40
1.0
 40
1.0
 40
1.0
 40
1.0
 10
7.0083802029
 20
3.9091783032
 30
0.0
 10
7.0095785569
 20
3.9091783032
 30
0.0
 10
7.0117570912
 20
3.9091343977
 30
0.0
 10
7.0143108036
 20
3.9089786851
 30
0.0
 10
7.0159627113
 20
3.9087946338
 30
0.0
 10
7.0168651855
 20
3.9086572254
 30
0.0
 10
7.0175452176
 20
3.908512149
 30
0.0
 10
7.017921527
 20
3.9083954718
 30
0.0
 10
7.0180691741
 20
3.9083297011
 30
0.0
  0
SPLINE
  5
4C3
100
AcDbEntity
  8
0
100
AcDbSpline
 62
7
  6
CONTINUOUS
 70
0
 71
3
 72
11
 73
7
 74
0
 42
0.0000001
 43
0.0000001
 44
0.0000000001
 40
0.0
 40
0.0
 40
0.0
 40
0.0
 40
0.3161083512
 40
0.5996475478
 40
0.8282867901
 40
1.0
 40
1.0
 40
1.0
 40
1.0
 10
7.0083802029
 20
3.9199997525
 30
0.0
 10
7.0092846434
 20
3.9199997525
 30
0.0
 10
7.0110005064
 20
3.9199564294
 30
0.0
 10
7.0133654797
 20
3.9197850389
 30
0.0
 10
7.0153056277
 20
3.9195236082
 30
0.0
 10
7.0164282303
 20
3.9192831341
 30
0.0
 10
7.0168996378
 20
3.9191447442
 30
0.0
  0
LINE
  5
4C4
100
AcDbEntity
  8
0
100
AcDbLine
 62
7
  6
CONTINUOUS
 10
7.0168996378
 20
3.9191447442
 11
7.0180691741
 21
3.9186446773
  0
SPLINE
  5
4C5
100
AcDbEntity
  8
0
100
AcDbSpline
 62
7
  6
CONTINUOUS
 70
0
 71
3
 72
11
 73
7
 74
0
 42
0.0000001
 43
0.0000001
 44
0.0000000001
 40
0.0
 40
0.0
 40
0.0
 40
0.0
 40
0.3351004268
 40
0.6244683307
 40
0.8457763058
 40
1.0
 40
1.0
 40
1.0
 40
1.0
 10
7.0083802029
 20
3.9302344743
 30
0.0
 10
7.0094288274
 20
3.9302344743
 30
0.0
 10
7.0113833288
 20
3.9301577823
 30
0.0
 10
7.0140168901
 20
3.929850867
 30
0.0
 10
7.016048918
 20
3.9293974254
 30
0.0
 10
7.017159935
 20
3.9289802096
 30
0.0
 10
7.0175771455
 20
3.9287376244
 30
0.0
  0
LINE
  5
4C6
100
AcDbEntity
  8
0
100
AcDbLine
 62
7
  6
CONTINUOUS
 10
7.0175771455
 20
3.9287376244
 11
7.0180691741
 21
3.9283766401
  0
LINE
  5
4C7
100
AcDbEntity
  8
0
100
AcDbLine
 62
7
  6
CONTINUOUS
 10
7.0083802029
 20
3.9398596053
 11
7.0125662182
 21
3.9395742597
  0
SPLINE
  5
4C8
100
AcDbEntity
  8
0
100
AcDbSpline
 62
7
  6
CONTINUOUS
 70
0
 71
3
 72
10
 73
6
 74
0
 42
0.0000001
 43
0.0000001
 44
0.0000000001
 40
0.0
 40
0.0
 40
0.0
 40
0.0
 40
0.599456084
 40
0.823354998
 40
1.0
 40
1.0
 40
1.0
 40
1.0
 10
7.0125662182
 20
3.9395742597
 30
0.0
 10
7.0136144249
 20
3.9394257429
 30
0.0
 10
7.0150511198
 20
3.9391353711
 30
0.0
 10
7.0167016009
 20
3.9384988335
 30
0.0
 10
7.0173221356
 20
3.9381492528
 30
0.0
 10
7.0175734706
 20
3.9379644464
 30
0.0
  0
LINE
  5
4C9
100
AcDbEntity
  8
0
100
AcDbLine
 62
7
  6
CONTINUOUS
 10
7.0175734706
 20
3.9379644464
 11
7.0180665107
 21
3.9375073324
  0
SPLINE
  5
4CA
100
AcDbEntity
  8
0
100
AcDbSpline
 62
7
  6
CONTINUOUS
 70
0
 71
3
 72
9
 73
5
 74
0
 42
0.0000001
 43
0.0000001
 44
0.0000000001
 40
0.0
 40
0.0
 40
0.0
 40
0.0
 40
0.5473584595
 40
1.0
 40
1.0
 40
1.0
 40
1.0
 10
7.0083802029
 20
3.9488332099
 30
0.0
 10
7.0096114305
 20
3.9488332099
 30
0.0
 10
7.0118626519
 20
3.9486782722
 30
0.0
 10
7.0140754092
 20
3.9482044559
 30
0.0
 10
7.0150400709
 20
3.9478787242
 30
0.0
  0
SPLINE
  5
4CB
100
AcDbEntity
  8
0
100
AcDbSpline
 62
7
  6
CONTINUOUS
 70
0
 71
3
 72
9
 73
5
 74
0
 42
0.0000001
 43
0.0000001
 44
0.0000000001
 40
0.0
 40
0.0
 40
0.0
 40
0.0
 40
0.5638353795
 40
1.0
 40
1.0
 40
1.0
 40
1.0
 10
7.0150400709
 20
3.9478787242
 30
0.0
 10
7.0155533141
 20
3.9477054204
 30
0.0
 10
7.016446594
 20
3.947342879
 30
0.0
 10
7.0172642606
 20
3.946818385
 30
0.0
 10
7.0175771456
 20
3.9465396253
 30
0.0
  0
LINE
  5
4CC
100
AcDbEntity
  8
0
100
AcDbLine
 62
7
  6
CONTINUOUS
 10
7.0175771456
 20
3.9465396253
 11
7.0180691741
 21
3.9459864984
  0
SPLINE
  5
4CD
100
AcDbEntity
  8
0
100
AcDbSpline
 62
7
  6
CONTINUOUS
 70
0
 71
3
 72
11
 73
7
 74
0
 42
0.0000001
 43
0.0000001
 44
0.0000000001
 40
0.0
 40
0.0
 40
0.0
 40
0.0
 40
0.2910558046
 40
0.5637217722
 40
0.8005789322
 40
1.0
 40
1.0
 40
1.0
 40
1.0
 10
7.0083802029
 20
3.9571462457
 30
0.0
 10
7.0091472523
 20
3.9571462457
 30
0.0
 10
7.0106336652
 20
3.9570666492
 30
0.0
 10
7.0127235593
 20
3.95675036
 30
0.0
 10
7.0145305161
 20
3.9562584657
 30
0.0
 10
7.0155945741
 20
3.9558096366
 30
0.0
 10
7.0160588013
 20
3.9555632608
 30
0.0
  0
LINE
  5
4CE
100
AcDbEntity
  8
0
100
AcDbLine
 62
7
  6
CONTINUOUS
 10
7.0160588013
 20
3.9555632608
 11
7.017577146
 21
3.9544631809
  0
LINE
  5
4CF
100
AcDbEntity
  8
0
100
AcDbLine
 62
7
  6
CONTINUOUS
 10
7.017577146
 20
3.9544631809
 11
7.0180691741
 21
3.9538161264
  0
SPLINE
  5
4D0
100
AcDbEntity
  8
0
100
AcDbSpline
 62
7
  6
CONTINUOUS
 70
0
 71
3
 72
11
 73
7
 74
0
 42
0.0000001
 43
0.0000001
 44
0.0000000001
 40
0.0
 40
0.0
 40
0.0
 40
0.0
 40
0.3022150875
 40
0.5780595599
 40
0.8102297287
 40
1.0
 40
1.0
 40
1.0
 40
1.0
 10
7.0083802029
 20
3.9647707381
 30
0.0
 10
7.0092866028
 20
3.9647707381
 30
0.0
 10
7.0110220212
 20
3.9646472439
 30
0.0
 10
7.0134107561
 20
3.9641556243
 30
0.0
 10
7.0153740472
 20
3.9634044196
 30
0.0
 10
7.0164604321
 20
3.9627322776
 30
0.0
 10
7.0168996377
 20
3.962370286
 30
0.0
  0
LINE
  5
4D1
100
AcDbEntity
  8
0
100
AcDbLine
 62
7
  6
CONTINUOUS
 10
7.0168996377
 20
3.962370286
 11
7.0175771456
 21
3.9617055479
  0
LINE
  5
4D2
100
AcDbEntity
  8
0
100
AcDbLine
 62
7
  6
CONTINUOUS
 10
7.0175771456
 20
3.9617055479
 11
7.0180691741
 21
3.9609663385
  0
SPLINE
  5
4D3
100
AcDbEntity
  8
0
100
AcDbSpline
 62
7
  6
CONTINUOUS
 70
0
 71
3
 72
11
 73
7
 74
0
 42
0.0000001
 43
0.0000001
 44
0.0000000001
 40
0.0
 40
0.0
 40
0.0
 40
0.0
 40
0.2985869922
 40
0.5724922719
 40
0.8056813305
 40
1.0
 40
1.0
 40
1.0
 40
1.0
 10
7.0083802029
 20
3.9716857889
 30
0.0
 10
7.0092871826
 20
3.9716857889
 30
0.0
 10
7.011028361
 20
3.9715465453
 30
0.0
 10
7.0134231004
 20
3.9709919858
 30
0.0
 10
7.0153905047
 20
3.970144341
 30
0.0
 10
7.0164662627
 20
3.9693933969
 30
0.0
 10
7.0168996378
 20
3.9689926608
 30
0.0
  0
LINE
  5
4D4
100
AcDbEntity
  8
0
100
AcDbLine
 62
7
  6
CONTINUOUS
 10
7.0168996378
 20
3.9689926608
 11
7.0175771456
 21
3.9682468743
  0
LINE
  5
4D5
100
AcDbEntity
  8
0
100
AcDbLine
 62
7
  6
CONTINUOUS
 10
7.0175771456
 20
3.9682468743
 11
7.0180691741
 21
3.9674175366
  0
SPLINE
  5
4D6
100
AcDbEntity
  8
0
100
AcDbSpline
 62
7
  6
CONTINUOUS
 70
0
 71
3
 72
11
 73
7
 74
0
 42
0.0000001
 43
0.0000001
 44
0.0000000001
 40
0.0
 40
0.0
 40
0.0
 40
0.0
 40
0.3069399802
 40
0.5815867934
 40
0.8107347264
 40
1.0
 40
1.0
 40
1.0
 40
1.0
 10
7.0083802029
 20
3.9778724442
 30
0.0
 10
7.0094333684
 20
3.9778724442
 30
0.0
 10
7.0114337699
 20
3.9776711464
 30
0.0
 10
7.0141158814
 20
3.9768583251
 30
0.0
 10
7.0161909543
 20
3.975651407
 30
0.0
 10
7.017213124
 20
3.9746070158
 30
0.0
 10
7.0175771455
 20
3.9740692312
 30
0.0
  0
LINE
  5
4D7
100
AcDbEntity
  8
0
100
AcDbLine
 62
7
  6
CONTINUOUS
 10
7.0175771455
 20
3.9740692312
 11
7.0180691741
 21
3.9731520383
  0
SPLINE
  5
4D8
100
AcDbEntity
  8
0
100
AcDbSpline
 62
7
  6
CONTINUOUS
 70
0
 71
3
 72
10
 73
6
 74
0
 42
0.0000001
 43
0.0000001
 44
0.0000000001
 40
0.0
 40
0.0
 40
0.0
 40
0.0
 40
0.3029571275
 40
0.5761967995
 40
1.0
 40
1.0
 40
1.0
 40
1.0
 10
7.0083802029
 20
3.9833165713
 30
0.0
 10
7.0094334996
 20
3.9833165713
 30
0.0
 10
7.0114471414
 20
3.9830916512
 30
0.0
 10
7.0147528331
 20
3.9820022601
 30
0.0
 10
7.0167962668
 20
3.9804171051
 30
0.0
 10
7.0175734706
 20
3.9791653092
 30
0.0
  0
LINE
  5
4D9
100
AcDbEntity
  8
0
100
AcDbLine
 62
7
  6
CONTINUOUS
 10
7.0175734706
 20
3.9791653092
 11
7.0180665107
 21
3.9781640211
  0
SPLINE
  5
4DA
100
AcDbEntity
  8
0
100
AcDbSpline
 62
7
  6
CONTINUOUS
 70
0
 71
3
 72
11
 73
7
 74
0
 42
0.0000001
 43
0.0000001
 44
0.0000000001
 40
0.0
 40
0.0
 40
0.0
 40
0.0
 40
0.2967389854
 40
0.5664813598
 40
0.7989895975
 40
1.0
 40
1.0
 40
1.0
 40
1.0
 10
7.0083802029
 20
3.9879947831
 30
0.0
 10
7.0094355095
 20
3.9879947831
 30
0.0
 10
7.0114570205
 20
3.9877525876
 30
0.0
 10
7.0141551419
 20
3.9867764233
 30
0.0
 10
7.0162313742
 20
3.9853308027
 30
0.0
 10
7.017222144
 20
3.9841157017
 30
0.0
 10
7.0175771456
 20
3.9834952161
 30
0.0
  0
LINE
  5
4DB
100
AcDbEntity
  8
0
100
AcDbLine
 62
7
  6
CONTINUOUS
 10
7.0175771456
 20
3.9834952161
 11
7.0180691741
 21
3.9824100887
  0
SPLINE
  5
4DC
100
AcDbEntity
  8
0
100
AcDbSpline
 62
7
  6
CONTINUOUS
 70
0
 71
3
 72
11
 73
7
 74
0
 42
0.0000001
 43
0.0000001
 44
0.0000000001
 40
0.0
 40
0.0
 40
0.0
 40
0.0
 40
0.2918541084
 40
0.559329007
 40
0.7935235777
 40
1.0
 40
1.0
 40
1.0
 40
1.0
 10
7.0083802029
 20
3.9919027221
 30
0.0
 10
7.0094366482
 20
3.9919027221
 30
0.0
 10
7.0114692595
 20
3.9916404297
 30
0.0
 10
7.0141743104
 20
3.9905849839
 30
0.0
 10
7.0162486827
 20
3.9890261549
 30
0.0
 10
7.0172255871
 20
3.987732561
 30
0.0
 10
7.0175771455
 20
3.9870730082
 30
0.0
  0
LINE
  5
4DD
100
AcDbEntity
  8
0
100
AcDbLine
 62
7
  6
CONTINUOUS
 10
7.0175771455
 20
3.9870730082
 11
7.0180691741
 21
3.9859082617
  0
SPLINE
  5
4DE
100
AcDbEntity
  8
0
100
AcDbSpline
 62
7
  6
CONTINUOUS
 70
0
 71
3
 72
17
 73
13
 74
0
 42
0.0000001
 43
0.0000001
 44
0.0000000001
 40
0.0
 40
0.0
 40
0.0
 40
0.0
 40
0.1945992975
 40
0.3781085231
 40
0.543807364
 40
0.6859886547
 40
0.80201569
 40
0.890543759
 40
0.9247956533
 40
0.9532896098
 40
0.9775544681
 40
1.0
 40
1.0
 40
1.0
 40
1.0
 10
6.745315536
 20
3.7684577301
 30
0.0
 10
6.7453456504
 20
3.7690396039
 30
0.0
 10
6.7453801457
 20
3.7701715922
 30
0.0
 10
6.7453571656
 20
3.7718002648
 30
0.0
 10
6.7452607037
 20
3.7732690685
 30
0.0
 10
6.7450914855
 20
3.7745287124
 30
0.0
 10
6.744858664
 20
3.7755412632
 30
0.0
 10
6.7446043415
 20
3.7762158973
 30
0.0
 10
6.7443573075
 20
3.7765978615
 30
0.0
 10
6.7441741014
 20
3.7767863828
 30
0.0
 10
6.7439751124
 20
3.7769000371
 30
0.0
 10
6.7438325663
 20
3.7769201966
 30
0.0
 10
6.7437654544
 20
3.776916671
 30
0.0
  0
SPLINE
  5
4DF
100
AcDbEntity
  8
0
100
AcDbSpline
 62
7
  6
CONTINUOUS
 70
0
 71
3
 72
15
 73
11
 74
0
 42
0.0000001
 43
0.0000001
 44
0.0000000001
 40
0.0
 40
0.0
 40
0.0
 40
0.0
 40
0.208994429
 40
0.3978463409
 40
0.5634234336
 40
0.7027602088
 40
0.8136299063
 40
0.8966066517
 40
0.955231028
 40
1.0
 40
1.0
 40
1.0
 40
1.0
 10
6.745315536
 20
3.8236021924
 30
0.0
 10
6.7453364929
 20
3.8239473951
 30
0.0
 10
6.7453661696
 20
3.8246052341
 30
0.0
 10
6.745373451
 20
3.8255377533
 30
0.0
 10
6.7453423381
 20
3.8263547168
 30
0.0
 10
6.7452740418
 20
3.8270396022
 30
0.0
 10
6.7451693515
 20
3.8275830064
 30
0.0
 10
6.7450291139
 20
3.8279769258
 30
0.0
 10
6.7448534048
 20
3.8282420473
 30
0.0
 10
6.7446778271
 20
3.828308111
 30
0.0
 10
6.7446038417
 20
3.8283043201
 30
0.0
  0
SPLINE
  5
4E0
100
AcDbEntity
  8
0
100
AcDbSpline
 62
7
  6
CONTINUOUS
 70
0
 71
3
 72
13
 73
9
 74
0
 42
0.0000001
 43
0.0000001
 44
0.0000000001
 40
0.0
 40
0.0
 40
0.0
 40
0.0
 40
0.4152357384
 40
0.7188492448
 40
0.8274986402
 40
0.9075166243
 40
0.9613859409
 40
1.0
 40
1.0
 40
1.0
 40
1.0
 10
6.745315536
 20
3.8608333965
 30
0.0
 10
6.745338837
 20
3.8610923704
 30
0.0
 10
6.7453701477
 20
3.8615416655
 30
0.0
 10
6.7453723904
 20
3.862060392
 30
0.0
 10
6.7453382283
 20
3.8623680383
 30
0.0
 10
6.7453011997
 20
3.8625146565
 30
0.0
 10
6.7452525288
 20
3.8626156446
 30
0.0
 10
6.7451928849
 20
3.862641648
 30
0.0
 10
6.7451687571
 20
3.8626400593
 30
0.0
  0
SPLINE
  5
4E1
100
AcDbEntity
  8
0
100
AcDbSpline
 62
7
  6
CONTINUOUS
 70
0
 71
3
 72
17
 73
13
 74
0
 42
0.0000001
 43
0.0000001
 44
0.0000000001
 40
0.0
 40
0.0
 40
0.0
 40
0.0
 40
0.3599070157
 40
0.5321423404
 40
0.6866240412
 40
0.754832791
 40
0.8157937761
 40
0.8688084208
 40
0.9132846896
 40
0.9486785016
 40
0.9745752157
 40
1.0
 40
1.0
 40
1.0
 40
1.0
 10
6.7316232311
 20
3.7725132711
 30
0.0
 10
6.7318168402
 20
3.7739817439
 30
0.0
 10
6.7320506346
 20
3.7761603466
 30
0.0
 10
6.7322516559
 20
3.7789791939
 30
0.0
 10
6.7323210986
 20
3.7806032415
 30
0.0
 10
6.7323374474
 20
3.7817707662
 30
0.0
 10
6.7323307246
 20
3.7825200704
 30
0.0
 10
6.7323048774
 20
3.7831733888
 30
0.0
 10
6.7322644672
 20
3.7837142768
 30
0.0
 10
6.7322005549
 20
3.7841579696
 30
0.0
 10
6.7321335133
 20
3.7844748871
 30
0.0
 10
6.7320076455
 20
3.7847397143
 30
0.0
 10
6.731903334
 20
3.7847314993
 30
0.0
  0
SPLINE
  5
4E2
100
AcDbEntity
  8
0
100
AcDbSpline
 62
7
  6
CONTINUOUS
 70
0
 71
3
 72
16
 73
12
 74
0
 42
0.0000001
 43
0.0000001
 44
0.0000000001
 40
0.0
 40
0.0
 40
0.0
 40
0.0
 40
0.1903474793
 40
0.3747948444
 40
0.5446765633
 40
0.6929326245
 40
0.8149674483
 40
0.9067952223
 40
0.9408185118
 40
0.9670833724
 40
1.0
 40
1.0
 40
1.0
 40
1.0
 10
6.732336719
 20
3.7059383181
 30
0.0
 10
6.7323367513
 20
3.7065786951
 30
0.0
 10
6.7323176903
 20
3.7078396774
 30
0.0
 10
6.7322362726
 20
3.7096705536
 30
0.0
 10
6.7321047156
 20
3.7113566967
 30
0.0
 10
6.7319285161
 20
3.7128273918
 30
0.0
 10
6.7317152329
 20
3.7140282954
 30
0.0
 10
6.7315075077
 20
3.7148357685
 30
0.0
 10
6.7313079526
 20
3.7153130322
 30
0.0
 10
6.7311602679
 20
3.7155786962
 30
0.0
 10
6.7309805202
 20
3.715737475
 30
0.0
 10
6.7308700077
 20
3.7157303816
 30
0.0
  0
SPLINE
  5
4E3
100
AcDbEntity
  8
0
100
AcDbSpline
 62
7
  6
CONTINUOUS
 70
0
 71
3
 72
17
 73
13
 74
0
 42
0.0000001
 43
0.0000001
 44
0.0000000001
 40
0.0
 40
0.0
 40
0.0
 40
0.0
 40
0.1827454003
 40
0.3630574781
 40
0.5304030556
 40
0.6754388229
 40
0.7946673093
 40
0.8864932769
 40
0.9223427852
 40
0.9522100003
 40
0.9773688915
 40
1.0
 40
1.0
 40
1.0
 40
1.0
 10
6.7453706501
 20
3.7059383181
 30
0.0
 10
6.7454082937
 20
3.7066145314
 30
0.0
 10
6.7454018012
 20
3.7079628723
 30
0.0
 10
6.7452265652
 20
3.7099222617
 30
0.0
 10
6.7449483045
 20
3.7117276672
 30
0.0
 10
6.7446211968
 20
3.7132949467
 30
0.0
 10
6.7442497007
 20
3.7145619316
 30
0.0
 10
6.7438835512
 20
3.7154078622
 30
0.0
 10
6.7435476313
 20
3.7158881516
 30
0.0
 10
6.7433057519
 20
3.7161261944
 30
0.0
 10
6.7430517639
 20
3.7162708313
 30
0.0
 10
6.742871413
 20
3.716298145
 30
0.0
 10
6.7427876705
 20
3.7162934928
 30
0.0
  0
LINE
  5
4E4
100
AcDbEntity
  8
0
100
AcDbLine
 62
7
  6
CONTINUOUS
 10
6.7301202463
 20
3.6464643542
 11
6.729851345
 21
3.6467197383
  0
SPLINE
  5
4E5
100
AcDbEntity
  8
0
100
AcDbSpline
 62
7
  6
CONTINUOUS
 70
0
 71
3
 72
19
 73
15
 74
0
 42
0.0000001
 43
0.0000001
 44
0.0000000001
 40
0.0
 40
0.0
 40
0.0
 40
0.0
 40
0.1496354061
 40
0.3148124243
 40
0.4816284089
 40
0.6382493511
 40
0.7093843751
 40
0.7743206903
 40
0.8321005996
 40
0.8818457928
 40
0.9230715509
 40
0.9557958299
 40
0.9806661445
 40
1.0
 40
1.0
 40
1.0
 40
1.0
 10
6.745315536
 20
3.63945904
 30
0.0
 10
6.7453680889
 20
3.6403109929
 30
0.0
 10
6.7453893632
 20
3.6421089061
 30
0.0
 10
6.745244925
 20
3.6448539947
 30
0.0
 10
6.744926217
 20
3.6476246319
 30
0.0
 10
6.7445331254
 20
3.6498427937
 30
0.0
 10
6.7441460007
 20
3.651467363
 30
0.0
 10
6.743842935
 20
3.6525312321
 30
0.0
 10
6.7435240498
 20
3.6534625344
 30
0.0
 10
6.7431942426
 20
3.6542452047
 30
0.0
 10
6.7428595058
 20
3.6548682796
 30
0.0
 10
6.7425239356
 20
3.6553239756
 30
0.0
 10
6.7421893497
 20
3.6556177201
 30
0.0
 10
6.7419320908
 20
3.6556895556
 30
0.0
 10
6.7418220894
 20
3.6556816226
 30
0.0
  0
SPLINE
  5
4E6
100
AcDbEntity
  8
0
100
AcDbSpline
 62
7
  6
CONTINUOUS
 70
0
 71
3
 72
20
 73
16
 74
0
 42
0.0000001
 43
0.0000001
 44
0.0000000001
 40
0.0
 40
0.0
 40
0.0
 40
0.0
 40
0.0519295137
 40
0.1144446734
 40
0.2632720312
 40
0.4300157347
 40
0.5976891115
 40
0.7502881229
 40
0.8163353428
 40
0.8736782183
 40
0.9211275577
 40
0.9577306225
 40
0.9719178027
 40
0.9834745312
 40
1.0
 40
1.0
 40
1.0
 40
1.0
 10
6.745315536
 20
3.5852436935
 30
0.0
 10
6.7453475502
 20
3.5855870158
 30
0.0
 10
6.7453785401
 20
3.5863472226
 30
0.0
 10
6.7453488681
 20
3.5880955669
 30
0.0
 10
6.7451364215
 20
3.5905997671
 30
0.0
 10
6.7446787598
 20
3.5937770379
 30
0.0
 10
6.7440494792
 20
3.5969503871
 30
0.0
 10
6.7434156062
 20
3.5994381032
 30
0.0
 10
6.742860033
 20
3.6011849424
 30
0.0
 10
6.7424656018
 20
3.6022491555
 30
0.0
 10
6.742082702
 20
3.6031072991
 30
0.0
 10
6.741761164
 20
3.6036766998
 30
0.0
 10
6.7415044977
 20
3.604004729
 30
0.0
 10
6.7413067405
 20
3.6041993038
 30
0.0
 10
6.7411232754
 20
3.6042947169
 30
0.0
 10
6.74101373
 20
3.604288372
 30
0.0
  0
SPLINE
  5
4E7
100
AcDbEntity
  8
0
100
AcDbSpline
 62
7
  6
CONTINUOUS
 70
0
 71
3
 72
24
 73
20
 74
0
 42
0.0000001
 43
0.0000001
 44
0.0000000001
 40
0.0
 40
0.0
 40
0.0
 40
0.0
 40
0.010621992
 40
0.0253556661
 40
0.0666589151
 40
0.1225232049
 40
0.1909884292
 40
0.2694165454
 40
0.3550669572
 40
0.536427238
 40
0.6261332853
 40
0.7113963086
 40
0.7896247141
 40
0.8582656109
 40
0.9151460048
 40
0.9584294453
 40
0.9865406996
 40
0.9948768664
 40
1.0
 40
1.0
 40
1.0
 40
1.0
 10
6.745315536
 20
3.5494030095
 30
0.0
 10
6.7453356934
 20
3.5494756599
 30
0.0
 10
6.7453603111
 20
3.5496550515
 30
0.0
 10
6.7453781801
 20
3.5501278107
 30
0.0
 10
6.7453329964
 20
3.5509223573
 30
0.0
 10
6.7452059406
 20
3.5520910105
 30
0.0
 10
6.7449976003
 20
3.5535154209
 30
0.0
 10
6.7447187837
 20
3.5551423712
 30
0.0
 10
6.7442549493
 20
3.5575501735
 30
0.0
 10
6.7437114074
 20
3.5600236705
 30
0.0
 10
6.7431103313
 20
3.5624805373
 30
0.0
 10
6.7426528719
 20
3.5642185987
 30
0.0
 10
6.7422031044
 20
3.5658039797
 30
0.0
 10
6.7417752007
 20
3.5671851534
 30
0.0
 10
6.7413834973
 20
3.5683191502
 30
0.0
 10
6.7410448278
 20
3.5691615602
 30
0.0
 10
6.7407866059
 20
3.5696730576
 30
0.0
 10
6.7406039332
 20
3.5699015692
 30
0.0
 10
6.7405141775
 20
3.5699549617
 30
0.0
 10
6.7404778186
 20
3.5699543488
 30
0.0
  0
SPLINE
  5
4E8
100
AcDbEntity
  8
0
100
AcDbSpline
 62
7
  6
CONTINUOUS
 70
0
 71
3
 72
10
 73
6
 74
0
 42
0.0000001
 43
0.0000001
 44
0.0000000001
 40
0.0
 40
0.0
 40
0.0
 40
0.0
 40
0.1864998723
 40
0.4258817976
 40
1.0
 40
1.0
 40
1.0
 40
1.0
 10
6.7316232311
 20
3.6975107119
 30
0.0
 10
6.731751304
 20
3.6980215674
 30
0.0
 10
6.7319587672
 20
3.6992087158
 30
0.0
 10
6.7322600672
 20
3.7020169489
 30
0.0
 10
6.7323366374
 20
3.704317041
 30
0.0
 10
6.732336719
 20
3.7059383181
 30
0.0
  0
SPLINE
  5
4E9
100
AcDbEntity
  8
0
100
AcDbSpline
 62
7
  6
CONTINUOUS
 70
0
 71
3
 72
12
 73
8
 74
0
 42
0.0000001
 43
0.0000001
 44
0.0000000001
 40
0.0
 40
0.0
 40
0.0
 40
0.0
 40
0.1315062633
 40
0.2225918775
 40
0.3343906492
 40
0.6233196928
 40
1.0
 40
1.0
 40
1.0
 40
1.0
 10
6.7308700077
 20
3.7157303816
 30
0.0
 10
6.7307956571
 20
3.7157256093
 30
0.0
 10
6.7306798374
 20
3.7156466106
 30
0.0
 10
6.7305659284
 20
3.7154977439
 30
0.0
 10
6.730426725
 20
3.7152544332
 30
0.0
 10
6.7302695169
 20
3.7148416864
 30
0.0
 10
6.7301699838
 20
3.7144775589
 30
0.0
 10
6.7301202463
 20
3.7142700313
 30
0.0
  0
SPLINE
  5
4EA
100
AcDbEntity
  8
0
100
AcDbSpline
 62
7
  6
CONTINUOUS
 70
0
 71
3
 72
11
 73
7
 74
0
 42
0.0000001
 43
0.0000001
 44
0.0000000001
 40
0.0
 40
0.0
 40
0.0
 40
0.0
 40
0.324218926
 40
0.4582344223
 40
0.6155085136
 40
1.0
 40
1.0
 40
1.0
 40
1.0
 10
6.74101373
 20
3.604288372
 30
0.0
 10
6.7407976648
 20
3.6042758573
 30
0.0
 10
6.7406018771
 20
3.6039182915
 30
0.0
 10
6.7404892774
 20
3.6035409226
 30
0.0
 10
6.740391752
 20
3.6030948515
 30
0.0
 10
6.7403519617
 20
3.6027366791
 30
0.0
 10
6.7403317299
 20
3.6024808164
 30
0.0
  0
SPLINE
  5
4EB
100
AcDbEntity
  8
0
100
AcDbSpline
 62
7
  6
CONTINUOUS
 70
0
 71
3
 72
15
 73
11
 74
0
 42
0.0000001
 43
0.0000001
 44
0.0000000001
 40
0.0
 40
0.0
 40
0.0
 40
0.0
 40
0.1151038795
 40
0.1594140062
 40
0.2102887619
 40
0.3312702893
 40
0.4762822952
 40
0.6403860134
 40
0.8171697108
 40
1.0
 40
1.0
 40
1.0
 40
1.0
 10
6.7427876705
 20
3.7162934928
 30
0.0
 10
6.7423838789
 20
3.7162710603
 30
0.0
 10
6.7419520753
 20
3.7157266152
 30
0.0
 10
6.7416258598
 20
3.7150866204
 30
0.0
 10
6.7413344535
 20
3.7143783031
 30
0.0
 10
6.7410214649
 20
3.7133106624
 30
0.0
 10
6.7407239347
 20
3.7118266891
 30
0.0
 10
6.7404890941
 20
3.7101353687
 30
0.0
 10
6.7403152067
 20
3.7083029887
 30
0.0
 10
6.7402406232
 20
3.7070414464
 30
0.0
 10
6.7402129265
 20
3.7063996747
 30
0.0
  0
SPLINE
  5
4EC
100
AcDbEntity
  8
0
100
AcDbSpline
 62
7
  6
CONTINUOUS
 70
0
 71
3
 72
16
 73
12
 74
0
 42
0.0000001
 43
0.0000001
 44
0.0000000001
 40
0.0
 40
0.0
 40
0.0
 40
0.0
 40
0.0165957705
 40
0.0400565742
 40
0.0717644667
 40
0.1119180177
 40
0.2164892896
 40
0.3488680312
 40
0.5020286783
 40
0.6678704586
 40
1.0
 40
1.0
 40
1.0
 40
1.0
 10
6.7446038417
 20
3.8283043201
 30
0.0
 10
6.7445186824
 20
3.8282999566
 30
0.0
 10
6.7443221855
 20
3.8282053554
 30
0.0
 10
6.7440680723
 20
3.8279366455
 30
0.0
 10
6.7437922785
 20
3.8275295858
 30
0.0
 10
6.7433689399
 20
3.8267269825
 30
0.0
 10
6.7428460844
 20
3.8253990517
 30
0.0
 10
6.7422475968
 20
3.8234854934
 30
0.0
 10
6.7416756453
 20
3.8212366109
 30
0.0
 10
6.7409946649
 20
3.8179606809
 30
0.0
 10
6.7406219653
 20
3.815424861
 30
0.0
 10
6.7404579912
 20
3.8137262353
 30
0.0
  0
LINE
  5
4ED
100
AcDbEntity
  8
0
100
AcDbLine
 62
7
  6
CONTINUOUS
 10
6.7404579912
 20
3.8137262353
 11
6.7403317299
 21
3.8120808057
  0
SPLINE
  5
4EE
100
AcDbEntity
  8
0
100
AcDbSpline
 62
7
  6
CONTINUOUS
 70
0
 71
3
 72
14
 73
10
 74
0
 42
0.0000001
 43
0.0000001
 44
0.0000000001
 40
0.0
 40
0.0
 40
0.0
 40
0.0
 40
0.0561985602
 40
0.1250902285
 40
0.214126865
 40
0.3265581073
 40
0.4631085698
 40
0.6222992084
 40
1.0
 40
1.0
 40
1.0
 40
1.0
 10
6.7418220894
 20
3.6556816226
 30
0.0
 10
6.7417257217
 20
3.6556746728
 30
0.0
 10
6.7415150815
 20
3.6555925383
 30
0.0
 10
6.7412585025
 20
3.6553196572
 30
0.0
 10
6.7410297415
 20
3.6549122495
 30
0.0
 10
6.7408274306
 20
3.6543657236
 30
0.0
 10
6.7406530049
 20
3.6536851747
 30
0.0
 10
6.7404486782
 20
3.6525448336
 30
0.0
 10
6.7403663307
 20
3.6516234515
 30
0.0
 10
6.7403317299
 20
3.6509750213
 30
0.0
  0
SPLINE
  5
4EF
100
AcDbEntity
  8
0
100
AcDbSpline
 62
7
  6
CONTINUOUS
 70
0
 71
3
 72
32
 73
28
 74
0
 42
0.0000001
 43
0.0000001
 44
0.0000000001
 40
0.0
 40
0.0
 40
0.0
 40
0.0
 40
0.2090614534
 40
0.4037172663
 40
0.4934798816
 40
0.5773382072
 40
0.6547688047
 40
0.7252482356
 40
0.7882960926
 40
0.843604025
 40
0.8909067103
 40
0.9114731812
 40
0.9299388593
 40
0.9462743891
 40
0.9604656011
 40
0.9725021125
 40
0.9823735298
 40
0.9864940772
 40
0.9900694485
 40
0.9930983413
 40
0.9955794525
 40
0.9975114787
 40
0.9988931154
 40
0.99937713
 40
0.9997230577
 40
0.9999307355
 40
1.0
 40
1.0
 40
1.0
 40
1.0
 10
7.1252851752
 20
3.7059349505
 30
0.0
 10
7.1231952045
 20
3.7237500273
 30
0.0
 10
7.1192346498
 20
3.7581614687
 30
0.0
 10
7.1145141384
 20
3.8002375666
 30
0.0
 10
7.1110203435
 20
3.8316415698
 30
0.0
 10
7.1086456558
 20
3.8530502248
 30
0.0
 10
7.1064539982
 20
3.8728145578
 30
0.0
 10
7.1044529558
 20
3.890803568
 30
0.0
 10
7.1026477692
 20
3.9069045518
 30
0.0
 10
7.1010494039
 20
3.9210277168
 30
0.0
 10
7.0998475351
 20
3.9315276224
 30
0.0
 10
7.0989952169
 20
3.9388858619
 30
0.0
 10
7.0984436909
 20
3.9436042265
 30
0.0
 10
7.0979502815
 20
3.9477786664
 30
0.0
 10
7.0975169237
 20
3.9514047454
 30
0.0
 10
7.0971454336
 20
3.9544796547
 30
0.0
 10
7.0968747503
 20
3.9566964062
 30
0.0
 10
7.0966905598
 20
3.9581923676
 30
0.0
 10
7.0965775075
 20
3.9591055759
 30
0.0
 10
7.0964813164
 20
3.9598791279
 30
0.0
 10
7.0964019329
 20
3.9605127086
 30
0.0
 10
7.0963403088
 20
3.9610060186
 30
0.0
 10
7.0962986833
 20
3.9613292737
 30
0.0
 10
7.0962758715
 20
3.9615175339
 30
0.0
 10
7.0962628907
 20
3.9616058213
 30
0.0
 10
7.0962592291
 20
3.9616588839
 30
0.0
 10
7.0962530119
 20
3.9616824021
 30
0.0
 10
7.0962535753
 20
3.9616883181
 30
0.0
  0
SPLINE
  5
4F0
100
AcDbEntity
  8
0
100
AcDbSpline
 62
7
  6
CONTINUOUS
 70
0
 71
3
 72
10
 73
6
 74
0
 42
0.0000001
 43
0.0000001
 44
0.0000000001
 40
0.0
 40
0.0
 40
0.0
 40
0.0
 40
0.233604969
 40
0.4837815399
 40
1.0
 40
1.0
 40
1.0
 40
1.0
 10
7.1453112578
 20
3.5465436058
 30
0.0
 10
7.1435948318
 20
3.5589345908
 30
0.0
 10
7.140159851
 20
3.5846121599
 30
0.0
 10
7.1333970444
 20
3.6377325807
 30
0.0
 10
7.1285165479
 20
3.6784815105
 30
0.0
 10
7.1252851765
 20
3.7059349508
 30
0.0
  0
SPLINE
  5
4F1
100
AcDbEntity
  8
0
100
AcDbSpline
 62
7
  6
CONTINUOUS
 70
0
 71
3
 72
15
 73
11
 74
0
 42
0.0000001
 43
0.0000001
 44
0.0000000001
 40
0.0
 40
0.0
 40
0.0
 40
0.0
 40
0.1304696993
 40
0.2585991339
 40
0.3843951758
 40
0.5080868521
 40
0.6302823081
 40
0.7520833457
 40
0.8748176878
 40
1.0
 40
1.0
 40
1.0
 40
1.0
 10
7.6873917155
 20
3.9570463373
 30
0.0
 10
7.6851322343
 20
3.965851742
 30
0.0
 10
7.6802332
 20
3.9832019789
 30
0.0
 10
7.671368796
 20
4.0084976856
 30
0.0
 10
7.6607814111
 20
4.0326184695
 30
0.0
 10
7.6482119033
 20
4.0553109234
 30
0.0
 10
7.6333904176
 20
4.0762803472
 30
0.0
 10
7.6161222761
 20
4.095209186
 30
0.0
 10
7.5964036955
 20
4.1118977359
 30
0.0
 10
7.5818048591
 20
4.1212361613
 30
0.0
 10
7.5741893907
 20
4.1254885295
 30
0.0
  0
SPLINE
  5
4F2
100
AcDbEntity
  8
0
100
AcDbSpline
 62
7
  6
CONTINUOUS
 70
0
 71
3
 72
11
 73
7
 74
0
 42
0.0000001
 43
0.0000001
 44
0.0000000001
 40
0.0
 40
0.0
 40
0.0
 40
0.0
 40
0.2287073919
 40
0.4770113169
 40
0.7371004271
 40
1.0
 40
1.0
 40
1.0
 40
1.0
 10
7.2029015685
 20
3.7053580163
 30
0.0
 10
7.1970114888
 20
3.7059983962
 30
0.0
 10
7.1846844828
 20
3.7069570512
 30
0.0
 10
7.1655914833
 20
3.7075190636
 30
0.0
 10
7.1456071609
 20
3.7072097501
 30
0.0
 10
7.1320756676
 20
3.7064555413
 30
0.0
 10
7.1252847801
 20
3.7059383181
 30
0.0
  0
SPLINE
  5
4F3
100
AcDbEntity
  8
0
100
AcDbSpline
 62
7
  6
CONTINUOUS
 70
0
 71
3
 72
16
 73
12
 74
0
 42
0.0000001
 43
0.0000001
 44
0.0000000001
 40
0.0
 40
0.0
 40
0.0
 40
0.0
 40
0.1368190514
 40
0.2723049435
 40
0.4053573313
 40
0.5349090595
 40
0.6599528306
 40
0.7204735536
 40
0.7795236793
 40
0.8930048495
 40
1.0
 40
1.0
 40
1.0
 40
1.0
 10
7.2029015685
 20
3.7053580163
 30
0.0
 10
7.2023568865
 20
3.6976846475
 30
0.0
 10
7.2011923363
 20
3.682418367
 30
0.0
 10
7.1993099466
 20
3.6597049136
 30
0.0
 10
7.1974209751
 20
3.6374020803
 30
0.0
 10
7.1955836718
 20
3.6156840921
 30
0.0
 10
7.1940083058
 20
3.5980366218
 30
0.0
 10
7.1926878833
 20
3.5843465913
 30
0.0
 10
7.1913645292
 20
3.5713101457
 30
0.0
 10
7.1897310595
 20
3.5556789724
 30
0.0
 10
7.1885392218
 20
3.5433394517
 30
0.0
 10
7.188030371
 20
3.5373451892
 30
0.0
  0
SPLINE
  5
4F4
100
AcDbEntity
  8
0
100
AcDbSpline
 62
7
  6
CONTINUOUS
 70
0
 71
3
 72
11
 73
7
 74
0
 42
0.0000001
 43
0.0000001
 44
0.0000000001
 40
0.0
 40
0.0
 40
0.0
 40
0.0
 40
0.2386822958
 40
0.4882531415
 40
0.7439585457
 40
1.0
 40
1.0
 40
1.0
 40
1.0
 10
7.188030371
 20
3.5373451892
 30
0.0
 10
7.1849695201
 20
3.5390883181
 30
0.0
 10
7.1784004023
 20
3.5421316463
 30
0.0
 10
7.1678269575
 20
3.5452287953
 30
0.0
 10
7.1566608947
 20
3.5467717857
 30
0.0
 10
7.1490821734
 20
3.5467891036
 30
0.0
 10
7.145311861
 20
3.5465392513
 30
0.0
  0
LINE
  5
4F5
100
AcDbEntity
  8
0
100
AcDbLine
 62
7
  6
CONTINUOUS
 10
7.1503870742
 20
3.5109370985
 11
7.145311861
 21
3.5465392513
  0
LINE
  5
4F6
100
AcDbEntity
  8
0
100
AcDbLine
 62
7
  6
CONTINUOUS
 10
7.129839282
 20
3.4501888193
 11
7.1299732254
 21
3.4505315338
  0
LINE
  5
4F7
100
AcDbEntity
  8
0
100
AcDbLine
 62
7
  6
CONTINUOUS
 10
7.1299732254
 20
3.4505315338
 11
7.1334013358
 21
3.4575675865
  0
SPLINE
  5
4F8
100
AcDbEntity
  8
0
100
AcDbSpline
 62
7
  6
CONTINUOUS
 70
0
 71
3
 72
14
 73
10
 74
0
 42
0.0000001
 43
0.0000001
 44
0.0000000001
 40
0.0
 40
0.0
 40
0.0
 40
0.0
 40
0.1821122596
 40
0.2964217293
 40
0.4232390251
 40
0.560066626
 40
0.7041696023
 40
0.851218758
 40
1.0
 40
1.0
 40
1.0
 40
1.0
 10
7.1334013358
 20
3.4575675865
 30
0.0
 10
7.1349565065
 20
3.4606469955
 30
0.0
 10
7.1374965116
 20
3.4656549217
 30
0.0
 10
7.1410525887
 20
3.4728410501
 30
0.0
 10
7.1440340169
 20
3.4793528994
 30
0.0
 10
7.1468948243
 20
3.486531347
 30
0.0
 10
7.14938646
 20
3.494259018
 30
0.0
 10
7.1509158588
 20
3.5024840673
 30
0.0
 10
7.1508134228
 20
3.5081511074
 30
0.0
 10
7.1503870742
 20
3.5109370985
 30
0.0
  0
SPLINE
  5
4F9
100
AcDbEntity
  8
0
100
AcDbSpline
 62
7
  6
CONTINUOUS
 70
0
 71
3
 72
15
 73
11
 74
0
 42
0.0000001
 43
0.0000001
 44
0.0000000001
 40
0.0
 40
0.0
 40
0.0
 40
0.0
 40
0.0126193953
 40
0.031088496
 40
0.0903806494
 40
0.1806008653
 40
0.2999090171
 40
0.4458447788
 40
0.614933001
 40
1.0
 40
1.0
 40
1.0
 40
1.0
 10
6.731903334
 20
3.7847314993
 30
0.0
 10
6.7318705026
 20
3.7847289137
 30
0.0
 10
6.7317949045
 20
3.7846863853
 30
0.0
 10
6.7316481846
 20
3.784500896
 30
0.0
 10
6.7314685997
 20
3.7840954439
 30
0.0
 10
6.7312527024
 20
3.7834292913
 30
0.0
 10
6.7310228998
 20
3.7825293276
 30
0.0
 10
6.7307865733
 20
3.7814208345
 30
0.0
 10
6.7304592501
 20
3.7796230515
 30
0.0
 10
6.7302492471
 20
3.7781917057
 30
0.0
 10
6.7301202463
 20
3.7771951039
 30
0.0
  0
SPLINE
  5
4FA
100
AcDbEntity
  8
0
100
AcDbSpline
 62
7
  6
CONTINUOUS
 70
0
 71
3
 72
12
 73
8
 74
0
 42
0.0000001
 43
0.0000001
 44
0.0000000001
 40
0.0
 40
0.0
 40
0.0
 40
0.0
 40
0.2673828052
 40
0.3983390639
 40
0.525010375
 40
0.7679678893
 40
1.0
 40
1.0
 40
1.0
 40
1.0
 10
7.0083802029
 20
3.4132096262
 30
0.0
 10
7.0094436355
 20
3.4132096262
 30
0.0
 10
7.0110410853
 20
3.4134975796
 30
0.0
 10
7.0129574951
 20
3.414341062
 30
0.0
 10
7.0146317989
 20
3.4154336527
 30
0.0
 10
7.0163185451
 20
3.4171783462
 30
0.0
 10
7.0172374949
 20
3.4188551651
 30
0.0
 10
7.0175771455
 20
3.4197132233
 30
0.0
  0
SPLINE
  5
4FB
100
AcDbEntity
  8
0
100
AcDbSpline
 62
7
  6
CONTINUOUS
 70
0
 71
3
 72
12
 73
8
 74
0
 42
0.0000001
 43
0.0000001
 44
0.0000000001
 40
0.0
 40
0.0
 40
0.0
 40
0.0
 40
0.2643135799
 40
0.3943631931
 40
0.520733086
 40
0.7648747519
 40
1.0
 40
1.0
 40
1.0
 40
1.0
 10
7.0083802029
 20
3.4148916695
 30
0.0
 10
7.0094447065
 20
3.4148916695
 30
0.0
 10
7.0110466893
 20
3.4151913178
 30
0.0
 10
7.0129605875
 20
3.4160632286
 30
0.0
 10
7.0146385876
 20
3.417196344
 30
0.0
 10
7.0163256088
 20
3.4190054568
 30
0.0
 10
7.0172385738
 20
3.420731583
 30
0.0
 10
7.0175771456
 20
3.4216159376
 30
0.0
  0
SPLINE
  5
4FC
100
AcDbEntity
  8
0
100
AcDbSpline
 62
7
  6
CONTINUOUS
 70
0
 71
3
 72
9
 73
5
 74
0
 42
0.0000001
 43
0.0000001
 44
0.0000000001
 40
0.0
 40
0.0
 40
0.0
 40
0.0
 40
0.5137191945
 40
1.0
 40
1.0
 40
1.0
 40
1.0
 10
7.0083802029
 20
3.4173714515
 30
0.0
 10
7.0101752388
 20
3.4173714515
 30
0.0
 10
7.0137411692
 20
3.4185171601
 30
0.0
 10
7.0160958513
 20
3.4212988079
 30
0.0
 10
7.0168996378
 20
3.4227958299
 30
0.0
  0
SPLINE
  5
4FD
100
AcDbEntity
  8
0
100
AcDbSpline
 62
7
  6
CONTINUOUS
 70
0
 71
3
 72
10
 73
6
 74
0
 42
0.0000001
 43
0.0000001
 44
0.0000000001
 40
0.0
 40
0.0
 40
0.0
 40
0.0
 40
0.258496354
 40
0.5134346862
 40
1.0
 40
1.0
 40
1.0
 40
1.0
 10
7.0083802029
 20
3.4206421752
 30
0.0
 10
7.0092963692
 20
3.4206421752
 30
0.0
 10
7.0111261302
 20
3.4209552103
 30
0.0
 10
7.0143353589
 20
3.4225513978
 30
0.0
 10
7.0161003311
 20
3.4246820022
 30
0.0
 10
7.0168996377
 20
3.4262100664
 30
0.0
  0
SPLINE
  5
4FE
100
AcDbEntity
  8
0
100
AcDbSpline
 62
7
  6
CONTINUOUS
 70
0
 71
3
 72
9
 73
5
 74
0
 42
0.0000001
 43
0.0000001
 44
0.0000000001
 40
0.0
 40
0.0
 40
0.0
 40
0.0
 40
0.5071626179
 40
1.0
 40
1.0
 40
1.0
 40
1.0
 10
7.0083802029
 20
3.4246973526
 30
0.0
 10
7.009910711
 20
3.4246973526
 30
0.0
 10
7.0129756463
 20
3.4255766135
 30
0.0
 10
7.0152046718
 20
3.4277616512
 30
0.0
 10
7.0160543214
 20
3.4289823438
 30
0.0
  0
SPLINE
  5
4FF
100
AcDbEntity
  8
0
100
AcDbSpline
 62
7
  6
CONTINUOUS
 70
0
 71
3
 72
9
 73
5
 74
0
 42
0.0000001
 43
0.0000001
 44
0.0000000001
 40
0.0
 40
0.0
 40
0.0
 40
0.0
 40
0.2521260486
 40
1.0
 40
1.0
 40
1.0
 40
1.0
 10
7.0160543214
 20
3.4289823438
 30
0.0
 10
7.0162151189
 20
3.4292133617
 30
0.0
 10
7.0168200858
 20
3.4301522373
 30
0.0
 10
7.0172942587
 20
3.4311738473
 30
0.0
 10
7.0175734706
 20
3.4319606914
 30
0.0
  0
SPLINE
  5
500
100
AcDbEntity
  8
0
100
AcDbSpline
 62
7
  6
CONTINUOUS
 70
0
 71
3
 72
10
 73
6
 74
0
 42
0.0000001
 43
0.0000001
 44
0.0000000001
 40
0.0
 40
0.0
 40
0.0
 40
0.0
 40
0.5031232063
 40
0.7530801936
 40
1.0
 40
1.0
 40
1.0
 40
1.0
 10
7.0083802029
 20
3.4295184451
 30
0.0
 10
7.0096410785
 20
3.4295184451
 30
0.0
 10
7.0115538524
 20
3.4299863286
 30
0.0
 10
7.013699531
 20
3.4312987488
 30
0.0
 10
7.0146221547
 20
3.4321488527
 30
0.0
 10
7.0150400709
 20
3.4326052141
 30
0.0
  0
SPLINE
  5
501
100
AcDbEntity
  8
0
100
AcDbSpline
 62
7
  6
CONTINUOUS
 70
0
 71
3
 72
9
 73
5
 74
0
 42
0.0000001
 43
0.0000001
 44
0.0000000001
 40
0.0
 40
0.0
 40
0.0
 40
0.0
 40
0.2529738907
 40
1.0
 40
1.0
 40
1.0
 40
1.0
 10
7.0150400709
 20
3.4326052141
 30
0.0
 10
7.0153270607
 20
3.4329186048
 30
0.0
 10
7.0163892905
 20
3.4342229524
 30
0.0
 10
7.0171656994
 20
3.4357503301
 30
0.0
 10
7.0175771456
 20
3.4369358074
 30
0.0
  0
SPLINE
  5
502
100
AcDbEntity
  8
0
100
AcDbSpline
 62
7
  6
CONTINUOUS
 70
0
 71
3
 72
9
 73
5
 74
0
 42
0.0000001
 43
0.0000001
 44
0.0000000001
 40
0.0
 40
0.0
 40
0.0
 40
0.0
 40
0.5013885469
 40
1.0
 40
1.0
 40
1.0
 40
1.0
 10
7.0083802029
 20
3.4350996621
 30
0.0
 10
7.0093678837
 20
3.4350996621
 30
0.0
 10
7.0113490691
 20
3.435485945
 30
0.0
 10
7.0130859148
 20
3.4364896491
 30
0.0
 10
7.013850059
 20
3.4371067558
 30
0.0
  0
SPLINE
  5
503
100
AcDbEntity
  8
0
100
AcDbSpline
 62
7
  6
CONTINUOUS
 70
0
 71
3
 72
9
 73
5
 74
0
 42
0.0000001
 43
0.0000001
 44
0.0000000001
 40
0.0
 40
0.0
 40
0.0
 40
0.0
 40
0.5026210839
 40
1.0
 40
1.0
 40
1.0
 40
1.0
 10
7.013850059
 20
3.4371067558
 30
0.0
 10
7.0147281849
 20
3.4378159116
 30
0.0
 10
7.0162369736
 20
3.4395353551
 30
0.0
 10
7.0172162823
 20
3.4415834781
 30
0.0
 10
7.0175771455
 20
3.4426405252
 30
0.0
  0
SPLINE
  5
504
100
AcDbEntity
  8
0
100
AcDbSpline
 62
7
  6
CONTINUOUS
 70
0
 71
3
 72
9
 73
5
 74
0
 42
0.0000001
 43
0.0000001
 44
0.0000000001
 40
0.0
 40
0.0
 40
0.0
 40
0.0
 40
0.748788697
 40
1.0
 40
1.0
 40
1.0
 40
1.0
 10
7.0083802029
 20
3.441423229
 30
0.0
 10
7.0094710953
 20
3.441423229
 30
0.0
 10
7.0109445771
 20
3.4417484455
 30
0.0
 10
7.0122515786
 20
3.4423927789
 30
0.0
 10
7.0125693788
 20
3.4425742923
 30
0.0
  0
SPLINE
  5
505
100
AcDbEntity
  8
0
100
AcDbSpline
 62
7
  6
CONTINUOUS
 70
0
 71
3
 72
9
 73
5
 74
0
 42
0.0000001
 43
0.0000001
 44
0.0000000001
 40
0.0
 40
0.0
 40
0.0
 40
0.0
 40
0.5012822567
 40
1.0
 40
1.0
 40
1.0
 40
1.0
 10
7.0125693788
 20
3.4425742923
 30
0.0
 10
7.0135216146
 20
3.4431181671
 30
0.0
 10
7.0152242044
 20
3.4445668065
 30
0.0
 10
7.016422316
 20
3.4464282179
 30
0.0
 10
7.0168996377
 20
3.4474092601
 30
0.0
  0
SPLINE
  5
506
100
AcDbEntity
  8
0
100
AcDbSpline
 62
7
  6
CONTINUOUS
 70
0
 71
3
 72
9
 73
5
 74
0
 42
0.0000001
 43
0.0000001
 44
0.0000000001
 40
0.0
 40
0.0
 40
0.0
 40
0.0
 40
0.2488439258
 40
1.0
 40
1.0
 40
1.0
 40
1.0
 10
7.0083802029
 20
3.4484718134
 30
0.0
 10
7.0086228721
 20
3.4484718134
 30
0.0
 10
7.0095977876
 20
3.4485202742
 30
0.0
 10
7.0105609005
 20
3.4487524097
 30
0.0
 10
7.0112466195
 20
3.4490100354
 30
0.0
  0
SPLINE
  5
507
100
AcDbEntity
  8
0
100
AcDbSpline
 62
7
  6
CONTINUOUS
 70
0
 71
3
 72
10
 73
6
 74
0
 42
0.0000001
 43
0.0000001
 44
0.0000000001
 40
0.0
 40
0.0
 40
0.0
 40
0.0
 40
0.2522107386
 40
0.5022383796
 40
1.0
 40
1.0
 40
1.0
 40
1.0
 10
7.0112466195
 20
3.4490100354
 30
0.0
 10
7.0117473763
 20
3.4491981705
 30
0.0
 10
7.0127133023
 20
3.4496642689
 30
0.0
 10
7.0144353652
 20
3.4509161057
 30
0.0
 10
7.0154807228
 20
3.4521464317
 30
0.0
 10
7.0160588063
 20
3.453029836
 30
0.0
  0
SPLINE
  5
508
100
AcDbEntity
  8
0
100
AcDbSpline
 62
7
  6
CONTINUOUS
 70
0
 71
3
 72
9
 73
5
 74
0
 42
0.0000001
 43
0.0000001
 44
0.0000000001
 40
0.0
 40
0.0
 40
0.0
 40
0.0
 40
0.2508748158
 40
1.0
 40
1.0
 40
1.0
 40
1.0
 10
7.0160588063
 20
3.453029836
 30
0.0
 10
7.0162199089
 20
3.4532760266
 30
0.0
 10
7.0168276439
 20
3.4542796815
 30
0.0
 10
7.0172994084
 20
3.4553639029
 30
0.0
 10
7.017577148
 20
3.4561973942
 30
0.0
  0
LINE
  5
509
100
AcDbEntity
  8
0
100
AcDbLine
 62
7
  6
CONTINUOUS
 10
7.0083802029
 20
3.4562260955
 11
7.009853586
 21
3.4563709252
  0
SPLINE
  5
50A
100
AcDbEntity
  8
0
100
AcDbSpline
 62
7
  6
CONTINUOUS
 70
0
 71
3
 72
9
 73
5
 74
0
 42
0.0000001
 43
0.0000001
 44
0.0000000001
 40
0.0
 40
0.0
 40
0.0
 40
0.0
 40
0.5017453865
 40
1.0
 40
1.0
 40
1.0
 40
1.0
 10
7.009853586
 20
3.4563709252
 30
0.0
 10
7.0108592149
 20
3.4565664526
 30
0.0
 10
7.0128071016
 20
3.4573326869
 30
0.0
 10
7.0143712954
 20
3.4586997713
 30
0.0
 10
7.0150400707
 20
3.459466392
 30
0.0
  0
SPLINE
  5
50B
100
AcDbEntity
  8
0
100
AcDbSpline
 62
7
  6
CONTINUOUS
 70
0
 71
3
 72
9
 73
5
 74
0
 42
0.0000001
 43
0.0000001
 44
0.0000000001
 40
0.0
 40
0.0
 40
0.0
 40
0.0
 40
0.2512823507
 40
1.0
 40
1.0
 40
1.0
 40
1.0
 10
7.0150400707
 20
3.459466392
 30
0.0
 10
7.0153278392
 20
3.4597962625
 30
0.0
 10
7.0163966968
 20
3.4611750875
 30
0.0
 10
7.0171677017
 20
3.4627739941
 30
0.0
 10
7.0175771455
 20
3.4640123775
 30
0.0
  0
SPLINE
  5
50C
100
AcDbEntity
  8
0
100
AcDbSpline
 62
7
  6
CONTINUOUS
 70
0
 71
3
 72
9
 73
5
 74
0
 42
0.0000001
 43
0.0000001
 44
0.0000000001
 40
0.0
 40
0.0
 40
0.0
 40
0.0
 40
0.4993577878
 40
1.0
 40
1.0
 40
1.0
 40
1.0
 10
7.0083802029
 20
3.4646697153
 30
0.0
 10
7.0093683347
 20
3.4646697153
 30
0.0
 10
7.0113589395
 20
3.4650739733
 30
0.0
 10
7.0130865843
 20
3.4661134549
 30
0.0
 10
7.0138461752
 20
3.4667494231
 30
0.0
  0
SPLINE
  5
50D
100
AcDbEntity
  8
0
100
AcDbSpline
 62
7
  6
CONTINUOUS
 70
0
 71
3
 72
9
 73
5
 74
0
 42
0.0000001
 43
0.0000001
 44
0.0000000001
 40
0.0
 40
0.0
 40
0.0
 40
0.0
 40
0.2504984946
 40
1.0
 40
1.0
 40
1.0
 40
1.0
 10
7.0138461752
 20
3.4667494231
 30
0.0
 10
7.0141717022
 20
3.4670219709
 30
0.0
 10
7.0154008611
 20
3.4681935852
 30
0.0
 10
7.0163493328
 20
3.4696424978
 30
0.0
 10
7.0168953854
 20
3.4707894418
 30
0.0
  0
SPLINE
  5
50E
100
AcDbEntity
  8
0
100
AcDbSpline
 62
7
  6
CONTINUOUS
 70
0
 71
3
 72
9
 73
5
 74
0
 42
0.0000001
 43
0.0000001
 44
0.0000000001
 40
0.0
 40
0.0
 40
0.0
 40
0.0
 40
0.2490841758
 40
1.0
 40
1.0
 40
1.0
 40
1.0
 10
7.0083802029
 20
3.4737648615
 30
0.0
 10
7.0087440152
 20
3.4737648615
 30
0.0
 10
7.0102037173
 20
3.4738751891
 30
0.0
 10
7.0116231343
 20
3.474391438
 30
0.0
 10
7.0125693789
 20
3.4749460226
 30
0.0
  0
SPLINE
  5
50F
100
AcDbEntity
  8
0
100
AcDbSpline
 62
7
  6
CONTINUOUS
 70
0
 71
3
 72
9
 73
5
 74
0
 42
0.0000001
 43
0.0000001
 44
0.0000000001
 40
0.0
 40
0.0
 40
0.0
 40
0.0
 40
0.4994110396
 40
1.0
 40
1.0
 40
1.0
 40
1.0
 10
7.0125693789
 20
3.4749460226
 30
0.0
 10
7.0135256268
 20
3.47550647
 30
0.0
 10
7.01523238
 20
3.4770007618
 30
0.0
 10
7.0164236554
 20
3.4789035447
 30
0.0
 10
7.0168996378
 20
3.4799074143
 30
0.0
  0
SPLINE
  5
510
100
AcDbEntity
  8
0
100
AcDbSpline
 62
7
  6
CONTINUOUS
 70
0
 71
3
 72
9
 73
5
 74
0
 42
0.0000001
 43
0.0000001
 44
0.0000000001
 40
0.0
 40
0.0
 40
0.0
 40
0.0
 40
0.2487047268
 40
1.0
 40
1.0
 40
1.0
 40
1.0
 10
7.0083802029
 20
3.4835012727
 30
0.0
 10
7.0086228832
 20
3.4835012727
 30
0.0
 10
7.0095983909
 20
3.4835504784
 30
0.0
 10
7.0105616501
 20
3.4837863124
 30
0.0
 10
7.0112466468
 20
3.4840474832
 30
0.0
  0
SPLINE
  5
511
100
AcDbEntity
  8
0
100
AcDbSpline
 62
7
  6
CONTINUOUS
 70
0
 71
3
 72
11
 73
7
 74
0
 42
0.0000001
 43
0.0000001
 44
0.0000000001
 40
0.0
 40
0.0
 40
0.0
 40
0.0
 40
0.2508331737
 40
0.5002621109
 40
0.7502855789
 40
1.0
 40
1.0
 40
1.0
 40
1.0
 10
7.0112466468
 20
3.4840474832
 30
0.0
 10
7.0118823992
 20
3.4842898785
 30
0.0
 10
7.0130982971
 20
3.4849244208
 30
0.0
 10
7.0146582032
 20
3.4862530978
 30
0.0
 10
7.0159378468
 20
3.4878444575
 30
0.0
 10
7.0166093293
 20
3.489029024
 30
0.0
 10
7.0168996377
 20
3.4896410184
 30
0.0
  0
SPLINE
  5
512
100
AcDbEntity
  8
0
100
AcDbSpline
 62
7
  6
CONTINUOUS
 70
0
 71
3
 72
11
 73
7
 74
0
 42
0.0000001
 43
0.0000001
 44
0.0000000001
 40
0.0
 40
0.0
 40
0.0
 40
0.0
 40
0.2497827473
 40
0.500488656
 40
0.7501980797
 40
1.0
 40
1.0
 40
1.0
 40
1.0
 10
7.0083802029
 20
3.4938473684
 30
0.0
 10
7.0092988501
 20
3.4938473684
 30
0.0
 10
7.0111500206
 20
3.4941975864
 30
0.0
 10
7.0136002118
 20
3.4955530955
 30
0.0
 10
7.0155480737
 20
3.4975519816
 30
0.0
 10
7.0165048558
 20
3.4991379069
 30
0.0
 10
7.0168996377
 20
3.4999674788
 30
0.0
  0
SPLINE
  5
513
100
AcDbEntity
  8
0
100
AcDbSpline
 62
7
  6
CONTINUOUS
 70
0
 71
3
 72
11
 73
7
 74
0
 42
0.0000001
 43
0.0000001
 44
0.0000000001
 40
0.0
 40
0.0
 40
0.0
 40
0.0
 40
0.2502909713
 40
0.5012100649
 40
0.7507271124
 40
1.0
 40
1.0
 40
1.0
 40
1.0
 10
7.0083802029
 20
3.5047747906
 30
0.0
 10
7.0092986795
 20
3.5047747906
 30
0.0
 10
7.0111483369
 20
3.5051224173
 30
0.0
 10
7.0135983717
 20
3.5064689441
 30
0.0
 10
7.0155469575
 20
3.5084558441
 30
0.0
 10
7.0165046499
 20
3.5100334243
 30
0.0
 10
7.0168996378
 20
3.5108584911
 30
0.0
  0
SPLINE
  5
514
100
AcDbEntity
  8
0
100
AcDbSpline
 62
7
  6
CONTINUOUS
 70
0
 71
3
 72
11
 73
7
 74
0
 42
0.0000001
 43
0.0000001
 44
0.0000000001
 40
0.0
 40
0.0
 40
0.0
 40
0.0
 40
0.2510338413
 40
0.5022656528
 40
0.7515020758
 40
1.0
 40
1.0
 40
1.0
 40
1.0
 10
7.0083802029
 20
3.5162535881
 30
0.0
 10
7.0092984326
 20
3.5162535881
 30
0.0
 10
7.0111458937
 20
3.516597453
 30
0.0
 10
7.013595678
 20
3.5179308934
 30
0.0
 10
7.0155453095
 20
3.5199003
 30
0.0
 10
7.0165043447
 20
3.5214657041
 30
0.0
 10
7.0168996377
 20
3.5222842031
 30
0.0
  0
SPLINE
  5
515
100
AcDbEntity
  8
0
100
AcDbSpline
 62
7
  6
CONTINUOUS
 70
0
 71
3
 72
9
 73
5
 74
0
 42
0.0000001
 43
0.0000001
 44
0.0000000001
 40
0.0
 40
0.0
 40
0.0
 40
0.0
 40
0.2510317958
 40
1.0
 40
1.0
 40
1.0
 40
1.0
 10
7.0168996377
 20
3.5222842031
 30
0.0
 10
7.0170350706
 20
3.5225646323
 30
0.0
 10
7.0175361544
 20
3.5237000764
 30
0.0
 10
7.0178875542
 20
3.5249000995
 30
0.0
 10
7.0180691741
 20
3.5258113166
 30
0.0
  0
LINE
  5
516
100
AcDbEntity
  8
0
100
AcDbLine
 62
7
  6
CONTINUOUS
 10
7.0180691741
 20
3.5258113166
 11
7.0083802029
 21
3.525981244
  0
SPLINE
  5
517
100
AcDbEntity
  8
0
100
AcDbSpline
 62
7
  6
CONTINUOUS
 70
0
 71
3
 72
12
 73
8
 74
0
 42
0.0000001
 43
0.0000001
 44
0.0000000001
 40
0.0
 40
0.0
 40
0.0
 40
0.0
 40
0.2528920645
 40
0.3793269756
 40
0.5047547082
 40
0.7535457039
 40
1.0
 40
1.0
 40
1.0
 40
1.0
 10
7.0083802029
 20
3.52825913
 30
0.0
 10
7.0096092186
 20
3.52825913
 30
0.0
 10
7.0114761961
 20
3.5287176587
 30
0.0
 10
7.0135796725
 20
3.5299981163
 30
0.0
 10
7.015386027
 20
3.5316489263
 30
0.0
 10
7.0170738588
 20
3.5342059464
 30
0.0
 10
7.0178287427
 20
3.5365196894
 30
0.0
 10
7.0180665107
 20
3.5376935811
 30
0.0
  0
SPLINE
  5
518
100
AcDbEntity
  8
0
100
AcDbSpline
 62
7
  6
CONTINUOUS
 70
0
 71
3
 72
13
 73
9
 74
0
 42
0.0000001
 43
0.0000001
 44
0.0000000001
 40
0.0
 40
0.0
 40
0.0
 40
0.0
 40
0.0490034023
 40
0.119530553
 40
0.2126549333
 40
0.3290906991
 40
0.6308567058
 40
1.0
 40
1.0
 40
1.0
 40
1.0
 10
7.0180665107
 20
3.5376935811
 30
0.0
 10
7.0179167307
 20
3.537746744
 30
0.0
 10
7.0175390569
 20
3.5378397709
 30
0.0
 10
7.0168592028
 20
3.5379556288
 30
0.0
 10
7.015957028
 20
3.5380653052
 30
0.0
 10
7.0143050379
 20
3.5382124573
 30
0.0
 10
7.0117535049
 20
3.5383367969
 30
0.0
 10
7.0095774627
 20
3.5383718424
 30
0.0
 10
7.0083802029
 20
3.5383718424
 30
0.0
  0
SPLINE
  5
519
100
AcDbEntity
  8
0
100
AcDbSpline
 62
7
  6
CONTINUOUS
 70
0
 71
3
 72
12
 73
8
 74
0
 42
0.0000001
 43
0.0000001
 44
0.0000000001
 40
0.0
 40
0.0
 40
0.0
 40
0.0
 40
0.2545268588
 40
0.3813821922
 40
0.5068936394
 40
0.7549937973
 40
1.0
 40
1.0
 40
1.0
 40
1.0
 10
7.0083802029
 20
3.5407380334
 30
0.0
 10
7.0096094282
 20
3.5407380334
 30
0.0
 10
7.0114746876
 20
3.541188841
 30
0.0
 10
7.0135819134
 20
3.5424533988
 30
0.0
 10
7.0153874953
 20
3.5440807983
 30
0.0
 10
7.0170762391
 20
3.5466027177
 30
0.0
 10
7.0178320027
 20
3.5488899745
 30
0.0
 10
7.0180691741
 20
3.5500492072
 30
0.0
  0
SPLINE
  5
51A
100
AcDbEntity
  8
0
100
AcDbSpline
 62
7
  6
CONTINUOUS
 70
0
 71
3
 72
13
 73
9
 74
0
 42
0.0000001
 43
0.0000001
 44
0.0000000001
 40
0.0
 40
0.0
 40
0.0
 40
0.0
 40
0.0517656165
 40
0.1237549406
 40
0.2174624922
 40
0.3338134926
 40
0.6338355408
 40
1.0
 40
1.0
 40
1.0
 40
1.0
 10
7.0180691741
 20
3.5500492072
 30
0.0
 10
7.0179253406
 20
3.5501387986
 30
0.0
 10
7.0175514415
 20
3.5503025287
 30
0.0
 10
7.0168690448
 20
3.5505061049
 30
0.0
 10
7.0159651307
 20
3.5506989143
 30
0.0
 10
7.0143148309
 20
3.5509561476
 30
0.0
 10
7.0117597906
 20
3.551174432
 30
0.0
 10
7.0095788378
 20
3.5512358023
 30
0.0
 10
7.0083802029
 20
3.5512358023
 30
0.0
  0
SPLINE
  5
51B
100
AcDbEntity
  8
0
100
AcDbSpline
 62
7
  6
CONTINUOUS
 70
0
 71
3
 72
12
 73
8
 74
0
 42
0.0000001
 43
0.0000001
 44
0.0000000001
 40
0.0
 40
0.0
 40
0.0
 40
0.0
 40
0.2564897432
 40
0.3838530936
 40
0.509469588
 40
0.756742537
 40
1.0
 40
1.0
 40
1.0
 40
1.0
 10
7.0083802029
 20
3.5536765711
 30
0.0
 10
7.0096083696
 20
3.5536765711
 30
0.0
 10
7.011469572
 20
3.5541172606
 30
0.0
 10
7.0135796027
 20
3.5553604071
 30
0.0
 10
7.0153833754
 20
3.5569570254
 30
0.0
 10
7.0170734414
 20
3.559433035
 30
0.0
 10
7.0178317414
 20
3.5616856488
 30
0.0
 10
7.0180691741
 20
3.5628259988
 30
0.0
  0
SPLINE
  5
51C
100
AcDbEntity
  8
0
100
AcDbSpline
 62
7
  6
CONTINUOUS
 70
0
 71
3
 72
13
 73
9
 74
0
 42
0.0000001
 43
0.0000001
 44
0.0000000001
 40
0.0
 40
0.0
 40
0.0
 40
0.0
 40
0.0557340447
 40
0.1299656793
 40
0.2246424043
 40
0.3409512343
 40
0.638413597
 40
1.0
 40
1.0
 40
1.0
 40
1.0
 10
7.0180691741
 20
3.5628259988
 30
0.0
 10
7.0179309327
 20
3.562948692
 30
0.0
 10
7.0175630247
 20
3.5631818275
 30
0.0
 10
7.0168766163
 20
3.5634742919
 30
0.0
 10
7.0159703155
 20
3.5637505082
 30
0.0
 10
7.0143231983
 20
3.5641166913
 30
0.0
 10
7.0117655208
 20
3.5644291399
 30
0.0
 10
7.0095793648
 20
3.5645167447
 30
0.0
 10
7.0083802029
 20
3.5645167447
 30
0.0
  0
SPLINE
  5
51D
100
AcDbEntity
  8
0
100
AcDbSpline
 62
7
  6
CONTINUOUS
 70
0
 71
3
 72
12
 73
8
 74
0
 42
0.0000001
 43
0.0000001
 44
0.0000000001
 40
0.0
 40
0.0
 40
0.0
 40
0.0
 40
0.258789248
 40
0.3867527697
 40
0.5124978328
 40
0.7588047086
 40
1.0
 40
1.0
 40
1.0
 40
1.0
 10
7.0083802029
 20
3.5670324476
 30
0.0
 10
7.0096071677
 20
3.5670324476
 30
0.0
 10
7.0114637056
 20
3.5674615923
 30
0.0
 10
7.0135769008
 20
3.5686799478
 30
0.0
 10
7.0153784978
 20
3.5702410271
 30
0.0
 10
7.017070044
 20
3.5726638776
 30
0.0
 10
7.0178314235
 20
3.5748764904
 30
0.0
 10
7.0180691741
 20
3.5759950514
 30
0.0
  0
SPLINE
  5
51E
100
AcDbEntity
  8
0
100
AcDbSpline
 62
7
  6
CONTINUOUS
 70
0
 71
3
 72
13
 73
9
 74
0
 42
0.0000001
 43
0.0000001
 44
0.0000000001
 40
0.0
 40
0.0
 40
0.0
 40
0.0
 40
0.0603955501
 40
0.1374026627
 40
0.233342294
 40
0.3496668466
 40
0.6440495968
 40
1.0
 40
1.0
 40
1.0
 40
1.0
 10
7.0180691741
 20
3.5759950514
 30
0.0
 10
7.0179355681
 20
3.5761486637
 30
0.0
 10
7.0175753635
 20
3.5764484413
 30
0.0
 10
7.0168854637
 20
3.576830894
 30
0.0
 10
7.0159767751
 20
3.5771906126
 30
0.0
 10
7.0143339734
 20
3.5776644856
 30
0.0
 10
7.011773216
 20
3.578071489
 30
0.0
 10
7.0095800687
 20
3.5781853138
 30
0.0
 10
7.0083802029
 20
3.5781853138
 30
0.0
  0
SPLINE
  5
51F
100
AcDbEntity
  8
0
100
AcDbSpline
 62
7
  6
CONTINUOUS
 70
0
 71
3
 72
13
 73
9
 74
0
 42
0.0000001
 43
0.0000001
 44
0.0000000001
 40
0.0
 40
0.0
 40
0.0
 40
0.0
 40
0.131254387
 40
0.262448164
 40
0.3909312271
 40
0.5166585168
 40
0.7615222227
 40
1.0
 40
1.0
 40
1.0
 40
1.0
 10
7.0083802029
 20
3.5807690555
 30
0.0
 10
7.0089963885
 20
3.5807690555
 30
0.0
 10
7.0102314549
 20
3.5809115776
 30
0.0
 10
7.0119868318
 20
3.5814837817
 30
0.0
 10
7.0135747911
 20
3.5823759023
 30
0.0
 10
7.0153722966
 20
3.5838962081
 30
0.0
 10
7.0170661669
 20
3.5862590385
 30
0.0
 10
7.0178310408
 20
3.5884263328
 30
0.0
 10
7.0180691741
 20
3.5895202695
 30
0.0
  0
SPLINE
  5
520
100
AcDbEntity
  8
0
100
AcDbSpline
 62
7
  6
CONTINUOUS
 70
0
 71
3
 72
13
 73
9
 74
0
 42
0.0000001
 43
0.0000001
 44
0.0000000001
 40
0.0
 40
0.0
 40
0.0
 40
0.0
 40
0.0654134888
 40
0.1455633229
 40
0.2430100676
 40
0.3594350087
 40
0.6504256315
 40
1.0
 40
1.0
 40
1.0
 40
1.0
 10
7.0180691741
 20
3.5895202695
 30
0.0
 10
7.01793912
 20
3.58970349
 30
0.0
 10
7.0175869697
 20
3.5900667125
 30
0.0
 10
7.0168948759
 20
3.590539288
 30
0.0
 10
7.0159840917
 20
3.5909822719
 30
0.0
 10
7.0143467584
 20
3.5915621166
 30
0.0
 10
7.0117827985
 20
3.5920640009
 30
0.0
 10
7.0095809415
 20
3.592204045
 30
0.0
 10
7.0083802029
 20
3.592204045
 30
0.0
  0
SPLINE
  5
521
100
AcDbEntity
  8
0
100
AcDbSpline
 62
7
  6
CONTINUOUS
 70
0
 71
3
 72
13
 73
9
 74
0
 42
0.0000001
 43
0.0000001
 44
0.0000000001
 40
0.0
 40
0.0
 40
0.0
 40
0.0
 40
0.1328797479
 40
0.2654022222
 40
0.3946883093
 40
0.5206074862
 40
0.7642380632
 40
1.0
 40
1.0
 40
1.0
 40
1.0
 10
7.0083802029
 20
3.5948487436
 30
0.0
 10
7.0089961914
 20
3.5948487436
 30
0.0
 10
7.010229352
 20
3.5949870714
 30
0.0
 10
7.0119835458
 20
3.595542891
 30
0.0
 10
7.0135712575
 20
3.5964100004
 30
0.0
 10
7.0153658568
 20
3.5978856351
 30
0.0
 10
7.0170613215
 20
3.6001810932
 30
0.0
 10
7.0178305837
 20
3.6022980242
 30
0.0
 10
7.0180691741
 20
3.6033645813
 30
0.0
  0
SPLINE
  5
522
100
AcDbEntity
  8
0
100
AcDbSpline
 62
7
  6
CONTINUOUS
 70
0
 71
3
 72
13
 73
9
 74
0
 42
0.0000001
 43
0.0000001
 44
0.0000000001
 40
0.0
 40
0.0
 40
0.0
 40
0.0
 40
0.1533009388
 40
0.2524984691
 40
0.3691876619
 40
0.6568105874
 40
0.8250861188
 40
1.0
 40
1.0
 40
1.0
 40
1.0
 10
7.0180691741
 20
3.6033645813
 30
0.0
 10
7.0177924479
 20
3.6038250541
 30
0.0
 10
7.0171123293
 20
3.604442622
 30
0.0
 10
7.0159929849
 20
3.6050869592
 30
0.0
 10
7.0143603847
 20
3.6057717011
 30
0.0
 10
7.012392985
 20
3.6062302435
 30
0.0
 10
7.0101965434
 20
3.6064851956
 30
0.0
 10
7.0089931699
 20
3.6065345139
 30
0.0
 10
7.0083802029
 20
3.6065345139
 30
0.0
  0
SPLINE
  5
523
100
AcDbEntity
  8
0
100
AcDbSpline
 62
7
  6
CONTINUOUS
 70
0
 71
3
 72
13
 73
9
 74
0
 42
0.0000001
 43
0.0000001
 44
0.0000000001
 40
0.0
 40
0.0
 40
0.0
 40
0.0
 40
0.1346899038
 40
0.2686972441
 40
0.3988918406
 40
0.525040956
 40
0.7673069272
 40
1.0
 40
1.0
 40
1.0
 40
1.0
 10
7.0083802029
 20
3.6092410215
 30
0.0
 10
7.0089954218
 20
3.6092410215
 30
0.0
 10
7.0102254248
 20
3.6093745195
 30
0.0
 10
7.0119768683
 20
3.6099114699
 30
0.0
 10
7.0135631953
 20
3.6107497438
 30
0.0
 10
7.0153537033
 20
3.6121741732
 30
0.0
 10
7.0170509268
 20
3.6143922368
 30
0.0
 10
7.0178265569
 20
3.6164514007
 30
0.0
 10
7.0180665107
 20
3.6174868254
 30
0.0
  0
SPLINE
  5
524
100
AcDbEntity
  8
0
100
AcDbSpline
 62
7
  6
CONTINUOUS
 70
0
 71
3
 72
13
 73
9
 74
0
 42
0.0000001
 43
0.0000001
 44
0.0000000001
 40
0.0
 40
0.0
 40
0.0
 40
0.0
 40
0.1618624873
 40
0.2629127641
 40
0.3799111575
 40
0.6639504589
 40
0.8288947456
 40
1.0
 40
1.0
 40
1.0
 40
1.0
 10
7.0180665107
 20
3.6174868254
 30
0.0
 10
7.0177972953
 20
3.6179999771
 30
0.0
 10
7.0171293437
 20
3.6187110678
 30
0.0
 10
7.015995902
 20
3.6194618355
 30
0.0
 10
7.0143717555
 20
3.620246623
 30
0.0
 10
7.0123980693
 20
3.6207787177
 30
0.0
 10
7.0101967709
 20
3.6210723877
 30
0.0
 10
7.0089927769
 20
3.6211292279
 30
0.0
 10
7.0083802029
 20
3.6211292279
 30
0.0
  0
SPLINE
  5
525
100
AcDbEntity
  8
0
100
AcDbSpline
 62
7
  6
CONTINUOUS
 70
0
 71
3
 72
13
 73
9
 74
0
 42
0.0000001
 43
0.0000001
 44
0.0000000001
 40
0.0
 40
0.0
 40
0.0
 40
0.0
 40
0.1367136989
 40
0.2723888661
 40
0.40360728
 40
0.5300208453
 40
0.7707636664
 40
1.0
 40
1.0
 40
1.0
 40
1.0
 10
7.0083802029
 20
3.6238821603
 30
0.0
 10
7.008995759
 20
3.6238821603
 30
0.0
 10
7.0102247224
 20
3.6240109753
 30
0.0
 10
7.0119761507
 20
3.6245294448
 30
0.0
 10
7.013563065
 20
3.6253392718
 30
0.0
 10
7.0153503405
 20
3.6267126748
 30
0.0
 10
7.017048885
 20
3.6288526776
 30
0.0
 10
7.0178293929
 20
3.6308540279
 30
0.0
 10
7.0180691741
 20
3.6318579305
 30
0.0
  0
SPLINE
  5
526
100
AcDbEntity
  8
0
100
AcDbSpline
 62
7
  6
CONTINUOUS
 70
0
 71
3
 72
13
 73
9
 74
0
 42
0.0000001
 43
0.0000001
 44
0.0000000001
 40
0.0
 40
0.0
 40
0.0
 40
0.0
 40
0.1700960785
 40
0.2729965953
 40
0.3903429781
 40
0.6709203672
 40
0.8326170418
 40
1.0
 40
1.0
 40
1.0
 40
1.0
 10
7.0180691741
 20
3.6318579305
 30
0.0
 10
7.0178073381
 20
3.6324235047
 30
0.0
 10
7.0171529587
 20
3.6332251852
 30
0.0
 10
7.0160081593
 20
3.634084006
 30
0.0
 10
7.0143924117
 20
3.6349680686
 30
0.0
 10
7.0124104705
 20
3.635575433
 30
0.0
 10
7.0102003817
 20
3.6359083236
 30
0.0
 10
7.0089935051
 20
3.6359728029
 30
0.0
 10
7.0083802029
 20
3.6359728029
 30
0.0
  0
SPLINE
  5
527
100
AcDbEntity
  8
0
100
AcDbSpline
 62
7
  6
CONTINUOUS
 70
0
 71
3
 72
13
 73
9
 74
0
 42
0.0000001
 43
0.0000001
 44
0.0000000001
 40
0.0
 40
0.0
 40
0.0
 40
0.0
 40
0.1389291076
 40
0.2764374646
 40
0.4087964897
 40
0.5355228541
 40
0.7746126872
 40
1.0
 40
1.0
 40
1.0
 40
1.0
 10
7.0083802029
 20
3.6387563102
 30
0.0
 10
7.0089955286
 20
3.6387563102
 30
0.0
 10
7.0102222444
 20
3.6388798492
 30
0.0
 10
7.011972099
 20
3.6393774997
 30
0.0
 10
7.0135584306
 20
3.6401552447
 30
0.0
 10
7.0153411812
 20
3.6414714621
 30
0.0
 10
7.0170410017
 20
3.6435236428
 30
0.0
 10
7.0178286231
 20
3.6454600314
 30
0.0
 10
7.0180691741
 20
3.6464288696
 30
0.0
  0
SPLINE
  5
528
100
AcDbEntity
  8
0
100
AcDbSpline
 62
7
  6
CONTINUOUS
 70
0
 71
3
 72
13
 73
9
 74
0
 42
0.0000001
 43
0.0000001
 44
0.0000000001
 40
0.0
 40
0.0
 40
0.0
 40
0.0
 40
0.1780982917
 40
0.282907483
 40
0.4006940677
 40
0.6779305919
 40
0.8363724699
 40
1.0
 40
1.0
 40
1.0
 40
1.0
 10
7.0180691741
 20
3.6464288696
 30
0.0
 10
7.0178123014
 20
3.6470452362
 30
0.0
 10
7.0171700079
 20
3.6479320113
 30
0.0
 10
7.0160154511
 20
3.6488966116
 30
0.0
 10
7.01440891
 20
3.6498753294
 30
0.0
 10
7.0124204183
 20
3.6505569185
 30
0.0
 10
7.0102025482
 20
3.6509280375
 30
0.0
 10
7.008993698
 20
3.6509999347
 30
0.0
 10
7.0083802029
 20
3.6509999347
 30
0.0
  0
SPLINE
  5
529
100
AcDbEntity
  8
0
100
AcDbSpline
 62
7
  6
CONTINUOUS
 70
0
 71
3
 72
13
 73
9
 74
0
 42
0.0000001
 43
0.0000001
 44
0.0000000001
 40
0.0
 40
0.0
 40
0.0
 40
0.0
 40
0.1413468496
 40
0.2808650192
 40
0.4144885796
 40
0.5415793307
 40
0.7788804785
 40
1.0
 40
1.0
 40
1.0
 40
1.0
 10
7.0083802029
 20
3.6538146013
 30
0.0
 10
7.0089952919
 20
3.6538146013
 30
0.0
 10
7.0102196923
 20
3.6539325471
 30
0.0
 10
7.0119678564
 20
3.6544080551
 30
0.0
 10
7.0135534635
 20
3.6551515664
 30
0.0
 10
7.0153310401
 20
3.6564068465
 30
0.0
 10
7.0170317637
 20
3.6583646786
 30
0.0
 10
7.0178277043
 20
3.6602314806
 30
0.0
 10
7.0180691741
 20
3.6611629199
 30
0.0
  0
SPLINE
  5
52A
100
AcDbEntity
  8
0
100
AcDbSpline
 62
7
  6
CONTINUOUS
 70
0
 71
3
 72
12
 73
8
 74
0
 42
0.0000001
 43
0.0000001
 44
0.0000000001
 40
0.0
 40
0.0
 40
0.0
 40
0.0
 40
0.1858203229
 40
0.4102745408
 40
0.6845452177
 40
0.8399312873
 40
1.0
 40
1.0
 40
1.0
 40
1.0
 10
7.0180691741
 20
3.6611629199
 30
0.0
 10
7.0178161737
 20
3.6618289172
 30
0.0
 10
7.0169316026
 20
3.6631821259
 30
0.0
 10
7.0148066785
 20
3.664787914
 30
0.0
 10
7.0124317007
 20
3.6656897894
 30
0.0
 10
7.0102046851
 20
3.6660984586
 30
0.0
 10
7.008993905
 20
3.6661776487
 30
0.0
 10
7.0083802029
 20
3.6661776487
 30
0.0
  0
SPLINE
  5
52B
100
AcDbEntity
  8
0
100
AcDbSpline
 62
7
  6
CONTINUOUS
 70
0
 71
3
 72
14
 73
10
 74
0
 42
0.0000001
 43
0.0000001
 44
0.0000000001
 40
0.0
 40
0.0
 40
0.0
 40
0.0
 40
0.1438600498
 40
0.285461384
 40
0.4203776331
 40
0.547795387
 40
0.6687478309
 40
0.7837505085
 40
1.0
 40
1.0
 40
1.0
 40
1.0
 10
7.0083802029
 20
3.6690157599
 30
0.0
 10
7.0089950517
 20
3.6690157599
 30
0.0
 10
7.0102170746
 20
3.6691278027
 30
0.0
 10
7.0119635273
 20
3.6695799946
 30
0.0
 10
7.013547968
 20
3.6702870144
 30
0.0
 10
7.0149138128
 20
3.6712051713
 30
0.0
 10
7.0160494376
 20
3.6722750057
 30
0.0
 10
7.0172333285
 20
3.6738096837
 30
0.0
 10
7.0178266028
 20
3.6751278597
 30
0.0
 10
7.0180691741
 20
3.6760196965
 30
0.0
  0
SPLINE
  5
52C
100
AcDbEntity
  8
0
100
AcDbSpline
 62
7
  6
CONTINUOUS
 70
0
 71
3
 72
12
 73
8
 74
0
 42
0.0000001
 43
0.0000001
 44
0.0000000001
 40
0.0
 40
0.0
 40
0.0
 40
0.0
 40
0.192964326
 40
0.4197787338
 40
0.6911153181
 40
0.8434690234
 40
1.0
 40
1.0
 40
1.0
 40
1.0
 10
7.0180691741
 20
3.6760196965
 30
0.0
 10
7.0178192329
 20
3.6767340471
 30
0.0
 10
7.0169549719
 20
3.6781848324
 30
0.0
 10
7.0148342876
 20
3.6799405433
 30
0.0
 10
7.0124426754
 20
3.6809322791
 30
0.0
 10
7.0102070994
 20
3.6813780725
 30
0.0
 10
7.0089941238
 20
3.681464344
 30
0.0
 10
7.0083802029
 20
3.681464344
 30
0.0
  0
SPLINE
  5
52D
100
AcDbEntity
  8
0
100
AcDbSpline
 62
7
  6
CONTINUOUS
 70
0
 71
3
 72
13
 73
9
 74
0
 42
0.0000001
 43
0.0000001
 44
0.0000000001
 40
0.0
 40
0.0
 40
0.0
 40
0.0
 40
0.1467911737
 40
0.2908687141
 40
0.4274137923
 40
0.5554146107
 40
0.7887569506
 40
1.0
 40
1.0
 40
1.0
 40
1.0
 10
7.0083802029
 20
3.6843181207
 30
0.0
 10
7.0089948105
 20
3.6843181207
 30
0.0
 10
7.0102144773
 20
3.6844240181
 30
0.0
 10
7.0119589598
 20
3.6848516112
 30
0.0
 10
7.0135426517
 20
3.6855206822
 30
0.0
 10
7.0153077349
 20
3.686643896
 30
0.0
 10
7.0170082753
 20
3.6883942285
 30
0.0
 10
7.0178252746
 20
3.6901083071
 30
0.0
 10
7.0180691741
 20
3.690958478
 30
0.0
  0
SPLINE
  5
52E
100
AcDbEntity
  8
0
100
AcDbSpline
 62
7
  6
CONTINUOUS
 70
0
 71
3
 72
13
 73
9
 74
0
 42
0.0000001
 43
0.0000001
 44
0.0000000001
 40
0.0
 40
0.0
 40
0.0
 40
0.0
 40
0.1994609862
 40
0.4284184379
 40
0.5576122329
 40
0.6976185371
 40
0.8469714617
 40
1.0
 40
1.0
 40
1.0
 40
1.0
 10
7.0180691741
 20
3.690958478
 30
0.0
 10
7.0178216788
 20
3.6917197535
 30
0.0
 10
7.0169759146
 20
3.6932630148
 30
0.0
 10
7.0152804129
 20
3.6947826627
 30
0.0
 10
7.0135309955
 20
3.6957624937
 30
0.0
 10
7.0119498948
 20
3.6963500448
 30
0.0
 10
7.0102093418
 20
3.6967253314
 30
0.0
 10
7.0089943519
 20
3.6968181207
 30
0.0
 10
7.0083802029
 20
3.6968181207
 30
0.0
  0
SPLINE
  5
52F
100
AcDbEntity
  8
0
100
AcDbSpline
 62
7
  6
CONTINUOUS
 70
0
 71
3
 72
13
 73
9
 74
0
 42
0.0000001
 43
0.0000001
 44
0.0000000001
 40
0.0
 40
0.0
 40
0.0
 40
0.0
 40
0.1497863662
 40
0.2963928588
 40
0.4345957346
 40
0.5631612797
 40
0.7943825304
 40
1.0
 40
1.0
 40
1.0
 40
1.0
 10
7.0083802029
 20
3.6996883181
 30
0.0
 10
7.0089940162
 20
3.6996883181
 30
0.0
 10
7.0102102364
 20
3.6997876182
 30
0.0
 10
7.0119513504
 20
3.700188924
 30
0.0
 10
7.0135328013
 20
3.7008170265
 30
0.0
 10
7.0152898178
 20
3.70186814
 30
0.0
 10
7.0169887233
 20
3.7035035146
 30
0.0
 10
7.0178201449
 20
3.7051325345
 30
0.0
 10
7.0180665107
 20
3.7059383181
 30
0.0
  0
SPLINE
  5
530
100
AcDbEntity
  8
0
100
AcDbSpline
 62
7
  6
CONTINUOUS
 70
0
 71
3
 72
13
 73
9
 74
0
 42
0.0000001
 43
0.0000001
 44
0.0000000001
 40
0.0
 40
0.0
 40
0.0
 40
0.0
 40
0.2056211486
 40
0.4368457233
 40
0.5654067923
 40
0.7036032406
 40
0.8502102842
 40
1.0
 40
1.0
 40
1.0
 40
1.0
 10
7.0180665107
 20
3.7059383181
 30
0.0
 10
7.0178201397
 20
3.7067441187
 30
0.0
 10
7.0169885201
 20
3.708373079
 30
0.0
 10
7.0152897282
 20
3.710008527
 30
0.0
 10
7.0135328382
 20
3.7110598179
 30
0.0
 10
7.0119514191
 20
3.7116879274
 30
0.0
 10
7.0102102707
 20
3.7120890799
 30
0.0
 10
7.0089940319
 20
3.7121883181
 30
0.0
 10
7.0083802029
 20
3.7121883181
 30
0.0
  0
SPLINE
  5
531
100
AcDbEntity
  8
0
100
AcDbSpline
 62
7
  6
CONTINUOUS
 70
0
 71
3
 72
13
 73
9
 74
0
 42
0.0000001
 43
0.0000001
 44
0.0000000001
 40
0.0
 40
0.0
 40
0.0
 40
0.0
 40
0.1530249219
 40
0.3023769024
 40
0.4423897398
 40
0.5715886006
 40
0.8005432176
 40
1.0
 40
1.0
 40
1.0
 40
1.0
 10
7.0083802029
 20
3.7150585155
 30
0.0
 10
7.0089943357
 20
3.7150585155
 30
0.0
 10
7.010209305
 20
3.7151513633
 30
0.0
 10
7.0119498259
 20
3.7155267962
 30
0.0
 10
7.0135309593
 20
3.7161143429
 30
0.0
 10
7.0152804966
 20
3.7170940047
 30
0.0
 10
7.0169761143
 20
3.718613574
 30
0.0
 10
7.0178216847
 20
3.720156901
 30
0.0
 10
7.0180691741
 20
3.7209181583
 30
0.0
  0
SPLINE
  5
532
100
AcDbEntity
  8
0
100
AcDbSpline
 62
7
  6
CONTINUOUS
 70
0
 71
3
 72
13
 73
9
 74
0
 42
0.0000001
 43
0.0000001
 44
0.0000000001
 40
0.0
 40
0.0
 40
0.0
 40
0.0
 40
0.2112462459
 40
0.4445923188
 40
0.5725891607
 40
0.7091278544
 40
0.8532056335
 40
1.0
 40
1.0
 40
1.0
 40
1.0
 10
7.0180691741
 20
3.7209181583
 30
0.0
 10
7.0178252699
 20
3.7217683453
 30
0.0
 10
7.0170080693
 20
3.7234823706
 30
0.0
 10
7.0153076429
 20
3.7252327753
 30
0.0
 10
7.0135426943
 20
3.7263561767
 30
0.0
 10
7.0119590328
 20
3.7270252567
 30
0.0
 10
7.0102145108
 20
3.7274526854
 30
0.0
 10
7.0089948262
 20
3.7275585155
 30
0.0
 10
7.0083802029
 20
3.7275585155
 30
0.0
  0
SPLINE
  5
533
100
AcDbEntity
  8
0
100
AcDbSpline
 62
7
  6
CONTINUOUS
 70
0
 71
3
 72
12
 73
8
 74
0
 42
0.0000001
 43
0.0000001
 44
0.0000000001
 40
0.0
 40
0.0
 40
0.0
 40
0.0
 40
0.1565270279
 40
0.3088793185
 40
0.5802286451
 40
0.8070405895
 40
1.0
 40
1.0
 40
1.0
 40
1.0
 10
7.0083802029
 20
3.7304122923
 30
0.0
 10
7.0089941073
 20
3.7304122923
 30
0.0
 10
7.0102070619
 20
3.7304986148
 30
0.0
 10
7.0124426187
 20
3.7309446038
 30
0.0
 10
7.0148343028
 20
3.7319361416
 30
0.0
 10
7.0169551698
 20
3.7336917473
 30
0.0
 10
7.0178192396
 20
3.7351426084
 30
0.0
 10
7.0180691741
 20
3.7358569398
 30
0.0
  0
SPLINE
  5
534
100
AcDbEntity
  8
0
100
AcDbSpline
 62
7
  6
CONTINUOUS
 70
0
 71
3
 72
14
 73
10
 74
0
 42
0.0000001
 43
0.0000001
 44
0.0000000001
 40
0.0
 40
0.0
 40
0.0
 40
0.0
 40
0.2162524172
 40
0.3312578671
 40
0.4522110847
 40
0.5796254539
 40
0.7145354924
 40
0.8561368436
 40
1.0
 40
1.0
 40
1.0
 40
1.0
 10
7.0180691741
 20
3.7358569398
 30
0.0
 10
7.0178265987
 20
3.7367487918
 30
0.0
 10
7.017233186
 20
3.7380669457
 30
0.0
 10
7.0160492629
 20
3.7396016263
 30
0.0
 10
7.0149137367
 20
3.7406715664
 30
0.0
 10
7.0135480122
 20
3.741589852
 30
0.0
 10
7.0119636026
 20
3.7422968864
 30
0.0
 10
7.0102171064
 20
3.7427489049
 30
0.0
 10
7.0089950672
 20
3.7428608763
 30
0.0
 10
7.0083802029
 20
3.7428608763
 30
0.0
  0
SPLINE
  5
535
100
AcDbEntity
  8
0
100
AcDbSpline
 62
7
  6
CONTINUOUS
 70
0
 71
3
 72
12
 73
8
 74
0
 42
0.0000001
 43
0.0000001
 44
0.0000000001
 40
0.0
 40
0.0
 40
0.0
 40
0.0
 40
0.1600645332
 40
0.3154488154
 40
0.5897328914
 40
0.8141852243
 40
1.0
 40
1.0
 40
1.0
 40
1.0
 10
7.0083802029
 20
3.7456989876
 30
0.0
 10
7.0089938884
 20
3.7456989876
 30
0.0
 10
7.0102046458
 20
3.7457782242
 30
0.0
 10
7.0124316504
 20
3.7461870746
 30
0.0
 10
7.0148066918
 20
3.7470887723
 30
0.0
 10
7.0169317946
 20
3.7486944487
 30
0.0
 10
7.0178161815
 20
3.7500477396
 30
0.0
 10
7.0180691741
 20
3.7507137164
 30
0.0
  0
SPLINE
  5
536
100
AcDbEntity
  8
0
100
AcDbSpline
 62
7
  6
CONTINUOUS
 70
0
 71
3
 72
13
 73
9
 74
0
 42
0.0000001
 43
0.0000001
 44
0.0000000001
 40
0.0
 40
0.0
 40
0.0
 40
0.0
 40
0.2211219016
 40
0.4584275154
 40
0.5855152428
 40
0.7191325524
 40
0.8586503255
 40
1.0
 40
1.0
 40
1.0
 40
1.0
 10
7.0180691741
 20
3.7507137164
 30
0.0
 10
7.0178277006
 20
3.7516451702
 30
0.0
 10
7.0170315534
 20
3.7535119298
 30
0.0
 10
7.0153309399
 20
3.7554698295
 30
0.0
 10
7.0135535117
 20
3.7567253115
 30
0.0
 10
7.0119679335
 20
3.7574688371
 30
0.0
 10
7.0102197226
 20
3.7579441648
 30
0.0
 10
7.0089953072
 20
3.758062035
 30
0.0
 10
7.0083802029
 20
3.758062035
 30
0.0
  0
SPLINE
  5
537
100
AcDbEntity
  8
0
100
AcDbSpline
 62
7
  6
CONTINUOUS
 70
0
 71
3
 72
13
 73
9
 74
0
 42
0.0000001
 43
0.0000001
 44
0.0000000001
 40
0.0
 40
0.0
 40
0.0
 40
0.0
 40
0.1636230199
 40
0.3220626425
 40
0.5993130667
 40
0.7171019844
 40
0.8219080573
 40
1.0
 40
1.0
 40
1.0
 40
1.0
 10
7.0083802029
 20
3.7608767016
 30
0.0
 10
7.0089936812
 20
3.7608767016
 30
0.0
 10
7.0102025072
 20
3.7609486415
 30
0.0
 10
7.0124203741
 20
3.7613199221
 30
0.0
 10
7.0144089326
 20
3.7620014081
 30
0.0
 10
7.016015606
 20
3.76298001
 30
0.0
 10
7.0171701477
 20
3.7639446074
 30
0.0
 10
7.0178123106
 20
3.764831422
 30
0.0
 10
7.0180691741
 20
3.7654477667
 30
0.0
  0
SPLINE
  5
538
100
AcDbEntity
  8
0
100
AcDbSpline
 62
7
  6
CONTINUOUS
 70
0
 71
3
 72
13
 73
9
 74
0
 42
0.0000001
 43
0.0000001
 44
0.0000000001
 40
0.0
 40
0.0
 40
0.0
 40
0.0
 40
0.2253893466
 40
0.4644839569
 40
0.5912077207
 40
0.7235605562
 40
0.8610682295
 40
1.0
 40
1.0
 40
1.0
 40
1.0
 10
7.0180691741
 20
3.7654477667
 30
0.0
 10
7.0178286197
 20
3.7664166186
 30
0.0
 10
7.0170407899
 20
3.7683529698
 30
0.0
 10
7.0153410772
 20
3.7704052164
 30
0.0
 10
7.0135584813
 20
3.7717216418
 30
0.0
 10
7.0119721781
 20
3.7724994035
 30
0.0
 10
7.0102222731
 20
3.7729968667
 30
0.0
 10
7.0089955436
 20
3.7731203261
 30
0.0
 10
7.0083802029
 20
3.7731203261
 30
0.0
  0
SPLINE
  5
539
100
AcDbEntity
  8
0
100
AcDbSpline
 62
7
  6
CONTINUOUS
 70
0
 71
3
 72
13
 73
9
 74
0
 42
0.0000001
 43
0.0000001
 44
0.0000000001
 40
0.0
 40
0.0
 40
0.0
 40
0.0
 40
0.1673782238
 40
0.3290722846
 40
0.6096642835
 40
0.7270136575
 40
0.8299110235
 40
1.0
 40
1.0
 40
1.0
 40
1.0
 10
7.0083802029
 20
3.7759038334
 30
0.0
 10
7.0089934881
 20
3.7759038334
 30
0.0
 10
7.0102003392
 20
3.7759683508
 30
0.0
 10
7.0124104315
 20
3.7763013874
 30
0.0
 10
7.0143924384
 20
3.7769086627
 30
0.0
 10
7.01600831
 20
3.7777926153
 30
0.0
 10
7.0171530968
 20
3.7786514311
 30
0.0
 10
7.0178073489
 20
3.779453155
 30
0.0
 10
7.0180691741
 20
3.7800187058
 30
0.0
  0
SPLINE
  5
53A
100
AcDbEntity
  8
0
100
AcDbSpline
 62
7
  6
CONTINUOUS
 70
0
 71
3
 72
13
 73
9
 74
0
 42
0.0000001
 43
0.0000001
 44
0.0000000001
 40
0.0
 40
0.0
 40
0.0
 40
0.0
 40
0.229238059
 40
0.469985935
 40
0.5963972869
 40
0.7276095684
 40
0.8632837858
 40
1.0
 40
1.0
 40
1.0
 40
1.0
 10
7.0180691741
 20
3.7800187058
 30
0.0
 10
7.0178293897
 20
3.7810226215
 30
0.0
 10
7.017048672
 20
3.7830239388
 30
0.0
 10
7.0153502329
 20
3.7851640063
 30
0.0
 10
7.0135631178
 20
3.7865376225
 30
0.0
 10
7.0119762318
 20
3.7873474686
 30
0.0
 10
7.0102247497
 20
3.7878657444
 30
0.0
 10
7.0089957738
 20
3.787994476
 30
0.0
 10
7.0083802029
 20
3.787994476
 30
0.0
  0
SPLINE
  5
53B
100
AcDbEntity
  8
0
100
AcDbSpline
 62
7
  6
CONTINUOUS
 70
0
 71
3
 72
13
 73
9
 74
0
 42
0.0000001
 43
0.0000001
 44
0.0000000001
 40
0.0
 40
0.0
 40
0.0
 40
0.0
 40
0.1711003212
 40
0.3360416601
 40
0.6200962652
 40
0.7370983278
 40
0.838145437
 40
1.0
 40
1.0
 40
1.0
 40
1.0
 10
7.0083802029
 20
3.7907474083
 30
0.0
 10
7.0089927597
 20
3.7907474083
 30
0.0
 10
7.0101967271
 20
3.7908042821
 30
0.0
 10
7.012398035
 20
3.7910980815
 30
0.0
 10
7.0143717866
 20
3.791630101
 30
0.0
 10
7.015996048
 20
3.7924147862
 30
0.0
 10
7.017129479
 20
3.7931655459
 30
0.0
 10
7.0177973083
 20
3.7938766839
 30
0.0
 10
7.0180665107
 20
3.7943898109
 30
0.0
  0
SPLINE
  5
53C
100
AcDbEntity
  8
0
100
AcDbSpline
 62
7
  6
CONTINUOUS
 70
0
 71
3
 72
13
 73
9
 74
0
 42
0.0000001
 43
0.0000001
 44
0.0000000001
 40
0.0
 40
0.0
 40
0.0
 40
0.0
 40
0.2326945225
 40
0.4749657823
 40
0.6011130353
 40
0.7313015671
 40
0.8653077188
 40
1.0
 40
1.0
 40
1.0
 40
1.0
 10
7.0180665107
 20
3.7943898109
 30
0.0
 10
7.017826554
 20
3.7954252482
 30
0.0
 10
7.0170507132
 20
3.797484383
 30
0.0
 10
7.0153535928
 20
3.7997025102
 30
0.0
 10
7.01356325
 20
3.8011271571
 30
0.0
 10
7.0119769511
 20
3.8019654524
 30
0.0
 10
7.0102254506
 20
3.8025022035
 30
0.0
 10
7.0089954364
 20
3.8026356148
 30
0.0
 10
7.0083802029
 20
3.8026356148
 30
0.0
  0
SPLINE
  5
53D
100
AcDbEntity
  8
0
100
AcDbSpline
 62
7
  6
CONTINUOUS
 70
0
 71
3
 72
13
 73
9
 74
0
 42
0.0000001
 43
0.0000001
 44
0.0000000001
 40
0.0
 40
0.0
 40
0.0
 40
0.0
 40
0.1749087458
 40
0.3431810166
 40
0.6308200094
 40
0.7475135532
 40
0.8467078907
 40
1.0
 40
1.0
 40
1.0
 40
1.0
 10
7.0083802029
 20
3.8053421224
 30
0.0
 10
7.0089931525
 20
3.8053421224
 30
0.0
 10
7.0101964982
 20
3.8053914697
 30
0.0
 10
7.0123929548
 20
3.8056465348
 30
0.0
 10
7.0143604206
 20
3.8061050145
 30
0.0
 10
7.0159931272
 20
3.8067896635
 30
0.0
 10
7.0171124615
 20
3.8074339896
 30
0.0
 10
7.0177924636
 20
3.8080516082
 30
0.0
 10
7.0180691741
 20
3.808512055
 30
0.0
  0
SPLINE
  5
53E
100
AcDbEntity
  8
0
100
AcDbSpline
 62
7
  6
CONTINUOUS
 70
0
 71
3
 72
13
 73
9
 74
0
 42
0.0000001
 43
0.0000001
 44
0.0000000001
 40
0.0
 40
0.0
 40
0.0
 40
0.0
 40
0.2357631463
 40
0.4793992425
 40
0.6053168746
 40
0.7345969314
 40
0.8671179897
 40
1.0
 40
1.0
 40
1.0
 40
1.0
 10
7.0180691741
 20
3.808512055
 30
0.0
 10
7.017830581
 20
3.8095786242
 30
0.0
 10
7.0170611067
 20
3.81169553
 30
0.0
 10
7.0153657428
 20
3.813991051
 30
0.0
 10
7.0135713141
 20
3.8154669075
 30
0.0
 10
7.0119836307
 20
3.8163340406
 30
0.0
 10
7.0102293766
 20
3.8168896551
 30
0.0
 10
7.0089962057
 20
3.8170278926
 30
0.0
 10
7.0083802029
 20
3.8170278926
 30
0.0
  0
SPLINE
  5
53F
100
AcDbEntity
  8
0
100
AcDbSpline
 62
7
  6
CONTINUOUS
 70
0
 71
3
 72
13
 73
9
 74
0
 42
0.0000001
 43
0.0000001
 44
0.0000000001
 40
0.0
 40
0.0
 40
0.0
 40
0.0
 40
0.349565544
 40
0.6405729956
 40
0.7570029735
 40
0.8544465372
 40
0.9345897716
 40
1.0
 40
1.0
 40
1.0
 40
1.0
 10
7.0083802029
 20
3.8196725913
 30
0.0
 10
7.0095809122
 20
3.8196725913
 30
0.0
 10
7.0117827912
 20
3.8198127708
 30
0.0
 10
7.0143467975
 20
3.8203145905
 30
0.0
 10
7.0159842321
 20
3.8208943515
 30
0.0
 10
7.0168950049
 20
3.8213373298
 30
0.0
 10
7.0175870337
 20
3.8218099291
 30
0.0
 10
7.0179391263
 20
3.8221731553
 30
0.0
 10
7.0180691741
 20
3.8223563668
 30
0.0
  0
SPLINE
  5
540
100
AcDbEntity
  8
0
100
AcDbSpline
 62
7
  6
CONTINUOUS
 70
0
 71
3
 72
13
 73
9
 74
0
 42
0.0000001
 43
0.0000001
 44
0.0000000001
 40
0.0
 40
0.0
 40
0.0
 40
0.0
 40
0.2384787749
 40
0.4833481913
 40
0.6090742187
 40
0.737551296
 40
0.868743457
 40
1.0
 40
1.0
 40
1.0
 40
1.0
 10
7.0180691741
 20
3.8223563668
 30
0.0
 10
7.0178310383
 20
3.8234503152
 30
0.0
 10
7.0170659515
 20
3.8256175876
 30
0.0
 10
7.0153721798
 20
3.8279804803
 30
0.0
 10
7.0135748492
 20
3.8295010114
 30
0.0
 10
7.0119869183
 20
3.8303931578
 30
0.0
 10
7.0102314782
 20
3.830965152
 30
0.0
 10
7.0089964027
 20
3.8311075808
 30
0.0
 10
7.0083802029
 20
3.8311075808
 30
0.0
  0
SPLINE
  5
541
100
AcDbEntity
  8
0
100
AcDbSpline
 62
7
  6
CONTINUOUS
 70
0
 71
3
 72
13
 73
9
 74
0
 42
0.0000001
 43
0.0000001
 44
0.0000000001
 40
0.0
 40
0.0
 40
0.0
 40
0.0
 40
0.355941245
 40
0.6503415113
 40
0.7666717284
 40
0.8626081785
 40
0.9396081282
 40
1.0
 40
1.0
 40
1.0
 40
1.0
 10
7.0083802029
 20
3.8336913225
 30
0.0
 10
7.0095800388
 20
3.8336913225
 30
0.0
 10
7.0117732114
 20
3.8338052572
 30
0.0
 10
7.014334017
 20
3.8342122106
 30
0.0
 10
7.0159769123
 20
3.8346860124
 30
0.0
 10
7.016885589
 20
3.8350457252
 30
0.0
 10
7.0175754286
 20
3.8354281979
 30
0.0
 10
7.0179355761
 20
3.8357279818
 30
0.0
 10
7.0180691741
 20
3.8358815849
 30
0.0
  0
SPLINE
  5
542
100
AcDbEntity
  8
0
100
AcDbSpline
 62
7
  6
CONTINUOUS
 70
0
 71
3
 72
12
 73
8
 74
0
 42
0.0000001
 43
0.0000001
 44
0.0000000001
 40
0.0
 40
0.0
 40
0.0
 40
0.0
 40
0.2411960075
 40
0.4875086674
 40
0.6132526648
 40
0.7412101798
 40
1.0
 40
1.0
 40
1.0
 40
1.0
 10
7.0180691741
 20
3.8358815849
 30
0.0
 10
7.0178314211
 20
3.8370001572
 30
0.0
 10
7.0170698286
 20
3.8392127511
 30
0.0
 10
7.0153783774
 20
3.8416356633
 30
0.0
 10
7.0135769621
 20
3.8431969716
 30
0.0
 10
7.01146377
 20
3.8444153737
 30
0.0
 10
7.0096071792
 20
3.8448441886
 30
0.0
 10
7.0083802029
 20
3.8448441886
 30
0.0
  0
SPLINE
  5
543
100
AcDbEntity
  8
0
100
AcDbSpline
 62
7
  6
CONTINUOUS
 70
0
 71
3
 72
13
 73
9
 74
0
 42
0.0000001
 43
0.0000001
 44
0.0000000001
 40
0.0
 40
0.0
 40
0.0
 40
0.0
 40
0.361577122
 40
0.6590576299
 40
0.7753726429
 40
0.8700461588
 40
0.9442700792
 40
1.0
 40
1.0
 40
1.0
 40
1.0
 10
7.0083802029
 20
3.8473598915
 30
0.0
 10
7.0095793349
 20
3.8473598915
 30
0.0
 10
7.0117655191
 20
3.8474475803
 30
0.0
 10
7.0143232472
 20
3.847759992
 30
0.0
 10
7.0159704507
 20
3.8481261187
 30
0.0
 10
7.0168767382
 20
3.8484023299
 30
0.0
 10
7.01756309
 20
3.8486948092
 30
0.0
 10
7.0179309428
 20
3.8489279533
 30
0.0
 10
7.0180691741
 20
3.8490506375
 30
0.0
  0
SPLINE
  5
544
100
AcDbEntity
  8
0
100
AcDbSpline
 62
7
  6
CONTINUOUS
 70
0
 71
3
 72
12
 73
8
 74
0
 42
0.0000001
 43
0.0000001
 44
0.0000000001
 40
0.0
 40
0.0
 40
0.0
 40
0.0
 40
0.2432580265
 40
0.4905368634
 40
0.6161525162
 40
0.7435099449
 40
1.0
 40
1.0
 40
1.0
 40
1.0
 10
7.0180691741
 20
3.8490506375
 30
0.0
 10
7.0178317392
 20
3.8501909982
 30
0.0
 10
7.0170732256
 20
3.8524435948
 30
0.0
 10
7.0153832501
 20
3.854919663
 30
0.0
 10
7.0135796613
 20
3.8565165099
 30
0.0
 10
7.0114696357
 20
3.8577597065
 30
0.0
 10
7.0096083798
 20
3.8582000652
 30
0.0
 10
7.0083802029
 20
3.8582000652
 30
0.0
  0
SPLINE
  5
545
100
AcDbEntity
  8
0
100
AcDbSpline
 62
7
  6
CONTINUOUS
 70
0
 71
3
 72
13
 73
9
 74
0
 42
0.0000001
 43
0.0000001
 44
0.0000000001
 40
0.0
 40
0.0
 40
0.0
 40
0.0
 40
0.3661549244
 40
0.6661956677
 40
0.78255336
 40
0.8762577587
 40
0.9482389362
 40
1.0
 40
1.0
 40
1.0
 40
1.0
 10
7.0083802029
 20
3.8606408339
 30
0.0
 10
7.0095788071
 20
3.8606408339
 30
0.0
 10
7.0117597895
 20
3.8607022633
 30
0.0
 10
7.014314882
 20
3.860920523
 30
0.0
 10
7.0159652632
 20
3.8611777152
 30
0.0
 10
7.0168691633
 20
3.8613705207
 30
0.0
 10
7.0175515056
 20
3.861574106
 30
0.0
 10
7.0179253532
 20
3.8617378455
 30
0.0
 10
7.0180691741
 20
3.8618274291
 30
0.0
  0
SPLINE
  5
546
100
AcDbEntity
  8
0
100
AcDbSpline
 62
7
  6
CONTINUOUS
 70
0
 71
3
 72
12
 73
8
 74
0
 42
0.0000001
 43
0.0000001
 44
0.0000000001
 40
0.0
 40
0.0
 40
0.0
 40
0.0
 40
0.2450066219
 40
0.493112823
 40
0.6186236046
 40
0.7454729948
 40
1.0
 40
1.0
 40
1.0
 40
1.0
 10
7.0180691741
 20
3.8618274291
 30
0.0
 10
7.0178320005
 20
3.8629866725
 30
0.0
 10
7.0170760231
 20
3.8652739152
 30
0.0
 10
7.0153873708
 20
3.8677958959
 30
0.0
 10
7.013581977
 20
3.8694235289
 30
0.0
 10
7.0114747546
 20
3.870688138
 30
0.0
 10
7.0096094382
 20
3.8711386029
 30
0.0
 10
7.0083802029
 20
3.8711386029
 30
0.0
  0
SPLINE
  5
547
100
AcDbEntity
  8
0
100
AcDbSpline
 62
7
  6
CONTINUOUS
 70
0
 71
3
 72
13
 73
9
 74
0
 42
0.0000001
 43
0.0000001
 44
0.0000000001
 40
0.0
 40
0.0
 40
0.0
 40
0.0
 40
0.3691337182
 40
0.6709187722
 40
0.7873615495
 40
0.8804828054
 40
0.9510014961
 40
1.0
 40
1.0
 40
1.0
 40
1.0
 10
7.0083802029
 20
3.8735047939
 30
0.0
 10
7.0095774319
 20
3.8735047939
 30
0.0
 10
7.0117535047
 20
3.873539873
 30
0.0
 10
7.0143050913
 20
3.8736641989
 30
0.0
 10
7.0159571587
 20
3.8738113271
 30
0.0
 10
7.0168593189
 20
3.8739210013
 30
0.0
 10
7.0175391191
 20
3.8740368634
 30
0.0
 10
7.0179167457
 20
3.8741298976
 30
0.0
 10
7.0180665107
 20
3.8741830552
 30
0.0
  0
SPLINE
  5
548
100
AcDbEntity
  8
0
100
AcDbSpline
 62
7
  6
CONTINUOUS
 70
0
 71
3
 72
12
 73
8
 74
0
 42
0.0000001
 43
0.0000001
 44
0.0000000001
 40
0.0
 40
0.0
 40
0.0
 40
0.0
 40
0.2464546014
 40
0.495251726
 40
0.6206789437
 40
0.74710795
 40
1.0
 40
1.0
 40
1.0
 40
1.0
 10
7.0180665107
 20
3.8741830552
 30
0.0
 10
7.0178287406
 20
3.8753569573
 30
0.0
 10
7.017073643
 20
3.8776706878
 30
0.0
 10
7.0153859012
 20
3.8802277693
 30
0.0
 10
7.0135797368
 20
3.881878814
 30
0.0
 10
7.011476264
 20
3.8831593245
 30
0.0
 10
7.009609228
 20
3.8836175063
 30
0.0
 10
7.0083802029
 20
3.8836175063
 30
0.0
  0
LINE
  5
549
100
AcDbEntity
  8
0
100
AcDbLine
 62
7
  6
CONTINUOUS
 10
7.0083802029
 20
3.8858953922
 11
7.0180691741
 21
3.8860653196
  0
SPLINE
  5
54A
100
AcDbEntity
  8
0
100
AcDbSpline
 62
7
  6
CONTINUOUS
 70
0
 71
3
 72
11
 73
7
 74
0
 42
0.0000001
 43
0.0000001
 44
0.0000000001
 40
0.0
 40
0.0
 40
0.0
 40
0.0
 40
0.2477493783
 40
0.4971523259
 40
0.7473560343
 40
1.0
 40
1.0
 40
1.0
 40
1.0
 10
7.0180691741
 20
3.8860653196
 30
0.0
 10
7.0178560217
 20
3.8871347408
 30
0.0
 10
7.0172034581
 20
3.8892447229
 30
0.0
 10
7.0155084649
 20
3.8921034951
 30
0.0
 10
7.0130560769
 20
3.8944099795
 30
0.0
 10
7.0109447504
 20
3.8952703018
 30
0.0
 10
7.0098527136
 20
3.895480062
 30
0.0
  0
LINE
  5
54B
100
AcDbEntity
  8
0
100
AcDbLine
 62
7
  6
CONTINUOUS
 10
7.0098527136
 20
3.895480062
 11
7.0083802029
 21
3.8956230482
  0
SPLINE
  5
54C
100
AcDbEntity
  8
0
100
AcDbSpline
 62
7
  6
CONTINUOUS
 70
0
 71
3
 72
11
 73
7
 74
0
 42
0.0000001
 43
0.0000001
 44
0.0000000001
 40
0.0
 40
0.0
 40
0.0
 40
0.0
 40
0.2485138884
 40
0.4983014046
 40
0.7482810208
 40
1.0
 40
1.0
 40
1.0
 40
1.0
 10
7.0180691741
 20
3.8974599841
 30
0.0
 10
7.0178561177
 20
3.898538333
 30
0.0
 10
7.0172044146
 20
3.9006649826
 30
0.0
 10
7.0155109029
 20
3.9035479693
 30
0.0
 10
7.013060297
 20
3.9058754114
 30
0.0
 10
7.0109457532
 20
3.9067457999
 30
0.0
 10
7.0098527135
 20
3.9069576008
 30
0.0
  0
LINE
  5
54D
100
AcDbEntity
  8
0
100
AcDbLine
 62
7
  6
CONTINUOUS
 10
7.0098527135
 20
3.9069576008
 11
7.0083802029
 21
3.9071018457
  0
SPLINE
  5
54E
100
AcDbEntity
  8
0
100
AcDbSpline
 62
7
  6
CONTINUOUS
 70
0
 71
3
 72
11
 73
7
 74
0
 42
0.0000001
 43
0.0000001
 44
0.0000000001
 40
0.0
 40
0.0
 40
0.0
 40
0.0
 40
0.2490330642
 40
0.4990825415
 40
0.7489106763
 40
1.0
 40
1.0
 40
1.0
 40
1.0
 10
7.0180691741
 20
3.9083297011
 30
0.0
 10
7.0178561822
 20
3.9094141752
 30
0.0
 10
7.0172050587
 20
3.9115522602
 30
0.0
 10
7.0155125532
 20
3.9144518401
 30
0.0
 10
7.0130631874
 20
3.9167936383
 30
0.0
 10
7.0109464449
 20
3.9176709564
 30
0.0
 10
7.0098527136
 20
3.9178841598
 30
0.0
  0
LINE
  5
54F
100
AcDbEntity
  8
0
100
AcDbLine
 62
7
  6
CONTINUOUS
 10
7.0098527136
 20
3.9178841598
 11
7.0083802029
 21
3.9180292679
  0
SPLINE
  5
550
100
AcDbEntity
  8
0
100
AcDbSpline
 62
7
  6
CONTINUOUS
 70
0
 71
3
 72
11
 73
7
 74
0
 42
0.0000001
 43
0.0000001
 44
0.0000000001
 40
0.0
 40
0.0
 40
0.0
 40
0.0
 40
0.2493113089
 40
0.4995014478
 40
0.7492486329
 40
1.0
 40
1.0
 40
1.0
 40
1.0
 10
7.0180691741
 20
3.9186446773
 30
0.0
 10
7.0178562166
 20
3.9197324553
 30
0.0
 10
7.017205402
 20
3.9218767084
 30
0.0
 10
7.0155134359
 20
3.9247852319
 30
0.0
 10
7.0130647446
 20
3.9271347658
 30
0.0
 10
7.0109468192
 20
3.9280158293
 30
0.0
 10
7.0098527136
 20
3.9282297899
 30
0.0
  0
LINE
  5
551
100
AcDbEntity
  8
0
100
AcDbLine
 62
7
  6
CONTINUOUS
 10
7.0098527136
 20
3.9282297899
 11
7.0083802029
 21
3.9283753636
  0
SPLINE
  5
552
100
AcDbEntity
  8
0
100
AcDbSpline
 62
7
  6
CONTINUOUS
 70
0
 71
3
 72
11
 73
7
 74
0
 42
0.0000001
 43
0.0000001
 44
0.0000000001
 40
0.0
 40
0.0
 40
0.0
 40
0.0
 40
0.2493509833
 40
0.4995611941
 40
0.7492968502
 40
1.0
 40
1.0
 40
1.0
 40
1.0
 10
7.0180691741
 20
3.9283766401
 30
0.0
 10
7.0178562214
 20
3.9294648905
 30
0.0
 10
7.0172054509
 20
3.9316100253
 30
0.0
 10
7.0155135617
 20
3.9345198269
 30
0.0
 10
7.0130649671
 20
3.9368704663
 30
0.0
 10
7.0109468728
 20
3.9377520657
 30
0.0
 10
7.0098527135
 20
3.9379661346
 30
0.0
  0
LINE
  5
553
100
AcDbEntity
  8
0
100
AcDbLine
 62
7
  6
CONTINUOUS
 10
7.0098527135
 20
3.9379661346
 11
7.0083802029
 21
3.9381117748
  0
SPLINE
  5
554
100
AcDbEntity
  8
0
100
AcDbSpline
 62
7
  6
CONTINUOUS
 70
0
 71
3
 72
11
 73
7
 74
0
 42
0.0000001
 43
0.0000001
 44
0.0000000001
 40
0.0
 40
0.0
 40
0.0
 40
0.0
 40
0.2493953495
 40
0.4994193752
 40
0.7489713983
 40
1.0
 40
1.0
 40
1.0
 40
1.0
 10
7.0175728305
 20
3.9393940124
 30
0.0
 10
7.0172764436
 20
3.9402921496
 30
0.0
 10
7.0165114274
 20
3.9420402913
 30
0.0
 10
7.0148340371
 20
3.9443635364
 30
0.0
 10
7.0126004254
 20
3.9461901089
 30
0.0
 10
7.010785824
 20
3.946879641
 30
0.0
 10
7.0098514561
 20
3.9470618679
 30
0.0
  0
LINE
  5
555
100
AcDbEntity
  8
0
100
AcDbLine
 62
7
  6
CONTINUOUS
 10
7.0098514561
 20
3.9470618679
 11
7.0083802029
 21
3.9472069209
  0
SPLINE
  5
556
100
AcDbEntity
  8
0
100
AcDbSpline
 62
7
  6
CONTINUOUS
 70
0
 71
3
 72
11
 73
7
 74
0
 42
0.0000001
 43
0.0000001
 44
0.0000000001
 40
0.0
 40
0.0
 40
0.0
 40
0.0
 40
0.2489711259
 40
0.4988060991
 40
0.7484945318
 40
1.0
 40
1.0
 40
1.0
 40
1.0
 10
7.0175765053
 20
3.9478660265
 30
0.0
 10
7.0172804437
 20
3.9487609711
 30
0.0
 10
7.0165154577
 20
3.9505033326
 30
0.0
 10
7.0148374275
 20
3.9528182987
 30
0.0
 10
7.0126022078
 20
3.9546380837
 30
0.0
 10
7.0107874863
 20
3.9553244142
 30
0.0
 10
7.0098527136
 20
3.955505964
 30
0.0
  0
LINE
  5
557
100
AcDbEntity
  8
0
100
AcDbLine
 62
7
  6
CONTINUOUS
 10
7.0098527136
 20
3.955505964
 11
7.0083802029
 21
3.9556505407
  0
SPLINE
  5
558
100
AcDbEntity
  8
0
100
AcDbSpline
 62
7
  6
CONTINUOUS
 70
0
 71
3
 72
9
 73
5
 74
0
 42
0.0000001
 43
0.0000001
 44
0.0000000001
 40
0.0
 40
0.0
 40
0.0
 40
0.0
 40
0.2493040803
 40
1.0
 40
1.0
 40
1.0
 40
1.0
 10
7.0180691741
 20
3.9538161264
 30
0.0
 10
7.0180086859
 20
3.954120589
 30
0.0
 10
7.0177303325
 20
3.9553343025
 30
0.0
 10
7.0173037944
 20
3.956515372
 30
0.0
 10
7.0168981492
 20
3.9573574684
 30
0.0
  0
SPLINE
  5
559
100
AcDbEntity
  8
0
100
AcDbSpline
 62
7
  6
CONTINUOUS
 70
0
 71
3
 72
11
 73
7
 74
0
 42
0.0000001
 43
0.0000001
 44
0.0000000001
 40
0.0
 40
0.0
 40
0.0
 40
0.0
 40
0.2485813141
 40
0.4978777356
 40
0.7479181805
 40
1.0
 40
1.0
 40
1.0
 40
1.0
 10
7.0168981492
 20
3.9573574684
 30
0.0
 10
7.0165559255
 20
3.9580679055
 30
0.0
 10
7.0157451244
 20
3.9594348254
 30
0.0
 10
7.0141509767
 20
3.9612164097
 30
0.0
 10
7.0121670746
 20
3.962582542
 30
0.0
 10
7.010637919
 20
3.9631100641
 30
0.0
 10
7.0098526937
 20
3.9632613777
 30
0.0
  0
LINE
  5
55A
100
AcDbEntity
  8
0
100
AcDbLine
 62
7
  6
CONTINUOUS
 10
7.0098526937
 20
3.9632613777
 11
7.0083802029
 21
3.9634048229
  0
SPLINE
  5
55B
100
AcDbEntity
  8
0
100
AcDbSpline
 62
7
  6
CONTINUOUS
 70
0
 71
3
 72
9
 73
5
 74
0
 42
0.0000001
 43
0.0000001
 44
0.0000000001
 40
0.0
 40
0.0
 40
0.0
 40
0.0
 40
0.2492048974
 40
1.0
 40
1.0
 40
1.0
 40
1.0
 10
7.0180691741
 20
3.9609663385
 30
0.0
 10
7.0179810308
 20
3.9614052987
 30
0.0
 10
7.0175521711
 20
3.9631499973
 30
0.0
 10
7.0168009643
 20
3.9648220133
 30
0.0
 10
7.0160565464
 20
3.9659468784
 30
0.0
  0
SPLINE
  5
55C
100
AcDbEntity
  8
0
100
AcDbSpline
 62
7
  6
CONTINUOUS
 70
0
 71
3
 72
10
 73
6
 74
0
 42
0.0000001
 43
0.0000001
 44
0.0000000001
 40
0.0
 40
0.0
 40
0.0
 40
0.0
 40
0.4957737973
 40
0.7470112841
 40
1.0
 40
1.0
 40
1.0
 40
1.0
 10
7.0160565464
 20
3.9659468784
 30
0.0
 10
7.0153482247
 20
3.9670171997
 30
0.0
 10
7.0140099465
 20
3.9684900359
 30
0.0
 10
7.0117543927
 20
3.9697932337
 30
0.0
 10
7.0104960695
 20
3.9701888149
 30
0.0
 10
7.0098527136
 20
3.9703114782
 30
0.0
  0
LINE
  5
55D
100
AcDbEntity
  8
0
100
AcDbLine
 62
7
  6
CONTINUOUS
 10
7.0098527136
 20
3.9703114782
 11
7.0083802029
 21
3.9704534073
  0
SPLINE
  5
55E
100
AcDbEntity
  8
0
100
AcDbSpline
 62
7
  6
CONTINUOUS
 70
0
 71
3
 72
9
 73
5
 74
0
 42
0.0000001
 43
0.0000001
 44
0.0000000001
 40
0.0
 40
0.0
 40
0.0
 40
0.0
 40
0.4971968496
 40
1.0
 40
1.0
 40
1.0
 40
1.0
 10
7.0180691741
 20
3.9674175366
 30
0.0
 10
7.017838311
 20
3.968551785
 30
0.0
 10
7.0171111611
 20
3.9707887849
 30
0.0
 10
7.0158211736
 20
3.9727720777
 30
0.0
 10
7.0150375464
 20
3.9736416357
 30
0.0
  0
SPLINE
  5
55F
100
AcDbEntity
  8
0
100
AcDbSpline
 62
7
  6
CONTINUOUS
 70
0
 71
3
 72
9
 73
5
 74
0
 42
0.0000001
 43
0.0000001
 44
0.0000000001
 40
0.0
 40
0.0
 40
0.0
 40
0.0
 40
0.4959768529
 40
1.0
 40
1.0
 40
1.0
 40
1.0
 10
7.0150375464
 20
3.9736416357
 30
0.0
 10
7.0143657427
 20
3.9743871078
 30
0.0
 10
7.0127922295
 20
3.9757141215
 30
0.0
 10
7.0108549367
 20
3.9764484398
 30
0.0
 10
7.0098527136
 20
3.9766369545
 30
0.0
  0
LINE
  5
560
100
AcDbEntity
  8
0
100
AcDbLine
 62
7
  6
CONTINUOUS
 10
7.0098527136
 20
3.9766369545
 11
7.0083802029
 21
3.9767769742
  0
SPLINE
  5
561
100
AcDbEntity
  8
0
100
AcDbSpline
 62
7
  6
CONTINUOUS
 70
0
 71
3
 72
9
 73
5
 74
0
 42
0.0000001
 43
0.0000001
 44
0.0000000001
 40
0.0
 40
0.0
 40
0.0
 40
0.0
 40
0.4956476615
 40
1.0
 40
1.0
 40
1.0
 40
1.0
 10
7.0180691741
 20
3.9731520383
 30
0.0
 10
7.0177845824
 20
3.9745273598
 30
0.0
 10
7.0168093858
 20
3.9772364242
 30
0.0
 10
7.0149669768
 20
3.9794973947
 30
0.0
 10
7.0138477514
 20
3.9803860607
 30
0.0
  0
SPLINE
  5
562
100
AcDbEntity
  8
0
100
AcDbSpline
 62
7
  6
CONTINUOUS
 70
0
 71
3
 72
9
 73
5
 74
0
 42
0.0000001
 43
0.0000001
 44
0.0000000001
 40
0.0
 40
0.0
 40
0.0
 40
0.0
 40
0.4962692824
 40
1.0
 40
1.0
 40
1.0
 40
1.0
 10
7.0138477514
 20
3.9803860607
 30
0.0
 10
7.0132739582
 20
3.9808416531
 30
0.0
 10
7.0120068501
 20
3.9816288859
 30
0.0
 10
7.0105839869
 20
3.9820851674
 30
0.0
 10
7.0098527135
 20
3.9822204646
 30
0.0
  0
LINE
  5
563
100
AcDbEntity
  8
0
100
AcDbLine
 62
7
  6
CONTINUOUS
 10
7.0098527135
 20
3.9822204646
 11
7.0083802029
 21
3.9823581912
  0
SPLINE
  5
564
100
AcDbEntity
  8
0
100
AcDbSpline
 62
7
  6
CONTINUOUS
 70
0
 71
3
 72
11
 73
7
 74
0
 42
0.0000001
 43
0.0000001
 44
0.0000000001
 40
0.0
 40
0.0
 40
0.0
 40
0.0
 40
0.2432353083
 40
0.490549423
 40
0.7421329985
 40
1.0
 40
1.0
 40
1.0
 40
1.0
 10
7.0175728305
 20
3.9799175919
 30
0.0
 10
7.0172749374
 20
3.9807566061
 30
0.0
 10
7.0165017707
 20
3.9823938047
 30
0.0
 10
7.0148154637
 20
3.9845556868
 30
0.0
 10
7.0125755489
 20
3.9862470895
 30
0.0
 10
7.0107802069
 20
3.9868761122
 30
0.0
 10
7.0098514561
 20
3.9870444645
 30
0.0
  0
LINE
  5
565
100
AcDbEntity
  8
0
100
AcDbLine
 62
7
  6
CONTINUOUS
 10
7.0098514561
 20
3.9870444645
 11
7.0083802029
 21
3.9871792837
  0
SPLINE
  5
566
100
AcDbEntity
  8
0
100
AcDbSpline
 62
7
  6
CONTINUOUS
 70
0
 71
3
 72
9
 73
5
 74
0
 42
0.0000001
 43
0.0000001
 44
0.0000000001
 40
0.0
 40
0.0
 40
0.0
 40
0.0
 40
0.4958175303
 40
1.0
 40
1.0
 40
1.0
 40
1.0
 10
7.0180691741
 20
3.9824100887
 30
0.0
 10
7.0178921124
 20
3.9832302747
 30
0.0
 10
7.0173806135
 20
3.9848553665
 30
0.0
 10
7.0165511891
 20
3.9863474974
 30
0.0
 10
7.0160565465
 20
3.9870427249
 30
0.0
  0
SPLINE
  5
567
100
AcDbEntity
  8
0
100
AcDbSpline
 62
7
  6
CONTINUOUS
 70
0
 71
3
 72
9
 73
5
 74
0
 42
0.0000001
 43
0.0000001
 44
0.0000000001
 40
0.0
 40
0.0
 40
0.0
 40
0.0
 40
0.4907412458
 40
1.0
 40
1.0
 40
1.0
 40
1.0
 10
7.0160565465
 20
3.9870427249
 30
0.0
 10
7.0153396046
 20
3.9880503973
 30
0.0
 10
7.0135322636
 20
3.9898923787
 30
0.0
 10
7.0111163542
 20
3.9908783478
 30
0.0
 10
7.0098527136
 20
3.9911024461
 30
0.0
  0
LINE
  5
568
100
AcDbEntity
  8
0
100
AcDbLine
 62
7
  6
CONTINUOUS
 10
7.0098527136
 20
3.9911024461
 11
7.0083802029
 21
3.9912344611
  0
SPLINE
  5
569
100
AcDbEntity
  8
0
100
AcDbSpline
 62
7
  6
CONTINUOUS
 70
0
 71
3
 72
9
 73
5
 74
0
 42
0.0000001
 43
0.0000001
 44
0.0000000001
 40
0.0
 40
0.0
 40
0.0
 40
0.0
 40
0.4904802961
 40
1.0
 40
1.0
 40
1.0
 40
1.0
 10
7.0180691741
 20
3.9859082617
 30
0.0
 10
7.0177829322
 20
3.9872000163
 30
0.0
 10
7.0167885322
 20
3.9897611233
 30
0.0
 10
7.014951821
 20
3.9918449428
 30
0.0
 10
7.0138477514
 20
3.9926635628
 30
0.0
  0
LINE
  5
56A
100
AcDbEntity
  8
0
100
AcDbLine
 62
7
  6
CONTINUOUS
 10
7.0098527135
 20
3.9943765725
 11
7.0083802029
 21
3.9945051848
  0
SPLINE
  5
56B
100
AcDbEntity
  8
0
100
AcDbSpline
 62
7
  6
CONTINUOUS
 70
0
 71
3
 72
9
 73
5
 74
0
 42
0.0000001
 43
0.0000001
 44
0.0000000001
 40
0.0
 40
0.0
 40
0.0
 40
0.0
 40
0.2473349486
 40
1.0
 40
1.0
 40
1.0
 40
1.0
 10
7.0180691741
 20
3.9886390565
 30
0.0
 10
7.0180085693
 20
3.9889045688
 30
0.0
 10
7.017727885
 20
3.9899695118
 30
0.0
 10
7.0172994449
 20
3.9909963161
 30
0.0
 10
7.0168981333
 20
3.9917214331
 30
0.0
  0
SPLINE
  5
56C
100
AcDbEntity
  8
0
100
AcDbSpline
 62
7
  6
CONTINUOUS
 70
0
 71
3
 72
10
 73
6
 74
0
 42
0.0000001
 43
0.0000001
 44
0.0000000001
 40
0.0
 40
0.0
 40
0.0
 40
0.0
 40
0.4819685877
 40
0.7364343805
 40
1.0
 40
1.0
 40
1.0
 40
1.0
 10
7.0168981333
 20
3.9917214331
 30
0.0
 10
7.0161991262
 20
3.9929844468
 30
0.0
 10
7.0147328479
 20
3.9947419055
 30
0.0
 10
7.0121374061
 20
3.9962810209
 30
0.0
 10
7.0106312429
 20
3.9967295287
 30
0.0
 10
7.0098527136
 20
3.9968601097
 30
0.0
  0
LINE
  5
56D
100
AcDbEntity
  8
0
100
AcDbLine
 62
7
  6
CONTINUOUS
 10
7.0098527136
 20
3.9968601097
 11
7.0083802029
 21
3.9969849667
  0
SPLINE
  5
56E
100
AcDbEntity
  8
0
100
AcDbSpline
 62
7
  6
CONTINUOUS
 70
0
 71
3
 72
9
 73
5
 74
0
 42
0.0000001
 43
0.0000001
 44
0.0000000001
 40
0.0
 40
0.0
 40
0.0
 40
0.0
 40
0.4873280849
 40
1.0
 40
1.0
 40
1.0
 40
1.0
 10
7.0175765053
 20
3.9921648895
 30
0.0
 10
7.0172055061
 20
3.9931016111
 30
0.0
 10
7.0161772826
 20
3.9949284542
 30
0.0
 10
7.0146554973
 20
3.996385973
 30
0.0
 10
7.0137805463
 20
3.9969841992
 30
0.0
  0
SPLINE
  5
56F
100
AcDbEntity
  8
0
100
AcDbSpline
 62
7
  6
CONTINUOUS
 70
0
 71
3
 72
9
 73
5
 74
0
 42
0.0000001
 43
0.0000001
 44
0.0000000001
 40
0.0
 40
0.0
 40
0.0
 40
0.0
 40
0.49099325
 40
1.0
 40
1.0
 40
1.0
 40
1.0
 10
7.0137805463
 20
3.9969841992
 30
0.0
 10
7.0132060143
 20
3.9973770213
 30
0.0
 10
7.0119435722
 20
3.9980489479
 30
0.0
 10
7.010564923
 20
3.9984307135
 30
0.0
 10
7.0098527136
 20
3.9985462505
 30
0.0
  0
LINE
  5
570
100
AcDbEntity
  8
0
100
AcDbLine
 62
7
  6
CONTINUOUS
 10
7.0098527136
 20
3.9985462505
 11
7.0083802029
 21
3.9986670101
  0
SPLINE
  5
571
100
AcDbEntity
  8
0
100
AcDbSpline
 62
7
  6
CONTINUOUS
 70
0
 71
3
 72
9
 73
5
 74
0
 42
0.0000001
 43
0.0000001
 44
0.0000000001
 40
0.0
 40
0.0
 40
0.0
 40
0.0
 40
0.506601515
 40
1.0
 40
1.0
 40
1.0
 40
1.0
 10
7.211416847
 20
4.1255256542
 30
0.0
 10
7.2022334301
 20
4.1203965839
 30
0.0
 10
7.1848283127
 20
4.1089065427
 30
0.0
 10
7.1694342242
 20
4.0948288968
 30
0.0
 10
7.1624449752
 20
4.087338841
 30
0.0
  0
LINE
  5
572
100
AcDbEntity
  8
0
100
AcDbLine
 62
7
  6
CONTINUOUS
 10
7.0098527135
 20
3.9994303732
 11
7.0083802029
 21
3.9995467044
  0
SPLINE
  5
573
100
AcDbEntity
  8
0
100
AcDbSpline
 62
7
  6
CONTINUOUS
 70
0
 71
3
 72
40
 73
36
 74
0
 42
0.0000001
 43
0.0000001
 44
0.0000000001
 40
0.0
 40
0.0
 40
0.0
 40
0.0
 40
0.0000182618
 40
0.0000725894
 40
0.0001630178
 40
0.0002895265
 40
0.000650677
 40
0.0011558142
 40
0.0018047043
 40
0.0025971116
 40
0.0035327999
 40
0.0046115326
 40
0.0071971845
 40
0.0103521729
 40
0.0140746029
 40
0.0183625797
 40
0.0232142083
 40
0.0286275938
 40
0.0411320566
 40
0.0558608123
 40
0.0727987078
 40
0.0919251412
 40
0.1131977045
 40
0.1365685367
 40
0.161989775
 40
0.189413556
 40
0.2187920155
 40
0.2832215116
 40
0.3548476509
 40
0.4330490328
 40
0.5171565509
 40
0.6065010927
 40
0.7003687429
 40
0.7978663842
 40
1.0
 40
1.0
 40
1.0
 40
1.0
 10
7.6552383409
 20
3.9579387876
 30
0.0
 10
7.6552368057
 20
3.9579388299
 30
0.0
 10
7.6552387639
 20
3.9579290575
 30
0.0
 10
7.6552350018
 20
3.957918964
 30
0.0
 10
7.6552347125
 20
3.9578942047
 30
0.0
 10
7.6552304122
 20
3.9578469348
 30
0.0
 10
7.6552256394
 20
3.957762713
 30
0.0
 10
7.6552173992
 20
3.9576359804
 30
0.0
 10
7.6552076525
 20
3.9574724235
 30
0.0
 10
7.6551958047
 20
3.9572729433
 30
0.0
 10
7.6551821043
 20
3.9570372831
 30
0.0
 10
7.6551599055
 20
3.9566510898
 30
0.0
 10
7.6551275508
 20
3.9560785281
 30
0.0
 10
7.6550833344
 20
3.9552839704
 30
0.0
 10
7.655031836
 20
3.954346438
 30
0.0
 10
7.6549731725
 20
3.9532664078
 30
0.0
 10
7.6549074661
 20
3.9520443508
 30
0.0
 10
7.6548056261
 20
3.9501322803
 30
0.0
 10
7.6546616241
 20
3.9473906694
 30
0.0
 10
7.6544699412
 20
3.943681084
 30
0.0
 10
7.6542529719
 20
3.9394151945
 30
0.0
 10
7.654011779
 20
3.9345995309
 30
0.0
 10
7.6537468763
 20
3.9292434054
 30
0.0
 10
7.6534589273
 20
3.9233584169
 30
0.0
 10
7.6531486027
 20
3.9169566236
 30
0.0
 10
7.6528165739
 20
3.9100500831
 30
0.0
 10
7.6523306705
 20
3.8998667844
 30
0.0
 10
7.6516745573
 20
3.8859702176
 30
0.0
 10
7.6508346839
 20
3.8679720324
 30
0.0
 10
7.6499243198
 20
3.84832053
 30
0.0
 10
7.6489490093
 20
3.8271804242
 30
0.0
 10
7.6479145993
 20
3.8047242016
 30
0.0
 10
7.6468277842
 20
3.7811431673
 30
0.0
 10
7.6452990325
 20
3.748087528
 30
0.0
 10
7.6441242253
 20
3.722917679
 30
0.0
 10
7.6433228284
 20
3.7059383183
 30
0.0
  0
SPLINE
  5
574
100
AcDbEntity
  8
0
100
AcDbSpline
 62
7
  6
CONTINUOUS
 70
0
 71
3
 72
35
 73
31
 74
0
 42
0.0000001
 43
0.0000001
 44
0.0000000001
 40
0.0
 40
0.0
 40
0.0
 40
0.0
 40
0.1931682034
 40
0.2879994875
 40
0.3802178459
 40
0.4689248345
 40
0.5532380316
 40
0.63231025
 40
0.7053102978
 40
0.7715158721
 40
0.8302810299
 40
0.856688641
 40
0.8810261301
 40
0.9032291406
 40
0.9232431088
 40
0.9410289066
 40
0.9565487838
 40
0.9697612397
 40
0.9754853266
 40
0.980611776
 40
0.9851334633
 40
0.9890433389
 40
0.9923377575
 40
0.995026123
 40
0.997120885
 40
0.9986346751
 40
0.9991781459
 40
0.99958247
 40
0.9998520368
 40
1.0
 40
1.0
 40
1.0
 40
1.0
 10
7.2029015685
 20
3.7053580163
 30
0.0
 10
7.2044065926
 20
3.7240419251
 30
0.0
 10
7.2064150036
 20
3.7519169275
 30
0.0
 10
7.208960299
 20
3.7887240265
 30
0.0
 10
7.210789509
 20
3.8154200049
 30
0.0
 10
7.2125132946
 20
3.8411001246
 30
0.0
 10
7.2141084837
 20
3.8655103142
 30
0.0
 10
7.2155738409
 20
3.8884015562
 30
0.0
 10
7.2169106488
 20
3.9095403163
 30
0.0
 10
7.2181140666
 20
3.92871304
 30
0.0
 10
7.2190303264
 20
3.9433737081
 30
0.0
 10
7.2196919726
 20
3.9539796164
 30
0.0
 10
7.2201319918
 20
3.9610445793
 30
0.0
 10
7.2205324973
 20
3.9674903822
 30
0.0
 10
7.2208932383
 20
3.9733016748
 30
0.0
 10
7.2212165695
 20
3.9784655304
 30
0.0
 10
7.2215043339
 20
3.9829703238
 30
0.0
 10
7.2217259738
 20
3.9863065126
 30
0.0
 10
7.2218799932
 20
3.9886364228
 30
0.0
 10
7.2219762594
 20
3.9901249876
 30
0.0
 10
7.2220572157
 20
3.991438119
 30
0.0
 10
7.2221213447
 20
3.9925741852
 30
0.0
 10
7.2221667207
 20
3.9935330435
 30
0.0
 10
7.2221988419
 20
3.9943162954
 30
0.0
 10
7.2222240832
 20
3.9949265742
 30
0.0
 10
7.2222450916
 20
3.9953294324
 30
0.0
 10
7.2222663687
 20
3.9955667893
 30
0.0
 10
7.2222826904
 20
3.9956849278
 30
0.0
 10
7.2223002903
 20
3.9957606415
 30
0.0
 10
7.2223189117
 20
3.995800832
 30
0.0
 10
7.22233131
 20
3.9958080729
 30
0.0
  0
LINE
  5
575
100
AcDbEntity
  8
0
100
AcDbLine
 62
7
  6
CONTINUOUS
 10
7.5869896809
 20
3.9805795093
 11
7.5984169145
 21
3.705569654
  0
SPLINE
  5
576
100
AcDbEntity
  8
0
100
AcDbSpline
 62
7
  6
CONTINUOUS
 70
0
 71
3
 72
14
 73
10
 74
0
 42
0.0000001
 43
0.0000001
 44
0.0000000001
 40
0.0
 40
0.0
 40
0.0
 40
0.0
 40
0.1345080296
 40
0.2680559499
 40
0.3996869837
 40
0.5284872985
 40
0.6536109943
 40
0.774243821
 40
1.0
 40
1.0
 40
1.0
 40
1.0
 10
7.5984169145
 20
3.705569654
 30
0.0
 10
7.5986925339
 20
3.6986074278
 30
0.0
 10
7.5992856053
 20
3.6847344001
 30
0.0
 10
7.600245277
 20
3.6640523809
 30
0.0
 10
7.6012001435
 20
3.6436661146
 30
0.0
 10
7.6021199812
 20
3.6237151241
 30
0.0
 10
7.603054442
 20
3.6043349734
 30
0.0
 10
7.6043765968
 20
3.5799461742
 30
0.0
 10
7.6053919667
 20
3.562029836
 30
0.0
 10
7.6058236281
 20
3.5503433605
 30
0.0
  0
SPLINE
  5
577
100
AcDbEntity
  8
0
100
AcDbSpline
 62
7
  6
CONTINUOUS
 70
0
 71
3
 72
11
 73
7
 74
0
 42
0.0000001
 43
0.0000001
 44
0.0000000001
 40
0.0
 40
0.0
 40
0.0
 40
0.0
 40
0.2541746629
 40
0.5089507739
 40
0.7591783458
 40
1.0
 40
1.0
 40
1.0
 40
1.0
 10
7.6336101734
 20
3.5093860722
 30
0.0
 10
7.6313471195
 20
3.5093894409
 30
0.0
 10
7.6268094069
 20
3.5090463444
 30
0.0
 10
7.6201868405
 20
3.5075929532
 30
0.0
 10
7.6139416601
 20
3.5052740934
 30
0.0
 10
7.6100977572
 20
3.5031426177
 30
0.0
 10
7.6083237461
 20
3.5019383181
 30
0.0
  0
LINE
  5
578
100
AcDbEntity
  8
0
100
AcDbLine
 62
7
  6
CONTINUOUS
 10
7.608323837
 20
3.5019347277
 11
7.6058236281
 21
3.5503433605
  0
SPLINE
  5
579
100
AcDbEntity
  8
0
100
AcDbSpline
 62
7
  6
CONTINUOUS
 70
0
 71
3
 72
11
 73
7
 74
0
 42
0.0000001
 43
0.0000001
 44
0.0000000001
 40
0.0
 40
0.0
 40
0.0
 40
0.0
 40
0.2420617953
 40
0.4883939595
 40
0.740912563
 40
1.0
 40
1.0
 40
1.0
 40
1.0
 10
7.1624439489
 20
4.0873408066
 30
0.0
 10
7.1551031869
 20
4.0794739907
 30
0.0
 10
7.1416133361
 20
4.0623296857
 30
0.0
 10
7.1251137535
 20
4.0337282369
 30
0.0
 10
7.1117727811
 20
4.0027243432
 30
0.0
 10
7.1047671778
 20
3.9810582134
 30
0.0
 10
7.1016218259
 20
3.969979442
 30
0.0
  0
SPLINE
  5
57A
100
AcDbEntity
  8
0
100
AcDbSpline
 62
7
  6
CONTINUOUS
 70
0
 71
3
 72
16
 73
12
 74
0
 42
0.0000001
 43
0.0000001
 44
0.0000000001
 40
0.0
 40
0.0
 40
0.0
 40
0.0
 40
0.136303106
 40
0.2680471516
 40
0.3953780763
 40
0.5188850411
 40
0.6395608495
 40
0.6992899661
 40
0.758877499
 40
0.8784565012
 40
1.0
 40
1.0
 40
1.0
 40
1.0
 10
7.0599489968
 20
2.853214707
 30
0.0
 10
7.0613262601
 20
2.8443683446
 30
0.0
 10
7.0644671987
 20
2.8270333847
 30
0.0
 10
7.0707238623
 20
2.8018062555
 30
0.0
 10
7.0786964594
 20
2.7779416812
 30
0.0
 10
7.0885595235
 20
2.7555786398
 30
0.0
 10
7.0985431036
 20
2.7382376723
 30
0.0
 10
7.1076094359
 20
2.725331152
 30
0.0
 10
7.1174207987
 20
2.7130730712
 30
0.0
 10
7.1312161478
 20
2.698861704
 30
0.0
 10
7.1435818299
 20
2.6888988461
 30
0.0
 10
7.1500706503
 20
2.6842479462
 30
0.0
  0
SPLINE
  5
57B
100
AcDbEntity
  8
0
100
AcDbSpline
 62
7
  6
CONTINUOUS
 70
0
 71
3
 72
17
 73
13
 74
0
 42
0.0000001
 43
0.0000001
 44
0.0000000001
 40
0.0
 40
0.0
 40
0.0
 40
0.0
 40
0.0806731077
 40
0.1596609055
 40
0.3139931872
 40
0.3891484696
 40
0.4621815731
 40
0.6003812525
 40
0.7260919361
 40
0.8363278856
 40
0.928430074
 40
1.0
 40
1.0
 40
1.0
 40
1.0
 10
7.6336101734
 20
3.5093860722
 30
0.0
 10
7.6335113517
 20
3.5078314786
 30
0.0
 10
7.6335245896
 20
3.504737975
 30
0.0
 10
7.6342939513
 20
3.4987125225
 30
0.0
 10
7.6359664335
 20
3.4929578771
 30
0.0
 10
7.6381697564
 20
3.487547355
 30
0.0
 10
7.6405106981
 20
3.4825348455
 30
0.0
 10
7.6436301694
 20
3.4768176526
 30
0.0
 10
7.6474960917
 20
3.4707111301
 30
0.0
 10
7.6510878225
 20
3.4654923744
 30
0.0
 10
7.6542024797
 20
3.4612171618
 30
0.0
 10
7.6561176294
 20
3.4587029955
 30
0.0
 10
7.6569610119
 20
3.457608231
 30
0.0
  0
LINE
  5
57C
100
AcDbEntity
  8
0
100
AcDbLine
 62
7
  6
CONTINUOUS
 10
7.6569610119
 20
3.457608231
 11
7.6593929377
 21
3.4544969198
  0
LINE
  5
57D
100
AcDbEntity
  8
0
100
AcDbLine
 62
7
  6
CONTINUOUS
 10
7.6362460621
 20
3.5571562108
 11
7.6336101734
 21
3.5093860722
  0
LINE
  5
57E
100
AcDbEntity
  8
0
100
AcDbLine
 62
7
  6
CONTINUOUS
 10
7.643322833
 20
3.7059383179
 11
7.6362460592
 21
3.5571562119
  0
SPLINE
  5
57F
100
AcDbEntity
  8
0
100
AcDbSpline
 62
7
  6
CONTINUOUS
 70
0
 71
3
 72
11
 73
7
 74
0
 42
0.0000001
 43
0.0000001
 44
0.0000000001
 40
0.0
 40
0.0
 40
0.0
 40
0.0
 40
0.2587436035
 40
0.5159895811
 40
0.7651506036
 40
1.0
 40
1.0
 40
1.0
 40
1.0
 10
7.6362460572
 20
3.5571561023
 30
0.0
 10
7.6335328569
 20
3.5571920379
 30
0.0
 10
7.6281132416
 20
3.5569308142
 30
0.0
 10
7.620177447
 20
3.5556361547
 30
0.0
 10
7.6126837289
 20
3.5535058483
 30
0.0
 10
7.6080001395
 20
3.5514960521
 30
0.0
 10
7.6058236162
 20
3.550343478
 30
0.0
  0
SPLINE
  5
580
100
AcDbEntity
  8
0
100
AcDbSpline
 62
7
  6
CONTINUOUS
 70
0
 71
3
 72
11
 73
7
 74
0
 42
0.0000001
 43
0.0000001
 44
0.0000000001
 40
0.0
 40
0.0
 40
0.0
 40
0.0
 40
0.2250286089
 40
0.47261837
 40
0.7342314562
 40
1.0
 40
1.0
 40
1.0
 40
1.0
 10
7.5984169141
 20
3.7055694552
 30
0.0
 10
7.6017796636
 20
3.7057864014
 30
0.0
 10
7.6088505624
 20
3.7061167367
 30
0.0
 10
7.6198443315
 20
3.7063368895
 30
0.0
 10
7.6314502098
 20
3.7062866434
 30
0.0
 10
7.6393456696
 20
3.7060835412
 30
0.0
 10
7.6433228399
 20
3.7059386305
 30
0.0
  0
SPLINE
  5
581
100
AcDbEntity
  8
0
100
AcDbSpline
 62
7
  6
CONTINUOUS
 70
0
 71
3
 72
26
 73
22
 74
0
 42
0.0000001
 43
0.0000001
 44
0.0000000001
 40
0.0
 40
0.0
 40
0.0
 40
0.0
 40
0.1800090156
 40
0.3610668184
 40
0.5337186699
 40
0.6140217926
 40
0.6890552618
 40
0.7579328866
 40
0.8197347744
 40
0.8735134074
 40
0.9183640254
 40
0.9372743924
 40
0.9537840574
 40
0.9678497313
 40
0.9794278253
 40
0.988474497
 40
0.994945766
 40
0.9972019897
 40
0.9987981699
 40
0.9997297312
 40
1.0
 40
1.0
 40
1.0
 40
1.0
 10
7.617527289
 20
3.4532858363
 30
0.0
 10
7.6193436405
 20
3.4535138343
 30
0.0
 10
7.623006842
 20
3.4538196048
 30
0.0
 10
7.6284367292
 20
3.4539131317
 30
0.0
 10
7.6328495947
 20
3.4537145393
 30
0.0
 10
7.6361697211
 20
3.4533893265
 30
0.0
 10
7.6384315456
 20
3.4530983073
 30
0.0
 10
7.6404987494
 20
3.4527757461
 30
0.0
 10
7.6423450664
 20
3.4524433215
 30
0.0
 10
7.6439447192
 20
3.4521221236
 30
0.0
 10
7.6451129449
 20
3.4518687447
 30
0.0
 10
7.6459085925
 20
3.451686329
 30
0.0
 10
7.6463982933
 20
3.4515700208
 30
0.0
 10
7.64681435
 20
3.451467623
 30
0.0
 10
7.6471567465
 20
3.451380189
 30
0.0
 10
7.6474215436
 20
3.4513096603
 30
0.0
 10
7.6475987354
 20
3.4512603053
 30
0.0
 10
7.6476952223
 20
3.4512313257
 30
0.0
 10
7.64774829
 20
3.4512150291
 30
0.0
 10
7.6477637924
 20
3.451208363
 30
0.0
 10
7.6477858892
 20
3.4512008011
 30
0.0
 10
7.6477835598
 20
3.4511993424
 30
0.0
  0
SPLINE
  5
582
100
AcDbEntity
  8
0
100
AcDbSpline
 62
7
  6
CONTINUOUS
 70
0
 71
3
 72
11
 73
7
 74
0
 42
0.0000001
 43
0.0000001
 44
0.0000000001
 40
0.0
 40
0.0
 40
0.0
 40
0.0
 40
0.4620315884
 40
0.5958344691
 40
0.7329300204
 40
1.0
 40
1.0
 40
1.0
 40
1.0
 10
7.6199066222
 20
3.4470841782
 30
0.0
 10
7.6189286506
 20
3.4475827775
 30
0.0
 10
7.6178760669
 20
3.4487582754
 30
0.0
 10
7.6173787706
 20
3.4504298812
 30
0.0
 10
7.6172216386
 20
3.4517022245
 30
0.0
 10
7.6173308382
 20
3.4526824768
 30
0.0
 10
7.6175272853
 20
3.4532858317
 30
0.0
  0
SPLINE
  5
583
100
AcDbEntity
  8
0
100
AcDbSpline
 62
7
  6
CONTINUOUS
 70
0
 71
3
 72
12
 73
8
 74
0
 42
0.0000001
 43
0.0000001
 44
0.0000000001
 40
0.0
 40
0.0
 40
0.0
 40
0.0
 40
0.2725349887
 40
0.4110206895
 40
0.5448684122
 40
0.7891685577
 40
1.0
 40
1.0
 40
1.0
 40
1.0
 10
7.1736811809
 20
3.453285837
 30
0.0
 10
7.1738773047
 20
3.4526679882
 30
0.0
 10
7.1739798817
 20
3.4516686135
 30
0.0
 10
7.1738137877
 20
3.4503810412
 30
0.0
 10
7.1734582013
 20
3.4491974238
 30
0.0
 10
7.1726754205
 20
3.4479976763
 30
0.0
 10
7.1718057955
 20
3.4473165728
 30
0.0
 10
7.1713614189
 20
3.4470841978
 30
0.0
  0
SPLINE
  5
584
100
AcDbEntity
  8
0
100
AcDbSpline
 62
7
  6
CONTINUOUS
 70
0
 71
3
 72
11
 73
7
 74
0
 42
0.0000001
 43
0.0000001
 44
0.0000000001
 40
0.0
 40
0.0
 40
0.0
 40
0.0
 40
0.2162798774
 40
0.4574398749
 40
0.719396523
 40
1.0
 40
1.0
 40
1.0
 40
1.0
 10
7.6175274551
 20
3.453285833
 30
0.0
 10
7.6159570044
 20
3.4565460976
 30
0.0
 10
7.6129262406
 20
3.4635875187
 30
0.0
 10
7.6093801133
 20
3.4751234538
 30
0.0
 10
7.607361453
 20
3.4881350654
 30
0.0
 10
7.6076564843
 20
3.4972872757
 30
0.0
 10
7.6083233378
 20
3.5019347277
 30
0.0
  0
SPLINE
  5
585
100
AcDbEntity
  8
0
100
AcDbSpline
 62
7
  6
CONTINUOUS
 70
0
 71
3
 72
15
 73
11
 74
0
 42
0.0000001
 43
0.0000001
 44
0.0000000001
 40
0.0
 40
0.0
 40
0.0
 40
0.0
 40
0.1208872475
 40
0.2399068042
 40
0.3587732723
 40
0.4792417999
 40
0.6028242642
 40
0.7305213338
 40
0.8628612208
 40
1.0
 40
1.0
 40
1.0
 40
1.0
 10
7.6356450511
 20
2.6843031791
 30
0.0
 10
7.6420989333
 20
2.6889315513
 30
0.0
 10
7.6543957638
 20
2.6988607179
 30
0.0
 10
7.6708286179
 20
2.7158392282
 30
0.0
 10
7.6850133044
 20
2.7347039241
 30
0.0
 10
7.696989152
 20
2.7553825718
 30
0.0
 10
7.7068346186
 20
2.7777797078
 30
0.0
 10
7.7147914576
 20
2.8017252687
 30
0.0
 10
7.7210770657
 20
2.8270716902
 30
0.0
 10
7.7242424681
 20
2.844501497
 30
0.0
 10
7.7256299973
 20
2.8534036317
 30
0.0
  0
SPLINE
  5
586
100
AcDbEntity
  8
0
100
AcDbSpline
 62
7
  6
CONTINUOUS
 70
0
 71
3
 72
11
 73
7
 74
0
 42
0.0000001
 43
0.0000001
 44
0.0000000001
 40
0.0
 40
0.0
 40
0.0
 40
0.0
 40
0.2791530233
 40
0.541315395
 40
0.7830665881
 40
1.0
 40
1.0
 40
1.0
 40
1.0
 10
7.1840951119
 20
3.5019382617
 30
0.0
 10
7.1848025141
 20
3.4972749631
 30
0.0
 10
7.1851930533
 20
3.4880538751
 30
0.0
 10
7.1830822073
 20
3.4749180107
 30
0.0
 10
7.1791018809
 20
3.4633543034
 30
0.0
 10
7.1755528022
 20
3.4564373285
 30
0.0
 10
7.1736811793
 20
3.4532858285
 30
0.0
  0
LINE
  5
587
100
AcDbEntity
  8
0
100
AcDbLine
 62
7
  6
CONTINUOUS
 10
7.1347385559
 20
3.4497041142
 11
7.1368102927
 21
3.4503765104
  0
SPLINE
  5
588
100
AcDbEntity
  8
0
100
AcDbSpline
 62
7
  6
CONTINUOUS
 70
0
 71
3
 72
12
 73
8
 74
0
 42
0.0000001
 43
0.0000001
 44
0.0000000001
 40
0.0
 40
0.0
 40
0.0
 40
0.0
 40
0.1672623471
 40
0.2826859764
 40
0.4129969771
 40
0.7007627157
 40
1.0
 40
1.0
 40
1.0
 40
1.0
 10
7.1368102927
 20
3.4503765104
 30
0.0
 10
7.1387950983
 20
3.4509788094
 30
0.0
 10
7.1422049238
 20
3.4518164271
 30
0.0
 10
7.1472416235
 20
3.4527486486
 30
0.0
 10
7.1538014188
 20
3.45363539
 30
0.0
 10
7.162707151
 20
3.4540187937
 30
0.0
 10
7.1699883083
 20
3.4536498073
 30
0.0
 10
7.1736811821
 20
3.4532858365
 30
0.0
  0
SPLINE
  5
589
100
AcDbEntity
  8
0
100
AcDbSpline
 62
7
  6
CONTINUOUS
 70
0
 71
3
 72
10
 73
6
 74
0
 42
0.0000001
 43
0.0000001
 44
0.0000000001
 40
0.0
 40
0.0
 40
0.0
 40
0.0
 40
0.2438698236
 40
0.4937161557
 40
1.0
 40
1.0
 40
1.0
 40
1.0
 10
7.1624439489
 20
4.0873408066
 30
0.0
 10
7.165061858
 20
4.0786672794
 30
0.0
 10
7.169915018
 20
4.060970995
 30
0.0
 10
7.1783002637
 20
4.0247722227
 30
0.0
 10
7.1833264321
 20
3.9971172744
 30
0.0
 10
7.1863361262
 20
3.9785507067
 30
0.0
  0
LINE
  5
58A
100
AcDbEntity
  8
0
100
AcDbLine
 62
7
  6
CONTINUOUS
 10
6.7403317299
 20
3.7644097181
 11
6.7404260469
 21
3.7597277666
  0
SPLINE
  5
58B
100
AcDbEntity
  8
0
100
AcDbSpline
 62
7
  6
CONTINUOUS
 70
0
 71
3
 72
13
 73
9
 74
0
 42
0.0000001
 43
0.0000001
 44
0.0000000001
 40
0.0
 40
0.0
 40
0.0
 40
0.0
 40
0.3760695876
 40
0.6655335825
 40
0.7766444297
 40
0.8662883392
 40
0.9382826841
 40
1.0
 40
1.0
 40
1.0
 40
1.0
 10
6.7404260469
 20
3.7597277666
 30
0.0
 10
6.7404778362
 20
3.7592310848
 30
0.0
 10
6.7406022651
 20
3.7583554708
 30
0.0
 10
6.7408623989
 20
3.7573517081
 30
0.0
 10
6.7411326052
 20
3.7567572878
 30
0.0
 10
6.7413374991
 20
3.7564557316
 30
0.0
 10
6.741564663
 20
3.7562572624
 30
0.0
 10
6.7417403219
 20
3.7562008441
 30
0.0
 10
6.7418221051
 20
3.7561955707
 30
0.0
  0
SPLINE
  5
58C
100
AcDbEntity
  8
0
100
AcDbSpline
 62
7
  6
CONTINUOUS
 70
0
 71
3
 72
13
 73
9
 74
0
 42
0.0000001
 43
0.0000001
 44
0.0000000001
 40
0.0
 40
0.0
 40
0.0
 40
0.0
 40
0.3933100184
 40
0.6962973318
 40
0.8081686197
 40
0.8931774771
 40
0.95427318
 40
1.0
 40
1.0
 40
1.0
 40
1.0
 10
6.7403317299
 20
3.8120808057
 30
0.0
 10
6.7402982445
 20
3.8114633594
 30
0.0
 10
6.7402708554
 20
3.810368528
 30
0.0
 10
6.7403401655
 20
3.8090963344
 30
0.0
 10
6.7404868734
 20
3.8083221411
 30
0.0
 10
6.7406191394
 20
3.8079376444
 30
0.0
 10
6.7407804522
 20
3.8076755421
 30
0.0
 10
6.7409417038
 20
3.8075915765
 30
0.0
 10
6.7410133991
 20
3.8075862793
 30
0.0
  0
SPLINE
  5
58D
100
AcDbEntity
  8
0
100
AcDbSpline
 62
7
  6
CONTINUOUS
 70
0
 71
3
 72
13
 73
9
 74
0
 42
0.0000001
 43
0.0000001
 44
0.0000000001
 40
0.0
 40
0.0
 40
0.0
 40
0.0
 40
0.4123099777
 40
0.5776890809
 40
0.7152583024
 40
0.8248393638
 40
0.9068653967
 40
1.0
 40
1.0
 40
1.0
 40
1.0
 10
6.7403317299
 20
3.8435926618
 30
0.0
 10
6.7403124254
 20
3.8433572236
 30
0.0
 10
6.7402912983
 20
3.8430268377
 30
0.0
 10
6.7402896441
 20
3.8426164532
 30
0.0
 10
6.7402997333
 20
3.8423812182
 30
0.0
 10
6.7403248019
 20
3.8421910429
 30
0.0
 10
6.7403577066
 20
3.8420396078
 30
0.0
 10
6.7404255276
 20
3.8419308179
 30
0.0
 10
6.7404787939
 20
3.841927649
 30
0.0
  0
SPLINE
  5
58E
100
AcDbEntity
  8
0
100
AcDbSpline
 62
7
  6
CONTINUOUS
 70
0
 71
3
 72
19
 73
15
 74
0
 42
0.0000001
 43
0.0000001
 44
0.0000000001
 40
0.0
 40
0.0
 40
0.0
 40
0.0
 40
0.1787097419
 40
0.359015478
 40
0.5303320204
 40
0.6840167155
 40
0.8127166269
 40
0.8656819594
 40
0.910268167
 40
0.9459595135
 40
0.9723550824
 40
0.9820771135
 40
0.9896655541
 40
1.0
 40
1.0
 40
1.0
 40
1.0
 10
6.7301202463
 20
3.7771951039
 30
0.0
 10
6.7300272064
 20
3.7764763204
 30
0.0
 10
6.7298587112
 20
3.7750299093
 30
0.0
 10
6.7296570056
 20
3.7728883958
 30
0.0
 10
6.7295139365
 20
3.7708437983
 30
0.0
 10
6.7294369172
 20
3.7690051693
 30
0.0
 10
6.7294274838
 20
3.7676445537
 30
0.0
 10
6.7294624249
 20
3.7667274949
 30
0.0
 10
6.7295034074
 20
3.7661884341
 30
0.0
 10
6.7295610169
 20
3.7657594331
 30
0.0
 10
6.7296234733
 20
3.765474264
 30
0.0
 10
6.7296894071
 20
3.7653083384
 30
0.0
 10
6.7297434318
 20
3.7652119583
 30
0.0
 10
6.7298093267
 20
3.765159855
 30
0.0
 10
6.7298512126
 20
3.7651583593
 30
0.0
  0
SPLINE
  5
58F
100
AcDbEntity
  8
0
100
AcDbSpline
 62
7
  6
CONTINUOUS
 70
0
 71
3
 72
12
 73
8
 74
0
 42
0.0000001
 43
0.0000001
 44
0.0000000001
 40
0.0
 40
0.0
 40
0.0
 40
0.0
 40
0.3426970885
 40
0.5044040909
 40
0.6516082728
 40
0.8801232789
 40
1.0
 40
1.0
 40
1.0
 40
1.0
 10
7.6199066239
 20
3.4470841762
 30
0.0
 10
7.6229590626
 20
3.4470842172
 30
0.0
 10
7.6274541029
 20
3.4467972308
 30
0.0
 10
7.6332105244
 20
3.4460538167
 30
0.0
 10
7.6379323027
 20
3.4452593688
 30
0.0
 10
7.642244037
 20
3.4442961729
 30
0.0
 10
7.6452268124
 20
3.4434313909
 30
0.0
 10
7.6462379057
 20
3.4430881853
 30
0.0
  0
SPLINE
  5
590
100
AcDbEntity
  8
0
100
AcDbSpline
 62
7
  6
CONTINUOUS
 70
0
 71
3
 72
10
 73
6
 74
0
 42
0.0000001
 43
0.0000001
 44
0.0000000001
 40
0.0
 40
0.0
 40
0.0
 40
0.0
 40
0.1904492258
 40
0.4284877337
 40
1.0
 40
1.0
 40
1.0
 40
1.0
 10
6.7301202463
 20
3.7142700313
 30
0.0
 10
6.730012857
 20
3.713821955
 30
0.0
 10
6.7298323647
 20
3.7127995278
 30
0.0
 10
6.729555335
 20
3.7103956213
 30
0.0
 10
6.7294658256
 20
3.7084362061
 30
0.0
 10
6.7294421889
 20
3.7070537133
 30
0.0
  0
LINE
  5
591
100
AcDbEntity
  8
0
100
AcDbLine
 62
7
  6
CONTINUOUS
 10
7.1374305926
 20
3.4414072632
 11
7.1391146315
 21
3.4420736762
  0
SPLINE
  5
592
100
AcDbEntity
  8
0
100
AcDbSpline
 62
7
  6
CONTINUOUS
 70
0
 71
3
 72
11
 73
7
 74
0
 42
0.0000001
 43
0.0000001
 44
0.0000000001
 40
0.0
 40
0.0
 40
0.0
 40
0.0
 40
0.1825483253
 40
0.4230469026
 40
0.702422722
 40
1.0
 40
1.0
 40
1.0
 40
1.0
 10
7.1412689794
 20
3.442818896
 30
0.0
 10
7.1430342161
 20
3.443391452
 30
0.0
 10
7.1471835208
 20
3.4445432792
 30
0.0
 10
7.1542092711
 20
3.4458615086
 30
0.0
 10
7.1624690423
 20
3.4468248913
 30
0.0
 10
7.1683362851
 20
3.4470841997
 30
0.0
 10
7.1713614287
 20
3.4470842035
 30
0.0
  0
LINE
  5
593
100
AcDbEntity
  8
0
100
AcDbLine
 62
7
  6
CONTINUOUS
 10
6.7316232311
 20
3.6274449301
 11
6.7319033541
 21
3.6271435266
  0
SPLINE
  5
594
100
AcDbEntity
  8
0
100
AcDbSpline
 62
7
  6
CONTINUOUS
 70
0
 71
3
 72
17
 73
13
 74
0
 42
0.0000001
 43
0.0000001
 44
0.0000000001
 40
0.0
 40
0.0
 40
0.0
 40
0.0
 40
0.1501761767
 40
0.3147594772
 40
0.4804064885
 40
0.6359203674
 40
0.7714454174
 40
0.829318313
 40
0.8794456469
 40
0.9213272873
 40
0.9549614585
 40
1.0
 40
1.0
 40
1.0
 40
1.0
 10
6.7403317299
 20
3.6509750213
 30
0.0
 10
6.7402868487
 20
3.6501339364
 30
0.0
 10
6.7402756892
 20
3.6483665982
 30
0.0
 10
6.7404253204
 20
3.6456750078
 30
0.0
 10
6.7407379918
 20
3.6429669462
 30
0.0
 10
6.7411841406
 20
3.6404430447
 30
0.0
 10
6.7416632077
 20
3.638543161
 30
0.0
 10
6.7421005317
 20
3.6372477617
 30
0.0
 10
6.7424202253
 20
3.6364712065
 30
0.0
 10
6.7427511056
 20
3.6358419569
 30
0.0
 10
6.7431281973
 20
3.635297414
 30
0.0
 10
6.7435130492
 20
3.634974728
 30
0.0
 10
6.7437652797
 20
3.6349609929
 30
0.0
  0
SPLINE
  5
595
100
AcDbEntity
  8
0
100
AcDbSpline
 62
7
  6
CONTINUOUS
 70
0
 71
3
 72
18
 73
14
 74
0
 42
0.0000001
 43
0.0000001
 44
0.0000000001
 40
0.0
 40
0.0
 40
0.0
 40
0.0
 40
0.0529805664
 40
0.11613781
 40
0.2650338679
 40
0.4306131553
 40
0.5967267683
 40
0.748110611
 40
0.8711551982
 40
0.9189044192
 40
0.9561406251
 40
0.9827087526
 40
1.0
 40
1.0
 40
1.0
 40
1.0
 10
6.7403317299
 20
3.6024808164
 30
0.0
 10
6.74030424
 20
3.6021331658
 30
0.0
 10
6.7402803428
 20
3.6013682861
 30
0.0
 10
6.7403203612
 20
3.5996237758
 30
0.0
 10
6.7405361487
 20
3.5971449971
 30
0.0
 10
6.7409891436
 20
3.5940130336
 30
0.0
 10
6.7416070002
 20
3.590892072
 30
0.0
 10
6.7423235677
 20
3.5880812813
 30
0.0
 10
6.7429901131
 20
3.5860634921
 30
0.0
 10
6.7435390683
 20
3.584808799
 30
0.0
 10
6.7439014518
 20
3.5841656236
 30
0.0
 10
6.744225375
 20
3.5837446255
 30
0.0
 10
6.7444900869
 20
3.5835799173
 30
0.0
 10
6.7446036969
 20
3.5835730603
 30
0.0
  0
SPLINE
  5
596
100
AcDbEntity
  8
0
100
AcDbSpline
 62
7
  6
CONTINUOUS
 70
0
 71
3
 72
24
 73
20
 74
0
 42
0.0000001
 43
0.0000001
 44
0.0000000001
 40
0.0
 40
0.0
 40
0.0
 40
0.0
 40
0.0115136577
 40
0.0270879328
 40
0.0697867739
 40
0.126540518
 40
0.1953450088
 40
0.2736626018
 40
0.3588712673
 40
0.5387414612
 40
0.6275612861
 40
0.7119571799
 40
0.789426308
 40
0.8575061456
 40
0.9141020496
 40
0.9574264427
 40
0.985945554
 40
0.9945996465
 40
1.0
 40
1.0
 40
1.0
 40
1.0
 10
6.7403317299
 20
3.5697370784
 30
0.0
 10
6.7403145136
 20
3.5696574111
 30
0.0
 10
6.7402942237
 20
3.5694659426
 30
0.0
 10
6.7402842679
 20
3.5689719752
 30
0.0
 10
6.7403360063
 20
3.568158121
 30
0.0
 10
6.7404687269
 20
3.5669744513
 30
0.0
 10
6.7406794457
 20
3.565546337
 30
0.0
 10
6.7409581962
 20
3.5639253528
 30
0.0
 10
6.741418559
 20
3.5615382707
 30
0.0
 10
6.7419564261
 20
3.5590908615
 30
0.0
 10
6.742550774
 20
3.5566629238
 30
0.0
 10
6.7430029164
 20
3.5549468033
 30
0.0
 10
6.7434478621
 20
3.5533807245
 30
0.0
 10
6.7438721324
 20
3.5520143157
 30
0.0
 10
6.7442614237
 20
3.5508889964
 30
0.0
 10
6.7446002391
 20
3.5500477674
 30
0.0
 10
6.7448584781
 20
3.5495324282
 30
0.0
 10
6.7450430094
 20
3.5492971102
 30
0.0
 10
6.7451315114
 20
3.5492370489
 30
0.0
 10
6.745169562
 20
3.5492333534
 30
0.0
  0
SPLINE
  5
597
100
AcDbEntity
  8
0
100
AcDbSpline
 62
7
  6
CONTINUOUS
 70
0
 71
3
 72
11
 73
7
 74
0
 42
0.0000001
 43
0.0000001
 44
0.0000000001
 40
0.0
 40
0.0
 40
0.0
 40
0.0
 40
0.285523079
 40
0.5610200519
 40
0.8037326388
 40
1.0
 40
1.0
 40
1.0
 40
1.0
 10
6.740288913
 20
3.7059383181
 30
0.0
 10
6.7402539991
 20
3.7051148903
 30
0.0
 10
6.7402866594
 20
3.7034921449
 30
0.0
 10
6.7405348744
 20
3.7011834771
 30
0.0
 10
6.7408922506
 20
3.6991513864
 30
0.0
 10
6.7412123562
 20
3.6979217324
 30
0.0
 10
6.7413998654
 20
3.6973871336
 30
0.0
  0
SPLINE
  5
598
100
AcDbEntity
  8
0
100
AcDbSpline
 62
7
  6
CONTINUOUS
 70
0
 71
3
 72
11
 73
7
 74
0
 42
0.0000001
 43
0.0000001
 44
0.0000000001
 40
0.0
 40
0.0
 40
0.0
 40
0.0
 40
0.3482313324
 40
0.6241364754
 40
0.8346110948
 40
1.0
 40
1.0
 40
1.0
 40
1.0
 10
6.7413998654
 20
3.6973871336
 30
0.0
 10
6.7414912035
 20
3.6971267237
 30
0.0
 10
6.7416739862
 20
3.6966656714
 30
0.0
 10
6.7420071114
 20
3.6960906326
 30
0.0
 10
6.7423658849
 20
3.6957084947
 30
0.0
 10
6.7426569314
 20
3.6955908222
 30
0.0
 10
6.7427877706
 20
3.695583114
 30
0.0
  0
SPLINE
  5
599
100
AcDbEntity
  8
0
100
AcDbSpline
 62
7
  6
CONTINUOUS
 70
0
 71
3
 72
12
 73
8
 74
0
 42
0.0000001
 43
0.0000001
 44
0.0000000001
 40
0.0
 40
0.0
 40
0.0
 40
0.0
 40
0.3178920633
 40
0.6082441631
 40
0.8419290851
 40
0.9313140744
 40
1.0
 40
1.0
 40
1.0
 40
1.0
 10
6.7294326191
 20
3.7059383181
 30
0.0
 10
6.7294325788
 20
3.7049549417
 30
0.0
 10
6.7294747136
 20
3.703072936
 30
0.0
 10
6.7296546968
 20
3.7004742052
 30
0.0
 10
6.7299002636
 20
3.6985894869
 30
0.0
 10
6.7301604454
 20
3.6974054138
 30
0.0
 10
6.7303069313
 20
3.6969372372
 30
0.0
 10
6.730388282
 20
3.6967409525
 30
0.0
  0
LINE
  5
59A
100
AcDbEntity
  8
0
100
AcDbLine
 62
7
  6
CONTINUOUS
 10
6.730388282
 20
3.6967409525
 11
6.7306435469
 21
3.6962953576
  0
SPLINE
  5
59B
100
AcDbEntity
  8
0
100
AcDbSpline
 62
7
  6
CONTINUOUS
 70
0
 71
3
 72
16
 73
12
 74
0
 42
0.0000001
 43
0.0000001
 44
0.0000000001
 40
0.0
 40
0.0
 40
0.0
 40
0.0
 40
0.0462327101
 40
0.0776647121
 40
0.1156770447
 40
0.2117581886
 40
0.3336281274
 40
0.4783054446
 40
0.6412867957
 40
0.8176004583
 40
1.0
 40
1.0
 40
1.0
 40
1.0
 10
6.7437654544
 20
3.776916671
 30
0.0
 10
6.7435891514
 20
3.7769074093
 30
0.0
 10
6.7433099204
 20
3.7767422134
 30
0.0
 10
6.7430169738
 20
3.7764162724
 30
0.0
 10
6.74265857
 20
3.7758915807
 30
0.0
 10
6.7422370761
 20
3.7750060955
 30
0.0
 10
6.7417763798
 20
3.7736986307
 30
0.0
 10
6.7413513985
 20
3.7721131142
 30
0.0
 10
6.7409756418
 20
3.7703027589
 30
0.0
 10
6.7406694965
 20
3.7683335242
 30
0.0
 10
6.7405190937
 20
3.7669714997
 30
0.0
 10
6.740457819
 20
3.766277682
 30
0.0
  0
SPLINE
  5
59C
100
AcDbEntity
  8
0
100
AcDbSpline
 62
7
  6
CONTINUOUS
 70
0
 71
3
 72
11
 73
7
 74
0
 42
0.0000001
 43
0.0000001
 44
0.0000000001
 40
0.0
 40
0.0
 40
0.0
 40
0.0
 40
0.2425040442
 40
0.4930349098
 40
0.7471149953
 40
1.0
 40
1.0
 40
1.0
 40
1.0
 10
7.1840951051
 20
3.5019383181
 30
0.0
 10
7.1817199821
 20
3.5035388833
 30
0.0
 10
7.1765724611
 20
3.5063355115
 30
0.0
 10
7.168210243
 20
3.5092538724
 30
0.0
 10
7.1593844581
 20
3.5109043265
 30
0.0
 10
7.1533696163
 20
3.5110945529
 30
0.0
 10
7.1503870742
 20
3.5109370985
 30
0.0
  0
SPLINE
  5
59D
100
AcDbEntity
  8
0
100
AcDbSpline
 62
7
  6
CONTINUOUS
 70
0
 71
3
 72
20
 73
16
 74
0
 42
0.0000001
 43
0.0000001
 44
0.0000000001
 40
0.0
 40
0.0
 40
0.0
 40
0.0
 40
0.0047365029
 40
0.0118072072
 40
0.0342666193
 40
0.0680968104
 40
0.1128243584
 40
0.1673636808
 40
0.2304915287
 40
0.3009560341
 40
0.3773123269
 40
0.5411363743
 40
0.7087029157
 40
0.8663160992
 40
1.0
 40
1.0
 40
1.0
 40
1.0
 10
6.7451687571
 20
3.8626400593
 30
0.0
 10
6.7451394506
 20
3.8626381297
 30
0.0
 10
6.7450710021
 20
3.8626011683
 30
0.0
 10
6.7449277374
 20
3.8624446107
 30
0.0
 10
6.7447312893
 20
3.8620995733
 30
0.0
 10
6.7444745604
 20
3.8615294642
 30
0.0
 10
6.7441804858
 20
3.860757303
 30
0.0
 10
6.7438554487
 20
3.8598043542
 30
0.0
 10
6.7435077815
 20
3.8586906076
 30
0.0
 10
6.7431455915
 20
3.8574401119
 30
0.0
 10
6.7426416538
 20
3.8555808799
 30
0.0
 10
6.742034326
 20
3.8531262184
 30
0.0
 10
6.741382079
 20
3.8501646366
 30
0.0
 10
6.7408449629
 20
3.8473701968
 30
0.0
 10
6.740563088
 20
3.8455853399
 30
0.0
 10
6.7404579881
 20
3.8447630876
 30
0.0
  0
LINE
  5
59E
100
AcDbEntity
  8
0
100
AcDbLine
 62
7
  6
CONTINUOUS
 10
6.7404579881
 20
3.8447630876
 11
6.7403317299
 21
3.8435926618
  0
SPLINE
  5
59F
100
AcDbEntity
  8
0
100
AcDbSpline
 62
7
  6
CONTINUOUS
 70
0
 71
3
 72
22
 73
18
 74
0
 42
0.0000001
 43
0.0000001
 44
0.0000000001
 40
0.0
 40
0.0
 40
0.0
 40
0.0
 40
0.0122463102
 40
0.0232497537
 40
0.0379722362
 40
0.0563947794
 40
0.0783851295
 40
0.1324109053
 40
0.1986163735
 40
0.2748935738
 40
0.4471527351
 40
0.6271240479
 40
0.7918446056
 40
0.8621504744
 40
0.9213569633
 40
0.9677715302
 40
1.0
 40
1.0
 40
1.0
 40
1.0
 10
6.729851345
 20
3.6467197383
 30
0.0
 10
6.7297717666
 20
3.6467128605
 30
0.0
 10
6.7296748876
 20
3.6465484498
 30
0.0
 10
6.7296073046
 20
3.6463240445
 30
0.0
 10
6.7295497236
 20
3.6460365282
 30
0.0
 10
6.7295052024
 20
3.6456813262
 30
0.0
 10
6.7294550099
 20
3.6450664532
 30
0.0
 10
6.7294276598
 20
3.6441392248
 30
0.0
 10
6.7294403227
 20
3.6428572117
 30
0.0
 10
6.7295208774
 20
3.6408057761
 30
0.0
 10
6.7297294189
 20
3.638017713
 30
0.0
 10
6.7301026439
 20
3.6346661827
 30
0.0
 10
6.7304998234
 20
3.6319875828
 30
0.0
 10
6.7308562363
 20
3.6301017959
 30
0.0
 10
6.7311085997
 20
3.628981671
 30
0.0
 10
6.7313512148
 20
3.6281164083
 30
0.0
 10
6.7315270659
 20
3.6276318498
 30
0.0
 10
6.7316232311
 20
3.6274449301
 30
0.0
  0
ENDSEC
  0
SECTION
  2
OBJECTS
  0
DICTIONARY
  5
C
100
AcDbDictionary
280
0
281
1
  3
ACAD_GROUP
350
D
  3
ACAD_MLINESTYLE
350
17
  3
ACAD_LAYOUT
350
1A
  3
ACAD_PLOTSETTINGS
350
19
  3
ACAD_PLOTSTYLENAME
350
E
  0
DICTIONARY
  5
D
102
{ACAD_REACTORS
330
C
102
}
100
AcDbDictionary
280
0
281
1
  0
ACDBDICTIONARYWDFLT
  5
E
102
{ACAD_REACTORS
330
C
102
}
100
AcDbDictionary
281
1
  3
Normal
350
F
100
AcDbDictionaryWithDefault
340
F
  0
DICTIONARY
  5
17
102
{ACAD_REACTORS
330
C
102
}
100
AcDbDictionary
280
0
281
1
  3
Standard
350
18
  0
DICTIONARY
  5
19
102
{ACAD_REACTORS
330
C
102
}
100
AcDbDictionary
281
1
  0
DICTIONARY
  5
1A
102
{ACAD_REACTORS
330
C
102
}
100
AcDbDictionary
281
1
  3
Model
350
5A0
  3
Layout1
350
5A1
  0
ACDBPLACEHOLDER
  5
F
102
{ACAD_REACTORS
330
E
102
}
  0
MLINESTYLE
  5
18
102
{ACAD_REACTORS
330
17
102
}
100
AcDbMlineStyle
  2
STANDARD
 70
0
  3

 62
256
 51
90.0
 52
90.0
 71
2
 49
0.5
 62
256
  6
BYLAYER
 49
-0.5
 62
256
  6
BYLAYER
  0
LAYOUT
  5
5A0
102
{ACAD_REACTORS
330
1A
102
}
100
AcDbPlotSettings
  1

  2
none_device
  4
ANSI_A_(11.00_x_8.50_Inches)
  6

 40
0.0
 41
0.0
 42
0.0
 43
0.0
 44
279.4
 45
215.9
 46
0.0
 47
0.0
 48
0.0
 49
0.0
140
0.0
141
0.0
142
1.0
143
1.0
 70
1024
 72
0
 73
0
 74
0
  7

 75
0
147
1.0
148
0.0
149
0.0
100
AcDbLayout
  1
Model
 70
0
 71
0
 10
0.0
 20
0.0
 11
11.0
 21
8.5
 12
0.0
 22
0.0
 32
0.0
 14
0.0
 24
0.0
 34
0.0
 15
0.0
 25
0.0
 35
0.0
146
0.0
 13
0.0
 23
0.0
 33
0.0
 16
1.0
 26
0.0
 36
0.0
 17
0.0
 27
1.0
 37
0.0
 76
0
330
22E
345
0
346
0
  0
LAYOUT
  5
5A1
102
{ACAD_REACTORS
330
1A
102
}
100
AcDbPlotSettings
  1

  2
none_device
  4
ANSI_A_(11.00_x_8.50_Inches)
  6

 40
0.0
 41
0.0
 42
0.0
 43
0.0
 44
279.4
 45
215.9
 46
0.0
 47
0.0
 48
0.0
 49
0.0
140
0.0
141
0.0
142
1.0
143
1.0
 70
0
 72
0
 73
0
 74
0
  7

 75
0
147
1.0
148
0.0
149
0.0
100
AcDbLayout
  1
Layout1
 70
0
 71
1
 10
0.0
 20
0.0
 11
11.0
 21
8.5
 12
0.0
 22
0.0
 32
0.0
 14
0.0
 24
0.0
 34
0.0
 15
0.0
 25
0.0
 35
0.0
146
0.0
 13
0.0
 23
0.0
 33
0.0
 16
1.0
 26
0.0
 36
0.0
 17
0.0
 27
1.0
 37
0.0
 76
0
330
22F
345
0
346
0
  0
ENDSEC
  0
EOF
