999
DXF file: 2470-5313_top.dxf
999
Pro/ENGINEER 2018400 by Parametric Technology Corporation
  0
SECTION
  2
HEADER
  9
$ACADVER
  1
AC1027
  9
$DWGCODEPAGE
  3
ANSI_1252
  9
$EXTMAX
 10
11.0
 20
8.5
 30
0.0
  9
$EXTMIN
 10
0.0
 20
0.0
 30
0.0
  9
$LIMMIN
 10
0.0
 20
0.0
  9
$LIMMAX
 10
11.0
 20
8.5
  9
$VIEWCTR
 10
5.5
 20
4.25
  9
$VIEWSIZE
 40
8.5
  9
$CLAYER
  8
0
  9
$LTSCALE
 40
0.605
  9
$CELTYPE
  6
BYLAYER
  9
$DIMSCALE
 40
1.0
  9
$DIMASZ
 40
0.1
  9
$DIMEXO
 40
0.0625
  9
$DIMDLI
 40
0.418
  9
$DIMEXE
 40
0.125
  9
$DIMCEN
 40
0.099
  9
$DIMLFAC
 40
1.0
  9
$DIMBLK
  1
_FILLED
  9
$DIMALT
 70
1
  9
$DIMALTD
 70
2
  9
$DIMALTTD
 70
2
  9
$DIMALTF
 40
25.4
  9
$DIMTXT
 40
0.08
  9
$DIMTOL
 70
1
  9
$DIMLIM
 70
0
  9
$DIMTFAC
 40
1.0
  9
$DIMTP
 40
0.001
  9
$DIMTM
 40
0.001
  9
$DIMGAP
 40
0.09
  9
$DIMDSEP
 70
46
  9
$AUNITS
 70
0
  9
$PDMODE
 70
3
  9
$PDSIZE
 40
0.3125
  9
$HANDSEED
  5
548
  9
$TILEMODE
 70
1
  9
$MEASUREMENT
 70
0
  9
$INSUNITS
 70
1
  0
ENDSEC
  0
SECTION
  2
CLASSES
  0
CLASS
  1
ACDBDICTIONARYWDFLT
  2
AcDbDictionaryWithDefault
  3
AutoCAD 2000
 90
0
 91
1
280
0
281
0
  0
CLASS
  1
ACDBPLACEHOLDER
  2
AcDbPlaceHolder
  3
AutoCAD 2000
 90
0
 91
1
280
0
281
0
  0
CLASS
  1
LAYOUT
  2
AcDbLayout
  3
AutoCAD 2000
 90
0
 91
0
280
0
281
0
  0
ENDSEC
  0
SECTION
  2
TABLES
  0
TABLE
  2
VPORT
  5
8
100
AcDbSymbolTable
 70
2
  0
VPORT
  5
1F4
100
AcDbSymbolTableRecord
100
AcDbViewportTableRecord
  2
*ACTIVE
 70
0
 10
0.0
 20
0.0
 11
1.0
 21
1.0
 12
5.5
 22
4.25
 13
0.0
 23
0.0
 14
1.0
 24
1.0
 15
0.0
 25
0.0
 16
0.0
 26
0.0
 36
1.0
 17
0.0
 27
0.0
 37
0.0
 40
8.5
 41
1.2941176471
 42
50.0
 43
0.0
 44
0.0
 50
0.0
 51
0.0
 71
0
 72
100
 73
1
 74
1
 75
0
 76
0
 77
0
 78
0
  0
ENDTAB
  0
TABLE
  2
LTYPE
  5
5
100
AcDbSymbolTable
 70
6
  0
LTYPE
  5
14
100
AcDbSymbolTableRecord
100
AcDbLinetypeTableRecord
  2
BYBLOCK
 70
0
  3

 72
65
 73
0
 40
0.0
  0
LTYPE
  5
15
100
AcDbSymbolTableRecord
100
AcDbLinetypeTableRecord
  2
BYLAYER
 70
0
  3

 72
65
 73
0
 40
0.0
  0
LTYPE
  5
16
100
AcDbSymbolTableRecord
100
AcDbLinetypeTableRecord
  2
CONTINUOUS
 70
64
  3
Solid line
 72
65
 73
0
 40
0.0
  0
LTYPE
  5
1F5
100
AcDbSymbolTableRecord
100
AcDbLinetypeTableRecord
  2
CENTER
 70
64
  3
____ _ ____ _ ____ _ ____ _ ____ _ ____ _ ____
 72
65
 73
4
 40
0.6
 49
0.375
 74
0
 49
-0.075
 74
0
 49
0.075
 74
0
 49
-0.075
 74
0
  0
LTYPE
  5
1F6
100
AcDbSymbolTableRecord
100
AcDbLinetypeTableRecord
  2
HIDDEN
 70
64
  3
- - - - - - - - - - - - - - - - - - - -
 72
65
 73
2
 40
0.2
 49
0.1
 74
0
 49
-0.1
 74
0
  0
LTYPE
  5
1F7
100
AcDbSymbolTableRecord
100
AcDbLinetypeTableRecord
  2
PHANTOM
 70
64
  3
_____ _ _ _____ _ _ _____ _ _ _____
 72
65
 73
6
 40
0.8
 49
0.45
 74
0
 49
-0.05
 74
0
 49
0.1
 74
0
 49
-0.05
 74
0
 49
0.1
 74
0
 49
-0.05
 74
0
  0
LTYPE
  5
1F8
100
AcDbSymbolTableRecord
100
AcDbLinetypeTableRecord
  2
DOT
 70
64
  3
. . . . . . . . . . . . . . . . . . . .
 72
65
 73
2
 40
0.2
 49
0.1
 74
0
 49
-0.1
 74
0
  0
LTYPE
  5
1F9
100
AcDbSymbolTableRecord
100
AcDbLinetypeTableRecord
  2
DASHED
 70
64
  3
- - - - - - - - - - - - - - - - - - - -
 72
65
 73
2
 40
0.2
 49
0.1
 74
0
 49
-0.1
 74
0
  0
ENDTAB
  0
TABLE
  2
LAYER
  5
2
100
AcDbSymbolTable
 70
36
  0
LAYER
  5
10
100
AcDbSymbolTableRecord
100
AcDbLayerTableRecord
  2
0
 70
0
 62
7
  6
CONTINUOUS
370
-3
390
F
  0
LAYER
  5
1FA
100
AcDbSymbolTableRecord
100
AcDbLayerTableRecord
  2
DEFAULT_1
 70
0
 62
7
  6
CENTER
370
-3
390
F
  0
LAYER
  5
1FB
100
AcDbSymbolTableRecord
100
AcDbLayerTableRecord
  2
DEFAULT_2
 70
0
 62
8
  6
HIDDEN
370
-3
390
F
  0
LAYER
  5
1FC
100
AcDbSymbolTableRecord
100
AcDbLayerTableRecord
  2
DEFAULT_3
 70
0
 62
7
  6
PHANTOM
370
-3
390
F
  0
LAYER
  5
1FD
100
AcDbSymbolTableRecord
100
AcDbLayerTableRecord
  2
11719
 70
0
 62
7
  6
CONTINUOUS
370
-3
390
F
  0
LAYER
  5
1FE
100
AcDbSymbolTableRecord
100
AcDbLayerTableRecord
  2
11720
 70
0
 62
7
  6
CONTINUOUS
370
-3
390
F
  0
LAYER
  5
1FF
100
AcDbSymbolTableRecord
100
AcDbLayerTableRecord
  2
11721
 70
0
 62
7
  6
CONTINUOUS
370
-3
390
F
  0
LAYER
  5
200
100
AcDbSymbolTableRecord
100
AcDbLayerTableRecord
  2
11802
 70
0
 62
7
  6
CONTINUOUS
370
-3
390
F
  0
LAYER
  5
201
100
AcDbSymbolTableRecord
100
AcDbLayerTableRecord
  2
11803
 70
0
 62
7
  6
CONTINUOUS
370
-3
390
F
  0
LAYER
  5
202
100
AcDbSymbolTableRecord
100
AcDbLayerTableRecord
  2
11804
 70
0
 62
7
  6
CONTINUOUS
370
-3
390
F
  0
LAYER
  5
203
100
AcDbSymbolTableRecord
100
AcDbLayerTableRecord
  2
11830
 70
0
 62
7
  6
CONTINUOUS
370
-3
390
F
  0
LAYER
  5
204
100
AcDbSymbolTableRecord
100
AcDbLayerTableRecord
  2
11837
 70
0
 62
7
  6
CONTINUOUS
370
-3
390
F
  0
LAYER
  5
205
100
AcDbSymbolTableRecord
100
AcDbLayerTableRecord
  2
11852
 70
0
 62
7
  6
CONTINUOUS
370
-3
390
F
  0
LAYER
  5
206
100
AcDbSymbolTableRecord
100
AcDbLayerTableRecord
  2
11853
 70
0
 62
7
  6
CONTINUOUS
370
-3
390
F
  0
LAYER
  5
207
100
AcDbSymbolTableRecord
100
AcDbLayerTableRecord
  2
11855
 70
0
 62
7
  6
CONTINUOUS
370
-3
390
F
  0
LAYER
  5
208
100
AcDbSymbolTableRecord
100
AcDbLayerTableRecord
  2
11923
 70
0
 62
7
  6
CONTINUOUS
370
-3
390
F
  0
LAYER
  5
209
100
AcDbSymbolTableRecord
100
AcDbLayerTableRecord
  2
12020
 70
0
 62
7
  6
CONTINUOUS
370
-3
390
F
  0
LAYER
  5
20A
100
AcDbSymbolTableRecord
100
AcDbLayerTableRecord
  2
12835
 70
0
 62
7
  6
CONTINUOUS
370
-3
390
F
  0
LAYER
  5
20B
100
AcDbSymbolTableRecord
100
AcDbLayerTableRecord
  2
12846
 70
0
 62
7
  6
CONTINUOUS
370
-3
390
F
  0
LAYER
  5
20C
100
AcDbSymbolTableRecord
100
AcDbLayerTableRecord
  2
13374
 70
0
 62
7
  6
CONTINUOUS
370
-3
390
F
  0
LAYER
  5
20D
100
AcDbSymbolTableRecord
100
AcDbLayerTableRecord
  2
13377
 70
0
 62
7
  6
CONTINUOUS
370
-3
390
F
  0
LAYER
  5
20E
100
AcDbSymbolTableRecord
100
AcDbLayerTableRecord
  2
2-708
 70
0
 62
7
  6
CONTINUOUS
370
-3
390
F
  0
LAYER
  5
20F
100
AcDbSymbolTableRecord
100
AcDbLayerTableRecord
  2
2-735
 70
0
 62
7
  6
CONTINUOUS
370
-3
390
F
  0
LAYER
  5
210
100
AcDbSymbolTableRecord
100
AcDbLayerTableRecord
  2
2-746
 70
0
 62
7
  6
CONTINUOUS
370
-3
390
F
  0
LAYER
  5
211
100
AcDbSymbolTableRecord
100
AcDbLayerTableRecord
  2
2-778
 70
0
 62
7
  6
CONTINUOUS
370
-3
390
F
  0
LAYER
  5
212
100
AcDbSymbolTableRecord
100
AcDbLayerTableRecord
  2
2-783
 70
0
 62
7
  6
CONTINUOUS
370
-3
390
F
  0
LAYER
  5
213
100
AcDbSymbolTableRecord
100
AcDbLayerTableRecord
  2
2-786
 70
0
 62
7
  6
CONTINUOUS
370
-3
390
F
  0
LAYER
  5
214
100
AcDbSymbolTableRecord
100
AcDbLayerTableRecord
  2
2-788
 70
0
 62
7
  6
CONTINUOUS
370
-3
390
F
  0
LAYER
  5
215
100
AcDbSymbolTableRecord
100
AcDbLayerTableRecord
  2
2-800
 70
0
 62
7
  6
CONTINUOUS
370
-3
390
F
  0
LAYER
  5
216
100
AcDbSymbolTableRecord
100
AcDbLayerTableRecord
  2
20-314
 70
0
 62
7
  6
CONTINUOUS
370
-3
390
F
  0
LAYER
  5
217
100
AcDbSymbolTableRecord
100
AcDbLayerTableRecord
  2
2470-5703
 70
0
 62
7
  6
CONTINUOUS
370
-3
390
F
  0
LAYER
  5
218
100
AcDbSymbolTableRecord
100
AcDbLayerTableRecord
  2
91049
 70
0
 62
7
  6
CONTINUOUS
370
-3
390
F
  0
LAYER
  5
219
100
AcDbSymbolTableRecord
100
AcDbLayerTableRecord
  2
91114
 70
0
 62
7
  6
CONTINUOUS
370
-3
390
F
  0
LAYER
  5
21A
100
AcDbSymbolTableRecord
100
AcDbLayerTableRecord
  2
91353
 70
0
 62
7
  6
CONTINUOUS
370
-3
390
F
  0
LAYER
  5
21B
100
AcDbSymbolTableRecord
100
AcDbLayerTableRecord
  2
91543
 70
0
 62
7
  6
CONTINUOUS
370
-3
390
F
  0
LAYER
  5
21C
100
AcDbSymbolTableRecord
100
AcDbLayerTableRecord
  2
91791
 70
0
 62
7
  6
CONTINUOUS
370
-3
390
F
  0
LAYER
  5
21D
100
AcDbSymbolTableRecord
100
AcDbLayerTableRecord
  2
92005
 70
0
 62
7
  6
CONTINUOUS
370
-3
390
F
  0
LAYER
  5
21E
100
AcDbSymbolTableRecord
100
AcDbLayerTableRecord
  2
ALL_ASSEMBLY_MEMBERS
 70
0
 62
7
  6
CONTINUOUS
370
-3
390
F
  0
LAYER
  5
21F
100
AcDbSymbolTableRecord
100
AcDbLayerTableRecord
  2
ALL_ASSEMBLY_MEMBERS_1
 70
0
 62
7
  6
CONTINUOUS
370
-3
390
F
  0
LAYER
  5
220
100
AcDbSymbolTableRecord
100
AcDbLayerTableRecord
  2
ALL_ASSEMBLY_MEMBERS_2
 70
0
 62
7
  6
CONTINUOUS
370
-3
390
F
  0
LAYER
  5
221
100
AcDbSymbolTableRecord
100
AcDbLayerTableRecord
  2
COLOR131
 70
0
 62
7
  6
CONTINUOUS
370
-3
390
F
  0
LAYER
  5
222
100
AcDbSymbolTableRecord
100
AcDbLayerTableRecord
  2
COLOR147
 70
0
 62
7
  6
CONTINUOUS
370
-3
390
F
  0
LAYER
  5
223
100
AcDbSymbolTableRecord
100
AcDbLayerTableRecord
  2
COLOR148
 70
0
 62
7
  6
CONTINUOUS
370
-3
390
F
  0
LAYER
  5
224
100
AcDbSymbolTableRecord
100
AcDbLayerTableRecord
  2
COLOR149
 70
0
 62
7
  6
CONTINUOUS
370
-3
390
F
  0
LAYER
  5
225
100
AcDbSymbolTableRecord
100
AcDbLayerTableRecord
  2
COLOR150
 70
0
 62
7
  6
CONTINUOUS
370
-3
390
F
  0
LAYER
  5
226
100
AcDbSymbolTableRecord
100
AcDbLayerTableRecord
  2
COLOR152
 70
0
 62
7
  6
CONTINUOUS
370
-3
390
F
  0
LAYER
  5
227
100
AcDbSymbolTableRecord
100
AcDbLayerTableRecord
  2
COLOR153
 70
0
 62
7
  6
CONTINUOUS
370
-3
390
F
  0
LAYER
  5
228
100
AcDbSymbolTableRecord
100
AcDbLayerTableRecord
  2
COLOR48
 70
0
 62
7
  6
CONTINUOUS
370
-3
390
F
  0
LAYER
  5
229
100
AcDbSymbolTableRecord
100
AcDbLayerTableRecord
  2
COLOR67
 70
0
 62
7
  6
CONTINUOUS
370
-3
390
F
  0
LAYER
  5
22A
100
AcDbSymbolTableRecord
100
AcDbLayerTableRecord
  2
INTF_CYAN
 70
0
 62
7
  6
CONTINUOUS
370
-3
390
F
  0
LAYER
  5
22B
100
AcDbSymbolTableRecord
100
AcDbLayerTableRecord
  2
NONE
 70
0
 62
7
  6
CONTINUOUS
370
-3
390
F
  0
ENDTAB
  0
TABLE
  2
STYLE
  5
3
100
AcDbSymbolTable
 70
1
  0
STYLE
  5
11
100
AcDbSymbolTableRecord
100
AcDbTextStyleTableRecord
  2
STANDARD
 70
0
 40
0.0
 41
0.8
 50
0.0
 71
0
 42
0.2
  3
txt
  4

  0
STYLE
  5
22C
100
AcDbSymbolTableRecord
100
AcDbTextStyleTableRecord
  2
TEXTSTYLE_1
 70
0
 40
0.0
 41
0.8
 50
0.0
 71
0
 42
0.2
  3
gdt
  4

  0
ENDTAB
  0
TABLE
  2
VIEW
  5
6
100
AcDbSymbolTable
 70
0
  0
ENDTAB
  0
TABLE
  2
UCS
  5
7
100
AcDbSymbolTable
 70
0
  0
ENDTAB
  0
TABLE
  2
APPID
  5
9
100
AcDbSymbolTable
 70
1
  0
APPID
  5
22D
100
AcDbSymbolTableRecord
100
AcDbRegAppTableRecord
  2
ACAD
 70
0
  0
ENDTAB
  0
TABLE
  2
BLOCK_RECORD
  5
1
100
AcDbSymbolTable
 70
0
  0
BLOCK_RECORD
  5
22E
100
AcDbSymbolTableRecord
100
AcDbBlockTableRecord
  2
*Model_Space
  0
BLOCK_RECORD
  5
22F
100
AcDbSymbolTableRecord
100
AcDbBlockTableRecord
  2
*Paper_Space
  0
BLOCK_RECORD
  5
230
100
AcDbSymbolTableRecord
100
AcDbBlockTableRecord
  2
_FILLED
  0
ENDTAB
  0
TABLE
  2
DIMSTYLE
  5
A
100
AcDbSymbolTable
 70
1
100
AcDbDimStyleTable
 71
0
  0
DIMSTYLE
105
231
100
AcDbSymbolTableRecord
100
AcDbDimStyleTableRecord
  2
STANDARD
 70
0
  3

  4

 40
1.0
 41
0.1
 42
0.0625
 43
0.38
 44
0.125
 45
0.0
 46
0.0
 47
0.001
 48
0.001
140
0.08
141
0.09
142
0.0
143
25.4
144
1.0
145
0.0
146
1.0
147
0.09
 71
1.0
 72
0.0
 73
1
 74
1
 75
0
 76
0
 77
0
 78
4
 79
1
170
1
171
2
172
0
173
0
174
0
175
0
176
0
177
0
178
0
270
2
179
3
271
3
272
3
273
2
274
2
275
0
280
0
281
0
282
0
283
1
284
4
285
0
286
0
287
3
288
0
340
11
278
46
341
230
342
230
343
230
344
230
  0
ENDTAB
  0
ENDSEC
  0
SECTION
  2
BLOCKS
  0
BLOCK
  5
20
100
AcDbEntity
  8
0
100
AcDbBlockBegin
  2
*Model_Space
 70
0
 10
0.0
 20
0.0
 30
0.0
  3
*Model_Space
  1

  0
ENDBLK
  5
21
100
AcDbEntity
  8
0
100
AcDbBlockEnd
  0
BLOCK
  5
1C
100
AcDbEntity
  8
0
100
AcDbBlockBegin
  2
*Paper_Space
 70
0
 10
0.0
 20
0.0
 30
0.0
  3
*Paper_Space
  1

  0
ENDBLK
  5
1D
100
AcDbEntity
  8
0
100
AcDbBlockEnd
  0
BLOCK
  5
232
100
AcDbEntity
  8
0
100
AcDbBlockBegin
  2
_FILLED
 70
64
 10
0.0
 20
0.0
  3
_FILLED
  1

  0
SOLID
  5
233
100
AcDbEntity
  8
0
  6
BYBLOCK
 62
0
100
AcDbTrace
 10
0.0
 20
0.0
 11
-1.0
 21
0.2
 12
-1.0
 22
-0.2
 13
-1.0
 23
-0.2
  0
ENDBLK
  5
234
100
AcDbEntity
  8
0
  6
BYBLOCK
 62
0
100
AcDbBlockEnd
  0
ENDSEC
  0
SECTION
  2
ENTITIES
  0
MTEXT
  5
235
100
AcDbEntity
  8
0
100
AcDbMText
 62
2
  6
CONTINUOUS
  7
STANDARD
 71
3
 72
1
 10
5.5449650621
 20
1.0418800469
 30
0.0
 11
1.0
 21
0.0
 31
0.0
 73
2
 44
0.9
  1
SCALE  .500
 40
0.08
 41
0.704
  0
LINE
  5
236
100
AcDbEntity
  8
0
100
AcDbLine
 62
7
  6
CONTINUOUS
 10
0.0
 20
0.0
 11
0.0
 21
8.5
  0
LINE
  5
237
100
AcDbEntity
  8
0
100
AcDbLine
 62
7
  6
CONTINUOUS
 10
0.0
 20
0.0
 11
11.0
 21
0.0
  0
LINE
  5
238
100
AcDbEntity
  8
0
100
AcDbLine
 62
7
  6
CONTINUOUS
 10
0.0
 20
8.5
 11
11.0
 21
8.5
  0
LINE
  5
239
100
AcDbEntity
  8
0
100
AcDbLine
 62
7
  6
CONTINUOUS
 10
11.0
 20
0.0
 11
11.0
 21
8.5
  0
LINE
  5
23A
100
AcDbEntity
  8
0
100
AcDbLine
 62
7
  6
CONTINUOUS
 10
3.0300498671
 20
5.9703407602
 11
3.0300498671
 21
5.9738407602
  0
LINE
  5
23B
100
AcDbEntity
  8
0
100
AcDbLine
 62
7
  6
CONTINUOUS
 10
3.0757998671
 20
5.4728407602
 11
3.0757998671
 21
5.4810078314
  0
LINE
  5
23C
100
AcDbEntity
  8
0
100
AcDbLine
 62
7
  6
CONTINUOUS
 10
4.7389679917
 20
6.5684384812
 11
4.7389307103
 21
6.5684232783
  0
LINE
  5
23D
100
AcDbEntity
  8
0
100
AcDbLine
 62
7
  6
CONTINUOUS
 10
3.1407998671
 20
5.4323907602
 11
3.1407998671
 21
1.8588907602
  0
LINE
  5
23E
100
AcDbEntity
  8
0
100
AcDbLine
 62
7
  6
CONTINUOUS
 10
3.5757998671
 20
5.4323907602
 11
3.5757998671
 21
1.8588907602
  0
LINE
  5
23F
100
AcDbEntity
  8
0
100
AcDbLine
 62
7
  6
CONTINUOUS
 10
3.6407998671
 20
5.4728407602
 11
3.6407998671
 21
5.4810078314
  0
LINE
  5
240
100
AcDbEntity
  8
0
100
AcDbLine
 62
7
  6
CONTINUOUS
 10
3.6865498671
 20
5.9703407602
 11
3.6865498671
 21
5.9738407602
  0
LINE
  5
241
100
AcDbEntity
  8
0
100
AcDbLine
 62
7
  6
CONTINUOUS
 10
4.1680498671
 20
5.891062618
 11
4.1680498671
 21
6.8810617164
  0
LINE
  5
242
100
AcDbEntity
  8
0
100
AcDbLine
 62
7
  6
CONTINUOUS
 10
4.2065326971
 20
6.9021147988
 11
4.2065326971
 21
5.8700095356
  0
LINE
  5
243
100
AcDbEntity
  8
0
100
AcDbLine
 62
7
  6
CONTINUOUS
 10
4.244284621
 20
5.8810621672
 11
4.244284621
 21
6.8910621672
  0
LINE
  5
244
100
AcDbEntity
  8
0
100
AcDbLine
 62
7
  6
CONTINUOUS
 10
4.2680498671
 20
5.8810621672
 11
4.2680498671
 21
6.8910621672
  0
LINE
  5
245
100
AcDbEntity
  8
0
100
AcDbLine
 62
7
  6
CONTINUOUS
 10
4.4981361026
 20
6.8356011803
 11
4.4981361026
 21
5.9365231542
  0
LINE
  5
246
100
AcDbEntity
  8
0
100
AcDbLine
 62
7
  6
CONTINUOUS
 10
4.5470429928
 20
5.9421117167
 11
4.5470429928
 21
6.8300126177
  0
LINE
  5
247
100
AcDbEntity
  8
0
100
AcDbLine
 62
7
  6
CONTINUOUS
 10
4.5905498671
 20
5.9783081901
 11
4.5905498671
 21
6.7960621672
  0
LINE
  5
248
100
AcDbEntity
  8
0
100
AcDbLine
 62
7
  6
CONTINUOUS
 10
4.6022032235
 20
6.0074244321
 11
4.6022032235
 21
6.7646999023
  0
LWPOLYLINE
  5
249
100
AcDbEntity
  8
0
100
AcDbPolyline
 62
7
  6
CONTINUOUS
 90
9
 70
0
 10
4.7390697436
 20
6.5600659445
 10
4.7391251571
 20
6.5609053152
 10
4.7391515646
 20
6.5612664282
 10
4.7391769378
 20
6.5615890954
 10
4.7392007146
 20
6.5618691017
 10
4.7392228928
 20
6.5621097828
 10
4.7392429987
 20
6.562309519
 10
4.7392592869
 20
6.5624567877
 10
4.7392655982
 20
6.5625097631
  0
LINE
  5
24A
100
AcDbEntity
  8
0
100
AcDbLine
 62
7
  6
CONTINUOUS
 10
5.154262118
 20
6.27593712
 11
5.1572392064
 21
6.2842330123
  0
LINE
  5
24B
100
AcDbEntity
  8
0
100
AcDbLine
 62
7
  6
CONTINUOUS
 10
4.739072708
 20
6.2120106443
 11
4.7390125041
 21
6.2130394687
  0
LINE
  5
24C
100
AcDbEntity
  8
0
100
AcDbLine
 62
7
  6
CONTINUOUS
 10
4.7390125041
 20
6.2130394687
 11
4.7389496395
 21
6.2142499029
  0
LINE
  5
24D
100
AcDbEntity
  8
0
100
AcDbLine
 62
7
  6
CONTINUOUS
 10
4.7389496395
 20
6.2142499029
 11
4.7388843956
 21
6.2156541146
  0
LINE
  5
24E
100
AcDbEntity
  8
0
100
AcDbLine
 62
7
  6
CONTINUOUS
 10
4.7388843956
 20
6.2156541146
 11
4.7387822924
 21
6.2181591149
  0
LINE
  5
24F
100
AcDbEntity
  8
0
100
AcDbLine
 62
7
  6
CONTINUOUS
 10
4.7387822924
 20
6.2181591149
 11
4.738675318
 21
6.2211989572
  0
LINE
  5
250
100
AcDbEntity
  8
0
100
AcDbLine
 62
7
  6
CONTINUOUS
 10
4.738675318
 20
6.2211989572
 11
4.738525409
 21
6.2262163809
  0
LINE
  5
251
100
AcDbEntity
  8
0
100
AcDbLine
 62
7
  6
CONTINUOUS
 10
4.738525409
 20
6.2262163809
 11
4.7383269152
 21
6.2343524786
  0
LINE
  5
252
100
AcDbEntity
  8
0
100
AcDbLine
 62
7
  6
CONTINUOUS
 10
4.7383269152
 20
6.2343524786
 11
4.7381682747
 21
6.2422592475
  0
LINE
  5
253
100
AcDbEntity
  8
0
100
AcDbLine
 62
7
  6
CONTINUOUS
 10
4.7381682453
 20
6.5298650486
 11
4.738376271
 21
6.539965315
  0
LINE
  5
254
100
AcDbEntity
  8
0
100
AcDbLine
 62
7
  6
CONTINUOUS
 10
4.738376271
 20
6.539965315
 11
4.7385378516
 21
6.546359531
  0
LINE
  5
255
100
AcDbEntity
  8
0
100
AcDbLine
 62
7
  6
CONTINUOUS
 10
4.7385378516
 20
6.546359531
 11
4.7386674438
 21
6.5506843539
  0
LINE
  5
256
100
AcDbEntity
  8
0
100
AcDbLine
 62
7
  6
CONTINUOUS
 10
4.7386674438
 20
6.5506843539
 11
4.7387638865
 21
6.5534730444
  0
LINE
  5
257
100
AcDbEntity
  8
0
100
AcDbLine
 62
7
  6
CONTINUOUS
 10
4.7387638865
 20
6.5534730444
 11
4.7388589088
 21
6.5558803781
  0
LINE
  5
258
100
AcDbEntity
  8
0
100
AcDbLine
 62
7
  6
CONTINUOUS
 10
4.7388589088
 20
6.5558803781
 11
4.7389210664
 21
6.5572780837
  0
LINE
  5
259
100
AcDbEntity
  8
0
100
AcDbLine
 62
7
  6
CONTINUOUS
 10
4.7389210664
 20
6.5572780837
 11
4.7389818841
 21
6.5585126604
  0
LWPOLYLINE
  5
25A
100
AcDbEntity
  8
0
100
AcDbPolyline
 62
7
  6
CONTINUOUS
 90
3
 70
0
 10
4.7389818841
 20
6.5585126604
 10
4.739040997
 20
6.5595876294
 10
4.7390697436
 20
6.5600659445
  0
LWPOLYLINE
  5
25B
100
AcDbEntity
  8
0
100
AcDbPolyline
 62
7
  6
CONTINUOUS
 90
13
 70
0
 10
4.7392605736
 20
6.2096202442
 10
4.7392712127
 20
6.2095612785
 10
4.7392793637
 20
6.2095108937
 10
4.7392742731
 20
6.2095466303
 10
4.7392631266
 20
6.2096351037
 10
4.7392477936
 20
6.2097700446
 10
4.7392281797
 20
6.2099602337
 10
4.7392061842
 20
6.2101939187
 10
4.7391823183
 20
6.2104698513
 10
4.7391566032
 20
6.2107918032
 10
4.7391296663
 20
6.2111554486
 10
4.7391016931
 20
6.2115609673
 10
4.739072708
 20
6.2120106443
  0
LINE
  5
25C
100
AcDbEntity
  8
0
100
AcDbLine
 62
7
  6
CONTINUOUS
 10
5.1542621181
 20
6.4961872144
 11
5.1542621181
 21
6.4713192253
  0
LINE
  5
25D
100
AcDbEntity
  8
0
100
AcDbLine
 62
7
  6
CONTINUOUS
 10
5.1542621181
 20
6.3008051091
 11
5.1542621181
 21
6.2759627189
  0
LINE
  5
25E
100
AcDbEntity
  8
0
100
AcDbLine
 62
7
  6
CONTINUOUS
 10
5.1572392065
 20
6.2842566828
 11
5.1572392065
 21
6.309252045
  0
LINE
  5
25F
100
AcDbEntity
  8
0
100
AcDbLine
 62
7
  6
CONTINUOUS
 10
5.1572392065
 20
6.4628722894
 11
5.1572392065
 21
6.4878913219
  0
LWPOLYLINE
  5
260
100
AcDbEntity
  8
0
100
AcDbPolyline
 62
7
  6
CONTINUOUS
 90
4
 70
0
 10
7.0947898723
 20
6.5986506311
 10
7.0926459938
 20
6.5953017218
 10
7.0905316366
 20
6.5923339145
 10
7.0900217011
 20
6.5916608399
  0
LINE
  5
261
100
AcDbEntity
  8
0
100
AcDbLine
 62
7
  6
CONTINUOUS
 10
7.0900170873
 20
6.5916548472
 11
7.0899725123
 21
6.5915902077
  0
LINE
  5
262
100
AcDbEntity
  8
0
100
AcDbLine
 62
7
  6
CONTINUOUS
 10
7.0947898456
 20
6.5986505992
 11
7.0948876757
 21
6.5988129079
  0
LINE
  5
263
100
AcDbEntity
  8
0
100
AcDbLine
 62
7
  6
CONTINUOUS
 10
5.1542621181
 20
6.4961872144
 11
5.1572392065
 21
6.4878913219
  0
LINE
  5
264
100
AcDbEntity
  8
0
100
AcDbLine
 62
7
  6
CONTINUOUS
 10
7.6341370273
 20
6.1902991393
 11
7.6341062961
 21
6.1902485382
  0
LINE
  5
265
100
AcDbEntity
  8
0
100
AcDbLine
 62
7
  6
CONTINUOUS
 10
7.6341370273
 20
6.1902991393
 11
7.6357391957
 21
6.1928705886
  0
LINE
  5
266
100
AcDbEntity
  8
0
100
AcDbLine
 62
7
  6
CONTINUOUS
 10
7.6379147815
 20
6.196174084
 11
7.6378497075
 21
6.1960729919
  0
LINE
  5
267
100
AcDbEntity
  8
0
100
AcDbLine
 62
7
  6
CONTINUOUS
 10
7.6379147815
 20
6.196174084
 11
7.6355454883
 21
6.1925671541
  0
LINE
  5
268
100
AcDbEntity
  8
0
100
AcDbLine
 62
7
  6
CONTINUOUS
 10
7.5243584177
 20
5.7379762144
 11
7.5089019133
 21
5.7341885133
  0
LINE
  5
269
100
AcDbEntity
  8
0
100
AcDbLine
 62
7
  6
CONTINUOUS
 10
7.4824124934
 20
5.7285640302
 11
7.4809361075
 21
5.7282855134
  0
LWPOLYLINE
  5
26A
100
AcDbEntity
  8
0
100
AcDbPolyline
 62
7
  6
CONTINUOUS
 90
6
 70
0
 10
7.1047551117
 20
6.6250268245
 10
7.1034821764
 20
6.6192580338
 10
7.1018116408
 20
6.6137061996
 10
7.0997713405
 20
6.6083835316
 10
7.0973969885
 20
6.6033215712
 10
7.0948876757
 20
6.5988129079
  0
LINE
  5
26B
100
AcDbEntity
  8
0
100
AcDbLine
 62
7
  6
CONTINUOUS
 10
7.584787317
 20
5.7538484777
 11
7.6349394606
 21
5.8278825944
  0
LINE
  5
26C
100
AcDbEntity
  8
0
100
AcDbLine
 62
7
  6
CONTINUOUS
 10
7.4656832708
 20
5.7256092331
 11
7.4460944001
 21
5.7227051345
  0
LINE
  5
26D
100
AcDbEntity
  8
0
100
AcDbLine
 62
7
  6
CONTINUOUS
 10
3.1407998671
 20
5.4323907602
 11
3.5757998671
 21
5.4323907602
  0
LINE
  5
26E
100
AcDbEntity
  8
0
100
AcDbLine
 62
7
  6
CONTINUOUS
 10
3.1147998672
 20
5.4338407602
 11
3.6017998671
 21
5.4338407602
  0
LINE
  5
26F
100
AcDbEntity
  8
0
100
AcDbLine
 62
7
  6
CONTINUOUS
 10
3.0757998671
 20
5.4728407602
 11
3.6407998671
 21
5.4728407602
  0
LINE
  5
270
100
AcDbEntity
  8
0
100
AcDbLine
 62
7
  6
CONTINUOUS
 10
3.6407998671
 20
5.4810078314
 11
3.0757998671
 21
5.4810078314
  0
LINE
  5
271
100
AcDbEntity
  8
0
100
AcDbLine
 62
7
  6
CONTINUOUS
 10
3.0839653751
 20
5.5048874069
 11
3.6326343591
 21
5.5048874068
  0
LINE
  5
272
100
AcDbEntity
  8
0
100
AcDbLine
 62
7
  6
CONTINUOUS
 10
3.0984582521
 20
5.5429715523
 11
3.6181414821
 21
5.5429715523
  0
LWPOLYLINE
  5
273
100
AcDbEntity
  8
0
100
AcDbPolyline
 62
7
  6
CONTINUOUS
 90
19
 70
0
 10
3.6889902526
 20
5.9760465676
 10
3.7024820375
 20
5.9733336878
 10
3.7161362875
 20
5.9707710222
 10
3.7299510718
 20
5.9683499333
 10
3.743919383
 20
5.9660617827
 10
3.7580382191
 20
5.9638992319
 10
3.7723075024
 20
5.9618578545
 10
3.786724771
 20
5.9599334231
 10
3.8012911329
 20
5.9581207953
 10
3.8160034083
 20
5.9564149249
 10
3.8308530053
 20
5.9548102881
 10
3.8458339407
 20
5.9532993739
 10
3.860951496
 20
5.9518729746
 10
3.8762143444
 20
5.9505223283
 10
3.8916174022
 20
5.9492400814
 10
3.9071626228
 20
5.948020943
 10
3.9228659121
 20
5.9468633931
 10
3.9387180139
 20
5.9457683928
 10
3.9618106668
 20
5.9443018633
  0
LINE
  5
274
100
AcDbEntity
  8
0
100
AcDbLine
 62
7
  6
CONTINUOUS
 10
3.6863909123
 20
5.976606497
 11
3.6889902526
 21
5.9760465676
  0
LINE
  5
275
100
AcDbEntity
  8
0
100
AcDbLine
 62
7
  6
CONTINUOUS
 10
7.1359520108
 20
5.7516527184
 11
7.5806477235
 21
5.7516527184
  0
LINE
  5
276
100
AcDbEntity
  8
0
100
AcDbLine
 62
7
  6
CONTINUOUS
 10
7.1318124173
 20
5.7538484777
 11
7.584787317
 21
5.7538484777
  0
LINE
  5
277
100
AcDbEntity
  8
0
100
AcDbLine
 62
7
  6
CONTINUOUS
 10
7.6349394606
 20
5.8278825944
 11
7.0816602737
 21
5.8278825944
  0
LINE
  5
278
100
AcDbEntity
  8
0
100
AcDbLine
 62
7
  6
CONTINUOUS
 10
7.0807998671
 20
5.8306868352
 11
7.6357998671
 21
5.8306868352
  0
LINE
  5
279
100
AcDbEntity
  8
0
100
AcDbLine
 62
7
  6
CONTINUOUS
 10
7.064616364
 20
5.8741527184
 11
7.0646914809
 21
5.8741527184
  0
LINE
  5
27A
100
AcDbEntity
  8
0
100
AcDbLine
 62
7
  6
CONTINUOUS
 10
7.0653465781
 20
5.8741527184
 11
7.1900551301
 21
5.8741527184
  0
LINE
  5
27B
100
AcDbEntity
  8
0
100
AcDbLine
 62
7
  6
CONTINUOUS
 10
7.1907333914
 20
5.8741527184
 11
7.2024107562
 21
5.8741527184
  0
LINE
  5
27C
100
AcDbEntity
  8
0
100
AcDbLine
 62
7
  6
CONTINUOUS
 10
7.2035973514
 20
5.8741527184
 11
7.5130023829
 21
5.8741527184
  0
LINE
  5
27D
100
AcDbEntity
  8
0
100
AcDbLine
 62
7
  6
CONTINUOUS
 10
7.5141889781
 20
5.8741527184
 11
7.5258663429
 21
5.8741527184
  0
LINE
  5
27E
100
AcDbEntity
  8
0
100
AcDbLine
 62
7
  6
CONTINUOUS
 10
7.5265446042
 20
5.8741527184
 11
7.6510285591
 21
5.8741527184
  0
LINE
  5
27F
100
AcDbEntity
  8
0
100
AcDbLine
 62
7
  6
CONTINUOUS
 10
7.6519082534
 20
5.8741527184
 11
7.6519833703
 21
5.8741527184
  0
LINE
  5
280
100
AcDbEntity
  8
0
100
AcDbLine
 62
7
  6
CONTINUOUS
 10
7.1545843525
 20
5.7488337551
 11
7.5620153818
 21
5.7488337551
  0
LINE
  5
281
100
AcDbEntity
  8
0
100
AcDbLine
 62
7
  6
CONTINUOUS
 10
4.7389307103
 20
6.2037010561
 11
4.7389677453
 21
6.2036852168
  0
LINE
  5
282
100
AcDbEntity
  8
0
100
AcDbLine
 62
7
  6
CONTINUOUS
 10
7.0646914809
 20
6.0016527184
 11
7.0646914809
 21
5.8741527184
  0
LINE
  5
283
100
AcDbEntity
  8
0
100
AcDbLine
 62
7
  6
CONTINUOUS
 10
7.0653465781
 20
5.8741527184
 11
7.0653465781
 21
6.0016527184
  0
LINE
  5
284
100
AcDbEntity
  8
0
100
AcDbLine
 62
7
  6
CONTINUOUS
 10
7.0668795741
 20
5.8741527184
 11
7.0668795741
 21
6.0016527184
  0
LINE
  5
285
100
AcDbEntity
  8
0
100
AcDbLine
 62
7
  6
CONTINUOUS
 10
7.0672532185
 20
6.0016527184
 11
7.0672532185
 21
5.8741527184
  0
LINE
  5
286
100
AcDbEntity
  8
0
100
AcDbLine
 62
7
  6
CONTINUOUS
 10
7.0692113329
 20
5.8741527184
 11
7.0692113329
 21
6.0016527184
  0
LINE
  5
287
100
AcDbEntity
  8
0
100
AcDbLine
 62
7
  6
CONTINUOUS
 10
7.0697330005
 20
6.0016527184
 11
7.0697330005
 21
5.8741527184
  0
LINE
  5
288
100
AcDbEntity
  8
0
100
AcDbLine
 62
7
  6
CONTINUOUS
 10
7.0723354632
 20
5.8741527184
 11
7.0723354632
 21
6.0016527184
  0
LINE
  5
289
100
AcDbEntity
  8
0
100
AcDbLine
 62
7
  6
CONTINUOUS
 10
7.0730037242
 20
6.0016527184
 11
7.0730037242
 21
5.8741527184
  0
LINE
  5
28A
100
AcDbEntity
  8
0
100
AcDbLine
 62
7
  6
CONTINUOUS
 10
7.0762434021
 20
5.8741527184
 11
7.0762434021
 21
6.0016527184
  0
LINE
  5
28B
100
AcDbEntity
  8
0
100
AcDbLine
 62
7
  6
CONTINUOUS
 10
7.0770589016
 20
6.0016527184
 11
7.0770589016
 21
5.8741527184
  0
LINE
  5
28C
100
AcDbEntity
  8
0
100
AcDbLine
 62
7
  6
CONTINUOUS
 10
7.0807998671
 20
5.8306868352
 11
7.080921614
 21
6.0016527184
  0
LINE
  5
28D
100
AcDbEntity
  8
0
100
AcDbLine
 62
7
  6
CONTINUOUS
 10
7.0818799941
 20
6.0016527184
 11
7.0818799941
 21
5.8741527184
  0
LINE
  5
28E
100
AcDbEntity
  8
0
100
AcDbLine
 62
7
  6
CONTINUOUS
 10
7.086365741
 20
5.8741527184
 11
7.086365741
 21
6.0016527184
  0
LINE
  5
28F
100
AcDbEntity
  8
0
100
AcDbLine
 62
7
  6
CONTINUOUS
 10
7.0874612111
 20
6.0016527184
 11
7.0874612111
 21
5.8741527184
  0
LINE
  5
290
100
AcDbEntity
  8
0
100
AcDbLine
 62
7
  6
CONTINUOUS
 10
7.0925523964
 20
5.8741527184
 11
7.0925523964
 21
6.0016527184
  0
LINE
  5
291
100
AcDbEntity
  8
0
100
AcDbLine
 62
7
  6
CONTINUOUS
 10
7.093784778
 20
6.0016527184
 11
7.093784778
 21
5.8741527184
  0
LINE
  5
292
100
AcDbEntity
  8
0
100
AcDbLine
 62
7
  6
CONTINUOUS
 10
7.0994674471
 20
5.8741527184
 11
7.0994674471
 21
6.0016527184
  0
LINE
  5
293
100
AcDbEntity
  8
0
100
AcDbLine
 62
7
  6
CONTINUOUS
 10
7.1008333624
 20
6.0016527184
 11
7.1008333624
 21
5.8741527184
  0
LINE
  5
294
100
AcDbEntity
  8
0
100
AcDbLine
 62
7
  6
CONTINUOUS
 10
7.1025499655
 20
6.0116527184
 11
7.1025499655
 21
6.1188969405
  0
LINE
  5
295
100
AcDbEntity
  8
0
100
AcDbLine
 62
7
  6
CONTINUOUS
 10
7.1070919395
 20
5.8741527184
 11
7.1070919395
 21
6.0016527184
  0
LINE
  5
296
100
AcDbEntity
  8
0
100
AcDbLine
 62
7
  6
CONTINUOUS
 10
7.1085876446
 20
6.0016527184
 11
7.1085876446
 21
5.8741527184
  0
LINE
  5
297
100
AcDbEntity
  8
0
100
AcDbLine
 62
7
  6
CONTINUOUS
 10
7.1154049754
 20
5.8741527184
 11
7.1154049754
 21
6.0016527184
  0
LINE
  5
298
100
AcDbEntity
  8
0
100
AcDbLine
 62
7
  6
CONTINUOUS
 10
7.1170312643
 20
6.0016527184
 11
7.1170312643
 21
5.8741527184
  0
LINE
  5
299
100
AcDbEntity
  8
0
100
AcDbLine
 62
7
  6
CONTINUOUS
 10
7.12437858
 20
5.8741527184
 11
7.12437858
 21
6.0016527184
  0
LINE
  5
29A
100
AcDbEntity
  8
0
100
AcDbLine
 62
7
  6
CONTINUOUS
 10
7.1261264105
 20
6.0016527184
 11
7.1261264105
 21
5.8741527184
  0
LINE
  5
29B
100
AcDbEntity
  8
0
100
AcDbLine
 62
7
  6
CONTINUOUS
 10
7.1340037109
 20
5.8741527184
 11
7.1340037109
 21
6.0016527184
  0
LINE
  5
29C
100
AcDbEntity
  8
0
100
AcDbLine
 62
7
  6
CONTINUOUS
 10
7.1057229357
 20
6.6323155641
 11
7.1059707979
 21
6.636747697
  0
LWPOLYLINE
  5
29D
100
AcDbEntity
  8
0
100
AcDbPolyline
 62
7
  6
CONTINUOUS
 90
3
 70
0
 10
7.1059706964
 20
6.6367439901
 10
7.105596553
 20
6.6309695709
 10
7.1047551117
 20
6.6250268245
  0
LINE
  5
29E
100
AcDbEntity
  8
0
100
AcDbLine
 62
7
  6
CONTINUOUS
 10
7.6349394606
 20
5.8278825944
 11
7.6357998671
 21
5.8306868352
  0
LINE
  5
29F
100
AcDbEntity
  8
0
100
AcDbLine
 62
7
  6
CONTINUOUS
 10
4.2680498671
 20
5.8810621672
 11
4.244284621
 21
5.8810621672
  0
LINE
  5
2A0
100
AcDbEntity
  8
0
100
AcDbLine
 62
7
  6
CONTINUOUS
 10
3.0799272098
 20
5.8902685915
 11
3.6366725245
 21
5.8902685915
  0
LINE
  5
2A1
100
AcDbEntity
  8
0
100
AcDbLine
 62
7
  6
CONTINUOUS
 10
3.6683217209
 20
5.9373327296
 11
3.0482780133
 21
5.9373327296
  0
LINE
  5
2A2
100
AcDbEntity
  8
0
100
AcDbLine
 62
7
  6
CONTINUOUS
 10
3.0300498671
 20
5.9703407602
 11
3.6865498671
 21
5.9703407602
  0
LINE
  5
2A3
100
AcDbEntity
  8
0
100
AcDbLine
 62
7
  6
CONTINUOUS
 10
3.6865498671
 20
5.9738407602
 11
3.0300498671
 21
5.9738407602
  0
LINE
  5
2A4
100
AcDbEntity
  8
0
100
AcDbLine
 62
7
  6
CONTINUOUS
 10
7.6519833703
 20
6.0016527184
 11
7.6519082534
 21
6.0016527184
  0
LINE
  5
2A5
100
AcDbEntity
  8
0
100
AcDbLine
 62
7
  6
CONTINUOUS
 10
7.6512531562
 20
6.0016527184
 11
7.6510285591
 21
6.0016527184
  0
LINE
  5
2A6
100
AcDbEntity
  8
0
100
AcDbLine
 62
7
  6
CONTINUOUS
 10
7.6497201602
 20
6.0016527184
 11
7.6493465157
 21
6.0016527184
  0
LINE
  5
2A7
100
AcDbEntity
  8
0
100
AcDbLine
 62
7
  6
CONTINUOUS
 10
7.6473884014
 20
6.0016527184
 11
7.6468667338
 21
6.0016527184
  0
LINE
  5
2A8
100
AcDbEntity
  8
0
100
AcDbLine
 62
7
  6
CONTINUOUS
 10
7.6442642711
 20
6.0016527184
 11
7.6435960101
 21
6.0016527184
  0
LINE
  5
2A9
100
AcDbEntity
  8
0
100
AcDbLine
 62
7
  6
CONTINUOUS
 10
7.6403563321
 20
6.0016527184
 11
7.6395408327
 21
6.0016527184
  0
LINE
  5
2AA
100
AcDbEntity
  8
0
100
AcDbLine
 62
7
  6
CONTINUOUS
 10
7.6356781203
 20
6.0016527184
 11
7.6347197402
 21
6.0016527184
  0
LINE
  5
2AB
100
AcDbEntity
  8
0
100
AcDbLine
 62
7
  6
CONTINUOUS
 10
7.6302339932
 20
6.0016527184
 11
7.6291385232
 21
6.0016527184
  0
LINE
  5
2AC
100
AcDbEntity
  8
0
100
AcDbLine
 62
7
  6
CONTINUOUS
 10
7.6240473379
 20
6.0016527184
 11
7.6228149563
 21
6.0016527184
  0
LINE
  5
2AD
100
AcDbEntity
  8
0
100
AcDbLine
 62
7
  6
CONTINUOUS
 10
7.6171322871
 20
6.0016527184
 11
7.6157663719
 21
6.0016527184
  0
LINE
  5
2AE
100
AcDbEntity
  8
0
100
AcDbLine
 62
7
  6
CONTINUOUS
 10
7.6095077947
 20
6.0016527184
 11
7.6080120897
 21
6.0016527184
  0
LINE
  5
2AF
100
AcDbEntity
  8
0
100
AcDbLine
 62
7
  6
CONTINUOUS
 10
7.6011947589
 20
6.0016527184
 11
7.59956847
 21
6.0016527184
  0
LINE
  5
2B0
100
AcDbEntity
  8
0
100
AcDbLine
 62
7
  6
CONTINUOUS
 10
7.5922211543
 20
6.0016527184
 11
7.5904733238
 21
6.0016527184
  0
LINE
  5
2B1
100
AcDbEntity
  8
0
100
AcDbLine
 62
7
  6
CONTINUOUS
 10
7.5825960233
 20
6.0016527184
 11
7.5807369126
 21
6.0016527184
  0
LINE
  5
2B2
100
AcDbEntity
  8
0
100
AcDbLine
 62
7
  6
CONTINUOUS
 10
7.5723613015
 20
6.0016527184
 11
7.5703908169
 21
6.0016527184
  0
LINE
  5
2B3
100
AcDbEntity
  8
0
100
AcDbLine
 62
7
  6
CONTINUOUS
 10
7.5615398522
 20
6.0016527184
 11
7.5594633947
 21
6.0016527184
  0
LINE
  5
2B4
100
AcDbEntity
  8
0
100
AcDbLine
 62
7
  6
CONTINUOUS
 10
7.5501613362
 20
6.0016527184
 11
7.5479845972
 21
6.0016527184
  0
LINE
  5
2B5
100
AcDbEntity
  8
0
100
AcDbLine
 62
7
  6
CONTINUOUS
 10
7.5382569412
 20
6.0016527184
 11
7.5359790553
 21
6.0016527184
  0
LINE
  5
2B6
100
AcDbEntity
  8
0
100
AcDbLine
 62
7
  6
CONTINUOUS
 10
7.5258663429
 20
6.0016527184
 11
7.5235001519
 21
6.0016527184
  0
LINE
  5
2B7
100
AcDbEntity
  8
0
100
AcDbLine
 62
7
  6
CONTINUOUS
 10
7.5130023829
 20
6.0016527184
 11
7.5105616142
 21
6.0016527184
  0
LINE
  5
2B8
100
AcDbEntity
  8
0
100
AcDbLine
 62
7
  6
CONTINUOUS
 10
7.4997214406
 20
6.0016527184
 11
7.4972057376
 21
6.0016527184
  0
LINE
  5
2B9
100
AcDbEntity
  8
0
100
AcDbLine
 62
7
  6
CONTINUOUS
 10
7.4860528715
 20
6.0016527184
 11
7.4834691298
 21
6.0016527184
  0
LINE
  5
2BA
100
AcDbEntity
  8
0
100
AcDbLine
 62
7
  6
CONTINUOUS
 10
7.4720341403
 20
6.0016527184
 11
7.4693894416
 21
6.0016527184
  0
LINE
  5
2BB
100
AcDbEntity
  8
0
100
AcDbLine
 62
7
  6
CONTINUOUS
 10
7.4577036714
 20
6.0016527184
 11
7.4549971638
 21
6.0016527184
  0
LINE
  5
2BC
100
AcDbEntity
  8
0
100
AcDbLine
 62
7
  6
CONTINUOUS
 10
7.4431089573
 20
6.0016527184
 11
7.440356025
 21
6.0016527184
  0
LINE
  5
2BD
100
AcDbEntity
  8
0
100
AcDbLine
 62
7
  6
CONTINUOUS
 10
7.4282653824
 20
6.0016527184
 11
7.4254818751
 21
6.0016527184
  0
LINE
  5
2BE
100
AcDbEntity
  8
0
100
AcDbLine
 62
7
  6
CONTINUOUS
 10
7.4132382506
 20
6.0016527184
 11
7.410423584
 21
6.0016527184
  0
LINE
  5
2BF
100
AcDbEntity
  8
0
100
AcDbLine
 62
7
  6
CONTINUOUS
 10
7.3980605366
 20
6.0016527184
 11
7.3952224253
 21
6.0016527184
  0
LINE
  5
2C0
100
AcDbEntity
  8
0
100
AcDbLine
 62
7
  6
CONTINUOUS
 10
7.3827738413
 20
6.0016527184
 11
7.3799200645
 21
6.0016527184
  0
LINE
  5
2C1
100
AcDbEntity
  8
0
100
AcDbLine
 62
7
  6
CONTINUOUS
 10
7.3674200645
 20
6.0016527184
 11
7.3645498671
 21
6.0016527184
  0
LINE
  5
2C2
100
AcDbEntity
  8
0
100
AcDbLine
 62
7
  6
CONTINUOUS
 10
7.3520498671
 20
6.0016527184
 11
7.3491796697
 21
6.0016527184
  0
LINE
  5
2C3
100
AcDbEntity
  8
0
100
AcDbLine
 62
7
  6
CONTINUOUS
 10
7.3366796697
 20
6.0016527184
 11
7.333825893
 21
6.0016527184
  0
LINE
  5
2C4
100
AcDbEntity
  8
0
100
AcDbLine
 62
7
  6
CONTINUOUS
 10
7.3213773089
 20
6.0016527184
 11
7.3185391977
 21
6.0016527184
  0
LINE
  5
2C5
100
AcDbEntity
  8
0
100
AcDbLine
 62
7
  6
CONTINUOUS
 10
7.3061761503
 20
6.0016527184
 11
7.3033614837
 21
6.0016527184
  0
LINE
  5
2C6
100
AcDbEntity
  8
0
100
AcDbLine
 62
7
  6
CONTINUOUS
 10
7.2911178592
 20
6.0016527184
 11
7.2883343519
 21
6.0016527184
  0
LINE
  5
2C7
100
AcDbEntity
  8
0
100
AcDbLine
 62
7
  6
CONTINUOUS
 10
7.2762437093
 20
6.0016527184
 11
7.2734907769
 21
6.0016527184
  0
LINE
  5
2C8
100
AcDbEntity
  8
0
100
AcDbLine
 62
7
  6
CONTINUOUS
 10
7.2616025705
 20
6.0016527184
 11
7.2588960629
 21
6.0016527184
  0
LINE
  5
2C9
100
AcDbEntity
  8
0
100
AcDbLine
 62
7
  6
CONTINUOUS
 10
7.2472102926
 20
6.0016527184
 11
7.244565594
 21
6.0016527184
  0
LINE
  5
2CA
100
AcDbEntity
  8
0
100
AcDbLine
 62
7
  6
CONTINUOUS
 10
7.2331306045
 20
6.0016527184
 11
7.2305468628
 21
6.0016527184
  0
LINE
  5
2CB
100
AcDbEntity
  8
0
100
AcDbLine
 62
7
  6
CONTINUOUS
 10
7.2193939966
 20
6.0016527184
 11
7.2168782937
 21
6.0016527184
  0
LINE
  5
2CC
100
AcDbEntity
  8
0
100
AcDbLine
 62
7
  6
CONTINUOUS
 10
7.2060381201
 20
6.0016527184
 11
7.2035973514
 21
6.0016527184
  0
LINE
  5
2CD
100
AcDbEntity
  8
0
100
AcDbLine
 62
7
  6
CONTINUOUS
 10
7.1930995824
 20
6.0016527184
 11
7.1907333914
 21
6.0016527184
  0
LINE
  5
2CE
100
AcDbEntity
  8
0
100
AcDbLine
 62
7
  6
CONTINUOUS
 10
7.180620679
 20
6.0016527184
 11
7.178342793
 21
6.0016527184
  0
LINE
  5
2CF
100
AcDbEntity
  8
0
100
AcDbLine
 62
7
  6
CONTINUOUS
 10
7.1686151371
 20
6.0016527184
 11
7.1664383981
 21
6.0016527184
  0
LINE
  5
2D0
100
AcDbEntity
  8
0
100
AcDbLine
 62
7
  6
CONTINUOUS
 10
7.1571363396
 20
6.0016527184
 11
7.1550598821
 21
6.0016527184
  0
LINE
  5
2D1
100
AcDbEntity
  8
0
100
AcDbLine
 62
7
  6
CONTINUOUS
 10
7.1462089174
 20
6.0016527184
 11
7.1442384327
 21
6.0016527184
  0
LINE
  5
2D2
100
AcDbEntity
  8
0
100
AcDbLine
 62
7
  6
CONTINUOUS
 10
7.1358628217
 20
6.0016527184
 11
7.1340037109
 21
6.0016527184
  0
LINE
  5
2D3
100
AcDbEntity
  8
0
100
AcDbLine
 62
7
  6
CONTINUOUS
 10
7.1261264105
 20
6.0016527184
 11
7.12437858
 21
6.0016527184
  0
LINE
  5
2D4
100
AcDbEntity
  8
0
100
AcDbLine
 62
7
  6
CONTINUOUS
 10
7.1170312643
 20
6.0016527184
 11
7.1154049754
 21
6.0016527184
  0
LINE
  5
2D5
100
AcDbEntity
  8
0
100
AcDbLine
 62
7
  6
CONTINUOUS
 10
7.1085876446
 20
6.0016527184
 11
7.1070919395
 21
6.0016527184
  0
LINE
  5
2D6
100
AcDbEntity
  8
0
100
AcDbLine
 62
7
  6
CONTINUOUS
 10
7.1008333624
 20
6.0016527184
 11
7.0994674471
 21
6.0016527184
  0
LINE
  5
2D7
100
AcDbEntity
  8
0
100
AcDbLine
 62
7
  6
CONTINUOUS
 10
7.093784778
 20
6.0016527184
 11
7.0925523964
 21
6.0016527184
  0
LINE
  5
2D8
100
AcDbEntity
  8
0
100
AcDbLine
 62
7
  6
CONTINUOUS
 10
7.0874612111
 20
6.0016527184
 11
7.086365741
 21
6.0016527184
  0
LINE
  5
2D9
100
AcDbEntity
  8
0
100
AcDbLine
 62
7
  6
CONTINUOUS
 10
7.0818799941
 20
6.0016527184
 11
7.080921614
 21
6.0016527184
  0
LINE
  5
2DA
100
AcDbEntity
  8
0
100
AcDbLine
 62
7
  6
CONTINUOUS
 10
7.0770589016
 20
6.0016527184
 11
7.0762434021
 21
6.0016527184
  0
LINE
  5
2DB
100
AcDbEntity
  8
0
100
AcDbLine
 62
7
  6
CONTINUOUS
 10
7.0730037242
 20
6.0016527184
 11
7.0723354632
 21
6.0016527184
  0
LINE
  5
2DC
100
AcDbEntity
  8
0
100
AcDbLine
 62
7
  6
CONTINUOUS
 10
7.0697330005
 20
6.0016527184
 11
7.0692113329
 21
6.0016527184
  0
LINE
  5
2DD
100
AcDbEntity
  8
0
100
AcDbLine
 62
7
  6
CONTINUOUS
 10
7.0672532185
 20
6.0016527184
 11
7.0668795741
 21
6.0016527184
  0
LINE
  5
2DE
100
AcDbEntity
  8
0
100
AcDbLine
 62
7
  6
CONTINUOUS
 10
7.0655711752
 20
6.0016527184
 11
7.0653465781
 21
6.0016527184
  0
LINE
  5
2DF
100
AcDbEntity
  8
0
100
AcDbLine
 62
7
  6
CONTINUOUS
 10
7.0646914809
 20
6.0016527184
 11
7.064616364
 21
6.0016527184
  0
LINE
  5
2E0
100
AcDbEntity
  8
0
100
AcDbLine
 62
7
  6
CONTINUOUS
 10
3.0490848795
 20
6.007342988
 11
3.6675148548
 21
6.007342988
  0
LINE
  5
2E1
100
AcDbEntity
  8
0
100
AcDbLine
 62
7
  6
CONTINUOUS
 10
7.0802842696
 20
6.0116527184
 11
7.1258669802
 21
6.0116527184
  0
LINE
  5
2E2
100
AcDbEntity
  8
0
100
AcDbLine
 62
7
  6
CONTINUOUS
 10
7.1267308528
 20
6.0116527184
 11
7.6363154647
 21
6.0116527184
  0
LINE
  5
2E3
100
AcDbEntity
  8
0
100
AcDbLine
 62
7
  6
CONTINUOUS
 10
3.6653726064
 20
6.0315662818
 11
3.0512271279
 21
6.0315662818
  0
LINE
  5
2E4
100
AcDbEntity
  8
0
100
AcDbLine
 62
7
  6
CONTINUOUS
 10
7.2705053337
 20
5.7227051346
 11
7.2509883078
 21
5.7255984889
  0
LWPOLYLINE
  5
2E5
100
AcDbEntity
  8
0
100
AcDbPolyline
 62
7
  6
CONTINUOUS
 90
3
 70
0
 10
7.1657999125
 20
6.7450573093
 10
7.1659880669
 20
6.7422587752
 10
7.1667592585
 20
6.738798686
  0
LINE
  5
2E6
100
AcDbEntity
  8
0
100
AcDbLine
 62
7
  6
CONTINUOUS
 10
7.2869951222
 20
5.7247255491
 11
7.2870430814
 21
5.7233927618
  0
LINE
  5
2E7
100
AcDbEntity
  8
0
100
AcDbLine
 62
7
  6
CONTINUOUS
 10
7.2996973691
 20
5.7386890389
 11
7.2998284672
 21
5.7336042454
  0
LINE
  5
2E8
100
AcDbEntity
  8
0
100
AcDbLine
 62
7
  6
CONTINUOUS
 10
7.1358628217
 20
6.0016527184
 11
7.1358628217
 21
5.8741527184
  0
LINE
  5
2E9
100
AcDbEntity
  8
0
100
AcDbLine
 62
7
  6
CONTINUOUS
 10
7.1442384327
 20
5.8741527184
 11
7.1442384327
 21
6.0016527184
  0
LINE
  5
2EA
100
AcDbEntity
  8
0
100
AcDbLine
 62
7
  6
CONTINUOUS
 10
7.1462089174
 20
6.0016527184
 11
7.1462089174
 21
5.8741527184
  0
LINE
  5
2EB
100
AcDbEntity
  8
0
100
AcDbLine
 62
7
  6
CONTINUOUS
 10
7.1550598821
 20
5.8741527184
 11
7.1550598821
 21
6.0016527184
  0
LINE
  5
2EC
100
AcDbEntity
  8
0
100
AcDbLine
 62
7
  6
CONTINUOUS
 10
7.1571363396
 20
6.0016527184
 11
7.1571363396
 21
5.8741527184
  0
LINE
  5
2ED
100
AcDbEntity
  8
0
100
AcDbLine
 62
7
  6
CONTINUOUS
 10
7.1657998671
 20
6.7450524927
 11
7.1657998671
 21
7.0392393676
  0
LINE
  5
2EE
100
AcDbEntity
  8
0
100
AcDbLine
 62
7
  6
CONTINUOUS
 10
7.1664383981
 20
5.8741527184
 11
7.1664383981
 21
6.0016527184
  0
LINE
  5
2EF
100
AcDbEntity
  8
0
100
AcDbLine
 62
7
  6
CONTINUOUS
 10
7.1686151371
 20
6.0016527184
 11
7.1686151371
 21
5.8741527184
  0
LINE
  5
2F0
100
AcDbEntity
  8
0
100
AcDbLine
 62
7
  6
CONTINUOUS
 10
7.178342793
 20
5.8741527184
 11
7.178342793
 21
6.0016527184
  0
LINE
  5
2F1
100
AcDbEntity
  8
0
100
AcDbLine
 62
7
  6
CONTINUOUS
 10
7.180620679
 20
6.0016527184
 11
7.180620679
 21
5.8741527184
  0
LINE
  5
2F2
100
AcDbEntity
  8
0
100
AcDbLine
 62
7
  6
CONTINUOUS
 10
7.1857998671
 20
7.0581509283
 11
7.1857998671
 21
6.7898470641
  0
LINE
  5
2F3
100
AcDbEntity
  8
0
100
AcDbLine
 62
7
  6
CONTINUOUS
 10
7.1907333914
 20
5.8741527184
 11
7.1907333914
 21
6.0016527184
  0
LINE
  5
2F4
100
AcDbEntity
  8
0
100
AcDbLine
 62
7
  6
CONTINUOUS
 10
7.1920498671
 20
6.7110621672
 11
7.1920498671
 21
6.7213592312
  0
LINE
  5
2F5
100
AcDbEntity
  8
0
100
AcDbLine
 62
7
  6
CONTINUOUS
 10
7.1930995824
 20
6.0016527184
 11
7.1930995824
 21
5.8741527184
  0
LINE
  5
2F6
100
AcDbEntity
  8
0
100
AcDbLine
 62
7
  6
CONTINUOUS
 10
7.2024107562
 20
5.8741527184
 11
7.2024107562
 21
6.0113416896
  0
LINE
  5
2F7
100
AcDbEntity
  8
0
100
AcDbLine
 62
7
  6
CONTINUOUS
 10
7.2035973514
 20
5.8741527184
 11
7.2035973514
 21
6.0016527184
  0
LINE
  5
2F8
100
AcDbEntity
  8
0
100
AcDbLine
 62
7
  6
CONTINUOUS
 10
7.2060381201
 20
6.0016527184
 11
7.2060381201
 21
5.8741527184
  0
LINE
  5
2F9
100
AcDbEntity
  8
0
100
AcDbLine
 62
7
  6
CONTINUOUS
 10
7.2151875478
 20
6.0113416896
 11
7.2151875478
 21
5.8741527184
  0
LINE
  5
2FA
100
AcDbEntity
  8
0
100
AcDbLine
 62
7
  6
CONTINUOUS
 10
7.2168782937
 20
5.8741527184
 11
7.2168782937
 21
6.0016527184
  0
LINE
  5
2FB
100
AcDbEntity
  8
0
100
AcDbLine
 62
7
  6
CONTINUOUS
 10
7.2193939966
 20
6.0016527184
 11
7.2193939966
 21
5.8741527184
  0
LINE
  5
2FC
100
AcDbEntity
  8
0
100
AcDbLine
 62
7
  6
CONTINUOUS
 10
7.2283566004
 20
6.0113416896
 11
7.2283566004
 21
5.8741527184
  0
LINE
  5
2FD
100
AcDbEntity
  8
0
100
AcDbLine
 62
7
  6
CONTINUOUS
 10
7.2305468628
 20
5.8741527184
 11
7.2305468628
 21
6.0016527184
  0
LINE
  5
2FE
100
AcDbEntity
  8
0
100
AcDbLine
 62
7
  6
CONTINUOUS
 10
7.2331306045
 20
6.0016527184
 11
7.2331306045
 21
5.8741527184
  0
LINE
  5
2FF
100
AcDbEntity
  8
0
100
AcDbLine
 62
7
  6
CONTINUOUS
 10
7.2418818185
 20
6.0113416896
 11
7.2418818185
 21
5.8741527184
  0
LINE
  5
300
100
AcDbEntity
  8
0
100
AcDbLine
 62
7
  6
CONTINUOUS
 10
7.244565594
 20
5.8741527184
 11
7.244565594
 21
6.0016527184
  0
LINE
  5
301
100
AcDbEntity
  8
0
100
AcDbLine
 62
7
  6
CONTINUOUS
 10
7.2457998671
 20
7.0789386719
 11
7.2457998671
 21
7.0800283004
  0
LINE
  5
302
100
AcDbEntity
  8
0
100
AcDbLine
 62
7
  6
CONTINUOUS
 10
7.2472102926
 20
6.0016527184
 11
7.2472102926
 21
5.8741527184
  0
LINE
  5
303
100
AcDbEntity
  8
0
100
AcDbLine
 62
7
  6
CONTINUOUS
 10
7.2557261303
 20
6.0113416896
 11
7.2557261303
 21
5.8741527184
  0
LINE
  5
304
100
AcDbEntity
  8
0
100
AcDbLine
 62
7
  6
CONTINUOUS
 10
7.2588960629
 20
5.8741527184
 11
7.2588960629
 21
6.0016527184
  0
LINE
  5
305
100
AcDbEntity
  8
0
100
AcDbLine
 62
7
  6
CONTINUOUS
 10
7.2616025705
 20
6.0016527184
 11
7.2616025705
 21
5.8741527184
  0
LINE
  5
306
100
AcDbEntity
  8
0
100
AcDbLine
 62
7
  6
CONTINUOUS
 10
7.2698483744
 20
6.0113390263
 11
7.2698483744
 21
5.8741527184
  0
LINE
  5
307
100
AcDbEntity
  8
0
100
AcDbLine
 62
7
  6
CONTINUOUS
 10
7.2734907769
 20
5.8741527184
 11
7.2734907769
 21
6.0016527184
  0
LINE
  5
308
100
AcDbEntity
  8
0
100
AcDbLine
 62
7
  6
CONTINUOUS
 10
7.2762437093
 20
6.0016528967
 11
7.2762437093
 21
5.8741527184
  0
LINE
  5
309
100
AcDbEntity
  8
0
100
AcDbLine
 62
7
  6
CONTINUOUS
 10
7.2842194795
 20
6.0113416896
 11
7.2842194795
 21
5.8741527184
  0
LINE
  5
30A
100
AcDbEntity
  8
0
100
AcDbLine
 62
7
  6
CONTINUOUS
 10
7.2883343519
 20
5.8741527184
 11
7.2883343519
 21
6.0016531634
  0
LINE
  5
30B
100
AcDbEntity
  8
0
100
AcDbLine
 62
7
  6
CONTINUOUS
 10
7.2911178592
 20
6.0016529992
 11
7.2911178592
 21
5.8741527184
  0
LINE
  5
30C
100
AcDbEntity
  8
0
100
AcDbLine
 62
7
  6
CONTINUOUS
 10
7.2987904186
 20
6.0113416896
 11
7.2987904186
 21
5.8741527184
  0
LINE
  5
30D
100
AcDbEntity
  8
0
100
AcDbLine
 62
7
  6
CONTINUOUS
 10
7.3033614837
 20
5.8741527184
 11
7.3033614837
 21
6.0016527384
  0
LINE
  5
30E
100
AcDbEntity
  8
0
100
AcDbLine
 62
7
  6
CONTINUOUS
 10
7.3061761503
 20
6.0016532226
 11
7.3061761503
 21
5.8741527184
  0
LINE
  5
30F
100
AcDbEntity
  8
0
100
AcDbLine
 62
7
  6
CONTINUOUS
 10
7.3135244689
 20
6.0113416896
 11
7.3135244689
 21
5.8741527184
  0
LINE
  5
310
100
AcDbEntity
  8
0
100
AcDbLine
 62
7
  6
CONTINUOUS
 10
7.3185391977
 20
5.8741527184
 11
7.3185391977
 21
6.0016530355
  0
LINE
  5
311
100
AcDbEntity
  8
0
100
AcDbLine
 62
7
  6
CONTINUOUS
 10
7.3213773089
 20
6.001652956
 11
7.3213773089
 21
5.8741527184
  0
LINE
  5
312
100
AcDbEntity
  8
0
100
AcDbLine
 62
7
  6
CONTINUOUS
 10
7.3283812455
 20
6.0113416896
 11
7.3283812455
 21
5.8741527184
  0
LINE
  5
313
100
AcDbEntity
  8
0
100
AcDbLine
 62
7
  6
CONTINUOUS
 10
7.333825893
 20
5.8741527184
 11
7.333825893
 21
6.0016531635
  0
LINE
  5
314
100
AcDbEntity
  8
0
100
AcDbLine
 62
7
  6
CONTINUOUS
 10
7.3366796697
 20
6.0016531374
 11
7.3366796697
 21
5.8741527184
  0
LINE
  5
315
100
AcDbEntity
  8
0
100
AcDbLine
 62
7
  6
CONTINUOUS
 10
7.343320027
 20
6.0113416896
 11
7.343320027
 21
5.8741527184
  0
LINE
  5
316
100
AcDbEntity
  8
0
100
AcDbLine
 62
7
  6
CONTINUOUS
 10
7.3491796697
 20
5.8741527184
 11
7.3491796697
 21
6.001652725
  0
LINE
  5
317
100
AcDbEntity
  8
0
100
AcDbLine
 62
7
  6
CONTINUOUS
 10
7.3520498671
 20
6.0016527316
 11
7.3520498671
 21
5.8741527184
  0
LINE
  5
318
100
AcDbEntity
  8
0
100
AcDbLine
 62
7
  6
CONTINUOUS
 10
7.3582998671
 20
6.2156038255
 11
7.358299859
 21
6.0895260909
  0
LINE
  5
319
100
AcDbEntity
  8
0
100
AcDbLine
 62
7
  6
CONTINUOUS
 10
7.3582998671
 20
6.0113390263
 11
7.3582998671
 21
5.8741527184
  0
LINE
  5
31A
100
AcDbEntity
  8
0
100
AcDbLine
 62
7
  6
CONTINUOUS
 10
7.3582998293
 20
6.648510856
 11
7.3582998672
 21
6.5802621954
  0
LINE
  5
31B
100
AcDbEntity
  8
0
100
AcDbLine
 62
7
  6
CONTINUOUS
 10
7.3645498671
 20
5.8741527184
 11
7.3645498671
 21
6.0016527383
  0
LINE
  5
31C
100
AcDbEntity
  8
0
100
AcDbLine
 62
7
  6
CONTINUOUS
 10
7.3674200645
 20
6.0016527184
 11
7.3674200645
 21
5.8741527184
  0
LINE
  5
31D
100
AcDbEntity
  8
0
100
AcDbLine
 62
7
  6
CONTINUOUS
 10
7.3732797073
 20
6.0113416896
 11
7.3732797073
 21
5.8741527184
  0
LINE
  5
31E
100
AcDbEntity
  8
0
100
AcDbLine
 62
7
  6
CONTINUOUS
 10
7.3799200645
 20
5.8741527184
 11
7.3799200645
 21
6.0016527184
  0
LINE
  5
31F
100
AcDbEntity
  8
0
100
AcDbLine
 62
7
  6
CONTINUOUS
 10
7.3827738413
 20
6.0016527184
 11
7.3827738413
 21
5.8741527184
  0
LINE
  5
320
100
AcDbEntity
  8
0
100
AcDbLine
 62
7
  6
CONTINUOUS
 10
7.2521615595
 20
5.7365526203
 11
7.2521573795
 21
5.7336042454
  0
LINE
  5
321
100
AcDbEntity
  8
0
100
AcDbLine
 62
7
  6
CONTINUOUS
 10
7.1657998671
 20
7.0392405568
 11
7.1658017236
 21
7.0394982056
  0
LINE
  5
322
100
AcDbEntity
  8
0
100
AcDbLine
 62
7
  6
CONTINUOUS
 10
4.7419643029
 20
6.2373121672
 11
4.738264486
 21
6.2373121672
  0
LINE
  5
323
100
AcDbEntity
  8
0
100
AcDbLine
 62
7
  6
CONTINUOUS
 10
7.2076085423
 20
5.7342100288
 11
7.192606388
 21
5.7378867702
  0
LINE
  5
324
100
AcDbEntity
  8
0
100
AcDbLine
 62
7
  6
CONTINUOUS
 10
7.4616193529
 20
5.7355537518
 11
7.4617573688
 21
5.7336042454
  0
LINE
  5
325
100
AcDbEntity
  8
0
100
AcDbLine
 62
7
  6
CONTINUOUS
 10
7.4130126937
 20
5.7374657255
 11
7.413263164
 21
5.7336042454
  0
LINE
  5
326
100
AcDbEntity
  8
0
100
AcDbLine
 62
7
  6
CONTINUOUS
 10
7.3498727732
 20
5.7248877175
 11
7.3499681539
 21
5.7233927618
  0
LINE
  5
327
100
AcDbEntity
  8
0
100
AcDbLine
 62
7
  6
CONTINUOUS
 10
7.3561670934
 20
5.7383782903
 11
7.3564012954
 21
5.7336042454
  0
LINE
  5
328
100
AcDbEntity
  8
0
100
AcDbLine
 62
7
  6
CONTINUOUS
 10
7.5507991653
 20
7.0393989791
 11
7.5507998671
 21
7.0392405568
  0
LINE
  5
329
100
AcDbEntity
  8
0
100
AcDbLine
 62
7
  6
CONTINUOUS
 10
7.3882184888
 20
6.0113416896
 11
7.3882184888
 21
5.8741527184
  0
LINE
  5
32A
100
AcDbEntity
  8
0
100
AcDbLine
 62
7
  6
CONTINUOUS
 10
7.3952224253
 20
5.8741527184
 11
7.3952224253
 21
6.0016527184
  0
LINE
  5
32B
100
AcDbEntity
  8
0
100
AcDbLine
 62
7
  6
CONTINUOUS
 10
7.3980605366
 20
6.0016527184
 11
7.3980605366
 21
5.8741527184
  0
LINE
  5
32C
100
AcDbEntity
  8
0
100
AcDbLine
 62
7
  6
CONTINUOUS
 10
7.4030752654
 20
6.0113416896
 11
7.4030752654
 21
5.8741527184
  0
LINE
  5
32D
100
AcDbEntity
  8
0
100
AcDbLine
 62
7
  6
CONTINUOUS
 10
7.410423584
 20
5.8741527184
 11
7.410423584
 21
6.0016527184
  0
LINE
  5
32E
100
AcDbEntity
  8
0
100
AcDbLine
 62
7
  6
CONTINUOUS
 10
7.4132382506
 20
6.0016527184
 11
7.4132382506
 21
5.8741527184
  0
LINE
  5
32F
100
AcDbEntity
  8
0
100
AcDbLine
 62
7
  6
CONTINUOUS
 10
7.4178093157
 20
6.0113416896
 11
7.4178093157
 21
5.8741527184
  0
LINE
  5
330
100
AcDbEntity
  8
0
100
AcDbLine
 62
7
  6
CONTINUOUS
 10
7.4254818751
 20
5.8741527184
 11
7.4254818751
 21
6.0016527184
  0
LINE
  5
331
100
AcDbEntity
  8
0
100
AcDbLine
 62
7
  6
CONTINUOUS
 10
7.4282653824
 20
6.0016527184
 11
7.4282653824
 21
5.8741527184
  0
LINE
  5
332
100
AcDbEntity
  8
0
100
AcDbLine
 62
7
  6
CONTINUOUS
 10
7.4323802548
 20
6.0113416896
 11
7.4323802548
 21
5.8741527184
  0
LINE
  5
333
100
AcDbEntity
  8
0
100
AcDbLine
 62
7
  6
CONTINUOUS
 10
7.440356025
 20
5.8741527184
 11
7.440356025
 21
6.0016527184
  0
LINE
  5
334
100
AcDbEntity
  8
0
100
AcDbLine
 62
7
  6
CONTINUOUS
 10
7.4431089573
 20
6.0016527184
 11
7.4431089573
 21
5.8741527184
  0
LINE
  5
335
100
AcDbEntity
  8
0
100
AcDbLine
 62
7
  6
CONTINUOUS
 10
7.4467513599
 20
6.0113390263
 11
7.4467513599
 21
5.8741527184
  0
LINE
  5
336
100
AcDbEntity
  8
0
100
AcDbLine
 62
7
  6
CONTINUOUS
 10
7.4549971638
 20
5.8741527184
 11
7.4549971638
 21
6.0016527184
  0
LINE
  5
337
100
AcDbEntity
  8
0
100
AcDbLine
 62
7
  6
CONTINUOUS
 10
7.4577036714
 20
6.0016527184
 11
7.4577036714
 21
5.8741527184
  0
LINE
  5
338
100
AcDbEntity
  8
0
100
AcDbLine
 62
7
  6
CONTINUOUS
 10
7.460873604
 20
6.0113416896
 11
7.460873604
 21
5.8741527184
  0
LINE
  5
339
100
AcDbEntity
  8
0
100
AcDbLine
 62
7
  6
CONTINUOUS
 10
7.4693894416
 20
5.8741527184
 11
7.4693894416
 21
6.0016527184
  0
LINE
  5
33A
100
AcDbEntity
  8
0
100
AcDbLine
 62
7
  6
CONTINUOUS
 10
7.4707998671
 20
7.0800283004
 11
7.4707998671
 21
7.0789386719
  0
LINE
  5
33B
100
AcDbEntity
  8
0
100
AcDbLine
 62
7
  6
CONTINUOUS
 10
7.4720341403
 20
6.0016527184
 11
7.4720341403
 21
5.8741527184
  0
LINE
  5
33C
100
AcDbEntity
  8
0
100
AcDbLine
 62
7
  6
CONTINUOUS
 10
7.4747179158
 20
6.0113416896
 11
7.4747179158
 21
5.8741527184
  0
LINE
  5
33D
100
AcDbEntity
  8
0
100
AcDbLine
 62
7
  6
CONTINUOUS
 10
7.4834691298
 20
5.8741527184
 11
7.4834691298
 21
6.0016527184
  0
LINE
  5
33E
100
AcDbEntity
  8
0
100
AcDbLine
 62
7
  6
CONTINUOUS
 10
7.4860528715
 20
6.0016527184
 11
7.4860528715
 21
5.8741527184
  0
LINE
  5
33F
100
AcDbEntity
  8
0
100
AcDbLine
 62
7
  6
CONTINUOUS
 10
7.4882431339
 20
6.0113416896
 11
7.4882431339
 21
5.8741527184
  0
LINE
  5
340
100
AcDbEntity
  8
0
100
AcDbLine
 62
7
  6
CONTINUOUS
 10
7.4972057376
 20
5.8741527184
 11
7.4972057376
 21
6.0016527184
  0
LINE
  5
341
100
AcDbEntity
  8
0
100
AcDbLine
 62
7
  6
CONTINUOUS
 10
7.4997214406
 20
6.0016527184
 11
7.4997214406
 21
5.8741527184
  0
LINE
  5
342
100
AcDbEntity
  8
0
100
AcDbLine
 62
7
  6
CONTINUOUS
 10
7.5014121865
 20
6.0113416896
 11
7.5014121865
 21
5.8741527184
  0
LINE
  5
343
100
AcDbEntity
  8
0
100
AcDbLine
 62
7
  6
CONTINUOUS
 10
7.5105616142
 20
5.8741527184
 11
7.5105616142
 21
6.0016527184
  0
LINE
  5
344
100
AcDbEntity
  8
0
100
AcDbLine
 62
7
  6
CONTINUOUS
 10
7.5130023829
 20
6.0016527184
 11
7.5130023829
 21
5.8741527184
  0
LINE
  5
345
100
AcDbEntity
  8
0
100
AcDbLine
 62
7
  6
CONTINUOUS
 10
7.5141889781
 20
6.0113416896
 11
7.5141889781
 21
5.8741527184
  0
LINE
  5
346
100
AcDbEntity
  8
0
100
AcDbLine
 62
7
  6
CONTINUOUS
 10
7.5235001519
 20
5.8741527184
 11
7.5235001519
 21
6.0016527184
  0
LINE
  5
347
100
AcDbEntity
  8
0
100
AcDbLine
 62
7
  6
CONTINUOUS
 10
7.5245498671
 20
6.7213572303
 11
7.5245498671
 21
6.7110621672
  0
LINE
  5
348
100
AcDbEntity
  8
0
100
AcDbLine
 62
7
  6
CONTINUOUS
 10
7.5258663429
 20
6.0016527184
 11
7.5258663429
 21
5.8741527184
  0
LINE
  5
349
100
AcDbEntity
  8
0
100
AcDbLine
 62
7
  6
CONTINUOUS
 10
7.5307998671
 20
6.7898470641
 11
7.5307998671
 21
7.0581509283
  0
LINE
  5
34A
100
AcDbEntity
  8
0
100
AcDbLine
 62
7
  6
CONTINUOUS
 10
7.5359790553
 20
5.8741527184
 11
7.5359790553
 21
6.0016527184
  0
LINE
  5
34B
100
AcDbEntity
  8
0
100
AcDbLine
 62
7
  6
CONTINUOUS
 10
7.5382569412
 20
6.0016527184
 11
7.5382569412
 21
5.8741527184
  0
LINE
  5
34C
100
AcDbEntity
  8
0
100
AcDbLine
 62
7
  6
CONTINUOUS
 10
7.5479845972
 20
5.8741527184
 11
7.5479845972
 21
6.0016527184
  0
LINE
  5
34D
100
AcDbEntity
  8
0
100
AcDbLine
 62
7
  6
CONTINUOUS
 10
7.5501613362
 20
6.0016527184
 11
7.5501613362
 21
5.8741527184
  0
LINE
  5
34E
100
AcDbEntity
  8
0
100
AcDbLine
 62
7
  6
CONTINUOUS
 10
7.5507998671
 20
7.0392393933
 11
7.5507998671
 21
6.7450524873
  0
LINE
  5
34F
100
AcDbEntity
  8
0
100
AcDbLine
 62
7
  6
CONTINUOUS
 10
7.5594633947
 20
5.8741527184
 11
7.5594633947
 21
6.0016527184
  0
LINE
  5
350
100
AcDbEntity
  8
0
100
AcDbLine
 62
7
  6
CONTINUOUS
 10
7.5615398522
 20
6.0016527184
 11
7.5615398522
 21
5.8741527184
  0
LINE
  5
351
100
AcDbEntity
  8
0
100
AcDbLine
 62
7
  6
CONTINUOUS
 10
7.5703908169
 20
5.8741527184
 11
7.5703908169
 21
6.0016527184
  0
LINE
  5
352
100
AcDbEntity
  8
0
100
AcDbLine
 62
7
  6
CONTINUOUS
 10
7.5723613015
 20
6.0016527184
 11
7.5723613015
 21
5.8741527184
  0
LINE
  5
353
100
AcDbEntity
  8
0
100
AcDbLine
 62
7
  6
CONTINUOUS
 10
7.5807369126
 20
5.8741527184
 11
7.5807369126
 21
6.0016527184
  0
LINE
  5
354
100
AcDbEntity
  8
0
100
AcDbLine
 62
7
  6
CONTINUOUS
 10
7.5825960233
 20
6.0016527184
 11
7.5825960233
 21
5.8741527184
  0
LINE
  5
355
100
AcDbEntity
  8
0
100
AcDbLine
 62
7
  6
CONTINUOUS
 10
7.5904733238
 20
5.8741527184
 11
7.5904733238
 21
6.0016527184
  0
LINE
  5
356
100
AcDbEntity
  8
0
100
AcDbLine
 62
7
  6
CONTINUOUS
 10
7.5922211543
 20
6.0016527184
 11
7.5922211543
 21
5.8741527184
  0
LINE
  5
357
100
AcDbEntity
  8
0
100
AcDbLine
 62
7
  6
CONTINUOUS
 10
7.59956847
 20
5.8741527184
 11
7.59956847
 21
6.0016527184
  0
LINE
  5
358
100
AcDbEntity
  8
0
100
AcDbLine
 62
7
  6
CONTINUOUS
 10
7.6011947589
 20
6.0016527184
 11
7.6011947589
 21
5.8741527184
  0
LINE
  5
359
100
AcDbEntity
  8
0
100
AcDbLine
 62
7
  6
CONTINUOUS
 10
7.6080120897
 20
5.8741527184
 11
7.6080120897
 21
6.0016527184
  0
LINE
  5
35A
100
AcDbEntity
  8
0
100
AcDbLine
 62
7
  6
CONTINUOUS
 10
7.6095077947
 20
6.0016527184
 11
7.6095077947
 21
5.8741527184
  0
LINE
  5
35B
100
AcDbEntity
  8
0
100
AcDbLine
 62
7
  6
CONTINUOUS
 10
7.6140497688
 20
6.0116527184
 11
7.6140497688
 21
6.1185569693
  0
LINE
  5
35C
100
AcDbEntity
  8
0
100
AcDbLine
 62
7
  6
CONTINUOUS
 10
7.6157663719
 20
5.8741527184
 11
7.6157663719
 21
6.0016527184
  0
LINE
  5
35D
100
AcDbEntity
  8
0
100
AcDbLine
 62
7
  6
CONTINUOUS
 10
7.6171322871
 20
6.0016527184
 11
7.6171322871
 21
5.8741527184
  0
LINE
  5
35E
100
AcDbEntity
  8
0
100
AcDbLine
 62
7
  6
CONTINUOUS
 10
7.6228149563
 20
5.8741527184
 11
7.6228149563
 21
6.0016527184
  0
LINE
  5
35F
100
AcDbEntity
  8
0
100
AcDbLine
 62
7
  6
CONTINUOUS
 10
7.6240473379
 20
6.0016527184
 11
7.6240473379
 21
5.8741527184
  0
LINE
  5
360
100
AcDbEntity
  8
0
100
AcDbLine
 62
7
  6
CONTINUOUS
 10
7.6291385232
 20
5.8741527184
 11
7.6291385232
 21
6.0016527184
  0
LINE
  5
361
100
AcDbEntity
  8
0
100
AcDbLine
 62
7
  6
CONTINUOUS
 10
7.6302339932
 20
6.0016527184
 11
7.6302339932
 21
5.8741527184
  0
LINE
  5
362
100
AcDbEntity
  8
0
100
AcDbLine
 62
7
  6
CONTINUOUS
 10
7.6347197402
 20
5.8741527184
 11
7.6347197402
 21
6.0016527184
  0
LINE
  5
363
100
AcDbEntity
  8
0
100
AcDbLine
 62
7
  6
CONTINUOUS
 10
7.6357998671
 20
5.8306868352
 11
7.6356781203
 21
6.0016527184
  0
LINE
  5
364
100
AcDbEntity
  8
0
100
AcDbLine
 62
7
  6
CONTINUOUS
 10
7.6395408327
 20
5.8741527184
 11
7.6395408327
 21
6.0016527184
  0
LINE
  5
365
100
AcDbEntity
  8
0
100
AcDbLine
 62
7
  6
CONTINUOUS
 10
7.5507986864
 20
6.7448355656
 11
7.5507998671
 21
6.745052361
  0
LWPOLYLINE
  5
366
100
AcDbEntity
  8
0
100
AcDbPolyline
 62
7
  6
CONTINUOUS
 90
10
 70
0
 10
7.6140498669
 20
6.1185596207
 10
7.6142019291
 20
6.1249925439
 10
7.6149782505
 20
6.1344634473
 10
7.6163908929
 20
6.1437877036
 10
7.6183946395
 20
6.1528446321
 10
7.6209389901
 20
6.1615712732
 10
7.6239858775
 20
6.1699598533
 10
7.6274839165
 20
6.1779639942
 10
7.6313554463
 20
6.1855035963
 10
7.6341062961
 20
6.1902485382
  0
LWPOLYLINE
  5
367
100
AcDbEntity
  8
0
100
AcDbPolyline
 62
7
  6
CONTINUOUS
 90
22
 70
0
 10
7.5053189228
 20
6.7186110291
 10
7.5092040987
 20
6.7190512533
 10
7.5127463505
 20
6.7194909168
 10
7.5159960938
 20
6.7199333771
 10
7.5189677112
 20
6.7203781732
 10
7.5216811352
 20
6.7208259102
 10
7.5241905239
 20
6.7212842117
 10
7.5265045274
 20
6.7217544174
 10
7.5286441261
 20
6.7222409978
 10
7.5306832127
 20
6.7227642215
 10
7.5326172063
 20
6.7233297654
 10
7.534479781
 20
6.7239568927
 10
7.5364086685
 20
6.7247165105
 10
7.538435844
 20
6.7256711335
 10
7.5405257022
 20
6.7268727967
 10
7.5426998157
 20
6.7284324206
 10
7.5449388416
 20
6.7304962232
 10
7.5470498844
 20
6.7330958883
 10
7.548787246
 20
6.7361062436
 10
7.5500183953
 20
6.739396596
 10
7.5506867824
 20
6.7428855975
 10
7.5507987275
 20
6.7448419292
  0
LWPOLYLINE
  5
368
100
AcDbEntity
  8
0
100
AcDbPolyline
 62
7
  6
CONTINUOUS
 90
11
 70
0
 10
7.4407453997
 20
6.7144279921
 10
7.4499254812
 20
6.714799222
 10
7.4583870706
 20
6.7151899973
 10
7.4661300722
 20
6.7155933246
 10
7.4732714031
 20
6.7160090492
 10
7.4798395672
 20
6.7164335942
 10
7.4858471212
 20
6.7168625167
 10
7.4913732229
 20
6.7172967033
 10
7.4964422785
 20
6.7177339231
 10
7.5010714353
 20
6.7181714709
 10
7.5053189228
 20
6.7186110291
  0
LINE
  5
369
100
AcDbEntity
  8
0
100
AcDbLine
 62
7
  6
CONTINUOUS
 10
3.8272998671
 20
6.3860621672
 11
4.1680498671
 21
6.3860621672
  0
LINE
  5
36A
100
AcDbEntity
  8
0
100
AcDbLine
 62
7
  6
CONTINUOUS
 10
4.7382643879
 20
6.5348121672
 11
4.7419643029
 21
6.5348121672
  0
LINE
  5
36B
100
AcDbEntity
  8
0
100
AcDbLine
 62
7
  6
CONTINUOUS
 10
7.1318124173
 20
5.7538484777
 11
7.0816602737
 21
5.8278825944
  0
LINE
  5
36C
100
AcDbEntity
  8
0
100
AcDbLine
 62
7
  6
CONTINUOUS
 10
7.0816602737
 20
5.8278825944
 11
7.0807998671
 21
5.8306868352
  0
LINE
  5
36D
100
AcDbEntity
  8
0
100
AcDbLine
 62
7
  6
CONTINUOUS
 10
7.6108460766
 20
6.6325964179
 11
7.610639245
 21
6.6363807058
  0
LWPOLYLINE
  5
36E
100
AcDbEntity
  8
0
100
AcDbPolyline
 62
7
  6
CONTINUOUS
 90
19
 70
0
 10
7.5507990702
 20
7.0393949232
 10
7.5507418543
 20
7.0410096918
 10
7.550114906
 20
7.0453132976
 10
7.5488021342
 20
7.0495192851
 10
7.5468426863
 20
7.0535107764
 10
7.5443093704
 20
7.0571966909
 10
7.5412672845
 20
7.0605514492
 10
7.5377547985
 20
7.0635884386
 10
7.5337875818
 20
7.0663342134
 10
7.5293387936
 20
7.0688292941
 10
7.5243824418
 20
7.0710940731
 10
7.518950076
 20
7.0731186908
 10
7.5130189857
 20
7.0749120751
 10
7.5065925021
 20
7.0764672147
 10
7.4998319738
 20
7.0777452972
 10
7.4927999501
 20
7.0787433325
 10
7.485547385
 20
7.0794590328
 10
7.4783076028
 20
7.0798817754
 10
7.4707998671
 20
7.0800282221
  0
LINE
  5
36F
100
AcDbEntity
  8
0
100
AcDbLine
 62
7
  6
CONTINUOUS
 10
7.610639245
 20
6.6363807058
 11
7.6106330918
 21
6.6365953441
  0
LINE
  5
370
100
AcDbEntity
  8
0
100
AcDbLine
 62
7
  6
CONTINUOUS
 10
7.6403563321
 20
6.0016527184
 11
7.6403563321
 21
5.8741527184
  0
LINE
  5
371
100
AcDbEntity
  8
0
100
AcDbLine
 62
7
  6
CONTINUOUS
 10
7.6435960101
 20
5.8741527184
 11
7.6435960101
 21
6.0016527184
  0
LINE
  5
372
100
AcDbEntity
  8
0
100
AcDbLine
 62
7
  6
CONTINUOUS
 10
7.6442642711
 20
6.0016527184
 11
7.6442642711
 21
5.8741527184
  0
LINE
  5
373
100
AcDbEntity
  8
0
100
AcDbLine
 62
7
  6
CONTINUOUS
 10
7.6468667338
 20
5.8741527184
 11
7.6468667338
 21
6.0016527184
  0
LINE
  5
374
100
AcDbEntity
  8
0
100
AcDbLine
 62
7
  6
CONTINUOUS
 10
7.6473884014
 20
6.0016527184
 11
7.6473884014
 21
5.8741527184
  0
LINE
  5
375
100
AcDbEntity
  8
0
100
AcDbLine
 62
7
  6
CONTINUOUS
 10
7.6493465157
 20
5.8741527184
 11
7.6493465157
 21
6.0016527184
  0
LINE
  5
376
100
AcDbEntity
  8
0
100
AcDbLine
 62
7
  6
CONTINUOUS
 10
7.6497201602
 20
6.0016527184
 11
7.6497201602
 21
5.8741527184
  0
LINE
  5
377
100
AcDbEntity
  8
0
100
AcDbLine
 62
7
  6
CONTINUOUS
 10
7.6510285591
 20
5.8741527184
 11
7.6510285591
 21
6.0016527184
  0
LINE
  5
378
100
AcDbEntity
  8
0
100
AcDbLine
 62
7
  6
CONTINUOUS
 10
7.6519082534
 20
5.8741527184
 11
7.6519082534
 21
6.0016527184
  0
LWPOLYLINE
  5
379
100
AcDbEntity
  8
0
100
AcDbPolyline
 62
7
  6
CONTINUOUS
 90
3
 70
0
 10
7.4199591617
 20
6.713764304
 10
7.4308161132
 20
6.7140821561
 10
7.4407453997
 20
6.7144279921
  0
LINE
  5
37A
100
AcDbEntity
  8
0
100
AcDbLine
 62
7
  6
CONTINUOUS
 10
7.1079640669
 20
6.7014052924
 11
7.6086356615
 21
6.7014052922
  0
LINE
  5
37B
100
AcDbEntity
  8
0
100
AcDbLine
 62
7
  6
CONTINUOUS
 10
7.1179573253
 20
6.7110621672
 11
7.598642409
 21
6.7110621672
  0
LINE
  5
37C
100
AcDbEntity
  8
0
100
AcDbLine
 62
7
  6
CONTINUOUS
 10
7.1857998671
 20
6.7923261273
 11
7.5307998671
 21
6.7923261273
  0
LINE
  5
37D
100
AcDbEntity
  8
0
100
AcDbLine
 62
7
  6
CONTINUOUS
 10
7.5307998671
 20
6.844371602
 11
7.1857998671
 21
6.844371602
  0
LWPOLYLINE
  5
37E
100
AcDbEntity
  8
0
100
AcDbPolyline
 62
7
  6
CONTINUOUS
 90
10
 70
0
 10
7.2978674919
 20
6.7137321147
 10
7.3098208713
 20
6.713456063
 10
7.3227022291
 20
6.7132312388
 10
7.3364093008
 20
6.713070265
 10
7.3512836428
 20
6.7129833204
 10
7.3668359037
 20
6.7129880838
 10
7.381677912
 20
6.7130839367
 10
7.3953137775
 20
6.7132524051
 10
7.4080978426
 20
6.7134832593
 10
7.4199591617
 20
6.713764304
  0
LINE
  5
37F
100
AcDbEntity
  8
0
100
AcDbLine
 62
7
  6
CONTINUOUS
 10
7.2869360422
 20
6.714045523
 11
7.2978674919
 21
6.7137321147
  0
LINE
  5
380
100
AcDbEntity
  8
0
100
AcDbLine
 62
7
  6
CONTINUOUS
 10
7.5149944144
 20
5.7384395146
 11
7.5148351758
 21
5.7385880516
  0
LWPOLYLINE
  5
381
100
AcDbEntity
  8
0
100
AcDbPolyline
 62
7
  6
CONTINUOUS
 90
3
 70
0
 10
7.0788917005
 20
6.1958647109
 10
7.0804162709
 20
6.19357437
 10
7.0825683524
 20
6.1901557734
  0
LINE
  5
382
100
AcDbEntity
  8
0
100
AcDbLine
 62
7
  6
CONTINUOUS
 10
7.0810505959
 20
6.192591161
 11
7.0788207627
 21
6.195974279
  0
LINE
  5
383
100
AcDbEntity
  8
0
100
AcDbLine
 62
7
  6
CONTINUOUS
 10
7.0788863403
 20
6.1958725748
 11
7.0788207627
 21
6.195974279
  0
LINE
  5
384
100
AcDbEntity
  8
0
100
AcDbLine
 62
7
  6
CONTINUOUS
 10
7.0825682558
 20
6.1901559321
 11
7.0810505959
 21
6.192591161
  0
LINE
  5
385
100
AcDbEntity
  8
0
100
AcDbLine
 62
7
  6
CONTINUOUS
 10
7.0825983423
 20
6.1901064791
 11
7.0825682558
 21
6.1901559321
  0
LINE
  5
386
100
AcDbEntity
  8
0
100
AcDbLine
 62
7
  6
CONTINUOUS
 10
7.0825983423
 20
6.1901064791
 11
7.0852459998
 21
6.1855544555
  0
LWPOLYLINE
  5
387
100
AcDbEntity
  8
0
100
AcDbPolyline
 62
7
  6
CONTINUOUS
 90
9
 70
0
 10
7.0852459998
 20
6.1855544555
 10
7.0891231283
 20
6.1780385614
 10
7.0926276343
 20
6.1700517094
 10
7.0956802218
 20
6.1616746415
 10
7.0982281382
 20
6.1529545184
 10
7.1002321094
 20
6.1439000155
 10
7.1016404824
 20
6.1345755757
 10
7.1024072424
 20
6.1251039043
 10
7.1025498407
 20
6.118982169
  0
LWPOLYLINE
  5
388
100
AcDbEntity
  8
0
100
AcDbPolyline
 62
7
  6
CONTINUOUS
 90
24
 70
0
 10
3.944671893
 20
6.8267498731
 10
3.9278162394
 20
6.8256114737
 10
3.9111929318
 20
6.8244075225
 10
3.8947702843
 20
6.8231367641
 10
3.8785492031
 20
6.8217997951
 10
3.862543858
 20
6.8203939394
 10
3.8467396699
 20
6.8189099566
 10
3.8311362425
 20
6.8173397544
 10
3.8157346687
 20
6.8156749094
 10
3.8005227284
 20
6.8139062282
 10
3.7854998229
 20
6.8120274555
 10
3.7706687246
 20
6.8100339192
 10
3.75602272
 20
6.807920213
 10
3.7415600885
 20
6.805681986
 10
3.7272857861
 20
6.803315848
 10
3.7132034351
 20
6.8008142508
 10
3.6993214425
 20
6.7981694415
 10
3.6856353606
 20
6.7953723883
 10
3.6721299936
 20
6.7924123182
 10
3.658808588
 20
6.7892832109
 10
3.6456712476
 20
6.7859914212
 10
3.6326974594
 20
6.7825521559
 10
3.6198859983
 20
6.7789849565
 10
3.6157767901
 20
6.777790724
  0
LINE
  5
389
100
AcDbEntity
  8
0
100
AcDbLine
 62
7
  6
CONTINUOUS
 10
3.9629143009
 20
6.8278907934
 11
3.944671893
 21
6.8267498731
  0
LWPOLYLINE
  5
38A
100
AcDbEntity
  8
0
100
AcDbPolyline
 62
7
  6
CONTINUOUS
 90
17
 70
0
 10
7.2457998672
 20
7.0800282196
 10
7.2418649579
 20
7.0799879175
 10
7.2335839078
 20
7.079639103
 10
7.2251844398
 20
7.0789035538
 10
7.2168904376
 20
7.0777654691
 10
7.209055534
 20
7.0762593393
 10
7.201740764
 20
7.0743961721
 10
7.1949921199
 20
7.072180031
 10
7.1889688357
 20
7.0696626116
 10
7.1836392313
 20
7.0668384615
 10
7.1789352364
 20
7.063657903
 10
7.1748632982
 20
7.0600870161
 10
7.1714426575
 20
7.0560818888
 10
7.16874178
 20
7.0516322006
 10
7.1668754332
 20
7.0468305788
 10
7.1659246293
 20
7.0418358463
 10
7.1658017176
 20
7.0394874317
  0
LINE
  5
38B
100
AcDbEntity
  8
0
100
AcDbLine
 62
7
  6
CONTINUOUS
 10
4.2680498671
 20
6.8910621672
 11
4.244284621
 21
6.8910621672
  0
LINE
  5
38C
100
AcDbEntity
  8
0
100
AcDbLine
 62
7
  6
CONTINUOUS
 10
7.4707998671
 20
7.0789386719
 11
7.2457998671
 21
7.0789386719
  0
LINE
  5
38D
100
AcDbEntity
  8
0
100
AcDbLine
 62
7
  6
CONTINUOUS
 10
7.2457998671
 20
7.0800283004
 11
7.4707998671
 21
7.0800283004
  0
LWPOLYLINE
  5
38E
100
AcDbEntity
  8
0
100
AcDbPolyline
 62
7
  6
CONTINUOUS
 90
12
 70
0
 10
7.2118290492
 20
6.7185520051
 10
7.2161179088
 20
6.7181134863
 10
7.2207908746
 20
6.7176770356
 10
7.2259065057
 20
6.7172410225
 10
7.2314816852
 20
6.7168081972
 10
7.2375408983
 20
6.7163808247
 10
7.244164008
 20
6.7159580499
 10
7.2513635439
 20
6.715544357
 10
7.2591676814
 20
6.7151433882
 10
7.26769365
 20
6.7147553947
 10
7.2769392333
 20
6.7143874888
 10
7.2869360422
 20
6.714045523
  0
LWPOLYLINE
  5
38F
100
AcDbEntity
  8
0
100
AcDbPolyline
 62
7
  6
CONTINUOUS
 90
20
 70
0
 10
7.1667592585
 20
6.738798686
 10
7.1680771854
 20
6.7355662397
 10
7.1698773982
 20
6.7326350922
 10
7.172022666
 20
6.7301232451
 10
7.1742692882
 20
6.7281408669
 10
7.1764289533
 20
6.7266504717
 10
7.1784933092
 20
6.7255033108
 10
7.1804994801
 20
6.7245862906
 10
7.1824192342
 20
6.723849771
 10
7.1842814335
 20
6.7232372067
 10
7.1862210565
 20
6.7226817698
 10
7.1882717293
 20
6.7221654573
 10
7.1904289181
 20
6.7216833389
 10
7.1927641698
 20
6.7212164069
 10
7.1952981744
 20
6.7207605362
 10
7.1980399467
 20
6.7203145199
 10
7.2010426715
 20
6.7198711218
 10
7.2043261213
 20
6.7194298569
 10
7.2079048513
 20
6.718991225
 10
7.2118290492
 20
6.7185520051
  0
LWPOLYLINE
  5
390
100
AcDbEntity
  8
0
100
AcDbPolyline
 62
7
  6
CONTINUOUS
 90
7
 70
0
 10
7.6192790403
 20
6.603130794
 10
7.6168644471
 20
6.6082399561
 10
7.6147919099
 20
6.6136202933
 10
7.6130993922
 20
6.6192388045
 10
7.6118166292
 20
6.6250822548
 10
7.6109795214
 20
6.6311051512
 10
7.610639247
 20
6.6363807023
  0
LWPOLYLINE
  5
391
100
AcDbEntity
  8
0
100
AcDbPolyline
 62
7
  6
CONTINUOUS
 90
5
 70
0
 10
7.6265018214
 20
6.5917602476
 10
7.6261592443
 20
6.5922103858
 10
7.6240641267
 20
6.5951253902
 10
7.6220273252
 20
6.5982674023
 10
7.6217628672
 20
6.5987012825
  0
LINE
  5
392
100
AcDbEntity
  8
0
100
AcDbLine
 62
7
  6
CONTINUOUS
 10
7.6265511812
 20
6.5916894301
 11
7.6265064345
 21
6.5917542605
  0
LINE
  5
393
100
AcDbEntity
  8
0
100
AcDbLine
 62
7
  6
CONTINUOUS
 10
7.6217628672
 20
6.5987012825
 11
7.6216630503
 21
6.5988667402
  0
LINE
  5
394
100
AcDbEntity
  8
0
100
AcDbLine
 62
7
  6
CONTINUOUS
 10
7.6216630796
 20
6.5988667049
 11
7.6192790403
 21
6.603130794
  0
ARC
  5
395
100
AcDbEntity
  8
0
100
AcDbCircle
 62
7
  6
CONTINUOUS
 10
3.3582998671
 20
1.8588907602
 40
0.2945805891
100
AcDbArc
 50
137.6347968792
 51
42.3652031208
  0
ARC
  5
396
100
AcDbEntity
  8
0
100
AcDbCircle
 62
7
  6
CONTINUOUS
 10
3.3582998671
 20
1.8588907602
 40
0.2545805891
100
AcDbArc
 50
148.7639296178
 51
31.2509023799
  0
ARC
  5
397
100
AcDbEntity
  8
0
100
AcDbCircle
 62
7
  6
CONTINUOUS
 10
3.3582998671
 20
1.8588907602
 40
0.225
100
AcDbArc
 50
165.1988951887
 51
14.8053469794
  0
ARC
  5
398
100
AcDbEntity
  8
0
100
AcDbCircle
 62
7
  6
CONTINUOUS
 10
3.3579241919
 20
1.8588485883
 40
0.2216248643
100
AcDbArc
 50
357.3059463851
 51
10.25297288
  0
ARC
  5
399
100
AcDbEntity
  8
0
100
AcDbCircle
 62
7
  6
CONTINUOUS
 10
3.3576389978
 20
1.8610556214
 40
0.2206587015
100
AcDbArc
 50
352.3072057466
 51
357.565467517
  0
ARC
  5
39A
100
AcDbEntity
  8
0
100
AcDbCircle
 62
7
  6
CONTINUOUS
 10
3.3594050622
 20
1.8586547668
 40
0.2201354231
100
AcDbArc
 50
335.6969984269
 51
357.3386843524
  0
ARC
  5
39B
100
AcDbEntity
  8
0
100
AcDbCircle
 62
7
  6
CONTINUOUS
 10
3.3582767743
 20
1.861032994
 40
0.2200205395
100
AcDbArc
 50
357.5642997315
 51
8.5320118532
  0
ARC
  5
39C
100
AcDbEntity
  8
0
100
AcDbCircle
 62
7
  6
CONTINUOUS
 10
3.3594537399
 20
1.8607036993
 40
0.2188062679
100
AcDbArc
 50
304.7681673991
 51
352.3349172899
  0
ARC
  5
39D
100
AcDbEntity
  8
0
100
AcDbCircle
 62
7
  6
CONTINUOUS
 10
3.3601684618
 20
1.8601697584
 40
0.2179753305
100
AcDbArc
 50
293.9615673298
 51
296.2539089638
  0
ARC
  5
39E
100
AcDbEntity
  8
0
100
AcDbCircle
 62
7
  6
CONTINUOUS
 10
3.3582998671
 20
1.8588907602
 40
0.2175
100
AcDbArc
 50
180.0
 51
360.0
  0
ARC
  5
39F
100
AcDbEntity
  8
0
100
AcDbCircle
 62
7
  6
CONTINUOUS
 10
3.3605553947
 20
1.8593766995
 40
0.2170929219
100
AcDbArc
 50
296.2549096708
 51
296.9657856909
  0
ARC
  5
3A0
100
AcDbEntity
  8
0
100
AcDbCircle
 62
7
  6
CONTINUOUS
 10
3.3604753237
 20
1.8593098933
 40
0.2170732491
100
AcDbArc
 50
299.4474011603
 51
304.7564564547
  0
ARC
  5
3A1
100
AcDbEntity
  8
0
100
AcDbCircle
 62
7
  6
CONTINUOUS
 10
3.3611090191
 20
1.8583027164
 40
0.2158846594
100
AcDbArc
 50
296.9640801235
 51
299.4323598956
  0
ARC
  5
3A2
100
AcDbEntity
  8
0
100
AcDbCircle
 62
7
  6
CONTINUOUS
 10
1.6681839868
 20
5.6407980226
 40
1.4336158804
100
AcDbArc
 50
356.0872344213
 51
10.0213382993
  0
ARC
  5
3A3
100
AcDbEntity
  8
0
100
AcDbCircle
 62
7
  6
CONTINUOUS
 10
3.0286214151
 20
5.5477481825
 40
0.07
100
AcDbArc
 50
322.2442378682
 51
356.0872344213
  0
ARC
  5
3A4
100
AcDbEntity
  8
0
100
AcDbCircle
 62
7
  6
CONTINUOUS
 10
3.6879783192
 20
5.5477481825
 40
0.07
100
AcDbArc
 50
183.9127655791
 51
217.7557621284
  0
ARC
  5
3A5
100
AcDbEntity
  8
0
100
AcDbCircle
 62
7
  6
CONTINUOUS
 10
3.1147998671
 20
5.4810078318
 40
0.039
100
AcDbArc
 50
142.2442378722
 51
180.0
  0
ARC
  5
3A6
100
AcDbEntity
  8
0
100
AcDbCircle
 62
7
  6
CONTINUOUS
 10
3.6017998671
 20
5.4810078318
 40
0.039
100
AcDbArc
 50
0.0
 51
37.7557621323
  0
ARC
  5
3A7
100
AcDbEntity
  8
0
100
AcDbCircle
 62
7
  6
CONTINUOUS
 10
3.6017998671
 20
5.4728407602
 40
0.039
100
AcDbArc
 50
270.0
 51
360.0
  0
ARC
  5
3A8
100
AcDbEntity
  8
0
100
AcDbCircle
 62
7
  6
CONTINUOUS
 10
3.1147998671
 20
5.4728407602
 40
0.039
100
AcDbArc
 50
180.0
 51
270.0
  0
ARC
  5
3A9
100
AcDbEntity
  8
0
100
AcDbCircle
 62
7
  6
CONTINUOUS
 10
5.0484157475
 20
5.6407980226
 40
1.4336158804
100
AcDbArc
 50
169.9786617007
 51
183.9127655791
  0
ARC
  5
3AA
100
AcDbEntity
  8
0
100
AcDbCircle
 62
7
  6
CONTINUOUS
 10
7.3019019257
 20
5.7781185513
 40
0.0445625702
100
AcDbArc
 50
264.9209950764
 51
267.333113232
  0
ARC
  5
3AB
100
AcDbEntity
  8
0
100
AcDbCircle
 62
7
  6
CONTINUOUS
 10
7.1561148278
 20
5.7535937599
 40
0.005
100
AcDbArc
 50
202.8836479117
 51
252.1759428058
  0
ARC
  5
3AC
100
AcDbEntity
  8
0
100
AcDbCircle
 62
7
  6
CONTINUOUS
 10
7.1359520108
 20
5.7566527184
 40
0.005
100
AcDbArc
 50
214.1144729456
 51
270.0000010603
  0
ARC
  5
3AD
100
AcDbEntity
  8
0
100
AcDbCircle
 62
7
  6
CONTINUOUS
 10
-1.6249725672
 20
6.3847728928
 40
9.2390354131
100
AcDbArc
 50
1.5618672052
 51
1.9639770076
  0
ARC
  5
3AE
100
AcDbEntity
  8
0
100
AcDbCircle
 62
7
  6
CONTINUOUS
 10
7.2551752715
 20
6.2859427017
 40
2.5181444617
100
AcDbArc
 50
180.973727778
 51
181.3153152478
  0
ARC
  5
3AF
100
AcDbEntity
  8
0
100
AcDbCircle
 62
7
  6
CONTINUOUS
 10
7.3582926386
 20
6.3824570157
 40
0.6655687604
100
AcDbArc
 50
280.747834255
 51
281.2688497146
  0
ARC
  5
3B0
100
AcDbEntity
  8
0
100
AcDbCircle
 62
7
  6
CONTINUOUS
 10
7.3582920701
 20
6.382444622
 40
0.6655568483
100
AcDbArc
 50
286.4298264243
 51
287.824025658
  0
ARC
  5
3B1
100
AcDbEntity
  8
0
100
AcDbCircle
 62
7
  6
CONTINUOUS
 10
7.3582986665
 20
6.3824264953
 40
0.6655376542
100
AcDbArc
 50
279.2852735926
 51
279.6815523424
  0
ARC
  5
3B2
100
AcDbEntity
  8
0
100
AcDbCircle
 62
7
  6
CONTINUOUS
 10
7.3582990094
 20
6.3824142869
 40
0.6655252736
100
AcDbArc
 50
259.525872314
 51
260.3184455882
  0
ARC
  5
3B3
100
AcDbEntity
  8
0
100
AcDbCircle
 62
7
  6
CONTINUOUS
 10
7.3582743386
 20
6.3822929479
 40
0.6654014545
100
AcDbArc
 50
258.3369812486
 51
258.7311466945
  0
ARC
  5
3B4
100
AcDbEntity
  8
0
100
AcDbCircle
 62
7
  6
CONTINUOUS
 10
7.3580668739
 20
6.3813082017
 40
0.6643950998
100
AcDbArc
 50
257.1761319221
 51
258.3373356563
  0
ARC
  5
3B5
100
AcDbEntity
  8
0
100
AcDbCircle
 62
7
  6
CONTINUOUS
 10
7.3579545603
 20
6.3812053195
 40
0.6642682784
100
AcDbArc
 50
253.5691610853
 51
255.2783804945
  0
ARC
  5
3B6
100
AcDbEntity
  8
0
100
AcDbCircle
 62
7
  6
CONTINUOUS
 10
4.8751598304
 20
6.3860550792
 40
0.2998900368
100
AcDbArc
 50
0.0013541973
 51
3.3088268963
  0
ARC
  5
3B7
100
AcDbEntity
  8
0
100
AcDbCircle
 62
7
  6
CONTINUOUS
 10
4.244284621
 20
5.8110621672
 40
0.07
100
AcDbArc
 50
90.0
 51
122.6368975036
  0
ARC
  5
3B8
100
AcDbEntity
  8
0
100
AcDbCircle
 62
7
  6
CONTINUOUS
 10
4.5300292441
 20
5.8742108157
 40
0.07
100
AcDbArc
 50
75.9331661451
 51
117.1045955712
  0
ARC
  5
3B9
100
AcDbEntity
  8
0
100
AcDbCircle
 62
7
  6
CONTINUOUS
 10
3.7056045355
 20
5.8780875463
 40
0.07
100
AcDbArc
 50
122.1820829817
 51
169.9786617007
  0
ARC
  5
3BA
100
AcDbEntity
  8
0
100
AcDbCircle
 62
7
  6
CONTINUOUS
 10
3.0109951988
 20
5.8780875463
 40
0.07
100
AcDbArc
 50
10.0213382993
 51
57.8179170183
  0
ARC
  5
3BB
100
AcDbEntity
  8
0
100
AcDbCircle
 62
7
  6
CONTINUOUS
 10
5.1118801296
 20
6.2910621672
 40
0.045
100
AcDbArc
 50
289.4040433445
 51
340.3598180429
  0
ARC
  5
3BC
100
AcDbEntity
  8
0
100
AcDbCircle
 62
7
  6
CONTINUOUS
 10
3.6475498671
 20
5.9738407602
 40
0.039
100
AcDbArc
 50
0.0
 51
59.208011109
  0
ARC
  5
3BD
100
AcDbEntity
  8
0
100
AcDbCircle
 62
7
  6
CONTINUOUS
 10
3.0690498671
 20
5.9738407602
 40
0.039
100
AcDbArc
 50
120.791988891
 51
180.0
  0
ARC
  5
3BE
100
AcDbEntity
  8
0
100
AcDbCircle
 62
7
  6
CONTINUOUS
 10
3.0690498671
 20
5.9703407602
 40
0.039
100
AcDbArc
 50
180.0
 51
237.8179170183
  0
ARC
  5
3BF
100
AcDbEntity
  8
0
100
AcDbCircle
 62
7
  6
CONTINUOUS
 10
3.6475498671
 20
5.9703407602
 40
0.039
100
AcDbArc
 50
302.1820829817
 51
360.0
  0
ARC
  5
3C0
100
AcDbEntity
  8
0
100
AcDbCircle
 62
7
  6
CONTINUOUS
 10
4.5555498671
 20
5.9760621672
 40
0.035
100
AcDbArc
 50
255.9331661451
 51
360.0
  0
ARC
  5
3C1
100
AcDbEntity
  8
0
100
AcDbCircle
 62
7
  6
CONTINUOUS
 10
4.625362367
 20
5.9811822128
 40
0.035
100
AcDbArc
 50
131.4288753315
 51
174.8055228345
  0
ARC
  5
3C2
100
AcDbEntity
  8
0
100
AcDbCircle
 62
7
  6
CONTINUOUS
 10
4.1930498671
 20
5.8910621672
 40
0.025
100
AcDbArc
 50
180.0
 51
302.6368975036
  0
ARC
  5
3C3
100
AcDbEntity
  8
0
100
AcDbCircle
 62
7
  6
CONTINUOUS
 10
7.1297601643
 20
5.9959100495
 40
0.0157235509
100
AcDbArc
 50
101.1081047713
 51
108.2190936756
  0
ARC
  5
3C4
100
AcDbEntity
  8
0
100
AcDbCircle
 62
7
  6
CONTINUOUS
 10
7.1212565676
 20
5.996046562
 40
0.0155875026
100
AcDbArc
 50
101.1147740814
 51
108.2614848335
  0
ARC
  5
3C5
100
AcDbEntity
  8
0
100
AcDbCircle
 62
7
  6
CONTINUOUS
 10
3.0414060381
 20
6.0202284603
 40
0.015
100
AcDbArc
 50
300.791988891
 51
49.1001135169
  0
ARC
  5
3C6
100
AcDbEntity
  8
0
100
AcDbCircle
 62
7
  6
CONTINUOUS
 10
3.6751936962
 20
6.0202284603
 40
0.015
100
AcDbArc
 50
130.8998864831
 51
239.208011109
  0
ARC
  5
3C7
100
AcDbEntity
  8
0
100
AcDbCircle
 62
7
  6
CONTINUOUS
 10
7.0889277008
 20
5.9978419436
 40
0.0137954309
100
AcDbArc
 50
101.9376129654
 51
109.5092438165
  0
ARC
  5
3C8
100
AcDbEntity
  8
0
100
AcDbCircle
 62
7
  6
CONTINUOUS
 10
7.0747863407
 20
6.0015723474
 40
0.0100986373
100
AcDbArc
 50
155.001677367
 51
171.1544509361
  0
ARC
  5
3C9
100
AcDbEntity
  8
0
100
AcDbCircle
 62
7
  6
CONTINUOUS
 10
4.7296486513
 20
6.2073121672
 40
0.01
100
AcDbArc
 50
338.8315511542
 51
16.909065247
  0
ARC
  5
3CA
100
AcDbEntity
  8
0
100
AcDbCircle
 62
7
  6
CONTINUOUS
 10
7.0791186611
 20
6.0015207264
 40
0.0093950717
100
AcDbArc
 50
143.4154566011
 51
170.1667505363
  0
ARC
  5
3CB
100
AcDbEntity
  8
0
100
AcDbCircle
 62
7
  6
CONTINUOUS
 10
7.0778084758
 20
6.0039569887
 40
0.007708114
100
AcDbArc
 50
106.6560758719
 51
116.5928680541
  0
ARC
  5
3CC
100
AcDbEntity
  8
0
100
AcDbCircle
 62
7
  6
CONTINUOUS
 10
3.3582998671
 20
6.3860621672
 40
0.6376826031
100
AcDbArc
 50
294.7138651488
 51
317.4594576929
  0
ARC
  5
3CD
100
AcDbEntity
  8
0
100
AcDbCircle
 62
7
  6
CONTINUOUS
 10
3.3582998671
 20
6.3860621672
 40
0.6376826031
100
AcDbArc
 50
42.5399815136
 51
245.2861348512
  0
ARC
  5
3CE
100
AcDbEntity
  8
0
100
AcDbCircle
 62
7
  6
CONTINUOUS
 10
3.3582998671
 20
6.3860621672
 40
0.6351104694
100
AcDbArc
 50
294.8513793966
 51
317.2937309362
  0
ARC
  5
3CF
100
AcDbEntity
  8
0
100
AcDbCircle
 62
7
  6
CONTINUOUS
 10
3.3582998671
 20
6.3860621672
 40
0.6351104694
100
AcDbArc
 50
42.7056866218
 51
245.1487064847
  0
ARC
  5
3D0
100
AcDbEntity
  8
0
100
AcDbCircle
 62
7
  6
CONTINUOUS
 10
3.3582998671
 20
6.3860621672
 40
0.5557423364
100
AcDbArc
 50
48.6409057857
 51
239.1884731928
  0
ARC
  5
3D1
100
AcDbEntity
  8
0
100
AcDbCircle
 62
7
  6
CONTINUOUS
 10
3.3582998671
 20
6.3860621672
 40
0.5557423364
100
AcDbArc
 50
300.811526808
 51
311.3595910986
  0
ARC
  5
3D2
100
AcDbEntity
  8
0
100
AcDbCircle
 62
7
  6
CONTINUOUS
 10
3.3582998671
 20
6.3860621672
 40
0.554327434
100
AcDbArc
 50
48.7631774175
 51
238.9385030456
  0
ARC
  5
3D3
100
AcDbEntity
  8
0
100
AcDbCircle
 62
7
  6
CONTINUOUS
 10
3.3582998671
 20
6.3860621672
 40
0.554327434
100
AcDbArc
 50
301.0617986306
 51
311.2367451534
  0
ARC
  5
3D4
100
AcDbEntity
  8
0
100
AcDbCircle
 62
7
  6
CONTINUOUS
 10
3.3582998671
 20
6.3860621672
 40
0.5353123378
100
AcDbArc
 50
50.3804468172
 51
232.2639530203
  0
ARC
  5
3D5
100
AcDbEntity
  8
0
100
AcDbCircle
 62
7
  6
CONTINUOUS
 10
3.3582998671
 20
6.3860621672
 40
0.5353123378
100
AcDbArc
 50
307.7360469797
 51
309.6212317167
  0
ARC
  5
3D6
100
AcDbEntity
  8
0
100
AcDbCircle
 62
7
  6
CONTINUOUS
 10
3.3582998671
 20
6.3860621672
 40
0.5134953195
100
AcDbArc
 50
52.3367393986
 51
230.6983707569
  0
ARC
  5
3D7
100
AcDbEntity
  8
0
100
AcDbCircle
 62
7
  6
CONTINUOUS
 10
3.3582998671
 20
6.3860621672
 40
0.5085522121
100
AcDbArc
 50
52.7753166009
 51
230.5672334004
  0
ARC
  5
3D8
100
AcDbEntity
  8
0
100
AcDbCircle
 62
7
  6
CONTINUOUS
 10
3.3582998671
 20
6.3860621672
 40
0.469
100
AcDbArc
 50
310.8998864821
 51
229.1001135207
  0
CIRCLE
  5
3D9
100
AcDbEntity
  8
0
100
AcDbCircle
 62
7
  6
CONTINUOUS
 10
3.3582998671
 20
6.3860621672
 40
0.29
  0
CIRCLE
  5
3DA
100
AcDbEntity
  8
0
100
AcDbCircle
 62
7
  6
CONTINUOUS
 10
3.3582998671
 20
6.3860621672
 40
0.2745150554
  0
CIRCLE
  5
3DB
100
AcDbEntity
  8
0
100
AcDbCircle
 62
7
  6
CONTINUOUS
 10
3.3582998671
 20
6.3860621672
 40
0.2514038967
  0
ARC
  5
3DC
100
AcDbEntity
  8
0
100
AcDbCircle
 62
7
  6
CONTINUOUS
 10
4.2680498671
 20
6.3860621672
 40
0.505
100
AcDbArc
 50
270.0
 51
297.1045955711
  0
ARC
  5
3DD
100
AcDbEntity
  8
0
100
AcDbCircle
 62
7
  6
CONTINUOUS
 10
4.2680498671
 20
6.3860621672
 40
0.505
100
AcDbArc
 50
62.8954044289
 51
90.0
  0
ARC
  5
3DE
100
AcDbEntity
  8
0
100
AcDbCircle
 62
7
  6
CONTINUOUS
 10
4.2680498671
 20
6.3860621672
 40
0.505
100
AcDbArc
 50
311.4288753314
 51
338.8315511542
  0
ARC
  5
3DF
100
AcDbEntity
  8
0
100
AcDbCircle
 62
7
  6
CONTINUOUS
 10
4.2680498671
 20
6.3860621672
 40
0.505
100
AcDbArc
 50
21.1684488458
 51
48.5711246686
  0
ARC
  5
3E0
100
AcDbEntity
  8
0
100
AcDbCircle
 62
7
  6
CONTINUOUS
 10
4.8750498671
 20
6.3860621672
 40
0.3
100
AcDbArc
 50
3.307030309
 51
19.8421818217
  0
ARC
  5
3E1
100
AcDbEntity
  8
0
100
AcDbCircle
 62
7
  6
CONTINUOUS
 10
4.8751598304
 20
6.3860692552
 40
0.2998900368
100
AcDbArc
 50
340.1578181461
 51
359.9986458027
  0
CIRCLE
  5
3E2
100
AcDbEntity
  8
0
100
AcDbCircle
 62
7
  6
CONTINUOUS
 10
4.9300498671
 20
6.3860621672
 40
0.24
  0
CIRCLE
  5
3E3
100
AcDbEntity
  8
0
100
AcDbCircle
 62
7
  6
CONTINUOUS
 10
4.9300498671
 20
6.3860621672
 40
0.2243253516
  0
CIRCLE
  5
3E4
100
AcDbEntity
  8
0
100
AcDbCircle
 62
7
  6
CONTINUOUS
 10
4.9300498671
 20
6.3860621672
 40
0.2109184529
  0
ARC
  5
3E5
100
AcDbEntity
  8
0
100
AcDbCircle
 62
7
  6
CONTINUOUS
 10
5.1118801296
 20
6.4810621672
 40
0.045
100
AcDbArc
 50
19.6401819571
 51
70.5959566663
  0
ARC
  5
3E6
100
AcDbEntity
  8
0
100
AcDbCircle
 62
7
  6
CONTINUOUS
 10
4.7296486513
 20
6.5648121672
 40
0.01
100
AcDbArc
 50
343.0920807302
 51
21.1684488458
  0
ARC
  5
3E7
100
AcDbEntity
  8
0
100
AcDbCircle
 62
7
  6
CONTINUOUS
 10
4.244284621
 20
6.9610621672
 40
0.07
100
AcDbArc
 50
237.3631024964
 51
270.0
  0
ARC
  5
3E8
100
AcDbEntity
  8
0
100
AcDbCircle
 62
7
  6
CONTINUOUS
 10
4.5300292441
 20
6.8979135187
 40
0.07
100
AcDbArc
 50
242.8954044288
 51
284.0668338549
  0
ARC
  5
3E9
100
AcDbEntity
  8
0
100
AcDbCircle
 62
7
  6
CONTINUOUS
 10
4.5555498671
 20
6.7960621672
 40
0.035
100
AcDbArc
 50
0.0
 51
104.0668338549
  0
ARC
  5
3EA
100
AcDbEntity
  8
0
100
AcDbCircle
 62
7
  6
CONTINUOUS
 10
4.625362367
 20
6.7909421216
 40
0.035
100
AcDbArc
 50
185.1944771655
 51
228.5711246686
  0
ARC
  5
3EB
100
AcDbEntity
  8
0
100
AcDbCircle
 62
7
  6
CONTINUOUS
 10
4.1930498671
 20
6.8810621672
 40
0.025
100
AcDbArc
 50
57.3631024964
 51
180.0
  0
ARC
  5
3EC
100
AcDbEntity
  8
0
100
AcDbCircle
 62
7
  6
CONTINUOUS
 10
6.9935017475
 20
6.4914105276
 40
2.2564200747
100
AcDbArc
 50
178.6648667789
 51
179.0461181703
  0
ARC
  5
3ED
100
AcDbEntity
  8
0
100
AcDbCircle
 62
7
  6
CONTINUOUS
 10
6.0051849484
 20
6.5146163725
 40
1.267830901
100
AcDbArc
 50
178.3404528419
 51
178.6726129411
  0
ARC
  5
3EE
100
AcDbEntity
  8
0
100
AcDbCircle
 62
7
  6
CONTINUOUS
 10
7.0275242446
 20
6.6392562093
 40
0.0785663332
100
AcDbArc
 50
329.0204778827
 51
331.6407204704
  0
ARC
  5
3EF
100
AcDbEntity
  8
0
100
AcDbCircle
 62
7
  6
CONTINUOUS
 10
7.0279261953
 20
6.6390118652
 40
0.0780959422
100
AcDbArc
 50
326.5458790879
 51
328.8833512592
  0
ARC
  5
3F0
100
AcDbEntity
  8
0
100
AcDbCircle
 62
7
  6
CONTINUOUS
 10
7.0285676652
 20
6.6385889832
 40
0.0773276244
100
AcDbArc
 50
324.889398575
 51
326.5452860442
  0
ARC
  5
3F1
100
AcDbEntity
  8
0
100
AcDbCircle
 62
7
  6
CONTINUOUS
 10
7.029153827
 20
6.638177918
 40
0.0766116917
100
AcDbArc
 50
323.7632515021
 51
324.8887511195
  0
ARC
  5
3F2
100
AcDbEntity
  8
0
100
AcDbCircle
 62
7
  6
CONTINUOUS
 10
7.029731937
 20
6.6377538063
 40
0.0758946968
100
AcDbArc
 50
322.5363077639
 51
323.7635130183
  0
ARC
  5
3F3
100
AcDbEntity
  8
0
100
AcDbCircle
 62
7
  6
CONTINUOUS
 10
7.1857738433
 20
6.7723487677
 40
0.0199756851
100
AcDbArc
 50
89.9253626209
 51
179.9251928334
  0
ARC
  5
3F4
100
AcDbEntity
  8
0
100
AcDbCircle
 62
7
  6
CONTINUOUS
 10
7.11795819
 20
6.701062275
 40
0.0100000079
100
AcDbArc
 50
90.0049545116
 51
178.0342712387
  0
ARC
  5
3F5
100
AcDbEntity
  8
0
100
AcDbCircle
 62
7
  6
CONTINUOUS
 10
7.5604849065
 20
5.7535937599
 40
0.005
100
AcDbArc
 50
287.8240571942
 51
337.1163520883
  0
ARC
  5
3F6
100
AcDbEntity
  8
0
100
AcDbCircle
 62
7
  6
CONTINUOUS
 10
7.5806477235
 20
5.7566527184
 40
0.005
100
AcDbArc
 50
269.9999989398
 51
325.8855270544
  0
ARC
  5
3F7
100
AcDbEntity
  8
0
100
AcDbCircle
 62
7
  6
CONTINUOUS
 10
7.3583076682
 20
6.3824446348
 40
0.6655568618
100
AcDbArc
 50
252.175974346
 51
253.5701822696
  0
ARC
  5
3F8
100
AcDbEntity
  8
0
100
AcDbCircle
 62
7
  6
CONTINUOUS
 10
7.3583025129
 20
6.3824325236
 40
0.6655438433
100
AcDbArc
 50
258.7311411245
 51
259.5258611329
  0
ARC
  5
3F9
100
AcDbEntity
  8
0
100
AcDbCircle
 62
7
  6
CONTINUOUS
 10
7.3583010663
 20
6.3824264864
 40
0.6655376452
100
AcDbArc
 50
260.3184476509
 51
260.714726406
  0
ARC
  5
3FA
100
AcDbEntity
  8
0
100
AcDbCircle
 62
7
  6
CONTINUOUS
 10
7.3582998671
 20
6.3824191753
 40
0.6655302365
100
AcDbArc
 50
262.4196365177
 51
277.5803634823
  0
ARC
  5
3FB
100
AcDbEntity
  8
0
100
AcDbCircle
 62
7
  6
CONTINUOUS
 10
7.3583007429
 20
6.3824135989
 40
0.6655245937
100
AcDbArc
 50
279.6815544052
 51
280.618500136
  0
ARC
  5
3FC
100
AcDbEntity
  8
0
100
AcDbCircle
 62
7
  6
CONTINUOUS
 10
7.3583253949
 20
6.3822929524
 40
0.665401459
100
AcDbArc
 50
281.2688441457
 51
281.6630187393
  0
ARC
  5
3FD
100
AcDbEntity
  8
0
100
AcDbCircle
 62
7
  6
CONTINUOUS
 10
7.3585328479
 20
6.3813082607
 40
0.6643951601
100
AcDbArc
 50
281.6626643634
 51
282.8239917052
  0
ARC
  5
3FE
100
AcDbEntity
  8
0
100
AcDbCircle
 62
7
  6
CONTINUOUS
 10
7.3586451996
 20
6.3812052263
 40
0.6642681817
100
AcDbArc
 50
284.7213835072
 51
286.4308478111
  0
ARC
  5
3FF
100
AcDbEntity
  8
0
100
AcDbCircle
 62
7
  6
CONTINUOUS
 10
7.5182676875
 20
6.0016443978
 40
0.0540936146
100
AcDbArc
 50
0.0088131089
 51
1.5686875788
  0
ARC
  5
400
100
AcDbEntity
  8
0
100
AcDbCircle
 62
7
  6
CONTINUOUS
 10
7.3800221126
 20
6.0016413552
 40
0.0126020531
100
AcDbArc
 50
173.2378154041
 51
179.9483366699
  0
ARC
  5
401
100
AcDbEntity
  8
0
100
AcDbCircle
 62
7
  6
CONTINUOUS
 10
7.3582998671
 20
6.3860621672
 40
0.5786981069
100
AcDbArc
 50
109.4408517859
 51
239.5791266174
  0
ARC
  5
402
100
AcDbEntity
  8
0
100
AcDbCircle
 62
7
  6
CONTINUOUS
 10
7.3582998671
 20
6.3860621672
 40
0.5786981069
100
AcDbArc
 50
300.4208733826
 51
70.5591482141
  0
ARC
  5
403
100
AcDbEntity
  8
0
100
AcDbCircle
 62
7
  6
CONTINUOUS
 10
7.3582998671
 20
6.3860621672
 40
0.5766885975
100
AcDbArc
 50
109.5115408695
 51
239.459924127
  0
ARC
  5
404
100
AcDbEntity
  8
0
100
AcDbCircle
 62
7
  6
CONTINUOUS
 10
7.3582998671
 20
6.3860621672
 40
0.5766885975
100
AcDbArc
 50
300.540075873
 51
70.4884591305
  0
ARC
  5
405
100
AcDbEntity
  8
0
100
AcDbCircle
 62
7
  6
CONTINUOUS
 10
7.3582998671
 20
6.3860621672
 40
0.5401724202
100
AcDbArc
 50
110.883743701
 51
237.1347653491
  0
ARC
  5
406
100
AcDbEntity
  8
0
100
AcDbCircle
 62
7
  6
CONTINUOUS
 10
7.3582998671
 20
6.3860621672
 40
0.5401724202
100
AcDbArc
 50
302.8652346509
 51
69.116256299
  0
ARC
  5
407
100
AcDbEntity
  8
0
100
AcDbCircle
 62
7
  6
CONTINUOUS
 10
7.3582998671
 20
6.3860621672
 40
0.5362449378
100
AcDbArc
 50
303.1290910984
 51
68.9531295157
  0
ARC
  5
408
100
AcDbEntity
  8
0
100
AcDbCircle
 62
7
  6
CONTINUOUS
 10
7.3582998671
 20
6.3860621672
 40
0.5362449378
100
AcDbArc
 50
111.0468704843
 51
236.8709089016
  0
ARC
  5
409
100
AcDbEntity
  8
0
100
AcDbCircle
 62
7
  6
CONTINUOUS
 10
7.3582998671
 20
6.3860621672
 40
0.5335965871
100
AcDbArc
 50
111.1503937299
 51
236.6824038614
  0
ARC
  5
40A
100
AcDbEntity
  8
0
100
AcDbCircle
 62
7
  6
CONTINUOUS
 10
7.3582998671
 20
6.3860621672
 40
0.5335965871
100
AcDbArc
 50
303.3175961386
 51
68.8496062701
  0
ARC
  5
40B
100
AcDbEntity
  8
0
100
AcDbCircle
 62
7
  6
CONTINUOUS
 10
7.3582998671
 20
6.3860621672
 40
0.4963842813
100
AcDbArc
 50
112.8331194949
 51
233.7247601621
  0
ARC
  5
40C
100
AcDbEntity
  8
0
100
AcDbCircle
 62
7
  6
CONTINUOUS
 10
7.3582998671
 20
6.3860621672
 40
0.4963842813
100
AcDbArc
 50
306.2752398379
 51
67.1668805051
  0
ARC
  5
40D
100
AcDbEntity
  8
0
100
AcDbCircle
 62
7
  6
CONTINUOUS
 10
7.3582998671
 20
6.3860621672
 40
0.4829148167
100
AcDbArc
 50
307.3525523781
 51
66.4905570825
  0
ARC
  5
40E
100
AcDbEntity
  8
0
100
AcDbCircle
 62
7
  6
CONTINUOUS
 10
7.3582998671
 20
6.3860621672
 40
0.4829148167
100
AcDbArc
 50
113.5094429175
 51
232.6474476219
  0
ARC
  5
40F
100
AcDbEntity
  8
0
100
AcDbCircle
 62
7
  6
CONTINUOUS
 10
7.3582998671
 20
6.3860621672
 40
0.4636465106
100
AcDbArc
 50
114.545249483
 51
233.9089204313
  0
ARC
  5
410
100
AcDbEntity
  8
0
100
AcDbCircle
 62
7
  6
CONTINUOUS
 10
7.3582998671
 20
6.3860621672
 40
0.4636465106
100
AcDbArc
 50
306.0910795687
 51
65.454750517
  0
ARC
  5
411
100
AcDbEntity
  8
0
100
AcDbCircle
 62
7
  6
CONTINUOUS
 10
7.3582998671
 20
6.3860621672
 40
0.354630425
100
AcDbArc
 50
135.4319760329
 51
223.2879498693
  0
ARC
  5
412
100
AcDbEntity
  8
0
100
AcDbCircle
 62
7
  6
CONTINUOUS
 10
7.3582998671
 20
6.3860621672
 40
0.354630425
100
AcDbArc
 50
316.7231047426
 51
44.5754224469
  0
ARC
  5
413
100
AcDbEntity
  8
0
100
AcDbCircle
 62
7
  6
CONTINUOUS
 10
7.3582998671
 20
6.3860621672
 40
0.338
100
AcDbArc
 50
325.7989765278
 51
37.4852007528
  0
ARC
  5
414
100
AcDbEntity
  8
0
100
AcDbCircle
 62
7
  6
CONTINUOUS
 10
7.3582998671
 20
6.3860621672
 40
0.338
100
AcDbArc
 50
142.5360334534
 51
214.2421104227
  0
ARC
  5
415
100
AcDbEntity
  8
0
100
AcDbCircle
 62
7
  6
CONTINUOUS
 10
7.5431264462
 20
6.0016442461
 40
0.039469578
100
AcDbArc
 50
0.0122986988
 51
2.1503649461
  0
ARC
  5
416
100
AcDbEntity
  8
0
100
AcDbCircle
 62
7
  6
CONTINUOUS
 10
7.5610748165
 20
6.0016440666
 40
0.031146339
100
AcDbArc
 50
0.0159155701
 51
5.2546394137
  0
ARC
  5
417
100
AcDbEntity
  8
0
100
AcDbCircle
 62
7
  6
CONTINUOUS
 10
7.5653258804
 20
6.0020825665
 40
0.026873812
100
AcDbArc
 50
5.1938465965
 51
8.0303877725
  0
ARC
  5
418
100
AcDbEntity
  8
0
100
AcDbCircle
 62
7
  6
CONTINUOUS
 10
7.5754086167
 20
6.0016438095
 40
0.0257861437
100
AcDbArc
 50
0.0197951534
 51
3.2934683561
  0
ARC
  5
419
100
AcDbEntity
  8
0
100
AcDbCircle
 62
7
  6
CONTINUOUS
 10
7.5874498035
 20
6.0016435298
 40
0.0220579931
100
AcDbArc
 50
0.0238674444
 51
3.851584293
  0
ARC
  5
41A
100
AcDbEntity
  8
0
100
AcDbCircle
 62
7
  6
CONTINUOUS
 10
7.5978093622
 20
6.0016432124
 40
0.0193229273
100
AcDbArc
 50
0.0281869736
 51
4.3987525466
  0
ARC
  5
41B
100
AcDbEntity
  8
0
100
AcDbCircle
 62
7
  6
CONTINUOUS
 10
7.6068096836
 20
6.0016428617
 40
0.0172376571
100
AcDbArc
 50
0.0327624455
 51
4.9332939679
  0
ARC
  5
41C
100
AcDbEntity
  8
0
100
AcDbCircle
 62
7
  6
CONTINUOUS
 10
7.5777138658
 20
5.9958328276
 40
0.0158009915
100
AcDbArc
 50
71.8736701815
 51
78.9654521328
  0
ARC
  5
41D
100
AcDbEntity
  8
0
100
AcDbCircle
 62
7
  6
CONTINUOUS
 10
7.5679830507
 20
5.9958458729
 40
0.0157879677
100
AcDbArc
 50
71.865880215
 51
78.9604789329
  0
ARC
  5
41E
100
AcDbEntity
  8
0
100
AcDbCircle
 62
7
  6
CONTINUOUS
 10
7.5868384445
 20
5.9959040209
 40
0.0157296834
100
AcDbArc
 50
71.7907379255
 51
78.8921030546
  0
ARC
  5
41F
100
AcDbEntity
  8
0
100
AcDbCircle
 62
7
  6
CONTINUOUS
 10
7.5576761001
 20
5.9959369649
 40
0.0156970275
100
AcDbArc
 50
71.8112078882
 51
78.9255631763
  0
ARC
  5
420
100
AcDbEntity
  8
0
100
AcDbCircle
 62
7
  6
CONTINUOUS
 10
7.6146331118
 20
6.0016424813
 40
0.0156008848
100
AcDbArc
 50
0.0375965686
 51
5.4537683949
  0
ARC
  5
421
100
AcDbEntity
  8
0
100
AcDbCircle
 62
7
  6
CONTINUOUS
 10
7.5953420529
 20
5.9960405951
 40
0.0155935723
100
AcDbArc
 50
71.7484043813
 51
78.8854366227
  0
ARC
  5
422
100
AcDbEntity
  8
0
100
AcDbCircle
 62
7
  6
CONTINUOUS
 10
7.5468212515
 20
5.9961051067
 40
0.0155291709
100
AcDbArc
 50
71.7089785721
 51
78.8602359702
  0
ARC
  5
423
100
AcDbEntity
  8
0
100
AcDbCircle
 62
7
  6
CONTINUOUS
 10
7.6031910695
 20
5.9962590982
 40
0.0153754473
100
AcDbArc
 50
71.6138299436
 51
78.7993701347
  0
ARC
  5
424
100
AcDbEntity
  8
0
100
AcDbCircle
 62
7
  6
CONTINUOUS
 10
7.610367399
 20
5.9965511942
 40
0.0150838738
100
AcDbArc
 50
71.4291735901
 51
78.6811676699
  0
ARC
  5
425
100
AcDbEntity
  8
0
100
AcDbCircle
 62
7
  6
CONTINUOUS
 10
7.6168513046
 20
5.9969135829
 40
0.0147221658
100
AcDbArc
 50
71.1921619808
 51
78.5291764961
  0
ARC
  5
426
100
AcDbEntity
  8
0
100
AcDbCircle
 62
7
  6
CONTINUOUS
 10
7.5780886053
 20
5.9969741467
 40
0.0145997265
100
AcDbArc
 50
64.6875941732
 51
71.8778410736
  0
ARC
  5
427
100
AcDbEntity
  8
0
100
AcDbCircle
 62
7
  6
CONTINUOUS
 10
7.5683571718
 20
5.9969848051
 40
0.0145891634
100
AcDbArc
 50
64.6774035865
 51
71.8700224328
  0
ARC
  5
428
100
AcDbEntity
  8
0
100
AcDbCircle
 62
7
  6
CONTINUOUS
 10
7.5872111148
 20
5.9970336225
 40
0.0145401953
100
AcDbArc
 50
64.5963880597
 51
71.7947577229
  0
ARC
  5
429
100
AcDbEntity
  8
0
100
AcDbCircle
 62
7
  6
CONTINUOUS
 10
7.5580458898
 20
5.9970592304
 40
0.0145154087
100
AcDbArc
 50
64.6059081133
 51
71.8151483664
  0
ARC
  5
42A
100
AcDbEntity
  8
0
100
AcDbCircle
 62
7
  6
CONTINUOUS
 10
7.547182983
 20
5.9971966091
 40
0.0143792899
100
AcDbArc
 50
64.4723285752
 51
71.712539785
  0
ARC
  5
42B
100
AcDbEntity
  8
0
100
AcDbCircle
 62
7
  6
CONTINUOUS
 10
7.622624959
 20
5.9973423322
 40
0.014294271
100
AcDbArc
 50
70.8996711102
 51
78.3412096961
  0
ARC
  5
42C
100
AcDbEntity
  8
0
100
AcDbCircle
 62
7
  6
CONTINUOUS
 10
7.621390925
 20
6.0016420981
 40
0.0142871992
100
AcDbArc
 50
0.0425905324
 51
5.9534466428
  0
ARC
  5
42D
100
AcDbEntity
  8
0
100
AcDbCircle
 62
7
  6
CONTINUOUS
 10
7.610707341
 20
5.9975610867
 40
0.0140183021
100
AcDbArc
 50
64.10742938
 51
71.4316837394
  0
ARC
  5
42E
100
AcDbEntity
  8
0
100
AcDbCircle
 62
7
  6
CONTINUOUS
 10
7.6276710104
 20
5.9978368126
 40
0.0138006626
100
AcDbArc
 50
70.5011992757
 51
78.062637493
  0
ARC
  5
42F
100
AcDbEntity
  8
0
100
AcDbCircle
 62
7
  6
CONTINUOUS
 10
7.6271432457
 20
6.0016416489
 40
0.0132130911
100
AcDbArc
 50
0.0480004331
 51
6.4468266649
  0
ARC
  5
430
100
AcDbEntity
  8
0
100
AcDbCircle
 62
7
  6
CONTINUOUS
 10
7.631997619
 20
5.998441327
 40
0.0131952467
100
AcDbArc
 50
70.1127640823
 51
77.8642488013
  0
ARC
  5
431
100
AcDbEntity
  8
0
100
AcDbCircle
 62
7
  6
CONTINUOUS
 10
7.6355513037
 20
5.9990309728
 40
0.0126073006
100
AcDbArc
 50
69.6272995082
 51
77.5475336723
  0
ARC
  5
432
100
AcDbEntity
  8
0
100
AcDbCircle
 62
7
  6
CONTINUOUS
 10
7.6322233874
 20
5.9990549989
 40
0.0125413726
100
AcDbArc
 50
62.4290545459
 51
70.1289898535
  0
ARC
  5
433
100
AcDbEntity
  8
0
100
AcDbCircle
 62
7
  6
CONTINUOUS
 10
7.6319412051
 20
6.0016412061
 40
0.0123230713
100
AcDbArc
 50
0.05352626
 51
6.9167114977
  0
ARC
  5
434
100
AcDbEntity
  8
0
100
AcDbCircle
 62
7
  6
CONTINUOUS
 10
7.6357709461
 20
5.9996018129
 40
0.0119957068
100
AcDbArc
 50
61.7846671034
 51
69.6615907914
  0
ARC
  5
435
100
AcDbEntity
  8
0
100
AcDbCircle
 62
7
  6
CONTINUOUS
 10
7.6383428489
 20
5.9996638342
 40
0.011976476
100
AcDbArc
 50
69.0644832656
 51
77.1784799246
  0
ARC
  5
436
100
AcDbEntity
  8
0
100
AcDbCircle
 62
7
  6
CONTINUOUS
 10
7.6358114407
 20
6.0016407519
 40
0.0115769669
100
AcDbArc
 50
0.0592235518
 51
7.3671368051
  0
ARC
  5
437
100
AcDbEntity
  8
0
100
AcDbCircle
 62
7
  6
CONTINUOUS
 10
7.638774317
 20
6.0016402915
 40
0.0109458503
100
AcDbArc
 50
0.0650484733
 51
7.79691072
  0
ARC
  5
438
100
AcDbEntity
  8
0
100
AcDbCircle
 62
7
  6
CONTINUOUS
 10
7.640844923
 20
6.0016398298
 40
0.0104082412
100
AcDbArc
 50
0.0709499233
 51
8.2049109394
  0
ARC
  5
439
100
AcDbEntity
  8
0
100
AcDbCircle
 62
7
  6
CONTINUOUS
 10
7.6886067737
 20
6.6390898441
 40
0.0780931158
100
AcDbArc
 50
208.6496952728
 51
210.9995095955
  0
ARC
  5
43A
100
AcDbEntity
  8
0
100
AcDbCircle
 62
7
  6
CONTINUOUS
 10
7.6872857709
 20
6.6382486161
 40
0.0765274424
100
AcDbArc
 50
211.1136873149
 51
217.4737988891
  0
ARC
  5
43B
100
AcDbEntity
  8
0
100
AcDbCircle
 62
7
  6
CONTINUOUS
 10
7.5308672306
 20
6.7723620913
 40
0.0199326406
100
AcDbArc
 50
0.0366639065
 51
15.0505290663
  0
ARC
  5
43C
100
AcDbEntity
  8
0
100
AcDbCircle
 62
7
  6
CONTINUOUS
 10
7.5986450362
 20
6.7010621679
 40
0.0099999999
100
AcDbArc
 50
1.9670288807
 51
90.0150527174
  0
ARC
  5
43D
100
AcDbEntity
  8
0
100
AcDbCircle
 62
7
  6
CONTINUOUS
 10
7.3583308285
 20
9.7545886708
 40
3.0212696114
100
AcDbArc
 50
268.4850541708
 51
271.4785168116
  0
ARC
  5
43E
100
AcDbEntity
  8
0
100
AcDbCircle
 62
7
  6
CONTINUOUS
 10
16.3415718049
 20
6.3847588422
 40
9.2390354131
100
AcDbArc
 50
178.0359358036
 51
178.4371004427
  0
SPLINE
  5
43F
100
AcDbEntity
  8
0
100
AcDbSpline
 62
7
  6
CONTINUOUS
 70
0
 71
3
 72
9
 73
5
 74
0
 42
0.0000001
 43
0.0000001
 44
0.0000000001
 40
0.0
 40
0.0
 40
0.0
 40
0.0
 40
0.4956847645
 40
1.0
 40
1.0
 40
1.0
 40
1.0
 10
4.1680492404
 20
6.8352334905
 30
0.0
 10
4.1341354509
 20
6.834707828
 30
0.0
 10
4.0657245152
 20
6.8330799183
 30
0.0
 10
3.9973607961
 20
6.8299570968
 30
0.0
 10
3.9629143009
 20
6.8278907934
 30
0.0
  0
SPLINE
  5
440
100
AcDbEntity
  8
0
100
AcDbSpline
 62
7
  6
CONTINUOUS
 70
0
 71
3
 72
23
 73
19
 74
0
 42
0.0000001
 43
0.0000001
 44
0.0000000001
 40
0.0
 40
0.0
 40
0.0
 40
0.0
 40
0.0116317691
 40
0.0222846622
 40
0.0367501386
 40
0.0550161527
 40
0.076942585
 40
0.1023575111
 40
0.131074566
 40
0.274316675
 40
0.4478670655
 40
0.6291521886
 40
0.7151039427
 40
0.7943446057
 40
0.8644880233
 40
0.9232652093
 40
0.9689224358
 40
1.0
 40
1.0
 40
1.0
 40
1.0
 10
7.4370946502
 20
5.725175869
 30
0.0
 10
7.4370984187
 20
5.7252518894
 30
0.0
 10
7.4369441303
 20
5.7253612392
 30
0.0
 10
7.4367271624
 20
5.7254266726
 30
0.0
 10
7.4364441632
 20
5.7254873051
 30
0.0
 10
7.4360910866
 20
5.7255325864
 30
0.0
 10
7.4356625755
 20
5.7255690499
 30
0.0
 10
7.4351656225
 20
5.7255936761
 30
0.0
 10
7.4338741754
 20
5.7256234591
 30
0.0
 10
7.4316127002
 20
5.7255513257
 30
0.0
 10
7.4283620286
 20
5.7253094205
 30
0.0
 10
7.4254948057
 20
5.7249877607
 30
0.0
 10
7.4232498817
 20
5.7246699449
 30
0.0
 10
7.4217300577
 20
5.7244204697
 30
0.0
 10
7.4203922215
 20
5.7241643843
 30
0.0
 10
7.4192775836
 20
5.7239101305
 30
0.0
 10
7.4184257397
 20
5.7236666011
 30
0.0
 10
7.4179521682
 20
5.7234904908
 30
0.0
 10
7.4177738311
 20
5.7233927618
 30
0.0
  0
SPLINE
  5
441
100
AcDbEntity
  8
0
100
AcDbSpline
 62
7
  6
CONTINUOUS
 70
0
 71
3
 72
18
 73
14
 74
0
 42
0.0000001
 43
0.0000001
 44
0.0000000001
 40
0.0
 40
0.0
 40
0.0
 40
0.0
 40
0.0201868702
 40
0.0444670063
 40
0.0750761559
 40
0.1128275288
 40
0.1578721424
 40
0.2100839119
 40
0.3347678494
 40
0.4827115095
 40
0.6482486384
 40
0.8240345373
 40
1.0
 40
1.0
 40
1.0
 40
1.0
 10
7.3080429713
 20
5.7350945953
 30
0.0
 10
7.3080485637
 20
5.7351829318
 30
0.0
 10
7.30800795
 20
5.7353817923
 30
0.0
 10
7.3078186453
 20
5.7356571651
 30
0.0
 10
7.3075148229
 20
5.7359300188
 30
0.0
 10
7.3070982756
 20
5.7362038202
 30
0.0
 10
7.3065724058
 20
5.7364771995
 30
0.0
 10
7.3056769754
 20
5.736860022
 30
0.0
 10
7.3043195809
 20
5.7372997753
 30
0.0
 10
7.3024519548
 20
5.7377548719
 30
0.0
 10
7.3003398187
 20
5.7381374317
 30
0.0
 10
7.2980892345
 20
5.7384256905
 30
0.0
 10
7.2965509796
 20
5.7385481738
 30
0.0
 10
7.2957804552
 20
5.7385880516
 30
0.0
  0
SPLINE
  5
442
100
AcDbEntity
  8
0
100
AcDbSpline
 62
7
  6
CONTINUOUS
 70
0
 71
3
 72
12
 73
8
 74
0
 42
0.0000001
 43
0.0000001
 44
0.0000000001
 40
0.0
 40
0.0
 40
0.0
 40
0.0
 40
0.1307846903
 40
0.2202263538
 40
0.3307296491
 40
0.6194449339
 40
1.0
 40
1.0
 40
1.0
 40
1.0
 10
7.3680903433
 20
5.7241421777
 30
0.0
 10
7.3680950459
 20
5.7242129038
 30
0.0
 10
7.3680324378
 20
5.7243321846
 30
0.0
 10
7.3678965648
 20
5.7244467312
 30
0.0
 10
7.3676702159
 20
5.724587353
 30
0.0
 10
7.3672765254
 20
5.724745576
 30
0.0
 10
7.3669275341
 20
5.7248455908
 30
0.0
 10
7.3667274734
 20
5.7248957466
 30
0.0
  0
SPLINE
  5
443
100
AcDbEntity
  8
0
100
AcDbSpline
 62
7
  6
CONTINUOUS
 70
0
 71
3
 72
14
 73
10
 74
0
 42
0.0000001
 43
0.0000001
 44
0.0000000001
 40
0.0
 40
0.0
 40
0.0
 40
0.0
 40
0.0569407387
 40
0.1241993936
 40
0.2110387716
 40
0.3217609686
 40
0.457718723
 40
0.6175733486
 40
1.0
 40
1.0
 40
1.0
 40
1.0
 10
7.4292766318
 20
5.7370377372
 30
0.0
 10
7.4292818682
 20
5.7371328238
 30
0.0
 10
7.4292309236
 20
5.7373462183
 30
0.0
 10
7.4289893828
 20
5.7376152639
 30
0.0
 10
7.4286115509
 20
5.737851726
 30
0.0
 10
7.4280927432
 20
5.7380618472
 30
0.0
 10
7.4274366412
 20
5.7382436684
 30
0.0
 10
7.4263222597
 20
5.7384595772
 30
0.0
 10
7.4254175222
 20
5.7385486732
 30
0.0
 10
7.4247791452
 20
5.7385880516
 30
0.0
  0
SPLINE
  5
444
100
AcDbEntity
  8
0
100
AcDbSpline
 62
7
  6
CONTINUOUS
 70
0
 71
3
 72
15
 73
11
 74
0
 42
0.0000001
 43
0.0000001
 44
0.0000000001
 40
0.0
 40
0.0
 40
0.0
 40
0.0
 40
0.0291339861
 40
0.0541088247
 40
0.0868931807
 40
0.1758213931
 40
0.294430076
 40
0.4404355284
 40
0.6105215617
 40
1.0
 40
1.0
 40
1.0
 40
1.0
 10
7.2990798571
 20
5.7231237253
 30
0.0
 10
7.2990825073
 20
5.7231979953
 30
0.0
 10
7.2989594731
 20
5.7233117267
 30
0.0
 10
7.2987761467
 20
5.7234185631
 30
0.0
 10
7.2984306073
 20
5.7235749517
 30
0.0
 10
7.297849739
 20
5.7237645501
 30
0.0
 10
7.2969759866
 20
5.7239939043
 30
0.0
 10
7.2958923462
 20
5.7242283272
 30
0.0
 10
7.2941222012
 20
5.7245557097
 30
0.0
 10
7.2927099036
 20
5.7247658818
 30
0.0
 10
7.2917249142
 20
5.7248957466
 30
0.0
  0
SPLINE
  5
445
100
AcDbEntity
  8
0
100
AcDbSpline
 62
7
  6
CONTINUOUS
 70
0
 71
3
 72
18
 73
14
 74
0
 42
0.0000001
 43
0.0000001
 44
0.0000000001
 40
0.0
 40
0.0
 40
0.0
 40
0.0
 40
0.0157856211
 40
0.038805053
 40
0.070814738
 40
0.1119766393
 40
0.161989856
 40
0.2201574296
 40
0.3570001084
 40
0.5141394665
 40
0.6815306125
 40
0.8480250661
 40
1.0
 40
1.0
 40
1.0
 40
1.0
 10
7.2566521534
 20
5.7342858764
 30
0.0
 10
7.256658986
 20
5.7343745025
 30
0.0
 10
7.2565693289
 20
5.7345931802
 30
0.0
 10
7.2562756188
 20
5.7348653503
 30
0.0
 10
7.2558224173
 20
5.7351656115
 30
0.0
 10
7.2552033893
 20
5.7354803786
 30
0.0
 10
7.2544285399
 20
5.7358084456
 30
0.0
 10
7.2531312217
 20
5.7362794438
 30
0.0
 10
7.2512286708
 20
5.7368441419
 30
0.0
 10
7.248701034
 20
5.7374483424
 30
0.0
 10
7.2459845212
 20
5.7379691399
 30
0.0
 10
7.2432762843
 20
5.738362523
 30
0.0
 10
7.2414901931
 20
5.7385361941
 30
0.0
 10
7.2406359928
 20
5.7385880516
 30
0.0
  0
SPLINE
  5
446
100
AcDbEntity
  8
0
100
AcDbSpline
 62
7
  6
CONTINUOUS
 70
0
 71
3
 72
16
 73
12
 74
0
 42
0.0000001
 43
0.0000001
 44
0.0000000001
 40
0.0
 40
0.0
 40
0.0
 40
0.0
 40
0.0499693746
 40
0.0804822564
 40
0.1164180169
 40
0.2069164003
 40
0.3231131044
 40
0.463988654
 40
0.627289195
 40
0.8079541794
 40
1.0
 40
1.0
 40
1.0
 40
1.0
 10
7.3686604235
 20
5.7360600329
 30
0.0
 10
7.3686686446
 20
5.7362092113
 30
0.0
 10
7.3685839295
 20
5.7364554812
 30
0.0
 10
7.3683572016
 20
5.7367198636
 30
0.0
 10
7.3679931473
 20
5.737019879
 30
0.0
 10
7.3673455332
 20
5.7373587081
 30
0.0
 10
7.366366582
 20
5.7377110564
 30
0.0
 10
7.3651468602
 20
5.7380215426
 30
0.0
 10
7.3637193152
 20
5.738278307
 30
0.0
 10
7.3621280947
 20
5.7384748837
 30
0.0
 10
7.3610163591
 20
5.7385582331
 30
0.0
 10
7.3604429312
 20
5.7385880516
 30
0.0
  0
SPLINE
  5
447
100
AcDbEntity
  8
0
100
AcDbSpline
 62
7
  6
CONTINUOUS
 70
0
 71
3
 72
13
 73
9
 74
0
 42
0.0000001
 43
0.0000001
 44
0.0000000001
 40
0.0
 40
0.0
 40
0.0
 40
0.0
 40
0.0668825668
 40
0.1394515312
 40
0.2271960887
 40
0.3352000878
 40
0.6197396392
 40
1.0
 40
1.0
 40
1.0
 40
1.0
 10
7.4806651284
 20
5.7378762127
 30
0.0
 10
7.4806677313
 20
5.7379193159
 30
0.0
 10
7.4806533967
 20
5.7380118273
 30
0.0
 10
7.4805678961
 20
5.7381353629
 30
0.0
 10
7.4804295997
 20
5.7382423557
 30
0.0
 10
7.4801508265
 20
5.7383810099
 30
0.0
 10
7.4796647098
 20
5.7385090191
 30
0.0
 10
7.4792389403
 20
5.7385652572
 30
0.0
 10
7.4789944918
 20
5.7385880516
 30
0.0
  0
SPLINE
  5
448
100
AcDbEntity
  8
0
100
AcDbSpline
 62
7
  6
CONTINUOUS
 70
0
 71
3
 72
20
 73
16
 74
0
 42
0.0000001
 43
0.0000001
 44
0.0000000001
 40
0.0
 40
0.0
 40
0.0
 40
0.0
 40
0.0045555385
 40
0.0115605244
 40
0.0345906833
 40
0.0699620101
 40
0.1170760392
 40
0.1746080107
 40
0.2410908069
 40
0.3149985024
 40
0.3945412876
 40
0.5629226211
 40
0.7307502261
 40
0.8819762084
 40
1.0
 40
1.0
 40
1.0
 40
1.0
 10
7.2223105376
 20
5.7337513088
 30
0.0
 10
7.2223123095
 20
5.7337810884
 30
0.0
 10
7.2222772075
 20
5.733855295
 30
0.0
 10
7.222109757
 20
5.7340071821
 30
0.0
 10
7.2217313116
 20
5.734217993
 30
0.0
 10
7.2210995724
 20
5.7344943453
 30
0.0
 10
7.2202386563
 20
5.7348131096
 30
0.0
 10
7.2191751378
 20
5.7351658556
 30
0.0
 10
7.2179347355
 20
5.7355424982
 30
0.0
 10
7.216548375
 20
5.7359329636
 30
0.0
 10
7.2145104017
 20
5.7364703493
 30
0.0
 10
7.2118626327
 20
5.7371056571
 30
0.0
 10
7.2087394697
 20
5.737767783
 30
0.0
 10
7.2059221726
 20
5.7382734765
 30
0.0
 10
7.2041745672
 20
5.7385187914
 30
0.0
 10
7.2034047887
 20
5.7385880516
 30
0.0
  0
SPLINE
  5
449
100
AcDbEntity
  8
0
100
AcDbSpline
 62
7
  6
CONTINUOUS
 70
0
 71
3
 72
12
 73
8
 74
0
 42
0.0000001
 43
0.0000001
 44
0.0000000001
 40
0.0
 40
0.0
 40
0.0
 40
0.0
 40
0.3705584081
 40
0.6731139123
 40
0.882385806
 40
0.9522327054
 40
1.0
 40
1.0
 40
1.0
 40
1.0
 10
7.1664383981
 20
6.0016527184
 30
0.0
 10
7.1664383981
 20
6.0028508525
 30
0.0
 10
7.1664553823
 20
6.00502736
 30
0.0
 10
7.1665269428
 20
6.0078794565
 30
0.0
 10
7.1666151052
 20
6.0097587491
 30
0.0
 10
7.1667046644
 20
6.0108118367
 30
0.0
 10
7.1667510799
 20
6.0111896426
 30
0.0
 10
7.1667782011
 20
6.0113416896
 30
0.0
  0
SPLINE
  5
44A
100
AcDbEntity
  8
0
100
AcDbSpline
 62
7
  6
CONTINUOUS
 70
0
 71
3
 72
13
 73
9
 74
0
 42
0.0000001
 43
0.0000001
 44
0.0000000001
 40
0.0
 40
0.0
 40
0.0
 40
0.0
 40
0.3684549362
 40
0.6698023831
 40
0.7862014905
 40
0.8794408409
 40
0.9503028972
 40
1.0
 40
1.0
 40
1.0
 40
1.0
 10
7.1550598821
 20
6.0016527184
 30
0.0
 10
7.1550598821
 20
6.0028510725
 30
0.0
 10
7.1551037876
 20
6.0050296067
 30
0.0
 10
7.1552595002
 20
6.0075833191
 30
0.0
 10
7.1554435515
 20
6.0092352269
 30
0.0
 10
7.1555809599
 20
6.010137701
 30
0.0
 10
7.1557260363
 20
6.0108177331
 30
0.0
 10
7.1558427135
 20
6.0111940426
 30
0.0
 10
7.1559084842
 20
6.0113416896
 30
0.0
  0
SPLINE
  5
44B
100
AcDbEntity
  8
0
100
AcDbSpline
 62
7
  6
CONTINUOUS
 70
0
 71
3
 72
11
 73
7
 74
0
 42
0.0000001
 43
0.0000001
 44
0.0000000001
 40
0.0
 40
0.0
 40
0.0
 40
0.0
 40
0.3161083512
 40
0.5996475478
 40
0.8282867901
 40
1.0
 40
1.0
 40
1.0
 40
1.0
 10
7.1442384327
 20
6.0016527184
 30
0.0
 10
7.1442384327
 20
6.002557159
 30
0.0
 10
7.1442817559
 20
6.0042730219
 30
0.0
 10
7.1444531464
 20
6.0066379953
 30
0.0
 10
7.1447145771
 20
6.0085781432
 30
0.0
 10
7.1449550512
 20
6.0097007458
 30
0.0
 10
7.1450934411
 20
6.0101721534
 30
0.0
  0
LINE
  5
44C
100
AcDbEntity
  8
0
100
AcDbLine
 62
7
  6
CONTINUOUS
 10
7.1450934411
 20
6.0101721534
 11
7.145593508
 21
6.0113416896
  0
SPLINE
  5
44D
100
AcDbEntity
  8
0
100
AcDbSpline
 62
7
  6
CONTINUOUS
 70
0
 71
3
 72
11
 73
7
 74
0
 42
0.0000001
 43
0.0000001
 44
0.0000000001
 40
0.0
 40
0.0
 40
0.0
 40
0.0
 40
0.3351004268
 40
0.6244683307
 40
0.8457763058
 40
1.0
 40
1.0
 40
1.0
 40
1.0
 10
7.1340037109
 20
6.0016527184
 30
0.0
 10
7.1340037109
 20
6.0027013429
 30
0.0
 10
7.134080403
 20
6.0046558443
 30
0.0
 10
7.1343873182
 20
6.0072894056
 30
0.0
 10
7.1348407599
 20
6.0093214336
 30
0.0
 10
7.1352579757
 20
6.0104324505
 30
0.0
 10
7.1355005609
 20
6.0108496611
 30
0.0
  0
LINE
  5
44E
100
AcDbEntity
  8
0
100
AcDbLine
 62
7
  6
CONTINUOUS
 10
7.1355005609
 20
6.0108496611
 11
7.1358615452
 21
6.0113416896
  0
LINE
  5
44F
100
AcDbEntity
  8
0
100
AcDbLine
 62
7
  6
CONTINUOUS
 10
7.12437858
 20
6.0016527184
 11
7.1246639256
 21
6.0058387338
  0
SPLINE
  5
450
100
AcDbEntity
  8
0
100
AcDbSpline
 62
7
  6
CONTINUOUS
 70
0
 71
3
 72
10
 73
6
 74
0
 42
0.0000001
 43
0.0000001
 44
0.0000000001
 40
0.0
 40
0.0
 40
0.0
 40
0.0
 40
0.599456084
 40
0.823354998
 40
1.0
 40
1.0
 40
1.0
 40
1.0
 10
7.1246639256
 20
6.0058387338
 30
0.0
 10
7.1248124424
 20
6.0068869405
 30
0.0
 10
7.1251028141
 20
6.0083236353
 30
0.0
 10
7.1257393518
 20
6.0099741164
 30
0.0
 10
7.1260889324
 20
6.0105946512
 30
0.0
 10
7.1262737388
 20
6.0108459861
 30
0.0
  0
LINE
  5
451
100
AcDbEntity
  8
0
100
AcDbLine
 62
7
  6
CONTINUOUS
 10
7.1262737388
 20
6.0108459861
 11
7.1267308528
 21
6.0113390263
  0
SPLINE
  5
452
100
AcDbEntity
  8
0
100
AcDbSpline
 62
7
  6
CONTINUOUS
 70
0
 71
3
 72
9
 73
5
 74
0
 42
0.0000001
 43
0.0000001
 44
0.0000000001
 40
0.0
 40
0.0
 40
0.0
 40
0.0
 40
0.5473584596
 40
1.0
 40
1.0
 40
1.0
 40
1.0
 10
7.1154049754
 20
6.0016527184
 30
0.0
 10
7.1154049754
 20
6.0028839461
 30
0.0
 10
7.1155599131
 20
6.0051351674
 30
0.0
 10
7.1160337294
 20
6.0073479247
 30
0.0
 10
7.116359461
 20
6.0083125864
 30
0.0
  0
SPLINE
  5
453
100
AcDbEntity
  8
0
100
AcDbSpline
 62
7
  6
CONTINUOUS
 70
0
 71
3
 72
9
 73
5
 74
0
 42
0.0000001
 43
0.0000001
 44
0.0000000001
 40
0.0
 40
0.0
 40
0.0
 40
0.0
 40
0.5638353795
 40
1.0
 40
1.0
 40
1.0
 40
1.0
 10
7.116359461
 20
6.0083125864
 30
0.0
 10
7.1165327649
 20
6.0088258296
 30
0.0
 10
7.1168953063
 20
6.0097191095
 30
0.0
 10
7.1174198002
 20
6.0105367762
 30
0.0
 10
7.11769856
 20
6.0108496611
 30
0.0
  0
LINE
  5
454
100
AcDbEntity
  8
0
100
AcDbLine
 62
7
  6
CONTINUOUS
 10
7.11769856
 20
6.0108496611
 11
7.1182516869
 21
6.0113416896
  0
SPLINE
  5
455
100
AcDbEntity
  8
0
100
AcDbSpline
 62
7
  6
CONTINUOUS
 70
0
 71
3
 72
11
 73
7
 74
0
 42
0.0000001
 43
0.0000001
 44
0.0000000001
 40
0.0
 40
0.0
 40
0.0
 40
0.0
 40
0.2910559415
 40
0.5637219785
 40
0.8005790637
 40
1.0
 40
1.0
 40
1.0
 40
1.0
 10
7.1070919395
 20
6.0016527184
 30
0.0
 10
7.1070919395
 20
6.0024197686
 30
0.0
 10
7.1071715351
 20
6.0039061829
 30
0.0
 10
7.1074878226
 20
6.005996079
 30
0.0
 10
7.1079797177
 20
6.0078030365
 30
0.0
 10
7.1084285481
 20
6.0088670941
 30
0.0
 10
7.1086749244
 20
6.009331321
 30
0.0
  0
LINE
  5
456
100
AcDbEntity
  8
0
100
AcDbLine
 62
7
  6
CONTINUOUS
 10
7.1086749244
 20
6.009331321
 11
7.1097750054
 21
6.0108496631
  0
LINE
  5
457
100
AcDbEntity
  8
0
100
AcDbLine
 62
7
  6
CONTINUOUS
 10
7.1097750054
 20
6.0108496631
 11
7.1104220589
 21
6.0113416896
  0
SPLINE
  5
458
100
AcDbEntity
  8
0
100
AcDbSpline
 62
7
  6
CONTINUOUS
 70
0
 71
3
 72
11
 73
7
 74
0
 42
0.0000001
 43
0.0000001
 44
0.0000000001
 40
0.0
 40
0.0
 40
0.0
 40
0.0
 40
0.3022150875
 40
0.5780595599
 40
0.8102297287
 40
1.0
 40
1.0
 40
1.0
 40
1.0
 10
7.0994674471
 20
6.0016527184
 30
0.0
 10
7.0994674471
 20
6.0025591184
 30
0.0
 10
7.0995909414
 20
6.0042945367
 30
0.0
 10
7.100082561
 20
6.0066832717
 30
0.0
 10
7.1008337657
 20
6.0086465628
 30
0.0
 10
7.1015059077
 20
6.0097329476
 30
0.0
 10
7.1018678993
 20
6.0101721533
 30
0.0
  0
LINE
  5
459
100
AcDbEntity
  8
0
100
AcDbLine
 62
7
  6
CONTINUOUS
 10
7.1018678993
 20
6.0101721533
 11
7.1025326374
 21
6.0108496611
  0
LINE
  5
45A
100
AcDbEntity
  8
0
100
AcDbLine
 62
7
  6
CONTINUOUS
 10
7.1025326374
 20
6.0108496611
 11
7.1032718467
 21
6.0113416896
  0
SPLINE
  5
45B
100
AcDbEntity
  8
0
100
AcDbSpline
 62
7
  6
CONTINUOUS
 70
0
 71
3
 72
11
 73
7
 74
0
 42
0.0000001
 43
0.0000001
 44
0.0000000001
 40
0.0
 40
0.0
 40
0.0
 40
0.0
 40
0.2985869922
 40
0.572492272
 40
0.8056813305
 40
1.0
 40
1.0
 40
1.0
 40
1.0
 10
7.0925523964
 20
6.0016527184
 30
0.0
 10
7.0925523964
 20
6.0025596982
 30
0.0
 10
7.09269164
 20
6.0043008765
 30
0.0
 10
7.0932461995
 20
6.006695616
 30
0.0
 10
7.0940938443
 20
6.0086630202
 30
0.0
 10
7.0948447884
 20
6.0097387782
 30
0.0
 10
7.0952455245
 20
6.0101721534
 30
0.0
  0
LINE
  5
45C
100
AcDbEntity
  8
0
100
AcDbLine
 62
7
  6
CONTINUOUS
 10
7.0952455245
 20
6.0101721534
 11
7.095991311
 21
6.0108496611
  0
LINE
  5
45D
100
AcDbEntity
  8
0
100
AcDbLine
 62
7
  6
CONTINUOUS
 10
7.095991311
 20
6.0108496611
 11
7.0968206486
 21
6.0113416896
  0
SPLINE
  5
45E
100
AcDbEntity
  8
0
100
AcDbSpline
 62
7
  6
CONTINUOUS
 70
0
 71
3
 72
11
 73
7
 74
0
 42
0.0000001
 43
0.0000001
 44
0.0000000001
 40
0.0
 40
0.0
 40
0.0
 40
0.0
 40
0.3069399802
 40
0.5815867934
 40
0.8107347264
 40
1.0
 40
1.0
 40
1.0
 40
1.0
 10
7.086365741
 20
6.0016527184
 30
0.0
 10
7.086365741
 20
6.0027058839
 30
0.0
 10
7.0865670389
 20
6.0047062855
 30
0.0
 10
7.0873798602
 20
6.0073883969
 30
0.0
 10
7.0885867783
 20
6.0094634698
 30
0.0
 10
7.0896311694
 20
6.0104856396
 30
0.0
 10
7.090168954
 20
6.0108496611
 30
0.0
  0
LINE
  5
45F
100
AcDbEntity
  8
0
100
AcDbLine
 62
7
  6
CONTINUOUS
 10
7.090168954
 20
6.0108496611
 11
7.0910861469
 21
6.0113416896
  0
SPLINE
  5
460
100
AcDbEntity
  8
0
100
AcDbSpline
 62
7
  6
CONTINUOUS
 70
0
 71
3
 72
10
 73
6
 74
0
 42
0.0000001
 43
0.0000001
 44
0.0000000001
 40
0.0
 40
0.0
 40
0.0
 40
0.0
 40
0.3029571275
 40
0.5761967995
 40
1.0
 40
1.0
 40
1.0
 40
1.0
 10
7.080921614
 20
6.0016527184
 30
0.0
 10
7.080921614
 20
6.0027060151
 30
0.0
 10
7.0811465341
 20
6.0047196569
 30
0.0
 10
7.0822359252
 20
6.0080253486
 30
0.0
 10
7.0838210801
 20
6.0100687824
 30
0.0
 10
7.0850728761
 20
6.0108459861
 30
0.0
  0
LINE
  5
461
100
AcDbEntity
  8
0
100
AcDbLine
 62
7
  6
CONTINUOUS
 10
7.0850728761
 20
6.0108459861
 11
7.0860741642
 21
6.0113390263
  0
SPLINE
  5
462
100
AcDbEntity
  8
0
100
AcDbSpline
 62
7
  6
CONTINUOUS
 70
0
 71
3
 72
11
 73
7
 74
0
 42
0.0000001
 43
0.0000001
 44
0.0000000001
 40
0.0
 40
0.0
 40
0.0
 40
0.0
 40
0.2967389854
 40
0.5664813598
 40
0.7989895975
 40
1.0
 40
1.0
 40
1.0
 40
1.0
 10
7.0762434021
 20
6.0016527184
 30
0.0
 10
7.0762434021
 20
6.002708025
 30
0.0
 10
7.0764855977
 20
6.004729536
 30
0.0
 10
7.077461762
 20
6.0074276574
 30
0.0
 10
7.0789073826
 20
6.0095038897
 30
0.0
 10
7.0801224836
 20
6.0104946595
 30
0.0
 10
7.0807429692
 20
6.0108496611
 30
0.0
  0
LINE
  5
463
100
AcDbEntity
  8
0
100
AcDbLine
 62
7
  6
CONTINUOUS
 10
7.0807429692
 20
6.0108496611
 11
7.0818280966
 21
6.0113416896
  0
SPLINE
  5
464
100
AcDbEntity
  8
0
100
AcDbSpline
 62
7
  6
CONTINUOUS
 70
0
 71
3
 72
11
 73
7
 74
0
 42
0.0000001
 43
0.0000001
 44
0.0000000001
 40
0.0
 40
0.0
 40
0.0
 40
0.0
 40
0.2918541084
 40
0.559329007
 40
0.7935235777
 40
1.0
 40
1.0
 40
1.0
 40
1.0
 10
7.0723354632
 20
6.0016527184
 30
0.0
 10
7.0723354632
 20
6.0027091638
 30
0.0
 10
7.0725977556
 20
6.004741775
 30
0.0
 10
7.0736532014
 20
6.0074468259
 30
0.0
 10
7.0752120304
 20
6.0095211982
 30
0.0
 10
7.0765056243
 20
6.0104981027
 30
0.0
 10
7.077165177
 20
6.0108496611
 30
0.0
  0
LINE
  5
465
100
AcDbEntity
  8
0
100
AcDbLine
 62
7
  6
CONTINUOUS
 10
7.077165177
 20
6.0108496611
 11
7.0783299236
 21
6.0113416896
  0
SPLINE
  5
466
100
AcDbEntity
  8
0
100
AcDbSpline
 62
7
  6
CONTINUOUS
 70
0
 71
3
 72
9
 73
5
 74
0
 42
0.0000001
 43
0.0000001
 44
0.0000000001
 40
0.0
 40
0.0
 40
0.0
 40
0.0
 40
0.5043319003
 40
1.0
 40
1.0
 40
1.0
 40
1.0
 10
3.9618106668
 20
5.9443018633
 30
0.0
 10
3.9964432425
 20
5.9422148134
 30
0.0
 10
4.0651746746
 20
5.9390628339
 30
0.0
 10
4.1339539669
 20
5.9374217516
 30
0.0
 10
4.1680492401
 20
5.9368925487
 30
0.0
  0
SPLINE
  5
467
100
AcDbEntity
  8
0
100
AcDbSpline
 62
7
  6
CONTINUOUS
 70
0
 71
3
 72
9
 73
5
 74
0
 42
0.0000001
 43
0.0000001
 44
0.0000000001
 40
0.0
 40
0.0
 40
0.0
 40
0.0
 40
0.4805906691
 40
1.0
 40
1.0
 40
1.0
 40
1.0
 10
7.6410006055
 20
6.0113416896
 30
0.0
 10
7.6416243125
 20
6.0111556841
 30
0.0
 10
7.642876092
 20
6.0105972026
 30
0.0
 10
7.6439464911
 20
6.0097419263
 30
0.0
 10
7.6444414028
 20
6.0092420597
 30
0.0
  0
LINE
  5
468
100
AcDbEntity
  8
0
100
AcDbLine
 62
7
  6
CONTINUOUS
 10
7.6382698107
 20
6.0113416896
 11
7.6394356537
 21
6.0108490208
  0
SPLINE
  5
469
100
AcDbEntity
  8
0
100
AcDbSpline
 62
7
  6
CONTINUOUS
 70
0
 71
3
 72
9
 73
5
 74
0
 42
0.0000001
 43
0.0000001
 44
0.0000000001
 40
0.0
 40
0.0
 40
0.0
 40
0.0
 40
0.4439141196
 40
1.0
 40
1.0
 40
1.0
 40
1.0
 10
7.6394356537
 20
6.0108490208
 30
0.0
 10
7.6406532121
 20
6.0101996623
 30
0.0
 10
7.6429814067
 20
6.007919151
 30
0.0
 10
7.6439678441
 20
6.0048414004
 30
0.0
 10
7.6441745923
 20
6.0031252291
 30
0.0
  0
SPLINE
  5
46A
100
AcDbEntity
  8
0
100
AcDbSpline
 62
7
  6
CONTINUOUS
 70
0
 71
3
 72
9
 73
5
 74
0
 42
0.0000001
 43
0.0000001
 44
0.0000000001
 40
0.0
 40
0.0
 40
0.0
 40
0.0
 40
0.452278758
 40
1.0
 40
1.0
 40
1.0
 40
1.0
 10
7.6347716377
 20
6.0113416896
 30
0.0
 10
7.6356576956
 20
6.0110394448
 30
0.0
 10
7.6374637043
 20
6.0098902776
 30
0.0
 10
7.6386679981
 20
6.0081417051
 30
0.0
 10
7.639159986
 20
6.0071202669
 30
0.0
  0
LINE
  5
46B
100
AcDbEntity
  8
0
100
AcDbLine
 62
7
  6
CONTINUOUS
 10
7.639159986
 20
6.0071202669
 11
7.6396796043
 21
6.005839948
  0
LINE
  5
46C
100
AcDbEntity
  8
0
100
AcDbLine
 62
7
  6
CONTINUOUS
 10
7.6396796043
 20
6.005839948
 11
7.6402727836
 21
6.0031252291
  0
SPLINE
  5
46D
100
AcDbEntity
  8
0
100
AcDbSpline
 62
7
  6
CONTINUOUS
 70
0
 71
3
 72
9
 73
5
 74
0
 42
0.0000001
 43
0.0000001
 44
0.0000000001
 40
0.0
 40
0.0
 40
0.0
 40
0.0
 40
0.4588581202
 40
1.0
 40
1.0
 40
1.0
 40
1.0
 10
7.6305255701
 20
6.0113390263
 30
0.0
 10
7.6311588806
 20
6.0111041514
 30
0.0
 10
7.6324432236
 20
6.0103172551
 30
0.0
 10
7.6334003524
 20
6.0091676078
 30
0.0
 10
7.6338317045
 20
6.0084979163
 30
0.0
  0
SPLINE
  5
46E
100
AcDbEntity
  8
0
100
AcDbSpline
 62
7
  6
CONTINUOUS
 70
0
 71
3
 72
9
 73
5
 74
0
 42
0.0000001
 43
0.0000001
 44
0.0000000001
 40
0.0
 40
0.0
 40
0.0
 40
0.0
 40
0.223217422
 40
1.0
 40
1.0
 40
1.0
 40
1.0
 10
7.6338317045
 20
6.0084979163
 30
0.0
 10
7.6340608379
 20
6.0081421773
 30
0.0
 10
7.634980559
 20
6.0064798545
 30
0.0
 10
7.6354493238
 20
6.0045886531
 30
0.0
 10
7.6356010662
 20
6.0031239717
 30
0.0
  0
LINE
  5
46F
100
AcDbEntity
  8
0
100
AcDbLine
 62
7
  6
CONTINUOUS
 10
7.6255135873
 20
6.0113416896
 11
7.6264316437
 21
6.0108490208
  0
SPLINE
  5
470
100
AcDbEntity
  8
0
100
AcDbSpline
 62
7
  6
CONTINUOUS
 70
0
 71
3
 72
10
 73
6
 74
0
 42
0.0000001
 43
0.0000001
 44
0.0000000001
 40
0.0
 40
0.0
 40
0.0
 40
0.0
 40
0.4203265926
 40
0.6908819685
 40
1.0
 40
1.0
 40
1.0
 40
1.0
 10
7.6264316437
 20
6.0108490208
 30
0.0
 10
7.6274521295
 20
6.0101578706
 30
0.0
 10
7.6287429435
 20
6.0084588772
 30
0.0
 10
7.6297789789
 20
6.005715385
 30
0.0
 10
7.630077771
 20
6.0040275942
 30
0.0
 10
7.6301633747
 20
6.0031252291
 30
0.0
  0
SPLINE
  5
471
100
AcDbEntity
  8
0
100
AcDbSpline
 62
7
  6
CONTINUOUS
 70
0
 71
3
 72
11
 73
7
 74
0
 42
0.0000001
 43
0.0000001
 44
0.0000000001
 40
0.0
 40
0.0
 40
0.0
 40
0.0
 40
0.3948099861
 40
0.5257973284
 40
0.6709725148
 40
1.0
 40
1.0
 40
1.0
 40
1.0
 10
7.6197790856
 20
6.0113416896
 30
0.0
 10
7.620927468
 20
6.0108291438
 30
0.0
 10
7.6221034918
 20
6.0094200596
 30
0.0
 10
7.6230122441
 20
6.0075002429
 30
0.0
 10
7.6236398789
 20
6.0056698166
 30
0.0
 10
7.623893913
 20
6.0041694315
 30
0.0
 10
7.6239834837
 20
6.0031252291
 30
0.0
  0
SPLINE
  5
472
100
AcDbEntity
  8
0
100
AcDbSpline
 62
7
  6
CONTINUOUS
 70
0
 71
3
 72
11
 73
7
 74
0
 42
0.0000001
 43
0.0000001
 44
0.0000000001
 40
0.0
 40
0.0
 40
0.0
 40
0.0
 40
0.1693050778
 40
0.3872440183
 40
0.6648433863
 40
1.0
 40
1.0
 40
1.0
 40
1.0
 10
7.6133278875
 20
6.0113416896
 30
0.0
 10
7.6137997469
 20
6.011105412
 30
0.0
 10
7.6147471084
 20
6.0103041911
 30
0.0
 10
7.6158519213
 20
6.0085277829
 30
0.0
 10
7.6167100271
 20
6.0060663479
 30
0.0
 10
7.6169957334
 20
6.0041668457
 30
0.0
 10
7.6170753723
 20
6.0031252291
 30
0.0
  0
SPLINE
  5
473
100
AcDbEntity
  8
0
100
AcDbSpline
 62
7
  6
CONTINUOUS
 70
0
 71
3
 72
12
 73
8
 74
0
 42
0.0000001
 43
0.0000001
 44
0.0000000001
 40
0.0
 40
0.0
 40
0.0
 40
0.0
 40
0.1606486872
 40
0.2607873551
 40
0.3765129679
 40
0.6572915976
 40
1.0
 40
1.0
 40
1.0
 40
1.0
 10
7.6061776754
 20
6.0113416896
 30
0.0
 10
7.6066014896
 20
6.0110992454
 30
0.0
 10
7.6071855775
 20
6.0105266771
 30
0.0
 10
7.6078153405
 20
6.009572057
 30
0.0
 10
7.6084862351
 20
6.00821477
 30
0.0
 10
7.6091399362
 20
6.006050765
 30
0.0
 10
7.6093884237
 20
6.0041644834
 30
0.0
 10
7.6094579764
 20
6.0031252139
 30
0.0
  0
SPLINE
  5
474
100
AcDbEntity
  8
0
100
AcDbSpline
 62
7
  6
CONTINUOUS
 70
0
 71
3
 72
12
 73
8
 74
0
 42
0.0000001
 43
0.0000001
 44
0.0000000001
 40
0.0
 40
0.0
 40
0.0
 40
0.0
 40
0.1519377903
 40
0.2501714776
 40
0.3655171744
 40
0.649689429
 40
1.0
 40
1.0
 40
1.0
 40
1.0
 10
7.5983480474
 20
6.0113416896
 30
0.0
 10
7.5987225206
 20
6.011091094
 30
0.0
 10
7.599220184
 20
6.0105083591
 30
0.0
 10
7.5997512298
 20
6.0095655468
 30
0.0
 10
7.6003262346
 20
6.0082014294
 30
0.0
 10
7.6008820694
 20
6.0060377814
 30
0.0
 10
7.6010928336
 20
6.0041624141
 30
0.0
 10
7.6011521713
 20
6.0031252291
 30
0.0
  0
SPLINE
  5
475
100
AcDbEntity
  8
0
100
AcDbSpline
 62
7
  6
CONTINUOUS
 70
0
 71
3
 72
11
 73
7
 74
0
 42
0.0000001
 43
0.0000001
 44
0.0000000001
 40
0.0
 40
0.0
 40
0.0
 40
0.0
 40
0.1563844143
 40
0.3704476985
 40
0.6509487502
 40
1.0
 40
1.0
 40
1.0
 40
1.0
 10
7.5898688814
 20
6.0113390263
 30
0.0
 10
7.5901105339
 20
6.0111427148
 30
0.0
 10
7.5905739383
 20
6.0105498026
 30
0.0
 10
7.5911240104
 20
6.0093723178
 30
0.0
 10
7.591610749
 20
6.0077595223
 30
0.0
 10
7.591838742
 20
6.006524847
 30
0.0
 10
7.591936171
 20
6.005836792
 30
0.0
  0
SPLINE
  5
476
100
AcDbEntity
  8
0
100
AcDbSpline
 62
7
  6
CONTINUOUS
 70
0
 71
3
 72
10
 73
6
 74
0
 42
0.0000001
 43
0.0000001
 44
0.0000000001
 40
0.0
 40
0.0
 40
0.0
 40
0.0
 40
0.1680733062
 40
0.3872731564
 40
1.0
 40
1.0
 40
1.0
 40
1.0
 10
7.5807381891
 20
6.0113416896
 30
0.0
 10
7.5808673863
 20
6.0112092121
 30
0.0
 10
7.5811160901
 20
6.0108572482
 30
0.0
 10
7.5815894665
 20
6.0098609218
 30
0.0
 10
7.5818285499
 20
6.0089688738
 30
0.0
 10
7.5819736634
 20
6.0083100619
 30
0.0
  0
SPLINE
  5
477
100
AcDbEntity
  8
0
100
AcDbSpline
 62
7
  6
CONTINUOUS
 70
0
 71
3
 72
9
 73
5
 74
0
 42
0.0000001
 43
0.0000001
 44
0.0000000001
 40
0.0
 40
0.0
 40
0.0
 40
0.0
 40
0.4504560639
 40
1.0
 40
1.0
 40
1.0
 40
1.0
 10
7.5819736634
 20
6.0083100619
 30
0.0
 10
7.5821423864
 20
6.007544063
 30
0.0
 10
7.5824098894
 20
6.005820045
 30
0.0
 10
7.5825325269
 20
6.0040814612
 30
0.0
 10
7.5825682296
 20
6.0031252291
 30
0.0
  0
SPLINE
  5
478
100
AcDbEntity
  8
0
100
AcDbSpline
 62
7
  6
CONTINUOUS
 70
0
 71
3
 72
12
 73
8
 74
0
 42
0.0000001
 43
0.0000001
 44
0.0000000001
 40
0.0
 40
0.0
 40
0.0
 40
0.0
 40
0.0550841996
 40
0.1287199464
 40
0.3370702747
 40
0.6304043448
 40
1.0
 40
1.0
 40
1.0
 40
1.0
 10
7.5710062263
 20
6.0113416896
 30
0.0
 10
7.5710954803
 20
6.0112162136
 30
0.0
 10
7.5712632903
 20
6.010894874
 30
0.0
 10
7.5715838917
 20
6.0100078675
 30
0.0
 10
7.5719189085
 20
6.008428636
 30
0.0
 10
7.572215336
 20
6.006010501
 30
0.0
 10
7.5723129035
 20
6.0041580127
 30
0.0
 10
7.5723410292
 20
6.0031252291
 30
0.0
  0
SPLINE
  5
479
100
AcDbEntity
  8
0
100
AcDbSpline
 62
7
  6
CONTINUOUS
 70
0
 71
3
 72
13
 73
9
 74
0
 42
0.0000001
 43
0.0000001
 44
0.0000000001
 40
0.0
 40
0.0
 40
0.0
 40
0.0
 40
0.0497019047
 40
0.1205723439
 40
0.2138148347
 40
0.3302070144
 40
0.6315354807
 40
1.0
 40
1.0
 40
1.0
 40
1.0
 10
7.5606912501
 20
6.0113416896
 30
0.0
 10
7.5607570271
 20
6.0111940283
 30
0.0
 10
7.5608736959
 20
6.0108176702
 30
0.0
 10
7.5610187666
 20
6.0101375841
 30
0.0
 10
7.5611561779
 20
6.0092350955
 30
0.0
 10
7.5613402589
 20
6.0075832663
 30
0.0
 10
7.5614959889
 20
6.0050296071
 30
0.0
 10
7.5615398522
 20
6.0028511034
 30
0.0
 10
7.5615398522
 20
6.0016527184
 30
0.0
  0
SPLINE
  5
47A
100
AcDbEntity
  8
0
100
AcDbSpline
 62
7
  6
CONTINUOUS
 70
0
 71
3
 72
12
 73
8
 74
0
 42
0.0000001
 43
0.0000001
 44
0.0000000001
 40
0.0
 40
0.0
 40
0.0
 40
0.0
 40
0.0477723471
 40
0.1176278487
 40
0.326895728
 40
0.6294319806
 40
1.0
 40
1.0
 40
1.0
 40
1.0
 10
7.5498215331
 20
6.0113416896
 30
0.0
 10
7.5498486572
 20
6.0111896265
 30
0.0
 10
7.5498950686
 20
6.0108117754
 30
0.0
 10
7.5499846202
 20
6.0097586563
 30
0.0
 10
7.5500728
 20
6.0078794122
 30
0.0
 10
7.550144369
 20
6.0050273599
 30
0.0
 10
7.5501613362
 20
6.0028508836
 30
0.0
 10
7.5501613362
 20
6.0016527184
 30
0.0
  0
SPLINE
  5
47B
100
AcDbEntity
  8
0
100
AcDbSpline
 62
7
  6
CONTINUOUS
 70
0
 71
3
 72
24
 73
20
 74
0
 42
0.0000001
 43
0.0000001
 44
0.0000000001
 40
0.0
 40
0.0
 40
0.0
 40
0.0
 40
0.01062228
 40
0.0253567398
 40
0.0666624904
 40
0.1225297189
 40
0.1910002154
 40
0.2694338266
 40
0.3550862314
 40
0.5364429261
 40
0.6261467512
 40
0.711406829
 40
0.7896322446
 40
0.8582706844
 40
0.9151484042
 40
0.9584298943
 40
0.9865406431
 40
0.994876819
 40
1.0
 40
1.0
 40
1.0
 40
1.0
 10
7.5148351758
 20
5.7385880516
 30
0.0
 10
7.5147625235
 20
5.7386082095
 30
0.0
 10
7.5145831239
 20
5.7386328261
 30
0.0
 10
7.5141103395
 20
5.7386506929
 30
0.0
 10
7.5133157491
 20
5.7386055053
 30
0.0
 10
7.5121470198
 20
5.7384784485
 30
0.0
 10
7.5107225155
 20
5.7382700786
 30
0.0
 10
7.5090954793
 20
5.7379912299
 30
0.0
 10
7.5066876508
 20
5.7375273888
 30
0.0
 10
7.5042141841
 20
5.7369838382
 30
0.0
 10
7.5017573775
 20
5.7363827805
 30
0.0
 10
7.5000193733
 20
5.7359253323
 30
0.0
 10
7.4984340516
 20
5.735475576
 30
0.0
 10
7.4970529337
 20
5.735047688
 30
0.0
 10
7.4959189864
 20
5.7346559965
 30
0.0
 10
7.4950766129
 20
5.7343173339
 30
0.0
 10
7.4945651319
 20
5.7340591193
 30
0.0
 10
7.4943366227
 20
5.7338764489
 30
0.0
 10
7.4942832284
 20
5.7337866943
 30
0.0
 10
7.4942838401
 20
5.7337503351
 30
0.0
  0
SPLINE
  5
47C
100
AcDbEntity
  8
0
100
AcDbSpline
 62
7
  6
CONTINUOUS
 70
0
 71
3
 72
20
 73
16
 74
0
 42
0.0000001
 43
0.0000001
 44
0.0000000001
 40
0.0
 40
0.0
 40
0.0
 40
0.0
 40
0.0519305601
 40
0.1144477737
 40
0.2632784389
 40
0.4300223353
 40
0.5976933231
 40
0.7502879666
 40
0.8163334661
 40
0.8736753129
 40
0.9211241385
 40
0.9577279648
 40
0.9719160898
 40
0.9834737337
 40
1.0
 40
1.0
 40
1.0
 40
1.0
 10
7.4789944918
 20
5.7385880516
 30
0.0
 10
7.4786511624
 20
5.7386200664
 30
0.0
 10
7.4778909345
 20
5.7386510539
 30
0.0
 10
7.4761425471
 20
5.7386213768
 30
0.0
 10
7.4736383081
 20
5.7384089359
 30
0.0
 10
7.4704610319
 20
5.7379512487
 30
0.0
 10
7.467287724
 20
5.737321979
 30
0.0
 10
7.4648000624
 20
5.736688115
 30
0.0
 10
7.4630532682
 20
5.7361325535
 30
0.0
 10
7.4619890749
 20
5.7357381306
 30
0.0
 10
7.4611309356
 20
5.7353552312
 30
0.0
 10
7.4605615297
 20
5.7350336888
 30
0.0
 10
7.4602334777
 20
5.7347770221
 30
0.0
 10
7.4600388816
 20
5.7345792645
 30
0.0
 10
7.4599434441
 20
5.734395792
 30
0.0
 10
7.4599497914
 20
5.7342862413
 30
0.0
  0
SPLINE
  5
47D
100
AcDbEntity
  8
0
100
AcDbSpline
 62
7
  6
CONTINUOUS
 70
0
 71
3
 72
19
 73
15
 74
0
 42
0.0000001
 43
0.0000001
 44
0.0000000001
 40
0.0
 40
0.0
 40
0.0
 40
0.0
 40
0.149657332
 40
0.3148517414
 40
0.4817058234
 40
0.6383923303
 40
0.7095625002
 40
0.7745162737
 40
0.8322795309
 40
0.8819619128
 40
0.9231033043
 40
0.9557652218
 40
0.980629373
 40
1.0
 40
1.0
 40
1.0
 40
1.0
 10
7.4247791452
 20
5.7385880516
 30
0.0
 10
7.4239272675
 20
5.7386405998
 30
0.0
 10
7.4221295587
 20
5.7386620366
 30
0.0
 10
7.4193846566
 20
5.7385178418
 30
0.0
 10
7.4166139701
 20
5.73819923
 30
0.0
 10
7.4143955332
 20
5.7378061909
 30
0.0
 10
7.4127706581
 20
5.7374191331
 30
0.0
 10
7.4117068268
 20
5.7371161262
 30
0.0
 10
7.4107761052
 20
5.7367973437
 30
0.0
 10
7.4099946287
 20
5.7364675717
 30
0.0
 10
7.409373158
 20
5.7361327378
 30
0.0
 10
7.408918774
 20
5.7357969823
 30
0.0
 10
7.4086260429
 20
5.7354620159
 30
0.0
 10
7.4085535452
 20
5.7352051681
 30
0.0
 10
7.4085607273
 20
5.735094931
 30
0.0
  0
SPLINE
  5
47E
100
AcDbEntity
  8
0
100
AcDbSpline
 62
7
  6
CONTINUOUS
 70
0
 71
3
 72
16
 73
12
 74
0
 42
0.0000001
 43
0.0000001
 44
0.0000000001
 40
0.0
 40
0.0
 40
0.0
 40
0.0
 40
0.1764750343
 40
0.3535441773
 40
0.5205160675
 40
0.6695051782
 40
0.7353270073
 40
0.7944167324
 40
0.8464076167
 40
0.8911336891
 40
1.0
 40
1.0
 40
1.0
 40
1.0
 10
7.3604429312
 20
5.7385880516
 30
0.0
 10
7.3596679341
 20
5.7386283518
 30
0.0
 10
7.3581126036
 20
5.7386612002
 30
0.0
 10
7.3558237586
 20
5.7385884785
 30
0.0
 10
7.3536629653
 20
5.7383936662
 30
0.0
 10
7.3520032381
 20
5.7381324324
 30
0.0
 10
7.3508273147
 20
5.7378649595
 30
0.0
 10
7.3500810496
 20
5.7376531946
 30
0.0
 10
7.3494281321
 20
5.7374174682
 30
0.0
 10
7.3486381725
 20
5.7370610275
 30
0.0
 10
7.3479092866
 20
5.7365380918
 30
0.0
 10
7.3479379706
 20
5.7360602152
 30
0.0
  0
SPLINE
  5
47F
100
AcDbEntity
  8
0
100
AcDbSpline
 62
7
  6
CONTINUOUS
 70
0
 71
3
 72
17
 73
13
 74
0
 42
0.0000001
 43
0.0000001
 44
0.0000000001
 40
0.0
 40
0.0
 40
0.0
 40
0.0
 40
0.1946159787
 40
0.3781219324
 40
0.5438117024
 40
0.6859960393
 40
0.8020292772
 40
0.8905459254
 40
0.924788402
 40
0.9532791148
 40
0.9775483159
 40
1.0
 40
1.0
 40
1.0
 40
1.0
 10
7.2957804552
 20
5.7385880516
 30
0.0
 10
7.2951986659
 20
5.7386181615
 30
0.0
 10
7.2940668964
 20
5.7386526075
 30
0.0
 10
7.2924385878
 20
5.7386294855
 30
0.0
 10
7.2909701634
 20
5.7385328715
 30
0.0
 10
7.2897108229
 20
5.7383636055
 30
0.0
 10
7.2886985169
 20
5.7381308436
 30
0.0
 10
7.2880240751
 20
5.7378765733
 30
0.0
 10
7.287642324
 20
5.7376295321
 30
0.0
 10
7.2874539146
 20
5.7374463356
 30
0.0
 10
7.2873402841
 20
5.7372473846
 30
0.0
 10
7.2873200017
 20
5.7371048778
 30
0.0
 10
7.2873234351
 20
5.7370377582
 30
0.0
  0
SPLINE
  5
480
100
AcDbEntity
  8
0
100
AcDbSpline
 62
7
  6
CONTINUOUS
 70
0
 71
3
 72
15
 73
11
 74
0
 42
0.0000001
 43
0.0000001
 44
0.0000000001
 40
0.0
 40
0.0
 40
0.0
 40
0.0
 40
0.2090294078
 40
0.397881997
 40
0.5634413732
 40
0.7027576102
 40
0.8136187396
 40
0.8965980396
 40
0.9552265075
 40
1.0
 40
1.0
 40
1.0
 40
1.0
 10
7.2406359928
 20
5.7385880516
 30
0.0
 10
7.2402908554
 20
5.7386090044
 30
0.0
 10
7.2396331906
 20
5.7386386558
 30
0.0
 10
7.2387009729
 20
5.7386458547
 30
0.0
 10
7.2378843661
 20
5.7386146399
 30
0.0
 10
7.237199815
 20
5.7385462437
 30
0.0
 10
7.2366566674
 20
5.738441492
 30
0.0
 10
7.2362629194
 20
5.7383012392
 30
0.0
 10
7.2359978927
 20
5.7381255475
 30
0.0
 10
7.2359319058
 20
5.7379499819
 30
0.0
 10
7.2359357338
 20
5.7378760173
 30
0.0
  0
SPLINE
  5
481
100
AcDbEntity
  8
0
100
AcDbSpline
 62
7
  6
CONTINUOUS
 70
0
 71
3
 72
13
 73
9
 74
0
 42
0.0000001
 43
0.0000001
 44
0.0000000001
 40
0.0
 40
0.0
 40
0.0
 40
0.0
 40
0.4152273383
 40
0.718839864
 40
0.8274912465
 40
0.9075125627
 40
0.9613856451
 40
1.0
 40
1.0
 40
1.0
 40
1.0
 10
7.2034047887
 20
5.7385880516
 30
0.0
 10
7.2031458177
 20
5.7386113523
 30
0.0
 10
7.2026965242
 20
5.7386426632
 30
0.0
 10
7.2021777979
 20
5.7386449056
 30
0.0
 10
7.2018701453
 20
5.7386107464
 30
0.0
 10
7.2017235206
 20
5.7385737168
 30
0.0
 10
7.2016225234
 20
5.7385250528
 30
0.0
 10
7.2015965141
 20
5.7384654058
 30
0.0
 10
7.2015981037
 20
5.7384412776
 30
0.0
  0
LINE
  5
482
100
AcDbEntity
  8
0
100
AcDbLine
 62
7
  6
CONTINUOUS
 10
7.4177738311
 20
5.7233927618
 11
7.4175184466
 21
5.72312386
  0
SPLINE
  5
483
100
AcDbEntity
  8
0
100
AcDbSpline
 62
7
  6
CONTINUOUS
 70
0
 71
3
 72
21
 73
17
 74
0
 42
0.0000001
 43
0.0000001
 44
0.0000000001
 40
0.0
 40
0.0
 40
0.0
 40
0.0
 40
0.0505076149
 40
0.1117644158
 40
0.2595417274
 40
0.4278920085
 40
0.5993166066
 40
0.6805074759
 40
0.755617752
 40
0.8227210391
 40
0.8803764819
 40
0.9272332609
 40
0.9623391143
 40
0.9754968692
 40
0.9858735161
 40
1.0
 40
1.0
 40
1.0
 40
1.0
 10
7.3667274734
 20
5.7248957466
 30
0.0
 10
7.3664243191
 20
5.7249717483
 30
0.0
 10
7.36574557
 20
5.725107971
 30
0.0
 10
7.3641561733
 20
5.7253409172
 30
0.0
 10
7.3618270211
 20
5.7255362521
 30
0.0
 10
7.3588106722
 20
5.725629482
 30
0.0
 10
7.3562049121
 20
5.7255890304
 30
0.0
 10
7.3541796914
 20
5.7254803635
 30
0.0
 10
7.352801786
 20
5.7253657567
 30
0.0
 10
7.3515734603
 20
5.7252190279
 30
0.0
 10
7.3505249749
 20
5.7250474546
 30
0.0
 10
7.3496820646
 20
5.7248547958
 30
0.0
 10
7.3491210625
 20
5.7246724514
 30
0.0
 10
7.3487957172
 20
5.7245055396
 30
0.0
 10
7.3486070313
 20
5.7243755676
 30
0.0
 10
7.3485087253
 20
5.7242296959
 30
0.0
 10
7.3485139717
 20
5.7241424402
 30
0.0
  0
SPLINE
  5
484
100
AcDbEntity
  8
0
100
AcDbSpline
 62
7
  6
CONTINUOUS
 70
0
 71
3
 72
17
 73
13
 74
0
 42
0.0000001
 43
0.0000001
 44
0.0000000001
 40
0.0
 40
0.0
 40
0.0
 40
0.0
 40
0.3599020614
 40
0.5321346342
 40
0.6866200809
 40
0.7548307219
 40
0.8157932861
 40
0.8688101108
 40
0.9132879895
 40
0.9486816577
 40
0.9745756179
 40
1.0
 40
1.0
 40
1.0
 40
1.0
 10
7.2917249142
 20
5.7248957466
 30
0.0
 10
7.290256467
 20
5.7250893523
 30
0.0
 10
7.288077904
 20
5.7253231452
 30
0.0
 10
7.285259083
 20
5.7255241575
 30
0.0
 10
7.2836350303
 20
5.7255936151
 30
0.0
 10
7.2824674803
 20
5.7256099719
 30
0.0
 10
7.2817181555
 20
5.7256032498
 30
0.0
 10
7.2810648177
 20
5.7255774063
 30
0.0
 10
7.2805239152
 20
5.725536997
 30
0.0
 10
7.2800802331
 20
5.7254730894
 30
0.0
 10
7.2797633196
 20
5.7254060275
 30
0.0
 10
7.2794985431
 20
5.7252801529
 30
0.0
 10
7.2795067463
 20
5.7251758424
 30
0.0
  0
LINE
  5
485
100
AcDbEntity
  8
0
100
AcDbLine
 62
7
  6
CONTINUOUS
 10
7.5271510179
 20
5.7386648359
 11
7.5267584982
 21
5.7385698331
  0
LINE
  5
486
100
AcDbEntity
  8
0
100
AcDbLine
 62
7
  6
CONTINUOUS
 10
7.5267584982
 20
5.7385698331
 11
7.5243719911
 21
5.7379789817
  0
LINE
  5
487
100
AcDbEntity
  8
0
100
AcDbLine
 62
7
  6
CONTINUOUS
 10
7.5089019133
 20
5.7341885133
 11
7.5067628213
 21
5.7336673584
  0
LINE
  5
488
100
AcDbEntity
  8
0
100
AcDbLine
 62
7
  6
CONTINUOUS
 10
7.5067628213
 20
5.7336673584
 11
7.505999876
 21
5.7334854421
  0
LINE
  5
489
100
AcDbEntity
  8
0
100
AcDbLine
 62
7
  6
CONTINUOUS
 10
7.2099867543
 20
5.733632222
 11
7.2076247842
 21
5.7342056106
  0
LINE
  5
48A
100
AcDbEntity
  8
0
100
AcDbLine
 62
7
  6
CONTINUOUS
 10
7.192606388
 20
5.7378867702
 11
7.1899510609
 21
5.7385412804
  0
LINE
  5
48B
100
AcDbEntity
  8
0
100
AcDbLine
 62
7
  6
CONTINUOUS
 10
7.1899510609
 20
5.7385412804
 11
7.1891487742
 21
5.7387436847
  0
SPLINE
  5
48C
100
AcDbEntity
  8
0
100
AcDbSpline
 62
7
  6
CONTINUOUS
 70
0
 71
3
 72
20
 73
16
 74
0
 42
0.0000001
 43
0.0000001
 44
0.0000000001
 40
0.0
 40
0.0
 40
0.0
 40
0.0
 40
0.0047370831
 40
0.0118093406
 40
0.0342740371
 40
0.0681108185
 40
0.1128469196
 40
0.1673965736
 40
0.2305345245
 40
0.3010073725
 40
0.3773714545
 40
0.5412045946
 40
0.7087640269
 40
0.8663541401
 40
1.0
 40
1.0
 40
1.0
 40
1.0
 10
7.2015981037
 20
5.7384412776
 30
0.0
 10
7.2016000351
 20
5.7384119636
 30
0.0
 10
7.2016370198
 20
5.7383434979
 30
0.0
 10
7.2017936479
 20
5.7382002023
 30
0.0
 10
7.2021388179
 20
5.7380037069
 30
0.0
 10
7.2027091285
 20
5.7377469089
 30
0.0
 10
7.2034815536
 20
5.7374527629
 30
0.0
 10
7.204434813
 20
5.737127651
 30
0.0
 10
7.205548891
 20
5.7367799078
 30
0.0
 10
7.2067997203
 20
5.7364176405
 30
0.0
 10
7.2086593696
 20
5.7359136314
 30
0.0
 10
7.2111144401
 20
5.7353062553
 30
0.0
 10
7.2140763175
 20
5.7346540173
 30
0.0
 10
7.2168707432
 20
5.7341169955
 30
0.0
 10
7.218655483
 20
5.7338352095
 30
0.0
 10
7.2194776215
 20
5.7337301806
 30
0.0
  0
LINE
  5
48D
100
AcDbEntity
  8
0
100
AcDbLine
 62
7
  6
CONTINUOUS
 10
7.2194776215
 20
5.7337301806
 11
7.2206455235
 21
5.7336042454
  0
SPLINE
  5
48E
100
AcDbEntity
  8
0
100
AcDbSpline
 62
7
  6
CONTINUOUS
 70
0
 71
3
 72
13
 73
9
 74
0
 42
0.0000001
 43
0.0000001
 44
0.0000000001
 40
0.0
 40
0.0
 40
0.0
 40
0.0
 40
0.0489929011
 40
0.1195046294
 40
0.2126314132
 40
0.3291013685
 40
0.630901452
 40
1.0
 40
1.0
 40
1.0
 40
1.0
 10
7.1900551301
 20
6.0113390263
 30
0.0
 10
7.1901082816
 20
6.0111892783
 30
0.0
 10
7.1902013312
 20
6.0108116987
 30
0.0
 10
7.1903172048
 20
6.0101319221
 30
0.0
 10
7.1904268722
 20
6.0092296767
 30
0.0
 10
7.1905739312
 20
6.0075774475
 30
0.0
 10
7.1906982672
 20
6.0050258411
 30
0.0
 10
7.1907333914
 20
6.0028498334
 30
0.0
 10
7.1907333914
 20
6.0016527184
 30
0.0
  0
SPLINE
  5
48F
100
AcDbEntity
  8
0
100
AcDbSpline
 62
7
  6
CONTINUOUS
 70
0
 71
3
 72
12
 73
8
 74
0
 42
0.0000001
 43
0.0000001
 44
0.0000000001
 40
0.0
 40
0.0
 40
0.0
 40
0.0
 40
0.2545204905
 40
0.3813618685
 40
0.5068758688
 40
0.754988641
 40
1.0
 40
1.0
 40
1.0
 40
1.0
 10
7.1930995824
 20
6.0016527184
 30
0.0
 10
7.1930995824
 20
6.0028819276
 30
0.0
 10
7.1935498342
 20
6.0047472369
 30
0.0
 10
7.1948145278
 20
6.0068543717
 30
0.0
 10
7.1964421528
 20
6.0086597824
 30
0.0
 10
7.1989641548
 20
6.0103485746
 30
0.0
 10
7.2012514854
 20
6.0111045104
 30
0.0
 10
7.2024107562
 20
6.0113416896
 30
0.0
  0
SPLINE
  5
490
100
AcDbEntity
  8
0
100
AcDbSpline
 62
7
  6
CONTINUOUS
 70
0
 71
3
 72
13
 73
9
 74
0
 42
0.0000001
 43
0.0000001
 44
0.0000000001
 40
0.0
 40
0.0
 40
0.0
 40
0.0
 40
0.1749087458
 40
0.3431810166
 40
0.6308200094
 40
0.7475135532
 40
0.8467078907
 40
1.0
 40
1.0
 40
1.0
 40
1.0
 10
7.2588960629
 20
6.0016527184
 30
0.0
 10
7.2588960629
 20
6.002265668
 30
0.0
 10
7.2588467156
 20
6.0034690138
 30
0.0
 10
7.2585916505
 20
6.0056654703
 30
0.0
 10
7.2581331708
 20
6.0076329361
 30
0.0
 10
7.2574485217
 20
6.0092656427
 30
0.0
 10
7.2568041957
 20
6.0103849771
 30
0.0
 10
7.2561865771
 20
6.0110649791
 30
0.0
 10
7.2557261303
 20
6.0113416896
 30
0.0
  0
SPLINE
  5
491
100
AcDbEntity
  8
0
100
AcDbSpline
 62
7
  6
CONTINUOUS
 70
0
 71
3
 72
13
 73
9
 74
0
 42
0.0000001
 43
0.0000001
 44
0.0000000001
 40
0.0
 40
0.0
 40
0.0
 40
0.0
 40
0.2357631463
 40
0.4793992425
 40
0.6053168746
 40
0.7345969314
 40
0.8671179897
 40
1.0
 40
1.0
 40
1.0
 40
1.0
 10
7.2557261303
 20
6.0113416896
 30
0.0
 10
7.2546595611
 20
6.0111030965
 30
0.0
 10
7.2525426553
 20
6.0103336223
 30
0.0
 10
7.2502471343
 20
6.0086382584
 30
0.0
 10
7.2487712777
 20
6.0068438296
 30
0.0
 10
7.2479041446
 20
6.0052561462
 30
0.0
 10
7.2473485302
 20
6.0035018921
 30
0.0
 10
7.2472102926
 20
6.0022687212
 30
0.0
 10
7.2472102926
 20
6.0016527184
 30
0.0
  0
SPLINE
  5
492
100
AcDbEntity
  8
0
100
AcDbSpline
 62
7
  6
CONTINUOUS
 70
0
 71
3
 72
13
 73
9
 74
0
 42
0.0000001
 43
0.0000001
 44
0.0000000001
 40
0.0
 40
0.0
 40
0.0
 40
0.0
 40
0.349565544
 40
0.6405729956
 40
0.7570029735
 40
0.8544465372
 40
0.9345897716
 40
1.0
 40
1.0
 40
1.0
 40
1.0
 10
7.244565594
 20
6.0016527184
 30
0.0
 10
7.244565594
 20
6.0028534278
 30
0.0
 10
7.2444254145
 20
6.0050553067
 30
0.0
 10
7.2439235947
 20
6.0076193131
 30
0.0
 10
7.2433438338
 20
6.0092567477
 30
0.0
 10
7.2429008554
 20
6.0101675205
 30
0.0
 10
7.2424282562
 20
6.0108595492
 30
0.0
 10
7.24206503
 20
6.0112116419
 30
0.0
 10
7.2418818185
 20
6.0113416896
 30
0.0
  0
SPLINE
  5
493
100
AcDbEntity
  8
0
100
AcDbSpline
 62
7
  6
CONTINUOUS
 70
0
 71
3
 72
13
 73
9
 74
0
 42
0.0000001
 43
0.0000001
 44
0.0000000001
 40
0.0
 40
0.0
 40
0.0
 40
0.0
 40
0.2384787749
 40
0.4833481913
 40
0.6090742187
 40
0.737551296
 40
0.868743457
 40
1.0
 40
1.0
 40
1.0
 40
1.0
 10
7.2418818185
 20
6.0113416896
 30
0.0
 10
7.2407878701
 20
6.0111035538
 30
0.0
 10
7.2386205977
 20
6.0103384671
 30
0.0
 10
7.2362577049
 20
6.0086446953
 30
0.0
 10
7.2347371739
 20
6.0068473647
 30
0.0
 10
7.2338450275
 20
6.0052594338
 30
0.0
 10
7.2332730332
 20
6.0035039938
 30
0.0
 10
7.2331306045
 20
6.0022689182
 30
0.0
 10
7.2331306045
 20
6.0016527184
 30
0.0
  0
SPLINE
  5
494
100
AcDbEntity
  8
0
100
AcDbSpline
 62
7
  6
CONTINUOUS
 70
0
 71
3
 72
13
 73
9
 74
0
 42
0.0000001
 43
0.0000001
 44
0.0000000001
 40
0.0
 40
0.0
 40
0.0
 40
0.0
 40
0.355941245
 40
0.6503415113
 40
0.7666717284
 40
0.8626081785
 40
0.9396081282
 40
1.0
 40
1.0
 40
1.0
 40
1.0
 10
7.2305468628
 20
6.0016527184
 30
0.0
 10
7.2305468628
 20
6.0028525543
 30
0.0
 10
7.230432928
 20
6.0050457269
 30
0.0
 10
7.2300259747
 20
6.0076065326
 30
0.0
 10
7.2295521729
 20
6.0092494278
 30
0.0
 10
7.22919246
 20
6.0101581045
 30
0.0
 10
7.2288099874
 20
6.0108479441
 30
0.0
 10
7.2285102035
 20
6.0112080916
 30
0.0
 10
7.2283566004
 20
6.0113416896
 30
0.0
  0
SPLINE
  5
495
100
AcDbEntity
  8
0
100
AcDbSpline
 62
7
  6
CONTINUOUS
 70
0
 71
3
 72
12
 73
8
 74
0
 42
0.0000001
 43
0.0000001
 44
0.0000000001
 40
0.0
 40
0.0
 40
0.0
 40
0.0
 40
0.2411960075
 40
0.4875086674
 40
0.6132526648
 40
0.7412101798
 40
1.0
 40
1.0
 40
1.0
 40
1.0
 10
7.2283566004
 20
6.0113416896
 30
0.0
 10
7.2272380281
 20
6.0111039366
 30
0.0
 10
7.2250254341
 20
6.0103423441
 30
0.0
 10
7.222602522
 20
6.0086508929
 30
0.0
 10
7.2210412137
 20
6.0068494776
 30
0.0
 10
7.2198228116
 20
6.0047362855
 30
0.0
 10
7.2193939966
 20
6.0028796948
 30
0.0
 10
7.2193939966
 20
6.0016527184
 30
0.0
  0
SPLINE
  5
496
100
AcDbEntity
  8
0
100
AcDbSpline
 62
7
  6
CONTINUOUS
 70
0
 71
3
 72
13
 73
9
 74
0
 42
0.0000001
 43
0.0000001
 44
0.0000000001
 40
0.0
 40
0.0
 40
0.0
 40
0.0
 40
0.3615773846
 40
0.6590578991
 40
0.7753728458
 40
0.8700462665
 40
0.9442701039
 40
1.0
 40
1.0
 40
1.0
 40
1.0
 10
7.2168782937
 20
6.0016527184
 30
0.0
 10
7.2168782937
 20
6.0028518513
 30
0.0
 10
7.2167906064
 20
6.0050380366
 30
0.0
 10
7.2164781947
 20
6.0075957655
 30
0.0
 10
7.2161120671
 20
6.0092429685
 30
0.0
 10
7.2158358556
 20
6.0101492551
 30
0.0
 10
7.2155433761
 20
6.0108356061
 30
0.0
 10
7.2153102319
 20
6.0112034584
 30
0.0
 10
7.2151875478
 20
6.0113416896
 30
0.0
  0
SPLINE
  5
497
100
AcDbEntity
  8
0
100
AcDbSpline
 62
7
  6
CONTINUOUS
 70
0
 71
3
 72
12
 73
8
 74
0
 42
0.0000001
 43
0.0000001
 44
0.0000000001
 40
0.0
 40
0.0
 40
0.0
 40
0.0
 40
0.2432580558
 40
0.490536853
 40
0.6161524767
 40
0.7435099228
 40
1.0
 40
1.0
 40
1.0
 40
1.0
 10
7.2151875478
 20
6.0113416896
 30
0.0
 10
7.2140471871
 20
6.0111042547
 30
0.0
 10
7.211794591
 20
6.0103457401
 30
0.0
 10
7.2093185235
 20
6.0086557647
 30
0.0
 10
7.2077216767
 20
6.0068521763
 30
0.0
 10
7.2064784801
 20
6.004742151
 30
0.0
 10
7.2060381201
 20
6.0028808953
 30
0.0
 10
7.2060381201
 20
6.0016527184
 30
0.0
  0
SPLINE
  5
498
100
AcDbEntity
  8
0
100
AcDbSpline
 62
7
  6
CONTINUOUS
 70
0
 71
3
 72
13
 73
9
 74
0
 42
0.0000001
 43
0.0000001
 44
0.0000000001
 40
0.0
 40
0.0
 40
0.0
 40
0.0
 40
0.3661549244
 40
0.6661956677
 40
0.78255336
 40
0.8762577587
 40
0.9482389362
 40
1.0
 40
1.0
 40
1.0
 40
1.0
 10
7.2035973514
 20
6.0016527184
 30
0.0
 10
7.2035973514
 20
6.0028513226
 30
0.0
 10
7.2035359219
 20
6.0050323051
 30
0.0
 10
7.2033176623
 20
6.0075873975
 30
0.0
 10
7.20306047
 20
6.0092377787
 30
0.0
 10
7.2028676645
 20
6.0101416788
 30
0.0
 10
7.2026640792
 20
6.0108240211
 30
0.0
 10
7.2025003397
 20
6.0111978687
 30
0.0
 10
7.2024107562
 20
6.0113416896
 30
0.0
  0
SPLINE
  5
499
100
AcDbEntity
  8
0
100
AcDbSpline
 62
7
  6
CONTINUOUS
 70
0
 71
3
 72
12
 73
8
 74
0
 42
0.0000001
 43
0.0000001
 44
0.0000000001
 40
0.0
 40
0.0
 40
0.0
 40
0.0
 40
0.2464546014
 40
0.495251726
 40
0.6206789437
 40
0.74710795
 40
1.0
 40
1.0
 40
1.0
 40
1.0
 10
7.1900551301
 20
6.0113390263
 30
0.0
 10
7.1888812279
 20
6.0111012561
 30
0.0
 10
7.1865674975
 20
6.0103461585
 30
0.0
 10
7.184010416
 20
6.0086584167
 30
0.0
 10
7.1823593712
 20
6.0068522524
 30
0.0
 10
7.1810788608
 20
6.0047487795
 30
0.0
 10
7.180620679
 20
6.0028817435
 30
0.0
 10
7.180620679
 20
6.0016527184
 30
0.0
  0
LINE
  5
49A
100
AcDbEntity
  8
0
100
AcDbLine
 62
7
  6
CONTINUOUS
 10
7.178342793
 20
6.0016527184
 11
7.1781728656
 21
6.0113416896
  0
SPLINE
  5
49B
100
AcDbEntity
  8
0
100
AcDbSpline
 62
7
  6
CONTINUOUS
 70
0
 71
3
 72
11
 73
7
 74
0
 42
0.0000001
 43
0.0000001
 44
0.0000000001
 40
0.0
 40
0.0
 40
0.0
 40
0.0
 40
0.2477493783
 40
0.4971523259
 40
0.7473560343
 40
1.0
 40
1.0
 40
1.0
 40
1.0
 10
7.1781728656
 20
6.0113416896
 30
0.0
 10
7.1771034445
 20
6.0111285372
 30
0.0
 10
7.1749934624
 20
6.0104759737
 30
0.0
 10
7.1721346902
 20
6.0087809805
 30
0.0
 10
7.1698282057
 20
6.0063285924
 30
0.0
 10
7.1689678835
 20
6.0042172659
 30
0.0
 10
7.1687581233
 20
6.0031252291
 30
0.0
  0
LINE
  5
49C
100
AcDbEntity
  8
0
100
AcDbLine
 62
7
  6
CONTINUOUS
 10
7.1687581233
 20
6.0031252291
 11
7.1686151371
 21
6.0016527184
  0
SPLINE
  5
49D
100
AcDbEntity
  8
0
100
AcDbSpline
 62
7
  6
CONTINUOUS
 70
0
 71
3
 72
11
 73
7
 74
0
 42
0.0000001
 43
0.0000001
 44
0.0000000001
 40
0.0
 40
0.0
 40
0.0
 40
0.0
 40
0.2485138884
 40
0.4983014046
 40
0.7482810208
 40
1.0
 40
1.0
 40
1.0
 40
1.0
 10
7.1667782011
 20
6.0113416896
 30
0.0
 10
7.1656998523
 20
6.0111286332
 30
0.0
 10
7.1635732026
 20
6.0104769302
 30
0.0
 10
7.160690216
 20
6.0087834184
 30
0.0
 10
7.1583627739
 20
6.0063328125
 30
0.0
 10
7.1574923854
 20
6.0042182688
 30
0.0
 10
7.1572805845
 20
6.0031252291
 30
0.0
  0
LINE
  5
49E
100
AcDbEntity
  8
0
100
AcDbLine
 62
7
  6
CONTINUOUS
 10
7.1572805845
 20
6.0031252291
 11
7.1571363396
 21
6.0016527184
  0
SPLINE
  5
49F
100
AcDbEntity
  8
0
100
AcDbSpline
 62
7
  6
CONTINUOUS
 70
0
 71
3
 72
11
 73
7
 74
0
 42
0.0000001
 43
0.0000001
 44
0.0000000001
 40
0.0
 40
0.0
 40
0.0
 40
0.0
 40
0.2490330642
 40
0.4990825415
 40
0.7489106763
 40
1.0
 40
1.0
 40
1.0
 40
1.0
 10
7.1559084842
 20
6.0113416896
 30
0.0
 10
7.1548240101
 20
6.0111286977
 30
0.0
 10
7.1526859251
 20
6.0104775742
 30
0.0
 10
7.1497863451
 20
6.0087850688
 30
0.0
 10
7.147444547
 20
6.0063357029
 30
0.0
 10
7.1465672289
 20
6.0042189605
 30
0.0
 10
7.1463540255
 20
6.0031252291
 30
0.0
  0
LINE
  5
4A0
100
AcDbEntity
  8
0
100
AcDbLine
 62
7
  6
CONTINUOUS
 10
7.1463540255
 20
6.0031252291
 11
7.1462089174
 21
6.0016527184
  0
SPLINE
  5
4A1
100
AcDbEntity
  8
0
100
AcDbSpline
 62
7
  6
CONTINUOUS
 70
0
 71
3
 72
11
 73
7
 74
0
 42
0.0000001
 43
0.0000001
 44
0.0000000001
 40
0.0
 40
0.0
 40
0.0
 40
0.0
 40
0.2493113089
 40
0.4995014478
 40
0.7492486329
 40
1.0
 40
1.0
 40
1.0
 40
1.0
 10
7.145593508
 20
6.0113416896
 30
0.0
 10
7.14450573
 20
6.0111287321
 30
0.0
 10
7.1423614769
 20
6.0104779175
 30
0.0
 10
7.1394529534
 20
6.0087859515
 30
0.0
 10
7.1371034195
 20
6.0063372601
 30
0.0
 10
7.136222356
 20
6.0042193347
 30
0.0
 10
7.1360083954
 20
6.0031252291
 30
0.0
  0
LINE
  5
4A2
100
AcDbEntity
  8
0
100
AcDbLine
 62
7
  6
CONTINUOUS
 10
7.1360083954
 20
6.0031252291
 11
7.1358628217
 21
6.0016527184
  0
SPLINE
  5
4A3
100
AcDbEntity
  8
0
100
AcDbSpline
 62
7
  6
CONTINUOUS
 70
0
 71
3
 72
11
 73
7
 74
0
 42
0.0000001
 43
0.0000001
 44
0.0000000001
 40
0.0
 40
0.0
 40
0.0
 40
0.0
 40
0.2493509833
 40
0.4995611941
 40
0.7492968502
 40
1.0
 40
1.0
 40
1.0
 40
1.0
 10
7.1358615452
 20
6.0113416896
 30
0.0
 10
7.1347732948
 20
6.011128737
 30
0.0
 10
7.13262816
 20
6.0104779664
 30
0.0
 10
7.1297183583
 20
6.0087860772
 30
0.0
 10
7.127367719
 20
6.0063374826
 30
0.0
 10
7.1264861196
 20
6.0042193883
 30
0.0
 10
7.1262720507
 20
6.0031252291
 30
0.0
  0
LINE
  5
4A4
100
AcDbEntity
  8
0
100
AcDbLine
 62
7
  6
CONTINUOUS
 10
7.1262720507
 20
6.0031252291
 11
7.1261264105
 21
6.0016527184
  0
SPLINE
  5
4A5
100
AcDbEntity
  8
0
100
AcDbSpline
 62
7
  6
CONTINUOUS
 70
0
 71
3
 72
11
 73
7
 74
0
 42
0.0000001
 43
0.0000001
 44
0.0000000001
 40
0.0
 40
0.0
 40
0.0
 40
0.0
 40
0.2493953495
 40
0.4994193752
 40
0.7489713983
 40
1.0
 40
1.0
 40
1.0
 40
1.0
 10
7.1248441729
 20
6.010845346
 30
0.0
 10
7.1239460356
 20
6.0105489592
 30
0.0
 10
7.1221978939
 20
6.0097839429
 30
0.0
 10
7.1198746489
 20
6.0081065526
 30
0.0
 10
7.1180480764
 20
6.0058729409
 30
0.0
 10
7.1173585443
 20
6.0040583395
 30
0.0
 10
7.1171763174
 20
6.0031239717
 30
0.0
  0
LINE
  5
4A6
100
AcDbEntity
  8
0
100
AcDbLine
 62
7
  6
CONTINUOUS
 10
7.1171763174
 20
6.0031239717
 11
7.1170312643
 21
6.0016527184
  0
SPLINE
  5
4A7
100
AcDbEntity
  8
0
100
AcDbSpline
 62
7
  6
CONTINUOUS
 70
0
 71
3
 72
11
 73
7
 74
0
 42
0.0000001
 43
0.0000001
 44
0.0000000001
 40
0.0
 40
0.0
 40
0.0
 40
0.0
 40
0.2489711259
 40
0.4988060991
 40
0.7484945318
 40
1.0
 40
1.0
 40
1.0
 40
1.0
 10
7.1163721587
 20
6.0108490208
 30
0.0
 10
7.1154772142
 20
6.0105529592
 30
0.0
 10
7.1137348527
 20
6.0097879732
 30
0.0
 10
7.1114198866
 20
6.0081099431
 30
0.0
 10
7.1096001016
 20
6.0058747233
 30
0.0
 10
7.1089137711
 20
6.0040600018
 30
0.0
 10
7.1087322212
 20
6.0031252291
 30
0.0
  0
LINE
  5
4A8
100
AcDbEntity
  8
0
100
AcDbLine
 62
7
  6
CONTINUOUS
 10
7.1087322212
 20
6.0031252291
 11
7.1085876446
 21
6.0016527184
  0
SPLINE
  5
4A9
100
AcDbEntity
  8
0
100
AcDbSpline
 62
7
  6
CONTINUOUS
 70
0
 71
3
 72
9
 73
5
 74
0
 42
0.0000001
 43
0.0000001
 44
0.0000000001
 40
0.0
 40
0.0
 40
0.0
 40
0.0
 40
0.2493040709
 40
1.0
 40
1.0
 40
1.0
 40
1.0
 10
7.1104220589
 20
6.0113416896
 30
0.0
 10
7.1101175949
 20
6.0112812012
 30
0.0
 10
7.1089038761
 20
6.0110028462
 30
0.0
 10
7.1077228017
 20
6.0105763049
 30
0.0
 10
7.1068807021
 20
6.0101706567
 30
0.0
  0
SPLINE
  5
4AA
100
AcDbEntity
  8
0
100
AcDbSpline
 62
7
  6
CONTINUOUS
 70
0
 71
3
 72
11
 73
7
 74
0
 42
0.0000001
 43
0.0000001
 44
0.0000000001
 40
0.0
 40
0.0
 40
0.0
 40
0.0
 40
0.2485813047
 40
0.4978776707
 40
0.747918131
 40
1.0
 40
1.0
 40
1.0
 40
1.0
 10
7.1068807021
 20
6.0101706567
 30
0.0
 10
7.1061702679
 20
6.009828433
 30
0.0
 10
7.1048033537
 20
6.0090176331
 30
0.0
 10
7.1030217761
 20
6.0074234901
 30
0.0
 10
7.1016556479
 20
6.005439595
 30
0.0
 10
7.1011281251
 20
6.0039104452
 30
0.0
 10
7.1009768104
 20
6.0031252226
 30
0.0
  0
LINE
  5
4AB
100
AcDbEntity
  8
0
100
AcDbLine
 62
7
  6
CONTINUOUS
 10
7.1009768104
 20
6.0031252226
 11
7.1008333624
 21
6.0016527184
  0
SPLINE
  5
4AC
100
AcDbEntity
  8
0
100
AcDbSpline
 62
7
  6
CONTINUOUS
 70
0
 71
3
 72
9
 73
5
 74
0
 42
0.0000001
 43
0.0000001
 44
0.0000000001
 40
0.0
 40
0.0
 40
0.0
 40
0.0
 40
0.2492048974
 40
1.0
 40
1.0
 40
1.0
 40
1.0
 10
7.1032718467
 20
6.0113416896
 30
0.0
 10
7.1028328866
 20
6.0112535463
 30
0.0
 10
7.1010881879
 20
6.0108246867
 30
0.0
 10
7.099416172
 20
6.0100734799
 30
0.0
 10
7.0982913069
 20
6.009329062
 30
0.0
  0
SPLINE
  5
4AD
100
AcDbEntity
  8
0
100
AcDbSpline
 62
7
  6
CONTINUOUS
 70
0
 71
3
 72
10
 73
6
 74
0
 42
0.0000001
 43
0.0000001
 44
0.0000000001
 40
0.0
 40
0.0
 40
0.0
 40
0.0
 40
0.4957737973
 40
0.7470112841
 40
1.0
 40
1.0
 40
1.0
 40
1.0
 10
7.0982913069
 20
6.009329062
 30
0.0
 10
7.0972209856
 20
6.0086207403
 30
0.0
 10
7.0957481494
 20
6.007282462
 30
0.0
 10
7.0944449516
 20
6.0050269082
 30
0.0
 10
7.0940493703
 20
6.003768585
 30
0.0
 10
7.0939267071
 20
6.0031252291
 30
0.0
  0
LINE
  5
4AE
100
AcDbEntity
  8
0
100
AcDbLine
 62
7
  6
CONTINUOUS
 10
7.0939267071
 20
6.0031252291
 11
7.093784778
 21
6.0016527184
  0
SPLINE
  5
4AF
100
AcDbEntity
  8
0
100
AcDbSpline
 62
7
  6
CONTINUOUS
 70
0
 71
3
 72
9
 73
5
 74
0
 42
0.0000001
 43
0.0000001
 44
0.0000000001
 40
0.0
 40
0.0
 40
0.0
 40
0.0
 40
0.4971968496
 40
1.0
 40
1.0
 40
1.0
 40
1.0
 10
7.0968206486
 20
6.0113416896
 30
0.0
 10
7.0956864003
 20
6.0111108265
 30
0.0
 10
7.0934494004
 20
6.0103836766
 30
0.0
 10
7.0914661075
 20
6.0090936891
 30
0.0
 10
7.0905965496
 20
6.008310062
 30
0.0
  0
SPLINE
  5
4B0
100
AcDbEntity
  8
0
100
AcDbSpline
 62
7
  6
CONTINUOUS
 70
0
 71
3
 72
9
 73
5
 74
0
 42
0.0000001
 43
0.0000001
 44
0.0000000001
 40
0.0
 40
0.0
 40
0.0
 40
0.0
 40
0.4959768529
 40
1.0
 40
1.0
 40
1.0
 40
1.0
 10
7.0905965496
 20
6.008310062
 30
0.0
 10
7.0898510774
 20
6.0076382583
 30
0.0
 10
7.0885240638
 20
6.0060647451
 30
0.0
 10
7.0877897455
 20
6.0041274522
 30
0.0
 10
7.0876012308
 20
6.0031252291
 30
0.0
  0
LINE
  5
4B1
100
AcDbEntity
  8
0
100
AcDbLine
 62
7
  6
CONTINUOUS
 10
7.0876012308
 20
6.0031252291
 11
7.0874612111
 21
6.0016527184
  0
SPLINE
  5
4B2
100
AcDbEntity
  8
0
100
AcDbSpline
 62
7
  6
CONTINUOUS
 70
0
 71
3
 72
9
 73
5
 74
0
 42
0.0000001
 43
0.0000001
 44
0.0000000001
 40
0.0
 40
0.0
 40
0.0
 40
0.0
 40
0.4956476615
 40
1.0
 40
1.0
 40
1.0
 40
1.0
 10
7.0910861469
 20
6.0113416896
 30
0.0
 10
7.0897108255
 20
6.0110570979
 30
0.0
 10
7.0870017611
 20
6.0100819013
 30
0.0
 10
7.0847407906
 20
6.0082394923
 30
0.0
 10
7.0838521245
 20
6.0071202669
 30
0.0
  0
SPLINE
  5
4B3
100
AcDbEntity
  8
0
100
AcDbSpline
 62
7
  6
CONTINUOUS
 70
0
 71
3
 72
9
 73
5
 74
0
 42
0.0000001
 43
0.0000001
 44
0.0000000001
 40
0.0
 40
0.0
 40
0.0
 40
0.0
 40
0.4962692824
 40
1.0
 40
1.0
 40
1.0
 40
1.0
 10
7.0838521245
 20
6.0071202669
 30
0.0
 10
7.0833965322
 20
6.0065464737
 30
0.0
 10
7.0826092993
 20
6.0052793656
 30
0.0
 10
7.0821530179
 20
6.0038565024
 30
0.0
 10
7.0820177206
 20
6.0031252291
 30
0.0
  0
LINE
  5
4B4
100
AcDbEntity
  8
0
100
AcDbLine
 62
7
  6
CONTINUOUS
 10
7.0820177206
 20
6.0031252291
 11
7.0818799941
 21
6.0016527184
  0
SPLINE
  5
4B5
100
AcDbEntity
  8
0
100
AcDbSpline
 62
7
  6
CONTINUOUS
 70
0
 71
3
 72
11
 73
7
 74
0
 42
0.0000001
 43
0.0000001
 44
0.0000000001
 40
0.0
 40
0.0
 40
0.0
 40
0.0
 40
0.2432353083
 40
0.490549423
 40
0.7421329985
 40
1.0
 40
1.0
 40
1.0
 40
1.0
 10
7.0843205934
 20
6.010845346
 30
0.0
 10
7.0834815792
 20
6.0105474529
 30
0.0
 10
7.0818443805
 20
6.0097742863
 30
0.0
 10
7.0796824985
 20
6.0080879792
 30
0.0
 10
7.0779910957
 20
6.0058480644
 30
0.0
 10
7.0773620731
 20
6.0040527225
 30
0.0
 10
7.0771937208
 20
6.0031239717
 30
0.0
  0
LINE
  5
4B6
100
AcDbEntity
  8
0
100
AcDbLine
 62
7
  6
CONTINUOUS
 10
7.0771937208
 20
6.0031239717
 11
7.0770589016
 21
6.0016527184
  0
SPLINE
  5
4B7
100
AcDbEntity
  8
0
100
AcDbSpline
 62
7
  6
CONTINUOUS
 70
0
 71
3
 72
9
 73
5
 74
0
 42
0.0000001
 43
0.0000001
 44
0.0000000001
 40
0.0
 40
0.0
 40
0.0
 40
0.0
 40
0.4958175303
 40
1.0
 40
1.0
 40
1.0
 40
1.0
 10
7.0818280966
 20
6.0113416896
 30
0.0
 10
7.0810079106
 20
6.0111646279
 30
0.0
 10
7.0793828188
 20
6.010653129
 30
0.0
 10
7.0778906879
 20
6.0098237046
 30
0.0
 10
7.0771954604
 20
6.009329062
 30
0.0
  0
SPLINE
  5
4B8
100
AcDbEntity
  8
0
100
AcDbSpline
 62
7
  6
CONTINUOUS
 70
0
 71
3
 72
9
 73
5
 74
0
 42
0.0000001
 43
0.0000001
 44
0.0000000001
 40
0.0
 40
0.0
 40
0.0
 40
0.0
 40
0.4907412458
 40
1.0
 40
1.0
 40
1.0
 40
1.0
 10
7.0771954604
 20
6.009329062
 30
0.0
 10
7.076187788
 20
6.0086121201
 30
0.0
 10
7.0743458066
 20
6.0068047791
 30
0.0
 10
7.0733598374
 20
6.0043888698
 30
0.0
 10
7.0731357392
 20
6.0031252291
 30
0.0
  0
LINE
  5
4B9
100
AcDbEntity
  8
0
100
AcDbLine
 62
7
  6
CONTINUOUS
 10
7.0731357392
 20
6.0031252291
 11
7.0730037242
 21
6.0016527184
  0
SPLINE
  5
4BA
100
AcDbEntity
  8
0
100
AcDbSpline
 62
7
  6
CONTINUOUS
 70
0
 71
3
 72
9
 73
5
 74
0
 42
0.0000001
 43
0.0000001
 44
0.0000000001
 40
0.0
 40
0.0
 40
0.0
 40
0.0
 40
0.4904802961
 40
1.0
 40
1.0
 40
1.0
 40
1.0
 10
7.0783299236
 20
6.0113416896
 30
0.0
 10
7.077038169
 20
6.0110554478
 30
0.0
 10
7.074477062
 20
6.0100610478
 30
0.0
 10
7.0723932425
 20
6.0082243365
 30
0.0
 10
7.0715746225
 20
6.0071202669
 30
0.0
  0
LINE
  5
4BB
100
AcDbEntity
  8
0
100
AcDbLine
 62
7
  6
CONTINUOUS
 10
7.0698616128
 20
6.0031252291
 11
7.0697330005
 21
6.0016527184
  0
SPLINE
  5
4BC
100
AcDbEntity
  8
0
100
AcDbSpline
 62
7
  6
CONTINUOUS
 70
0
 71
3
 72
9
 73
5
 74
0
 42
0.0000001
 43
0.0000001
 44
0.0000000001
 40
0.0
 40
0.0
 40
0.0
 40
0.0
 40
0.2473349486
 40
1.0
 40
1.0
 40
1.0
 40
1.0
 10
7.0755991288
 20
6.0113416896
 30
0.0
 10
7.0753336165
 20
6.0112810848
 30
0.0
 10
7.0742686734
 20
6.0110004006
 30
0.0
 10
7.0732418692
 20
6.0105719605
 30
0.0
 10
7.0725167521
 20
6.0101706489
 30
0.0
  0
SPLINE
  5
4BD
100
AcDbEntity
  8
0
100
AcDbSpline
 62
7
  6
CONTINUOUS
 70
0
 71
3
 72
10
 73
6
 74
0
 42
0.0000001
 43
0.0000001
 44
0.0000000001
 40
0.0
 40
0.0
 40
0.0
 40
0.0
 40
0.4819685877
 40
0.7364343805
 40
1.0
 40
1.0
 40
1.0
 40
1.0
 10
7.0725167521
 20
6.0101706489
 30
0.0
 10
7.0712537385
 20
6.0094716417
 30
0.0
 10
7.0694962798
 20
6.0080053634
 30
0.0
 10
7.0679571644
 20
6.0054099216
 30
0.0
 10
7.0675086565
 20
6.0039037584
 30
0.0
 10
7.0673780756
 20
6.0031252291
 30
0.0
  0
LINE
  5
4BE
100
AcDbEntity
  8
0
100
AcDbLine
 62
7
  6
CONTINUOUS
 10
7.0673780756
 20
6.0031252291
 11
7.0672532185
 21
6.0016527184
  0
SPLINE
  5
4BF
100
AcDbEntity
  8
0
100
AcDbSpline
 62
7
  6
CONTINUOUS
 70
0
 71
3
 72
9
 73
5
 74
0
 42
0.0000001
 43
0.0000001
 44
0.0000000001
 40
0.0
 40
0.0
 40
0.0
 40
0.0
 40
0.4873280849
 40
1.0
 40
1.0
 40
1.0
 40
1.0
 10
7.0720732958
 20
6.0108490208
 30
0.0
 10
7.0711365742
 20
6.0104780216
 30
0.0
 10
7.069309731
 20
6.0094497981
 30
0.0
 10
7.0678522122
 20
6.0079280128
 30
0.0
 10
7.067253986
 20
6.0070530618
 30
0.0
  0
SPLINE
  5
4C0
100
AcDbEntity
  8
0
100
AcDbSpline
 62
7
  6
CONTINUOUS
 70
0
 71
3
 72
9
 73
5
 74
0
 42
0.0000001
 43
0.0000001
 44
0.0000000001
 40
0.0
 40
0.0
 40
0.0
 40
0.0
 40
0.49099325
 40
1.0
 40
1.0
 40
1.0
 40
1.0
 10
7.067253986
 20
6.0070530618
 30
0.0
 10
7.066861164
 20
6.0064785299
 30
0.0
 10
7.0661892373
 20
6.0052160877
 30
0.0
 10
7.0658074718
 20
6.0038374385
 30
0.0
 10
7.0656919348
 20
6.0031252291
 30
0.0
  0
LINE
  5
4C1
100
AcDbEntity
  8
0
100
AcDbLine
 62
7
  6
CONTINUOUS
 10
7.0656919348
 20
6.0031252291
 11
7.0655711752
 21
6.0016527184
  0
LINE
  5
4C2
100
AcDbEntity
  8
0
100
AcDbLine
 62
7
  6
CONTINUOUS
 10
7.064807812
 20
6.0031252291
 11
7.0646914809
 21
6.0016527184
  0
SPLINE
  5
4C3
100
AcDbEntity
  8
0
100
AcDbSpline
 62
7
  6
CONTINUOUS
 70
0
 71
3
 72
21
 73
17
 74
0
 42
0.0000001
 43
0.0000001
 44
0.0000000001
 40
0.0
 40
0.0
 40
0.0
 40
0.0
 40
0.1691035875
 40
0.3330175689
 40
0.4112884539
 40
0.4863438102
 40
0.5576751972
 40
0.6248394326
 40
0.6874435839
 40
0.7452132519
 40
0.7980523114
 40
0.8460069888
 40
0.8893753156
 40
0.928784408
 40
0.9652026298
 40
1.0
 40
1.0
 40
1.0
 40
1.0
 10
3.3582998671
 20
5.1273559801
 30
0.0
 10
3.3441519564
 20
5.1273559801
 30
0.0
 10
3.3162789237
 20
5.1262516926
 30
0.0
 10
3.2820734956
 20
5.1221122556
 30
0.0
 10
3.2559967555
 20
5.1171190828
 30
0.0
 10
3.2377223282
 20
5.1126873264
 30
0.0
 10
3.2206010969
 20
5.10754792
 30
0.0
 10
3.2047916509
 20
5.1017589615
 30
0.0
 10
3.1904450764
 20
5.0953715452
 30
0.0
 10
3.1776997858
 20
5.0884376518
 30
0.0
 10
3.1666669241
 20
5.0810303607
 30
0.0
 10
3.1574482631
 20
5.0732045846
 30
0.0
 10
3.1501369521
 20
5.0650139724
 30
0.0
 10
3.1448015928
 20
5.0565206202
 30
0.0
 10
3.1415391503
 20
5.0477831216
 30
0.0
 10
3.1408036216
 20
5.0418020532
 30
0.0
 10
3.1408036216
 20
5.0388907602
 30
0.0
  0
SPLINE
  5
4C4
100
AcDbEntity
  8
0
100
AcDbSpline
 62
7
  6
CONTINUOUS
 70
0
 71
3
 72
13
 73
9
 74
0
 42
0.0000001
 43
0.0000001
 44
0.0000000001
 40
0.0
 40
0.0
 40
0.0
 40
0.0
 40
0.2473267527
 40
0.3782247228
 40
0.5104328632
 40
0.6412103735
 40
0.7681489341
 40
1.0
 40
1.0
 40
1.0
 40
1.0
 10
7.1658019328
 20
7.0394982036
 30
0.0
 10
7.1658389666
 20
7.0419870486
 30
0.0
 10
7.1667173413
 20
7.0458409606
 30
0.0
 10
7.1693882219
 20
7.0502599718
 30
0.0
 10
7.1720931223
 20
7.0531991161
 30
0.0
 10
7.175319223
 20
7.0554811742
 30
0.0
 10
7.1798161637
 20
7.0575443551
 30
0.0
 10
7.1834664954
 20
7.0581509115
 30
0.0
 10
7.1857998671
 20
7.0581509277
 30
0.0
  0
SPLINE
  5
4C5
100
AcDbEntity
  8
0
100
AcDbSpline
 62
7
  6
CONTINUOUS
 70
0
 71
3
 72
21
 73
17
 74
0
 42
0.0000001
 43
0.0000001
 44
0.0000000001
 40
0.0
 40
0.0
 40
0.0
 40
0.0
 40
0.1691035875
 40
0.3330175689
 40
0.4112884539
 40
0.4863438102
 40
0.5576751972
 40
0.6248394326
 40
0.6874435839
 40
0.7452132519
 40
0.7980523114
 40
0.8460069888
 40
0.8893753156
 40
0.928784408
 40
0.9652026298
 40
1.0
 40
1.0
 40
1.0
 40
1.0
 10
3.3582998671
 20
3.1576298769
 30
0.0
 10
3.3724477779
 20
3.1576298769
 30
0.0
 10
3.4003208106
 20
3.1565255894
 30
0.0
 10
3.4345262387
 20
3.1523861524
 30
0.0
 10
3.4606029788
 20
3.1473929796
 30
0.0
 10
3.4788774061
 20
3.1429612232
 30
0.0
 10
3.4959986374
 20
3.1378218168
 30
0.0
 10
3.5118080834
 20
3.1320328583
 30
0.0
 10
3.5261546579
 20
3.1256454419
 30
0.0
 10
3.5388999485
 20
3.1187115486
 30
0.0
 10
3.5499328102
 20
3.1113042574
 30
0.0
 10
3.5591514712
 20
3.1034784814
 30
0.0
 10
3.5664627822
 20
3.0952878692
 30
0.0
 10
3.5717981415
 20
3.0867945169
 30
0.0
 10
3.575060584
 20
3.0780570184
 30
0.0
 10
3.5757961127
 20
3.07207595
 30
0.0
 10
3.5757961127
 20
3.069164657
 30
0.0
  0
SPLINE
  5
4C6
100
AcDbEntity
  8
0
100
AcDbSpline
 62
7
  6
CONTINUOUS
 70
0
 71
3
 72
12
 73
8
 74
0
 42
0.0000001
 43
0.0000001
 44
0.0000000001
 40
0.0
 40
0.0
 40
0.0
 40
0.0
 40
0.2440828291
 40
0.3766141585
 40
0.5095830913
 40
0.7655605783
 40
1.0
 40
1.0
 40
1.0
 40
1.0
 10
3.7963781488
 20
6.2193849209
 30
0.0
 10
3.826490255
 20
6.2225562251
 30
0.0
 10
3.8730685428
 20
6.2263719332
 30
0.0
 10
3.9361771591
 20
6.2300329528
 30
0.0
 10
4.0008078666
 20
6.2328477142
 30
0.0
 10
4.0781288625
 20
6.2346180632
 30
0.0
 10
4.1389756758
 20
6.2342818728
 30
0.0
 10
4.1680504577
 20
6.2336175713
 30
0.0
  0
SPLINE
  5
4C7
100
AcDbEntity
  8
0
100
AcDbSpline
 62
7
  6
CONTINUOUS
 70
0
 71
3
 72
13
 73
9
 74
0
 42
0.0000001
 43
0.0000001
 44
0.0000000001
 40
0.0
 40
0.0
 40
0.0
 40
0.0
 40
0.2056212507
 40
0.4368457741
 40
0.5654067907
 40
0.7036032435
 40
0.8502102879
 40
1.0
 40
1.0
 40
1.0
 40
1.0
 10
7.3582998671
 20
6.0113390263
 30
0.0
 10
7.3574940671
 20
6.0110926554
 30
0.0
 10
7.3558651089
 20
6.0102610359
 30
0.0
 10
7.3542296628
 20
6.0085622462
 30
0.0
 10
7.3531783727
 20
6.0068053591
 30
0.0
 10
7.3525502622
 20
6.0052239429
 30
0.0
 10
7.3521491065
 20
6.0034827973
 30
0.0
 10
7.3520498671
 20
6.0022665599
 30
0.0
 10
7.3520498671
 20
6.0016527316
 30
0.0
  0
LINE
  5
4C8
100
AcDbEntity
  8
0
100
AcDbLine
 62
7
  6
CONTINUOUS
 10
7.3491796697
 20
6.001652725
 11
7.3488507356
 21
6.0045191973
  0
SPLINE
  5
4C9
100
AcDbEntity
  8
0
100
AcDbSpline
 62
7
  6
CONTINUOUS
 70
0
 71
3
 72
9
 73
5
 74
0
 42
0.0000001
 43
0.0000001
 44
0.0000000001
 40
0.0
 40
0.0
 40
0.0
 40
0.0
 40
0.5523011734
 40
1.0
 40
1.0
 40
1.0
 40
1.0
 10
7.3488507356
 20
6.0045191973
 30
0.0
 10
7.3485261927
 20
6.0059326917
 30
0.0
 10
7.347483513
 20
6.0084291567
 30
0.0
 10
7.3454907204
 20
6.0102868385
 30
0.0
 10
7.3444585959
 20
6.0108496504
 30
0.0
  0
LINE
  5
4CA
100
AcDbEntity
  8
0
100
AcDbLine
 62
7
  6
CONTINUOUS
 10
7.3444585959
 20
6.0108496504
 11
7.343320027
 21
6.0113416896
  0
SPLINE
  5
4CB
100
AcDbEntity
  8
0
100
AcDbSpline
 62
7
  6
CONTINUOUS
 70
0
 71
3
 72
13
 73
9
 74
0
 42
0.0000001
 43
0.0000001
 44
0.0000000001
 40
0.0
 40
0.0
 40
0.0
 40
0.0
 40
0.2112473871
 40
0.4445932234
 40
0.5725897485
 40
0.7091281105
 40
0.8532055939
 40
1.0
 40
1.0
 40
1.0
 40
1.0
 10
7.343320027
 20
6.0113416896
 30
0.0
 10
7.3424698633
 20
6.0110977922
 30
0.0
 10
7.3407558867
 20
6.0102806292
 30
0.0
 10
7.3390055223
 20
6.0085802744
 30
0.0
 10
7.3378821303
 20
6.0068154077
 30
0.0
 10
7.3372130168
 20
6.0052318279
 30
0.0
 10
7.3367855243
 20
6.0034873846
 30
0.0
 10
7.3366796697
 20
6.0022677407
 30
0.0
 10
7.3366796697
 20
6.0016531374
 30
0.0
  0
SPLINE
  5
4CC
100
AcDbEntity
  8
0
100
AcDbSpline
 62
7
  6
CONTINUOUS
 70
0
 71
3
 72
12
 73
8
 74
0
 42
0.0000001
 43
0.0000001
 44
0.0000000001
 40
0.0
 40
0.0
 40
0.0
 40
0.0
 40
0.1565271914
 40
0.3088788592
 40
0.5802273037
 40
0.8070391339
 40
1.0
 40
1.0
 40
1.0
 40
1.0
 10
7.333825893
 20
6.0016531635
 30
0.0
 10
7.333825893
 20
6.0022670454
 30
0.0
 10
7.3337395479
 20
6.0034799529
 30
0.0
 10
7.3332934768
 20
6.0057154003
 30
0.0
 10
7.3323019238
 20
6.0081069568
 30
0.0
 10
7.3305463727
 20
6.0102277352
 30
0.0
 10
7.3290955552
 20
6.0110917627
 30
0.0
 10
7.3283812455
 20
6.0113416896
 30
0.0
  0
SPLINE
  5
4CD
100
AcDbEntity
  8
0
100
AcDbSpline
 62
7
  6
CONTINUOUS
 70
0
 71
3
 72
14
 73
10
 74
0
 42
0.0000001
 43
0.0000001
 44
0.0000000001
 40
0.0
 40
0.0
 40
0.0
 40
0.0
 40
0.2162530367
 40
0.3312585148
 40
0.4522115303
 40
0.5796257333
 40
0.7145356453
 40
0.8561368639
 40
1.0
 40
1.0
 40
1.0
 40
1.0
 10
7.3283812455
 20
6.0113416896
 30
0.0
 10
7.3274894072
 20
6.0110991179
 30
0.0
 10
7.3261712738
 20
6.0105057196
 30
0.0
 10
7.3246366132
 20
6.0093218255
 30
0.0
 10
7.3235666874
 20
6.0081863272
 30
0.0
 10
7.3226484064
 20
6.0068206394
 30
0.0
 10
7.3219413523
 20
6.0052362766
 30
0.0
 10
7.3214892953
 20
6.0034898255
 30
0.0
 10
7.3213773089
 20
6.002267809
 30
0.0
 10
7.3213773089
 20
6.001652956
 30
0.0
  0
SPLINE
  5
4CE
100
AcDbEntity
  8
0
100
AcDbSpline
 62
7
  6
CONTINUOUS
 70
0
 71
3
 72
12
 73
8
 74
0
 42
0.0000001
 43
0.0000001
 44
0.0000000001
 40
0.0
 40
0.0
 40
0.0
 40
0.0
 40
0.1600646783
 40
0.3154484298
 40
0.5897318047
 40
0.8141841247
 40
1.0
 40
1.0
 40
1.0
 40
1.0
 10
7.3185391977
 20
6.0016530355
 30
0.0
 10
7.3185391977
 20
6.0022667046
 30
0.0
 10
7.3184599457
 20
6.0034774274
 30
0.0
 10
7.3180510391
 20
6.0057043538
 30
0.0
 10
7.3171493313
 20
6.0080793054
 30
0.0
 10
7.3155436929
 20
6.0102043459
 30
0.0
 10
7.3141904312
 20
6.0110887025
 30
0.0
 10
7.3135244689
 20
6.0113416896
 30
0.0
  0
SPLINE
  5
4CF
100
AcDbEntity
  8
0
100
AcDbSpline
 62
7
  6
CONTINUOUS
 70
0
 71
3
 72
13
 73
9
 74
0
 42
0.0000001
 43
0.0000001
 44
0.0000000001
 40
0.0
 40
0.0
 40
0.0
 40
0.0
 40
0.2211230735
 40
0.4584283257
 40
0.5855157588
 40
0.7191328962
 40
0.8586504448
 40
1.0
 40
1.0
 40
1.0
 40
1.0
 10
7.3135244689
 20
6.0113416896
 30
0.0
 10
7.3125930455
 20
6.011100224
 30
0.0
 10
7.3107263489
 20
6.0103041206
 30
0.0
 10
7.3087685041
 20
6.0086035931
 30
0.0
 10
7.3075130351
 20
6.0068262638
 30
0.0
 10
7.3067694661
 20
6.0052407857
 30
0.0
 10
7.3062940534
 20
6.0034926711
 30
0.0
 10
7.3061761503
 20
6.002268303
 30
0.0
 10
7.3061761503
 20
6.0016532226
 30
0.0
  0
SPLINE
  5
4D0
100
AcDbEntity
  8
0
100
AcDbSpline
 62
7
  6
CONTINUOUS
 70
0
 71
3
 72
13
 73
9
 74
0
 42
0.0000001
 43
0.0000001
 44
0.0000000001
 40
0.0
 40
0.0
 40
0.0
 40
0.0
 40
0.1636228454
 40
0.3220622442
 40
0.5993127338
 40
0.7171017091
 40
0.8219078799
 40
1.0
 40
1.0
 40
1.0
 40
1.0
 10
7.3033614837
 20
6.0016527384
 30
0.0
 10
7.3033614837
 20
6.0022662147
 30
0.0
 10
7.3032895408
 20
6.0034750366
 30
0.0
 10
7.3029182497
 20
6.0056928954
 30
0.0
 10
7.3022367647
 20
6.0076814476
 30
0.0
 10
7.3012581695
 20
6.0092881212
 30
0.0
 10
7.3002935755
 20
6.0104426632
 30
0.0
 10
7.2994067625
 20
6.0110848264
 30
0.0
 10
7.2987904186
 20
6.0113416896
 30
0.0
  0
SPLINE
  5
4D1
100
AcDbEntity
  8
0
100
AcDbSpline
 62
7
  6
CONTINUOUS
 70
0
 71
3
 72
13
 73
9
 74
0
 42
0.0000001
 43
0.0000001
 44
0.0000000001
 40
0.0
 40
0.0
 40
0.0
 40
0.0
 40
0.2253899588
 40
0.4644843273
 40
0.5912079392
 40
0.723560745
 40
0.8610683355
 40
1.0
 40
1.0
 40
1.0
 40
1.0
 10
7.2987904186
 20
6.0113416896
 30
0.0
 10
7.2978215842
 20
6.0111011395
 30
0.0
 10
7.2958852694
 20
6.0103133335
 30
0.0
 10
7.2938330552
 20
6.0086136686
 30
0.0
 10
7.2925166378
 20
6.0068311279
 30
0.0
 10
7.2917388511
 20
6.005244881
 30
0.0
 10
7.2912413381
 20
6.0034950303
 30
0.0
 10
7.2911178592
 20
6.0022683267
 30
0.0
 10
7.2911178592
 20
6.0016529992
 30
0.0
  0
SPLINE
  5
4D2
100
AcDbEntity
  8
0
100
AcDbSpline
 62
7
  6
CONTINUOUS
 70
0
 71
3
 72
13
 73
9
 74
0
 42
0.0000001
 43
0.0000001
 44
0.0000000001
 40
0.0
 40
0.0
 40
0.0
 40
0.0
 40
0.1673787645
 40
0.3290720778
 40
0.6096627541
 40
0.7270119294
 40
0.829909506
 40
1.0
 40
1.0
 40
1.0
 40
1.0
 10
7.2883343519
 20
6.0016531634
 30
0.0
 10
7.2883343519
 20
6.0022664258
 30
0.0
 10
7.2882698177
 20
6.0034732276
 30
0.0
 10
7.2879367204
 20
6.0056832139
 30
0.0
 10
7.2873294307
 20
6.0076651155
 30
0.0
 10
7.2864455075
 20
6.0092809123
 30
0.0
 10
7.2855867133
 20
6.0104256505
 30
0.0
 10
7.2847850125
 20
6.0110798727
 30
0.0
 10
7.2842194795
 20
6.0113416896
 30
0.0
  0
SPLINE
  5
4D3
100
AcDbEntity
  8
0
100
AcDbSpline
 62
7
  6
CONTINUOUS
 70
0
 71
3
 72
13
 73
9
 74
0
 42
0.0000001
 43
0.0000001
 44
0.0000000001
 40
0.0
 40
0.0
 40
0.0
 40
0.0
 40
0.2292384252
 40
0.4699861178
 40
0.5963973778
 40
0.7276096818
 40
0.863283875
 40
1.0
 40
1.0
 40
1.0
 40
1.0
 10
7.2842194795
 20
6.0113416896
 30
0.0
 10
7.2832155752
 20
6.011101908
 30
0.0
 10
7.2812142817
 20
6.010321205
 30
0.0
 10
7.2790742361
 20
6.0086227961
 30
0.0
 10
7.2777006255
 20
6.0068357161
 30
0.0
 10
7.276890763
 20
6.0052488661
 30
0.0
 10
7.2763724541
 20
6.0034974189
 30
0.0
 10
7.2762437093
 20
6.0022684592
 30
0.0
 10
7.2762437093
 20
6.0016528967
 30
0.0
  0
SPLINE
  5
4D4
100
AcDbEntity
  8
0
100
AcDbSpline
 62
7
  6
CONTINUOUS
 70
0
 71
3
 72
13
 73
9
 74
0
 42
0.0000001
 43
0.0000001
 44
0.0000000001
 40
0.0
 40
0.0
 40
0.0
 40
0.0
 40
0.134692098
 40
0.2686920882
 40
0.3988722075
 40
0.5250227786
 40
0.7673010463
 40
1.0
 40
1.0
 40
1.0
 40
1.0
 10
7.2616025705
 20
6.0016527184
 30
0.0
 10
7.2616025705
 20
6.0022679534
 30
0.0
 10
7.2617359281
 20
6.0034979425
 30
0.0
 10
7.2622725666
 20
6.0052494235
 30
0.0
 10
7.2631109159
 20
6.006835647
 30
0.0
 10
7.2645355564
 20
6.0086260051
 30
0.0
 10
7.2667536936
 20
6.0103232603
 30
0.0
 10
7.2688129134
 20
6.011099064
 30
0.0
 10
7.2698483744
 20
6.0113390263
 30
0.0
  0
SPLINE
  5
4D5
100
AcDbEntity
  8
0
100
AcDbSpline
 62
7
  6
CONTINUOUS
 70
0
 71
3
 72
12
 73
8
 74
0
 42
0.0000001
 43
0.0000001
 44
0.0000000001
 40
0.0
 40
0.0
 40
0.0
 40
0.0
 40
0.2676454497
 40
0.3986167679
 40
0.5252664881
 40
0.7681057916
 40
1.0
 40
1.0
 40
1.0
 40
1.0
 10
7.6510285591
 20
6.0016527184
 30
0.0
 10
7.6510285591
 20
6.0027298085
 30
0.0
 10
7.65073344
 20
6.0043477031
 30
0.0
 10
7.6498691694
 20
6.0062833541
 30
0.0
 10
7.6487515353
 20
6.0079691331
 30
0.0
 10
7.646971043
 20
6.0096593257
 30
0.0
 10
7.6452640934
 20
6.0105689079
 30
0.0
 10
7.6443920742
 20
6.0109012847
 30
0.0
  0
SPLINE
  5
4D6
100
AcDbEntity
  8
0
100
AcDbSpline
 62
7
  6
CONTINUOUS
 70
0
 71
3
 72
12
 73
8
 74
0
 42
0.0000001
 43
0.0000001
 44
0.0000000001
 40
0.0
 40
0.0
 40
0.0
 40
0.0
 40
0.2643135799
 40
0.3943631931
 40
0.520733086
 40
0.7648747519
 40
1.0
 40
1.0
 40
1.0
 40
1.0
 10
7.6493465157
 20
6.0016527184
 30
0.0
 10
7.6493465157
 20
6.0027172221
 30
0.0
 10
7.6490468675
 20
6.0043192048
 30
0.0
 10
7.6481749567
 20
6.006233103
 30
0.0
 10
7.6470418413
 20
6.0079111031
 30
0.0
 10
7.6452327284
 20
6.0095981243
 30
0.0
 10
7.6435066023
 20
6.0105110893
 30
0.0
 10
7.6426222477
 20
6.0108496611
 30
0.0
  0
SPLINE
  5
4D7
100
AcDbEntity
  8
0
100
AcDbSpline
 62
7
  6
CONTINUOUS
 70
0
 71
3
 72
14
 73
10
 74
0
 42
0.0000001
 43
0.0000001
 44
0.0000000001
 40
0.0
 40
0.0
 40
0.0
 40
0.0
 40
0.1025917833
 40
0.186838464
 40
0.2966356415
 40
0.4327514653
 40
0.5953957427
 40
0.784531945
 40
1.0
 40
1.0
 40
1.0
 40
1.0
 10
7.1059707979
 20
6.6367476971
 30
0.0
 10
7.1059799961
 20
6.6370703691
 30
0.0
 10
7.1064977433
 20
6.6375465914
 30
0.0
 10
7.107299635
 20
6.6379569004
 30
0.0
 10
7.1082800796
 20
6.6383381844
 30
0.0
 10
7.109508004
 20
6.6387068034
 30
0.0
 10
7.1109996581
 20
6.6390775489
 30
0.0
 10
7.1127462647
 20
6.6394439899
 30
0.0
 10
7.1139991027
 20
6.6396715868
 30
0.0
 10
7.1146673407
 20
6.6397860243
 30
0.0
  0
SPLINE
  5
4D8
100
AcDbEntity
  8
0
100
AcDbSpline
 62
7
  6
CONTINUOUS
 70
0
 71
3
 72
17
 73
13
 74
0
 42
0.0000001
 43
0.0000001
 44
0.0000000001
 40
0.0
 40
0.0
 40
0.0
 40
0.0
 40
0.026385094
 40
0.0594039075
 40
0.0987802963
 40
0.1441370744
 40
0.2512226907
 40
0.3774608959
 40
0.5192776539
 40
0.6729160676
 40
0.8345004533
 40
1.0
 40
1.0
 40
1.0
 40
1.0
 10
7.1146673407
 20
6.6397860243
 30
0.0
 10
7.1167817913
 20
6.6401481291
 30
0.0
 10
7.1215663119
 20
6.6408212456
 30
0.0
 10
7.12955049
 20
6.6416943941
 30
0.0
 10
7.139088036
 20
6.642533708
 30
0.0
 10
7.1546430224
 20
6.6436659346
 30
0.0
 10
7.1772683762
 20
6.6449112623
 30
0.0
 10
7.2077445572
 20
6.6461482715
 30
0.0
 10
7.242015836
 20
6.6471618562
 30
0.0
 10
7.2791678839
 20
6.6479255058
 30
0.0
 10
7.3182503127
 20
6.6484073335
 30
0.0
 10
7.3448439391
 20
6.6485156127
 30
0.0
 10
7.3582998293
 20
6.6485108558
 30
0.0
  0
SPLINE
  5
4D9
100
AcDbEntity
  8
0
100
AcDbSpline
 62
7
  6
CONTINUOUS
 70
0
 71
3
 72
9
 73
5
 74
0
 42
0.0000001
 43
0.0000001
 44
0.0000000001
 40
0.0
 40
0.0
 40
0.0
 40
0.0
 40
0.5137191945
 40
1.0
 40
1.0
 40
1.0
 40
1.0
 10
7.6468667338
 20
6.0016527184
 30
0.0
 10
7.6468667338
 20
6.0034477543
 30
0.0
 10
7.6457210252
 20
6.0070136847
 30
0.0
 10
7.6429393774
 20
6.0093683668
 30
0.0
 10
7.6414423554
 20
6.0101721534
 30
0.0
  0
SPLINE
  5
4DA
100
AcDbEntity
  8
0
100
AcDbSpline
 62
7
  6
CONTINUOUS
 70
0
 71
3
 72
10
 73
6
 74
0
 42
0.0000001
 43
0.0000001
 44
0.0000000001
 40
0.0
 40
0.0
 40
0.0
 40
0.0
 40
0.258496354
 40
0.5134346862
 40
1.0
 40
1.0
 40
1.0
 40
1.0
 10
7.6435960101
 20
6.0016527184
 30
0.0
 10
7.6435960101
 20
6.0025688848
 30
0.0
 10
7.643282975
 20
6.0043986457
 30
0.0
 10
7.6416867875
 20
6.0076078744
 30
0.0
 10
7.6395561831
 20
6.0093728466
 30
0.0
 10
7.6380281189
 20
6.0101721532
 30
0.0
  0
SPLINE
  5
4DB
100
AcDbEntity
  8
0
100
AcDbSpline
 62
7
  6
CONTINUOUS
 70
0
 71
3
 72
9
 73
5
 74
0
 42
0.0000001
 43
0.0000001
 44
0.0000000001
 40
0.0
 40
0.0
 40
0.0
 40
0.0
 40
0.5071626179
 40
1.0
 40
1.0
 40
1.0
 40
1.0
 10
7.6395408327
 20
6.0016527184
 30
0.0
 10
7.6395408327
 20
6.0031832265
 30
0.0
 10
7.6386615718
 20
6.0062481618
 30
0.0
 10
7.6364765341
 20
6.0084771873
 30
0.0
 10
7.6352558415
 20
6.0093268369
 30
0.0
  0
SPLINE
  5
4DC
100
AcDbEntity
  8
0
100
AcDbSpline
 62
7
  6
CONTINUOUS
 70
0
 71
3
 72
9
 73
5
 74
0
 42
0.0000001
 43
0.0000001
 44
0.0000000001
 40
0.0
 40
0.0
 40
0.0
 40
0.0
 40
0.2521260486
 40
1.0
 40
1.0
 40
1.0
 40
1.0
 10
7.6352558415
 20
6.0093268369
 30
0.0
 10
7.6350248236
 20
6.0094876345
 30
0.0
 10
7.634085948
 20
6.0100926013
 30
0.0
 10
7.6330643379
 20
6.0105667742
 30
0.0
 10
7.6322774939
 20
6.0108459861
 30
0.0
  0
SPLINE
  5
4DD
100
AcDbEntity
  8
0
100
AcDbSpline
 62
7
  6
CONTINUOUS
 70
0
 71
3
 72
10
 73
6
 74
0
 42
0.0000001
 43
0.0000001
 44
0.0000000001
 40
0.0
 40
0.0
 40
0.0
 40
0.0
 40
0.5031232063
 40
0.7530801936
 40
1.0
 40
1.0
 40
1.0
 40
1.0
 10
7.6347197402
 20
6.0016527184
 30
0.0
 10
7.6347197402
 20
6.002913594
 30
0.0
 10
7.6342518567
 20
6.0048263679
 30
0.0
 10
7.6329394365
 20
6.0069720465
 30
0.0
 10
7.6320893326
 20
6.0078946702
 30
0.0
 10
7.6316329712
 20
6.0083125864
 30
0.0
  0
SPLINE
  5
4DE
100
AcDbEntity
  8
0
100
AcDbSpline
 62
7
  6
CONTINUOUS
 70
0
 71
3
 72
9
 73
5
 74
0
 42
0.0000001
 43
0.0000001
 44
0.0000000001
 40
0.0
 40
0.0
 40
0.0
 40
0.0
 40
0.2529738907
 40
1.0
 40
1.0
 40
1.0
 40
1.0
 10
7.6316329712
 20
6.0083125864
 30
0.0
 10
7.6313195804
 20
6.0085995763
 30
0.0
 10
7.6300152329
 20
6.009661806
 30
0.0
 10
7.6284878552
 20
6.0104382149
 30
0.0
 10
7.6273023779
 20
6.0108496611
 30
0.0
  0
SPLINE
  5
4DF
100
AcDbEntity
  8
0
100
AcDbSpline
 62
7
  6
CONTINUOUS
 70
0
 71
3
 72
9
 73
5
 74
0
 42
0.0000001
 43
0.0000001
 44
0.0000000001
 40
0.0
 40
0.0
 40
0.0
 40
0.0
 40
0.5013885469
 40
1.0
 40
1.0
 40
1.0
 40
1.0
 10
7.6291385232
 20
6.0016527184
 30
0.0
 10
7.6291385232
 20
6.0026403993
 30
0.0
 10
7.6287522403
 20
6.0046215846
 30
0.0
 10
7.6277485362
 20
6.0063584303
 30
0.0
 10
7.6271314295
 20
6.0071225745
 30
0.0
  0
SPLINE
  5
4E0
100
AcDbEntity
  8
0
100
AcDbSpline
 62
7
  6
CONTINUOUS
 70
0
 71
3
 72
9
 73
5
 74
0
 42
0.0000001
 43
0.0000001
 44
0.0000000001
 40
0.0
 40
0.0
 40
0.0
 40
0.0
 40
0.5026210839
 40
1.0
 40
1.0
 40
1.0
 40
1.0
 10
7.6271314295
 20
6.0071225745
 30
0.0
 10
7.6264222737
 20
6.0080007004
 30
0.0
 10
7.6247028302
 20
6.0095094891
 30
0.0
 10
7.6226547071
 20
6.0104887979
 30
0.0
 10
7.6215976601
 20
6.0108496611
 30
0.0
  0
SPLINE
  5
4E1
100
AcDbEntity
  8
0
100
AcDbSpline
 62
7
  6
CONTINUOUS
 70
0
 71
3
 72
9
 73
5
 74
0
 42
0.0000001
 43
0.0000001
 44
0.0000000001
 40
0.0
 40
0.0
 40
0.0
 40
0.0
 40
0.748788697
 40
1.0
 40
1.0
 40
1.0
 40
1.0
 10
7.6228149563
 20
6.0016527184
 30
0.0
 10
7.6228149563
 20
6.0027436109
 30
0.0
 10
7.6224897398
 20
6.0042170926
 30
0.0
 10
7.6218454063
 20
6.0055240941
 30
0.0
 10
7.6216638929
 20
6.0058418944
 30
0.0
  0
SPLINE
  5
4E2
100
AcDbEntity
  8
0
100
AcDbSpline
 62
7
  6
CONTINUOUS
 70
0
 71
3
 72
9
 73
5
 74
0
 42
0.0000001
 43
0.0000001
 44
0.0000000001
 40
0.0
 40
0.0
 40
0.0
 40
0.0
 40
0.5012822567
 40
1.0
 40
1.0
 40
1.0
 40
1.0
 10
7.6216638929
 20
6.0058418944
 30
0.0
 10
7.6211200182
 20
6.0067941301
 30
0.0
 10
7.6196713788
 20
6.00849672
 30
0.0
 10
7.6178099674
 20
6.0096948315
 30
0.0
 10
7.6168289252
 20
6.0101721533
 30
0.0
  0
SPLINE
  5
4E3
100
AcDbEntity
  8
0
100
AcDbSpline
 62
7
  6
CONTINUOUS
 70
0
 71
3
 72
9
 73
5
 74
0
 42
0.0000001
 43
0.0000001
 44
0.0000000001
 40
0.0
 40
0.0
 40
0.0
 40
0.0
 40
0.2488439065
 40
1.0
 40
1.0
 40
1.0
 40
1.0
 10
7.6157663719
 20
6.0016527184
 30
0.0
 10
7.6157663719
 20
6.0018953894
 30
0.0
 10
7.6157179097
 20
6.002870312
 30
0.0
 10
7.6154857682
 20
6.0038334312
 30
0.0
 10
7.6152281374
 20
6.0045191539
 30
0.0
  0
SPLINE
  5
4E4
100
AcDbEntity
  8
0
100
AcDbSpline
 62
7
  6
CONTINUOUS
 70
0
 71
3
 72
10
 73
6
 74
0
 42
0.0000001
 43
0.0000001
 44
0.0000000001
 40
0.0
 40
0.0
 40
0.0
 40
0.0
 40
0.2522108632
 40
0.5022385633
 40
1.0
 40
1.0
 40
1.0
 40
1.0
 10
7.6152281374
 20
6.0045191539
 30
0.0
 10
7.6150400005
 20
6.005019908
 30
0.0
 10
7.6145738999
 20
6.0059858284
 30
0.0
 10
7.6133220663
 20
6.0077078826
 30
0.0
 10
7.612091747
 20
6.0087532369
 30
0.0
 10
7.6112083472
 20
6.009331319
 30
0.0
  0
SPLINE
  5
4E5
100
AcDbEntity
  8
0
100
AcDbSpline
 62
7
  6
CONTINUOUS
 70
0
 71
3
 72
9
 73
5
 74
0
 42
0.0000001
 43
0.0000001
 44
0.0000000001
 40
0.0
 40
0.0
 40
0.0
 40
0.0
 40
0.250874756
 40
1.0
 40
1.0
 40
1.0
 40
1.0
 10
7.6112083472
 20
6.009331319
 30
0.0
 10
7.6109621571
 20
6.0094924217
 30
0.0
 10
7.6099585036
 20
6.0101001573
 30
0.0
 10
7.6088742834
 20
6.0105719223
 30
0.0
 10
7.608040793
 20
6.0108496623
 30
0.0
  0
LINE
  5
4E6
100
AcDbEntity
  8
0
100
AcDbLine
 62
7
  6
CONTINUOUS
 10
7.6080120897
 20
6.0016527184
 11
7.6078672601
 21
6.0031261016
  0
SPLINE
  5
4E7
100
AcDbEntity
  8
0
100
AcDbSpline
 62
7
  6
CONTINUOUS
 70
0
 71
3
 72
9
 73
5
 74
0
 42
0.0000001
 43
0.0000001
 44
0.0000000001
 40
0.0
 40
0.0
 40
0.0
 40
0.0
 40
0.5017453865
 40
1.0
 40
1.0
 40
1.0
 40
1.0
 10
7.6078672601
 20
6.0031261016
 30
0.0
 10
7.6076717327
 20
6.0041317304
 30
0.0
 10
7.6069054984
 20
6.0060796171
 30
0.0
 10
7.605538414
 20
6.0076438109
 30
0.0
 10
7.6047717933
 20
6.0083125862
 30
0.0
  0
SPLINE
  5
4E8
100
AcDbEntity
  8
0
100
AcDbSpline
 62
7
  6
CONTINUOUS
 70
0
 71
3
 72
9
 73
5
 74
0
 42
0.0000001
 43
0.0000001
 44
0.0000000001
 40
0.0
 40
0.0
 40
0.0
 40
0.0
 40
0.2512823507
 40
1.0
 40
1.0
 40
1.0
 40
1.0
 10
7.6047717933
 20
6.0083125862
 30
0.0
 10
7.6044419228
 20
6.0086003547
 30
0.0
 10
7.6030630978
 20
6.0096692123
 30
0.0
 10
7.6014641911
 20
6.0104402172
 30
0.0
 10
7.6002258077
 20
6.0108496611
 30
0.0
  0
SPLINE
  5
4E9
100
AcDbEntity
  8
0
100
AcDbSpline
 62
7
  6
CONTINUOUS
 70
0
 71
3
 72
9
 73
5
 74
0
 42
0.0000001
 43
0.0000001
 44
0.0000000001
 40
0.0
 40
0.0
 40
0.0
 40
0.0
 40
0.4993577878
 40
1.0
 40
1.0
 40
1.0
 40
1.0
 10
7.59956847
 20
6.0016527184
 30
0.0
 10
7.59956847
 20
6.0026408502
 30
0.0
 10
7.5991642119
 20
6.004631455
 30
0.0
 10
7.5981247304
 20
6.0063590998
 30
0.0
 10
7.5974887622
 20
6.0071186907
 30
0.0
  0
SPLINE
  5
4EA
100
AcDbEntity
  8
0
100
AcDbSpline
 62
7
  6
CONTINUOUS
 70
0
 71
3
 72
9
 73
5
 74
0
 42
0.0000001
 43
0.0000001
 44
0.0000000001
 40
0.0
 40
0.0
 40
0.0
 40
0.0
 40
0.2504984946
 40
1.0
 40
1.0
 40
1.0
 40
1.0
 10
7.5974887622
 20
6.0071186907
 30
0.0
 10
7.5972162143
 20
6.0074442177
 30
0.0
 10
7.5960446001
 20
6.0086733766
 30
0.0
 10
7.5945956875
 20
6.0096218484
 30
0.0
 10
7.5934487434
 20
6.0101679009
 30
0.0
  0
SPLINE
  5
4EB
100
AcDbEntity
  8
0
100
AcDbSpline
 62
7
  6
CONTINUOUS
 70
0
 71
3
 72
9
 73
5
 74
0
 42
0.0000001
 43
0.0000001
 44
0.0000000001
 40
0.0
 40
0.0
 40
0.0
 40
0.0
 40
0.2490841758
 40
1.0
 40
1.0
 40
1.0
 40
1.0
 10
7.5904733238
 20
6.0016527184
 30
0.0
 10
7.5904733238
 20
6.0020165307
 30
0.0
 10
7.5903629962
 20
6.0034762328
 30
0.0
 10
7.5898467472
 20
6.0048956498
 30
0.0
 10
7.5892921627
 20
6.0058418944
 30
0.0
  0
SPLINE
  5
4EC
100
AcDbEntity
  8
0
100
AcDbSpline
 62
7
  6
CONTINUOUS
 70
0
 71
3
 72
9
 73
5
 74
0
 42
0.0000001
 43
0.0000001
 44
0.0000000001
 40
0.0
 40
0.0
 40
0.0
 40
0.0
 40
0.4994110396
 40
1.0
 40
1.0
 40
1.0
 40
1.0
 10
7.5892921627
 20
6.0058418944
 30
0.0
 10
7.5887317153
 20
6.0067981423
 30
0.0
 10
7.5872374235
 20
6.0085048956
 30
0.0
 10
7.5853346406
 20
6.0096961709
 30
0.0
 10
7.584330771
 20
6.0101721534
 30
0.0
  0
SPLINE
  5
4ED
100
AcDbEntity
  8
0
100
AcDbSpline
 62
7
  6
CONTINUOUS
 70
0
 71
3
 72
9
 73
5
 74
0
 42
0.0000001
 43
0.0000001
 44
0.0000000001
 40
0.0
 40
0.0
 40
0.0
 40
0.0
 40
0.2487047268
 40
1.0
 40
1.0
 40
1.0
 40
1.0
 10
7.5807369126
 20
6.0016527184
 30
0.0
 10
7.5807369126
 20
6.0018953987
 30
0.0
 10
7.5806877069
 20
6.0028709065
 30
0.0
 10
7.5804518728
 20
6.0038341656
 30
0.0
 10
7.5801907021
 20
6.0045191623
 30
0.0
  0
SPLINE
  5
4EE
100
AcDbEntity
  8
0
100
AcDbSpline
 62
7
  6
CONTINUOUS
 70
0
 71
3
 72
11
 73
7
 74
0
 42
0.0000001
 43
0.0000001
 44
0.0000000001
 40
0.0
 40
0.0
 40
0.0
 40
0.0
 40
0.2508331737
 40
0.5002621109
 40
0.7502855789
 40
1.0
 40
1.0
 40
1.0
 40
1.0
 10
7.5801907021
 20
6.0045191623
 30
0.0
 10
7.5799483068
 20
6.0051549147
 30
0.0
 10
7.5793137645
 20
6.0063708127
 30
0.0
 10
7.5779850875
 20
6.0079307187
 30
0.0
 10
7.5763937277
 20
6.0092103623
 30
0.0
 10
7.5752091613
 20
6.0098818448
 30
0.0
 10
7.5745971668
 20
6.0101721532
 30
0.0
  0
SPLINE
  5
4EF
100
AcDbEntity
  8
0
100
AcDbSpline
 62
7
  6
CONTINUOUS
 70
0
 71
3
 72
11
 73
7
 74
0
 42
0.0000001
 43
0.0000001
 44
0.0000000001
 40
0.0
 40
0.0
 40
0.0
 40
0.0
 40
0.2497827473
 40
0.500488656
 40
0.7501980797
 40
1.0
 40
1.0
 40
1.0
 40
1.0
 10
7.5703908169
 20
6.0016527184
 30
0.0
 10
7.5703908169
 20
6.0025713656
 30
0.0
 10
7.5700405989
 20
6.0044225362
 30
0.0
 10
7.5686850898
 20
6.0068727273
 30
0.0
 10
7.5666862037
 20
6.0088205893
 30
0.0
 10
7.5651002783
 20
6.0097773713
 30
0.0
 10
7.5642707064
 20
6.0101721533
 30
0.0
  0
SPLINE
  5
4F0
100
AcDbEntity
  8
0
100
AcDbSpline
 62
7
  6
CONTINUOUS
 70
0
 71
3
 72
11
 73
7
 74
0
 42
0.0000001
 43
0.0000001
 44
0.0000000001
 40
0.0
 40
0.0
 40
0.0
 40
0.0
 40
0.2502909713
 40
0.5012100649
 40
0.7507271124
 40
1.0
 40
1.0
 40
1.0
 40
1.0
 10
7.5594633947
 20
6.0016527184
 30
0.0
 10
7.5594633947
 20
6.0025711951
 30
0.0
 10
7.559115768
 20
6.0044208524
 30
0.0
 10
7.5577692412
 20
6.0068708873
 30
0.0
 10
7.5557823412
 20
6.008819473
 30
0.0
 10
7.5542047609
 20
6.0097771655
 30
0.0
 10
7.5533796942
 20
6.0101721534
 30
0.0
  0
SPLINE
  5
4F1
100
AcDbEntity
  8
0
100
AcDbSpline
 62
7
  6
CONTINUOUS
 70
0
 71
3
 72
11
 73
7
 74
0
 42
0.0000001
 43
0.0000001
 44
0.0000000001
 40
0.0
 40
0.0
 40
0.0
 40
0.0
 40
0.2510338413
 40
0.5022656528
 40
0.7515020758
 40
1.0
 40
1.0
 40
1.0
 40
1.0
 10
7.5479845972
 20
6.0016527184
 30
0.0
 10
7.5479845972
 20
6.0025709481
 30
0.0
 10
7.5476407323
 20
6.0044184092
 30
0.0
 10
7.5463072918
 20
6.0068681935
 30
0.0
 10
7.5443378853
 20
6.008817825
 30
0.0
 10
7.5427724811
 20
6.0097768603
 30
0.0
 10
7.5419539821
 20
6.0101721532
 30
0.0
  0
SPLINE
  5
4F2
100
AcDbEntity
  8
0
100
AcDbSpline
 62
7
  6
CONTINUOUS
 70
0
 71
3
 72
9
 73
5
 74
0
 42
0.0000001
 43
0.0000001
 44
0.0000000001
 40
0.0
 40
0.0
 40
0.0
 40
0.0
 40
0.2510317958
 40
1.0
 40
1.0
 40
1.0
 40
1.0
 10
7.5419539821
 20
6.0101721532
 30
0.0
 10
7.541673553
 20
6.0103075861
 30
0.0
 10
7.5405381089
 20
6.0108086699
 30
0.0
 10
7.5393380858
 20
6.0111600697
 30
0.0
 10
7.5384268687
 20
6.0113416896
 30
0.0
  0
LINE
  5
4F3
100
AcDbEntity
  8
0
100
AcDbLine
 62
7
  6
CONTINUOUS
 10
7.5384268687
 20
6.0113416896
 11
7.5382569412
 21
6.0016527184
  0
SPLINE
  5
4F4
100
AcDbEntity
  8
0
100
AcDbSpline
 62
7
  6
CONTINUOUS
 70
0
 71
3
 72
12
 73
8
 74
0
 42
0.0000001
 43
0.0000001
 44
0.0000000001
 40
0.0
 40
0.0
 40
0.0
 40
0.0
 40
0.2528920645
 40
0.3793269756
 40
0.5047547082
 40
0.7535457039
 40
1.0
 40
1.0
 40
1.0
 40
1.0
 10
7.5359790553
 20
6.0016527184
 30
0.0
 10
7.5359790553
 20
6.0028817342
 30
0.0
 10
7.5355205265
 20
6.0047487116
 30
0.0
 10
7.5342400689
 20
6.006852188
 30
0.0
 10
7.5325892589
 20
6.0086585425
 30
0.0
 10
7.5300322388
 20
6.0103463743
 30
0.0
 10
7.5277184959
 20
6.0111012582
 30
0.0
 10
7.5265446042
 20
6.0113390263
 30
0.0
  0
SPLINE
  5
4F5
100
AcDbEntity
  8
0
100
AcDbSpline
 62
7
  6
CONTINUOUS
 70
0
 71
3
 72
13
 73
9
 74
0
 42
0.0000001
 43
0.0000001
 44
0.0000000001
 40
0.0
 40
0.0
 40
0.0
 40
0.0
 40
0.0490034023
 40
0.119530553
 40
0.2126549333
 40
0.3290906991
 40
0.6308567058
 40
1.0
 40
1.0
 40
1.0
 40
1.0
 10
7.5265446042
 20
6.0113390263
 30
0.0
 10
7.5264914413
 20
6.0111892463
 30
0.0
 10
7.5263984144
 20
6.0108115724
 30
0.0
 10
7.5262825565
 20
6.0101317183
 30
0.0
 10
7.5261728801
 20
6.0092295436
 30
0.0
 10
7.5260257279
 20
6.0075775535
 30
0.0
 10
7.5259013884
 20
6.0050260204
 30
0.0
 10
7.5258663429
 20
6.0028499783
 30
0.0
 10
7.5258663429
 20
6.0016527184
 30
0.0
  0
SPLINE
  5
4F6
100
AcDbEntity
  8
0
100
AcDbSpline
 62
7
  6
CONTINUOUS
 70
0
 71
3
 72
12
 73
8
 74
0
 42
0.0000001
 43
0.0000001
 44
0.0000000001
 40
0.0
 40
0.0
 40
0.0
 40
0.0
 40
0.2545268588
 40
0.3813821922
 40
0.5068936394
 40
0.7549937973
 40
1.0
 40
1.0
 40
1.0
 40
1.0
 10
7.5235001519
 20
6.0016527184
 30
0.0
 10
7.5235001519
 20
6.0028819437
 30
0.0
 10
7.5230493443
 20
6.0047472031
 30
0.0
 10
7.5217847865
 20
6.0068544289
 30
0.0
 10
7.520157387
 20
6.0086600108
 30
0.0
 10
7.5176354675
 20
6.0103487547
 30
0.0
 10
7.5153482108
 20
6.0111045182
 30
0.0
 10
7.5141889781
 20
6.0113416896
 30
0.0
  0
SPLINE
  5
4F7
100
AcDbEntity
  8
0
100
AcDbSpline
 62
7
  6
CONTINUOUS
 70
0
 71
3
 72
13
 73
9
 74
0
 42
0.0000001
 43
0.0000001
 44
0.0000000001
 40
0.0
 40
0.0
 40
0.0
 40
0.0
 40
0.0517656165
 40
0.1237549406
 40
0.2174624922
 40
0.3338134926
 40
0.6338355408
 40
1.0
 40
1.0
 40
1.0
 40
1.0
 10
7.5141889781
 20
6.0113416896
 30
0.0
 10
7.5140993867
 20
6.0111978561
 30
0.0
 10
7.5139356565
 20
6.010823957
 30
0.0
 10
7.5137320804
 20
6.0101415604
 30
0.0
 10
7.5135392709
 20
6.0092376463
 30
0.0
 10
7.5132820377
 20
6.0075873464
 30
0.0
 10
7.5130637532
 20
6.0050323061
 30
0.0
 10
7.5130023829
 20
6.0028513533
 30
0.0
 10
7.5130023829
 20
6.0016527184
 30
0.0
  0
SPLINE
  5
4F8
100
AcDbEntity
  8
0
100
AcDbSpline
 62
7
  6
CONTINUOUS
 70
0
 71
3
 72
12
 73
8
 74
0
 42
0.0000001
 43
0.0000001
 44
0.0000000001
 40
0.0
 40
0.0
 40
0.0
 40
0.0
 40
0.2564897356
 40
0.3838531451
 40
0.5094696219
 40
0.7567425052
 40
1.0
 40
1.0
 40
1.0
 40
1.0
 10
7.5105616142
 20
6.0016527184
 30
0.0
 10
7.5105616142
 20
6.0028808847
 30
0.0
 10
7.5101209185
 20
6.0047420856
 30
0.0
 10
7.5088777712
 20
6.0068521144
 30
0.0
 10
7.5072811554
 20
6.0086558879
 30
0.0
 10
7.5048051488
 20
6.010345956
 30
0.0
 10
7.5025525362
 20
6.011104257
 30
0.0
 10
7.5014121865
 20
6.0113416896
 30
0.0
  0
SPLINE
  5
4F9
100
AcDbEntity
  8
0
100
AcDbSpline
 62
7
  6
CONTINUOUS
 70
0
 71
3
 72
13
 73
9
 74
0
 42
0.0000001
 43
0.0000001
 44
0.0000000001
 40
0.0
 40
0.0
 40
0.0
 40
0.0
 40
0.0557340218
 40
0.1299656082
 40
0.2246423119
 40
0.3409511768
 40
0.6384135828
 40
1.0
 40
1.0
 40
1.0
 40
1.0
 10
7.5014121865
 20
6.0113416896
 30
0.0
 10
7.5012894933
 20
6.0112034482
 30
0.0
 10
7.5010563578
 20
6.0108355406
 30
0.0
 10
7.5007638933
 20
6.0101491326
 30
0.0
 10
7.5004876769
 20
6.0092428319
 30
0.0
 10
7.5001214938
 20
6.0075957145
 30
0.0
 10
7.4998090451
 20
6.0050380367
 30
0.0
 10
7.4997214406
 20
6.0028518804
 30
0.0
 10
7.4997214406
 20
6.0016527184
 30
0.0
  0
SPLINE
  5
4FA
100
AcDbEntity
  8
0
100
AcDbSpline
 62
7
  6
CONTINUOUS
 70
0
 71
3
 72
12
 73
8
 74
0
 42
0.0000001
 43
0.0000001
 44
0.0000000001
 40
0.0
 40
0.0
 40
0.0
 40
0.0
 40
0.258789248
 40
0.3867527697
 40
0.5124978328
 40
0.7588047086
 40
1.0
 40
1.0
 40
1.0
 40
1.0
 10
7.4972057376
 20
6.0016527184
 30
0.0
 10
7.4972057376
 20
6.0028796833
 30
0.0
 10
7.496776593
 20
6.0047362211
 30
0.0
 10
7.4955582375
 20
6.0068494163
 30
0.0
 10
7.4939971582
 20
6.0086510133
 30
0.0
 10
7.4915743077
 20
6.0103425595
 30
0.0
 10
7.4893616948
 20
6.011103939
 30
0.0
 10
7.4882431339
 20
6.0113416896
 30
0.0
  0
SPLINE
  5
4FB
100
AcDbEntity
  8
0
100
AcDbSpline
 62
7
  6
CONTINUOUS
 70
0
 71
3
 72
13
 73
9
 74
0
 42
0.0000001
 43
0.0000001
 44
0.0000000001
 40
0.0
 40
0.0
 40
0.0
 40
0.0
 40
0.0603955501
 40
0.1374026627
 40
0.233342294
 40
0.3496668465
 40
0.6440495968
 40
1.0
 40
1.0
 40
1.0
 40
1.0
 10
7.4882431339
 20
6.0113416896
 30
0.0
 10
7.4880895216
 20
6.0112080836
 30
0.0
 10
7.487789744
 20
6.010847879
 30
0.0
 10
7.4874072912
 20
6.0101579792
 30
0.0
 10
7.4870475726
 20
6.0092492906
 30
0.0
 10
7.4865736997
 20
6.0076064889
 30
0.0
 10
7.4861666962
 20
6.0050457315
 30
0.0
 10
7.4860528715
 20
6.0028525842
 30
0.0
 10
7.4860528715
 20
6.0016527184
 30
0.0
  0
SPLINE
  5
4FC
100
AcDbEntity
  8
0
100
AcDbSpline
 62
7
  6
CONTINUOUS
 70
0
 71
3
 72
13
 73
9
 74
0
 42
0.0000001
 43
0.0000001
 44
0.0000000001
 40
0.0
 40
0.0
 40
0.0
 40
0.0
 40
0.131254387
 40
0.262448164
 40
0.3909312271
 40
0.5166585168
 40
0.7615222227
 40
1.0
 40
1.0
 40
1.0
 40
1.0
 10
7.4834691298
 20
6.0016527184
 30
0.0
 10
7.4834691298
 20
6.0022689041
 30
0.0
 10
7.4833266077
 20
6.0035039704
 30
0.0
 10
7.4827544036
 20
6.0052593473
 30
0.0
 10
7.481862283
 20
6.0068473067
 30
0.0
 10
7.4803419772
 20
6.0086448121
 30
0.0
 10
7.4779791468
 20
6.0103386824
 30
0.0
 10
7.4758118525
 20
6.0111035564
 30
0.0
 10
7.4747179158
 20
6.0113416896
 30
0.0
  0
SPLINE
  5
4FD
100
AcDbEntity
  8
0
100
AcDbSpline
 62
7
  6
CONTINUOUS
 70
0
 71
3
 72
13
 73
9
 74
0
 42
0.0000001
 43
0.0000001
 44
0.0000000001
 40
0.0
 40
0.0
 40
0.0
 40
0.0
 40
0.0654134888
 40
0.1455633229
 40
0.2430100676
 40
0.3594350087
 40
0.6504256315
 40
1.0
 40
1.0
 40
1.0
 40
1.0
 10
7.4747179158
 20
6.0113416896
 30
0.0
 10
7.4745346953
 20
6.0112116355
 30
0.0
 10
7.4741714728
 20
6.0108594852
 30
0.0
 10
7.4736988973
 20
6.0101673914
 30
0.0
 10
7.4732559134
 20
6.0092566073
 30
0.0
 10
7.4726760687
 20
6.007619274
 30
0.0
 10
7.4721741844
 20
6.005055314
 30
0.0
 10
7.4720341403
 20
6.002853457
 30
0.0
 10
7.4720341403
 20
6.0016527184
 30
0.0
  0
SPLINE
  5
4FE
100
AcDbEntity
  8
0
100
AcDbSpline
 62
7
  6
CONTINUOUS
 70
0
 71
3
 72
13
 73
9
 74
0
 42
0.0000001
 43
0.0000001
 44
0.0000000001
 40
0.0
 40
0.0
 40
0.0
 40
0.0
 40
0.1328797479
 40
0.2654022222
 40
0.3946883093
 40
0.5206074862
 40
0.7642380632
 40
1.0
 40
1.0
 40
1.0
 40
1.0
 10
7.4693894416
 20
6.0016527184
 30
0.0
 10
7.4693894416
 20
6.0022687069
 30
0.0
 10
7.4692511138
 20
6.0035018675
 30
0.0
 10
7.4686952943
 20
6.0052560613
 30
0.0
 10
7.4678281849
 20
6.0068437731
 30
0.0
 10
7.4663525501
 20
6.0086383724
 30
0.0
 10
7.464057092
 20
6.010333837
 30
0.0
 10
7.461940161
 20
6.0111030993
 30
0.0
 10
7.460873604
 20
6.0113416896
 30
0.0
  0
SPLINE
  5
4FF
100
AcDbEntity
  8
0
100
AcDbSpline
 62
7
  6
CONTINUOUS
 70
0
 71
3
 72
13
 73
9
 74
0
 42
0.0000001
 43
0.0000001
 44
0.0000000001
 40
0.0
 40
0.0
 40
0.0
 40
0.0
 40
0.1533009388
 40
0.2524984691
 40
0.3691876619
 40
0.6568105874
 40
0.8250861188
 40
1.0
 40
1.0
 40
1.0
 40
1.0
 10
7.460873604
 20
6.0113416896
 30
0.0
 10
7.4604131311
 20
6.0110649635
 30
0.0
 10
7.4597955633
 20
6.0103848448
 30
0.0
 10
7.4591512261
 20
6.0092655004
 30
0.0
 10
7.4584664841
 20
6.0076329002
 30
0.0
 10
7.4580079418
 20
6.0056655006
 30
0.0
 10
7.4577529897
 20
6.0034690589
 30
0.0
 10
7.4577036714
 20
6.0022656854
 30
0.0
 10
7.4577036714
 20
6.0016527184
 30
0.0
  0
SPLINE
  5
500
100
AcDbEntity
  8
0
100
AcDbSpline
 62
7
  6
CONTINUOUS
 70
0
 71
3
 72
13
 73
9
 74
0
 42
0.0000001
 43
0.0000001
 44
0.0000000001
 40
0.0
 40
0.0
 40
0.0
 40
0.0
 40
0.1346899038
 40
0.2686972441
 40
0.3988918406
 40
0.525040956
 40
0.7673069272
 40
1.0
 40
1.0
 40
1.0
 40
1.0
 10
7.4549971638
 20
6.0016527184
 30
0.0
 10
7.4549971638
 20
6.0022679374
 30
0.0
 10
7.4548636658
 20
6.0034979403
 30
0.0
 10
7.4543267154
 20
6.0052493838
 30
0.0
 10
7.4534884415
 20
6.0068357109
 30
0.0
 10
7.4520640121
 20
6.0086262189
 30
0.0
 10
7.4498459484
 20
6.0103234423
 30
0.0
 10
7.4477867846
 20
6.0110990725
 30
0.0
 10
7.4467513599
 20
6.0113390263
 30
0.0
  0
SPLINE
  5
501
100
AcDbEntity
  8
0
100
AcDbSpline
 62
7
  6
CONTINUOUS
 70
0
 71
3
 72
13
 73
9
 74
0
 42
0.0000001
 43
0.0000001
 44
0.0000000001
 40
0.0
 40
0.0
 40
0.0
 40
0.0
 40
0.1618624873
 40
0.2629127641
 40
0.3799111575
 40
0.6639504589
 40
0.8288947456
 40
1.0
 40
1.0
 40
1.0
 40
1.0
 10
7.4467513599
 20
6.0113390263
 30
0.0
 10
7.4462382081
 20
6.0110698108
 30
0.0
 10
7.4455271175
 20
6.0104018592
 30
0.0
 10
7.4447763498
 20
6.0092684176
 30
0.0
 10
7.4439915623
 20
6.007644271
 30
0.0
 10
7.4434594676
 20
6.0056705848
 30
0.0
 10
7.4431657976
 20
6.0034692864
 30
0.0
 10
7.4431089573
 20
6.0022652924
 30
0.0
 10
7.4431089573
 20
6.0016527184
 30
0.0
  0
SPLINE
  5
502
100
AcDbEntity
  8
0
100
AcDbSpline
 62
7
  6
CONTINUOUS
 70
0
 71
3
 72
13
 73
9
 74
0
 42
0.0000001
 43
0.0000001
 44
0.0000000001
 40
0.0
 40
0.0
 40
0.0
 40
0.0
 40
0.1367136989
 40
0.2723888661
 40
0.40360728
 40
0.5300208453
 40
0.7707636664
 40
1.0
 40
1.0
 40
1.0
 40
1.0
 10
7.440356025
 20
6.0016527184
 30
0.0
 10
7.440356025
 20
6.0022682745
 30
0.0
 10
7.44022721
 20
6.003497238
 30
0.0
 10
7.4397087404
 20
6.0052486662
 30
0.0
 10
7.4388989135
 20
6.0068355805
 30
0.0
 10
7.4375255105
 20
6.008622856
 30
0.0
 10
7.4353855076
 20
6.0103214006
 30
0.0
 10
7.4333841574
 20
6.0111019084
 30
0.0
 10
7.4323802548
 20
6.0113416896
 30
0.0
  0
SPLINE
  5
503
100
AcDbEntity
  8
0
100
AcDbSpline
 62
7
  6
CONTINUOUS
 70
0
 71
3
 72
13
 73
9
 74
0
 42
0.0000001
 43
0.0000001
 44
0.0000000001
 40
0.0
 40
0.0
 40
0.0
 40
0.0
 40
0.1700960785
 40
0.2729965953
 40
0.3903429781
 40
0.6709203672
 40
0.8326170418
 40
1.0
 40
1.0
 40
1.0
 40
1.0
 10
7.4323802548
 20
6.0113416896
 30
0.0
 10
7.4318146806
 20
6.0110798536
 30
0.0
 10
7.4310130001
 20
6.0104254742
 30
0.0
 10
7.4301541793
 20
6.0092806749
 30
0.0
 10
7.4292701166
 20
6.0076649273
 30
0.0
 10
7.4286627523
 20
6.0056829861
 30
0.0
 10
7.4283298617
 20
6.0034728972
 30
0.0
 10
7.4282653824
 20
6.0022660207
 30
0.0
 10
7.4282653824
 20
6.0016527184
 30
0.0
  0
SPLINE
  5
504
100
AcDbEntity
  8
0
100
AcDbSpline
 62
7
  6
CONTINUOUS
 70
0
 71
3
 72
13
 73
9
 74
0
 42
0.0000001
 43
0.0000001
 44
0.0000000001
 40
0.0
 40
0.0
 40
0.0
 40
0.0
 40
0.1389291076
 40
0.2764374646
 40
0.4087964897
 40
0.5355228541
 40
0.7746126872
 40
1.0
 40
1.0
 40
1.0
 40
1.0
 10
7.4254818751
 20
6.0016527184
 30
0.0
 10
7.4254818751
 20
6.0022680441
 30
0.0
 10
7.4253583361
 20
6.0034947599
 30
0.0
 10
7.4248606856
 20
6.0052446145
 30
0.0
 10
7.4240829406
 20
6.0068309462
 30
0.0
 10
7.4227667232
 20
6.0086136967
 30
0.0
 10
7.4207145425
 20
6.0103135172
 30
0.0
 10
7.4187781538
 20
6.0111011386
 30
0.0
 10
7.4178093157
 20
6.0113416896
 30
0.0
  0
SPLINE
  5
505
100
AcDbEntity
  8
0
100
AcDbSpline
 62
7
  6
CONTINUOUS
 70
0
 71
3
 72
13
 73
9
 74
0
 42
0.0000001
 43
0.0000001
 44
0.0000000001
 40
0.0
 40
0.0
 40
0.0
 40
0.0
 40
0.1780982917
 40
0.282907483
 40
0.4006940677
 40
0.6779305919
 40
0.8363724699
 40
1.0
 40
1.0
 40
1.0
 40
1.0
 10
7.4178093157
 20
6.0113416896
 30
0.0
 10
7.4171929491
 20
6.011084817
 30
0.0
 10
7.416306174
 20
6.0104425234
 30
0.0
 10
7.4153415736
 20
6.0092879666
 30
0.0
 10
7.4143628559
 20
6.0076814255
 30
0.0
 10
7.4136812667
 20
6.0056929338
 30
0.0
 10
7.4133101478
 20
6.0034750637
 30
0.0
 10
7.4132382506
 20
6.0022662136
 30
0.0
 10
7.4132382506
 20
6.0016527184
 30
0.0
  0
SPLINE
  5
506
100
AcDbEntity
  8
0
100
AcDbSpline
 62
7
  6
CONTINUOUS
 70
0
 71
3
 72
13
 73
9
 74
0
 42
0.0000001
 43
0.0000001
 44
0.0000000001
 40
0.0
 40
0.0
 40
0.0
 40
0.0
 40
0.1413468496
 40
0.2808650192
 40
0.4144885796
 40
0.5415793307
 40
0.7788804785
 40
1.0
 40
1.0
 40
1.0
 40
1.0
 10
7.410423584
 20
6.0016527184
 30
0.0
 10
7.410423584
 20
6.0022678075
 30
0.0
 10
7.4103056382
 20
6.0034922079
 30
0.0
 10
7.4098301302
 20
6.005240372
 30
0.0
 10
7.4090866188
 20
6.006825979
 30
0.0
 10
7.4078313388
 20
6.0086035556
 30
0.0
 10
7.4058735067
 20
6.0103042792
 30
0.0
 10
7.4040067047
 20
6.0111002198
 30
0.0
 10
7.4030752654
 20
6.0113416896
 30
0.0
  0
SPLINE
  5
507
100
AcDbEntity
  8
0
100
AcDbSpline
 62
7
  6
CONTINUOUS
 70
0
 71
3
 72
12
 73
8
 74
0
 42
0.0000001
 43
0.0000001
 44
0.0000000001
 40
0.0
 40
0.0
 40
0.0
 40
0.0
 40
0.1858203229
 40
0.4102745408
 40
0.6845452177
 40
0.8399312873
 40
1.0
 40
1.0
 40
1.0
 40
1.0
 10
7.4030752654
 20
6.0113416896
 30
0.0
 10
7.402409268
 20
6.0110886892
 30
0.0
 10
7.4010560594
 20
6.0102041181
 30
0.0
 10
7.3994502713
 20
6.008079194
 30
0.0
 10
7.3985483959
 20
6.0057042162
 30
0.0
 10
7.3981397267
 20
6.0034772006
 30
0.0
 10
7.3980605366
 20
6.0022664205
 30
0.0
 10
7.3980605366
 20
6.0016527184
 30
0.0
  0
SPLINE
  5
508
100
AcDbEntity
  8
0
100
AcDbSpline
 62
7
  6
CONTINUOUS
 70
0
 71
3
 72
14
 73
10
 74
0
 42
0.0000001
 43
0.0000001
 44
0.0000000001
 40
0.0
 40
0.0
 40
0.0
 40
0.0
 40
0.1438600498
 40
0.285461384
 40
0.4203776331
 40
0.547795387
 40
0.6687478309
 40
0.7837505085
 40
1.0
 40
1.0
 40
1.0
 40
1.0
 10
7.3952224253
 20
6.0016527184
 30
0.0
 10
7.3952224253
 20
6.0022675672
 30
0.0
 10
7.3951103826
 20
6.0034895901
 30
0.0
 10
7.3946581907
 20
6.0052360428
 30
0.0
 10
7.3939511708
 20
6.0068204835
 30
0.0
 10
7.393033014
 20
6.0081863283
 30
0.0
 10
7.3919631796
 20
6.0093219532
 30
0.0
 10
7.3904285016
 20
6.010505844
 30
0.0
 10
7.3891103255
 20
6.0110991184
 30
0.0
 10
7.3882184888
 20
6.0113416896
 30
0.0
  0
SPLINE
  5
509
100
AcDbEntity
  8
0
100
AcDbSpline
 62
7
  6
CONTINUOUS
 70
0
 71
3
 72
12
 73
8
 74
0
 42
0.0000001
 43
0.0000001
 44
0.0000000001
 40
0.0
 40
0.0
 40
0.0
 40
0.0
 40
0.192964326
 40
0.4197787338
 40
0.6911153181
 40
0.8434690234
 40
1.0
 40
1.0
 40
1.0
 40
1.0
 10
7.3882184888
 20
6.0113416896
 30
0.0
 10
7.3875041381
 20
6.0110917484
 30
0.0
 10
7.3860533529
 20
6.0102274875
 30
0.0
 10
7.384297642
 20
6.0081068032
 30
0.0
 10
7.3833059062
 20
6.0057151909
 30
0.0
 10
7.3828601128
 20
6.0034796149
 30
0.0
 10
7.3827738413
 20
6.0022666393
 30
0.0
 10
7.3827738413
 20
6.0016527184
 30
0.0
  0
SPLINE
  5
50A
100
AcDbEntity
  8
0
100
AcDbSpline
 62
7
  6
CONTINUOUS
 70
0
 71
3
 72
13
 73
9
 74
0
 42
0.0000001
 43
0.0000001
 44
0.0000000001
 40
0.0
 40
0.0
 40
0.0
 40
0.0
 40
0.1467911737
 40
0.2908687141
 40
0.4274137923
 40
0.5554146107
 40
0.7887569506
 40
1.0
 40
1.0
 40
1.0
 40
1.0
 10
7.3799200645
 20
6.0016527184
 30
0.0
 10
7.3799200645
 20
6.002267326
 30
0.0
 10
7.3798141671
 20
6.0034869928
 30
0.0
 10
7.379386574
 20
6.0052314754
 30
0.0
 10
7.3787175031
 20
6.0068151672
 30
0.0
 10
7.3775942893
 20
6.0085802504
 30
0.0
 10
7.3758439567
 20
6.0102807909
 30
0.0
 10
7.3741298782
 20
6.0110977901
 30
0.0
 10
7.3732797073
 20
6.0113416896
 30
0.0
  0
SPLINE
  5
50B
100
AcDbEntity
  8
0
100
AcDbSpline
 62
7
  6
CONTINUOUS
 70
0
 71
3
 72
11
 73
7
 74
0
 42
0.0000001
 43
0.0000001
 44
0.0000000001
 40
0.0
 40
0.0
 40
0.0
 40
0.0
 40
0.2036468738
 40
0.4333384858
 40
0.6981315309
 40
1.0
 40
1.0
 40
1.0
 40
1.0
 10
7.3732797073
 20
6.0113416896
 30
0.0
 10
7.3725980643
 20
6.0111200834
 30
0.0
 10
7.3712200541
 20
6.0104000225
 30
0.0
 10
7.3694640974
 20
6.0086337008
 30
0.0
 10
7.3680974708
 20
6.0061469336
 30
0.0
 10
7.3676319848
 20
6.0041804024
 30
0.0
 10
7.3675077264
 20
6.0031252291
 30
0.0
  0
SPLINE
  5
50C
100
AcDbEntity
  8
0
100
AcDbSpline
 62
7
  6
CONTINUOUS
 70
0
 71
3
 72
13
 73
9
 74
0
 42
0.0000001
 43
0.0000001
 44
0.0000000001
 40
0.0
 40
0.0
 40
0.0
 40
0.0
 40
0.1497861882
 40
0.2963925422
 40
0.4345954913
 40
0.5631610638
 40
0.7943823282
 40
1.0
 40
1.0
 40
1.0
 40
1.0
 10
7.3645498671
 20
6.0016527383
 30
0.0
 10
7.3645498671
 20
6.0022665494
 30
0.0
 10
7.3644505618
 20
6.0034827654
 30
0.0
 10
7.3640492428
 20
6.0052238705
 30
0.0
 10
7.3634211367
 20
6.0068053147
 30
0.0
 10
7.3623700303
 20
6.0085623295
 30
0.0
 10
7.3607346658
 20
6.0102612384
 30
0.0
 10
7.3591056495
 20
6.0110926608
 30
0.0
 10
7.3582998671
 20
6.0113390263
 30
0.0
  0
SPLINE
  5
50D
100
AcDbEntity
  8
0
100
AcDbSpline
 62
7
  6
CONTINUOUS
 70
0
 71
3
 72
24
 73
20
 74
0
 42
0.0000001
 43
0.0000001
 44
0.0000000001
 40
0.0
 40
0.0
 40
0.0
 40
0.0
 40
0.0115135769
 40
0.027087571
 40
0.0697851883
 40
0.1265366444
 40
0.1953365604
 40
0.2736489772
 40
0.358854354
 40
0.5387213107
 40
0.6275403615
 40
0.7119382552
 40
0.7894107926
 40
0.8574945896
 40
0.9140962292
 40
0.9574249319
 40
0.9859451267
 40
0.9945994903
 40
1.0
 40
1.0
 40
1.0
 40
1.0
 10
7.4945011069
 20
5.7336042454
 30
0.0
 10
7.4945807736
 20
5.7335870293
 30
0.0
 10
7.4947722395
 20
5.7335667392
 30
0.0
 10
7.4952661957
 20
5.733556783
 30
0.0
 10
7.4960800231
 20
5.7336085192
 30
0.0
 10
7.4972636355
 20
5.7337412358
 30
0.0
 10
7.4986916668
 20
5.7339519312
 30
0.0
 10
7.500312562
 20
5.734230655
 30
0.0
 10
7.5026995628
 20
5.7346910012
 30
0.0
 10
7.5051469253
 20
5.7352288399
 30
0.0
 10
7.5075748476
 20
5.7358231903
 30
0.0
 10
7.5092910018
 20
5.7362753327
 30
0.0
 10
7.5108571475
 20
5.7367202854
 30
0.0
 10
7.5122236458
 20
5.7371445804
 30
0.0
 10
7.5133490626
 20
5.737533892
 30
0.0
 10
7.5141903714
 20
5.7378727206
 30
0.0
 10
7.5147057448
 20
5.7381309823
 30
0.0
 10
7.5149410702
 20
5.7383155212
 30
0.0
 10
7.5150011335
 20
5.7384040255
 30
0.0
 10
7.5150048293
 20
5.7384420772
 30
0.0
  0
SPLINE
  5
50E
100
AcDbEntity
  8
0
100
AcDbSpline
 62
7
  6
CONTINUOUS
 70
0
 71
3
 72
18
 73
14
 74
0
 42
0.0000001
 43
0.0000001
 44
0.0000000001
 40
0.0
 40
0.0
 40
0.0
 40
0.0
 40
0.0529801938
 40
0.1161361845
 40
0.2650271142
 40
0.4306004837
 40
0.5967136739
 40
0.7480999835
 40
0.8711493117
 40
0.9189008483
 40
0.9561385095
 40
0.9827079857
 40
1.0
 40
1.0
 40
1.0
 40
1.0
 10
7.4617573688
 20
5.7336042454
 30
0.0
 10
7.462105017
 20
5.7335767558
 30
0.0
 10
7.4628698859
 20
5.7335528584
 30
0.0
 10
7.4646143517
 20
5.7335928756
 30
0.0
 10
7.4670930491
 20
5.7338086555
 30
0.0
 10
7.470224942
 20
5.734261609
 30
0.0
 10
7.4733458789
 20
5.7348794588
 30
0.0
 10
7.4761567151
 20
5.7355960284
 30
0.0
 10
7.4781745653
 20
5.7362625867
 30
0.0
 10
7.4794293163
 20
5.7368115489
 30
0.0
 10
7.4800725224
 20
5.7371739481
 30
0.0
 10
7.4804935413
 20
5.7374978798
 30
0.0
 10
7.4806582676
 20
5.7377625979
 30
0.0
 10
7.4806651284
 20
5.7378762127
 30
0.0
  0
SPLINE
  5
50F
100
AcDbEntity
  8
0
100
AcDbSpline
 62
7
  6
CONTINUOUS
 70
0
 71
3
 72
17
 73
13
 74
0
 42
0.0000001
 43
0.0000001
 44
0.0000000001
 40
0.0
 40
0.0
 40
0.0
 40
0.0
 40
0.1501634671
 40
0.3147153952
 40
0.4803479104
 40
0.6358756352
 40
0.7714334666
 40
0.829318667
 40
0.8794495206
 40
0.9213267796
 40
0.9549552942
 40
1.0
 40
1.0
 40
1.0
 40
1.0
 10
7.413263164
 20
5.7336042454
 30
0.0
 10
7.4141041551
 20
5.7335593693
 30
0.0
 10
7.4158711873
 20
5.7335478899
 30
0.0
 10
7.4185624083
 20
5.7336971938
 30
0.0
 10
7.4212701866
 20
5.7340101906
 30
0.0
 10
7.423794129
 20
5.7344566981
 30
0.0
 10
7.4256943092
 20
5.7349356928
 30
0.0
 10
7.4269899882
 20
5.73537292
 30
0.0
 10
7.4277666165
 20
5.7356925645
 30
0.0
 10
7.4283957929
 20
5.7360234378
 30
0.0
 10
7.428940278
 20
5.736400641
 30
0.0
 10
7.4292627406
 20
5.7367854875
 30
0.0
 10
7.4292766318
 20
5.7370377372
 30
0.0
  0
SPLINE
  5
510
100
AcDbEntity
  8
0
100
AcDbSpline
 62
7
  6
CONTINUOUS
 70
0
 71
3
 72
13
 73
9
 74
0
 42
0.0000001
 43
0.0000001
 44
0.0000000001
 40
0.0
 40
0.0
 40
0.0
 40
0.0
 40
0.3253183497
 40
0.6255942309
 40
0.7522492774
 40
0.8578043359
 40
0.9403253203
 40
1.0
 40
1.0
 40
1.0
 40
1.0
 10
7.3564012954
 20
5.7336042454
 30
0.0
 10
7.3577468993
 20
5.7335430287
 30
0.0
 10
7.3603409916
 20
5.7335559115
 30
0.0
 10
7.3634488019
 20
5.7338523813
 30
0.0
 10
7.3656131848
 20
5.734279363
 30
0.0
 10
7.3668680853
 20
5.734644453
 30
0.0
 10
7.3678090575
 20
5.7350535131
 30
0.0
 10
7.3683002219
 20
5.7354032592
 30
0.0
 10
7.368457603
 20
5.735593739
 30
0.0
  0
LINE
  5
511
100
AcDbEntity
  8
0
100
AcDbLine
 62
7
  6
CONTINUOUS
 10
7.368457603
 20
5.735593739
 11
7.3686604235
 21
5.7360600329
  0
LINE
  5
512
100
AcDbEntity
  8
0
100
AcDbLine
 62
7
  6
CONTINUOUS
 10
7.2998284672
 20
5.7336042454
 11
7.3045214358
 21
5.7337003478
  0
SPLINE
  5
513
100
AcDbEntity
  8
0
100
AcDbSpline
 62
7
  6
CONTINUOUS
 70
0
 71
3
 72
13
 73
9
 74
0
 42
0.0000001
 43
0.0000001
 44
0.0000000001
 40
0.0
 40
0.0
 40
0.0
 40
0.0
 40
0.3760212681
 40
0.6655244933
 40
0.7766406008
 40
0.8662666874
 40
0.9382508325
 40
1.0
 40
1.0
 40
1.0
 40
1.0
 10
7.3045214358
 20
5.7337003478
 30
0.0
 10
7.3050166888
 20
5.7337523028
 30
0.0
 10
7.3058898669
 20
5.7338768483
 30
0.0
 10
7.3068908529
 20
5.7341365674
 30
0.0
 10
7.3074836247
 20
5.7344062635
 30
0.0
 10
7.3077842096
 20
5.7346108177
 30
0.0
 10
7.3079818381
 20
5.7348376787
 30
0.0
 10
7.3080378046
 20
5.7350129834
 30
0.0
 10
7.3080429713
 20
5.7350945953
 30
0.0
  0
SPLINE
  5
514
100
AcDbEntity
  8
0
100
AcDbSpline
 62
7
  6
CONTINUOUS
 70
0
 71
3
 72
13
 73
9
 74
0
 42
0.0000001
 43
0.0000001
 44
0.0000000001
 40
0.0
 40
0.0
 40
0.0
 40
0.0
 40
0.3931425897
 40
0.6959739951
 40
0.8079004381
 40
0.8930265268
 40
0.9542383376
 40
1.0
 40
1.0
 40
1.0
 40
1.0
 10
7.2521573795
 20
5.7336042454
 30
0.0
 10
7.2527744753
 20
5.733570779
 30
0.0
 10
7.253868658
 20
5.7335434901
 30
0.0
 10
7.2551402183
 20
5.7336132524
 30
0.0
 10
7.2559143094
 20
5.7337599105
 30
0.0
 10
7.2562992663
 20
5.7338920788
 30
0.0
 10
7.2565619017
 20
5.7340530605
 30
0.0
 10
7.256646624
 20
5.7342141539
 30
0.0
 10
7.2566521534
 20
5.7342858764
 30
0.0
  0
SPLINE
  5
515
100
AcDbEntity
  8
0
100
AcDbSpline
 62
7
  6
CONTINUOUS
 70
0
 71
3
 72
13
 73
9
 74
0
 42
0.0000001
 43
0.0000001
 44
0.0000000001
 40
0.0
 40
0.0
 40
0.0
 40
0.0
 40
0.4123085863
 40
0.5776873833
 40
0.7152565809
 40
0.8248379093
 40
0.9068644837
 40
1.0
 40
1.0
 40
1.0
 40
1.0
 10
7.2206455235
 20
5.7336042454
 30
0.0
 10
7.2208809609
 20
5.733584941
 30
0.0
 10
7.2212113458
 20
5.733563814
 30
0.0
 10
7.2216217294
 20
5.73356216
 30
0.0
 10
7.2218569641
 20
5.7335722493
 30
0.0
 10
7.2220471401
 20
5.7335973177
 30
0.0
 10
7.2221985756
 20
5.7336302228
 30
0.0
 10
7.2223073684
 20
5.733698042
 30
0.0
 10
7.2223105376
 20
5.7337513088
 30
0.0
  0
LINE
  5
516
100
AcDbEntity
  8
0
100
AcDbLine
 62
7
  6
CONTINUOUS
 10
7.4367932551
 20
5.7248957466
 11
7.4370946502
 21
5.725175869
  0
SPLINE
  5
517
100
AcDbEntity
  8
0
100
AcDbSpline
 62
7
  6
CONTINUOUS
 70
0
 71
3
 72
17
 73
13
 74
0
 42
0.0000001
 43
0.0000001
 44
0.0000000001
 40
0.0
 40
0.0
 40
0.0
 40
0.0
 40
0.1067958023
 40
0.2455476112
 40
0.4035269137
 40
0.5666861136
 40
0.7202729156
 40
0.8498431189
 40
0.9023142745
 40
0.94515367
 40
0.9776863316
 40
1.0
 40
1.0
 40
1.0
 40
1.0
 10
7.3499681539
 20
5.7233927618
 30
0.0
 10
7.3505978914
 20
5.7232418343
 30
0.0
 10
7.3520726965
 20
5.723013121
 30
0.0
 10
7.3545101582
 20
5.7227957142
 30
0.0
 10
7.3572982434
 20
5.722693152
 30
0.0
 10
7.3601776203
 20
5.722712
 30
0.0
 10
7.3628811131
 20
5.722850208
 30
0.0
 10
7.3649071111
 20
5.7230657148
 30
0.0
 10
7.3662502255
 20
5.7233017538
 30
0.0
 10
7.367005758
 20
5.7234824352
 30
0.0
 10
7.3675650491
 20
5.7236746404
 30
0.0
 10
7.3678639793
 20
5.7238344685
 30
0.0
 10
7.3679641242
 20
5.72392545
 30
0.0
  0
SPLINE
  5
518
100
AcDbEntity
  8
0
100
AcDbSpline
 62
7
  6
CONTINUOUS
 70
0
 71
3
 72
19
 73
15
 74
0
 42
0.0000001
 43
0.0000001
 44
0.0000000001
 40
0.0
 40
0.0
 40
0.0
 40
0.0
 40
0.1787086203
 40
0.3590147028
 40
0.5303315478
 40
0.6840148949
 40
0.8127137584
 40
0.8656783458
 40
0.9102641412
 40
0.9459560413
 40
0.9723536516
 40
0.9820766102
 40
0.9896655109
 40
1.0
 40
1.0
 40
1.0
 40
1.0
 10
7.2870430814
 20
5.7233927618
 30
0.0
 10
7.2877618618
 20
5.7232997224
 30
0.0
 10
7.2892082727
 20
5.7231312274
 30
0.0
 10
7.2913497885
 20
5.7229295211
 30
0.0
 10
7.2933943871
 20
5.7227864498
 30
0.0
 10
7.2952330115
 20
5.7227094358
 30
0.0
 10
7.2965936171
 20
5.7227000017
 30
0.0
 10
7.2975106687
 20
5.7227349443
 30
0.0
 10
7.298049728
 20
5.7227759277
 30
0.0
 10
7.2984787387
 20
5.7228335391
 30
0.0
 10
7.2987639231
 20
5.7228959913
 30
0.0
 10
7.298929866
 20
5.7229619209
 30
0.0
 10
7.2990262541
 20
5.7230159427
 30
0.0
 10
7.2990783624
 20
5.723081839
 30
0.0
 10
7.2990798571
 20
5.7231237253
 30
0.0
  0
SPLINE
  5
519
100
AcDbEntity
  8
0
100
AcDbSpline
 62
7
  6
CONTINUOUS
 70
0
 71
3
 72
26
 73
22
 74
0
 42
0.0000001
 43
0.0000001
 44
0.0000000001
 40
0.0
 40
0.0
 40
0.0
 40
0.0
 40
0.0030802888
 40
0.0062873209
 40
0.0135547179
 40
0.022524565
 40
0.0335119637
 40
0.0466412833
 40
0.0619460051
 40
0.0794141409
 40
0.099009232
 40
0.1443495124
 40
0.1974016371
 40
0.2575098705
 40
0.3239864533
 40
0.3961283826
 40
0.4732302243
 40
0.5545826177
 40
0.6394726635
 40
0.8169898549
 40
1.0
 40
1.0
 40
1.0
 40
1.0
 10
7.6140498671
 20
6.1185573688
 30
0.0
 10
7.6140498697
 20
6.1182895664
 30
0.0
 10
7.6139856764
 20
6.1177410456
 30
0.0
 10
7.6135901909
 20
6.1166221673
 30
0.0
 10
7.6125643647
 20
6.1152378226
 30
0.0
 10
7.6107269598
 20
6.1137280823
 30
0.0
 10
7.6082460546
 20
6.1122564784
 30
0.0
 10
7.605129778
 20
6.1108205108
 30
0.0
 10
7.6013909313
 20
6.1094176588
 30
0.0
 10
7.5970464946
 20
6.1080502381
 30
0.0
 10
7.5901274998
 20
6.1061857897
 30
0.0
 10
7.5800947564
 20
6.104020755
 30
0.0
 10
7.566511369
 20
6.1016866318
 30
0.0
 10
7.551041985
 20
6.0995237414
 30
0.0
 10
7.5338773046
 20
6.0975421986
 30
0.0
 10
7.51520699
 20
6.0957528078
 30
0.0
 10
7.4952209503
 20
6.0941658974
 30
0.0
 10
7.4741084928
 20
6.0927911499
 30
0.0
 10
7.4442618869
 20
6.09123088
 30
0.0
 10
7.4055563595
 20
6.0898998757
 30
0.0
 10
7.3742108854
 20
6.0895260903
 30
0.0
 10
7.358299859
 20
6.0895260909
 30
0.0
  0
SPLINE
  5
51A
100
AcDbEntity
  8
0
100
AcDbSpline
 62
7
  6
CONTINUOUS
 70
0
 71
3
 72
9
 73
5
 74
0
 42
0.0000001
 43
0.0000001
 44
0.0000000001
 40
0.0
 40
0.0
 40
0.0
 40
0.0
 40
0.5171004615
 40
1.0
 40
1.0
 40
1.0
 40
1.0
 10
4.7392513782
 20
6.5622047671
 30
0.0
 10
4.7394603554
 20
6.5629704684
 30
0.0
 10
4.7396957369
 20
6.5645047491
 30
0.0
 10
4.7395566427
 20
6.5660482314
 30
0.0
 10
4.7394106647
 20
6.5667749252
 30
0.0
  0
SPLINE
  5
51B
100
AcDbEntity
  8
0
100
AcDbSpline
 62
7
  6
CONTINUOUS
 70
0
 71
3
 72
22
 73
18
 74
0
 42
0.0000001
 43
0.0000001
 44
0.0000000001
 40
0.0
 40
0.0
 40
0.0
 40
0.0
 40
0.0122462672
 40
0.0232496775
 40
0.0379719056
 40
0.0563937501
 40
0.0783831396
 40
0.132407004
 40
0.198611394
 40
0.2748872555
 40
0.4471446372
 40
0.6271152498
 40
0.7918392317
 40
0.8621473598
 40
0.9213552707
 40
0.9677710349
 40
1.0
 40
1.0
 40
1.0
 40
1.0
 10
7.4175184466
 20
5.72312386
 30
0.0
 10
7.4175253255
 20
5.723044282
 30
0.0
 10
7.4176897368
 20
5.7229474055
 30
0.0
 10
7.4179141404
 20
5.7228798244
 30
0.0
 10
7.4182016501
 20
5.7228222444
 30
0.0
 10
7.4185568394
 20
5.7227777216
 30
0.0
 10
7.4191716886
 20
5.7227275261
 30
0.0
 10
7.4200988911
 20
5.7227001722
 30
0.0
 10
7.4213808759
 20
5.7227128338
 30
0.0
 10
7.4234322842
 20
5.7227933804
 30
0.0
 10
7.4262203219
 20
5.723001926
 30
0.0
 10
7.4295718589
 20
5.7233751425
 30
0.0
 10
7.4322504919
 20
5.723772319
 30
0.0
 10
7.4341363254
 20
5.7241287341
 30
0.0
 10
7.4352564806
 20
5.7243811075
 30
0.0
 10
7.4361217628
 20
5.7246237272
 30
0.0
 10
7.4366063326
 20
5.7247995799
 30
0.0
 10
7.4367932551
 20
5.7248957466
 30
0.0
  0
SPLINE
  5
51C
100
AcDbEntity
  8
0
100
AcDbSpline
 62
7
  6
CONTINUOUS
 70
0
 71
3
 72
16
 73
12
 74
0
 42
0.0000001
 43
0.0000001
 44
0.0000000001
 40
0.0
 40
0.0
 40
0.0
 40
0.0
 40
0.0461903449
 40
0.0775510459
 40
0.1154702881
 40
0.2113750182
 40
0.3332133892
 40
0.4780355434
 40
0.6412057437
 40
0.8176094174
 40
1.0
 40
1.0
 40
1.0
 40
1.0
 10
7.2873234351
 20
5.7370377582
 30
0.0
 10
7.2873324426
 20
5.7368616719
 30
0.0
 10
7.2874964942
 20
5.7365825772
 30
0.0
 10
7.2878210386
 20
5.7362894287
 30
0.0
 10
7.2883437886
 20
5.7359309335
 30
0.0
 10
7.2892276044
 20
5.7355093108
 30
0.0
 10
7.2905344783
 20
5.7350492011
 30
0.0
 10
7.292120783
 20
5.7346251228
 30
0.0
 10
7.293932159
 20
5.7342499026
 30
0.0
 10
7.2959015911
 20
5.7339433968
 30
0.0
 10
7.2972633362
 20
5.7337924415
 30
0.0
 10
7.2979568321
 20
5.7337309528
 30
0.0
  0
SPLINE
  5
51D
100
AcDbEntity
  8
0
100
AcDbSpline
 62
7
  6
CONTINUOUS
 70
0
 71
3
 72
18
 73
14
 74
0
 42
0.0000001
 43
0.0000001
 44
0.0000000001
 40
0.0
 40
0.0
 40
0.0
 40
0.0
 40
0.1786005343
 40
0.3503580782
 40
0.5087912556
 40
0.6488758077
 40
0.7669419083
 40
0.817561041
 40
0.8627178183
 40
0.9027352679
 40
0.9382031756
 40
0.9701161316
 40
1.0
 40
1.0
 40
1.0
 40
1.0
 10
7.4707998671
 20
7.0789386021
 30
0.0
 10
7.4747993243
 20
7.0789383783
 30
0.0
 10
7.4826476473
 20
7.0786637296
 30
0.0
 10
7.4939884144
 20
7.0774716484
 30
0.0
 10
7.5043547092
 20
7.0755422321
 30
0.0
 10
7.5133441204
 20
7.072996268
 30
0.0
 10
7.5197461581
 20
7.070308447
 30
0.0
 10
7.5238792508
 20
7.0678762351
 30
0.0
 10
7.5263275929
 20
7.0660609565
 30
0.0
 10
7.5282739741
 20
7.0641733775
 30
0.0
 10
7.5297031638
 20
7.0622207874
 30
0.0
 10
7.5305916649
 20
7.0602102511
 30
0.0
 10
7.5307995171
 20
7.058820127
 30
0.0
 10
7.5307997309
 20
7.0581509283
 30
0.0
  0
SPLINE
  5
51E
100
AcDbEntity
  8
0
100
AcDbSpline
 62
7
  6
CONTINUOUS
 70
0
 71
3
 72
18
 73
14
 74
0
 42
0.0000001
 43
0.0000001
 44
0.0000000001
 40
0.0
 40
0.0
 40
0.0
 40
0.0
 40
0.0298848062
 40
0.061798306
 40
0.097266463
 40
0.1372839673
 40
0.1824406787
 40
0.2330596697
 40
0.3511253369
 40
0.491209444
 40
0.6496432425
 40
0.8214024787
 40
1.0
 40
1.0
 40
1.0
 40
1.0
 10
7.1858000187
 20
7.0581509283
 30
0.0
 10
7.1858002365
 20
7.0588201482
 30
0.0
 10
7.1860080931
 20
7.0602103051
 30
0.0
 10
7.1868966064
 20
7.0622208797
 30
0.0
 10
7.1883258101
 20
7.0641734846
 30
0.0
 10
7.1902722035
 20
7.06606106
 30
0.0
 10
7.1927205544
 20
7.0678763226
 30
0.0
 10
7.196853651
 20
7.0703085017
 30
0.0
 10
7.2032556799
 20
7.0729962849
 30
0.0
 10
7.2122450856
 20
7.0755422523
 30
0.0
 10
7.2226114258
 20
7.0774716719
 30
0.0
 10
7.2339521816
 20
7.0786637338
 30
0.0
 10
7.2418004765
 20
7.0789383914
 30
0.0
 10
7.2457998672
 20
7.0789386097
 30
0.0
  0
SPLINE
  5
51F
100
AcDbEntity
  8
0
100
AcDbSpline
 62
7
  6
CONTINUOUS
 70
0
 71
3
 72
13
 73
9
 74
0
 42
0.0000001
 43
0.0000001
 44
0.0000000001
 40
0.0
 40
0.0
 40
0.0
 40
0.0
 40
0.231945732
 40
0.3589567787
 40
0.4897903208
 40
0.6220284023
 40
0.7528969449
 40
1.0
 40
1.0
 40
1.0
 40
1.0
 10
7.5307998671
 20
7.0581509277
 30
0.0
 10
7.5331417819
 20
7.0581509132
 30
0.0
 10
7.5368059404
 20
7.0575396657
 30
0.0
 10
7.5413164297
 20
7.0554615827
 30
0.0
 10
7.5445489443
 20
7.053163178
 30
0.0
 10
7.5472536807
 20
7.0502051593
 30
0.0
 10
7.5499144197
 20
7.0457628758
 30
0.0
 10
7.5507761477
 20
7.0418938294
 30
0.0
 10
7.55079901
 20
7.0393989786
 30
0.0
  0
SPLINE
  5
520
100
AcDbEntity
  8
0
100
AcDbSpline
 62
7
  6
CONTINUOUS
 70
0
 71
3
 72
11
 73
7
 74
0
 42
0.0000001
 43
0.0000001
 44
0.0000000001
 40
0.0
 40
0.0
 40
0.0
 40
0.0
 40
0.2434990196
 40
0.4908559607
 40
0.7435683064
 40
1.0
 40
1.0
 40
1.0
 40
1.0
 10
7.1657998671
 20
6.8254612305
 30
0.0
 10
7.1657998671
 20
6.8279262604
 30
0.0
 10
7.1668621811
 20
6.8329536746
 30
0.0
 10
7.1713550423
 20
6.8392382555
 30
0.0
 10
7.1779976122
 20
6.8434056243
 30
0.0
 10
7.183203915
 20
6.844371602
 30
0.0
 10
7.1857998671
 20
6.844371602
 30
0.0
  0
SPLINE
  5
521
100
AcDbEntity
  8
0
100
AcDbSpline
 62
7
  6
CONTINUOUS
 70
0
 71
3
 72
12
 73
8
 74
0
 42
0.0000001
 43
0.0000001
 44
0.0000000001
 40
0.0
 40
0.0
 40
0.0
 40
0.0
 40
0.1314822319
 40
0.2223941899
 40
0.3340023616
 40
0.6227690736
 40
1.0
 40
1.0
 40
1.0
 40
1.0
 10
7.3485139717
 20
5.7241424402
 30
0.0
 10
7.3485184292
 20
5.7240683026
 30
0.0
 10
7.3485963602
 20
5.7239524483
 30
0.0
 10
7.3487442368
 20
5.7238384248
 30
0.0
 10
7.3489861945
 20
5.7236991289
 30
0.0
 10
7.3493976878
 20
5.7235418193
 30
0.0
 10
7.3497609326
 20
5.723442426
 30
0.0
 10
7.3499681539
 20
5.7233927618
 30
0.0
  0
SPLINE
  5
522
100
AcDbEntity
  8
0
100
AcDbSpline
 62
7
  6
CONTINUOUS
 70
0
 71
3
 72
39
 73
35
 74
0
 42
0.0000001
 43
0.0000001
 44
0.0000000001
 40
0.0
 40
0.0
 40
0.0
 40
0.0
 40
0.0041577277
 40
0.0057441552
 40
0.0075852545
 40
0.0120622371
 40
0.0176279377
 40
0.0242950149
 40
0.0320658427
 40
0.040937658
 40
0.0619317659
 40
0.0870787358
 40
0.1161374257
 40
0.1488606345
 40
0.2241175839
 40
0.3099355795
 40
0.4031041389
 40
0.5000000409
 40
0.596895948
 40
0.6900645065
 40
0.7758824779
 40
0.8511393918
 40
0.8838625842
 40
0.91292126
 40
0.9380682186
 40
0.9590623181
 40
0.9679341304
 40
0.9757049563
 40
0.9823720328
 40
0.9879377344
 40
0.9924147201
 40
0.9942558218
 40
0.9958422525
 40
1.0
 40
1.0
 40
1.0
 40
1.0
 10
7.5307998685
 20
6.7898470641
 30
0.0
 10
7.5307997322
 20
6.789364935
 30
0.0
 10
7.530211021
 20
6.7888001419
 30
0.0
 10
7.5294801175
 20
6.7883516551
 30
0.0
 10
7.5286572995
 20
6.7879319345
 30
0.0
 10
7.5273739006
 20
6.7874330189
 30
0.0
 10
7.5255190387
 20
6.7868644923
 30
0.0
 10
7.5232682723
 20
6.7863021727
 30
0.0
 10
7.5206225795
 20
6.7857456344
 30
0.0
 10
7.516327034
 20
6.7849714222
 30
0.0
 10
7.5100113707
 20
6.7840605561
 30
0.0
 10
7.5013476866
 20
6.7830641446
 30
0.0
 10
7.4913104833
 20
6.7821264431
 30
0.0
 10
7.4754653721
 20
6.7809126222
 30
0.0
 10
7.4530249386
 20
6.7796652069
 30
0.0
 10
7.4235615736
 20
6.7785829749
 30
0.0
 10
7.391575955
 20
6.7779192633
 30
0.0
 10
7.3582998536
 20
6.7776910494
 30
0.0
 10
7.3250237524
 20
6.7779192639
 30
0.0
 10
7.2930381362
 20
6.7785829758
 30
0.0
 10
7.2635747782
 20
6.7796652077
 30
0.0
 10
7.2411343535
 20
6.7809126228
 30
0.0
 10
7.2252892499
 20
6.7821264436
 30
0.0
 10
7.2152520515
 20
6.7830641449
 30
0.0
 10
7.2065883712
 20
6.7840605558
 30
0.0
 10
7.2002727105
 20
6.7849714208
 30
0.0
 10
7.1959771664
 20
6.7857456317
 30
0.0
 10
7.193331474
 20
6.786302169
 30
0.0
 10
7.1910807075
 20
6.7868644879
 30
0.0
 10
7.1892258451
 20
6.787433014
 30
0.0
 10
7.1879424454
 20
6.7879319297
 30
0.0
 10
7.1871196265
 20
6.7883516505
 30
0.0
 10
7.1863887201
 20
6.7888001388
 30
0.0
 10
7.1858000079
 20
6.7893649327
 30
0.0
 10
7.1857998685
 20
6.7898470641
 30
0.0
  0
SPLINE
  5
523
100
AcDbEntity
  8
0
100
AcDbSpline
 62
7
  6
CONTINUOUS
 70
0
 71
3
 72
11
 73
7
 74
0
 42
0.0000001
 43
0.0000001
 44
0.0000000001
 40
0.0
 40
0.0
 40
0.0
 40
0.0
 40
0.2564316936
 40
0.5091440393
 40
0.7565009804
 40
1.0
 40
1.0
 40
1.0
 40
1.0
 10
7.5307998671
 20
6.844371602
 30
0.0
 10
7.5333958193
 20
6.844371602
 30
0.0
 10
7.538602122
 20
6.8434056243
 30
0.0
 10
7.545244692
 20
6.8392382555
 30
0.0
 10
7.5497375531
 20
6.8329536746
 30
0.0
 10
7.5507998671
 20
6.8279262604
 30
0.0
 10
7.5507998671
 20
6.8254612305
 30
0.0
  0
SPLINE
  5
524
100
AcDbEntity
  8
0
100
AcDbSpline
 62
7
  6
CONTINUOUS
 70
0
 71
3
 72
13
 73
9
 74
0
 42
0.0000001
 43
0.0000001
 44
0.0000000001
 40
0.0
 40
0.0
 40
0.0
 40
0.0
 40
0.125266837
 40
0.2503897534
 40
0.3754518134
 40
0.5005397751
 40
0.7503321752
 40
1.0
 40
1.0
 40
1.0
 40
1.0
 10
7.5501161258
 20
6.7775380159
 30
0.0
 10
7.5498343216
 20
6.7785899376
 30
0.0
 10
7.5490980354
 20
6.7806509152
 30
0.0
 10
7.5474994548
 20
6.783512607
 30
0.0
 10
7.5454592305
 20
6.7860778206
 30
0.0
 10
7.5422223977
 20
6.789003231
 30
0.0
 10
7.537343706
 20
6.7916085662
 30
0.0
 10
7.5329703692
 20
6.7923261273
 30
0.0
 10
7.5307998671
 20
6.7923261273
 30
0.0
  0
SPLINE
  5
525
100
AcDbEntity
  8
0
100
AcDbSpline
 62
7
  6
CONTINUOUS
 70
0
 71
3
 72
13
 73
9
 74
0
 42
0.0000001
 43
0.0000001
 44
0.0000000001
 40
0.0
 40
0.0
 40
0.0
 40
0.0
 40
0.2392035341
 40
0.3680876804
 40
0.4996047734
 40
0.6311884781
 40
0.7602533098
 40
1.0
 40
1.0
 40
1.0
 40
1.0
 10
7.5507998394
 20
6.7698957831
 30
0.0
 10
7.5507998394
 20
6.7723881163
 30
0.0
 10
7.5500611761
 20
6.7762751808
 30
0.0
 10
7.5476309949
 20
6.7809068962
 30
0.0
 10
7.545046099
 20
6.7841088305
 30
0.0
 10
7.5418363365
 20
6.7866869149
 30
0.0
 10
7.5371922993
 20
6.7891111446
 30
0.0
 10
7.5332978596
 20
6.7898470608
 30
0.0
 10
7.5307998671
 20
6.7898470641
 30
0.0
  0
SPLINE
  5
526
100
AcDbEntity
  8
0
100
AcDbSpline
 62
7
  6
CONTINUOUS
 70
0
 71
3
 72
13
 73
9
 74
0
 42
0.0000001
 43
0.0000001
 44
0.0000000001
 40
0.0
 40
0.0
 40
0.0
 40
0.0
 40
0.2397466958
 40
0.3688115277
 40
0.5003952317
 40
0.6319123231
 40
0.7607964677
 40
1.0
 40
1.0
 40
1.0
 40
1.0
 10
7.1857998671
 20
6.7898470641
 30
0.0
 10
7.1833018748
 20
6.7898470605
 30
0.0
 10
7.1794074355
 20
6.7891111438
 30
0.0
 10
7.1747633989
 20
6.7866869139
 30
0.0
 10
7.1715536371
 20
6.7841088294
 30
0.0
 10
7.1689687416
 20
6.7809068953
 30
0.0
 10
7.166538561
 20
6.7762751801
 30
0.0
 10
7.1657998978
 20
6.7723881161
 30
0.0
 10
7.1657998978
 20
6.7698957831
 30
0.0
  0
SPLINE
  5
527
100
AcDbEntity
  8
0
100
AcDbSpline
 62
7
  6
CONTINUOUS
 70
0
 71
3
 72
14
 73
10
 74
0
 42
0.0000001
 43
0.0000001
 44
0.0000000001
 40
0.0
 40
0.0
 40
0.0
 40
0.0
 40
0.0496614153
 40
0.1132641688
 40
0.1979663182
 40
0.3067339265
 40
0.4408606475
 40
0.6009550151
 40
1.0
 40
1.0
 40
1.0
 40
1.0
 10
7.5507998671
 20
6.7450524706
 30
0.0
 10
7.5507998559
 20
6.7449070702
 30
0.0
 10
7.5506855784
 20
6.7445757539
 30
0.0
 10
7.5502720457
 20
6.7441571691
 30
0.0
 10
7.5496377265
 20
6.7437468582
 30
0.0
 10
7.5487673532
 20
6.7433390668
 30
0.0
 10
7.5476593996
 20
6.7429309739
 30
0.0
 10
7.5457152628
 20
6.7423446851
 30
0.0
 10
7.5441177153
 20
6.7419789167
 30
0.0
 10
7.5429737041
 20
6.7417417438
 30
0.0
  0
SPLINE
  5
528
100
AcDbEntity
  8
0
100
AcDbSpline
 62
7
  6
CONTINUOUS
 70
0
 71
3
 72
14
 73
10
 74
0
 42
0.0000001
 43
0.0000001
 44
0.0000000001
 40
0.0
 40
0.0
 40
0.0
 40
0.0
 40
0.0659848845
 40
0.1511455542
 40
0.2546403431
 40
0.3753655048
 40
0.5118867011
 40
0.6627059957
 40
1.0
 40
1.0
 40
1.0
 40
1.0
 10
7.5429737041
 20
6.7417417438
 30
0.0
 10
7.5406687128
 20
6.7412638801
 30
0.0
 10
7.5353435103
 20
6.7403932421
 30
0.0
 10
7.5263267256
 20
6.7392827388
 30
0.0
 10
7.5153386819
 20
6.7382299016
 30
0.0
 10
7.5025062654
 20
6.7372486861
 30
0.0
 10
7.4879757085
 20
6.7363523907
 30
0.0
 10
7.4657189328
 20
6.7352484251
 30
0.0
 10
7.4483144653
 20
6.7346528641
 30
0.0
 10
7.4362859142
 20
6.7343281537
 30
0.0
  0
SPLINE
  5
529
100
AcDbEntity
  8
0
100
AcDbSpline
 62
7
  6
CONTINUOUS
 70
0
 71
3
 72
24
 73
20
 74
0
 42
0.0000001
 43
0.0000001
 44
0.0000000001
 40
0.0
 40
0.0
 40
0.0
 40
0.0
 40
0.2121253764
 40
0.4056427208
 40
0.576581868
 40
0.6525380627
 40
0.7216273016
 40
0.7834857713
 40
0.8378532199
 40
0.8845012145
 40
0.9232166531
 40
0.9395464246
 40
0.9538509093
 40
0.9661402677
 40
0.9764371233
 40
0.9847883808
 40
0.9912936485
 40
0.996181029
 40
1.0
 40
1.0
 40
1.0
 40
1.0
 10
7.2784554769
 20
6.7343790424
 30
0.0
 10
7.2704012963
 20
6.7346027461
 30
0.0
 10
7.2550014265
 20
6.7351081858
 30
0.0
 10
7.2331222315
 20
6.7360897339
 30
0.0
 10
7.2164225623
 20
6.7370871214
 30
0.0
 10
7.2044538044
 20
6.7379858304
 30
0.0
 10
7.1966242218
 20
6.7386673526
 30
0.0
 10
7.1896211585
 20
6.7393799448
 30
0.0
 10
7.1834783874
 20
6.7401186932
 30
0.0
 10
7.1782251573
 20
6.7408792438
 30
0.0
 10
7.1744212796
 20
6.7415583527
 30
0.0
 10
7.1718485523
 20
6.7421256308
 30
0.0
 10
7.1702686347
 20
6.7425296563
 30
0.0
 10
7.1689268173
 20
6.742935578
 30
0.0
 10
7.1678236113
 20
6.7433427291
 30
0.0
 10
7.166956966
 20
6.7437496763
 30
0.0
 10
7.1663253272
 20
6.7441591199
 30
0.0
 10
7.1659135876
 20
6.7445768842
 30
0.0
 10
7.1657998904
 20
6.7449073044
 30
0.0
 10
7.1657998671
 20
6.7450523627
 30
0.0
  0
SPLINE
  5
52A
100
AcDbEntity
  8
0
100
AcDbSpline
 62
7
  6
CONTINUOUS
 70
0
 71
3
 72
14
 73
10
 74
0
 42
0.0000001
 43
0.0000001
 44
0.0000000001
 40
0.0
 40
0.0
 40
0.0
 40
0.0
 40
0.0496615422
 40
0.1132658351
 40
0.1979698089
 40
0.3067388679
 40
0.4408662563
 40
0.6009601974
 40
1.0
 40
1.0
 40
1.0
 40
1.0
 10
7.1657998671
 20
6.7698957848
 30
0.0
 10
7.1657998903
 20
6.7697503858
 30
0.0
 10
7.1659141968
 20
6.7694190798
 30
0.0
 10
7.1663277499
 20
6.7690005144
 30
0.0
 10
7.1669620843
 20
6.7685902177
 30
0.0
 10
7.1678324637
 20
6.7681824404
 30
0.0
 10
7.1689404125
 20
6.7677743612
 30
0.0
 10
7.1708845153
 20
6.7671880945
 30
0.0
 10
7.1724820278
 20
6.7668223364
 30
0.0
 10
7.1736260106
 20
6.7665851701
 30
0.0
  0
SPLINE
  5
52B
100
AcDbEntity
  8
0
100
AcDbSpline
 62
7
  6
CONTINUOUS
 70
0
 71
3
 72
34
 73
30
 74
0
 42
0.0000001
 43
0.0000001
 44
0.0000000001
 40
0.0
 40
0.0
 40
0.0
 40
0.0
 40
0.0149352047
 40
0.0335634251
 40
0.0557561319
 40
0.0813693465
 40
0.110200634
 40
0.142020276
 40
0.2136517966
 40
0.2940090373
 40
0.3805676437
 40
0.4705644852
 40
0.5611351692
 40
0.6493839597
 40
0.7325034576
 40
0.8078627828
 40
0.8730798754
 40
0.9012489325
 40
0.9261524661
 40
0.9476017535
 40
0.9654584026
 40
0.9730000928
 40
0.9795982621
 40
0.9852465791
 40
0.9899489805
 40
0.9937178833
 40
0.9952616486
 40
0.9965868725
 40
1.0
 40
1.0
 40
1.0
 40
1.0
 10
7.1736260106
 20
6.7665851701
 30
0.0
 10
7.1754724759
 20
6.7662023676
 30
0.0
 10
7.1796516822
 20
6.7654872169
 30
0.0
 10
7.1866301494
 20
6.7645551486
 30
0.0
 10
7.1949709483
 20
6.7636587976
 30
0.0
 10
7.2046100968
 20
6.7628076983
 30
0.0
 10
7.2154728716
 20
6.7620090481
 30
0.0
 10
7.2321436964
 20
6.7609829535
 30
0.0
 10
7.2553281899
 20
6.7599143027
 30
0.0
 10
7.2854334094
 20
6.7589726079
 30
0.0
 10
7.3178664654
 20
6.758365127
 30
0.0
 10
7.3515936862
 20
6.758111935
 30
0.0
 10
7.3855350964
 20
6.7582218324
 30
0.0
 10
7.4186050207
 20
6.7586923567
 30
0.0
 10
7.4497472966
 20
6.759504879
 30
0.0
 10
7.477969718
 20
6.7606315487
 30
0.0
 10
7.499242739
 20
6.7618471023
 30
0.0
 10
7.5141351879
 20
6.7629836468
 30
0.0
 10
7.5235054038
 20
6.7638449921
 30
0.0
 10
7.5315623715
 20
6.7647503258
 30
0.0
 10
7.5374216404
 20
6.7655708267
 30
0.0
 10
7.5414021632
 20
6.7662628068
 30
0.0
 10
7.5438514899
 20
6.7667586413
 30
0.0
 10
7.5459324327
 20
6.767258692
 30
0.0
 10
7.5476446706
 20
6.767763194
 30
0.0
 10
7.5488279159
 20
6.7682050474
 30
0.0
 10
7.5495867982
 20
6.7685767839
 30
0.0
 10
7.5502512888
 20
6.7689688566
 30
0.0
 10
7.5507998337
 20
6.7694649499
 30
0.0
 10
7.5507998671
 20
6.7698958936
 30
0.0
  0
SPLINE
  5
52C
100
AcDbEntity
  8
0
100
AcDbSpline
 62
7
  6
CONTINUOUS
 70
0
 71
3
 72
14
 73
10
 74
0
 42
0.0000001
 43
0.0000001
 44
0.0000000001
 40
0.0
 40
0.0
 40
0.0
 40
0.0
 40
0.0561283462
 40
0.1247163975
 40
0.2134105215
 40
0.3256722581
 40
0.4623309701
 40
0.6218041892
 40
1.0
 40
1.0
 40
1.0
 40
1.0
 10
7.4085607273
 20
5.735094931
 30
0.0
 10
7.408567
 20
5.7349986505
 30
0.0
 10
7.4086468276
 20
5.7347879022
 30
0.0
 10
7.4089172621
 20
5.7345303238
 30
0.0
 10
7.4093228454
 20
5.7343011817
 30
0.0
 10
7.4098685882
 20
5.7340988571
 30
0.0
 10
7.4105495371
 20
5.7339247946
 30
0.0
 10
7.4116913701
 20
5.7337210347
 30
0.0
 10
7.412613969
 20
5.7336388871
 30
0.0
 10
7.413263164
 20
5.7336042454
 30
0.0
  0
SPLINE
  5
52D
100
AcDbEntity
  8
0
100
AcDbSpline
 62
7
  6
CONTINUOUS
 70
0
 71
3
 72
13
 73
9
 74
0
 42
0.0000001
 43
0.0000001
 44
0.0000000001
 40
0.0
 40
0.0
 40
0.0
 40
0.0
 40
0.1618507647
 40
0.2629006393
 40
0.3799208941
 40
0.6639874911
 40
0.8289103761
 40
1.0
 40
1.0
 40
1.0
 40
1.0
 10
7.2698483744
 20
6.0113390263
 30
0.0
 10
7.2703614879
 20
6.0110698309
 30
0.0
 10
7.2710727364
 20
6.0104021398
 30
0.0
 10
7.2718234679
 20
6.0092685943
 30
0.0
 10
7.2726078416
 20
6.0076440594
 30
0.0
 10
7.2731398453
 20
6.0056703107
 30
0.0
 10
7.2734338555
 20
6.0034690952
 30
0.0
 10
7.2734907769
 20
6.0022652352
 30
0.0
 10
7.2734907769
 20
6.0016527184
 30
0.0
  0
LINE
  5
52E
100
AcDbEntity
  8
0
100
AcDbLine
 62
7
  6
CONTINUOUS
 10
4.7376943175
 20
6.2281397898
 11
4.7382911843
 21
6.2099141344
  0
LINE
  5
52F
100
AcDbEntity
  8
0
100
AcDbLine
 62
7
  6
CONTINUOUS
 10
4.7382911843
 20
6.2099141344
 11
4.7387155301
 21
6.2043983786
  0
LINE
  5
530
100
AcDbEntity
  8
0
100
AcDbLine
 62
7
  6
CONTINUOUS
 10
4.7387155301
 20
6.2043983786
 11
4.7389307103
 21
6.2037010561
  0
SPLINE
  5
531
100
AcDbEntity
  8
0
100
AcDbSpline
 62
7
  6
CONTINUOUS
 70
0
 71
3
 72
10
 73
6
 74
0
 42
0.0000001
 43
0.0000001
 44
0.0000000001
 40
0.0
 40
0.0
 40
0.0
 40
0.0
 40
0.4726569502
 40
0.7302036012
 40
1.0
 40
1.0
 40
1.0
 40
1.0
 10
4.7389307103
 20
6.2037010561
 30
0.0
 10
4.7392946643
 20
6.2046410066
 30
0.0
 10
4.7396388466
 20
6.2061916327
 30
0.0
 10
4.7396026224
 20
6.2083310764
 30
0.0
 10
4.7393859604
 20
6.2094418696
 30
0.0
 10
4.7392302749
 20
6.2099957533
 30
0.0
  0
SPLINE
  5
532
100
AcDbEntity
  8
0
100
AcDbSpline
 62
7
  6
CONTINUOUS
 70
0
 71
3
 72
19
 73
15
 74
0
 42
0.0000001
 43
0.0000001
 44
0.0000000001
 40
0.0
 40
0.0
 40
0.0
 40
0.0
 40
0.0055770795
 40
0.0180972257
 40
0.0382640871
 40
0.0661858532
 40
0.1018818402
 40
0.1453458911
 40
0.19656187
 40
0.2555089427
 40
0.3965003021
 40
0.5679953723
 40
0.7693806404
 40
1.0
 40
1.0
 40
1.0
 40
1.0
 10
4.7389307103
 20
6.5684232783
 30
0.0
 10
4.7388988067
 20
6.5684232474
 30
0.0
 10
4.7388354648
 20
6.568309191
 30
0.0
 10
4.7387854934
 20
6.5681159146
 30
0.0
 10
4.7387172228
 20
6.5677652221
 30
0.0
 10
4.7386547698
 20
6.5672943738
 30
0.0
 10
4.7385885048
 20
6.5666836597
 30
0.0
 10
4.7385231714
 20
6.5659412885
 30
0.0
 10
4.7384573998
 20
6.5650647096
 30
0.0
 10
4.7383644616
 20
6.5636310648
 30
0.0
 10
4.7382523515
 20
6.5615091301
 30
0.0
 10
4.7381256693
 20
6.5585722677
 30
0.0
 10
4.7380008023
 20
6.5551221912
 30
0.0
 10
4.7379242065
 20
6.5526520991
 30
0.0
 10
4.737885831
 20
6.5513334048
 30
0.0
  0
SPLINE
  5
533
100
AcDbEntity
  8
0
100
AcDbSpline
 62
7
  6
CONTINUOUS
 70
0
 71
3
 72
15
 73
11
 74
0
 42
0.0000001
 43
0.0000001
 44
0.0000000001
 40
0.0
 40
0.0
 40
0.0
 40
0.0
 40
0.0126186323
 40
0.0310862605
 40
0.0903772861
 40
0.1805966154
 40
0.2999045156
 40
0.4458428061
 40
0.6149336456
 40
1.0
 40
1.0
 40
1.0
 40
1.0
 10
7.2795067463
 20
5.7251758424
 30
0.0
 10
7.2795093281
 20
5.7251430129
 30
0.0
 10
7.2795518431
 20
5.7250674147
 30
0.0
 10
7.2797373191
 20
5.7249206913
 30
0.0
 10
7.2801427626
 20
5.724741116
 30
0.0
 10
7.2808089024
 20
5.724525215
 30
0.0
 10
7.2817088638
 20
5.7242954108
 30
0.0
 10
7.2828173625
 20
5.7240590848
 30
0.0
 10
7.2846151461
 20
5.7237317642
 30
0.0
 10
7.2860464877
 20
5.7235217615
 30
0.0
 10
7.2870430814
 20
5.7233927618
 30
0.0
  0
SPLINE
  5
534
100
AcDbEntity
  8
0
100
AcDbSpline
 62
7
  6
CONTINUOUS
 70
0
 71
3
 72
16
 73
12
 74
0
 42
0.0000001
 43
0.0000001
 44
0.0000000001
 40
0.0
 40
0.0
 40
0.0
 40
0.0
 40
0.0165996283
 40
0.0400647687
 40
0.0717695096
 40
0.1119051059
 40
0.216379981
 40
0.3486412517
 40
0.5017659421
 40
0.6676757186
 40
1.0
 40
1.0
 40
1.0
 40
1.0
 10
7.2359357338
 20
5.7378760173
 30
0.0
 10
7.2359401413
 20
5.7377908581
 30
0.0
 10
7.2360348513
 20
5.7375944219
 30
0.0
 10
7.2363035315
 20
5.7373403771
 30
0.0
 10
7.2367103963
 20
5.7370646314
 30
0.0
 10
7.2375121511
 20
5.7366414005
 30
0.0
 10
7.2388383874
 20
5.736118325
 30
0.0
 10
7.2407501422
 20
5.7355196987
 30
0.0
 10
7.2429982327
 20
5.7349483059
 30
0.0
 10
7.2462749029
 20
5.7342686054
 30
0.0
 10
7.2488114148
 20
5.7338953475
 30
0.0
 10
7.2505106405
 20
5.7337308746
 30
0.0
  0
LINE
  5
535
100
AcDbEntity
  8
0
100
AcDbLine
 62
7
  6
CONTINUOUS
 10
7.2505106405
 20
5.7337308746
 11
7.2521573795
 21
5.7336042454
  0
SPLINE
  5
536
100
AcDbEntity
  8
0
100
AcDbSpline
 62
7
  6
CONTINUOUS
 70
0
 71
3
 72
15
 73
11
 74
0
 42
0.0000001
 43
0.0000001
 44
0.0000000001
 40
0.0
 40
0.0
 40
0.0
 40
0.0
 40
0.1159731302
 40
0.1592959563
 40
0.2089449385
 40
0.3268987708
 40
0.4686059677
 40
0.6315332041
 40
0.8105904828
 40
1.0
 40
1.0
 40
1.0
 40
1.0
 10
7.3479379706
 20
5.7360602152
 30
0.0
 10
7.3479590738
 20
5.7357086336
 30
0.0
 10
7.3483909669
 20
5.7353130532
 30
0.0
 10
7.3489308101
 20
5.7350074822
 30
0.0
 10
7.3495167166
 20
5.7347373763
 30
0.0
 10
7.35040735
 20
5.734438746
 30
0.0
 10
7.3516569121
 20
5.7341377701
 30
0.0
 10
7.3531059075
 20
5.7338921679
 30
0.0
 10
7.3547097329
 20
5.7337065742
 30
0.0
 10
7.3558266465
 20
5.7336303884
 30
0.0
 10
7.3564012954
 20
5.7336042454
 30
0.0
  0
SPLINE
  5
537
100
AcDbEntity
  8
0
100
AcDbSpline
 62
7
  6
CONTINUOUS
 70
0
 71
3
 72
26
 73
22
 74
0
 42
0.0000001
 43
0.0000001
 44
0.0000000001
 40
0.0
 40
0.0
 40
0.0
 40
0.0
 40
0.1828697647
 40
0.3602700899
 40
0.445117339
 40
0.5264396091
 40
0.60352518
 40
0.6756658762
 40
0.7421568927
 40
0.8022935701
 40
0.8553859725
 40
0.9007763059
 40
0.9203994433
 40
0.9378969295
 40
0.9532316211
 40
0.9663908171
 40
0.977407206
 40
0.9864041389
 40
0.9936951169
 40
0.9969118306
 40
1.0
 40
1.0
 40
1.0
 40
1.0
 10
7.358299859
 20
6.0895260909
 30
0.0
 10
7.3423973093
 20
6.0895260939
 30
0.0
 10
7.311066818
 20
6.0899077988
 30
0.0
 10
7.2723790977
 20
6.091264815
 30
0.0
 10
7.2425434821
 20
6.0928535187
 30
0.0
 10
7.2214353894
 20
6.0942523312
 30
0.0
 10
7.2014508913
 20
6.0958657241
 30
0.0
 10
7.1827791424
 20
6.0976834329
 30
0.0
 10
7.1656101503
 20
6.0996945105
 30
0.0
 10
7.1501339572
 20
6.1018873685
 30
0.0
 10
7.1365418945
 20
6.1042510803
 30
0.0
 10
7.1265014431
 20
6.106440685
 30
0.0
 10
7.1195761176
 20
6.1083239698
 30
0.0
 10
7.1152266659
 20
6.109704299
 30
0.0
 10
7.1114830625
 20
6.1111192051
 30
0.0
 10
7.1083624824
 20
6.1125662007
 30
0.0
 10
7.1058779295
 20
6.1140476196
 30
0.0
 10
7.1040377938
 20
6.1155657815
 30
0.0
 10
7.1030104558
 20
6.1169559403
 30
0.0
 10
7.1026142261
 20
6.1180786256
 30
0.0
 10
7.1025498646
 20
6.1186287966
 30
0.0
 10
7.1025498671
 20
6.1188973471
 30
0.0
  0
SPLINE
  5
538
100
AcDbEntity
  8
0
100
AcDbSpline
 62
7
  6
CONTINUOUS
 70
0
 71
3
 72
14
 73
10
 74
0
 42
0.0000001
 43
0.0000001
 44
0.0000000001
 40
0.0
 40
0.0
 40
0.0
 40
0.0
 40
0.0760567597
 40
0.1450295571
 40
0.2230322849
 40
0.3216099815
 40
0.44654423
 40
0.6005242995
 40
1.0
 40
1.0
 40
1.0
 40
1.0
 10
7.0899725123
 20
6.5915902077
 30
0.0
 10
7.0899205256
 20
6.5915086725
 30
0.0
 10
7.0898415173
 20
6.5913344329
 30
0.0
 10
7.0898680458
 20
6.5910396196
 30
0.0
 10
7.0900436491
 20
6.5907713276
 30
0.0
 10
7.0903390315
 20
6.5905230819
 30
0.0
 10
7.090755628
 20
6.590281529
 30
0.0
 10
7.0915463177
 20
6.5899344882
 30
0.0
 10
7.0922212935
 20
6.5897280339
 30
0.0
 10
7.0927109597
 20
6.5895931912
 30
0.0
  0
SPLINE
  5
539
100
AcDbEntity
  8
0
100
AcDbSpline
 62
7
  6
CONTINUOUS
 70
0
 71
3
 72
10
 73
6
 74
0
 42
0.0000001
 43
0.0000001
 44
0.0000000001
 40
0.0
 40
0.0
 40
0.0
 40
0.0
 40
0.19136353
 40
0.4219255378
 40
1.0
 40
1.0
 40
1.0
 40
1.0
 10
7.0927109597
 20
6.5895931912
 30
0.0
 10
7.0932396026
 20
6.5894476152
 30
0.0
 10
7.0944164167
 20
6.589167679
 30
0.0
 10
7.0972286536
 20
6.5886169537
 30
0.0
 10
7.0995207904
 20
6.5882706165
 30
0.0
 10
7.101161742
 20
6.588045085
 30
0.0
  0
SPLINE
  5
53A
100
AcDbEntity
  8
0
100
AcDbSpline
 62
7
  6
CONTINUOUS
 70
0
 71
3
 72
17
 73
13
 74
0
 42
0.0000001
 43
0.0000001
 44
0.0000000001
 40
0.0
 40
0.0
 40
0.0
 40
0.0
 40
0.0273495299
 40
0.0608685439
 40
0.1003935108
 40
0.1456523369
 40
0.2521505115
 40
0.3776159371
 40
0.5188597444
 40
0.6722898618
 40
0.8340343626
 40
1.0
 40
1.0
 40
1.0
 40
1.0
 10
7.101161742
 20
6.588045085
 30
0.0
 10
7.1034860332
 20
6.5877256359
 30
0.0
 10
7.1086732194
 20
6.587119221
 30
0.0
 10
7.1172489442
 20
6.5863235742
 30
0.0
 10
7.1273695673
 20
6.5855667435
 30
0.0
 10
7.1437474207
 20
6.5845538044
 30
0.0
 10
7.1675036633
 20
6.5834408757
 30
0.0
 10
7.1995000651
 20
6.5823344251
 30
0.0
 10
7.23553053
 20
6.5814379253
 30
0.0
 10
7.2746783515
 20
6.5807787515
 30
0.0
 10
7.3159503801
 20
6.5803159116
 30
0.0
 10
7.344062964
 20
6.5803422872
 30
0.0
 10
7.3582998671
 20
6.5802621964
 30
0.0
  0
SPLINE
  5
53B
100
AcDbEntity
  8
0
100
AcDbSpline
 62
7
  6
CONTINUOUS
 70
0
 71
3
 72
33
 73
29
 74
0
 42
0.0000001
 43
0.0000001
 44
0.0000000001
 40
0.0
 40
0.0
 40
0.0
 40
0.0
 40
0.0992233227
 40
0.1485470181
 40
0.1974877444
 40
0.2937454604
 40
0.3870683841
 40
0.4765291736
 40
0.5612286695
 40
0.6403122794
 40
0.712984113
 40
0.7785090073
 40
0.8362132971
 40
0.8619497291
 40
0.8855142738
 40
0.9068421372
 40
0.925893455
 40
0.9426396663
 40
0.9570576179
 40
0.9691339817
 40
0.9788774464
 40
0.9863578794
 40
0.9893130087
 40
0.9918102832
 40
0.9939475942
 40
0.9958830182
 40
0.9978292439
 40
1.0
 40
1.0
 40
1.0
 40
1.0
 10
7.3582998671
 20
6.2156038255
 30
0.0
 10
7.3489298721
 20
6.2155330132
 30
0.0
 10
7.3349016386
 20
6.21550081
 30
0.0
 10
7.3162518789
 20
6.2154049726
 30
0.0
 10
7.2978829184
 20
6.2152086897
 30
0.0
 10
7.2753611938
 20
6.2148106178
 30
0.0
 10
7.2490166416
 20
6.2141962942
 30
0.0
 10
7.2237678679
 20
6.2134323663
 30
0.0
 10
7.1998700272
 20
6.2125089555
 30
0.0
 10
7.1775654176
 20
6.2114393511
 30
0.0
 10
7.1570813364
 20
6.2102320136
 30
0.0
 10
7.1386289995
 20
6.208894793
 30
0.0
 10
7.1246165647
 20
6.2076355756
 30
0.0
 10
7.1145704487
 20
6.2065421241
 30
0.0
 10
7.1079507996
 20
6.2057224181
 30
0.0
 10
7.1019720695
 20
6.2048713029
 30
0.0
 10
7.0966489352
 20
6.2039923432
 30
0.0
 10
7.0919925704
 20
6.2030898768
 30
0.0
 10
7.0880135404
 20
6.2021682479
 30
0.0
 10
7.0847190992
 20
6.2012323841
 30
0.0
 10
7.0821171245
 20
6.2002867849
 30
0.0
 10
7.0804016154
 20
6.1994322762
 30
0.0
 10
7.0794179145
 20
6.1987023124
 30
0.0
 10
7.0789157759
 20
6.1981849066
 30
0.0
 10
7.0785923866
 20
6.1976464881
 30
0.0
 10
7.0784631597
 20
6.1970812038
 30
0.0
 10
7.0785419902
 20
6.196503918
 30
0.0
 10
7.0787131007
 20
6.1961487295
 30
0.0
 10
7.0788207627
 20
6.195974279
 30
0.0
  0
SPLINE
  5
53C
100
AcDbEntity
  8
0
100
AcDbSpline
 62
7
  6
CONTINUOUS
 70
0
 71
3
 72
29
 73
25
 74
0
 42
0.0000001
 43
0.0000001
 44
0.0000000001
 40
0.0
 40
0.0
 40
0.0
 40
0.0
 40
0.1895645536
 40
0.3727290407
 40
0.4598659325
 40
0.5429911146
 40
0.6213369149
 40
0.6941362704
 40
0.7606425736
 40
0.8201886023
 40
0.8721294492
 40
0.915825803
 40
0.934391331
 40
0.9506936436
 40
0.9646903645
 40
0.9763441638
 40
0.9812839486
 40
0.9856295898
 40
0.9893819371
 40
0.9925460222
 40
0.9951348894
 40
0.9971785149
 40
0.9987463436
 40
1.0
 40
1.0
 40
1.0
 40
1.0
 10
7.3582998293
 20
6.6485108564
 30
0.0
 10
7.3743114802
 20
6.6485052284
 30
0.0
 10
7.4057943215
 20
6.6483299912
 30
0.0
 10
7.4446332394
 20
6.647738725
 30
0.0
 10
7.4744778969
 20
6.6470567804
 30
0.0
 10
7.4954683857
 20
6.6464628991
 30
0.0
 10
7.5152446126
 20
6.6457839225
 30
0.0
 10
7.5336131703
 20
6.6450256193
 30
0.0
 10
7.5503888526
 20
6.6441933952
 30
0.0
 10
7.565396614
 20
6.6432946731
 30
0.0
 10
7.5784695262
 20
6.6423361773
 30
0.0
 10
7.58807652
 20
6.6414559614
 30
0.0
 10
7.5946698388
 20
6.6407025057
 30
0.0
 10
7.5987614157
 20
6.6401575359
 30
0.0
 10
7.602261719
 20
6.6396031591
 30
0.0
 10
7.6047994901
 20
6.6391124789
 30
0.0
 10
7.6065208987
 20
6.6387053319
 30
0.0
 10
7.6075835289
 20
6.6384152716
 30
0.0
 10
7.6084895119
 20
6.6381238545
 30
0.0
 10
7.6092378343
 20
6.6378312357
 30
0.0
 10
7.6098289496
 20
6.637537849
 30
0.0
 10
7.6102634513
 20
6.6372416363
 30
0.0
 10
7.6105485729
 20
6.6369375805
 30
0.0
 10
7.610630078
 20
6.6367011916
 30
0.0
 10
7.6106330937
 20
6.6365953439
 30
0.0
  0
SPLINE
  5
53D
100
AcDbEntity
  8
0
100
AcDbSpline
 62
7
  6
CONTINUOUS
 70
0
 71
3
 72
10
 73
6
 74
0
 42
0.0000001
 43
0.0000001
 44
0.0000000001
 40
0.0
 40
0.0
 40
0.0
 40
0.0
 40
0.5154846578
 40
0.7527774966
 40
1.0
 40
1.0
 40
1.0
 40
1.0
 10
7.6379147815
 20
6.196174084
 30
0.0
 10
7.6380837087
 20
6.1964482837
 30
0.0
 10
7.6382671608
 20
6.1969092842
 30
0.0
 10
7.6382220077
 20
6.1975406816
 30
0.0
 10
7.6381153815
 20
6.1978283848
 30
0.0
 10
7.6380455631
 20
6.1979661612
 30
0.0
  0
SPLINE
  5
53E
100
AcDbEntity
  8
0
100
AcDbSpline
 62
7
  6
CONTINUOUS
 70
0
 71
3
 72
9
 73
5
 74
0
 42
0.0000001
 43
0.0000001
 44
0.0000000001
 40
0.0
 40
0.0
 40
0.0
 40
0.0
 40
0.4317088537
 40
1.0
 40
1.0
 40
1.0
 40
1.0
 10
7.6380455631
 20
6.1979661612
 30
0.0
 10
7.6378816593
 20
6.1982896015
 30
0.0
 10
7.6373097508
 20
6.1989355997
 30
0.0
 10
7.6366056522
 20
6.1993990432
 30
0.0
 10
7.6361919149
 20
6.1996370613
 30
0.0
  0
LINE
  5
53F
100
AcDbEntity
  8
0
100
AcDbLine
 62
7
  6
CONTINUOUS
 10
7.6361919149
 20
6.1996370613
 11
7.6324109026
 21
6.2012292974
  0
LINE
  5
540
100
AcDbEntity
  8
0
100
AcDbLine
 62
7
  6
CONTINUOUS
 10
7.6324109026
 20
6.2012292974
 11
7.6266913863
 21
6.2027840009
  0
SPLINE
  5
541
100
AcDbEntity
  8
0
100
AcDbSpline
 62
7
  6
CONTINUOUS
 70
0
 71
3
 72
19
 73
15
 74
0
 42
0.0000001
 43
0.0000001
 44
0.0000000001
 40
0.0
 40
0.0
 40
0.0
 40
0.0
 40
0.0275448955
 40
0.0612103213
 40
0.1008490969
 40
0.146200314
 40
0.1969619453
 40
0.2528171583
 40
0.3783134852
 40
0.5194944226
 40
0.6727715654
 40
0.7527452467
 40
0.8342900826
 40
1.0
 40
1.0
 40
1.0
 40
1.0
 10
7.6266913863
 20
6.2027840009
 30
0.0
 10
7.6242844351
 20
6.2033362834
 30
0.0
 10
7.6188925749
 20
6.2043743021
 30
0.0
 10
7.6099507024
 20
6.2057211424
 30
0.0
 10
7.5993878335
 20
6.2069930543
 30
0.0
 10
7.5872755516
 20
6.2081896014
 30
0.0
 10
7.5736965902
 20
6.209308453
 30
0.0
 10
7.5529363901
 20
6.2107504732
 30
0.0
 10
7.5240593682
 20
6.2122891562
 30
0.0
 10
7.4864353692
 20
6.2137271921
 30
0.0
 10
7.4528764214
 20
6.2145846976
 30
0.0
 10
7.4246589595
 20
6.215122928
 30
0.0
 10
7.3953238434
 20
6.2155069571
 30
0.0
 10
7.373155939
 20
6.2154915322
 30
0.0
 10
7.3582998671
 20
6.2156038255
 30
0.0
  0
SPLINE
  5
542
100
AcDbEntity
  8
0
100
AcDbSpline
 62
7
  6
CONTINUOUS
 70
0
 71
3
 72
34
 73
30
 74
0
 42
0.0000001
 43
0.0000001
 44
0.0000000001
 40
0.0
 40
0.0
 40
0.0
 40
0.0
 40
0.0990253634
 40
0.1482581457
 40
0.197113711
 40
0.2932159081
 40
0.3864163687
 40
0.5604948541
 40
0.6396489755
 40
0.7124797568
 40
0.7782725663
 40
0.8083152406
 40
0.836356605
 40
0.8623268069
 40
0.8861564034
 40
0.9077774671
 40
0.9271407891
 40
0.9442143469
 40
0.9589680144
 40
0.9713740299
 40
0.9814095789
 40
0.9855355618
 40
0.9890688702
 40
0.9920162339
 40
0.9943933932
 40
0.9962360595
 40
0.9976289496
 40
0.9987712714
 40
1.0
 40
1.0
 40
1.0
 40
1.0
 10
7.3582998671
 20
6.5802621964
 30
0.0
 10
7.3672017951
 20
6.5803157633
 30
0.0
 10
7.3805297883
 20
6.5803415127
 30
0.0
 10
7.3982496499
 20
6.5803971119
 30
0.0
 10
7.4157064632
 20
6.5805137138
 30
0.0
 10
7.4371148393
 20
6.5807641416
 30
0.0
 10
7.4697778342
 20
6.581269061
 30
0.0
 10
7.5009145182
 20
6.5819431074
 30
0.0
 10
7.5302130524
 20
6.5828420396
 30
0.0
 10
7.5497771468
 20
6.5835726769
 30
0.0
 10
7.564924446
 20
6.5842589218
 30
0.0
 10
7.5760449765
 20
6.5848497935
 30
0.0
 10
7.5835880913
 20
6.5852956872
 30
0.0
 10
7.5905705864
 20
6.5857576292
 30
0.0
 10
7.5969734127
 20
6.5862352914
 30
0.0
 10
7.6027791679
 20
6.5867290178
 30
0.0
 10
7.6079738173
 20
6.5872368394
 30
0.0
 10
7.6125466697
 20
6.5877546312
 30
0.0
 10
7.6164889056
 20
6.5882780235
 30
0.0
 10
7.6197913365
 20
6.5888039262
 30
0.0
 10
7.6221363878
 20
6.5892625649
 30
0.0
 10
7.6236810914
 20
6.5896437408
 30
0.0
 10
7.6245964139
 20
6.5899125497
 30
0.0
 10
7.625345648
 20
6.5901838383
 30
0.0
 10
7.6259303091
 20
6.5904588721
 30
0.0
 10
7.6263513041
 20
6.5907402156
 30
0.0
 10
7.6266201309
 20
6.591040701
 30
0.0
 10
7.6266990265
 20
6.59138912
 30
0.0
 10
7.6266106043
 20
6.5915963167
 30
0.0
 10
7.6265511812
 20
6.5916894301
 30
0.0
  0
SPLINE
  5
543
100
AcDbEntity
  8
0
100
AcDbSpline
 62
7
  6
CONTINUOUS
 70
0
 71
3
 72
11
 73
7
 74
0
 42
0.0000001
 43
0.0000001
 44
0.0000000001
 40
0.0
 40
0.0
 40
0.0
 40
0.0
 40
0.3242293656
 40
0.4582448759
 40
0.6155172203
 40
1.0
 40
1.0
 40
1.0
 40
1.0
 10
7.4599497914
 20
5.7342862413
 30
0.0
 10
7.4599623105
 20
5.7340701683
 30
0.0
 10
7.4603199024
 20
5.7338743964
 30
0.0
 10
7.4606972764
 20
5.7337617915
 30
0.0
 10
7.4611433435
 20
5.7336642677
 30
0.0
 10
7.4615015106
 20
5.7336244769
 30
0.0
 10
7.4617573688
 20
5.7336042454
 30
0.0
  0
SPLINE
  5
544
100
AcDbEntity
  8
0
100
AcDbSpline
 62
7
  6
CONTINUOUS
 70
0
 71
3
 72
21
 73
17
 74
0
 42
0.0000001
 43
0.0000001
 44
0.0000000001
 40
0.0
 40
0.0
 40
0.0
 40
0.0
 40
0.0347973702
 40
0.071215592
 40
0.1106246844
 40
0.1539930112
 40
0.2019476886
 40
0.2547867481
 40
0.3125564161
 40
0.3751605674
 40
0.4423248028
 40
0.5136561898
 40
0.5887115461
 40
0.6669824311
 40
0.8308964125
 40
1.0
 40
1.0
 40
1.0
 40
1.0
 10
3.1408036216
 20
3.069164657
 30
0.0
 10
3.1408036216
 20
3.07207595
 30
0.0
 10
3.1415391503
 20
3.0780570184
 30
0.0
 10
3.1448015928
 20
3.0867945169
 30
0.0
 10
3.1501369521
 20
3.0952878692
 30
0.0
 10
3.1574482631
 20
3.1034784814
 30
0.0
 10
3.1666669241
 20
3.1113042574
 30
0.0
 10
3.1776997858
 20
3.1187115486
 30
0.0
 10
3.1904450764
 20
3.1256454419
 30
0.0
 10
3.2047916509
 20
3.1320328583
 30
0.0
 10
3.2206010969
 20
3.1378218168
 30
0.0
 10
3.2377223282
 20
3.1429612232
 30
0.0
 10
3.2559967555
 20
3.1473929796
 30
0.0
 10
3.2820734956
 20
3.1523861524
 30
0.0
 10
3.3162789237
 20
3.1565255894
 30
0.0
 10
3.3441519564
 20
3.1576298769
 30
0.0
 10
3.3582998671
 20
3.1576298769
 30
0.0
  0
SPLINE
  5
545
100
AcDbEntity
  8
0
100
AcDbSpline
 62
7
  6
CONTINUOUS
 70
0
 71
3
 72
21
 73
17
 74
0
 42
0.0000001
 43
0.0000001
 44
0.0000000001
 40
0.0
 40
0.0
 40
0.0
 40
0.0
 40
0.0347973702
 40
0.071215592
 40
0.1106246844
 40
0.1539930112
 40
0.2019476886
 40
0.2547867481
 40
0.3125564161
 40
0.3751605674
 40
0.4423248028
 40
0.5136561898
 40
0.5887115461
 40
0.6669824311
 40
0.8308964125
 40
1.0
 40
1.0
 40
1.0
 40
1.0
 10
3.5757961127
 20
5.0388907602
 30
0.0
 10
3.5757961127
 20
5.0418020532
 30
0.0
 10
3.575060584
 20
5.0477831216
 30
0.0
 10
3.5717981415
 20
5.0565206202
 30
0.0
 10
3.5664627822
 20
5.0650139724
 30
0.0
 10
3.5591514712
 20
5.0732045846
 30
0.0
 10
3.5499328102
 20
5.0810303607
 30
0.0
 10
3.5388999485
 20
5.0884376519
 30
0.0
 10
3.5261546578
 20
5.0953715452
 30
0.0
 10
3.5118080834
 20
5.1017589615
 30
0.0
 10
3.4959986374
 20
5.10754792
 30
0.0
 10
3.4788774061
 20
5.1126873264
 30
0.0
 10
3.4606029788
 20
5.1171190828
 30
0.0
 10
3.4345262387
 20
5.1221122556
 30
0.0
 10
3.4003208106
 20
5.1262516926
 30
0.0
 10
3.3724477779
 20
5.1273559801
 30
0.0
 10
3.3582998671
 20
5.1273559801
 30
0.0
  0
ENDSEC
  0
SECTION
  2
OBJECTS
  0
DICTIONARY
  5
C
100
AcDbDictionary
280
0
281
1
  3
ACAD_GROUP
350
D
  3
ACAD_MLINESTYLE
350
17
  3
ACAD_LAYOUT
350
1A
  3
ACAD_PLOTSETTINGS
350
19
  3
ACAD_PLOTSTYLENAME
350
E
  0
DICTIONARY
  5
D
102
{ACAD_REACTORS
330
C
102
}
100
AcDbDictionary
280
0
281
1
  0
ACDBDICTIONARYWDFLT
  5
E
102
{ACAD_REACTORS
330
C
102
}
100
AcDbDictionary
281
1
  3
Normal
350
F
100
AcDbDictionaryWithDefault
340
F
  0
DICTIONARY
  5
17
102
{ACAD_REACTORS
330
C
102
}
100
AcDbDictionary
280
0
281
1
  3
Standard
350
18
  0
DICTIONARY
  5
19
102
{ACAD_REACTORS
330
C
102
}
100
AcDbDictionary
281
1
  0
DICTIONARY
  5
1A
102
{ACAD_REACTORS
330
C
102
}
100
AcDbDictionary
281
1
  3
Model
350
546
  3
Layout1
350
547
  0
ACDBPLACEHOLDER
  5
F
102
{ACAD_REACTORS
330
E
102
}
  0
MLINESTYLE
  5
18
102
{ACAD_REACTORS
330
17
102
}
100
AcDbMlineStyle
  2
STANDARD
 70
0
  3

 62
256
 51
90.0
 52
90.0
 71
2
 49
0.5
 62
256
  6
BYLAYER
 49
-0.5
 62
256
  6
BYLAYER
  0
LAYOUT
  5
546
102
{ACAD_REACTORS
330
1A
102
}
100
AcDbPlotSettings
  1

  2
none_device
  4
ANSI_A_(11.00_x_8.50_Inches)
  6

 40
0.0
 41
0.0
 42
0.0
 43
0.0
 44
279.4
 45
215.9
 46
0.0
 47
0.0
 48
0.0
 49
0.0
140
0.0
141
0.0
142
1.0
143
1.0
 70
1024
 72
0
 73
0
 74
0
  7

 75
0
147
1.0
148
0.0
149
0.0
100
AcDbLayout
  1
Model
 70
0
 71
0
 10
0.0
 20
0.0
 11
11.0
 21
8.5
 12
0.0
 22
0.0
 32
0.0
 14
0.0
 24
0.0
 34
0.0
 15
0.0
 25
0.0
 35
0.0
146
0.0
 13
0.0
 23
0.0
 33
0.0
 16
1.0
 26
0.0
 36
0.0
 17
0.0
 27
1.0
 37
0.0
 76
0
330
22E
345
0
346
0
  0
LAYOUT
  5
547
102
{ACAD_REACTORS
330
1A
102
}
100
AcDbPlotSettings
  1

  2
none_device
  4
ANSI_A_(11.00_x_8.50_Inches)
  6

 40
0.0
 41
0.0
 42
0.0
 43
0.0
 44
279.4
 45
215.9
 46
0.0
 47
0.0
 48
0.0
 49
0.0
140
0.0
141
0.0
142
1.0
143
1.0
 70
0
 72
0
 73
0
 74
0
  7

 75
0
147
1.0
148
0.0
149
0.0
100
AcDbLayout
  1
Layout1
 70
0
 71
1
 10
0.0
 20
0.0
 11
11.0
 21
8.5
 12
0.0
 22
0.0
 32
0.0
 14
0.0
 24
0.0
 34
0.0
 15
0.0
 25
0.0
 35
0.0
146
0.0
 13
0.0
 23
0.0
 33
0.0
 16
1.0
 26
0.0
 36
0.0
 17
0.0
 27
1.0
 37
0.0
 76
0
330
22F
345
0
346
0
  0
ENDSEC
  0
EOF
