999
DXF file: E:\BT Custom\CADOUTPUT\_FRONT.dxf
999
Pro/ENGINEER 2018400 by Parametric Technology Corporation
  0
SECTION
  2
HEADER
  9
$ACADVER
  1
AC1018
  9
$DWGCODEPAGE
  3
ANSI_1252
  9
$EXTMAX
 10
22.0
 20
17.0
 30
0.0
  9
$EXTMIN
 10
0.0
 20
0.0
 30
0.0
  9
$LIMMIN
 10
0.0
 20
0.0
  9
$LIMMAX
 10
22.0
 20
17.0
  9
$VIEWCTR
 10
11.0
 20
8.5
  9
$VIEWSIZE
 40
17.0
  9
$CLAYER
  8
0
  9
$LTSCALE
 40
1.21
  9
$CELTYPE
  6
BYLAYER
  9
$DIMSCALE
 40
1.0
  9
$DIMASZ
 40
0.1
  9
$DIMEXO
 40
0.0625
  9
$DIMDLI
 40
0.836
  9
$DIMEXE
 40
0.125
  9
$DIMCEN
 40
0.198
  9
$DIMLFAC
 40
1.0
  9
$DIMBLK
  1
_FILLED
  9
$DIMALT
 70
1
  9
$DIMALTD
 70
2
  9
$DIMALTTD
 70
2
  9
$DIMALTF
 40
25.4
  9
$DIMTXT
 40
0.08
  9
$DIMTOL
 70
1
  9
$DIMLIM
 70
0
  9
$DIMTFAC
 40
1.0
  9
$DIMTP
 40
0.001
  9
$DIMTM
 40
0.001
  9
$DIMGAP
 40
0.09
  9
$DIMDSEP
 70
46
  9
$AUNITS
 70
0
  9
$PDMODE
 70
3
  9
$PDSIZE
 40
0.06
  9
$HANDSEED
  5
3A9
  9
$TILEMODE
 70
1
  9
$MEASUREMENT
 70
0
  9
$INSUNITS
 70
1
  0
ENDSEC
  0
SECTION
  2
CLASSES
  0
CLASS
  1
ACDBDICTIONARYWDFLT
  2
AcDbDictionaryWithDefault
  3
AutoCAD 2000
 90
0
 91
1
280
0
281
0
  0
CLASS
  1
ACDBPLACEHOLDER
  2
AcDbPlaceHolder
  3
AutoCAD 2000
 90
0
 91
1
280
0
281
0
  0
CLASS
  1
LAYOUT
  2
AcDbLayout
  3
AutoCAD 2000
 90
0
 91
0
280
0
281
0
  0
ENDSEC
  0
SECTION
  2
TABLES
  0
TABLE
  2
VPORT
  5
8
100
AcDbSymbolTable
 70
2
  0
VPORT
  5
1F4
100
AcDbSymbolTableRecord
100
AcDbViewportTableRecord
  2
*ACTIVE
 70
0
 10
0.0
 20
0.0
 11
1.0
 21
1.0
 12
11.0
 22
8.5
 13
0.0
 23
0.0
 14
1.0
 24
1.0
 15
0.0
 25
0.0
 16
0.0
 26
0.0
 36
1.0
 17
0.0
 27
0.0
 37
0.0
 40
17.0
 41
1.2941176471
 42
50.0
 43
0.0
 44
0.0
 50
0.0
 51
0.0
 71
0
 72
100
 73
1
 74
1
 75
0
 76
0
 77
0
 78
0
  0
ENDTAB
  0
TABLE
  2
LTYPE
  5
5
100
AcDbSymbolTable
 70
6
  0
LTYPE
  5
14
100
AcDbSymbolTableRecord
100
AcDbLinetypeTableRecord
  2
BYBLOCK
 70
0
  3

 72
65
 73
0
 40
0.0
  0
LTYPE
  5
15
100
AcDbSymbolTableRecord
100
AcDbLinetypeTableRecord
  2
BYLAYER
 70
0
  3

 72
65
 73
0
 40
0.0
  0
LTYPE
  5
16
100
AcDbSymbolTableRecord
100
AcDbLinetypeTableRecord
  2
CONTINUOUS
 70
64
  3
Solid line
 72
65
 73
0
 40
0.0
  0
LTYPE
  5
1F5
100
AcDbSymbolTableRecord
100
AcDbLinetypeTableRecord
  2
CENTER
 70
64
  3
____ _ ____ _ ____ _ ____ _ ____ _ ____ _ ____
 72
65
 73
4
 40
0.6
 49
0.375
 74
0
 49
-0.075
 74
0
 49
0.075
 74
0
 49
-0.075
 74
0
  0
LTYPE
  5
1F6
100
AcDbSymbolTableRecord
100
AcDbLinetypeTableRecord
  2
HIDDEN
 70
64
  3
- - - - - - - - - - - - - - - - - - - -
 72
65
 73
2
 40
0.2
 49
0.1
 74
0
 49
-0.1
 74
0
  0
LTYPE
  5
1F7
100
AcDbSymbolTableRecord
100
AcDbLinetypeTableRecord
  2
PHANTOM
 70
64
  3
_____ _ _ _____ _ _ _____ _ _ _____
 72
65
 73
6
 40
0.8
 49
0.45
 74
0
 49
-0.05
 74
0
 49
0.1
 74
0
 49
-0.05
 74
0
 49
0.1
 74
0
 49
-0.05
 74
0
  0
LTYPE
  5
1F8
100
AcDbSymbolTableRecord
100
AcDbLinetypeTableRecord
  2
DOT
 70
64
  3
. . . . . . . . . . . . . . . . . . . .
 72
65
 73
2
 40
0.2
 49
0.1
 74
0
 49
-0.1
 74
0
  0
LTYPE
  5
1F9
100
AcDbSymbolTableRecord
100
AcDbLinetypeTableRecord
  2
DASHED
 70
64
  3
- - - - - - - - - - - - - - - - - - - -
 72
65
 73
2
 40
0.2
 49
0.1
 74
0
 49
-0.1
 74
0
  0
ENDTAB
  0
TABLE
  2
LAYER
  5
2
100
AcDbSymbolTable
 70
36
  0
LAYER
  5
10
100
AcDbSymbolTableRecord
100
AcDbLayerTableRecord
  2
0
 70
0
 62
7
  6
CONTINUOUS
370
-3
390
F
  0
LAYER
  5
1FA
100
AcDbSymbolTableRecord
100
AcDbLayerTableRecord
  2
DEFAULT_1
 70
0
 62
7
  6
CENTER
370
-3
390
F
  0
LAYER
  5
1FB
100
AcDbSymbolTableRecord
100
AcDbLayerTableRecord
  2
DEFAULT_2
 70
0
 62
8
  6
HIDDEN
370
-3
390
F
  0
LAYER
  5
1FC
100
AcDbSymbolTableRecord
100
AcDbLayerTableRecord
  2
DEFAULT_3
 70
0
 62
7
  6
PHANTOM
370
-3
390
F
  0
LAYER
  5
1FD
100
AcDbSymbolTableRecord
100
AcDbLayerTableRecord
  2
ALL_FEATURES
 70
0
 62
7
  6
CONTINUOUS
370
-3
390
F
  0
LAYER
  5
1FE
100
AcDbSymbolTableRecord
100
AcDbLayerTableRecord
  2
AXES_FEATURES
 70
0
 62
7
  6
CONTINUOUS
370
-3
390
F
  0
LAYER
  5
1FF
100
AcDbSymbolTableRecord
100
AcDbLayerTableRecord
  2
DEFAULT_COORDINATE_SYSTEM
 70
0
 62
7
  6
CONTINUOUS
370
-3
390
F
  0
LAYER
  5
200
100
AcDbSymbolTableRecord
100
AcDbLayerTableRecord
  2
DEFAULT_DATUM_AXES
 70
0
 62
7
  6
CONTINUOUS
370
-3
390
F
  0
LAYER
  5
201
100
AcDbSymbolTableRecord
100
AcDbLayerTableRecord
  2
DEFAULT_DATUM_PLANES
 70
0
 62
7
  6
CONTINUOUS
370
-3
390
F
  0
LAYER
  5
202
100
AcDbSymbolTableRecord
100
AcDbLayerTableRecord
  2
DIMENSIONS
 70
0
 62
7
  6
CONTINUOUS
370
-3
390
F
  0
ENDTAB
  0
TABLE
  2
STYLE
  5
3
100
AcDbSymbolTable
 70
1
  0
STYLE
  5
11
100
AcDbSymbolTableRecord
100
AcDbTextStyleTableRecord
  2
STANDARD
 70
0
 40
0.0
 41
0.8
 50
0.0
 71
0
 42
0.2
  3
txt
  4

  0
STYLE
  5
203
100
AcDbSymbolTableRecord
100
AcDbTextStyleTableRecord
  2
TEXTSTYLE_1
 70
0
 40
0.0
 41
0.8
 50
0.0
 71
0
 42
0.2
  3
gdt
  4

  0
ENDTAB
  0
TABLE
  2
VIEW
  5
6
100
AcDbSymbolTable
 70
0
  0
ENDTAB
  0
TABLE
  2
UCS
  5
7
100
AcDbSymbolTable
 70
0
  0
ENDTAB
  0
TABLE
  2
APPID
  5
9
100
AcDbSymbolTable
 70
1
  0
APPID
  5
204
100
AcDbSymbolTableRecord
100
AcDbRegAppTableRecord
  2
ACAD
 70
0
  0
ENDTAB
  0
TABLE
  2
BLOCK_RECORD
  5
1
100
AcDbSymbolTable
 70
0
  0
BLOCK_RECORD
  5
205
100
AcDbSymbolTableRecord
100
AcDbBlockTableRecord
  2
*Model_Space
  0
BLOCK_RECORD
  5
206
100
AcDbSymbolTableRecord
100
AcDbBlockTableRecord
  2
*Paper_Space
  0
BLOCK_RECORD
  5
207
100
AcDbSymbolTableRecord
100
AcDbBlockTableRecord
  2
_FILLED
  0
ENDTAB
  0
TABLE
  2
DIMSTYLE
  5
A
100
AcDbSymbolTable
 70
1
100
AcDbDimStyleTable
 71
0
  0
DIMSTYLE
105
208
100
AcDbSymbolTableRecord
100
AcDbDimStyleTableRecord
  2
STANDARD
 70
0
  3

  4

 40
1.0
 41
0.1
 42
0.0625
 43
0.38
 44
0.125
 45
0.0
 46
0.0
 47
0.001
 48
0.001
140
0.08
141
0.09
142
0.0
143
25.4
144
1.0
145
0.0
146
1.0
147
0.09
 71
1.0
 72
0.0
 73
1
 74
1
 75
0
 76
0
 77
0
 78
4
 79
1
170
1
171
2
172
0
173
0
174
0
175
0
176
0
177
0
178
0
270
2
179
3
271
3
272
3
273
2
274
2
275
0
280
0
281
0
282
0
283
1
284
4
285
0
286
0
287
3
288
0
340
11
278
46
341
207
342
207
343
207
344
207
  0
ENDTAB
  0
ENDSEC
  0
SECTION
  2
BLOCKS
  0
BLOCK
  5
20
100
AcDbEntity
  8
0
100
AcDbBlockBegin
  2
*Model_Space
 70
0
 10
0.0
 20
0.0
 30
0.0
  3
*Model_Space
  1

  0
ENDBLK
  5
21
100
AcDbEntity
  8
0
100
AcDbBlockEnd
  0
BLOCK
  5
1C
100
AcDbEntity
  8
0
100
AcDbBlockBegin
  2
*Paper_Space
 70
0
 10
0.0
 20
0.0
 30
0.0
  3
*Paper_Space
  1

  0
ENDBLK
  5
1D
100
AcDbEntity
  8
0
100
AcDbBlockEnd
  0
BLOCK
  5
209
100
AcDbEntity
  8
0
100
AcDbBlockBegin
  2
_FILLED
 70
64
 10
0.0
 20
0.0
  3
_FILLED
  1

  0
SOLID
  5
20A
100
AcDbEntity
  8
0
  6
BYBLOCK
 62
0
100
AcDbTrace
 10
0.0
 20
0.0
 11
-1.0
 21
0.2
 12
-1.0
 22
-0.2
 13
-1.0
 23
-0.2
  0
ENDBLK
  5
20B
100
AcDbEntity
  8
0
  6
BYBLOCK
 62
0
100
AcDbBlockEnd
  0
ENDSEC
  0
SECTION
  2
ENTITIES
  0
LINE
  5
20C
100
AcDbEntity
  8
0
100
AcDbLine
 62
7
  6
CONTINUOUS
 10
9.8049019137
 20
4.5400580246
 11
12.0654827718
 21
4.5400580246
  0
LINE
  5
20D
100
AcDbEntity
  8
0
100
AcDbLine
 62
9
  6
CONTINUOUS
 10
9.7908010805
 20
4.5742413425
 11
12.079583605
 21
4.5742413425
  0
LINE
  5
20E
100
AcDbEntity
  8
0
100
AcDbLine
 62
9
  6
CONTINUOUS
 10
9.8315997643
 20
4.6165292899
 11
12.0387849211
 21
4.6165292899
  0
LINE
  5
20F
100
AcDbEntity
  8
0
100
AcDbLine
 62
9
  6
CONTINUOUS
 10
11.9139806553
 20
4.759357469
 11
9.9564040302
 21
4.759357469
  0
LINE
  5
210
100
AcDbEntity
  8
0
100
AcDbLine
 62
9
  6
CONTINUOUS
 10
11.9107227981
 20
4.7792103423
 11
9.9596618874
 21
4.7792103423
  0
LINE
  5
211
100
AcDbEntity
  8
0
100
AcDbLine
 62
9
  6
CONTINUOUS
 10
9.9630484406
 20
4.8070089966
 11
11.9073362448
 21
4.8070089966
  0
LINE
  5
212
100
AcDbEntity
  8
0
100
AcDbLine
 62
9
  6
CONTINUOUS
 10
9.9723499036
 20
4.8166580246
 11
11.8980347819
 21
4.8166580246
  0
LINE
  5
213
100
AcDbEntity
  8
0
100
AcDbLine
 62
7
  6
CONTINUOUS
 10
11.8758347819
 20
4.8240580246
 11
9.9945499036
 21
4.8240580246
  0
LINE
  5
214
100
AcDbEntity
  8
0
100
AcDbLine
 62
9
  6
CONTINUOUS
 10
11.8611613686
 20
4.8267533464
 11
10.0092233168
 21
4.8267533464
  0
LINE
  5
215
100
AcDbEntity
  8
0
100
AcDbLine
 62
9
  6
CONTINUOUS
 10
11.8336614528
 20
4.8431455331
 11
10.0367232327
 21
4.8431455331
  0
LINE
  5
216
100
AcDbEntity
  8
0
100
AcDbLine
 62
9
  6
CONTINUOUS
 10
11.795744142
 20
4.8875162579
 11
10.0746405435
 21
4.8875162579
  0
LINE
  5
217
100
AcDbEntity
  8
0
100
AcDbLine
 62
7
  6
CONTINUOUS
 10
10.1136923427
 20
4.9140580246
 11
11.7566923427
 21
4.9140580246
  0
LINE
  5
218
100
AcDbEntity
  8
0
100
AcDbLine
 62
9
  6
CONTINUOUS
 10
10.1301923427
 20
4.9921632612
 11
11.7401923427
 21
4.9921632612
  0
LINE
  5
219
100
AcDbEntity
  8
0
100
AcDbLine
 62
9
  6
CONTINUOUS
 10
10.1668086218
 20
5.1036395772
 11
11.7035760637
 21
5.1036395772
  0
LINE
  5
21A
100
AcDbEntity
  8
0
100
AcDbLine
 62
9
  6
CONTINUOUS
 10
10.2450494856
 20
5.5371461756
 11
11.6253351999
 21
5.5371461756
  0
LINE
  5
21B
100
AcDbEntity
  8
0
100
AcDbLine
 62
7
  6
CONTINUOUS
 10
10.1001524512
 20
5.8843083821
 11
10.1840782284
 21
5.8843083821
  0
LINE
  5
21C
100
AcDbEntity
  8
0
100
AcDbLine
 62
7
  6
CONTINUOUS
 10
11.6863064574
 20
5.8843083821
 11
11.7702322343
 21
5.8843083821
  0
LINE
  5
21D
100
AcDbEntity
  8
0
100
AcDbLine
 62
7
  6
CONTINUOUS
 10
12.2452322343
 20
6.1093083821
 11
12.2202322343
 21
6.1093083821
  0
LINE
  5
21E
100
AcDbEntity
  8
0
100
AcDbLine
 62
7
  6
CONTINUOUS
 10
9.6301524512
 20
6.1093083821
 11
9.6501524512
 21
6.1093083821
  0
LINE
  5
21F
100
AcDbEntity
  8
0
100
AcDbLine
 62
7
  6
CONTINUOUS
 10
8.3701524512
 20
6.1193083821
 11
8.3501524512
 21
6.1193083821
  0
LINE
  5
220
100
AcDbEntity
  8
0
100
AcDbLine
 62
7
  6
CONTINUOUS
 10
13.5052322343
 20
6.1193083821
 11
13.5252322343
 21
6.1193083821
  0
LINE
  5
221
100
AcDbEntity
  8
0
100
AcDbLine
 62
7
  6
CONTINUOUS
 10
8.4451622591
 20
7.2459289678
 11
8.3088922297
 21
8.8878109187
  0
LINE
  5
222
100
AcDbEntity
  8
0
100
AcDbLine
 62
7
  6
CONTINUOUS
 10
8.2611524512
 20
6.3543083821
 11
8.2611524512
 21
6.3643083821
  0
LINE
  5
223
100
AcDbEntity
  8
0
100
AcDbLine
 62
7
  6
CONTINUOUS
 10
8.2761524512
 20
9.0106094566
 11
8.2761524512
 21
8.9826256542
  0
LINE
  5
224
100
AcDbEntity
  8
0
100
AcDbLine
 62
7
  6
CONTINUOUS
 10
8.2901524512
 20
6.1793083821
 11
8.2901524512
 21
6.5393083821
  0
LINE
  5
225
100
AcDbEntity
  8
0
100
AcDbLine
 62
9
  6
CONTINUOUS
 10
8.3501524512
 20
6.1193083821
 11
8.3501524512
 21
6.5993083821
  0
LINE
  5
226
100
AcDbEntity
  8
0
100
AcDbLine
 62
7
  6
CONTINUOUS
 10
8.3701524512
 20
6.1193083821
 11
8.3701524512
 21
6.5993083821
  0
LINE
  5
227
100
AcDbEntity
  8
0
100
AcDbLine
 62
7
  6
CONTINUOUS
 10
8.3701524512
 20
6.5993083821
 11
8.3501524512
 21
6.5993083821
  0
LINE
  5
228
100
AcDbEntity
  8
0
100
AcDbLine
 62
7
  6
CONTINUOUS
 10
13.5052322343
 20
6.5993083821
 11
13.5252322343
 21
6.5993083821
  0
LINE
  5
229
100
AcDbEntity
  8
0
100
AcDbLine
 62
7
  6
CONTINUOUS
 10
12.2452322343
 20
6.6093083821
 11
12.2202322343
 21
6.6093083821
  0
LINE
  5
22A
100
AcDbEntity
  8
0
100
AcDbLine
 62
7
  6
CONTINUOUS
 10
9.6301524512
 20
6.6093083821
 11
9.6501524512
 21
6.6093083821
  0
LINE
  5
22B
100
AcDbEntity
  8
0
100
AcDbLine
 62
7
  6
CONTINUOUS
 10
13.3742322343
 20
6.7789436404
 11
13.0392322343
 21
6.7789436404
  0
LINE
  5
22C
100
AcDbEntity
  8
0
100
AcDbLine
 62
7
  6
CONTINUOUS
 10
8.8361524512
 20
6.7789436404
 11
8.5011524512
 21
6.7789436404
  0
LINE
  5
22D
100
AcDbEntity
  8
0
100
AcDbLine
 62
9
  6
CONTINUOUS
 10
8.4908712729
 20
5.9459152851
 11
8.4908712729
 21
6.7727014791
  0
LINE
  5
22E
100
AcDbEntity
  8
0
100
AcDbLine
 62
7
  6
CONTINUOUS
 10
8.5011524512
 20
6.8109436404
 11
8.5011524512
 21
6.7789436404
  0
LINE
  5
22F
100
AcDbEntity
  8
0
100
AcDbLine
 62
7
  6
CONTINUOUS
 10
8.5036524512
 20
6.8609436404
 11
8.5036524512
 21
6.8109436404
  0
LINE
  5
230
100
AcDbEntity
  8
0
100
AcDbLine
 62
7
  6
CONTINUOUS
 10
13.3742322343
 20
6.8109436404
 11
13.0392322343
 21
6.8109436404
  0
LINE
  5
231
100
AcDbEntity
  8
0
100
AcDbLine
 62
7
  6
CONTINUOUS
 10
8.8361524512
 20
6.8109436404
 11
8.5011524512
 21
6.8109436404
  0
LINE
  5
232
100
AcDbEntity
  8
0
100
AcDbLine
 62
7
  6
CONTINUOUS
 10
10.1001524512
 20
6.8343083821
 11
10.184078227
 21
6.8343083821
  0
LINE
  5
233
100
AcDbEntity
  8
0
100
AcDbLine
 62
7
  6
CONTINUOUS
 10
11.6863064585
 20
6.8343083821
 11
11.7702322343
 21
6.8343083821
  0
LINE
  5
234
100
AcDbEntity
  8
0
100
AcDbLine
 62
9
  6
CONTINUOUS
 10
13.3717322343
 20
6.8609436404
 11
13.0417322343
 21
6.8609436404
  0
LINE
  5
235
100
AcDbEntity
  8
0
100
AcDbLine
 62
9
  6
CONTINUOUS
 10
8.8336524512
 20
6.8609436404
 11
8.5036524512
 21
6.8609436404
  0
LINE
  5
236
100
AcDbEntity
  8
0
100
AcDbLine
 62
7
  6
CONTINUOUS
 10
8.4563502511
 20
6.8909436404
 11
8.8809546513
 21
6.8909436404
  0
LINE
  5
237
100
AcDbEntity
  8
0
100
AcDbLine
 62
7
  6
CONTINUOUS
 10
12.9944300342
 20
6.8909436404
 11
13.4190344344
 21
6.8909436404
  0
LINE
  5
238
100
AcDbEntity
  8
0
100
AcDbLine
 62
9
  6
CONTINUOUS
 10
8.4268502861
 20
6.9263981859
 11
8.9104546163
 21
6.9263981859
  0
LINE
  5
239
100
AcDbEntity
  8
0
100
AcDbLine
 62
9
  6
CONTINUOUS
 10
12.9649300692
 20
6.9263981859
 11
13.4485343994
 21
6.9263981859
  0
LINE
  5
23A
100
AcDbEntity
  8
0
100
AcDbLine
 62
7
  6
CONTINUOUS
 10
8.8336524512
 20
6.8609436404
 11
8.8336524512
 21
6.8109436404
  0
LINE
  5
23B
100
AcDbEntity
  8
0
100
AcDbLine
 62
7
  6
CONTINUOUS
 10
8.8361524512
 20
6.8109436404
 11
8.8361524512
 21
6.7789436404
  0
LINE
  5
23C
100
AcDbEntity
  8
0
100
AcDbLine
 62
9
  6
CONTINUOUS
 10
8.9020448655
 20
5.9745643361
 11
8.9020448655
 21
6.7440524281
  0
LINE
  5
23D
100
AcDbEntity
  8
0
100
AcDbLine
 62
9
  6
CONTINUOUS
 10
8.950392644
 20
6.0147429134
 11
8.950392644
 21
6.7038738509
  0
LINE
  5
23E
100
AcDbEntity
  8
0
100
AcDbLine
 62
9
  6
CONTINUOUS
 10
8.9770976831
 20
6.0249833772
 11
8.9770976831
 21
6.693633387
  0
LINE
  5
23F
100
AcDbEntity
  8
0
100
AcDbLine
 62
7
  6
CONTINUOUS
 10
9.0611524512
 20
9.0106094566
 11
9.0611524512
 21
8.9826256542
  0
LINE
  5
240
100
AcDbEntity
  8
0
100
AcDbLine
 62
9
  6
CONTINUOUS
 10
9.1140096134
 20
6.7335912031
 11
9.1140096134
 21
5.9850255611
  0
LINE
  5
241
100
AcDbEntity
  8
0
100
AcDbLine
 62
7
  6
CONTINUOUS
 10
9.1251524512
 20
5.9632704057
 11
9.1251524512
 21
6.7553463585
  0
LINE
  5
242
100
AcDbEntity
  8
0
100
AcDbLine
 62
9
  6
CONTINUOUS
 10
9.1628667369
 20
5.9233357653
 11
9.1628667369
 21
6.795280999
  0
LINE
  5
243
100
AcDbEntity
  8
0
100
AcDbLine
 62
7
  6
CONTINUOUS
 10
8.8921426433
 20
7.2459289678
 11
9.0284126726
 21
8.8878109187
  0
LINE
  5
244
100
AcDbEntity
  8
0
100
AcDbLine
 62
9
  6
CONTINUOUS
 10
10.6111199367
 20
11.644739848
 11
10.6111728632
 21
11.644801635
  0
LINE
  5
245
100
AcDbEntity
  8
0
100
AcDbLine
 62
9
  6
CONTINUOUS
 10
8.4079348211
 20
7.1439519682
 11
8.9293700813
 21
7.1439519682
  0
LINE
  5
246
100
AcDbEntity
  8
0
100
AcDbLine
 62
9
  6
CONTINUOUS
 10
12.9460146042
 20
7.1439519682
 11
13.4674498644
 21
7.1439519682
  0
LINE
  5
247
100
AcDbEntity
  8
0
100
AcDbLine
 62
7
  6
CONTINUOUS
 10
11.6351922702
 20
7.1460582915
 11
10.2351924153
 21
7.1460582915
  0
LINE
  5
248
100
AcDbEntity
  8
0
100
AcDbLine
 62
9
  6
CONTINUOUS
 10
10.2006975086
 20
7.1660580246
 11
11.6696871768
 21
7.1660580246
  0
LINE
  5
249
100
AcDbEntity
  8
0
100
AcDbLine
 62
9
  6
CONTINUOUS
 10
10.1901923427
 20
7.2002268151
 11
11.6801923427
 21
7.2002268151
  0
LINE
  5
24A
100
AcDbEntity
  8
0
100
AcDbLine
 62
9
  6
CONTINUOUS
 10
13.4503205609
 20
7.2015926916
 11
12.9631439077
 21
7.2015926916
  0
LINE
  5
24B
100
AcDbEntity
  8
0
100
AcDbLine
 62
9
  6
CONTINUOUS
 10
8.9122407778
 20
7.2015926916
 11
8.4250641246
 21
7.2015926916
  0
LINE
  5
24C
100
AcDbEntity
  8
0
100
AcDbLine
 62
9
  6
CONTINUOUS
 10
13.4302224264
 20
7.2459289678
 11
12.9832420422
 21
7.2459289678
  0
LINE
  5
24D
100
AcDbEntity
  8
0
100
AcDbLine
 62
9
  6
CONTINUOUS
 10
8.8921426433
 20
7.2459289678
 11
8.4451622591
 21
7.2459289678
  0
LINE
  5
24E
100
AcDbEntity
  8
0
100
AcDbLine
 62
7
  6
CONTINUOUS
 10
10.2251923427
 20
7.2660580246
 11
11.6451923427
 21
7.2660580246
  0
LINE
  5
24F
100
AcDbEntity
  8
0
100
AcDbLine
 62
9
  6
CONTINUOUS
 10
9.1984465439
 20
5.9145749452
 11
9.1984465439
 21
6.8040418191
  0
LINE
  5
250
100
AcDbEntity
  8
0
100
AcDbLine
 62
9
  6
CONTINUOUS
 10
9.2305300804
 20
5.9015249764
 11
9.2305300804
 21
6.8170917878
  0
LINE
  5
251
100
AcDbEntity
  8
0
100
AcDbLine
 62
9
  6
CONTINUOUS
 10
9.4964381655
 20
5.8470527464
 11
9.4964381655
 21
6.8715640178
  0
LINE
  5
252
100
AcDbEntity
  8
0
100
AcDbLine
 62
9
  6
CONTINUOUS
 10
10.638244908
 20
11.309268205
 11
10.6383027432
 21
11.3093475783
  0
LINE
  5
253
100
AcDbEntity
  8
0
100
AcDbLine
 62
9
  6
CONTINUOUS
 10
11.3091579515
 20
7.6778639868
 11
10.561226734
 21
7.6778639868
  0
LINE
  5
254
100
AcDbEntity
  8
0
100
AcDbLine
 62
9
  6
CONTINUOUS
 10
11.3170516744
 20
7.7235481416
 11
10.5533330111
 21
7.7235481416
  0
LINE
  5
255
100
AcDbEntity
  8
0
100
AcDbLine
 62
9
  6
CONTINUOUS
 10
10.5470587061
 20
7.745398209
 11
11.3233259794
 21
7.745398209
  0
LINE
  5
256
100
AcDbEntity
  8
0
100
AcDbLine
 62
9
  6
CONTINUOUS
 10
10.5554682855
 20
7.7727288307
 11
11.3149163999
 21
7.7727288307
  0
LINE
  5
257
100
AcDbEntity
  8
0
100
AcDbLine
 62
9
  6
CONTINUOUS
 10
10.5841088765
 20
7.7973120952
 11
11.286275809
 21
7.7973120952
  0
LINE
  5
258
100
AcDbEntity
  8
0
100
AcDbLine
 62
9
  6
CONTINUOUS
 10
10.5992746007
 20
7.802421661
 11
11.2711100847
 21
7.802421661
  0
LINE
  5
259
100
AcDbEntity
  8
0
100
AcDbLine
 62
7
  6
CONTINUOUS
 10
10.6331923427
 20
7.8060580246
 11
11.2371923427
 21
7.8060580246
  0
LINE
  5
25A
100
AcDbEntity
  8
0
100
AcDbLine
 62
9
  6
CONTINUOUS
 10
9.5582149512
 20
5.8236471603
 11
9.5582149512
 21
6.8949696039
  0
LINE
  5
25B
100
AcDbEntity
  8
0
100
AcDbLine
 62
7
  6
CONTINUOUS
 10
9.6301524512
 20
5.8343083821
 11
9.6301524512
 21
6.8843083821
  0
LINE
  5
25C
100
AcDbEntity
  8
0
100
AcDbLine
 62
7
  6
CONTINUOUS
 10
9.6501524512
 20
5.8445107269
 11
9.6501524512
 21
6.8741060373
  0
LINE
  5
25D
100
AcDbEntity
  8
0
100
AcDbLine
 62
9
  6
CONTINUOUS
 10
9.6792664116
 20
5.8266975824
 11
9.6792664116
 21
6.8919191818
  0
LINE
  5
25E
100
AcDbEntity
  8
0
100
AcDbLine
 62
9
  6
CONTINUOUS
 10
9.7401524512
 20
5.8488030886
 11
9.7401524512
 21
6.8698136757
  0
LINE
  5
25F
100
AcDbEntity
  8
0
100
AcDbLine
 62
9
  6
CONTINUOUS
 10
11.246232464
 20
11.5071475408
 11
11.2462660893
 21
11.5071880213
  0
LINE
  5
260
100
AcDbEntity
  8
0
100
AcDbLine
 62
7
  6
CONTINUOUS
 10
11.2494943593
 20
11.5108271408
 11
11.2462591057
 21
11.5071795996
  0
LINE
  5
261
100
AcDbEntity
  8
0
100
AcDbLine
 62
7
  6
CONTINUOUS
 10
11.2495490285
 20
11.5108846572
 11
11.2530967386
 21
11.5147285756
  0
LINE
  5
262
100
AcDbEntity
  8
0
100
AcDbLine
 62
9
  6
CONTINUOUS
 10
11.2494943596
 20
11.5108271406
 11
11.2495446778
 21
11.5108800823
  0
LINE
  5
263
100
AcDbEntity
  8
0
100
AcDbLine
 62
7
  6
CONTINUOUS
 10
10.1001524512
 20
5.8843083821
 11
10.1001524512
 21
6.8343083821
  0
LINE
  5
264
100
AcDbEntity
  8
0
100
AcDbLine
 62
7
  6
CONTINUOUS
 10
10.1301923427
 20
4.9140580246
 11
10.1301923427
 21
4.9921632612
  0
LINE
  5
265
100
AcDbEntity
  8
0
100
AcDbLine
 62
7
  6
CONTINUOUS
 10
10.5906588024
 20
11.6042040292
 11
10.5903986282
 21
11.6028502977
  0
LINE
  5
266
100
AcDbEntity
  8
0
100
AcDbLine
 62
7
  6
CONTINUOUS
 10
10.6512806665
 20
11.3495587511
 11
10.6517649521
 21
11.3728105521
  0
LINE
  5
267
100
AcDbEntity
  8
0
100
AcDbLine
 62
7
  6
CONTINUOUS
 10
10.5903279877
 20
11.6024647363
 11
10.5887649625
 21
11.5851776966
  0
LINE
  5
268
100
AcDbEntity
  8
0
100
AcDbLine
 62
7
  6
CONTINUOUS
 10
10.6215874073
 20
11.2717051772
 11
10.6201923274
 21
11.2571318327
  0
LINE
  5
269
100
AcDbEntity
  8
0
100
AcDbLine
 62
9
  6
CONTINUOUS
 10
8.3088922298
 20
8.8878109186
 11
9.0284126726
 21
8.8878109186
  0
LINE
  5
26A
100
AcDbEntity
  8
0
100
AcDbLine
 62
9
  6
CONTINUOUS
 10
12.8469720129
 20
8.8878109186
 11
13.5664924557
 21
8.8878109186
  0
LINE
  5
26B
100
AcDbEntity
  8
0
100
AcDbLine
 62
9
  6
CONTINUOUS
 10
10.6463997967
 20
11.4565636638
 11
10.6466763658
 21
11.4522419353
  0
LINE
  5
26C
100
AcDbEntity
  8
0
100
AcDbLine
 62
7
  6
CONTINUOUS
 10
10.651764954
 20
11.372810553
 11
10.6466763676
 21
11.4522419355
  0
LINE
  5
26D
100
AcDbEntity
  8
0
100
AcDbLine
 62
7
  6
CONTINUOUS
 10
10.6851923427
 20
13.7453586841
 11
10.6851923427
 21
11.6933239065
  0
LINE
  5
26E
100
AcDbEntity
  8
0
100
AcDbLine
 62
7
  6
CONTINUOUS
 10
10.6851923427
 20
7.8060580246
 11
10.6851923427
 21
11.1691950743
  0
LINE
  5
26F
100
AcDbEntity
  8
0
100
AcDbLine
 62
9
  6
CONTINUOUS
 10
11.2237054766
 20
11.4522197895
 11
11.2237071774
 21
11.4522330241
  0
LINE
  5
270
100
AcDbEntity
  8
0
100
AcDbLine
 62
9
  6
CONTINUOUS
 10
8.2817004542
 20
8.9646175481
 11
9.0556044482
 21
8.9646175481
  0
LINE
  5
271
100
AcDbEntity
  8
0
100
AcDbLine
 62
9
  6
CONTINUOUS
 10
12.8197802373
 20
8.9646175481
 11
13.5936842313
 21
8.9646175481
  0
LINE
  5
272
100
AcDbEntity
  8
0
100
AcDbLine
 62
9
  6
CONTINUOUS
 10
8.2761524512
 20
8.9826256542
 11
9.0611524512
 21
8.9826256542
  0
LINE
  5
273
100
AcDbEntity
  8
0
100
AcDbLine
 62
9
  6
CONTINUOUS
 10
12.8142322343
 20
8.9826256542
 11
13.5992322343
 21
8.9826256542
  0
LINE
  5
274
100
AcDbEntity
  8
0
100
AcDbLine
 62
9
  6
CONTINUOUS
 10
8.2761524512
 20
9.0106094566
 11
9.0611524512
 21
9.0106094566
  0
LINE
  5
275
100
AcDbEntity
  8
0
100
AcDbLine
 62
9
  6
CONTINUOUS
 10
12.8142322343
 20
9.0106094566
 11
13.5992322343
 21
9.0106094566
  0
LINE
  5
276
100
AcDbEntity
  8
0
100
AcDbLine
 62
9
  6
CONTINUOUS
 10
8.303920312
 20
9.0553948558
 11
9.0333845904
 21
9.0553948558
  0
LINE
  5
277
100
AcDbEntity
  8
0
100
AcDbLine
 62
9
  6
CONTINUOUS
 10
12.8420000951
 20
9.0553948558
 11
13.5714643735
 21
9.0553948558
  0
LINE
  5
278
100
AcDbEntity
  8
0
100
AcDbLine
 62
9
  6
CONTINUOUS
 10
10.6466763658
 20
11.4522419353
 11
10.6466792089
 21
11.4522197895
  0
LINE
  5
279
100
AcDbEntity
  8
0
100
AcDbLine
 62
7
  6
CONTINUOUS
 10
11.2186197334
 20
11.3728105521
 11
11.2191043344
 21
11.3495510713
  0
LINE
  5
27A
100
AcDbEntity
  8
0
100
AcDbLine
 62
7
  6
CONTINUOUS
 10
11.1851923427
 20
13.7453586841
 11
11.1851923427
 21
11.6933210972
  0
LINE
  5
27B
100
AcDbEntity
  8
0
100
AcDbLine
 62
7
  6
CONTINUOUS
 10
11.1851923427
 20
7.8060580246
 11
11.1851923427
 21
11.1692031349
  0
LINE
  5
27C
100
AcDbEntity
  8
0
100
AcDbLine
 62
9
  6
CONTINUOUS
 10
11.2237071774
 20
11.4522330241
 11
11.2239848887
 21
11.4565636638
  0
LINE
  5
27D
100
AcDbEntity
  8
0
100
AcDbLine
 62
7
  6
CONTINUOUS
 10
11.2237071755
 20
11.4522330243
 11
11.2186197314
 21
11.372810553
  0
LINE
  5
27E
100
AcDbEntity
  8
0
100
AcDbLine
 62
7
  6
CONTINUOUS
 10
11.250192358
 20
11.2571318327
 11
11.24880314
 21
11.2716740861
  0
LINE
  5
27F
100
AcDbEntity
  8
0
100
AcDbLine
 62
7
  6
CONTINUOUS
 10
11.281619723
 20
11.5851776966
 11
11.2800630055
 21
11.602429428
  0
LINE
  5
280
100
AcDbEntity
  8
0
100
AcDbLine
 62
7
  6
CONTINUOUS
 10
11.7401923427
 20
4.9140580246
 11
11.7401923427
 21
4.9921632612
  0
LINE
  5
281
100
AcDbEntity
  8
0
100
AcDbLine
 62
7
  6
CONTINUOUS
 10
11.7702322343
 20
6.8343083821
 11
11.7702322343
 21
5.8843083821
  0
LINE
  5
282
100
AcDbEntity
  8
0
100
AcDbLine
 62
7
  6
CONTINUOUS
 10
11.2799861054
 20
11.6028500389
 11
11.279726668
 21
11.604200063
  0
LINE
  5
283
100
AcDbEntity
  8
0
100
AcDbLine
 62
9
  6
CONTINUOUS
 10
12.1302322343
 20
6.8698136757
 11
12.1302322343
 21
5.8488030886
  0
LINE
  5
284
100
AcDbEntity
  8
0
100
AcDbLine
 62
9
  6
CONTINUOUS
 10
12.1911182739
 20
6.8919191818
 11
12.1911182739
 21
5.8266975824
  0
LINE
  5
285
100
AcDbEntity
  8
0
100
AcDbLine
 62
7
  6
CONTINUOUS
 10
12.2202322343
 20
6.8741164931
 11
12.2202322343
 21
5.8445002711
  0
LINE
  5
286
100
AcDbEntity
  8
0
100
AcDbLine
 62
7
  6
CONTINUOUS
 10
12.2452322343
 20
5.8343083821
 11
12.2452322343
 21
6.8843083821
  0
LINE
  5
287
100
AcDbEntity
  8
0
100
AcDbLine
 62
9
  6
CONTINUOUS
 10
12.3171697343
 20
5.8236471603
 11
12.3171697343
 21
6.8949696039
  0
LINE
  5
288
100
AcDbEntity
  8
0
100
AcDbLine
 62
9
  6
CONTINUOUS
 10
12.37894652
 20
5.8470527464
 11
12.37894652
 21
6.8715640178
  0
LINE
  5
289
100
AcDbEntity
  8
0
100
AcDbLine
 62
9
  6
CONTINUOUS
 10
10.62084224
 20
11.5108777316
 11
10.6208805724
 21
11.5108373957
  0
LINE
  5
28A
100
AcDbEntity
  8
0
100
AcDbLine
 62
7
  6
CONTINUOUS
 10
10.6172879468
 20
11.5147285756
 11
10.6208378894
 21
11.5108823065
  0
LINE
  5
28B
100
AcDbEntity
  8
0
100
AcDbLine
 62
7
  6
CONTINUOUS
 10
10.624125519
 20
11.5071796726
 11
10.6208805726
 21
11.5108373959
  0
LINE
  5
28C
100
AcDbEntity
  8
0
100
AcDbLine
 62
9
  6
CONTINUOUS
 10
11.2320831598
 20
11.3093459101
 11
11.2321260581
 21
11.3092870575
  0
LINE
  5
28D
100
AcDbEntity
  8
0
100
AcDbLine
 62
9
  6
CONTINUOUS
 10
12.6448546051
 20
5.9015249764
 11
12.6448546051
 21
6.8170917878
  0
LINE
  5
28E
100
AcDbEntity
  8
0
100
AcDbLine
 62
9
  6
CONTINUOUS
 10
12.6769381416
 20
5.9145749452
 11
12.6769381416
 21
6.8040418191
  0
LINE
  5
28F
100
AcDbEntity
  8
0
100
AcDbLine
 62
9
  6
CONTINUOUS
 10
12.7125179486
 20
5.9233357653
 11
12.7125179486
 21
6.795280999
  0
LINE
  5
290
100
AcDbEntity
  8
0
100
AcDbLine
 62
7
  6
CONTINUOUS
 10
12.7502322343
 20
5.9632704057
 11
12.7502322343
 21
6.7553463585
  0
LINE
  5
291
100
AcDbEntity
  8
0
100
AcDbLine
 62
9
  6
CONTINUOUS
 10
12.7613750721
 20
5.9850255611
 11
12.7613750721
 21
6.7335912031
  0
LINE
  5
292
100
AcDbEntity
  8
0
100
AcDbLine
 62
9
  6
CONTINUOUS
 10
11.2592125044
 20
11.6448008395
 11
11.2592647488
 21
11.644739848
  0
LINE
  5
293
100
AcDbEntity
  8
0
100
AcDbLine
 62
7
  6
CONTINUOUS
 10
12.9832420422
 20
7.2459289678
 11
12.8469720128
 21
8.8878109187
  0
LINE
  5
294
100
AcDbEntity
  8
0
100
AcDbLine
 62
7
  6
CONTINUOUS
 10
12.8142322343
 20
9.0106094566
 11
12.8142322343
 21
8.9826256542
  0
LINE
  5
295
100
AcDbEntity
  8
0
100
AcDbLine
 62
9
  6
CONTINUOUS
 10
12.8982870024
 20
6.693633387
 11
12.8982870024
 21
6.0249833772
  0
LINE
  5
296
100
AcDbEntity
  8
0
100
AcDbLine
 62
9
  6
CONTINUOUS
 10
12.9249920415
 20
6.7038738509
 11
12.9249920415
 21
6.0147429134
  0
LINE
  5
297
100
AcDbEntity
  8
0
100
AcDbLine
 62
9
  6
CONTINUOUS
 10
12.97333982
 20
6.7440524281
 11
12.97333982
 21
5.9745643361
  0
LINE
  5
298
100
AcDbEntity
  8
0
100
AcDbLine
 62
7
  6
CONTINUOUS
 10
13.0392322343
 20
6.8109436404
 11
13.0392322343
 21
6.7789436404
  0
LINE
  5
299
100
AcDbEntity
  8
0
100
AcDbLine
 62
7
  6
CONTINUOUS
 10
13.0417322343
 20
6.8609436404
 11
13.0417322343
 21
6.8109436404
  0
LINE
  5
29A
100
AcDbEntity
  8
0
100
AcDbLine
 62
7
  6
CONTINUOUS
 10
13.3717322343
 20
6.8609436404
 11
13.3717322343
 21
6.8109436404
  0
LINE
  5
29B
100
AcDbEntity
  8
0
100
AcDbLine
 62
7
  6
CONTINUOUS
 10
13.3742322343
 20
6.8109436404
 11
13.3742322343
 21
6.7789436404
  0
LINE
  5
29C
100
AcDbEntity
  8
0
100
AcDbLine
 62
9
  6
CONTINUOUS
 10
13.3845134126
 20
6.7727014791
 11
13.3845134126
 21
5.9459152851
  0
LINE
  5
29D
100
AcDbEntity
  8
0
100
AcDbLine
 62
7
  6
CONTINUOUS
 10
13.5052322343
 20
6.5993083821
 11
13.5052322343
 21
6.1193083821
  0
LINE
  5
29E
100
AcDbEntity
  8
0
100
AcDbLine
 62
9
  6
CONTINUOUS
 10
13.5252322343
 20
6.1193083821
 11
13.5252322343
 21
6.5993083821
  0
LINE
  5
29F
100
AcDbEntity
  8
0
100
AcDbLine
 62
7
  6
CONTINUOUS
 10
13.5852322343
 20
6.1793083821
 11
13.5852322343
 21
6.5393083821
  0
LINE
  5
2A0
100
AcDbEntity
  8
0
100
AcDbLine
 62
7
  6
CONTINUOUS
 10
13.5992322343
 20
9.0106094566
 11
13.5992322343
 21
8.9826256542
  0
LINE
  5
2A1
100
AcDbEntity
  8
0
100
AcDbLine
 62
7
  6
CONTINUOUS
 10
13.6142322343
 20
6.3543083821
 11
13.6142322343
 21
6.3643083821
  0
LINE
  5
2A2
100
AcDbEntity
  8
0
100
AcDbLine
 62
7
  6
CONTINUOUS
 10
13.4302224264
 20
7.2459289678
 11
13.5664924557
 21
8.8878109187
  0
ARC
  5
2A3
100
AcDbEntity
  8
0
100
AcDbCircle
 62
7
  6
CONTINUOUS
 10
7.3874567048
 20
6.8781801703
 40
3.33
100
AcDbArc
 50
317.2208356048
 51
320.4847857946
  0
ARC
  5
2A4
100
AcDbEntity
  8
0
100
AcDbCircle
 62
7
  6
CONTINUOUS
 10
8.7401923427
 20
6.3593083821
 40
3.0
100
AcDbArc
 50
9.5940682269
 51
15.2036093746
  0
ARC
  5
2A5
100
AcDbEntity
  8
0
100
AcDbCircle
 62
7
  6
CONTINUOUS
 10
8.7401923427
 20
6.3593083821
 40
3.0
100
AcDbArc
 50
344.0943492185
 51
350.4059317731
  0
ARC
  5
2A6
100
AcDbEntity
  8
0
100
AcDbCircle
 62
7
  6
CONTINUOUS
 10
8.7966923427
 20
5.5741652483
 40
1.41
100
AcDbArc
 50
314.8329096352
 51
317.2208356048
  0
ARC
  5
2A7
100
AcDbEntity
  8
0
100
AcDbCircle
 62
7
  6
CONTINUOUS
 10
8.6686524512
 20
6.3593083821
 40
0.45
100
AcDbArc
 50
111.1684488458
 51
113.270295265
  0
ARC
  5
2A8
100
AcDbEntity
  8
0
100
AcDbCircle
 62
7
  6
CONTINUOUS
 10
8.6686524512
 20
6.3593083821
 40
0.45
100
AcDbArc
 50
246.729704735
 51
301.2417269012
  0
ARC
  5
2A9
100
AcDbEntity
  8
0
100
AcDbCircle
 62
7
  6
CONTINUOUS
 10
8.6686524512
 20
6.3593083821
 40
0.45
100
AcDbArc
 50
58.7582730988
 51
68.8315511542
  0
ARC
  5
2AA
100
AcDbEntity
  8
0
100
AcDbCircle
 62
7
  6
CONTINUOUS
 10
8.023684098
 20
7.0009436404
 40
0.41
100
AcDbArc
 50
349.5243183036
 51
20.4139841937
  0
ARC
  5
2AB
100
AcDbEntity
  8
0
100
AcDbCircle
 62
7
  6
CONTINUOUS
 10
8.7915724573
 20
6.5619402456
 40
0.213
100
AcDbArc
 50
41.7863579417
 51
58.758273487
  0
ARC
  5
2AC
100
AcDbEntity
  8
0
100
AcDbCircle
 62
7
  6
CONTINUOUS
 10
8.7915724573
 20
6.1566765187
 40
0.213
100
AcDbArc
 50
301.2417265048
 51
318.213642051
  0
ARC
  5
2AD
100
AcDbEntity
  8
0
100
AcDbCircle
 62
7
  6
CONTINUOUS
 10
8.5698851299
 20
6.5889712138
 40
0.2
100
AcDbArc
 50
113.2702952483
 51
177.0372992981
  0
ARC
  5
2AE
100
AcDbEntity
  8
0
100
AcDbCircle
 62
7
  6
CONTINUOUS
 10
8.5698851299
 20
6.1296455505
 40
0.2
100
AcDbArc
 50
182.9627007019
 51
246.7297047517
  0
ARC
  5
2AF
100
AcDbEntity
  8
0
100
AcDbCircle
 62
7
  6
CONTINUOUS
 10
8.3501524512
 20
6.1793083821
 40
0.06
100
AcDbArc
 50
180.0
 51
270.0
  0
ARC
  5
2B0
100
AcDbEntity
  8
0
100
AcDbCircle
 62
7
  6
CONTINUOUS
 10
8.3501524512
 20
6.5393083821
 40
0.06
100
AcDbArc
 50
90.0
 51
180.0
  0
ARC
  5
2B1
100
AcDbEntity
  8
0
100
AcDbCircle
 62
7
  6
CONTINUOUS
 10
8.3953335839
 20
7.241793375
 40
0.05
100
AcDbArc
 50
306.4848929408
 51
4.7444603621
  0
ARC
  5
2B2
100
AcDbEntity
  8
0
100
AcDbCircle
 62
7
  6
CONTINUOUS
 10
8.4547946654
 20
7.1613920082
 40
0.05
100
AcDbArc
 50
126.4848929408
 51
200.4139841937
  0
ARC
  5
2B3
100
AcDbEntity
  8
0
100
AcDbCircle
 62
7
  6
CONTINUOUS
 10
8.4736524512
 20
6.8609436404
 40
0.03
100
AcDbArc
 50
0.0
 51
89.9999999924
  0
ARC
  5
2B4
100
AcDbEntity
  8
0
100
AcDbCircle
 62
7
  6
CONTINUOUS
 10
8.4563502511
 20
6.9209436404
 40
0.03
100
AcDbArc
 50
169.5243183035
 51
270.0
  0
ARC
  5
2B5
100
AcDbEntity
  8
0
100
AcDbCircle
 62
7
  6
CONTINUOUS
 10
9.8433874043
 20
1.472951887
 40
3.914
100
AcDbArc
 50
58.9672911176
 51
59.4359471186
  0
ARC
  5
2B6
100
AcDbEntity
  8
0
100
AcDbCircle
 62
7
  6
CONTINUOUS
 10
9.4442583048
 20
5.7164523582
 40
4.22
100
AcDbArc
 50
8.830993503
 51
11.105718838
  0
ARC
  5
2B7
100
AcDbEntity
  8
0
100
AcDbCircle
 62
7
  6
CONTINUOUS
 10
8.9324377887
 20
5.6174229598
 40
0.41
100
AcDbArc
 50
63.7136175837
 51
83.746559171
  0
ARC
  5
2B8
100
AcDbEntity
  8
0
100
AcDbCircle
 62
7
  6
CONTINUOUS
 10
9.4901524512
 20
5.7372324851
 40
0.11
100
AcDbArc
 50
51.7750897984
 51
86.7241710402
  0
ARC
  5
2B9
100
AcDbEntity
  8
0
100
AcDbCircle
 62
7
  6
CONTINUOUS
 10
9.1571524512
 20
5.8234991641
 40
0.1
100
AcDbArc
 50
65.610286376
 51
86.7241710402
  0
ARC
  5
2BA
100
AcDbEntity
  8
0
100
AcDbCircle
 62
7
  6
CONTINUOUS
 10
9.4442583048
 20
7.0021644061
 40
4.22
100
AcDbArc
 50
348.894281162
 51
351.169006497
  0
ARC
  5
2BB
100
AcDbEntity
  8
0
100
AcDbCircle
 62
7
  6
CONTINUOUS
 10
9.5501524512
 20
6.7855167977
 40
0.94
100
AcDbArc
 50
250.1216759765
 51
266.7241710402
  0
ARC
  5
2BC
100
AcDbEntity
  8
0
100
AcDbCircle
 62
7
  6
CONTINUOUS
 10
9.5501524512
 20
5.9330999666
 40
0.94
100
AcDbArc
 50
93.2758289598
 51
109.8783240235
  0
ARC
  5
2BD
100
AcDbEntity
  8
0
100
AcDbCircle
 62
7
  6
CONTINUOUS
 10
9.3801405518
 20
6.3153083821
 40
0.44
100
AcDbArc
 50
245.610286376
 51
250.1216759765
  0
ARC
  5
2BE
100
AcDbEntity
  8
0
100
AcDbCircle
 62
7
  6
CONTINUOUS
 10
9.3801405518
 20
6.4033083821
 40
0.44
100
AcDbArc
 50
109.8783240235
 51
114.389713624
  0
ARC
  5
2BF
100
AcDbEntity
  8
0
100
AcDbCircle
 62
7
  6
CONTINUOUS
 10
8.9324377887
 20
7.1011938044
 40
0.41
100
AcDbArc
 50
276.253440829
 51
296.2863824163
  0
ARC
  5
2C0
100
AcDbEntity
  8
0
100
AcDbCircle
 62
7
  6
CONTINUOUS
 10
9.3136208044
 20
7.0009436404
 40
0.41
100
AcDbArc
 50
159.5860158063
 51
190.4756816964
  0
ARC
  5
2C1
100
AcDbEntity
  8
0
100
AcDbCircle
 62
7
  6
CONTINUOUS
 10
9.4901524512
 20
6.9813842791
 40
0.11
100
AcDbArc
 50
273.2758289598
 51
308.2249102015
  0
ARC
  5
2C2
100
AcDbEntity
  8
0
100
AcDbCircle
 62
7
  6
CONTINUOUS
 10
9.1571524512
 20
6.8951176002
 40
0.1
100
AcDbArc
 50
273.2758289598
 51
294.389713624
  0
ARC
  5
2C3
100
AcDbEntity
  8
0
100
AcDbCircle
 62
7
  6
CONTINUOUS
 10
8.9419713185
 20
7.241793375
 40
0.05
100
AcDbArc
 50
175.2555396379
 51
233.5151070592
  0
ARC
  5
2C4
100
AcDbEntity
  8
0
100
AcDbCircle
 62
7
  6
CONTINUOUS
 10
9.5891524512
 20
6.8556902061
 40
0.05
100
AcDbArc
 50
34.9152062474
 51
128.2249102015
  0
ARC
  5
2C5
100
AcDbEntity
  8
0
100
AcDbCircle
 62
7
  6
CONTINUOUS
 10
9.5891524512
 20
5.8629265582
 40
0.05
100
AcDbArc
 50
231.7750897985
 51
325.0847937526
  0
ARC
  5
2C6
100
AcDbEntity
  8
0
100
AcDbCircle
 62
7
  6
CONTINUOUS
 10
8.882510237
 20
7.1613920082
 40
0.05
100
AcDbArc
 50
339.5860158063
 51
53.5151070592
  0
ARC
  5
2C7
100
AcDbEntity
  8
0
100
AcDbCircle
 62
7
  6
CONTINUOUS
 10
9.1651524512
 20
5.9632704057
 40
0.04
100
AcDbArc
 50
180.0
 51
266.7241710402
  0
ARC
  5
2C8
100
AcDbEntity
  8
0
100
AcDbCircle
 62
7
  6
CONTINUOUS
 10
9.1651524512
 20
6.7553463585
 40
0.04
100
AcDbArc
 50
93.2758289598
 51
180.0
  0
ARC
  5
2C9
100
AcDbEntity
  8
0
100
AcDbCircle
 62
7
  6
CONTINUOUS
 10
8.9736937277
 20
6.7246974432
 40
0.03125
100
AcDbArc
 50
221.7863579488
 51
276.2534408291
  0
ARC
  5
2CA
100
AcDbEntity
  8
0
100
AcDbCircle
 62
7
  6
CONTINUOUS
 10
8.9736937277
 20
5.993919321
 40
0.03125
100
AcDbArc
 50
83.7465591693
 51
138.213642059
  0
ARC
  5
2CB
100
AcDbEntity
  8
0
100
AcDbCircle
 62
7
  6
CONTINUOUS
 10
8.8636524512
 20
6.8609436404
 40
0.03
100
AcDbArc
 50
90.0000000076
 51
180.0
  0
ARC
  5
2CC
100
AcDbEntity
  8
0
100
AcDbCircle
 62
7
  6
CONTINUOUS
 10
8.8809546513
 20
6.9209436404
 40
0.03
100
AcDbArc
 50
270.0
 51
10.4756816965
  0
ARC
  5
2CD
100
AcDbEntity
  8
0
100
AcDbCircle
 62
7
  6
CONTINUOUS
 10
9.1051524512
 20
5.9670937269
 40
0.02
100
AcDbArc
 50
0.0
 51
63.7136175835
  0
ARC
  5
2CE
100
AcDbEntity
  8
0
100
AcDbCircle
 62
7
  6
CONTINUOUS
 10
9.1051524512
 20
6.7515230373
 40
0.02
100
AcDbArc
 50
296.2863824165
 51
360.0
  0
ARC
  5
2CF
100
AcDbEntity
  8
0
100
AcDbCircle
 62
7
  6
CONTINUOUS
 10
10.0613578209
 20
4.4348274486
 40
1.45
100
AcDbArc
 50
88.4668732052
 51
102.7983811059
  0
ARC
  5
2D0
100
AcDbEntity
  8
0
100
AcDbCircle
 62
7
  6
CONTINUOUS
 10
9.7641923427
 20
5.4001191412
 40
0.5
100
AcDbArc
 50
323.6327207052
 51
15.9056507815
  0
ARC
  5
2D1
100
AcDbEntity
  8
0
100
AcDbCircle
 62
7
  6
CONTINUOUS
 10
9.7977478968
 20
5.595262629
 40
0.26
100
AcDbArc
 50
102.7983811059
 51
117.1098550633
  0
ARC
  5
2D2
100
AcDbEntity
  8
0
100
AcDbCircle
 62
7
  6
CONTINUOUS
 10
10.3181923427
 20
4.9921632612
 40
0.188
100
AcDbArc
 50
143.6327207052
 51
180.0
  0
ARC
  5
2D3
100
AcDbEntity
  8
0
100
AcDbCircle
 62
7
  6
CONTINUOUS
 10
9.9909581166
 20
4.9206410436
 40
0.09
100
AcDbArc
 50
300.5640528814
 51
338.4043985281
  0
ARC
  5
2D4
100
AcDbEntity
  8
0
100
AcDbCircle
 62
7
  6
CONTINUOUS
 10
10.1136923427
 20
4.8720580246
 40
0.042
100
AcDbArc
 50
90.0
 51
158.4043985281
  0
ARC
  5
2D5
100
AcDbEntity
  8
0
100
AcDbCircle
 62
7
  6
CONTINUOUS
 10
9.9975499036
 20
4.7830580246
 40
0.042
100
AcDbArc
 50
126.8698976458
 51
145.2315554512
  0
ARC
  5
2D6
100
AcDbEntity
  8
0
100
AcDbCircle
 62
7
  6
CONTINUOUS
 10
9.9945499036
 20
4.7870580246
 40
0.037
100
AcDbArc
 50
90.0
 51
126.8698976458
  0
ARC
  5
2D7
100
AcDbEntity
  8
0
100
AcDbCircle
 62
7
  6
CONTINUOUS
 10
9.9876923427
 20
4.7899011595
 40
0.03
100
AcDbArc
 50
145.2315554512
 51
200.8768537569
  0
ARC
  5
2D8
100
AcDbEntity
  8
0
100
AcDbCircle
 62
7
  6
CONTINUOUS
 10
9.8049019137
 20
4.5600580246
 40
0.02
100
AcDbArc
 50
134.8329096351
 51
270.0
  0
ARC
  5
2D9
100
AcDbEntity
  8
0
100
AcDbCircle
 62
7
  6
CONTINUOUS
 10
9.9409749171
 20
4.7720831309
 40
0.02
100
AcDbArc
 50
320.4847857942
 51
20.8768537572
  0
ARC
  5
2DA
100
AcDbEntity
  8
0
100
AcDbCircle
 62
7
  6
CONTINUOUS
 10
9.9989127703
 20
4.8438908091
 40
0.02
100
AcDbArc
 50
274.139305123
 51
301.0327088824
  0
ARC
  5
2DB
100
AcDbEntity
  8
0
100
AcDbCircle
 62
7
  6
CONTINUOUS
 10
9.7977478968
 20
7.1233541353
 40
0.26
100
AcDbArc
 50
242.8901449367
 51
257.2016188941
  0
ARC
  5
2DC
100
AcDbEntity
  8
0
100
AcDbCircle
 62
7
  6
CONTINUOUS
 10
10.2699795409
 20
7.2060580246
 40
0.08
100
AcDbArc
 50
184.180003138
 51
210.0
  0
ARC
  5
2DD
100
AcDbEntity
  8
0
100
AcDbCircle
 62
7
  6
CONTINUOUS
 10
10.2600061412
 20
7.2053291235
 40
0.07
100
AcDbArc
 50
119.8241698133
 51
184.180003138
  0
ARC
  5
2DE
100
AcDbEntity
  8
0
100
AcDbCircle
 62
7
  6
CONTINUOUS
 10
10.2353385248
 20
7.1860580246
 40
0.04
100
AcDbArc
 50
210.0
 51
269.7907130594
  0
ARC
  5
2DF
100
AcDbEntity
  8
0
100
AcDbCircle
 62
7
  6
CONTINUOUS
 10
9.6701524512
 20
5.8445002711
 40
0.02
100
AcDbArc
 50
180.0
 51
297.1098550633
  0
ARC
  5
2E0
100
AcDbEntity
  8
0
100
AcDbCircle
 62
7
  6
CONTINUOUS
 10
9.6701524512
 20
6.8741164931
 40
0.02
100
AcDbArc
 50
62.8901449367
 51
180.0
  0
ARC
  5
2E1
100
AcDbEntity
  8
0
100
AcDbCircle
 62
7
  6
CONTINUOUS
 10
10.0613578209
 20
8.2837893157
 40
1.45
100
AcDbArc
 50
257.2016188941
 51
271.5331267948
  0
ARC
  5
2E2
100
AcDbEntity
  8
0
100
AcDbCircle
 62
7
  6
CONTINUOUS
 10
8.6686524512
 20
8.3206623904
 40
0.82028125
100
AcDbArc
 50
63.599513499
 51
116.400486501
  0
ARC
  5
2E3
100
AcDbEntity
  8
0
100
AcDbCircle
 62
9
  6
CONTINUOUS
 10
10.9347658489
 20
11.9368976627
 40
0.8152430545
100
AcDbArc
 50
265.8894960934
 51
269.6659711584
  0
ARC
  5
2E4
100
AcDbEntity
  8
0
100
AcDbCircle
 62
9
  6
CONTINUOUS
 10
10.9321316221
 20
11.8981002861
 40
0.776356671
100
AcDbArc
 50
265.2228061888
 51
265.878163459
  0
ARC
  5
2E5
100
AcDbEntity
  8
0
100
AcDbCircle
 62
9
  6
CONTINUOUS
 10
10.9261420615
 20
11.8353788175
 40
0.7133546627
100
AcDbArc
 50
260.9064031808
 51
265.2826625556
  0
ARC
  5
2E6
100
AcDbEntity
  8
0
100
AcDbCircle
 62
9
  6
CONTINUOUS
 10
10.9141055248
 20
11.7548718733
 40
0.6319577814
100
AcDbArc
 50
260.4835198786
 51
260.8303648181
  0
ARC
  5
2E7
100
AcDbEntity
  8
0
100
AcDbCircle
 62
7
  6
CONTINUOUS
 10
9.9764257784
 20
7.8120572888
 40
0.6
100
AcDbArc
 50
294.4948179499
 51
347.0761704798
  0
ARC
  5
2E8
100
AcDbEntity
  8
0
100
AcDbCircle
 62
7
  6
CONTINUOUS
 10
10.6331923427
 20
7.6460580246
 40
0.16
100
AcDbArc
 50
90.0
 51
102.2387557679
  0
ARC
  5
2E9
100
AcDbEntity
  8
0
100
AcDbCircle
 62
7
  6
CONTINUOUS
 10
8.1494404691
 20
8.8745770219
 40
0.16
100
AcDbArc
 50
4.7444603622
 51
34.2464206489
  0
ARC
  5
2EA
100
AcDbEntity
  8
0
100
AcDbCircle
 62
7
  6
CONTINUOUS
 10
9.1878644333
 20
8.874577022
 40
0.16
100
AcDbArc
 50
145.7535793535
 51
175.2555396378
  0
ARC
  5
2EB
100
AcDbEntity
  8
0
100
AcDbCircle
 62
7
  6
CONTINUOUS
 10
10.7121593057
 20
11.5994081494
 40
0.1271849454
100
AcDbArc
 50
218.5664351023
 51
221.803655228
  0
ARC
  5
2EC
100
AcDbEntity
  8
0
100
AcDbCircle
 62
9
  6
CONTINUOUS
 10
10.6969304264
 20
11.5425043273
 40
0.1271138673
100
AcDbArc
 50
127.4920567343
 51
129.9193859616
  0
ARC
  5
2ED
100
AcDbEntity
  8
0
100
AcDbCircle
 62
9
  6
CONTINUOUS
 10
10.696195832
 20
11.5445344513
 40
0.1256734518
100
AcDbArc
 50
127.4804809805
 51
130.3186373387
  0
ARC
  5
2EE
100
AcDbEntity
  8
0
100
AcDbCircle
 62
7
  6
CONTINUOUS
 10
10.7067256125
 20
11.5952442249
 40
0.1203406091
100
AcDbArc
 50
211.3014106342
 51
218.6291718553
  0
ARC
  5
2EF
100
AcDbEntity
  8
0
100
AcDbCircle
 62
7
  6
CONTINUOUS
 10
10.5275418166
 20
11.4368830728
 40
0.1201204941
100
AcDbArc
 50
7.3354200186
 51
9.523820681
  0
ARC
  5
2F0
100
AcDbEntity
  8
0
100
AcDbCircle
 62
7
  6
CONTINUOUS
 10
10.6990922363
 20
11.5906573176
 40
0.1114352283
100
AcDbArc
 50
205.6880607657
 51
211.3253606431
  0
ARC
  5
2F1
100
AcDbEntity
  8
0
100
AcDbCircle
 62
7
  6
CONTINUOUS
 10
10.6950629524
 20
11.588688491
 40
0.1069507429
100
AcDbArc
 50
204.0803518861
 51
205.6732409705
  0
ARC
  5
2F2
100
AcDbEntity
  8
0
100
AcDbCircle
 62
7
  6
CONTINUOUS
 10
10.6911833625
 20
11.5870004698
 40
0.102720044
100
AcDbArc
 50
199.9973222866
 51
204.1036787293
  0
ARC
  5
2F3
100
AcDbEntity
  8
0
100
AcDbCircle
 62
7
  6
CONTINUOUS
 10
10.703136258
 20
11.2589717817
 40
0.0832507999
100
AcDbArc
 50
201.8568073694
 51
203.2933758053
  0
ARC
  5
2F4
100
AcDbEntity
  8
0
100
AcDbCircle
 62
7
  6
CONTINUOUS
 10
10.6145375846
 20
7.7320580246
 40
0.072
100
AcDbArc
 50
102.2387557679
 51
115.0001697536
  0
ARC
  5
2F5
100
AcDbEntity
  8
0
100
AcDbCircle
 62
7
  6
CONTINUOUS
 10
10.6136923427
 20
7.7338706377
 40
0.07
100
AcDbArc
 50
115.0001697536
 51
146.2812232358
  0
ARC
  5
2F6
100
AcDbEntity
  8
0
100
AcDbCircle
 62
9
  6
CONTINUOUS
 10
10.6627452266
 20
11.5572336875
 40
0.0621605111
100
AcDbArc
 50
212.8355216724
 51
214.7124400329
  0
ARC
  5
2F7
100
AcDbEntity
  8
0
100
AcDbCircle
 62
7
  6
CONTINUOUS
 10
10.5027466385
 20
7.691283317
 40
0.06
100
AcDbArc
 50
347.0761704797
 51
32.530403885
  0
ARC
  5
2F8
100
AcDbEntity
  8
0
100
AcDbCircle
 62
9
  6
CONTINUOUS
 10
10.6681323434
 20
11.5449617896
 40
0.0579540689
100
AcDbArc
 50
210.8761446665
 51
213.7286096827
  0
ARC
  5
2F9
100
AcDbEntity
  8
0
100
AcDbCircle
 62
9
  6
CONTINUOUS
 10
10.7003647806
 20
11.2264367518
 40
0.0520981505
100
AcDbArc
 50
212.0977588759
 51
213.710369758
  0
ARC
  5
2FA
100
AcDbEntity
  8
0
100
AcDbCircle
 62
7
  6
CONTINUOUS
 10
10.5970568978
 20
7.7449729786
 40
0.05
100
AcDbArc
 50
146.2812232358
 51
179.5127159942
  0
ARC
  5
2FB
100
AcDbEntity
  8
0
100
AcDbCircle
 62
7
  6
CONTINUOUS
 10
8.3261524512
 20
9.0106094566
 40
0.05
100
AcDbArc
 50
116.400486501
 51
180.0
  0
ARC
  5
2FC
100
AcDbEntity
  8
0
100
AcDbCircle
 62
7
  6
CONTINUOUS
 10
9.0111524512
 20
9.0106094566
 40
0.05
100
AcDbArc
 50
0.0
 51
63.599513499
  0
ARC
  5
2FD
100
AcDbEntity
  8
0
100
AcDbCircle
 62
7
  6
CONTINUOUS
 10
10.5870572595
 20
7.7450580246
 40
0.04
100
AcDbArc
 50
179.5127159942
 51
212.5304038849
  0
ARC
  5
2FE
100
AcDbEntity
  8
0
100
AcDbCircle
 62
7
  6
CONTINUOUS
 10
8.3081524512
 20
8.9826256533
 40
0.032
100
AcDbArc
 50
179.9999983074
 51
214.2464206447
  0
ARC
  5
2FF
100
AcDbEntity
  8
0
100
AcDbCircle
 62
7
  6
CONTINUOUS
 10
9.0291524512
 20
8.9826256533
 40
0.032
100
AcDbArc
 50
325.7535793494
 51
0.0000016549
  0
ARC
  5
300
100
AcDbEntity
  8
0
100
AcDbCircle
 62
7
  6
CONTINUOUS
 10
12.0269972812
 20
1.472951887
 40
3.914
100
AcDbArc
 50
120.5640528814
 51
121.0327088824
  0
ARC
  5
301
100
AcDbEntity
  8
0
100
AcDbCircle
 62
7
  6
CONTINUOUS
 10
11.8090268645
 20
4.4348274486
 40
1.45
100
AcDbArc
 50
77.2016188941
 51
91.5331267948
  0
ARC
  5
302
100
AcDbEntity
  8
0
100
AcDbCircle
 62
7
  6
CONTINUOUS
 10
12.1061923427
 20
5.4001191412
 40
0.5
100
AcDbArc
 50
164.0943492185
 51
216.3672792948
  0
ARC
  5
303
100
AcDbEntity
  8
0
100
AcDbCircle
 62
7
  6
CONTINUOUS
 10
12.0726367887
 20
5.595262629
 40
0.26
100
AcDbArc
 50
62.8901449367
 51
77.2016188941
  0
ARC
  5
304
100
AcDbEntity
  8
0
100
AcDbCircle
 62
7
  6
CONTINUOUS
 10
11.5521923427
 20
4.9921632612
 40
0.188
100
AcDbArc
 50
0.0
 51
36.3672792948
  0
ARC
  5
305
100
AcDbEntity
  8
0
100
AcDbCircle
 62
7
  6
CONTINUOUS
 10
11.8794265689
 20
4.9206410436
 40
0.09
100
AcDbArc
 50
201.5956014719
 51
239.4359471186
  0
ARC
  5
306
100
AcDbEntity
  8
0
100
AcDbCircle
 62
7
  6
CONTINUOUS
 10
11.7566923427
 20
4.8720580246
 40
0.042
100
AcDbArc
 50
21.5956014719
 51
90.0
  0
ARC
  5
307
100
AcDbEntity
  8
0
100
AcDbCircle
 62
7
  6
CONTINUOUS
 10
11.8728347819
 20
4.7830580246
 40
0.042
100
AcDbArc
 50
34.7684445488
 51
53.1301023542
  0
ARC
  5
308
100
AcDbEntity
  8
0
100
AcDbCircle
 62
7
  6
CONTINUOUS
 10
11.8758347819
 20
4.7870580246
 40
0.037
100
AcDbArc
 50
53.1301023542
 51
90.0
  0
ARC
  5
309
100
AcDbEntity
  8
0
100
AcDbCircle
 62
7
  6
CONTINUOUS
 10
11.8826923427
 20
4.7899011595
 40
0.03
100
AcDbArc
 50
339.1231462431
 51
34.7684445488
  0
ARC
  5
30A
100
AcDbEntity
  8
0
100
AcDbCircle
 62
7
  6
CONTINUOUS
 10
12.0654827718
 20
4.5600580246
 40
0.02
100
AcDbArc
 50
270.0
 51
45.1670903649
  0
ARC
  5
30B
100
AcDbEntity
  8
0
100
AcDbCircle
 62
7
  6
CONTINUOUS
 10
11.9294097684
 20
4.7720831309
 40
0.02
100
AcDbArc
 50
159.1231462428
 51
219.5152142058
  0
ARC
  5
30C
100
AcDbEntity
  8
0
100
AcDbCircle
 62
7
  6
CONTINUOUS
 10
11.8714719152
 20
4.8438908091
 40
0.02
100
AcDbArc
 50
238.9672911176
 51
265.860694877
  0
ARC
  5
30D
100
AcDbEntity
  8
0
100
AcDbCircle
 62
7
  6
CONTINUOUS
 10
12.0726367887
 20
7.1233541353
 40
0.26
100
AcDbArc
 50
282.7983811059
 51
297.1098550633
  0
ARC
  5
30E
100
AcDbEntity
  8
0
100
AcDbCircle
 62
7
  6
CONTINUOUS
 10
11.6004051445
 20
7.2060580246
 40
0.08
100
AcDbArc
 50
330.0
 51
355.819996862
  0
ARC
  5
30F
100
AcDbEntity
  8
0
100
AcDbCircle
 62
7
  6
CONTINUOUS
 10
11.6103785443
 20
7.2053291235
 40
0.07
100
AcDbArc
 50
355.819996862
 51
60.1758301867
  0
ARC
  5
310
100
AcDbEntity
  8
0
100
AcDbCircle
 62
7
  6
CONTINUOUS
 10
11.6350461607
 20
7.1860580246
 40
0.04
100
AcDbArc
 50
270.2092869406
 51
330.0
  0
ARC
  5
311
100
AcDbEntity
  8
0
100
AcDbCircle
 62
7
  6
CONTINUOUS
 10
12.2002322343
 20
6.8741164931
 40
0.02
100
AcDbArc
 50
0.0
 51
117.1098550633
  0
ARC
  5
312
100
AcDbEntity
  8
0
100
AcDbCircle
 62
7
  6
CONTINUOUS
 10
12.2002322343
 20
5.8445002711
 40
0.02
100
AcDbArc
 50
242.8901449367
 51
360.0
  0
ARC
  5
313
100
AcDbEntity
  8
0
100
AcDbCircle
 62
7
  6
CONTINUOUS
 10
12.4311263806
 20
5.7164523582
 40
4.22
100
AcDbArc
 50
168.894281162
 51
171.169006497
  0
ARC
  5
314
100
AcDbEntity
  8
0
100
AcDbCircle
 62
7
  6
CONTINUOUS
 10
12.9429468968
 20
5.6174229598
 40
0.41
100
AcDbArc
 50
96.253440829
 51
116.2863824163
  0
ARC
  5
315
100
AcDbEntity
  8
0
100
AcDbCircle
 62
7
  6
CONTINUOUS
 10
12.3852322343
 20
5.7372324851
 40
0.11
100
AcDbArc
 50
93.2758289598
 51
128.2249102016
  0
ARC
  5
316
100
AcDbEntity
  8
0
100
AcDbCircle
 62
7
  6
CONTINUOUS
 10
12.7182322343
 20
5.8234991641
 40
0.1
100
AcDbArc
 50
93.2758289598
 51
114.389713624
  0
ARC
  5
317
100
AcDbEntity
  8
0
100
AcDbCircle
 62
7
  6
CONTINUOUS
 10
12.4311263806
 20
7.0021644061
 40
4.22
100
AcDbArc
 50
188.830993503
 51
191.105718838
  0
ARC
  5
318
100
AcDbEntity
  8
0
100
AcDbCircle
 62
7
  6
CONTINUOUS
 10
12.3252322343
 20
6.7855167977
 40
0.94
100
AcDbArc
 50
273.2758289598
 51
289.8783240235
  0
ARC
  5
319
100
AcDbEntity
  8
0
100
AcDbCircle
 62
7
  6
CONTINUOUS
 10
12.3252322343
 20
5.9330999666
 40
0.94
100
AcDbArc
 50
70.1216759765
 51
86.7241710402
  0
ARC
  5
31A
100
AcDbEntity
  8
0
100
AcDbCircle
 62
7
  6
CONTINUOUS
 10
12.4952441337
 20
6.3153083821
 40
0.44
100
AcDbArc
 50
289.8783240235
 51
294.389713624
  0
ARC
  5
31B
100
AcDbEntity
  8
0
100
AcDbCircle
 62
7
  6
CONTINUOUS
 10
12.4952441337
 20
6.4033083821
 40
0.44
100
AcDbArc
 50
65.610286376
 51
70.1216759765
  0
ARC
  5
31C
100
AcDbEntity
  8
0
100
AcDbCircle
 62
7
  6
CONTINUOUS
 10
12.9429468968
 20
7.1011938044
 40
0.41
100
AcDbArc
 50
243.7136175837
 51
263.746559171
  0
ARC
  5
31D
100
AcDbEntity
  8
0
100
AcDbCircle
 62
7
  6
CONTINUOUS
 10
12.5617638811
 20
7.0009436404
 40
0.41
100
AcDbArc
 50
349.5243183036
 51
20.4139841937
  0
ARC
  5
31E
100
AcDbEntity
  8
0
100
AcDbCircle
 62
7
  6
CONTINUOUS
 10
12.3852322343
 20
6.9813842791
 40
0.11
100
AcDbArc
 50
231.7750897984
 51
266.7241710402
  0
ARC
  5
31F
100
AcDbEntity
  8
0
100
AcDbCircle
 62
7
  6
CONTINUOUS
 10
12.7182322343
 20
6.8951176002
 40
0.1
100
AcDbArc
 50
245.610286376
 51
266.7241710402
  0
ARC
  5
320
100
AcDbEntity
  8
0
100
AcDbCircle
 62
7
  6
CONTINUOUS
 10
12.2862322343
 20
6.8556902061
 40
0.05
100
AcDbArc
 50
51.7750897985
 51
145.0847937526
  0
ARC
  5
321
100
AcDbEntity
  8
0
100
AcDbCircle
 62
7
  6
CONTINUOUS
 10
12.2862322343
 20
5.8629265582
 40
0.05
100
AcDbArc
 50
214.9152062474
 51
308.2249102015
  0
ARC
  5
322
100
AcDbEntity
  8
0
100
AcDbCircle
 62
7
  6
CONTINUOUS
 10
12.9928744485
 20
7.1613920082
 40
0.05
100
AcDbArc
 50
126.4848929408
 51
200.4139841937
  0
ARC
  5
323
100
AcDbEntity
  8
0
100
AcDbCircle
 62
7
  6
CONTINUOUS
 10
12.933413367
 20
7.241793375
 40
0.05
100
AcDbArc
 50
306.4848929408
 51
4.7444603621
  0
ARC
  5
324
100
AcDbEntity
  8
0
100
AcDbCircle
 62
7
  6
CONTINUOUS
 10
12.7102322343
 20
5.9632704057
 40
0.04
100
AcDbArc
 50
273.2758289598
 51
360.0
  0
ARC
  5
325
100
AcDbEntity
  8
0
100
AcDbCircle
 62
7
  6
CONTINUOUS
 10
12.7102322343
 20
6.7553463585
 40
0.04
100
AcDbArc
 50
0.0
 51
86.7241710402
  0
ARC
  5
326
100
AcDbEntity
  8
0
100
AcDbCircle
 62
7
  6
CONTINUOUS
 10
12.9016909578
 20
6.7246974432
 40
0.03125
100
AcDbArc
 50
263.7465591709
 51
318.2136420512
  0
ARC
  5
327
100
AcDbEntity
  8
0
100
AcDbCircle
 62
7
  6
CONTINUOUS
 10
12.9016909578
 20
5.993919321
 40
0.03125
100
AcDbArc
 50
41.786357941
 51
96.2534408307
  0
ARC
  5
328
100
AcDbEntity
  8
0
100
AcDbCircle
 62
7
  6
CONTINUOUS
 10
12.9944300342
 20
6.9209436404
 40
0.03
100
AcDbArc
 50
169.5243183035
 51
270.0
  0
ARC
  5
329
100
AcDbEntity
  8
0
100
AcDbCircle
 62
7
  6
CONTINUOUS
 10
13.0117322343
 20
6.8609436404
 40
0.03
100
AcDbArc
 50
0.0
 51
89.9999999924
  0
ARC
  5
32A
100
AcDbEntity
  8
0
100
AcDbCircle
 62
7
  6
CONTINUOUS
 10
12.7702322343
 20
5.9670937269
 40
0.02
100
AcDbArc
 50
116.2863824165
 51
180.0
  0
ARC
  5
32B
100
AcDbEntity
  8
0
100
AcDbCircle
 62
7
  6
CONTINUOUS
 10
12.7702322343
 20
6.7515230373
 40
0.02
100
AcDbArc
 50
180.0
 51
243.7136175835
  0
ARC
  5
32C
100
AcDbEntity
  8
0
100
AcDbCircle
 62
7
  6
CONTINUOUS
 10
14.4829279807
 20
6.8781801703
 40
3.33
100
AcDbArc
 50
219.5152142054
 51
222.7791643952
  0
ARC
  5
32D
100
AcDbEntity
  8
0
100
AcDbCircle
 62
7
  6
CONTINUOUS
 10
13.1301923427
 20
6.3593083821
 40
3.0
100
AcDbArc
 50
189.5940682269
 51
195.9056507815
  0
ARC
  5
32E
100
AcDbEntity
  8
0
100
AcDbCircle
 62
7
  6
CONTINUOUS
 10
13.1301923427
 20
6.3593083821
 40
3.0
100
AcDbArc
 50
164.7963906254
 51
170.4059317731
  0
ARC
  5
32F
100
AcDbEntity
  8
0
100
AcDbCircle
 62
7
  6
CONTINUOUS
 10
13.0736923427
 20
5.5741652483
 40
1.41
100
AcDbArc
 50
222.7791643952
 51
225.1670903648
  0
ARC
  5
330
100
AcDbEntity
  8
0
100
AcDbCircle
 62
7
  6
CONTINUOUS
 10
13.2067322343
 20
6.3593083821
 40
0.45
100
AcDbArc
 50
66.729704735
 51
68.8315511542
  0
ARC
  5
331
100
AcDbEntity
  8
0
100
AcDbCircle
 62
7
  6
CONTINUOUS
 10
13.2067322343
 20
6.3593083821
 40
0.45
100
AcDbArc
 50
238.7582730988
 51
293.270295265
  0
ARC
  5
332
100
AcDbEntity
  8
0
100
AcDbCircle
 62
7
  6
CONTINUOUS
 10
13.2067322343
 20
6.3593083821
 40
0.45
100
AcDbArc
 50
111.1684488458
 51
121.2417269012
  0
ARC
  5
333
100
AcDbEntity
  8
0
100
AcDbCircle
 62
7
  6
CONTINUOUS
 10
13.8517005874
 20
7.0009436404
 40
0.41
100
AcDbArc
 50
159.5860158063
 51
190.4756816964
  0
ARC
  5
334
100
AcDbEntity
  8
0
100
AcDbCircle
 62
7
  6
CONTINUOUS
 10
13.0838122282
 20
6.5619402456
 40
0.213
100
AcDbArc
 50
121.241726513
 51
138.2136420583
  0
ARC
  5
335
100
AcDbEntity
  8
0
100
AcDbCircle
 62
7
  6
CONTINUOUS
 10
13.0838122281
 20
6.1566765187
 40
0.213
100
AcDbArc
 50
221.786357949
 51
238.7582734952
  0
ARC
  5
336
100
AcDbEntity
  8
0
100
AcDbCircle
 62
7
  6
CONTINUOUS
 10
13.3054995556
 20
6.5889712138
 40
0.2
100
AcDbArc
 50
2.9627007019
 51
66.7297047517
  0
ARC
  5
337
100
AcDbEntity
  8
0
100
AcDbCircle
 62
7
  6
CONTINUOUS
 10
13.3054995556
 20
6.1296455505
 40
0.2
100
AcDbArc
 50
293.2702952483
 51
357.0372992981
  0
ARC
  5
338
100
AcDbEntity
  8
0
100
AcDbCircle
 62
7
  6
CONTINUOUS
 10
13.5252322343
 20
6.1793083821
 40
0.06
100
AcDbArc
 50
270.0
 51
360.0
  0
ARC
  5
339
100
AcDbEntity
  8
0
100
AcDbCircle
 62
7
  6
CONTINUOUS
 10
13.5252322343
 20
6.5393083821
 40
0.06
100
AcDbArc
 50
0.0
 51
90.0
  0
ARC
  5
33A
100
AcDbEntity
  8
0
100
AcDbCircle
 62
7
  6
CONTINUOUS
 10
13.4205900201
 20
7.1613920082
 40
0.05
100
AcDbArc
 50
339.5860158063
 51
53.5151070592
  0
ARC
  5
33B
100
AcDbEntity
  8
0
100
AcDbCircle
 62
7
  6
CONTINUOUS
 10
13.4800511016
 20
7.241793375
 40
0.05
100
AcDbArc
 50
175.2555396379
 51
233.5151070592
  0
ARC
  5
33C
100
AcDbEntity
  8
0
100
AcDbCircle
 62
7
  6
CONTINUOUS
 10
13.4190344344
 20
6.9209436404
 40
0.03
100
AcDbArc
 50
270.0
 51
10.4756816965
  0
ARC
  5
33D
100
AcDbEntity
  8
0
100
AcDbCircle
 62
7
  6
CONTINUOUS
 10
13.4017322343
 20
6.8609436404
 40
0.03
100
AcDbArc
 50
90.0000000076
 51
180.0
  0
ARC
  5
33E
100
AcDbEntity
  8
0
100
AcDbCircle
 62
7
  6
CONTINUOUS
 10
11.8090268645
 20
8.2837893157
 40
1.45
100
AcDbArc
 50
268.4668732052
 51
282.7983811059
  0
ARC
  5
33F
100
AcDbEntity
  8
0
100
AcDbCircle
 62
9
  6
CONTINUOUS
 10
10.9351923419
 20
11.9530439968
 40
0.831391667
100
AcDbArc
 50
269.6430667646
 51
270.3685307237
  0
ARC
  5
340
100
AcDbEntity
  8
0
100
AcDbCircle
 62
9
  6
CONTINUOUS
 10
10.9353200558
 20
11.9445668284
 40
0.8229138557
100
AcDbArc
 50
270.3634351214
 51
274.1048914895
  0
ARC
  5
341
100
AcDbEntity
  8
0
100
AcDbCircle
 62
7
  6
CONTINUOUS
 10
13.2067322343
 20
8.3206623904
 40
0.82028125
100
AcDbArc
 50
63.599513499
 51
116.400486501
  0
ARC
  5
342
100
AcDbEntity
  8
0
100
AcDbCircle
 62
9
  6
CONTINUOUS
 10
10.9380776142
 20
11.9003539691
 40
0.7786171338
100
AcDbArc
 50
274.1353848159
 51
274.7840875269
  0
ARC
  5
343
100
AcDbEntity
  8
0
100
AcDbCircle
 62
9
  6
CONTINUOUS
 10
10.944277543
 20
11.8350836545
 40
0.7130575147
100
AcDbArc
 50
274.7250516472
 51
279.1051668909
  0
ARC
  5
344
100
AcDbEntity
  8
0
100
AcDbCircle
 62
9
  6
CONTINUOUS
 10
10.9559990181
 20
11.7565755237
 40
0.6336843029
100
AcDbArc
 50
279.18201277
 51
279.5143737358
  0
ARC
  5
345
100
AcDbEntity
  8
0
100
AcDbCircle
 62
7
  6
CONTINUOUS
 10
11.8939589071
 20
7.8120572888
 40
0.6
100
AcDbArc
 50
192.9238295202
 51
245.5051820501
  0
ARC
  5
346
100
AcDbEntity
  8
0
100
AcDbCircle
 62
7
  6
CONTINUOUS
 10
10.9351923427
 20
13.7460580246
 40
0.25
100
AcDbArc
 50
0.0
 51
180.0
  0
ARC
  5
347
100
AcDbEntity
  8
0
100
AcDbCircle
 62
7
  6
CONTINUOUS
 10
11.2371923427
 20
7.6460580246
 40
0.16
100
AcDbArc
 50
77.7612442321
 51
90.0
  0
ARC
  5
348
100
AcDbEntity
  8
0
100
AcDbCircle
 62
7
  6
CONTINUOUS
 10
13.7259442164
 20
8.874577022
 40
0.16
100
AcDbArc
 50
145.7535793535
 51
175.2555396378
  0
ARC
  5
349
100
AcDbEntity
  8
0
100
AcDbCircle
 62
7
  6
CONTINUOUS
 10
12.6875202522
 20
8.8745770219
 40
0.16
100
AcDbArc
 50
4.7444603622
 51
34.2464206489
  0
ARC
  5
34A
100
AcDbEntity
  8
0
100
AcDbCircle
 62
9
  6
CONTINUOUS
 10
11.1719107917
 20
11.5405781593
 40
0.1295816058
100
AcDbArc
 50
50.1037302992
 51
52.484827005
  0
ARC
  5
34B
100
AcDbEntity
  8
0
100
AcDbCircle
 62
9
  6
CONTINUOUS
 10
11.172406533
 20
11.5423255626
 40
0.1285108844
100
AcDbArc
 50
49.7127011369
 51
52.4881805439
  0
ARC
  5
34C
100
AcDbEntity
  8
0
100
AcDbCircle
 62
7
  6
CONTINUOUS
 10
11.1587589305
 20
11.599077623
 40
0.1265673247
100
AcDbArc
 50
318.1442778846
 51
322.5929326157
  0
ARC
  5
34D
100
AcDbEntity
  8
0
100
AcDbCircle
 62
7
  6
CONTINUOUS
 10
11.343156328
 20
11.4368370738
 40
0.120437261
100
AcDbArc
 50
170.498818146
 51
172.661915561
  0
ARC
  5
34E
100
AcDbEntity
  8
0
100
AcDbCircle
 62
7
  6
CONTINUOUS
 10
11.1639068763
 20
11.5950926044
 40
0.1200573185
100
AcDbArc
 50
322.6111707913
 51
328.7640788591
  0
ARC
  5
34F
100
AcDbEntity
  8
0
100
AcDbCircle
 62
7
  6
CONTINUOUS
 10
11.1702956736
 20
11.5911430851
 40
0.1125465886
100
AcDbArc
 50
328.7966599227
 51
334.3530466269
  0
ARC
  5
350
100
AcDbEntity
  8
0
100
AcDbCircle
 62
7
  6
CONTINUOUS
 10
11.1752520828
 20
11.5886687929
 40
0.1070075934
100
AcDbArc
 50
334.3987002376
 51
335.9853875238
  0
ARC
  5
351
100
AcDbEntity
  8
0
100
AcDbCircle
 62
7
  6
CONTINUOUS
 10
11.1784283848
 20
11.5872684585
 40
0.103536334
100
AcDbArc
 50
335.9778976297
 51
340.4435875576
  0
ARC
  5
352
100
AcDbEntity
  8
0
100
AcDbCircle
 62
7
  6
CONTINUOUS
 10
11.1672930121
 20
11.2589343312
 40
0.0831941712
100
AcDbArc
 50
336.7717236013
 51
338.1890272552
  0
ARC
  5
353
100
AcDbEntity
  8
0
100
AcDbCircle
 62
7
  6
CONTINUOUS
 10
11.3029827897
 20
11.4600457969
 40
0.0737542495
100
AcDbArc
 50
140.3173857046
 51
143.2926770416
  0
ARC
  5
354
100
AcDbEntity
  8
0
100
AcDbCircle
 62
7
  6
CONTINUOUS
 10
11.2558471008
 20
7.7320580246
 40
0.072
100
AcDbArc
 50
64.9998302464
 51
77.7612442321
  0
ARC
  5
355
100
AcDbEntity
  8
0
100
AcDbCircle
 62
7
  6
CONTINUOUS
 10
11.2566923427
 20
7.7338706377
 40
0.07
100
AcDbArc
 50
33.7187767642
 51
64.9998302464
  0
ARC
  5
356
100
AcDbEntity
  8
0
100
AcDbCircle
 62
7
  6
CONTINUOUS
 10
11.367638047
 20
7.691283317
 40
0.06
100
AcDbArc
 50
147.469596115
 51
192.9238295203
  0
ARC
  5
357
100
AcDbEntity
  8
0
100
AcDbCircle
 62
9
  6
CONTINUOUS
 10
11.2016285412
 20
11.5453562398
 40
0.0586918948
100
AcDbArc
 50
326.2892709638
 51
329.1003640756
  0
ARC
  5
358
100
AcDbEntity
  8
0
100
AcDbCircle
 62
9
  6
CONTINUOUS
 10
11.1697880271
 20
11.2265872911
 40
0.0523745875
100
AcDbArc
 50
326.2934200794
 51
327.7790591661
  0
ARC
  5
359
100
AcDbEntity
  8
0
100
AcDbCircle
 62
7
  6
CONTINUOUS
 10
11.2733277877
 20
7.7449729786
 40
0.05
100
AcDbArc
 50
0.4872840058
 51
33.7187767642
  0
ARC
  5
35A
100
AcDbEntity
  8
0
100
AcDbCircle
 62
7
  6
CONTINUOUS
 10
13.5492322343
 20
9.0106094566
 40
0.05
100
AcDbArc
 50
0.0
 51
63.599513499
  0
ARC
  5
35B
100
AcDbEntity
  8
0
100
AcDbCircle
 62
7
  6
CONTINUOUS
 10
12.8642322343
 20
9.0106094566
 40
0.05
100
AcDbArc
 50
116.400486501
 51
180.0
  0
ARC
  5
35C
100
AcDbEntity
  8
0
100
AcDbCircle
 62
7
  6
CONTINUOUS
 10
11.283327426
 20
7.7450580246
 40
0.04
100
AcDbArc
 50
327.4695961151
 51
0.4872840058
  0
ARC
  5
35D
100
AcDbEntity
  8
0
100
AcDbCircle
 62
7
  6
CONTINUOUS
 10
13.5672322343
 20
8.9826256533
 40
0.032
100
AcDbArc
 50
325.7535793494
 51
0.0000016549
  0
ARC
  5
35E
100
AcDbEntity
  8
0
100
AcDbCircle
 62
7
  6
CONTINUOUS
 10
12.8462322343
 20
8.9826256533
 40
0.032
100
AcDbArc
 50
179.9999983074
 51
214.2464206447
  0
SPLINE
  5
35F
100
AcDbEntity
  8
0
100
AcDbSpline
 62
7
  6
CONTINUOUS
 70
0
 71
3
 72
11
 73
7
 74
0
 42
0.0000001
 43
0.0000001
 44
0.0000000001
 40
0.0
 40
0.0
 40
0.0
 40
0.0
 40
0.197977882
 40
0.4378286825
 40
0.7079750535
 40
1.0
 40
1.0
 40
1.0
 40
1.0
 10
11.2438540628
 20
11.5041307487
 30
0.0
 10
11.2418126915
 20
11.5013968038
 30
0.0
 10
11.2376718567
 20
11.4950684472
 30
0.0
 10
11.2321143536
 20
11.4841757608
 30
0.0
 10
11.2273963361
 20
11.4711472038
 30
0.0
 10
11.2252018564
 20
11.4616811939
 30
0.0
 10
11.2243712016
 20
11.4567174056
 30
0.0
  0
SPLINE
  5
360
100
AcDbEntity
  8
0
100
AcDbSpline
 62
7
  6
CONTINUOUS
 70
0
 71
3
 72
12
 73
8
 74
0
 42
0.0000001
 43
0.0000001
 44
0.0000000001
 40
0.0
 40
0.0
 40
0.0
 40
0.0
 40
0.3027716487
 40
0.5781778173
 40
0.8156025011
 40
0.9155527925
 40
1.0
 40
1.0
 40
1.0
 40
1.0
 10
10.6460066777
 20
11.4567579261
 30
0.0
 10
10.6450796499
 20
11.4622855369
 30
0.0
 10
10.6425767214
 20
11.4727326458
 30
0.0
 10
10.6371268667
 20
11.4868604751
 30
0.0
 10
10.6316122915
 20
11.4968145146
 30
0.0
 10
10.6272085828
 20
11.5032666024
 30
0.0
 10
10.6251240632
 20
11.5059728796
 30
0.0
 10
10.6241290322
 20
11.5071785701
 30
0.0
  0
SPLINE
  5
361
100
AcDbEntity
  8
0
100
AcDbSpline
 62
7
  6
CONTINUOUS
 70
0
 71
3
 72
9
 73
5
 74
0
 42
0.0000001
 43
0.0000001
 44
0.0000000001
 40
0.0
 40
0.0
 40
0.0
 40
0.0
 40
0.2495917764
 40
1.0
 40
1.0
 40
1.0
 40
1.0
 10
11.222755191
 20
11.1956776677
 30
0.0
 10
11.2238532021
 20
11.1967880662
 30
0.0
 10
11.228163334
 20
11.2013235474
 30
0.0
 10
11.2321015459
 20
11.2062172727
 30
0.0
 10
11.2347807684
 20
11.210072803
 30
0.0
  0
SPLINE
  5
362
100
AcDbEntity
  8
0
100
AcDbSpline
 62
7
  6
CONTINUOUS
 70
0
 71
3
 72
9
 73
5
 74
0
 42
0.0000001
 43
0.0000001
 44
0.0000000001
 40
0.0
 40
0.0
 40
0.0
 40
0.0
 40
0.2497999207
 40
1.0
 40
1.0
 40
1.0
 40
1.0
 10
11.2347807684
 20
11.210072803
 30
0.0
 10
11.2356550715
 20
11.2113309672
 30
0.0
 10
11.2390387288
 20
11.2164468243
 30
0.0
 10
11.2419289535
 20
11.2218945817
 30
0.0
 10
11.2437435313
 20
11.226122927
 30
0.0
  0
SPLINE
  5
363
100
AcDbEntity
  8
0
100
AcDbSpline
 62
7
  6
CONTINUOUS
 70
0
 71
3
 72
9
 73
5
 74
0
 42
0.0000001
 43
0.0000001
 44
0.0000000001
 40
0.0
 40
0.0
 40
0.0
 40
0.0
 40
0.4920729873
 40
1.0
 40
1.0
 40
1.0
 40
1.0
 10
11.2445317027
 20
11.2280238993
 30
0.0
 10
11.246347006
 20
11.2325604048
 30
0.0
 10
11.2492197627
 20
11.2421317541
 30
0.0
 10
11.250192358
 20
11.2520881777
 30
0.0
 10
11.250192358
 20
11.2571318327
 30
0.0
  0
SPLINE
  5
364
100
AcDbEntity
  8
0
100
AcDbSpline
 62
7
  6
CONTINUOUS
 70
0
 71
3
 72
25
 73
21
 74
0
 42
0.0000001
 43
0.0000001
 44
0.0000000001
 40
0.0
 40
0.0
 40
0.0
 40
0.0
 40
0.0412751197
 40
0.0898323312
 40
0.1532715438
 40
0.2286971426
 40
0.3134537959
 40
0.3585279161
 40
0.4049193865
 40
0.4522247545
 40
0.4999999965
 40
0.5477752405
 40
0.5950806076
 40
0.6414720792
 40
0.6865461989
 40
0.7713028523
 40
0.8467284547
 40
0.9101676685
 40
0.9587248799
 40
1.0
 40
1.0
 40
1.0
 40
1.0
 10
11.6982322555
 20
5.8593083821
 30
0.0
 10
11.6919558169
 20
5.872217746
 30
0.0
 10
11.6785963416
 20
5.9004622835
 30
0.0
 10
11.6570590977
 20
5.949229087
 30
0.0
 10
11.6328897192
 20
6.0097858743
 30
0.0
 10
11.6078270571
 20
6.0834536541
 30
0.0
 10
11.5896301517
 20
6.1525692308
 30
0.0
 10
11.578018184
 20
6.2127660773
 30
0.0
 10
11.5712683281
 20
6.2605756726
 30
0.0
 10
11.5670428077
 20
6.3096198861
 30
0.0
 10
11.5656030806
 20
6.3593083792
 30
0.0
 10
11.5670428073
 20
6.408996872
 30
0.0
 10
11.5712683277
 20
6.4580410863
 30
0.0
 10
11.578018183
 20
6.5058506816
 30
0.0
 10
11.5896301505
 20
6.5660475284
 30
0.0
 10
11.6078270559
 20
6.6351631064
 30
0.0
 10
11.6328897183
 20
6.7088308878
 30
0.0
 10
11.6570590974
 20
6.7693876766
 30
0.0
 10
11.6785963415
 20
6.8181544806
 30
0.0
 10
11.6919558169
 20
6.8463990181
 30
0.0
 10
11.6982322557
 20
6.8593083821
 30
0.0
  0
SPLINE
  5
365
100
AcDbEntity
  8
0
100
AcDbSpline
 62
7
  6
CONTINUOUS
 70
0
 71
3
 72
25
 73
21
 74
0
 42
0.0000001
 43
0.0000001
 44
0.0000000001
 40
0.0
 40
0.0
 40
0.0
 40
0.0
 40
0.0412751122
 40
0.0898323247
 40
0.1532715399
 40
0.2286971437
 40
0.3134537983
 40
0.3585279186
 40
0.404919391
 40
0.452224759
 40
0.5000000035
 40
0.5477752461
 40
0.5950806148
 40
0.6414720861
 40
0.6865462068
 40
0.7713028613
 40
0.8467284616
 40
0.9101676758
 40
0.9587248883
 40
1.0
 40
1.0
 40
1.0
 40
1.0
 10
10.1721524512
 20
6.8593083821
 30
0.0
 10
10.178428878
 20
6.8463990158
 30
0.0
 10
10.1917883417
 20
6.8181544759
 30
0.0
 10
10.2133255896
 20
6.7693876769
 30
0.0
 10
10.2374949669
 20
6.7088308869
 30
0.0
 10
10.26255763
 20
6.6351631058
 30
0.0
 10
10.280754535
 20
6.5660475279
 30
0.0
 10
10.2923665026
 20
6.5058506813
 30
0.0
 10
10.2991163578
 20
6.458041086
 30
0.0
 10
10.3033418782
 20
6.4089968718
 30
0.0
 10
10.3047816048
 20
6.3593083791
 30
0.0
 10
10.3033418778
 20
6.3096198862
 30
0.0
 10
10.2991163574
 20
6.2605756728
 30
0.0
 10
10.2923665015
 20
6.2127660776
 30
0.0
 10
10.2807545339
 20
6.1525692313
 30
0.0
 10
10.2625576287
 20
6.0834536546
 30
0.0
 10
10.237494966
 20
6.009785875
 30
0.0
 10
10.2133255893
 20
5.9492290866
 30
0.0
 10
10.1917883415
 20
5.900462288
 30
0.0
 10
10.1784288779
 20
5.8722177483
 30
0.0
 10
10.1721524512
 20
5.8593083821
 30
0.0
  0
SPLINE
  5
366
100
AcDbEntity
  8
0
100
AcDbSpline
 62
7
  6
CONTINUOUS
 70
0
 71
3
 72
9
 73
5
 74
0
 42
0.0000001
 43
0.0000001
 44
0.0000000001
 40
0.0
 40
0.0
 40
0.0
 40
0.0
 40
0.5085241462
 40
1.0
 40
1.0
 40
1.0
 40
1.0
 10
10.6201923274
 20
11.2571318327
 30
0.0
 10
10.6201923274
 20
11.2520739781
 30
0.0
 10
10.6211653735
 20
11.242100686
 30
0.0
 10
10.6240500595
 20
11.2325154556
 30
0.0
 10
10.6258697614
 20
11.2279784893
 30
0.0
  0
SPLINE
  5
367
100
AcDbEntity
  8
0
100
AcDbSpline
 62
7
  6
CONTINUOUS
 70
0
 71
3
 72
9
 73
5
 74
0
 42
0.0000001
 43
0.0000001
 44
0.0000000001
 40
0.0
 40
0.0
 40
0.0
 40
0.0
 40
0.2505660405
 40
1.0
 40
1.0
 40
1.0
 40
1.0
 10
10.6266710555
 20
11.2260511425
 30
0.0
 10
10.6272827354
 20
11.2246302594
 30
0.0
 10
10.6298802762
 20
11.2190274444
 30
0.0
 10
10.6330716754
 20
11.2137056931
 30
0.0
 10
10.6357205923
 20
11.2099121146
 30
0.0
  0
SPLINE
  5
368
100
AcDbEntity
  8
0
100
AcDbSpline
 62
7
  6
CONTINUOUS
 70
0
 71
3
 72
9
 73
5
 74
0
 42
0.0000001
 43
0.0000001
 44
0.0000000001
 40
0.0
 40
0.0
 40
0.0
 40
0.0
 40
0.2503571428
 40
1.0
 40
1.0
 40
1.0
 40
1.0
 10
10.6357205923
 20
11.2099121146
 30
0.0
 10
10.636602151
 20
11.2086496128
 30
0.0
 10
10.6402394581
 20
11.2036883695
 30
0.0
 10
10.6443109409
 20
11.1990495758
 30
0.0
 10
10.6475478318
 20
11.1957661407
 30
0.0
  0
SPLINE
  5
369
100
AcDbEntity
  8
0
100
AcDbSpline
 62
7
  6
CONTINUOUS
 70
0
 71
3
 72
31
 73
27
 74
0
 42
0.0000001
 43
0.0000001
 44
0.0000000001
 40
0.0
 40
0.0
 40
0.0
 40
0.0
 40
0.0239520256
 40
0.0483697397
 40
0.0734977904
 40
0.0995160633
 40
0.1266307863
 40
0.155017598
 40
0.1847739279
 40
0.2158682159
 40
0.2817961369
 40
0.3519771895
 40
0.4252031065
 40
0.5000026611
 40
0.5748020747
 40
0.6480273552
 40
0.7182073214
 40
0.7841340061
 40
0.815227411
 40
0.8449827689
 40
0.8733687162
 40
0.9004830202
 40
0.9265019036
 40
0.9516319011
 40
0.9760508088
 40
1.0
 40
1.0
 40
1.0
 40
1.0
 10
11.2592647488
 20
11.644739848
 30
0.0
 10
11.2556845539
 20
11.6489237333
 30
0.0
 10
11.2478820761
 20
11.6568959651
 30
0.0
 10
11.2347203596
 20
11.667538983
 30
0.0
 10
11.2202074435
 20
11.6771277326
 30
0.0
 10
11.2044412414
 20
11.6858304519
 30
0.0
 10
11.1874257271
 20
11.6937182422
 30
0.0
 10
11.1691727775
 20
11.700887843
 30
0.0
 10
11.1497140867
 20
11.7074134731
 30
0.0
 10
11.1216775967
 20
11.7154113324
 30
0.0
 10
11.0840829718
 20
11.7236248456
 30
0.0
 10
11.036439204
 20
11.7306412473
 30
0.0
 10
10.9864251907
 20
11.7349050382
 30
0.0
 10
10.9351905515
 20
11.7363355518
 30
0.0
 10
10.8839560568
 20
11.7349049174
 30
0.0
 10
10.8339425034
 20
11.7306408018
 30
0.0
 10
10.7862994174
 20
11.7236244669
 30
0.0
 10
10.7487055364
 20
11.7154109896
 30
0.0
 10
10.7206697643
 20
11.7074132043
 30
0.0
 10
10.7012116901
 20
11.7008877086
 30
0.0
 10
10.6829591906
 20
11.6937183872
 30
0.0
 10
10.6659437658
 20
11.6858307701
 30
0.0
 10
10.6501771393
 20
11.6771277875
 30
0.0
 10
10.6356636805
 20
11.6675382805
 30
0.0
 10
10.6225020572
 20
11.6568950603
 30
0.0
 10
10.6146997079
 20
11.6489232382
 30
0.0
 10
10.6111199367
 20
11.644739848
 30
0.0
  0
SPLINE
  5
36A
100
AcDbEntity
  8
0
100
AcDbSpline
 62
7
  6
CONTINUOUS
 70
0
 71
3
 72
11
 73
7
 74
0
 42
0.0000001
 43
0.0000001
 44
0.0000000001
 40
0.0
 40
0.0
 40
0.0
 40
0.0
 40
0.2480982931
 40
0.4954384381
 40
0.744771671
 40
1.0
 40
1.0
 40
1.0
 40
1.0
 10
10.6111582141
 20
11.6447793517
 30
0.0
 10
10.6086885221
 20
11.6418966726
 30
0.0
 10
10.6040458406
 20
11.6358830316
 30
0.0
 10
10.598141019
 20
11.6261051475
 30
0.0
 10
10.5934984371
 20
11.6155419095
 30
0.0
 10
10.5914276652
 20
11.6080702619
 30
0.0
 10
10.5906659907
 20
11.6042402258
 30
0.0
  0
SPLINE
  5
36B
100
AcDbEntity
  8
0
100
AcDbSpline
 62
7
  6
CONTINUOUS
 70
0
 71
3
 72
11
 73
7
 74
0
 42
0.0000001
 43
0.0000001
 44
0.0000000001
 40
0.0
 40
0.0
 40
0.0
 40
0.0
 40
0.2551988019
 40
0.5045391211
 40
0.7518943206
 40
1.0
 40
1.0
 40
1.0
 40
1.0
 10
11.2797186947
 20
11.6042402258
 30
0.0
 10
11.2789571229
 20
11.6080697455
 30
0.0
 10
11.2768863641
 20
11.6155408808
 30
0.0
 10
11.2722441027
 20
11.6261038728
 30
0.0
 10
11.2663395429
 20
11.6358821932
 30
0.0
 10
11.261696801
 20
11.6418960485
 30
0.0
 10
11.2592271046
 20
11.6447787769
 30
0.0
  0
SPLINE
  5
36C
100
AcDbEntity
  8
0
100
AcDbSpline
 62
7
  6
CONTINUOUS
 70
0
 71
3
 72
14
 73
10
 74
0
 42
0.0000001
 43
0.0000001
 44
0.0000000001
 40
0.0
 40
0.0
 40
0.0
 40
0.0
 40
0.0824027341
 40
0.1812924594
 40
0.2941260029
 40
0.4186679537
 40
0.5530822685
 40
0.6957674239
 40
1.0
 40
1.0
 40
1.0
 40
1.0
 10
10.6382393471
 20
11.3092671998
 30
0.0
 10
10.6389271678
 20
11.3102247271
 30
0.0
 10
10.6403669006
 20
11.3123846674
 30
0.0
 10
10.64248215
 20
11.3160256102
 30
0.0
 10
10.6446214124
 20
11.3203393862
 30
0.0
 10
10.6466277734
 20
11.3252713673
 30
0.0
 10
10.6483781403
 20
11.3307510232
 30
0.0
 10
10.6503211116
 20
11.3388429152
 30
0.0
 10
10.6511001501
 20
11.345224865
 30
0.0
 10
10.6512812863
 20
11.3495738531
 30
0.0
  0
SPLINE
  5
36D
100
AcDbEntity
  8
0
100
AcDbSpline
 62
7
  6
CONTINUOUS
 70
0
 71
3
 72
14
 73
10
 74
0
 42
0.0000001
 43
0.0000001
 44
0.0000000001
 40
0.0
 40
0.0
 40
0.0
 40
0.0
 40
0.3050208815
 40
0.4478413043
 40
0.5821901666
 40
0.7064257412
 40
0.8188306362
 40
0.9174517866
 40
1.0
 40
1.0
 40
1.0
 40
1.0
 10
11.2191033991
 20
11.3495738531
 30
0.0
 10
11.2192849499
 20
11.3452149117
 30
0.0
 10
11.2200707549
 20
11.3388220427
 30
0.0
 10
11.222021732
 20
11.3307220916
 30
0.0
 10
11.2237711561
 20
11.3252478155
 30
0.0
 10
11.225763246
 20
11.3203240972
 30
0.0
 10
11.2278988325
 20
11.3160258012
 30
0.0
 10
11.2300178053
 20
11.3123975337
 30
0.0
 10
11.2314606574
 20
11.3102429133
 30
0.0
 10
11.232149267
 20
11.3092838287
 30
0.0
  0
SPLINE
  5
36E
100
AcDbEntity
  8
0
100
AcDbSpline
 62
7
  6
CONTINUOUS
 70
0
 71
3
 72
10
 73
6
 74
0
 42
0.0000001
 43
0.0000001
 44
0.0000000001
 40
0.0
 40
0.0
 40
0.0
 40
0.0
 40
0.4905572734
 40
0.741643861
 40
1.0
 40
1.0
 40
1.0
 40
1.0
 10
10.6383098863
 20
11.309340458
 30
0.0
 10
10.6343370731
 20
11.303896337
 30
0.0
 10
10.6290768946
 20
11.2950610399
 30
0.0
 10
10.6240791263
 20
11.2822398472
 30
0.0
 10
10.6223191191
 20
11.2754438312
 30
0.0
 10
10.6216365589
 20
11.2719606303
 30
0.0
  0
SPLINE
  5
36F
100
AcDbEntity
  8
0
100
AcDbSpline
 62
7
  6
CONTINUOUS
 70
0
 71
3
 72
10
 73
6
 74
0
 42
0.0000001
 43
0.0000001
 44
0.0000000001
 40
0.0
 40
0.0
 40
0.0
 40
0.0
 40
0.2582860313
 40
0.5093816855
 40
1.0
 40
1.0
 40
1.0
 40
1.0
 10
11.2487481266
 20
11.2719606303
 30
0.0
 10
11.2480657878
 20
11.2754427013
 30
0.0
 10
11.2463058967
 20
11.2822374903
 30
0.0
 10
11.2413087469
 20
11.2950580975
 30
0.0
 10
11.2360491502
 20
11.3038942419
 30
0.0
 10
11.2320762719
 20
11.309338911
 30
0.0
  0
SPLINE
  5
370
100
AcDbEntity
  8
0
100
AcDbSpline
 62
7
  6
CONTINUOUS
 70
0
 71
3
 72
9
 73
5
 74
0
 42
0.0000001
 43
0.0000001
 44
0.0000000001
 40
0.0
 40
0.0
 40
0.0
 40
0.0
 40
0.4934119859
 40
1.0
 40
1.0
 40
1.0
 40
1.0
 10
11.2759919535
 20
11.5526112438
 30
0.0
 10
11.2778153371
 20
11.5577530708
 30
0.0
 10
11.2806618207
 20
11.5684969473
 30
0.0
 10
11.281619723
 20
11.5795764539
 30
0.0
 10
11.281619723
 20
11.5851776966
 30
0.0
  0
SPLINE
  5
371
100
AcDbEntity
  8
0
100
AcDbSpline
 62
7
  6
CONTINUOUS
 70
0
 71
3
 72
9
 73
5
 74
0
 42
0.0000001
 43
0.0000001
 44
0.0000000001
 40
0.0
 40
0.0
 40
0.0
 40
0.0
 40
0.5073443057
 40
1.0
 40
1.0
 40
1.0
 40
1.0
 10
10.5887649625
 20
11.5851776966
 30
0.0
 10
10.5887649625
 20
11.5794358312
 30
0.0
 10
10.5897654459
 20
11.5680933946
 30
0.0
 10
10.592750525
 20
11.5571124139
 30
0.0
 10
10.5946564533
 20
11.5518726567
 30
0.0
  0
SPLINE
  5
372
100
AcDbEntity
  8
0
100
AcDbSpline
 62
7
  6
CONTINUOUS
 70
0
 71
3
 72
30
 73
26
 74
0
 42
0.0000001
 43
0.0000001
 44
0.0000000001
 40
0.0
 40
0.0
 40
0.0
 40
0.0
 40
0.0457945171
 40
0.0704708129
 40
0.0963421203
 40
0.1235103977
 40
0.1520811992
 40
0.1821131222
 40
0.2135433266
 40
0.2801686309
 40
0.3509690186
 40
0.4247158835
 40
0.4999733994
 40
0.5752308078
 40
0.6489772716
 40
0.7197767493
 40
0.7864010021
 40
0.8178308828
 40
0.8478631057
 40
0.8764332062
 40
0.9035993592
 40
0.9294691579
 40
0.9541464892
 40
0.9776426316
 40
1.0
 40
1.0
 40
1.0
 40
1.0
 10
10.6476000657
 20
11.1957301996
 30
0.0
 10
10.6541186246
 20
11.1891664306
 30
0.0
 10
10.6654285709
 20
11.1803097021
 30
0.0
 10
10.6821171962
 20
11.170292924
 30
0.0
 10
10.6961363615
 20
11.1631934489
 30
0.0
 10
10.7112904028
 20
11.1566814902
 30
0.0
 10
10.7275642984
 20
11.1507138125
 30
0.0
 10
10.7449187788
 20
11.1452547147
 30
0.0
 10
10.7699104836
 20
11.1385307526
 30
0.0
 10
10.8033406164
 20
11.1315978052
 30
0.0
 10
10.8456087965
 20
11.1256641894
 30
0.0
 10
10.8898869291
 20
11.1220548023
 30
0.0
 10
10.9351941974
 20
11.1208433592
 30
0.0
 10
10.9805013855
 20
11.1220549114
 30
0.0
 10
11.0247792053
 20
11.1256646481
 30
0.0
 10
11.0670468784
 20
11.131598332
 30
0.0
 10
11.1004765971
 20
11.1385311081
 30
0.0
 10
11.1254679895
 20
11.1452552988
 30
0.0
 10
11.1428222635
 20
11.150714861
 30
0.0
 10
11.1590954046
 20
11.1566821566
 30
0.0
 10
11.1742497504
 20
11.1631940166
 30
0.0
 10
11.1882650959
 20
11.1702912685
 30
0.0
 10
11.2011024209
 20
11.1779971037
 30
0.0
 10
11.2126658233
 20
11.1863523626
 30
0.0
 10
11.2196021056
 20
11.1925256238
 30
0.0
 10
11.2227845405
 20
11.19573012
 30
0.0
  0
SPLINE
  5
373
100
AcDbEntity
  8
0
100
AcDbSpline
 62
9
  6
CONTINUOUS
 70
0
 71
3
 72
41
 73
37
 74
0
 42
0.0000001
 43
0.0000001
 44
0.0000000001
 40
0.0
 40
0.0
 40
0.0
 40
0.0
 40
0.007514564
 40
0.0151727524
 40
0.0313652268
 40
0.0494192531
 40
0.0698721894
 40
0.0930275728
 40
0.1190072595
 40
0.1330575371
 40
0.1478021441
 40
0.1793067705
 40
0.2133513956
 40
0.249720846
 40
0.2881481518
 40
0.3283389317
 40
0.3699711199
 40
0.4127000896
 40
0.5
 40
0.5872999104
 40
0.6300288801
 40
0.6716610683
 40
0.7118518482
 40
0.750279154
 40
0.7866486044
 40
0.8206932295
 40
0.8521978559
 40
0.8669424629
 40
0.8809927405
 40
0.9069724272
 40
0.9301278106
 40
0.9505807469
 40
0.9686347732
 40
0.9848272476
 40
0.992485436
 40
1.0
 40
1.0
 40
1.0
 40
1.0
 10
10.6498731952
 20
11.2192372214
 30
0.0
 10
10.6498731952
 20
11.2208352402
 30
0.0
 10
10.6501089357
 20
11.2240665896
 30
0.0
 10
10.6515321753
 20
11.2306021576
 30
0.0
 10
10.6552059734
 20
11.2388334374
 30
0.0
 10
10.6622386433
 20
11.2481885826
 30
0.0
 10
10.6718422815
 20
11.257191433
 30
0.0
 10
10.6839242365
 20
11.2657947595
 30
0.0
 10
10.6956473346
 20
11.2724036028
 30
0.0
 10
10.7061313148
 20
11.2774843739
 30
0.0
 10
10.7178832543
 20
11.2826225935
 30
0.0
 10
10.7338882248
 20
11.2886103444
 30
0.0
 10
10.7546119753
 20
11.2949918349
 30
0.0
 10
10.7770650199
 20
11.3006502566
 30
0.0
 10
10.8010322112
 20
11.3055377177
 30
0.0
 10
10.8262860081
 20
11.3096017633
 30
0.0
 10
10.8525846627
 20
11.3128049644
 30
0.0
 10
10.8889639787
 20
11.3159074794
 30
0.0
 10
10.9351923427
 20
11.3174361945
 30
0.0
 10
10.9814207067
 20
11.3159074794
 30
0.0
 10
11.0178000227
 20
11.3128049644
 30
0.0
 10
11.0440986774
 20
11.3096017633
 30
0.0
 10
11.0693524742
 20
11.3055377177
 30
0.0
 10
11.0933196655
 20
11.3006502566
 30
0.0
 10
11.1157727101
 20
11.2949918349
 30
0.0
 10
11.1364964606
 20
11.2886103444
 30
0.0
 10
11.1525014311
 20
11.2826225935
 30
0.0
 10
11.1642533707
 20
11.2774843739
 30
0.0
 10
11.1747373508
 20
11.2724036028
 30
0.0
 10
11.1864604489
 20
11.2657947595
 30
0.0
 10
11.1985424039
 20
11.257191433
 30
0.0
 10
11.2081460421
 20
11.2481885826
 30
0.0
 10
11.2151787121
 20
11.2388334374
 30
0.0
 10
11.2188525101
 20
11.2306021576
 30
0.0
 10
11.2202757498
 20
11.2240665896
 30
0.0
 10
11.2205114902
 20
11.2208352402
 30
0.0
 10
11.2205114902
 20
11.2192372214
 30
0.0
  0
SPLINE
  5
374
100
AcDbEntity
  8
0
100
AcDbSpline
 62
9
  6
CONTINUOUS
 70
0
 71
3
 72
11
 73
7
 74
0
 42
0.0000001
 43
0.0000001
 44
0.0000000001
 40
0.0
 40
0.0
 40
0.0
 40
0.0
 40
0.2785663639
 40
0.533737744
 40
0.7716270809
 40
1.0
 40
1.0
 40
1.0
 40
1.0
 10
11.2531019397
 20
11.5147339964
 30
0.0
 10
11.2554045737
 20
11.5173037556
 30
0.0
 10
11.2595180018
 20
11.5225133141
 30
0.0
 10
11.2641979996
 20
11.5309008891
 30
0.0
 10
11.267045679
 20
11.5394306706
 30
0.0
 10
11.2676923428
 20
11.5452236179
 30
0.0
 10
11.2676923428
 20
11.5480523704
 30
0.0
  0
SPLINE
  5
375
100
AcDbEntity
  8
0
100
AcDbSpline
 62
9
  6
CONTINUOUS
 70
0
 71
3
 72
9
 73
5
 74
0
 42
0.0000001
 43
0.0000001
 44
0.0000000001
 40
0.0
 40
0.0
 40
0.0
 40
0.0
 40
0.26082543
 40
1.0
 40
1.0
 40
1.0
 40
1.0
 10
11.2495448068
 20
11.5108800679
 30
0.0
 10
11.2502965899
 20
11.5116716254
 30
0.0
 10
11.2531214188
 20
11.5147598266
 30
0.0
 10
11.2557068423
 20
11.5180723833
 30
0.0
 10
11.2574234753
 20
11.52064621
 30
0.0
  0
SPLINE
  5
376
100
AcDbEntity
  8
0
100
AcDbSpline
 62
9
  6
CONTINUOUS
 70
0
 71
3
 72
10
 73
6
 74
0
 42
0.0000001
 43
0.0000001
 44
0.0000000001
 40
0.0
 40
0.0
 40
0.0
 40
0.0
 40
0.5205453633
 40
0.7631821702
 40
1.0
 40
1.0
 40
1.0
 40
1.0
 10
11.2574234753
 20
11.52064621
 30
0.0
 10
11.2600057357
 20
11.5245179116
 30
0.0
 10
11.2631797197
 20
11.5306860313
 30
0.0
 10
11.2653510402
 20
11.5393885307
 30
0.0
 10
11.2657102493
 20
11.5436835959
 30
0.0
 10
11.2657102493
 20
11.5458008179
 30
0.0
  0
SPLINE
  5
377
100
AcDbEntity
  8
0
100
AcDbSpline
 62
9
  6
CONTINUOUS
 70
0
 71
3
 72
43
 73
39
 74
0
 42
0.0000001
 43
0.0000001
 44
0.0000000001
 40
0.0
 40
0.0
 40
0.0
 40
0.0
 40
0.00751519
 40
0.0151732986
 40
0.0313648922
 40
0.0494182856
 40
0.0698707123
 40
0.0930254899
 40
0.1190045107
 40
0.1330544375
 40
0.1477986758
 40
0.1793024991
 40
0.2133462435
 40
0.2497147573
 40
0.2881410796
 40
0.328330831
 40
0.3699619513
 40
0.4126898244
 40
0.4561590093
 40
0.5
 40
0.5438409907
 40
0.5873101756
 40
0.6300380487
 40
0.671669169
 40
0.7118589204
 40
0.7502852427
 40
0.7866537565
 40
0.8206975009
 40
0.8522013242
 40
0.8669455625
 40
0.8809954893
 40
0.9069745101
 40
0.9301292877
 40
0.9505817144
 40
0.9686351078
 40
0.9848267014
 40
0.99248481
 40
1.0
 40
1.0
 40
1.0
 40
1.0
 10
10.6118258052
 20
11.537392567
 30
0.0
 10
10.6118255488
 20
11.5392038794
 30
0.0
 10
10.6120923639
 20
11.5428664007
 30
0.0
 10
10.6137053012
 20
11.5502736576
 30
0.0
 10
10.6178697525
 20
11.5596021508
 30
0.0
 10
10.6258404683
 20
11.5702043427
 30
0.0
 10
10.636724524
 20
11.5804078968
 30
0.0
 10
10.6504175077
 20
11.5901586479
 30
0.0
 10
10.6637039052
 20
11.5976487512
 30
0.0
 10
10.6755859491
 20
11.6034070089
 30
0.0
 10
10.688905033
 20
11.6092303797
 30
0.0
 10
10.7070442716
 20
11.616016599
 30
0.0
 10
10.7305315321
 20
11.6232490806
 30
0.0
 10
10.7559786965
 20
11.6296620643
 30
0.0
 10
10.7831419083
 20
11.6352012424
 30
0.0
 10
10.8117633568
 20
11.6398073172
 30
0.0
 10
10.8415687508
 20
11.6434373127
 30
0.0
 10
10.8722727707
 20
11.6460571349
 30
0.0
 10
10.9035807915
 20
11.6476370143
 30
0.0
 10
10.9351923427
 20
11.6481679006
 30
0.0
 10
10.966803894
 20
11.6476370143
 30
0.0
 10
10.9981119147
 20
11.6460571349
 30
0.0
 10
11.0288159346
 20
11.6434373127
 30
0.0
 10
11.0586213286
 20
11.6398073172
 30
0.0
 10
11.0872427771
 20
11.6352012424
 30
0.0
 10
11.1144059889
 20
11.6296620643
 30
0.0
 10
11.1398531533
 20
11.6232490806
 30
0.0
 10
11.1633404139
 20
11.616016599
 30
0.0
 10
11.1814796524
 20
11.6092303797
 30
0.0
 10
11.1947987364
 20
11.6034070089
 30
0.0
 10
11.2066807802
 20
11.5976487512
 30
0.0
 10
11.2199671777
 20
11.5901586479
 30
0.0
 10
11.2336601615
 20
11.5804078968
 30
0.0
 10
11.2445442171
 20
11.5702043427
 30
0.0
 10
11.2525149329
 20
11.5596021508
 30
0.0
 10
11.2566793842
 20
11.5502736576
 30
0.0
 10
11.2582923215
 20
11.5428664007
 30
0.0
 10
11.2585591366
 20
11.5392038794
 30
0.0
 10
11.2585588802
 20
11.537392567
 30
0.0
  0
SPLINE
  5
378
100
AcDbEntity
  8
0
100
AcDbSpline
 62
9
  6
CONTINUOUS
 70
0
 71
3
 72
41
 73
37
 74
0
 42
0.0000001
 43
0.0000001
 44
0.0000000001
 40
0.0
 40
0.0
 40
0.0
 40
0.0
 40
0.0075144587
 40
0.0151725397
 40
0.0313647872
 40
0.0494185605
 40
0.0698712101
 40
0.093026269
 40
0.1190055916
 40
0.1477945763
 40
0.1792987612
 40
0.2133429092
 40
0.2497118499
 40
0.2881386171
 40
0.3283288338
 40
0.3699604385
 40
0.4126888093
 40
0.4561584998
 40
0.5
 40
0.5438415002
 40
0.5873111907
 40
0.6300395615
 40
0.6716711662
 40
0.7118613829
 40
0.7502881501
 40
0.7866570908
 40
0.8207012388
 40
0.8522054237
 40
0.8809944084
 40
0.906973731
 40
0.9301287899
 40
0.9505814395
 40
0.9686352128
 40
0.9848274603
 40
0.9924855413
 40
1.0
 40
1.0
 40
1.0
 40
1.0
 10
10.6046744361
 20
11.5458008179
 30
0.0
 10
10.6046744361
 20
11.5476519865
 30
0.0
 10
10.6049475213
 20
11.5513952292
 30
0.0
 10
10.6065962235
 20
11.5589661279
 30
0.0
 10
10.6108520024
 20
11.568501361
 30
0.0
 10
10.6189987651
 20
11.5793385124
 30
0.0
 10
10.6301236976
 20
11.5897674873
 30
0.0
 10
10.6441198977
 20
11.5997339757
 30
0.0
 10
10.6608666699
 20
11.6091744169
 30
0.0
 10
10.6802169587
 20
11.6180142986
 30
0.0
 10
10.7019981704
 20
11.6261636032
 30
0.0
 10
10.7260055354
 20
11.6335560967
 30
0.0
 10
10.7520152788
 20
11.6401108772
 30
0.0
 10
10.7797792714
 20
11.6457725682
 30
0.0
 10
10.8090336758
 20
11.6504805086
 30
0.0
 10
10.8394982316
 20
11.6541907824
 30
0.0
 10
10.8708812811
 20
11.6568685417
 30
0.0
 10
10.9028816907
 20
11.6584833609
 30
0.0
 10
10.9351923427
 20
11.6590259883
 30
0.0
 10
10.9675029948
 20
11.6584833609
 30
0.0
 10
10.9995034043
 20
11.6568685417
 30
0.0
 10
11.0308864538
 20
11.6541907824
 30
0.0
 10
11.0613510096
 20
11.6504805086
 30
0.0
 10
11.090605414
 20
11.6457725682
 30
0.0
 10
11.1183694067
 20
11.6401108772
 30
0.0
 10
11.14437915
 20
11.6335560967
 30
0.0
 10
11.1683865151
 20
11.6261636032
 30
0.0
 10
11.1901677268
 20
11.6180142986
 30
0.0
 10
11.2095180155
 20
11.6091744169
 30
0.0
 10
11.2262647877
 20
11.5997339757
 30
0.0
 10
11.2402609878
 20
11.5897674873
 30
0.0
 10
11.2513859203
 20
11.5793385124
 30
0.0
 10
11.2595326831
 20
11.568501361
 30
0.0
 10
11.2637884619
 20
11.5589661279
 30
0.0
 10
11.2654371641
 20
11.5513952292
 30
0.0
 10
11.2657102493
 20
11.5476519865
 30
0.0
 10
11.2657102493
 20
11.5458008179
 30
0.0
  0
SPLINE
  5
379
100
AcDbEntity
  8
0
100
AcDbSpline
 62
9
  6
CONTINUOUS
 70
0
 71
3
 72
45
 73
41
 74
0
 42
0.0000001
 43
0.0000001
 44
0.0000000001
 40
0.0
 40
0.0
 40
0.0
 40
0.0
 40
0.0075137679
 40
0.0151711451
 40
0.0230945557
 40
0.0313926017
 40
0.0494447155
 40
0.0593552043
 40
0.0699107474
 40
0.0930636778
 40
0.1190406124
 40
0.1478269508
 40
0.1793282399
 40
0.2133692586
 40
0.2497348562
 40
0.2881580913
 40
0.3283446137
 40
0.3699723916
 40
0.4126968349
 40
0.4561625297
 40
0.5
 40
0.5438374703
 40
0.5873031651
 40
0.6300276084
 40
0.6716553863
 40
0.7118419087
 40
0.7502651438
 40
0.7866307414
 40
0.8206717601
 40
0.8521730492
 40
0.8809593876
 40
0.9069363222
 40
0.9300892526
 40
0.9406447957
 40
0.9505552845
 40
0.9686073983
 40
0.9769054443
 40
0.9848288549
 40
0.9924862321
 40
1.0
 40
1.0
 40
1.0
 40
1.0
 10
10.6026923426
 20
11.5480523704
 30
0.0
 10
10.6026923426
 20
11.5499146402
 30
0.0
 10
10.602966784
 20
11.5536801356
 30
0.0
 10
10.6041894526
 20
11.5592895981
 30
0.0
 10
10.6062162736
 20
11.5648680027
 30
0.0
 10
10.6100861225
 20
11.5724501018
 30
0.0
 10
10.6155247985
 20
11.579694939
 30
0.0
 10
10.622178798
 20
11.5865465652
 30
0.0
 10
10.6302925955
 20
11.5937070668
 30
0.0
 10
10.6423759251
 20
11.6023095491
 30
0.0
 10
10.659221065
 20
11.6118058321
 30
0.0
 10
10.6786880402
 20
11.6206989672
 30
0.0
 10
10.7005996748
 20
11.6288970686
 30
0.0
 10
10.7247510699
 20
11.6363339167
 30
0.0
 10
10.7509167743
 20
11.6429279991
 30
0.0
 10
10.7788472709
 20
11.6486236448
 30
0.0
 10
10.8082771105
 20
11.6533598179
 30
0.0
 10
10.8389243606
 20
11.6570923421
 30
0.0
 10
10.870495612
 20
11.6597861598
 30
0.0
 10
10.9026879259
 20
11.6614106629
 30
0.0
 10
10.9351923427
 20
11.6619565444
 30
0.0
 10
10.9676967595
 20
11.6614106629
 30
0.0
 10
10.9998890734
 20
11.6597861598
 30
0.0
 10
11.0314603248
 20
11.6570923421
 30
0.0
 10
11.0621075749
 20
11.6533598179
 30
0.0
 10
11.0915374146
 20
11.6486236448
 30
0.0
 10
11.1194679111
 20
11.6429279991
 30
0.0
 10
11.1456336155
 20
11.6363339167
 30
0.0
 10
11.1697850106
 20
11.6288970686
 30
0.0
 10
11.1916966452
 20
11.6206989672
 30
0.0
 10
11.2111636204
 20
11.6118058321
 30
0.0
 10
11.2280087603
 20
11.6023095491
 30
0.0
 10
11.24009209
 20
11.5937070668
 30
0.0
 10
11.2482058875
 20
11.5865465652
 30
0.0
 10
11.2548598869
 20
11.579694939
 30
0.0
 10
11.2602985629
 20
11.5724501018
 30
0.0
 10
11.2641684118
 20
11.5648680027
 30
0.0
 10
11.2661952329
 20
11.5592895981
 30
0.0
 10
11.2674179015
 20
11.5536801356
 30
0.0
 10
11.2676923428
 20
11.5499146402
 30
0.0
 10
11.2676923428
 20
11.5480523704
 30
0.0
  0
SPLINE
  5
37A
100
AcDbEntity
  8
0
100
AcDbSpline
 62
9
  6
CONTINUOUS
 70
0
 71
3
 72
11
 73
7
 74
0
 42
0.0000001
 43
0.0000001
 44
0.0000000001
 40
0.0
 40
0.0
 40
0.0
 40
0.0
 40
0.2248188986
 40
0.4608253593
 40
0.7169745494
 40
1.0
 40
1.0
 40
1.0
 40
1.0
 10
10.6314423999
 20
11.2291620842
 30
0.0
 10
10.6314423999
 20
11.2263169622
 30
0.0
 10
10.6321640308
 20
11.2204642939
 30
0.0
 10
10.6353258966
 20
11.2118881074
 30
0.0
 10
10.6405055866
 20
11.2034936978
 30
0.0
 10
10.6450161159
 20
11.1983355485
 30
0.0
 10
10.6475382986
 20
11.1957924348
 30
0.0
  0
SPLINE
  5
37B
100
AcDbEntity
  8
0
100
AcDbSpline
 62
9
  6
CONTINUOUS
 70
0
 71
3
 72
43
 73
39
 74
0
 42
0.0000001
 43
0.0000001
 44
0.0000000001
 40
0.0
 40
0.0
 40
0.0
 40
0.0
 40
0.0075143761
 40
0.015172373
 40
0.0313644424
 40
0.0494180173
 40
0.0698704421
 40
0.0930252464
 40
0.1190042834
 40
0.1330542097
 40
0.1477984479
 40
0.1793022866
 40
0.2133460603
 40
0.2497146012
 40
0.288140946
 40
0.3283307209
 40
0.3699618679
 40
0.4126897691
 40
0.4561589817
 40
0.5
 40
0.5438410183
 40
0.5873102309
 40
0.6300381321
 40
0.6716692791
 40
0.711859054
 40
0.7502853988
 40
0.7866539397
 40
0.8206977134
 40
0.8522015521
 40
0.8669457903
 40
0.8809957166
 40
0.9069747536
 40
0.9301295579
 40
0.9505819827
 40
0.9686355576
 40
0.984827627
 40
0.9924856239
 40
1.0
 40
1.0
 40
1.0
 40
1.0
 10
10.6314423999
 20
11.2291620842
 30
0.0
 10
10.6314423999
 20
11.2308633304
 30
0.0
 10
10.6316933685
 20
11.2343034158
 30
0.0
 10
10.6332085454
 20
11.2412611626
 30
0.0
 10
10.6371196602
 20
11.2500241594
 30
0.0
 10
10.6446066204
 20
11.25998362
 30
0.0
 10
10.6548306259
 20
11.2695680286
 30
0.0
 10
10.6676930405
 20
11.2787271052
 30
0.0
 10
10.6801734169
 20
11.2857628608
 30
0.0
 10
10.691334632
 20
11.2911718351
 30
0.0
 10
10.703845713
 20
11.2966419688
 30
0.0
 10
10.7208845586
 20
11.3030165115
 30
0.0
 10
10.7429470031
 20
11.3098102266
 30
0.0
 10
10.7668504526
 20
11.3158341713
 30
0.0
 10
10.7923658438
 20
11.3210373271
 30
0.0
 10
10.8192510095
 20
11.325363983
 30
0.0
 10
10.8472482994
 20
11.3287737689
 30
0.0
 10
10.8760897017
 20
11.3312346621
 30
0.0
 10
10.9054984637
 20
11.3327187004
 30
0.0
 10
10.9351923427
 20
11.3332173815
 30
0.0
 10
10.9648862217
 20
11.3327187004
 30
0.0
 10
10.9942949838
 20
11.3312346621
 30
0.0
 10
11.023136386
 20
11.3287737689
 30
0.0
 10
11.0511336759
 20
11.325363983
 30
0.0
 10
11.0780188417
 20
11.3210373271
 30
0.0
 10
11.1035342329
 20
11.3158341713
 30
0.0
 10
11.1274376824
 20
11.3098102266
 30
0.0
 10
11.1495001268
 20
11.3030165115
 30
0.0
 10
11.1665389725
 20
11.2966419688
 30
0.0
 10
11.1790500534
 20
11.2911718351
 30
0.0
 10
11.1902112685
 20
11.2857628608
 30
0.0
 10
11.202691645
 20
11.2787271052
 30
0.0
 10
11.2155540595
 20
11.2695680286
 30
0.0
 10
11.2257780651
 20
11.25998362
 30
0.0
 10
11.2332650252
 20
11.2500241594
 30
0.0
 10
11.2371761401
 20
11.2412611626
 30
0.0
 10
11.2386913169
 20
11.2343034158
 30
0.0
 10
11.2389422855
 20
11.2308633304
 30
0.0
 10
11.2389422855
 20
11.2291620842
 30
0.0
  0
SPLINE
  5
37C
100
AcDbEntity
  8
0
100
AcDbSpline
 62
9
  6
CONTINUOUS
 70
0
 71
3
 72
41
 73
37
 74
0
 42
0.0000001
 43
0.0000001
 44
0.0000000001
 40
0.0
 40
0.0
 40
0.0
 40
0.0
 40
0.007514564
 40
0.0151727524
 40
0.0313652268
 40
0.0494192531
 40
0.0698721894
 40
0.0930275728
 40
0.1190072595
 40
0.1330575371
 40
0.1478021441
 40
0.1793067705
 40
0.2133513956
 40
0.249720846
 40
0.2881481518
 40
0.3283389317
 40
0.3699711199
 40
0.4127000896
 40
0.5
 40
0.5872999104
 40
0.6300288801
 40
0.6716610683
 40
0.7118518482
 40
0.750279154
 40
0.7866486044
 40
0.8206932295
 40
0.8521978559
 40
0.8669424629
 40
0.8809927405
 40
0.9069724272
 40
0.9301278106
 40
0.9505807469
 40
0.9686347732
 40
0.9848272476
 40
0.992485436
 40
1.0
 40
1.0
 40
1.0
 40
1.0
 10
10.6463997967
 20
11.4565636638
 30
0.0
 10
10.6463997967
 20
11.4581811364
 30
0.0
 10
10.646638407
 20
11.4614518234
 30
0.0
 10
10.6480789728
 20
11.4680669537
 30
0.0
 10
10.6517974947
 20
11.4763984389
 30
0.0
 10
10.6589157785
 20
11.485867471
 30
0.0
 10
10.6686363288
 20
11.4949799197
 30
0.0
 10
10.6808653663
 20
11.5036879808
 30
0.0
 10
10.6927311782
 20
11.5103772784
 30
0.0
 10
10.7033427875
 20
11.5155199014
 30
0.0
 10
10.715237792
 20
11.5207206723
 30
0.0
 10
10.7314376027
 20
11.5267813165
 30
0.0
 10
10.7524136386
 20
11.5332404936
 30
0.0
 10
10.7751400205
 20
11.5389677993
 30
0.0
 10
10.7993989819
 20
11.5439147591
 30
0.0
 10
10.8249602117
 20
11.5480282793
 30
0.0
 10
10.8515790191
 20
11.5512704752
 30
0.0
 10
10.888401207
 20
11.5544107595
 30
0.0
 10
10.9351923427
 20
11.5559580847
 30
0.0
 10
10.9819834784
 20
11.5544107595
 30
0.0
 10
11.0188056664
 20
11.5512704752
 30
0.0
 10
11.0454244738
 20
11.5480282793
 30
0.0
 10
11.0709857035
 20
11.5439147591
 30
0.0
 10
11.0952446649
 20
11.5389677993
 30
0.0
 10
11.1179710469
 20
11.5332404936
 30
0.0
 10
11.1389470828
 20
11.5267813165
 30
0.0
 10
11.1551468935
 20
11.5207206723
 30
0.0
 10
11.1670418979
 20
11.5155199014
 30
0.0
 10
11.1776535072
 20
11.5103772784
 30
0.0
 10
11.1895193192
 20
11.5036879808
 30
0.0
 10
11.2017483566
 20
11.4949799197
 30
0.0
 10
11.2114689069
 20
11.485867471
 30
0.0
 10
11.2185871907
 20
11.4763984389
 30
0.0
 10
11.2223057126
 20
11.4680669537
 30
0.0
 10
11.2237462784
 20
11.4614518234
 30
0.0
 10
11.2239848887
 20
11.4581811364
 30
0.0
 10
11.2239848887
 20
11.4565636638
 30
0.0
  0
SPLINE
  5
37D
100
AcDbEntity
  8
0
100
AcDbSpline
 62
9
  6
CONTINUOUS
 70
0
 71
3
 72
9
 73
5
 74
0
 42
0.0000001
 43
0.0000001
 44
0.0000000001
 40
0.0
 40
0.0
 40
0.0
 40
0.0
 40
0.2581506908
 40
1.0
 40
1.0
 40
1.0
 40
1.0
 10
11.2228030211
 20
11.195748741
 30
0.0
 10
11.2233429851
 20
11.1962923929
 30
0.0
 10
11.2254058176
 20
11.1984265902
 30
0.0
 10
11.2273495343
 20
11.2006773794
 30
0.0
 10
11.2287027609
 20
11.2024144209
 30
0.0
  0
SPLINE
  5
37E
100
AcDbEntity
  8
0
100
AcDbSpline
 62
9
  6
CONTINUOUS
 70
0
 71
3
 72
9
 73
5
 74
0
 42
0.0000001
 43
0.0000001
 44
0.0000000001
 40
0.0
 40
0.0
 40
0.0
 40
0.0
 40
0.2566101637
 40
1.0
 40
1.0
 40
1.0
 40
1.0
 10
11.2287027609
 20
11.2024144209
 30
0.0
 10
11.2290732984
 20
11.2028900538
 30
0.0
 10
11.2304914564
 20
11.2047634363
 30
0.0
 10
11.2318028386
 20
11.2067184685
 30
0.0
 10
11.2327029083
 20
11.2082153702
 30
0.0
  0
SPLINE
  5
37F
100
AcDbEntity
  8
0
100
AcDbSpline
 62
9
  6
CONTINUOUS
 70
0
 71
3
 72
10
 73
6
 74
0
 42
0.0000001
 43
0.0000001
 44
0.0000000001
 40
0.0
 40
0.0
 40
0.0
 40
0.0
 40
0.5172466685
 40
0.7610551824
 40
1.0
 40
1.0
 40
1.0
 40
1.0
 10
11.2327029083
 20
11.2082153702
 30
0.0
 10
11.234665562
 20
11.21147945
 30
0.0
 10
11.2370509397
 20
11.2166395864
 30
0.0
 10
11.2386733995
 20
11.2238419315
 30
0.0
 10
11.2389422855
 20
11.2274026334
 30
0.0
 10
11.2389422855
 20
11.2291620842
 30
0.0
  0
SPLINE
  5
380
100
AcDbEntity
  8
0
100
AcDbSpline
 62
9
  6
CONTINUOUS
 70
0
 71
3
 72
11
 73
7
 74
0
 42
0.0000001
 43
0.0000001
 44
0.0000000001
 40
0.0
 40
0.0
 40
0.0
 40
0.0
 40
0.2190963018
 40
0.4548973918
 40
0.7137436789
 40
1.0
 40
1.0
 40
1.0
 40
1.0
 10
10.590668819
 20
11.6042401599
 30
0.0
 10
10.591300325
 20
11.6074092738
 30
0.0
 10
10.5933730165
 20
11.6138533721
 30
0.0
 10
10.5985469964
 20
11.6230844961
 30
0.0
 10
10.6057993161
 20
11.6320876562
 30
0.0
 10
10.6116620552
 20
11.6376225034
 30
0.0
 10
10.6148803547
 20
11.6403551674
 30
0.0
  0
SPLINE
  5
381
100
AcDbEntity
  8
0
100
AcDbSpline
 62
9
  6
CONTINUOUS
 70
0
 71
3
 72
31
 73
27
 74
0
 42
0.0000001
 43
0.0000001
 44
0.0000000001
 40
0.0
 40
0.0
 40
0.0
 40
0.0
 40
0.020341477
 40
0.0424722377
 40
0.0663936769
 40
0.0920779915
 40
0.1194623183
 40
0.1484670195
 40
0.1789967198
 40
0.2109336597
 40
0.2785082354
 40
0.3500640824
 40
0.4243422456
 40
0.5
 40
0.5756577544
 40
0.6499359176
 40
0.7214917646
 40
0.7890663403
 40
0.8210032802
 40
0.8515329805
 40
0.8805376817
 40
0.9079220085
 40
0.9336063231
 40
0.9575277623
 40
0.979658523
 40
1.0
 40
1.0
 40
1.0
 40
1.0
 10
10.6197246524
 20
11.6442639614
 30
0.0
 10
10.6232475578
 20
11.6469698352
 30
0.0
 10
10.6308802174
 20
11.6522634093
 30
0.0
 10
10.6434097347
 20
11.6595815139
 30
0.0
 10
10.6574395328
 20
11.6665742892
 30
0.0
 10
10.672899648
 20
11.6732019409
 30
0.0
 10
10.6897105724
 20
11.6794360497
 30
0.0
 10
10.7077875098
 20
11.6852429192
 30
0.0
 10
10.7270388591
 20
11.6905904174
 30
0.0
 10
10.7546623806
 20
11.6972001057
 30
0.0
 10
10.7914136089
 20
11.7040502007
 30
0.0
 10
10.8376652933
 20
11.7099453583
 30
0.0
 10
10.8859225075
 20
11.713532062
 30
0.0
 10
10.9351923427
 20
11.7147357154
 30
0.0
 10
10.9844621779
 20
11.713532062
 30
0.0
 10
11.0327193921
 20
11.7099453583
 30
0.0
 10
11.0789710765
 20
11.7040502007
 30
0.0
 10
11.1157223048
 20
11.6972001057
 30
0.0
 10
11.1433458263
 20
11.6905904174
 30
0.0
 10
11.1625971757
 20
11.6852429192
 30
0.0
 10
11.1806741131
 20
11.6794360497
 30
0.0
 10
11.1974850374
 20
11.6732019409
 30
0.0
 10
11.2129451526
 20
11.6665742892
 30
0.0
 10
11.2269749507
 20
11.6595815139
 30
0.0
 10
11.239504468
 20
11.6522634093
 30
0.0
 10
11.2471371277
 20
11.6469698352
 30
0.0
 10
11.250660033
 20
11.6442639614
 30
0.0
  0
SPLINE
  5
382
100
AcDbEntity
  8
0
100
AcDbSpline
 62
9
  6
CONTINUOUS
 70
0
 71
3
 72
11
 73
7
 74
0
 42
0.0000001
 43
0.0000001
 44
0.0000000001
 40
0.0
 40
0.0
 40
0.0
 40
0.0
 40
0.2862563211
 40
0.5451026082
 40
0.7809036982
 40
1.0
 40
1.0
 40
1.0
 40
1.0
 10
11.2555043308
 20
11.6403551674
 30
0.0
 10
11.2587226302
 20
11.6376225034
 30
0.0
 10
11.2645853693
 20
11.6320876562
 30
0.0
 10
11.2718376891
 20
11.6230844961
 30
0.0
 10
11.2770116689
 20
11.6138533721
 30
0.0
 10
11.2790843605
 20
11.6074092738
 30
0.0
 10
11.2797158664
 20
11.6042401599
 30
0.0
  0
SPLINE
  5
383
100
AcDbEntity
  8
0
100
AcDbSpline
 62
9
  6
CONTINUOUS
 70
0
 71
3
 72
9
 73
5
 74
0
 42
0.0000001
 43
0.0000001
 44
0.0000000001
 40
0.0
 40
0.0
 40
0.0
 40
0.0
 40
0.4713191085
 40
1.0
 40
1.0
 40
1.0
 40
1.0
 10
10.6111724075
 20
11.6448016807
 30
0.0
 10
10.61419907
 20
11.6483309733
 30
0.0
 10
10.6212723577
 20
11.6552669553
 30
0.0
 10
10.6291652593
 20
11.6612209831
 30
0.0
 10
10.6334769516
 20
11.6641548838
 30
0.0
  0
SPLINE
  5
384
100
AcDbEntity
  8
0
100
AcDbSpline
 62
9
  6
CONTINUOUS
 70
0
 71
3
 72
29
 73
25
 74
0
 42
0.0000001
 43
0.0000001
 44
0.0000000001
 40
0.0
 40
0.0
 40
0.0
 40
0.0
 40
0.0211458118
 40
0.0439872256
 40
0.0685071921
 40
0.0946676305
 40
0.1224007305
 40
0.1516241336
 40
0.2141499445
 40
0.2813469068
 40
0.3521701108
 40
0.4254635582
 40
0.5000090529
 40
0.5745542154
 40
0.6478466704
 40
0.7186682539
 40
0.7858630058
 40
0.8483860837
 40
0.8776079538
 40
0.9053394293
 40
0.9314981608
 40
0.9560163639
 40
0.9788559863
 40
1.0
 40
1.0
 40
1.0
 40
1.0
 10
10.6334769516
 20
11.6641548838
 30
0.0
 10
10.6371129948
 20
11.6666290376
 30
0.0
 10
10.644891709
 20
11.6714634267
 30
0.0
 10
10.6574806119
 20
11.6781549446
 30
0.0
 10
10.6713856223
 20
11.6845357726
 30
0.0
 10
10.686543043
 20
11.6905713386
 30
0.0
 10
10.7028804897
 20
11.6962379761
 30
0.0
 10
10.7266740863
 20
11.7034271328
 30
0.0
 10
10.7588323837
 20
11.7112085075
 30
0.0
 10
10.7999199373
 20
11.7185137175
 30
0.0
 10
10.8435670592
 20
11.7238335524
 30
0.0
 10
10.8889479652
 20
11.727067231
 30
0.0
 10
10.9352046366
 20
11.7281536443
 30
0.0
 10
10.9814610748
 20
11.7270660838
 30
0.0
 10
11.0268412869
 20
11.7238312762
 30
0.0
 10
11.0704872683
 20
11.7185103637
 30
0.0
 10
11.1115732561
 20
11.7112041353
 30
0.0
 10
11.1437299751
 20
11.7034219482
 30
0.0
 10
11.1675221067
 20
11.6962321757
 30
0.0
 10
11.1838583432
 20
11.6905651336
 30
0.0
 10
11.1990144737
 20
11.6845291883
 30
0.0
 10
11.2129181217
 20
11.6781480115
 30
0.0
 10
11.2255056
 20
11.6714561816
 30
0.0
 10
11.2332833085
 20
11.6666215836
 30
0.0
 10
11.2369188322
 20
11.6641473312
 30
0.0
  0
SPLINE
  5
385
100
AcDbEntity
  8
0
100
AcDbSpline
 62
9
  6
CONTINUOUS
 70
0
 71
3
 72
9
 73
5
 74
0
 42
0.0000001
 43
0.0000001
 44
0.0000000001
 40
0.0
 40
0.0
 40
0.0
 40
0.0
 40
0.5286708503
 40
1.0
 40
1.0
 40
1.0
 40
1.0
 10
11.2369188322
 20
11.6641473312
 30
0.0
 10
11.2412283932
 20
11.6612143449
 30
0.0
 10
11.2491175328
 20
11.6552621985
 30
0.0
 10
11.2561875432
 20
11.6483288192
 30
0.0
 10
11.2592129602
 20
11.6448008852
 30
0.0
  0
SPLINE
  5
386
100
AcDbEntity
  8
0
100
AcDbSpline
 62
9
  6
CONTINUOUS
 70
0
 71
3
 72
9
 73
5
 74
0
 42
0.0000001
 43
0.0000001
 44
0.0000000001
 40
0.0
 40
0.0
 40
0.0
 40
0.0
 40
0.4837860173
 40
1.0
 40
1.0
 40
1.0
 40
1.0
 10
10.5903902926
 20
11.6027911809
 30
0.0
 10
10.5909358865
 20
11.6057207823
 30
0.0
 10
10.592712428
 20
11.6116675908
 30
0.0
 10
10.5955646355
 20
11.6171654357
 30
0.0
 10
10.5972423483
 20
11.6198665266
 30
0.0
  0
SPLINE
  5
387
100
AcDbEntity
  8
0
100
AcDbSpline
 62
9
  6
CONTINUOUS
 70
0
 71
3
 72
9
 73
5
 74
0
 42
0.0000001
 43
0.0000001
 44
0.0000000001
 40
0.0
 40
0.0
 40
0.0
 40
0.0
 40
0.471610165
 40
1.0
 40
1.0
 40
1.0
 40
1.0
 10
10.5972423483
 20
11.6198665266
 30
0.0
 10
10.5994955925
 20
11.6234942142
 30
0.0
 10
10.6050757541
 20
11.6306964792
 30
0.0
 10
10.6116913415
 20
11.6369229515
 30
0.0
 10
10.6153602929
 20
11.639994063
 30
0.0
  0
SPLINE
  5
388
100
AcDbEntity
  8
0
100
AcDbSpline
 62
9
  6
CONTINUOUS
 70
0
 71
3
 72
31
 73
27
 74
0
 42
0.0000001
 43
0.0000001
 44
0.0000000001
 40
0.0
 40
0.0
 40
0.0
 40
0.0
 40
0.0203413646
 40
0.0424721641
 40
0.0663936686
 40
0.0920780035
 40
0.1194623213
 40
0.1484670101
 40
0.1789967077
 40
0.2109336506
 40
0.2785082311
 40
0.3500640787
 40
0.4243422437
 40
0.5
 40
0.5756577563
 40
0.6499359213
 40
0.7214917689
 40
0.7890663494
 40
0.8210032923
 40
0.8515329899
 40
0.8805376787
 40
0.9079219965
 40
0.9336063314
 40
0.9575278359
 40
0.9796586354
 40
1.0
 40
1.0
 40
1.0
 40
1.0
 10
10.6195623886
 20
11.6433612654
 30
0.0
 10
10.6230871165
 20
11.6460684769
 30
0.0
 10
10.6307237098
 20
11.6513647279
 30
0.0
 10
10.6432596467
 20
11.658686633
 30
0.0
 10
10.6572966548
 20
11.6656830793
 30
0.0
 10
10.6727647328
 20
11.6723141592
 30
0.0
 10
10.6895843087
 20
11.6785514604
 30
0.0
 10
10.7076705445
 20
11.6843612964
 30
0.0
 10
10.7269317935
 20
11.6897115417
 30
0.0
 10
10.7545695223
 20
11.6963246363
 30
0.0
 10
10.7913396541
 20
11.7031782601
 30
0.0
 10
10.8376151297
 20
11.7090764447
 30
0.0
 10
10.885897165
 20
11.7126649947
 30
0.0
 10
10.9351923427
 20
11.7138692677
 30
0.0
 10
10.9844875204
 20
11.7126649947
 30
0.0
 10
11.0327695558
 20
11.7090764447
 30
0.0
 10
11.0790450313
 20
11.7031782601
 30
0.0
 10
11.1158151632
 20
11.6963246363
 30
0.0
 10
11.143452892
 20
11.6897115417
 30
0.0
 10
11.1627141409
 20
11.6843612964
 30
0.0
 10
11.1808003768
 20
11.6785514604
 30
0.0
 10
11.1976199526
 20
11.6723141592
 30
0.0
 10
11.2130880306
 20
11.6656830793
 30
0.0
 10
11.2271250387
 20
11.658686633
 30
0.0
 10
11.2396609756
 20
11.6513647279
 30
0.0
 10
11.247297569
 20
11.6460684769
 30
0.0
 10
11.2508222968
 20
11.6433612654
 30
0.0
  0
SPLINE
  5
389
100
AcDbEntity
  8
0
100
AcDbSpline
 62
9
  6
CONTINUOUS
 70
0
 71
3
 72
9
 73
5
 74
0
 42
0.0000001
 43
0.0000001
 44
0.0000000001
 40
0.0
 40
0.0
 40
0.0
 40
0.0
 40
0.528389835
 40
1.0
 40
1.0
 40
1.0
 40
1.0
 10
11.2550243926
 20
11.639994063
 30
0.0
 10
11.2586933439
 20
11.6369229515
 30
0.0
 10
11.2653089314
 20
11.6306964792
 30
0.0
 10
11.270889093
 20
11.6234942142
 30
0.0
 10
11.2731423372
 20
11.6198665266
 30
0.0
  0
SPLINE
  5
38A
100
AcDbEntity
  8
0
100
AcDbSpline
 62
9
  6
CONTINUOUS
 70
0
 71
3
 72
9
 73
5
 74
0
 42
0.0000001
 43
0.0000001
 44
0.0000000001
 40
0.0
 40
0.0
 40
0.0
 40
0.0
 40
0.5162141315
 40
1.0
 40
1.0
 40
1.0
 40
1.0
 10
11.2731423372
 20
11.6198665266
 30
0.0
 10
11.2748200742
 20
11.6171653966
 30
0.0
 10
11.2776723166
 20
11.6116674696
 30
0.0
 10
11.2794488578
 20
11.6057205675
 30
0.0
 10
11.279994441
 20
11.6027909221
 30
0.0
  0
SPLINE
  5
38B
100
AcDbEntity
  8
0
100
AcDbSpline
 62
9
  6
CONTINUOUS
 70
0
 71
3
 72
10
 73
6
 74
0
 42
0.0000001
 43
0.0000001
 44
0.0000000001
 40
0.0
 40
0.0
 40
0.0
 40
0.0
 40
0.2366673351
 40
0.4796812478
 40
1.0
 40
1.0
 40
1.0
 40
1.0
 10
10.6512815068
 20
11.3495738518
 30
0.0
 10
10.6513531323
 20
11.3512816089
 30
0.0
 10
10.6517692604
 20
11.3547374794
 30
0.0
 10
10.6536933535
 20
11.3617191773
 30
0.0
 10
10.6562863451
 20
11.3666740082
 30
0.0
 10
10.658371452
 20
11.3698003047
 30
0.0
  0
SPLINE
  5
38C
100
AcDbEntity
  8
0
100
AcDbSpline
 62
9
  6
CONTINUOUS
 70
0
 71
3
 72
33
 73
29
 74
0
 42
0.0000001
 43
0.0000001
 44
0.0000000001
 40
0.0
 40
0.0
 40
0.0
 40
0.0
 40
0.017130013
 40
0.0362065202
 40
0.0574256079
 40
0.0808785968
 40
0.1065680892
 40
0.1344504929
 40
0.1644308133
 40
0.1963778697
 40
0.2301402339
 40
0.2655329821
 40
0.3403891025
 40
0.4191884453
 40
0.5
 40
0.5808115547
 40
0.6596108975
 40
0.7344670179
 40
0.7698597661
 40
0.8036221303
 40
0.8355691867
 40
0.8655495071
 40
0.8934319108
 40
0.9191214032
 40
0.9425743921
 40
0.9637934798
 40
0.982869987
 40
1.0
 40
1.0
 40
1.0
 40
1.0
 10
10.658371452
 20
11.3698003047
 30
0.0
 10
10.6602369296
 20
11.3725973008
 30
0.0
 10
10.664741098
 20
11.3781418543
 30
0.0
 10
10.6730478846
 20
11.3857999538
 30
0.0
 10
10.6831813326
 20
11.3931781691
 30
0.0
 10
10.6950728846
 20
11.4002309208
 30
0.0
 10
10.7086431894
 20
11.4069214076
 30
0.0
 10
10.7238038602
 20
11.4131973763
 30
0.0
 10
10.7404497776
 20
11.4190187608
 30
0.0
 10
10.7584656963
 20
11.4243464525
 30
0.0
 10
10.7777272715
 20
11.4291379662
 30
0.0
 10
10.8054083869
 20
11.4348796912
 30
0.0
 10
10.8421284361
 20
11.4404153245
 30
0.0
 10
10.887998773
 20
11.4444108779
 30
0.0
 10
10.9351923427
 20
11.4457558082
 30
0.0
 10
10.9823859124
 20
11.4444108779
 30
0.0
 10
11.0282562493
 20
11.4404153245
 30
0.0
 10
11.0649762985
 20
11.4348796912
 30
0.0
 10
11.0926574139
 20
11.4291379662
 30
0.0
 10
11.1119189891
 20
11.4243464525
 30
0.0
 10
11.1299349078
 20
11.4190187608
 30
0.0
 10
11.1465808253
 20
11.4131973763
 30
0.0
 10
11.161741496
 20
11.4069214076
 30
0.0
 10
11.1753118009
 20
11.4002309208
 30
0.0
 10
11.1872033528
 20
11.3931781691
 30
0.0
 10
11.1973368009
 20
11.3857999538
 30
0.0
 10
11.2056435875
 20
11.3781418543
 30
0.0
 10
11.2101477559
 20
11.3725973008
 30
0.0
 10
11.2120132334
 20
11.3698003047
 30
0.0
  0
SPLINE
  5
38D
100
AcDbEntity
  8
0
100
AcDbSpline
 62
9
  6
CONTINUOUS
 70
0
 71
3
 72
10
 73
6
 74
0
 42
0.0000001
 43
0.0000001
 44
0.0000000001
 40
0.0
 40
0.0
 40
0.0
 40
0.0
 40
0.5203187522
 40
0.7633326649
 40
1.0
 40
1.0
 40
1.0
 40
1.0
 10
11.2120132334
 20
11.3698003047
 30
0.0
 10
11.2140983404
 20
11.3666740082
 30
0.0
 10
11.2166913319
 20
11.3617191773
 30
0.0
 10
11.218615425
 20
11.3547374794
 30
0.0
 10
11.2190315532
 20
11.3512816089
 30
0.0
 10
11.2191031786
 20
11.3495738518
 30
0.0
  0
SPLINE
  5
38E
100
AcDbEntity
  8
0
100
AcDbSpline
 62
9
  6
CONTINUOUS
 70
0
 71
3
 72
22
 73
18
 74
0
 42
0.0000001
 43
0.0000001
 44
0.0000000001
 40
0.0
 40
0.0
 40
0.0
 40
0.0
 40
0.0150500937
 40
0.0303688078
 40
0.0627410319
 40
0.0988394416
 40
0.1397467793
 40
0.1860678212
 40
0.2380216369
 40
0.2956076925
 40
0.3586147498
 40
0.4267108977
 40
0.4994580341
 40
0.576307798
 40
0.6566761653
 40
0.825425674
 40
1.0
 40
1.0
 40
1.0
 40
1.0
 10
11.1851900726
 20
12.2656033471
 30
0.0
 10
11.1851900726
 20
12.267005449
 30
0.0
 10
11.1849852393
 20
12.269838845
 30
0.0
 10
11.1837424421
 20
12.27556743
 30
0.0
 10
11.180516187
 20
12.2827746884
 30
0.0
 10
11.1743567156
 20
12.2909696283
 30
0.0
 10
11.165943076
 20
12.2988594071
 30
0.0
 10
11.1553553925
 20
12.3063962755
 30
0.0
 10
11.1426898953
 20
12.313540889
 30
0.0
 10
11.128052139
 20
12.3202227799
 30
0.0
 10
11.1115779109
 20
12.3263899261
 30
0.0
 10
11.0934179385
 20
12.3319800444
 30
0.0
 10
11.0737443177
 20
12.3369376929
 30
0.0
 10
11.0527458043
 20
12.3412212883
 30
0.0
 10
11.0227562042
 20
12.3460462315
 30
0.0
 10
10.9834504051
 20
12.3500468588
 30
0.0
 10
10.9514560949
 20
12.351108383
 30
0.0
 10
10.9351923427
 20
12.351108383
 30
0.0
  0
SPLINE
  5
38F
100
AcDbEntity
  8
0
100
AcDbSpline
 62
9
  6
CONTINUOUS
 70
0
 71
3
 72
11
 73
7
 74
0
 42
0.0000001
 43
0.0000001
 44
0.0000000001
 40
0.0
 40
0.0
 40
0.0
 40
0.0
 40
0.2205451969
 40
0.4569952645
 40
0.7153957558
 40
1.0
 40
1.0
 40
1.0
 40
1.0
 10
10.6216396337
 20
11.2719605596
 30
0.0
 10
10.6221848322
 20
11.2747353237
 30
0.0
 10
10.6239550542
 20
11.2803723262
 30
0.0
 10
10.6283552859
 20
11.288472931
 30
0.0
 10
10.634518065
 20
11.2963872341
 30
0.0
 10
10.6395085756
 20
11.301270187
 30
0.0
 10
10.6422470326
 20
11.3036821091
 30
0.0
  0
SPLINE
  5
390
100
AcDbEntity
  8
0
100
AcDbSpline
 62
9
  6
CONTINUOUS
 70
0
 71
3
 72
9
 73
5
 74
0
 42
0.0000001
 43
0.0000001
 44
0.0000000001
 40
0.0
 40
0.0
 40
0.0
 40
0.0
 40
0.240859647
 40
1.0
 40
1.0
 40
1.0
 40
1.0
 10
10.6422470326
 20
11.3036821091
 30
0.0
 10
10.6429994567
 20
11.3043448138
 30
0.0
 10
10.6461634372
 20
11.3070506198
 30
0.0
 10
10.6494779348
 20
11.3095785518
 30
0.0
 10
10.6520545668
 20
11.3114082035
 30
0.0
  0
SPLINE
  5
391
100
AcDbEntity
  8
0
100
AcDbSpline
 62
9
  6
CONTINUOUS
 70
0
 71
3
 72
29
 73
25
 74
0
 42
0.0000001
 43
0.0000001
 44
0.0000000001
 40
0.0
 40
0.0
 40
0.0
 40
0.0
 40
0.0208566406
 40
0.0434447313
 40
0.0677514403
 40
0.0937425143
 40
0.1213530749
 40
0.1504994493
 40
0.2130018411
 40
0.2803331495
 40
0.3514173742
 40
0.4250599144
 40
0.5
 40
0.5749400856
 40
0.6485826258
 40
0.7196668505
 40
0.7869981589
 40
0.8495005507
 40
0.8786469251
 40
0.9062574857
 40
0.9322485597
 40
0.9565552687
 40
0.9791433594
 40
1.0
 40
1.0
 40
1.0
 40
1.0
 10
10.6520545668
 20
11.3114082035
 30
0.0
 10
10.6553784082
 20
11.3137684442
 30
0.0
 10
10.662519833
 20
11.3183818031
 30
0.0
 10
10.6741326966
 20
11.3247641971
 30
0.0
 10
10.6870196621
 20
11.3308555465
 30
0.0
 10
10.7011203474
 20
11.336621521
 30
0.0
 10
10.7163659229
 20
11.3420377634
 30
0.0
 10
10.7386430877
 20
11.3489192136
 30
0.0
 10
10.7688394074
 20
11.3563695758
 30
0.0
 10
10.8075038576
 20
11.3633653905
 30
0.0
 10
10.8486577321
 20
11.3684629762
 30
0.0
 10
10.8914987226
 20
11.3715633942
 30
0.0
 10
10.9351923427
 20
11.3726054304
 30
0.0
 10
10.9788859629
 20
11.3715633942
 30
0.0
 10
11.0217269533
 20
11.3684629762
 30
0.0
 10
11.0628808279
 20
11.3633653905
 30
0.0
 10
11.101545278
 20
11.3563695758
 30
0.0
 10
11.1317415977
 20
11.3489192136
 30
0.0
 10
11.1540187625
 20
11.3420377634
 30
0.0
 10
11.1692643381
 20
11.336621521
 30
0.0
 10
11.1833650233
 20
11.3308555465
 30
0.0
 10
11.1962519888
 20
11.3247641971
 30
0.0
 10
11.2078648524
 20
11.3183818031
 30
0.0
 10
11.2150062773
 20
11.3137684442
 30
0.0
 10
11.2183301186
 20
11.3114082035
 30
0.0
  0
SPLINE
  5
392
100
AcDbEntity
  8
0
100
AcDbSpline
 62
9
  6
CONTINUOUS
 70
0
 71
3
 72
9
 73
5
 74
0
 42
0.0000001
 43
0.0000001
 44
0.0000000001
 40
0.0
 40
0.0
 40
0.0
 40
0.0
 40
0.2592914901
 40
1.0
 40
1.0
 40
1.0
 40
1.0
 10
11.2183301186
 20
11.3114082035
 30
0.0
 10
11.2192084808
 20
11.3107844835
 30
0.0
 10
11.2225675956
 20
11.3083394907
 30
0.0
 10
11.2258096521
 20
11.3057315553
 30
0.0
 10
11.2281195376
 20
11.3036980605
 30
0.0
  0
SPLINE
  5
393
100
AcDbEntity
  8
0
100
AcDbSpline
 62
9
  6
CONTINUOUS
 70
0
 71
3
 72
11
 73
7
 74
0
 42
0.0000001
 43
0.0000001
 44
0.0000000001
 40
0.0
 40
0.0
 40
0.0
 40
0.0
 40
0.2846264266
 40
0.5430327074
 40
0.7794739327
 40
1.0
 40
1.0
 40
1.0
 40
1.0
 10
11.2281195376
 20
11.3036980605
 30
0.0
 10
11.2308604868
 20
11.3012850813
 30
0.0
 10
11.2358555031
 20
11.2963999615
 30
0.0
 10
11.2420239104
 20
11.2884817463
 30
0.0
 10
11.2464279844
 20
11.2803769463
 30
0.0
 10
11.2481995592
 20
11.2747368199
 30
0.0
 10
11.2487450517
 20
11.2719605596
 30
0.0
  0
SPLINE
  5
394
100
AcDbEntity
  8
0
100
AcDbSpline
 62
9
  6
CONTINUOUS
 70
0
 71
3
 72
9
 73
5
 74
0
 42
0.0000001
 43
0.0000001
 44
0.0000000001
 40
0.0
 40
0.0
 40
0.0
 40
0.0
 40
0.4653233202
 40
1.0
 40
1.0
 40
1.0
 40
1.0
 10
10.6383022459
 20
11.3093475897
 30
0.0
 10
10.6411739278
 20
11.3132828266
 30
0.0
 10
10.648336329
 20
11.3210232686
 30
0.0
 10
10.6566344887
 20
11.3274635005
 30
0.0
 10
10.6612482944
 20
11.3306332048
 30
0.0
  0
SPLINE
  5
395
100
AcDbEntity
  8
0
100
AcDbSpline
 62
9
  6
CONTINUOUS
 70
0
 71
3
 72
29
 73
25
 74
0
 42
0.0000001
 43
0.0000001
 44
0.0000000001
 40
0.0
 40
0.0
 40
0.0
 40
0.0
 40
0.021080113
 40
0.043863947
 40
0.0683353789
 40
0.0944572605
 40
0.1221623539
 40
0.1513679813
 40
0.2138876538
 40
0.2811139538
 40
0.351995043
 40
0.4253662898
 40
0.5
 40
0.5746337102
 40
0.648004957
 40
0.7188860462
 40
0.7861123462
 40
0.8486320187
 40
0.8778376461
 40
0.9055427395
 40
0.9316646211
 40
0.956136053
 40
0.978919887
 40
1.0
 40
1.0
 40
1.0
 40
1.0
 10
10.6612482944
 20
11.3306332048
 30
0.0
 10
10.6645303698
 20
11.3328880047
 30
0.0
 10
10.6715584453
 20
11.3372941071
 30
0.0
 10
10.6829444869
 20
11.3433921262
 30
0.0
 10
10.6955339399
 20
11.349208182
 30
0.0
 10
10.7092688744
 20
11.3547104178
 30
0.0
 10
10.724083346
 20
11.3598769497
 30
0.0
 10
10.7456749638
 20
11.3664338058
 30
0.0
 10
10.7748762191
 20
11.3735312564
 30
0.0
 10
10.8122038792
 20
11.3801947911
 30
0.0
 10
10.8518745141
 20
11.3850481052
 30
0.0
 10
10.893132453
 20
11.3879987709
 30
0.0
 10
10.9351923427
 20
11.3889904549
 30
0.0
 10
10.9772522324
 20
11.3879987709
 30
0.0
 10
11.0185101713
 20
11.3850481052
 30
0.0
 10
11.0581808062
 20
11.3801947911
 30
0.0
 10
11.0955084663
 20
11.3735312564
 30
0.0
 10
11.1247097216
 20
11.3664338058
 30
0.0
 10
11.1463013395
 20
11.3598769497
 30
0.0
 10
11.161115811
 20
11.3547104178
 30
0.0
 10
11.1748507455
 20
11.349208182
 30
0.0
 10
11.1874401986
 20
11.3433921262
 30
0.0
 10
11.1988262401
 20
11.3372941071
 30
0.0
 10
11.2058543156
 20
11.3328880047
 30
0.0
 10
11.2091363911
 20
11.3306332048
 30
0.0
  0
SPLINE
  5
396
100
AcDbEntity
  8
0
100
AcDbSpline
 62
9
  6
CONTINUOUS
 70
0
 71
3
 72
9
 73
5
 74
0
 42
0.0000001
 43
0.0000001
 44
0.0000000001
 40
0.0
 40
0.0
 40
0.0
 40
0.0
 40
0.5346793202
 40
1.0
 40
1.0
 40
1.0
 40
1.0
 10
11.2091363911
 20
11.3306332048
 30
0.0
 10
11.2137505215
 20
11.3274632774
 30
0.0
 10
11.2220492039
 20
11.3210225893
 30
0.0
 10
11.2292119349
 20
11.3132814894
 30
0.0
 10
11.2320836569
 20
11.3093459214
 30
0.0
  0
SPLINE
  5
397
100
AcDbEntity
  8
0
100
AcDbSpline
 62
9
  6
CONTINUOUS
 70
0
 71
3
 72
22
 73
18
 74
0
 42
0.0000001
 43
0.0000001
 44
0.0000000001
 40
0.0
 40
0.0
 40
0.0
 40
0.0
 40
0.174574326
 40
0.3433238347
 40
0.423692202
 40
0.5005419659
 40
0.5732891023
 40
0.6413852502
 40
0.7043923075
 40
0.7619783631
 40
0.8139321788
 40
0.8602532207
 40
0.9011605584
 40
0.9372589681
 40
0.9696311922
 40
0.9849499063
 40
1.0
 40
1.0
 40
1.0
 40
1.0
 10
10.9351923427
 20
12.351108383
 30
0.0
 10
10.9189285906
 20
12.351108383
 30
0.0
 10
10.8869342804
 20
12.3500468588
 30
0.0
 10
10.8476284813
 20
12.3460462315
 30
0.0
 10
10.8176388812
 20
12.3412212883
 30
0.0
 10
10.7966403678
 20
12.3369376929
 30
0.0
 10
10.776966747
 20
12.3319800444
 30
0.0
 10
10.7588067746
 20
12.3263899261
 30
0.0
 10
10.7423325465
 20
12.3202227799
 30
0.0
 10
10.7276947902
 20
12.313540889
 30
0.0
 10
10.715029293
 20
12.3063962755
 30
0.0
 10
10.7044416095
 20
12.2988594071
 30
0.0
 10
10.6960279699
 20
12.2909696283
 30
0.0
 10
10.6898684985
 20
12.2827746884
 30
0.0
 10
10.6866422434
 20
12.27556743
 30
0.0
 10
10.6853994462
 20
12.269838845
 30
0.0
 10
10.6851946128
 20
12.267005449
 30
0.0
 10
10.6851946128
 20
12.2656033471
 30
0.0
  0
SPLINE
  5
398
100
AcDbEntity
  8
0
100
AcDbSpline
 62
9
  6
CONTINUOUS
 70
0
 71
3
 72
41
 73
37
 74
0
 42
0.0000001
 43
0.0000001
 44
0.0000000001
 40
0.0
 40
0.0
 40
0.0
 40
0.0
 40
0.0075145395
 40
0.015172657
 40
0.0313649236
 40
0.049418831
 40
0.0698717237
 40
0.093027144
 40
0.1190068198
 40
0.1330570921
 40
0.1478017136
 40
0.1793063522
 40
0.2133509917
 40
0.2497204852
 40
0.2881478265
 40
0.3283386641
 40
0.3699709099
 40
0.4126999454
 40
0.5
 40
0.5873000546
 40
0.6300290901
 40
0.6716613359
 40
0.7118521735
 40
0.7502795148
 40
0.7866490083
 40
0.8206936478
 40
0.8521982864
 40
0.8669429079
 40
0.8809931802
 40
0.906972856
 40
0.9301282763
 40
0.950581169
 40
0.9686350764
 40
0.984827343
 40
0.9924854605
 40
1.0
 40
1.0
 40
1.0
 40
1.0
 10
10.6651923432
 20
11.2178460749
 30
0.0
 10
10.6651923432
 20
11.2163338607
 30
0.0
 10
10.6654154102
 20
11.2132760257
 30
0.0
 10
10.6667621689
 20
11.2070914087
 30
0.0
 10
10.6702386618
 20
11.1993021319
 30
0.0
 10
10.6768937455
 20
11.1904493782
 30
0.0
 10
10.6859816596
 20
11.181929847
 30
0.0
 10
10.6974149095
 20
11.1737884277
 30
0.0
 10
10.7085085623
 20
11.1675343844
 30
0.0
 10
10.7184296382
 20
11.1627263923
 30
0.0
 10
10.7295506076
 20
11.1578640529
 30
0.0
 10
10.7446962514
 20
11.152197769
 30
0.0
 10
10.7643073265
 20
11.1461588855
 30
0.0
 10
10.7855548569
 20
11.1408042638
 30
0.0
 10
10.8082352433
 20
11.1361791921
 30
0.0
 10
10.8321331633
 20
11.1323333478
 30
0.0
 10
10.8570198455
 20
11.1293021142
 30
0.0
 10
10.8914459651
 20
11.1263661714
 30
0.0
 10
10.9351923427
 20
11.124919526
 30
0.0
 10
10.9789387203
 20
11.1263661714
 30
0.0
 10
11.0133648399
 20
11.1293021142
 30
0.0
 10
11.0382515221
 20
11.1323333478
 30
0.0
 10
11.0621494421
 20
11.1361791921
 30
0.0
 10
11.0848298286
 20
11.1408042638
 30
0.0
 10
11.106077359
 20
11.1461588855
 30
0.0
 10
11.125688434
 20
11.152197769
 30
0.0
 10
11.1408340779
 20
11.1578640529
 30
0.0
 10
11.1519550472
 20
11.1627263923
 30
0.0
 10
11.1618761232
 20
11.1675343844
 30
0.0
 10
11.1729697759
 20
11.1737884277
 30
0.0
 10
11.1844030258
 20
11.181929847
 30
0.0
 10
11.1934909399
 20
11.1904493782
 30
0.0
 10
11.2001460237
 20
11.1993021319
 30
0.0
 10
11.2036225165
 20
11.2070914087
 30
0.0
 10
11.2049692752
 20
11.2132760257
 30
0.0
 10
11.2051923423
 20
11.2163338607
 30
0.0
 10
11.2051923423
 20
11.2178460749
 30
0.0
  0
SPLINE
  5
399
100
AcDbEntity
  8
0
100
AcDbSpline
 62
9
  6
CONTINUOUS
 70
0
 71
3
 72
10
 73
6
 74
0
 42
0.0000001
 43
0.0000001
 44
0.0000000001
 40
0.0
 40
0.0
 40
0.0
 40
0.0
 40
0.2381187107
 40
0.4814709954
 40
1.0
 40
1.0
 40
1.0
 40
1.0
 10
10.6498731952
 20
11.2192372214
 30
0.0
 10
10.6498731952
 20
11.217515324
 30
0.0
 10
10.6501477716
 20
11.2140273857
 30
0.0
 10
10.6518057098
 20
11.2069674406
 30
0.0
 10
10.6542379583
 20
11.2019301566
 30
0.0
 10
10.6562302124
 20
11.1987535949
 30
0.0
  0
SPLINE
  5
39A
100
AcDbEntity
  8
0
100
AcDbSpline
 62
9
  6
CONTINUOUS
 70
0
 71
3
 72
17
 73
13
 74
0
 42
0.0000001
 43
0.0000001
 44
0.0000000001
 40
0.0
 40
0.0
 40
0.0
 40
0.0
 40
0.0803511876
 40
0.1250848883
 40
0.1730870563
 40
0.2244730799
 40
0.2792811835
 40
0.3990723071
 40
0.5320935329
 40
0.6774333686
 40
0.8338996863
 40
1.0
 40
1.0
 40
1.0
 40
1.0
 10
10.6570267419
 20
11.1975225392
 30
0.0
 10
10.6595492072
 20
11.1937404913
 30
0.0
 10
10.6642247573
 20
11.1883404806
 30
0.0
 10
10.6715286736
 20
11.1818138184
 30
0.0
 10
10.6780167588
 20
11.1768599496
 30
0.0
 10
10.6852956628
 20
11.1720415134
 30
0.0
 10
10.6963588276
 20
11.1656197178
 30
0.0
 10
10.7120817511
 20
11.1580907153
 30
0.0
 10
10.7331462183
 20
11.1500544824
 30
0.0
 10
10.7566871355
 20
11.1428528482
 30
0.0
 10
10.7824199004
 20
11.1365847488
 30
0.0
 10
10.8003549324
 20
11.1331647867
 30
0.0
 10
10.8096231316
 20
11.1316110395
 30
0.0
  0
SPLINE
  5
39B
100
AcDbEntity
  8
0
100
AcDbSpline
 62
9
  6
CONTINUOUS
 70
0
 71
3
 72
17
 73
13
 74
0
 42
0.0000001
 43
0.0000001
 44
0.0000000001
 40
0.0
 40
0.0
 40
0.0
 40
0.0
 40
0.1661007681
 40
0.3225679274
 40
0.4679086836
 40
0.6009306399
 40
0.720722056
 40
0.7755300784
 40
0.8269158484
 40
0.8749175731
 40
0.9196506349
 40
1.0
 40
1.0
 40
1.0
 40
1.0
 10
11.0607438834
 20
11.1316080774
 30
0.0
 10
11.0700131301
 20
11.1331617281
 30
0.0
 10
11.0879502222
 20
11.1365815645
 30
0.0
 10
11.1136859957
 20
11.1428496501
 30
0.0
 10
11.1372297254
 20
11.150051453
 30
0.0
 10
11.1582967297
 20
11.158088018
 30
0.0
 10
11.1740215529
 20
11.1656174378
 30
0.0
 10
11.1850860352
 20
11.1720396477
 30
0.0
 10
11.1923657777
 20
11.1768584064
 30
0.0
 10
11.1988545866
 20
11.1818126233
 30
0.0
 10
11.206159258
 20
11.1883397442
 30
0.0
 10
11.2108352693
 20
11.1937401781
 30
0.0
 10
11.2133579435
 20
11.1975225392
 30
0.0
  0
SPLINE
  5
39C
100
AcDbEntity
  8
0
100
AcDbSpline
 62
9
  6
CONTINUOUS
 70
0
 71
3
 72
10
 73
6
 74
0
 42
0.0000001
 43
0.0000001
 44
0.0000000001
 40
0.0
 40
0.0
 40
0.0
 40
0.0
 40
0.5186766086
 40
0.7619764387
 40
1.0
 40
1.0
 40
1.0
 40
1.0
 10
11.2140968417
 20
11.1986619198
 30
0.0
 10
11.2161063074
 20
11.201850934
 30
0.0
 10
11.218560814
 20
11.2069097245
 30
0.0
 10
11.2202343523
 20
11.2140032162
 30
0.0
 10
11.2205114902
 20
11.2175074602
 30
0.0
 10
11.2205114902
 20
11.2192372214
 30
0.0
  0
LINE
  5
39D
100
AcDbEntity
  8
0
100
AcDbLine
 62
9
  6
CONTINUOUS
 10
11.2462664769
 20
11.5071878096
 11
11.2504514062
 21
11.512782226
  0
SPLINE
  5
39E
100
AcDbEntity
  8
0
100
AcDbSpline
 62
9
  6
CONTINUOUS
 70
0
 71
3
 72
10
 73
6
 74
0
 42
0.0000001
 43
0.0000001
 44
0.0000000001
 40
0.0
 40
0.0
 40
0.0
 40
0.0
 40
0.517109872
 40
0.7609747001
 40
1.0
 40
1.0
 40
1.0
 40
1.0
 10
11.2519901879
 20
11.5152158507
 30
0.0
 10
11.2540576434
 20
11.5186740193
 30
0.0
 10
11.2565689446
 20
11.5241385383
 30
0.0
 10
11.2582764247
 20
11.5317614514
 30
0.0
 10
11.2585591439
 20
11.5355302034
 30
0.0
 10
11.2585588802
 20
11.537392567
 30
0.0
  0
SPLINE
  5
39F
100
AcDbEntity
  8
0
100
AcDbSpline
 62
9
  6
CONTINUOUS
 70
0
 71
3
 72
41
 73
37
 74
0
 42
0.0000001
 43
0.0000001
 44
0.0000000001
 40
0.0
 40
0.0
 40
0.0
 40
0.0
 40
0.007514564
 40
0.0151727524
 40
0.0313652268
 40
0.0494192531
 40
0.0698721894
 40
0.0930275728
 40
0.1190072595
 40
0.1330575371
 40
0.1478021441
 40
0.1793067705
 40
0.2133513956
 40
0.249720846
 40
0.2881481518
 40
0.3283389317
 40
0.3699711199
 40
0.4127000896
 40
0.5
 40
0.5872999104
 40
0.6300288801
 40
0.6716610683
 40
0.7118518482
 40
0.750279154
 40
0.7866486044
 40
0.8206932295
 40
0.8521978559
 40
0.8669424629
 40
0.8809927405
 40
0.9069724272
 40
0.9301278106
 40
0.9505807469
 40
0.9686347732
 40
0.9848272476
 40
0.992485436
 40
1.0
 40
1.0
 40
1.0
 40
1.0
 10
10.651764954
 20
11.3728105531
 30
0.0
 10
10.651764954
 20
11.3743979765
 30
0.0
 10
10.6519991314
 20
11.377607901
 30
0.0
 10
10.6534129345
 20
11.3841001361
 30
0.0
 10
10.6570623741
 20
11.3922768398
 30
0.0
 10
10.6640484152
 20
11.4015699573
 30
0.0
 10
10.6735883781
 20
11.4105131159
 30
0.0
 10
10.6855902258
 20
11.4190593996
 30
0.0
 10
10.697235596
 20
11.4256244241
 30
0.0
 10
10.7076500639
 20
11.430671508
 30
0.0
 10
10.7193240843
 20
11.4357756595
 30
0.0
 10
10.7352229366
 20
11.4417237097
 30
0.0
 10
10.7558092819
 20
11.4480628889
 30
0.0
 10
10.7781134555
 20
11.4536837934
 30
0.0
 10
10.8019217366
 20
11.458538849
 30
0.0
 10
10.8270080925
 20
11.4625759487
 30
0.0
 10
10.8531323785
 20
11.4657579115
 30
0.0
 10
10.8892704878
 20
11.4688398558
 30
0.0
 10
10.9351923427
 20
11.470358435
 30
0.0
 10
10.9811141976
 20
11.4688398558
 30
0.0
 10
11.0172523069
 20
11.4657579115
 30
0.0
 10
11.0433765929
 20
11.4625759487
 30
0.0
 10
11.0684629489
 20
11.458538849
 30
0.0
 10
11.0922712299
 20
11.4536837934
 30
0.0
 10
11.1145754035
 20
11.4480628889
 30
0.0
 10
11.1351617488
 20
11.4417237097
 30
0.0
 10
11.1510606012
 20
11.4357756595
 30
0.0
 10
11.1627346215
 20
11.430671508
 30
0.0
 10
11.1731490894
 20
11.4256244241
 30
0.0
 10
11.1847944596
 20
11.4190593996
 30
0.0
 10
11.1967963073
 20
11.4105131159
 30
0.0
 10
11.2063362703
 20
11.4015699573
 30
0.0
 10
11.2133223113
 20
11.3922768398
 30
0.0
 10
11.2169717509
 20
11.3841001361
 30
0.0
 10
11.218385554
 20
11.377607901
 30
0.0
 10
11.2186197314
 20
11.3743979765
 30
0.0
 10
11.2186197314
 20
11.3728105531
 30
0.0
  0
SPLINE
  5
3A0
100
AcDbEntity
  8
0
100
AcDbSpline
 62
9
  6
CONTINUOUS
 70
0
 71
3
 72
10
 73
6
 74
0
 42
0.0000001
 43
0.0000001
 44
0.0000000001
 40
0.0
 40
0.0
 40
0.0
 40
0.0
 40
0.2390295915
 40
0.4828967911
 40
1.0
 40
1.0
 40
1.0
 40
1.0
 10
10.6118258052
 20
11.537392567
 30
0.0
 10
10.6118255416
 20
11.5355306174
 30
0.0
 10
10.6121081328
 20
11.5317627213
 30
0.0
 10
10.6138148345
 20
11.5241415667
 30
0.0
 10
10.6163250186
 20
11.5186781924
 30
0.0
 10
10.6183916036
 20
11.5152206917
 30
0.0
  0
LINE
  5
3A1
100
AcDbEntity
  8
0
100
AcDbLine
 62
9
  6
CONTINUOUS
 10
10.6199332792
 20
11.512782226
 11
10.6241499534
 21
11.507149595
  0
SPLINE
  5
3A2
100
AcDbEntity
  8
0
100
AcDbSpline
 62
9
  6
CONTINUOUS
 70
0
 71
3
 72
10
 73
6
 74
0
 42
0.0000001
 43
0.0000001
 44
0.0000000001
 40
0.0
 40
0.0
 40
0.0
 40
0.0
 40
0.2368178298
 40
0.4794546367
 40
1.0
 40
1.0
 40
1.0
 40
1.0
 10
10.6046744361
 20
11.5458008179
 30
0.0
 10
10.6046744361
 20
11.5436835959
 30
0.0
 10
10.6050336452
 20
11.5393885307
 30
0.0
 10
10.6072049657
 20
11.5306860313
 30
0.0
 10
10.6103789497
 20
11.5245179116
 30
0.0
 10
10.6129612101
 20
11.52064621
 30
0.0
  0
SPLINE
  5
3A3
100
AcDbEntity
  8
0
100
AcDbSpline
 62
9
  6
CONTINUOUS
 70
0
 71
3
 72
9
 73
5
 74
0
 42
0.0000001
 43
0.0000001
 44
0.0000000001
 40
0.0
 40
0.0
 40
0.0
 40
0.0
 40
0.239727267
 40
1.0
 40
1.0
 40
1.0
 40
1.0
 10
10.6129612101
 20
11.52064621
 30
0.0
 10
10.6135181103
 20
11.519811224
 30
0.0
 10
10.6159258151
 20
11.5163847871
 30
0.0
 10
10.6186500208
 20
11.5131856126
 30
0.0
 10
10.6208421112
 20
11.5108777173
 30
0.0
  0
SPLINE
  5
3A4
100
AcDbEntity
  8
0
100
AcDbSpline
 62
9
  6
CONTINUOUS
 70
0
 71
3
 72
10
 73
6
 74
0
 42
0.0000001
 43
0.0000001
 44
0.0000000001
 40
0.0
 40
0.0
 40
0.0
 40
0.0
 40
0.2375326605
 40
0.4805621701
 40
1.0
 40
1.0
 40
1.0
 40
1.0
 10
10.6026923426
 20
11.5480523704
 30
0.0
 10
10.6026923426
 20
11.5459896736
 30
0.0
 10
10.6030308136
 20
11.5418086274
 30
0.0
 10
10.6050755593
 20
11.5333418175
 30
0.0
 10
10.6080704942
 20
11.5273186609
 30
0.0
 10
10.6105160632
 20
11.5235284413
 30
0.0
  0
SPLINE
  5
3A5
100
AcDbEntity
  8
0
100
AcDbSpline
 62
9
  6
CONTINUOUS
 70
0
 71
3
 72
9
 73
5
 74
0
 42
0.0000001
 43
0.0000001
 44
0.0000000001
 40
0.0
 40
0.0
 40
0.0
 40
0.0
 40
0.2425537405
 40
1.0
 40
1.0
 40
1.0
 40
1.0
 10
10.6116480172
 20
11.5218358864
 30
0.0
 10
10.6120654352
 20
11.5212330493
 30
0.0
 10
10.6138288886
 20
11.5187772252
 30
0.0
 10
10.6157546808
 20
11.5164393303
 30
0.0
 10
10.6172827382
 20
11.5147340049
 30
0.0
  0
SPLINE
  5
3A6
100
AcDbEntity
  8
0
100
AcDbSpline
 62
9
  6
CONTINUOUS
 70
0
 71
3
 72
41
 73
37
 74
0
 42
0.0000001
 43
0.0000001
 44
0.0000000001
 40
0.0
 40
0.0
 40
0.0
 40
0.0
 40
0.0075145395
 40
0.015172657
 40
0.0313649236
 40
0.049418831
 40
0.0698717237
 40
0.093027144
 40
0.1190068198
 40
0.1330570921
 40
0.1478017136
 40
0.1793063522
 40
0.2133509917
 40
0.2497204852
 40
0.2881478265
 40
0.3283386641
 40
0.3699709099
 40
0.4126999454
 40
0.5
 40
0.5873000546
 40
0.6300290901
 40
0.6716613359
 40
0.7118521735
 40
0.7502795148
 40
0.7866490083
 40
0.8206936478
 40
0.8521982864
 40
0.8669429079
 40
0.8809931802
 40
0.906972856
 40
0.9301282763
 40
0.950581169
 40
0.9686350764
 40
0.984827343
 40
0.9924854605
 40
1.0
 40
1.0
 40
1.0
 40
1.0
 10
10.6651923432
 20
11.2178460749
 30
0.0
 10
10.6651923432
 20
11.2193582892
 30
0.0
 10
10.6654154102
 20
11.2224161242
 30
0.0
 10
10.6667621689
 20
11.2286007412
 30
0.0
 10
10.6702386618
 20
11.236390018
 30
0.0
 10
10.6768937455
 20
11.2452427717
 30
0.0
 10
10.6859816596
 20
11.2537623029
 30
0.0
 10
10.6974149095
 20
11.2619037222
 30
0.0
 10
10.7085085623
 20
11.2681577655
 30
0.0
 10
10.7184296382
 20
11.2729657576
 30
0.0
 10
10.7295506076
 20
11.277828097
 30
0.0
 10
10.7446962514
 20
11.2834943809
 30
0.0
 10
10.7643073265
 20
11.2895332644
 30
0.0
 10
10.7855548569
 20
11.2948878861
 30
0.0
 10
10.8082352433
 20
11.2995129578
 30
0.0
 10
10.8321331633
 20
11.3033588021
 30
0.0
 10
10.8570198455
 20
11.3063900357
 30
0.0
 10
10.8914459651
 20
11.3093259785
 30
0.0
 10
10.9351923427
 20
11.3107726239
 30
0.0
 10
10.9789387203
 20
11.3093259785
 30
0.0
 10
11.0133648399
 20
11.3063900357
 30
0.0
 10
11.0382515221
 20
11.3033588021
 30
0.0
 10
11.0621494421
 20
11.2995129578
 30
0.0
 10
11.0848298286
 20
11.2948878861
 30
0.0
 10
11.106077359
 20
11.2895332644
 30
0.0
 10
11.125688434
 20
11.2834943809
 30
0.0
 10
11.1408340779
 20
11.277828097
 30
0.0
 10
11.1519550472
 20
11.2729657576
 30
0.0
 10
11.1618761232
 20
11.2681577655
 30
0.0
 10
11.1729697759
 20
11.2619037222
 30
0.0
 10
11.1844030258
 20
11.2537623029
 30
0.0
 10
11.1934909399
 20
11.2452427717
 30
0.0
 10
11.2001460237
 20
11.236390018
 30
0.0
 10
11.2036225165
 20
11.2286007412
 30
0.0
 10
11.2049692752
 20
11.2224161242
 30
0.0
 10
11.2051923423
 20
11.2193582892
 30
0.0
 10
11.2051923423
 20
11.2178460749
 30
0.0
  0
ENDSEC
  0
SECTION
  2
OBJECTS
  0
DICTIONARY
  5
C
100
AcDbDictionary
280
0
281
1
  3
ACAD_GROUP
350
D
  3
ACAD_MLINESTYLE
350
17
  3
ACAD_LAYOUT
350
1A
  3
ACAD_PLOTSETTINGS
350
19
  3
ACAD_PLOTSTYLENAME
350
E
  0
DICTIONARY
  5
D
102
{ACAD_REACTORS
330
C
102
}
100
AcDbDictionary
280
0
281
1
  0
ACDBDICTIONARYWDFLT
  5
E
102
{ACAD_REACTORS
330
C
102
}
100
AcDbDictionary
281
1
  3
Normal
350
F
100
AcDbDictionaryWithDefault
340
F
  0
DICTIONARY
  5
17
102
{ACAD_REACTORS
330
C
102
}
100
AcDbDictionary
280
0
281
1
  3
Standard
350
18
  0
DICTIONARY
  5
19
102
{ACAD_REACTORS
330
C
102
}
100
AcDbDictionary
281
1
  0
DICTIONARY
  5
1A
102
{ACAD_REACTORS
330
C
102
}
100
AcDbDictionary
281
1
  3
Model
350
3A7
  3
Layout1
350
3A8
  0
ACDBPLACEHOLDER
  5
F
102
{ACAD_REACTORS
330
E
102
}
  0
MLINESTYLE
  5
18
102
{ACAD_REACTORS
330
17
102
}
100
AcDbMlineStyle
  2
STANDARD
 70
0
  3

 62
256
 51
90.0
 52
90.0
 71
2
 49
0.5
 62
256
  6
BYLAYER
 49
-0.5
 62
256
  6
BYLAYER
  0
LAYOUT
  5
3A7
102
{ACAD_REACTORS
330
1A
102
}
100
AcDbPlotSettings
  1

  2
none_device
  4
ANSI_C_(22.00_x_17.00_Inches)
  6

 40
0.0
 41
0.0
 42
0.0
 43
0.0
 44
558.8
 45
431.8
 46
0.0
 47
0.0
 48
0.0
 49
0.0
140
0.0
141
0.0
142
1.0
143
1.0
 70
1024
 72
0
 73
0
 74
0
  7

 75
0
147
1.0
148
0.0
149
0.0
100
AcDbLayout
  1
Model
 70
0
 71
0
 10
0.0
 20
0.0
 11
22.0
 21
17.0
 12
0.0
 22
0.0
 32
0.0
 14
0.0
 24
0.0
 34
0.0
 15
0.0
 25
0.0
 35
0.0
146
0.0
 13
0.0
 23
0.0
 33
0.0
 16
1.0
 26
0.0
 36
0.0
 17
0.0
 27
1.0
 37
0.0
 76
0
330
205
345
0
346
0
  0
LAYOUT
  5
3A8
102
{ACAD_REACTORS
330
1A
102
}
100
AcDbPlotSettings
  1

  2
none_device
  4
ANSI_C_(22.00_x_17.00_Inches)
  6

 40
0.0
 41
0.0
 42
0.0
 43
0.0
 44
558.8
 45
431.8
 46
0.0
 47
0.0
 48
0.0
 49
0.0
140
0.0
141
0.0
142
1.0
143
1.0
 70
0
 72
0
 73
0
 74
0
  7

 75
0
147
1.0
148
0.0
149
0.0
100
AcDbLayout
  1
Layout1
 70
0
 71
1
 10
0.0
 20
0.0
 11
22.0
 21
17.0
 12
0.0
 22
0.0
 32
0.0
 14
0.0
 24
0.0
 34
0.0
 15
0.0
 25
0.0
 35
0.0
146
0.0
 13
0.0
 23
0.0
 33
0.0
 16
1.0
 26
0.0
 36
0.0
 17
0.0
 27
1.0
 37
0.0
 76
0
330
206
345
0
346
0
  0
ENDSEC
  0
EOF
