999
DXF file: E:\BT Custom\CADOUTPUT\_FRONT.dxf
999
Pro/ENGINEER 2018400 by Parametric Technology Corporation
  0
SECTION
  2
HEADER
  9
$ACADVER
  1
AC1018
  9
$DWGCODEPAGE
  3
ANSI_1252
  9
$EXTMAX
 10
22.0
 20
17.0
 30
0.0
  9
$EXTMIN
 10
0.0
 20
0.0
 30
0.0
  9
$LIMMIN
 10
0.0
 20
0.0
  9
$LIMMAX
 10
22.0
 20
17.0
  9
$VIEWCTR
 10
11.0
 20
8.5
  9
$VIEWSIZE
 40
17.0
  9
$CLAYER
  8
0
  9
$LTSCALE
 40
1.21
  9
$CELTYPE
  6
BYLAYER
  9
$DIMSCALE
 40
1.0
  9
$DIMASZ
 40
0.1
  9
$DIMEXO
 40
0.0625
  9
$DIMDLI
 40
0.836
  9
$DIMEXE
 40
0.125
  9
$DIMCEN
 40
0.198
  9
$DIMLFAC
 40
1.0
  9
$DIMBLK
  1
_FILLED
  9
$DIMALT
 70
1
  9
$DIMALTD
 70
2
  9
$DIMALTTD
 70
2
  9
$DIMALTF
 40
25.4
  9
$DIMTXT
 40
0.08
  9
$DIMTOL
 70
1
  9
$DIMLIM
 70
0
  9
$DIMTFAC
 40
1.0
  9
$DIMTP
 40
0.001
  9
$DIMTM
 40
0.001
  9
$DIMGAP
 40
0.09
  9
$DIMDSEP
 70
46
  9
$AUNITS
 70
0
  9
$PDMODE
 70
3
  9
$PDSIZE
 40
0.06
  9
$HANDSEED
  5
346
  9
$TILEMODE
 70
1
  9
$MEASUREMENT
 70
0
  9
$INSUNITS
 70
1
  0
ENDSEC
  0
SECTION
  2
CLASSES
  0
CLASS
  1
ACDBDICTIONARYWDFLT
  2
AcDbDictionaryWithDefault
  3
AutoCAD 2000
 90
0
 91
1
280
0
281
0
  0
CLASS
  1
ACDBPLACEHOLDER
  2
AcDbPlaceHolder
  3
AutoCAD 2000
 90
0
 91
1
280
0
281
0
  0
CLASS
  1
LAYOUT
  2
AcDbLayout
  3
AutoCAD 2000
 90
0
 91
0
280
0
281
0
  0
ENDSEC
  0
SECTION
  2
TABLES
  0
TABLE
  2
VPORT
  5
8
100
AcDbSymbolTable
 70
2
  0
VPORT
  5
1F4
100
AcDbSymbolTableRecord
100
AcDbViewportTableRecord
  2
*ACTIVE
 70
0
 10
0.0
 20
0.0
 11
1.0
 21
1.0
 12
11.0
 22
8.5
 13
0.0
 23
0.0
 14
1.0
 24
1.0
 15
0.0
 25
0.0
 16
0.0
 26
0.0
 36
1.0
 17
0.0
 27
0.0
 37
0.0
 40
17.0
 41
1.2941176471
 42
50.0
 43
0.0
 44
0.0
 50
0.0
 51
0.0
 71
0
 72
100
 73
1
 74
1
 75
0
 76
0
 77
0
 78
0
  0
ENDTAB
  0
TABLE
  2
LTYPE
  5
5
100
AcDbSymbolTable
 70
6
  0
LTYPE
  5
14
100
AcDbSymbolTableRecord
100
AcDbLinetypeTableRecord
  2
BYBLOCK
 70
0
  3

 72
65
 73
0
 40
0.0
  0
LTYPE
  5
15
100
AcDbSymbolTableRecord
100
AcDbLinetypeTableRecord
  2
BYLAYER
 70
0
  3

 72
65
 73
0
 40
0.0
  0
LTYPE
  5
16
100
AcDbSymbolTableRecord
100
AcDbLinetypeTableRecord
  2
CONTINUOUS
 70
64
  3
Solid line
 72
65
 73
0
 40
0.0
  0
LTYPE
  5
1F5
100
AcDbSymbolTableRecord
100
AcDbLinetypeTableRecord
  2
CENTER
 70
64
  3
____ _ ____ _ ____ _ ____ _ ____ _ ____ _ ____
 72
65
 73
4
 40
0.6
 49
0.375
 74
0
 49
-0.075
 74
0
 49
0.075
 74
0
 49
-0.075
 74
0
  0
LTYPE
  5
1F6
100
AcDbSymbolTableRecord
100
AcDbLinetypeTableRecord
  2
HIDDEN
 70
64
  3
- - - - - - - - - - - - - - - - - - - -
 72
65
 73
2
 40
0.2
 49
0.1
 74
0
 49
-0.1
 74
0
  0
LTYPE
  5
1F7
100
AcDbSymbolTableRecord
100
AcDbLinetypeTableRecord
  2
PHANTOM
 70
64
  3
_____ _ _ _____ _ _ _____ _ _ _____
 72
65
 73
6
 40
0.8
 49
0.45
 74
0
 49
-0.05
 74
0
 49
0.1
 74
0
 49
-0.05
 74
0
 49
0.1
 74
0
 49
-0.05
 74
0
  0
LTYPE
  5
1F8
100
AcDbSymbolTableRecord
100
AcDbLinetypeTableRecord
  2
DOT
 70
64
  3
. . . . . . . . . . . . . . . . . . . .
 72
65
 73
2
 40
0.2
 49
0.1
 74
0
 49
-0.1
 74
0
  0
LTYPE
  5
1F9
100
AcDbSymbolTableRecord
100
AcDbLinetypeTableRecord
  2
DASHED
 70
64
  3
- - - - - - - - - - - - - - - - - - - -
 72
65
 73
2
 40
0.2
 49
0.1
 74
0
 49
-0.1
 74
0
  0
ENDTAB
  0
TABLE
  2
LAYER
  5
2
100
AcDbSymbolTable
 70
36
  0
LAYER
  5
10
100
AcDbSymbolTableRecord
100
AcDbLayerTableRecord
  2
0
 70
0
 62
7
  6
CONTINUOUS
370
-3
390
F
  0
LAYER
  5
1FA
100
AcDbSymbolTableRecord
100
AcDbLayerTableRecord
  2
DEFAULT_1
 70
0
 62
7
  6
CENTER
370
-3
390
F
  0
LAYER
  5
1FB
100
AcDbSymbolTableRecord
100
AcDbLayerTableRecord
  2
DEFAULT_2
 70
0
 62
8
  6
HIDDEN
370
-3
390
F
  0
LAYER
  5
1FC
100
AcDbSymbolTableRecord
100
AcDbLayerTableRecord
  2
DEFAULT_3
 70
0
 62
7
  6
PHANTOM
370
-3
390
F
  0
LAYER
  5
1FD
100
AcDbSymbolTableRecord
100
AcDbLayerTableRecord
  2
ALL_FEATURES
 70
0
 62
7
  6
CONTINUOUS
370
-3
390
F
  0
LAYER
  5
1FE
100
AcDbSymbolTableRecord
100
AcDbLayerTableRecord
  2
AXES_FEATURES
 70
0
 62
7
  6
CONTINUOUS
370
-3
390
F
  0
LAYER
  5
1FF
100
AcDbSymbolTableRecord
100
AcDbLayerTableRecord
  2
DEFAULT_COORDINATE_SYSTEM
 70
0
 62
7
  6
CONTINUOUS
370
-3
390
F
  0
LAYER
  5
200
100
AcDbSymbolTableRecord
100
AcDbLayerTableRecord
  2
DEFAULT_DATUM_AXES
 70
0
 62
7
  6
CONTINUOUS
370
-3
390
F
  0
LAYER
  5
201
100
AcDbSymbolTableRecord
100
AcDbLayerTableRecord
  2
DEFAULT_DATUM_PLANES
 70
0
 62
7
  6
CONTINUOUS
370
-3
390
F
  0
LAYER
  5
202
100
AcDbSymbolTableRecord
100
AcDbLayerTableRecord
  2
DIMENSIONS
 70
0
 62
7
  6
CONTINUOUS
370
-3
390
F
  0
ENDTAB
  0
TABLE
  2
STYLE
  5
3
100
AcDbSymbolTable
 70
1
  0
STYLE
  5
11
100
AcDbSymbolTableRecord
100
AcDbTextStyleTableRecord
  2
STANDARD
 70
0
 40
0.0
 41
0.8
 50
0.0
 71
0
 42
0.2
  3
txt
  4

  0
STYLE
  5
203
100
AcDbSymbolTableRecord
100
AcDbTextStyleTableRecord
  2
TEXTSTYLE_1
 70
0
 40
0.0
 41
0.8
 50
0.0
 71
0
 42
0.2
  3
gdt
  4

  0
ENDTAB
  0
TABLE
  2
VIEW
  5
6
100
AcDbSymbolTable
 70
0
  0
ENDTAB
  0
TABLE
  2
UCS
  5
7
100
AcDbSymbolTable
 70
0
  0
ENDTAB
  0
TABLE
  2
APPID
  5
9
100
AcDbSymbolTable
 70
1
  0
APPID
  5
204
100
AcDbSymbolTableRecord
100
AcDbRegAppTableRecord
  2
ACAD
 70
0
  0
ENDTAB
  0
TABLE
  2
BLOCK_RECORD
  5
1
100
AcDbSymbolTable
 70
0
  0
BLOCK_RECORD
  5
205
100
AcDbSymbolTableRecord
100
AcDbBlockTableRecord
  2
*Model_Space
  0
BLOCK_RECORD
  5
206
100
AcDbSymbolTableRecord
100
AcDbBlockTableRecord
  2
*Paper_Space
  0
BLOCK_RECORD
  5
207
100
AcDbSymbolTableRecord
100
AcDbBlockTableRecord
  2
_FILLED
  0
ENDTAB
  0
TABLE
  2
DIMSTYLE
  5
A
100
AcDbSymbolTable
 70
1
100
AcDbDimStyleTable
 71
0
  0
DIMSTYLE
105
208
100
AcDbSymbolTableRecord
100
AcDbDimStyleTableRecord
  2
STANDARD
 70
0
  3

  4

 40
1.0
 41
0.1
 42
0.0625
 43
0.38
 44
0.125
 45
0.0
 46
0.0
 47
0.001
 48
0.001
140
0.08
141
0.09
142
0.0
143
25.4
144
1.0
145
0.0
146
1.0
147
0.09
 71
1.0
 72
0.0
 73
1
 74
1
 75
0
 76
0
 77
0
 78
4
 79
1
170
1
171
2
172
0
173
0
174
0
175
0
176
0
177
0
178
0
270
2
179
3
271
3
272
3
273
2
274
2
275
0
280
0
281
0
282
0
283
1
284
4
285
0
286
0
287
3
288
0
340
11
278
46
341
207
342
207
343
207
344
207
  0
ENDTAB
  0
ENDSEC
  0
SECTION
  2
BLOCKS
  0
BLOCK
  5
20
100
AcDbEntity
  8
0
100
AcDbBlockBegin
  2
*Model_Space
 70
0
 10
0.0
 20
0.0
 30
0.0
  3
*Model_Space
  1

  0
ENDBLK
  5
21
100
AcDbEntity
  8
0
100
AcDbBlockEnd
  0
BLOCK
  5
1C
100
AcDbEntity
  8
0
100
AcDbBlockBegin
  2
*Paper_Space
 70
0
 10
0.0
 20
0.0
 30
0.0
  3
*Paper_Space
  1

  0
ENDBLK
  5
1D
100
AcDbEntity
  8
0
100
AcDbBlockEnd
  0
BLOCK
  5
209
100
AcDbEntity
  8
0
100
AcDbBlockBegin
  2
_FILLED
 70
64
 10
0.0
 20
0.0
  3
_FILLED
  1

  0
SOLID
  5
20A
100
AcDbEntity
  8
0
  6
BYBLOCK
 62
0
100
AcDbTrace
 10
0.0
 20
0.0
 11
-1.0
 21
0.2
 12
-1.0
 22
-0.2
 13
-1.0
 23
-0.2
  0
ENDBLK
  5
20B
100
AcDbEntity
  8
0
  6
BYBLOCK
 62
0
100
AcDbBlockEnd
  0
ENDSEC
  0
SECTION
  2
ENTITIES
  0
LINE
  5
20C
100
AcDbEntity
  8
0
100
AcDbLine
 62
7
  6
CONTINUOUS
 10
9.0450030103
 20
4.5660580246
 11
11.3055838684
 21
4.5660580246
  0
LINE
  5
20D
100
AcDbEntity
  8
0
100
AcDbLine
 62
9
  6
CONTINUOUS
 10
9.0309021772
 20
4.6002413425
 11
11.3196847016
 21
4.6002413425
  0
LINE
  5
20E
100
AcDbEntity
  8
0
100
AcDbLine
 62
9
  6
CONTINUOUS
 10
9.071700861
 20
4.6425292899
 11
11.2788860178
 21
4.6425292899
  0
LINE
  5
20F
100
AcDbEntity
  8
0
100
AcDbLine
 62
9
  6
CONTINUOUS
 10
11.1540817519
 20
4.785357469
 11
9.1965051268
 21
4.785357469
  0
LINE
  5
210
100
AcDbEntity
  8
0
100
AcDbLine
 62
9
  6
CONTINUOUS
 10
11.1508238948
 20
4.8052103423
 11
9.199762984
 21
4.8052103423
  0
LINE
  5
211
100
AcDbEntity
  8
0
100
AcDbLine
 62
9
  6
CONTINUOUS
 10
9.2031495373
 20
4.8330089966
 11
11.1474373415
 21
4.8330089966
  0
LINE
  5
212
100
AcDbEntity
  8
0
100
AcDbLine
 62
9
  6
CONTINUOUS
 10
9.2124510002
 20
4.8426580246
 11
11.1381358785
 21
4.8426580246
  0
LINE
  5
213
100
AcDbEntity
  8
0
100
AcDbLine
 62
7
  6
CONTINUOUS
 10
11.1159358785
 20
4.8500580246
 11
9.2346510002
 21
4.8500580246
  0
LINE
  5
214
100
AcDbEntity
  8
0
100
AcDbLine
 62
9
  6
CONTINUOUS
 10
11.1012624653
 20
4.8527533464
 11
9.2493244135
 21
4.8527533464
  0
LINE
  5
215
100
AcDbEntity
  8
0
100
AcDbLine
 62
9
  6
CONTINUOUS
 10
11.0737625495
 20
4.8691455331
 11
9.2768243293
 21
4.8691455331
  0
LINE
  5
216
100
AcDbEntity
  8
0
100
AcDbLine
 62
9
  6
CONTINUOUS
 10
11.0358452386
 20
4.9135162579
 11
9.3147416401
 21
4.9135162579
  0
LINE
  5
217
100
AcDbEntity
  8
0
100
AcDbLine
 62
7
  6
CONTINUOUS
 10
9.3537934394
 20
4.9400580246
 11
10.9967934394
 21
4.9400580246
  0
LINE
  5
218
100
AcDbEntity
  8
0
100
AcDbLine
 62
9
  6
CONTINUOUS
 10
10.9802934394
 20
4.9661632612
 11
9.3702934394
 21
4.9661632612
  0
LINE
  5
219
100
AcDbEntity
  8
0
100
AcDbLine
 62
9
  6
CONTINUOUS
 10
10.9436771603
 20
5.0776395772
 11
9.4069097185
 21
5.0776395772
  0
LINE
  5
21A
100
AcDbEntity
  8
0
100
AcDbLine
 62
9
  6
CONTINUOUS
 10
10.8654362965
 20
5.5111461756
 11
9.4851505822
 21
5.5111461756
  0
LINE
  5
21B
100
AcDbEntity
  8
0
100
AcDbLine
 62
7
  6
CONTINUOUS
 10
11.0103333309
 20
5.8583083821
 11
10.9264075548
 21
5.8583083821
  0
LINE
  5
21C
100
AcDbEntity
  8
0
100
AcDbLine
 62
7
  6
CONTINUOUS
 10
11.4813333309
 20
6.0833083821
 11
11.4603333309
 21
6.0833083821
  0
LINE
  5
21D
100
AcDbEntity
  8
0
100
AcDbLine
 62
7
  6
CONTINUOUS
 10
12.7413333309
 20
6.0933083821
 11
12.7613333309
 21
6.0933083821
  0
LINE
  5
21E
100
AcDbEntity
  8
0
100
AcDbLine
 62
7
  6
CONTINUOUS
 10
12.7413333309
 20
6.5733083821
 11
12.7613333309
 21
6.5733083821
  0
LINE
  5
21F
100
AcDbEntity
  8
0
100
AcDbLine
 62
7
  6
CONTINUOUS
 10
11.4813333309
 20
6.5833083821
 11
11.4603333309
 21
6.5833083821
  0
LINE
  5
220
100
AcDbEntity
  8
0
100
AcDbLine
 62
9
  6
CONTINUOUS
 10
9.8512210333
 20
11.6074635365
 11
9.8512895131
 21
11.6075434564
  0
LINE
  5
221
100
AcDbEntity
  8
0
100
AcDbLine
 62
7
  6
CONTINUOUS
 10
12.2753333309
 20
6.7509730203
 11
12.6103333309
 21
6.7509730203
  0
LINE
  5
222
100
AcDbEntity
  8
0
100
AcDbLine
 62
7
  6
CONTINUOUS
 10
12.6103333309
 20
6.7529436404
 11
12.2753333309
 21
6.7529436404
  0
LINE
  5
223
100
AcDbEntity
  8
0
100
AcDbLine
 62
9
  6
CONTINUOUS
 10
12.6078333309
 20
6.8029436404
 11
12.2778333309
 21
6.8029436404
  0
LINE
  5
224
100
AcDbEntity
  8
0
100
AcDbLine
 62
7
  6
CONTINUOUS
 10
11.0103333309
 20
6.8083083821
 11
10.9264075545
 21
6.8083083821
  0
LINE
  5
225
100
AcDbEntity
  8
0
100
AcDbLine
 62
7
  6
CONTINUOUS
 10
12.2305311308
 20
6.8329436404
 11
12.655135531
 21
6.8329436404
  0
LINE
  5
226
100
AcDbEntity
  8
0
100
AcDbLine
 62
9
  6
CONTINUOUS
 10
12.2010311658
 20
6.8683981859
 11
12.684635496
 21
6.8683981859
  0
LINE
  5
227
100
AcDbEntity
  8
0
100
AcDbLine
 62
9
  6
CONTINUOUS
 10
9.8783459756
 20
11.2719918537
 11
9.87841074
 21
11.2720807191
  0
LINE
  5
228
100
AcDbEntity
  8
0
100
AcDbLine
 62
9
  6
CONTINUOUS
 10
12.1821157008
 20
7.0859519682
 11
12.703550961
 21
7.0859519682
  0
LINE
  5
229
100
AcDbEntity
  8
0
100
AcDbLine
 62
7
  6
CONTINUOUS
 10
10.8752933669
 20
7.1200582915
 11
9.4752935119
 21
7.1200582915
  0
LINE
  5
22A
100
AcDbEntity
  8
0
100
AcDbLine
 62
9
  6
CONTINUOUS
 10
9.4407986053
 20
7.1400580246
 11
10.9097882735
 21
7.1400580246
  0
LINE
  5
22B
100
AcDbEntity
  8
0
100
AcDbLine
 62
9
  6
CONTINUOUS
 10
12.6864216575
 20
7.1435926916
 11
12.1992450044
 21
7.1435926916
  0
LINE
  5
22C
100
AcDbEntity
  8
0
100
AcDbLine
 62
9
  6
CONTINUOUS
 10
9.4302934394
 20
7.1742268151
 11
10.9202934394
 21
7.1742268151
  0
LINE
  5
22D
100
AcDbEntity
  8
0
100
AcDbLine
 62
9
  6
CONTINUOUS
 10
12.666323523
 20
7.1879289678
 11
12.2193431388
 21
7.1879289678
  0
LINE
  5
22E
100
AcDbEntity
  8
0
100
AcDbLine
 62
7
  6
CONTINUOUS
 10
9.4652934394
 20
7.2400580246
 11
10.8852934394
 21
7.2400580246
  0
LINE
  5
22F
100
AcDbEntity
  8
0
100
AcDbLine
 62
9
  6
CONTINUOUS
 10
10.4863335606
 20
11.4698712293
 11
10.4863671173
 21
11.4699116272
  0
LINE
  5
230
100
AcDbEntity
  8
0
100
AcDbLine
 62
7
  6
CONTINUOUS
 10
10.489595456
 20
11.4735508293
 11
10.4863602023
 21
11.4699032881
  0
LINE
  5
231
100
AcDbEntity
  8
0
100
AcDbLine
 62
7
  6
CONTINUOUS
 10
10.4896489926
 20
11.4736071532
 11
10.4931978353
 21
11.4774522642
  0
LINE
  5
232
100
AcDbEntity
  8
0
100
AcDbLine
 62
9
  6
CONTINUOUS
 10
10.4895954562
 20
11.4735508291
 11
10.4896446419
 21
11.4736025783
  0
LINE
  5
233
100
AcDbEntity
  8
0
100
AcDbLine
 62
7
  6
CONTINUOUS
 10
9.3702934394
 20
4.9400580246
 11
9.3702934394
 21
4.9661632612
  0
LINE
  5
234
100
AcDbEntity
  8
0
100
AcDbLine
 62
7
  6
CONTINUOUS
 10
9.830429035
 20
11.5651881494
 11
9.8288660591
 21
11.5479013851
  0
LINE
  5
235
100
AcDbEntity
  8
0
100
AcDbLine
 62
7
  6
CONTINUOUS
 10
9.8307598989
 20
11.5669277169
 11
9.8304997248
 21
11.5655739864
  0
LINE
  5
236
100
AcDbEntity
  8
0
100
AcDbLine
 62
9
  6
CONTINUOUS
 10
10.5492590481
 20
7.6518639868
 11
9.8013278307
 21
7.6518639868
  0
LINE
  5
237
100
AcDbEntity
  8
0
100
AcDbLine
 62
9
  6
CONTINUOUS
 10
10.5571527711
 20
7.6975481416
 11
9.7934341077
 21
7.6975481416
  0
LINE
  5
238
100
AcDbEntity
  8
0
100
AcDbLine
 62
9
  6
CONTINUOUS
 10
9.7871598027
 20
7.719398209
 11
10.5634270761
 21
7.719398209
  0
LINE
  5
239
100
AcDbEntity
  8
0
100
AcDbLine
 62
9
  6
CONTINUOUS
 10
9.7955693822
 20
7.7467288307
 11
10.5550174966
 21
7.7467288307
  0
LINE
  5
23A
100
AcDbEntity
  8
0
100
AcDbLine
 62
9
  6
CONTINUOUS
 10
9.8242099731
 20
7.7713120952
 11
10.5263769057
 21
7.7713120952
  0
LINE
  5
23B
100
AcDbEntity
  8
0
100
AcDbLine
 62
9
  6
CONTINUOUS
 10
9.8393756974
 20
7.776421661
 11
10.5112111814
 21
7.776421661
  0
LINE
  5
23C
100
AcDbEntity
  8
0
100
AcDbLine
 62
7
  6
CONTINUOUS
 10
9.8732934394
 20
7.7800580246
 11
10.4772934394
 21
7.7800580246
  0
LINE
  5
23D
100
AcDbEntity
  8
0
100
AcDbLine
 62
7
  6
CONTINUOUS
 10
9.9252934394
 20
13.7193586841
 11
9.9252934394
 21
11.6560545733
  0
LINE
  5
23E
100
AcDbEntity
  8
0
100
AcDbLine
 62
7
  6
CONTINUOUS
 10
9.9252934394
 20
7.7800580246
 11
9.9252934394
 21
11.1319201672
  0
LINE
  5
23F
100
AcDbEntity
  8
0
100
AcDbLine
 62
7
  6
CONTINUOUS
 10
9.8913817628
 20
11.3122824307
 11
9.8918660487
 21
11.3355342407
  0
LINE
  5
240
100
AcDbEntity
  8
0
100
AcDbLine
 62
7
  6
CONTINUOUS
 10
9.8616885029
 20
11.2344288603
 11
9.8602934241
 21
11.2198555213
  0
LINE
  5
241
100
AcDbEntity
  8
0
100
AcDbLine
 62
9
  6
CONTINUOUS
 10
9.8865008934
 20
11.4192873523
 11
9.8867769688
 21
11.4149694807
  0
LINE
  5
242
100
AcDbEntity
  8
0
100
AcDbLine
 62
7
  6
CONTINUOUS
 10
9.8918660506
 20
11.3355342416
 11
9.8867769706
 21
11.4149694809
  0
LINE
  5
243
100
AcDbEntity
  8
0
100
AcDbLine
 62
9
  6
CONTINUOUS
 10
10.4638065732
 20
11.4149434781
 11
10.4638084842
 21
11.4149583512
  0
LINE
  5
244
100
AcDbEntity
  8
0
100
AcDbLine
 62
9
  6
CONTINUOUS
 10
9.8867769688
 20
11.4149694807
 11
9.8867803055
 21
11.4149434781
  0
LINE
  5
245
100
AcDbEntity
  8
0
100
AcDbLine
 62
7
  6
CONTINUOUS
 10
10.45872083
 20
11.3355342407
 11
10.4592054213
 21
11.3122749988
  0
LINE
  5
246
100
AcDbEntity
  8
0
100
AcDbLine
 62
7
  6
CONTINUOUS
 10
10.4252934394
 20
13.7193586841
 11
10.4252934394
 21
11.6560517485
  0
LINE
  5
247
100
AcDbEntity
  8
0
100
AcDbLine
 62
7
  6
CONTINUOUS
 10
10.4252934394
 20
7.7800580246
 11
10.4252934394
 21
11.1319282107
  0
LINE
  5
248
100
AcDbEntity
  8
0
100
AcDbLine
 62
9
  6
CONTINUOUS
 10
10.4638084842
 20
11.4149583512
 11
10.4640859854
 21
11.4192873523
  0
LINE
  5
249
100
AcDbEntity
  8
0
100
AcDbLine
 62
7
  6
CONTINUOUS
 10
10.4638084824
 20
11.4149583515
 11
10.4587208281
 21
11.3355342416
  0
LINE
  5
24A
100
AcDbEntity
  8
0
100
AcDbLine
 62
9
  6
CONTINUOUS
 10
12.0830731095
 20
8.8298109186
 11
12.8025935524
 21
8.8298109186
  0
LINE
  5
24B
100
AcDbEntity
  8
0
100
AcDbLine
 62
9
  6
CONTINUOUS
 10
12.0558813339
 20
8.9066175481
 11
12.8297853279
 21
8.9066175481
  0
LINE
  5
24C
100
AcDbEntity
  8
0
100
AcDbLine
 62
9
  6
CONTINUOUS
 10
12.0503333309
 20
8.9246256542
 11
12.8353333309
 21
8.9246256542
  0
LINE
  5
24D
100
AcDbEntity
  8
0
100
AcDbLine
 62
9
  6
CONTINUOUS
 10
12.0503333309
 20
8.9526094566
 11
12.8353333309
 21
8.9526094566
  0
LINE
  5
24E
100
AcDbEntity
  8
0
100
AcDbLine
 62
7
  6
CONTINUOUS
 10
10.4902934546
 20
11.2198555213
 11
10.4889042323
 21
11.2343977976
  0
LINE
  5
24F
100
AcDbEntity
  8
0
100
AcDbLine
 62
7
  6
CONTINUOUS
 10
10.5217208196
 20
11.5479013851
 11
10.5201641546
 21
11.565152822
  0
LINE
  5
250
100
AcDbEntity
  8
0
100
AcDbLine
 62
7
  6
CONTINUOUS
 10
10.9802934394
 20
4.9400580246
 11
10.9802934394
 21
4.9661632612
  0
LINE
  5
251
100
AcDbEntity
  8
0
100
AcDbLine
 62
9
  6
CONTINUOUS
 10
12.0781011917
 20
8.9973948558
 11
12.8075654702
 21
8.9973948558
  0
LINE
  5
252
100
AcDbEntity
  8
0
100
AcDbLine
 62
7
  6
CONTINUOUS
 10
10.5200871994
 20
11.5655737414
 11
10.5198277229
 21
11.5669239624
  0
LINE
  5
253
100
AcDbEntity
  8
0
100
AcDbLine
 62
7
  6
CONTINUOUS
 10
11.0103333309
 20
5.8583083821
 11
11.0103333309
 21
6.8083083821
  0
LINE
  5
254
100
AcDbEntity
  8
0
100
AcDbLine
 62
9
  6
CONTINUOUS
 10
11.3703333309
 20
5.8228030886
 11
11.3703333309
 21
6.8438136757
  0
LINE
  5
255
100
AcDbEntity
  8
0
100
AcDbLine
 62
9
  6
CONTINUOUS
 10
11.4312193705
 20
6.8659191818
 11
11.4312193705
 21
5.8006975824
  0
LINE
  5
256
100
AcDbEntity
  8
0
100
AcDbLine
 62
7
  6
CONTINUOUS
 10
11.4603333309
 20
6.8480991753
 11
11.4603333309
 21
5.818517589
  0
LINE
  5
257
100
AcDbEntity
  8
0
100
AcDbLine
 62
7
  6
CONTINUOUS
 10
11.4813333309
 20
5.8083083821
 11
11.4813333309
 21
6.8583083821
  0
LINE
  5
258
100
AcDbEntity
  8
0
100
AcDbLine
 62
9
  6
CONTINUOUS
 10
11.5532708309
 20
5.7976471603
 11
11.5532708309
 21
6.8689696039
  0
LINE
  5
259
100
AcDbEntity
  8
0
100
AcDbLine
 62
9
  6
CONTINUOUS
 10
11.6150476166
 20
5.8210527464
 11
11.6150476166
 21
6.8455640178
  0
LINE
  5
25A
100
AcDbEntity
  8
0
100
AcDbLine
 62
7
  6
CONTINUOUS
 10
9.8573890434
 20
11.4774522642
 11
9.8609400822
 21
11.4736048409
  0
LINE
  5
25B
100
AcDbEntity
  8
0
100
AcDbLine
 62
7
  6
CONTINUOUS
 10
9.8642266157
 20
11.4699033611
 11
9.8609816692
 21
11.4735610845
  0
LINE
  5
25C
100
AcDbEntity
  8
0
100
AcDbLine
 62
9
  6
CONTINUOUS
 10
11.8809557017
 20
5.8755249764
 11
11.8809557017
 21
6.7910917878
  0
LINE
  5
25D
100
AcDbEntity
  8
0
100
AcDbLine
 62
9
  6
CONTINUOUS
 10
11.9130392382
 20
5.8885749452
 11
11.9130392382
 21
6.7780418191
  0
LINE
  5
25E
100
AcDbEntity
  8
0
100
AcDbLine
 62
9
  6
CONTINUOUS
 10
11.9486190452
 20
5.8973357653
 11
11.9486190452
 21
6.769280999
  0
LINE
  5
25F
100
AcDbEntity
  8
0
100
AcDbLine
 62
7
  6
CONTINUOUS
 10
11.9863333309
 20
5.9372704057
 11
11.9863333309
 21
6.7293463585
  0
LINE
  5
260
100
AcDbEntity
  8
0
100
AcDbLine
 62
9
  6
CONTINUOUS
 10
11.9974761688
 20
5.9590255611
 11
11.9974761688
 21
6.7075912031
  0
LINE
  5
261
100
AcDbEntity
  8
0
100
AcDbLine
 62
9
  6
CONTINUOUS
 10
9.8609444328
 20
11.473600266
 11
9.860981669
 21
11.4735610842
  0
LINE
  5
262
100
AcDbEntity
  8
0
100
AcDbLine
 62
9
  6
CONTINUOUS
 10
10.4721771769
 20
11.2720792972
 11
10.472227438
 21
11.2720103568
  0
LINE
  5
263
100
AcDbEntity
  8
0
100
AcDbLine
 62
7
  6
CONTINUOUS
 10
12.2193431388
 20
7.1879289678
 11
12.0830731095
 21
8.8298109187
  0
LINE
  5
264
100
AcDbEntity
  8
0
100
AcDbLine
 62
7
  6
CONTINUOUS
 10
12.0503333309
 20
8.9526094566
 11
12.0503333309
 21
8.9246256542
  0
LINE
  5
265
100
AcDbEntity
  8
0
100
AcDbLine
 62
9
  6
CONTINUOUS
 10
12.1343880991
 20
6.667633387
 11
12.1343880991
 21
5.9989833772
  0
LINE
  5
266
100
AcDbEntity
  8
0
100
AcDbLine
 62
9
  6
CONTINUOUS
 10
12.1610931382
 20
6.6778738509
 11
12.1610931382
 21
5.9887429134
  0
LINE
  5
267
100
AcDbEntity
  8
0
100
AcDbLine
 62
9
  6
CONTINUOUS
 10
12.2094409166
 20
6.7180524281
 11
12.2094409166
 21
5.9485643361
  0
LINE
  5
268
100
AcDbEntity
  8
0
100
AcDbLine
 62
7
  6
CONTINUOUS
 10
12.2753333309
 20
6.7529436404
 11
12.2753333309
 21
6.7509730203
  0
LINE
  5
269
100
AcDbEntity
  8
0
100
AcDbLine
 62
7
  6
CONTINUOUS
 10
12.2778333309
 20
6.8029436404
 11
12.2778333309
 21
6.7529436404
  0
LINE
  5
26A
100
AcDbEntity
  8
0
100
AcDbLine
 62
9
  6
CONTINUOUS
 10
10.4992984344
 20
11.6075422108
 11
10.4993658454
 21
11.6074635365
  0
LINE
  5
26B
100
AcDbEntity
  8
0
100
AcDbLine
 62
7
  6
CONTINUOUS
 10
12.6078333309
 20
6.8029436404
 11
12.6078333309
 21
6.7529436404
  0
LINE
  5
26C
100
AcDbEntity
  8
0
100
AcDbLine
 62
7
  6
CONTINUOUS
 10
12.6103333309
 20
6.7529436404
 11
12.6103333309
 21
6.7509730203
  0
LINE
  5
26D
100
AcDbEntity
  8
0
100
AcDbLine
 62
9
  6
CONTINUOUS
 10
12.6206145092
 20
6.7467014791
 11
12.6206145092
 21
5.9199152851
  0
LINE
  5
26E
100
AcDbEntity
  8
0
100
AcDbLine
 62
7
  6
CONTINUOUS
 10
12.7413333309
 20
6.5733083821
 11
12.7413333309
 21
6.0933083821
  0
LINE
  5
26F
100
AcDbEntity
  8
0
100
AcDbLine
 62
9
  6
CONTINUOUS
 10
12.7613333309
 20
6.0933083821
 11
12.7613333309
 21
6.5733083821
  0
LINE
  5
270
100
AcDbEntity
  8
0
100
AcDbLine
 62
7
  6
CONTINUOUS
 10
12.8213333309
 20
6.1533083821
 11
12.8213333309
 21
6.5133083821
  0
LINE
  5
271
100
AcDbEntity
  8
0
100
AcDbLine
 62
7
  6
CONTINUOUS
 10
12.8353333309
 20
8.9526094566
 11
12.8353333309
 21
8.9246256542
  0
LINE
  5
272
100
AcDbEntity
  8
0
100
AcDbLine
 62
7
  6
CONTINUOUS
 10
12.8503333309
 20
6.3283083821
 11
12.8503333309
 21
6.3383083821
  0
LINE
  5
273
100
AcDbEntity
  8
0
100
AcDbLine
 62
7
  6
CONTINUOUS
 10
12.666323523
 20
7.1879289678
 11
12.8025935524
 21
8.8298109187
  0
ARC
  5
274
100
AcDbEntity
  8
0
100
AcDbCircle
 62
7
  6
CONTINUOUS
 10
8.6803594015
 20
6.9761644061
 40
4.22
100
AcDbArc
 50
348.894281162
 51
351.169006497
  0
ARC
  5
275
100
AcDbEntity
  8
0
100
AcDbCircle
 62
7
  6
CONTINUOUS
 10
8.6803594015
 20
5.6904523582
 40
4.22
100
AcDbArc
 50
8.830993503
 51
11.105718838
  0
ARC
  5
276
100
AcDbEntity
  8
0
100
AcDbCircle
 62
7
  6
CONTINUOUS
 10
9.0834885009
 20
1.498951887
 40
3.914
100
AcDbArc
 50
58.9672911176
 51
59.4359471186
  0
ARC
  5
277
100
AcDbEntity
  8
0
100
AcDbCircle
 62
7
  6
CONTINUOUS
 10
6.6275578015
 20
6.9041801703
 40
3.33
100
AcDbArc
 50
317.2208356048
 51
320.4847857946
  0
ARC
  5
278
100
AcDbEntity
  8
0
100
AcDbCircle
 62
7
  6
CONTINUOUS
 10
7.9802934394
 20
6.3333083821
 40
3.0
100
AcDbArc
 50
344.0943492185
 51
350.4059317731
  0
ARC
  5
279
100
AcDbEntity
  8
0
100
AcDbCircle
 62
7
  6
CONTINUOUS
 10
7.9802934394
 20
6.3333083821
 40
3.0
100
AcDbArc
 50
9.5940682269
 51
15.2036093746
  0
ARC
  5
27A
100
AcDbEntity
  8
0
100
AcDbCircle
 62
7
  6
CONTINUOUS
 10
8.0367934394
 20
5.6001652483
 40
1.41
100
AcDbArc
 50
314.8329096352
 51
317.2208356048
  0
ARC
  5
27B
100
AcDbEntity
  8
0
100
AcDbCircle
 62
7
  6
CONTINUOUS
 10
9.0042934394
 20
5.3741191412
 40
0.5
100
AcDbArc
 50
323.6327207052
 51
15.9056507815
  0
ARC
  5
27C
100
AcDbEntity
  8
0
100
AcDbCircle
 62
7
  6
CONTINUOUS
 10
9.5582934394
 20
4.9661632612
 40
0.188
100
AcDbArc
 50
143.6327207052
 51
180.0
  0
ARC
  5
27D
100
AcDbEntity
  8
0
100
AcDbCircle
 62
7
  6
CONTINUOUS
 10
9.2310592132
 20
4.9466410436
 40
0.09
100
AcDbArc
 50
300.5640528814
 51
338.4043985281
  0
ARC
  5
27E
100
AcDbEntity
  8
0
100
AcDbCircle
 62
7
  6
CONTINUOUS
 10
9.5100806376
 20
7.1800580246
 40
0.08
100
AcDbArc
 50
184.180003138
 51
210.0
  0
ARC
  5
27F
100
AcDbEntity
  8
0
100
AcDbCircle
 62
7
  6
CONTINUOUS
 10
9.5001072378
 20
7.1793291235
 40
0.07
100
AcDbArc
 50
119.8241698133
 51
184.180003138
  0
ARC
  5
280
100
AcDbEntity
  8
0
100
AcDbCircle
 62
7
  6
CONTINUOUS
 10
9.3537934394
 20
4.8980580246
 40
0.042
100
AcDbArc
 50
90.0
 51
158.4043985281
  0
ARC
  5
281
100
AcDbEntity
  8
0
100
AcDbCircle
 62
7
  6
CONTINUOUS
 10
9.2376510002
 20
4.8090580246
 40
0.042
100
AcDbArc
 50
126.8698976458
 51
145.2315554512
  0
ARC
  5
282
100
AcDbEntity
  8
0
100
AcDbCircle
 62
7
  6
CONTINUOUS
 10
9.4754396214
 20
7.1600580246
 40
0.04
100
AcDbArc
 50
210.0
 51
269.7907130594
  0
ARC
  5
283
100
AcDbEntity
  8
0
100
AcDbCircle
 62
7
  6
CONTINUOUS
 10
9.2346510002
 20
4.8130580246
 40
0.037
100
AcDbArc
 50
90.0
 51
126.8698976458
  0
ARC
  5
284
100
AcDbEntity
  8
0
100
AcDbCircle
 62
7
  6
CONTINUOUS
 10
9.2277934394
 20
4.8159011595
 40
0.03
100
AcDbArc
 50
145.2315554512
 51
200.8768537569
  0
ARC
  5
285
100
AcDbEntity
  8
0
100
AcDbCircle
 62
7
  6
CONTINUOUS
 10
9.0450030103
 20
4.5860580246
 40
0.02
100
AcDbArc
 50
134.8329096351
 51
270.0
  0
ARC
  5
286
100
AcDbEntity
  8
0
100
AcDbCircle
 62
7
  6
CONTINUOUS
 10
9.1810760138
 20
4.7980831309
 40
0.02
100
AcDbArc
 50
320.4847857942
 51
20.8768537572
  0
ARC
  5
287
100
AcDbEntity
  8
0
100
AcDbCircle
 62
7
  6
CONTINUOUS
 10
9.2390138669
 20
4.8698908091
 40
0.02
100
AcDbArc
 50
274.139305123
 51
301.0327088824
  0
ARC
  5
288
100
AcDbEntity
  8
0
100
AcDbCircle
 62
9
  6
CONTINUOUS
 10
10.1748669449
 20
11.8996218181
 40
0.8152435204
100
AcDbArc
 50
265.8896169217
 51
269.6658217396
  0
ARC
  5
289
100
AcDbEntity
  8
0
100
AcDbCircle
 62
9
  6
CONTINUOUS
 10
10.1722326295
 20
11.8608227488
 40
0.7763554419
100
AcDbArc
 50
265.2226078042
 51
265.8782878906
  0
ARC
  5
28A
100
AcDbEntity
  8
0
100
AcDbCircle
 62
9
  6
CONTINUOUS
 10
10.166243003
 20
11.7981017701
 40
0.7133539137
100
AcDbArc
 50
260.9065372911
 51
265.2824552689
  0
ARC
  5
28B
100
AcDbEntity
  8
0
100
AcDbCircle
 62
9
  6
CONTINUOUS
 10
10.1542062962
 20
11.7175935507
 40
0.6319557441
100
AcDbArc
 50
260.4832985343
 51
260.8305129083
  0
ARC
  5
28C
100
AcDbEntity
  8
0
100
AcDbCircle
 62
7
  6
CONTINUOUS
 10
9.216526875
 20
7.7860572888
 40
0.6
100
AcDbArc
 50
294.4948179499
 51
347.0761704798
  0
ARC
  5
28D
100
AcDbEntity
  8
0
100
AcDbCircle
 62
7
  6
CONTINUOUS
 10
9.8732934394
 20
7.6200580246
 40
0.16
100
AcDbArc
 50
90.0
 51
102.2387557679
  0
ARC
  5
28E
100
AcDbEntity
  8
0
100
AcDbCircle
 62
7
  6
CONTINUOUS
 10
9.9522920786
 20
11.5621586151
 40
0.1272262512
100
AcDbArc
 50
218.5914287046
 51
221.8023178762
  0
ARC
  5
28F
100
AcDbEntity
  8
0
100
AcDbCircle
 62
9
  6
CONTINUOUS
 10
9.9370315231
 20
11.5052280158
 40
0.1271138673
100
AcDbArc
 50
127.4920567343
 51
129.9193859615
  0
ARC
  5
290
100
AcDbEntity
  8
0
100
AcDbCircle
 62
9
  6
CONTINUOUS
 10
9.9362969286
 20
11.5072581399
 40
0.1256734518
100
AcDbArc
 50
127.4804809805
 51
130.3186373386
  0
ARC
  5
291
100
AcDbEntity
  8
0
100
AcDbCircle
 62
7
  6
CONTINUOUS
 10
9.9468422086
 20
11.5579799085
 40
0.1203601103
100
AcDbArc
 50
211.3041122565
 51
218.6548799793
  0
ARC
  5
292
100
AcDbEntity
  8
0
100
AcDbCircle
 62
7
  6
CONTINUOUS
 10
9.7676365091
 20
11.3996059415
 40
0.1201269506
100
AcDbArc
 50
7.3354178517
 51
9.5235584975
  0
ARC
  5
293
100
AcDbEntity
  8
0
100
AcDbCircle
 62
7
  6
CONTINUOUS
 10
9.939183302
 20
11.5533766005
 40
0.1114243963
100
AcDbArc
 50
205.689505863
 51
211.3278958456
  0
ARC
  5
294
100
AcDbEntity
  8
0
100
AcDbCircle
 62
7
  6
CONTINUOUS
 10
9.9351521821
 20
11.5514067347
 40
0.1069378052
100
AcDbArc
 50
204.0814638472
 51
205.674669553
  0
ARC
  5
295
100
AcDbEntity
  8
0
100
AcDbCircle
 62
7
  6
CONTINUOUS
 10
9.9312872523
 20
11.5497246843
 40
0.1027229275
100
AcDbArc
 50
200.0169467049
 51
204.1045398584
  0
ARC
  5
296
100
AcDbEntity
  8
0
100
AcDbCircle
 62
7
  6
CONTINUOUS
 10
9.9432374124
 20
11.2216940545
 40
0.0832503715
100
AcDbArc
 50
201.8576078963
 51
203.2942604212
  0
ARC
  5
297
100
AcDbEntity
  8
0
100
AcDbCircle
 62
7
  6
CONTINUOUS
 10
9.8546386813
 20
7.7060580246
 40
0.072
100
AcDbArc
 50
102.2387557679
 51
115.0001697536
  0
ARC
  5
298
100
AcDbEntity
  8
0
100
AcDbCircle
 62
7
  6
CONTINUOUS
 10
9.8537934394
 20
7.7078706377
 40
0.07
100
AcDbArc
 50
115.0001697536
 51
146.2812232358
  0
ARC
  5
299
100
AcDbEntity
  8
0
100
AcDbCircle
 62
9
  6
CONTINUOUS
 10
9.902845399
 20
11.5199562146
 40
0.0621591019
100
AcDbArc
 50
212.7990382825
 51
214.7599421823
  0
ARC
  5
29A
100
AcDbEntity
  8
0
100
AcDbCircle
 62
9
  6
CONTINUOUS
 10
9.8887821943
 20
11.5506370251
 40
0.0605553573
100
AcDbArc
 50
148.1519007254
 51
149.2762276689
  0
ARC
  5
29B
100
AcDbEntity
  8
0
100
AcDbCircle
 62
7
  6
CONTINUOUS
 10
9.7428477351
 20
7.665283317
 40
0.06
100
AcDbArc
 50
347.0761704797
 51
32.530403885
  0
ARC
  5
29C
100
AcDbEntity
  8
0
100
AcDbCircle
 62
9
  6
CONTINUOUS
 10
9.9082325379
 20
11.5076849033
 40
0.0579529994
100
AcDbArc
 50
210.8749271029
 51
213.7286322933
  0
ARC
  5
29D
100
AcDbEntity
  8
0
100
AcDbCircle
 62
9
  6
CONTINUOUS
 10
9.9404649664
 20
11.1891598484
 40
0.0520970643
100
AcDbArc
 50
212.0964247363
 51
213.7103841896
  0
ARC
  5
29E
100
AcDbEntity
  8
0
100
AcDbCircle
 62
7
  6
CONTINUOUS
 10
9.8371579945
 20
7.7189729786
 40
0.05
100
AcDbArc
 50
146.2812232358
 51
179.5127159942
  0
ARC
  5
29F
100
AcDbEntity
  8
0
100
AcDbCircle
 62
7
  6
CONTINUOUS
 10
9.8271583561
 20
7.7190580246
 40
0.04
100
AcDbArc
 50
179.5127159942
 51
212.5304038849
  0
ARC
  5
2A0
100
AcDbEntity
  8
0
100
AcDbCircle
 62
7
  6
CONTINUOUS
 10
11.2670983778
 20
1.498951887
 40
3.914
100
AcDbArc
 50
120.5640528814
 51
121.0327088824
  0
ARC
  5
2A1
100
AcDbEntity
  8
0
100
AcDbCircle
 62
7
  6
CONTINUOUS
 10
11.0491279612
 20
4.4088274486
 40
1.45
100
AcDbArc
 50
77.2016188941
 51
91.5331267948
  0
ARC
  5
2A2
100
AcDbEntity
  8
0
100
AcDbCircle
 62
7
  6
CONTINUOUS
 10
11.3462934394
 20
5.3741191412
 40
0.5
100
AcDbArc
 50
164.0943492185
 51
216.3672792948
  0
ARC
  5
2A3
100
AcDbEntity
  8
0
100
AcDbCircle
 62
7
  6
CONTINUOUS
 10
11.3127378853
 20
5.569262629
 40
0.26
100
AcDbArc
 50
62.8901449367
 51
77.2016188941
  0
ARC
  5
2A4
100
AcDbEntity
  8
0
100
AcDbCircle
 62
7
  6
CONTINUOUS
 10
10.7922934394
 20
4.9661632612
 40
0.188
100
AcDbArc
 50
0.0
 51
36.3672792948
  0
ARC
  5
2A5
100
AcDbEntity
  8
0
100
AcDbCircle
 62
7
  6
CONTINUOUS
 10
11.1195276655
 20
4.9466410436
 40
0.09
100
AcDbArc
 50
201.5956014719
 51
239.4359471186
  0
ARC
  5
2A6
100
AcDbEntity
  8
0
100
AcDbCircle
 62
7
  6
CONTINUOUS
 10
10.9967934394
 20
4.8980580246
 40
0.042
100
AcDbArc
 50
21.5956014719
 51
90.0
  0
ARC
  5
2A7
100
AcDbEntity
  8
0
100
AcDbCircle
 62
7
  6
CONTINUOUS
 10
11.1129358785
 20
4.8090580246
 40
0.042
100
AcDbArc
 50
34.7684445488
 51
53.1301023542
  0
ARC
  5
2A8
100
AcDbEntity
  8
0
100
AcDbCircle
 62
7
  6
CONTINUOUS
 10
11.1159358785
 20
4.8130580246
 40
0.037
100
AcDbArc
 50
53.1301023542
 51
90.0
  0
ARC
  5
2A9
100
AcDbEntity
  8
0
100
AcDbCircle
 62
7
  6
CONTINUOUS
 10
11.1227934394
 20
4.8159011595
 40
0.03
100
AcDbArc
 50
339.1231462431
 51
34.7684445488
  0
ARC
  5
2AA
100
AcDbEntity
  8
0
100
AcDbCircle
 62
7
  6
CONTINUOUS
 10
11.3055838684
 20
4.5860580246
 40
0.02
100
AcDbArc
 50
270.0
 51
45.1670903649
  0
ARC
  5
2AB
100
AcDbEntity
  8
0
100
AcDbCircle
 62
7
  6
CONTINUOUS
 10
11.169510865
 20
4.7980831309
 40
0.02
100
AcDbArc
 50
159.1231462428
 51
219.5152142058
  0
ARC
  5
2AC
100
AcDbEntity
  8
0
100
AcDbCircle
 62
7
  6
CONTINUOUS
 10
11.1115730118
 20
4.8698908091
 40
0.02
100
AcDbArc
 50
238.9672911176
 51
265.860694877
  0
ARC
  5
2AD
100
AcDbEntity
  8
0
100
AcDbCircle
 62
7
  6
CONTINUOUS
 10
11.3127378853
 20
7.0973541353
 40
0.26
100
AcDbArc
 50
282.7983811059
 51
297.1098550633
  0
ARC
  5
2AE
100
AcDbEntity
  8
0
100
AcDbCircle
 62
7
  6
CONTINUOUS
 10
10.8405062412
 20
7.1800580246
 40
0.08
100
AcDbArc
 50
330.0
 51
355.819996862
  0
ARC
  5
2AF
100
AcDbEntity
  8
0
100
AcDbCircle
 62
7
  6
CONTINUOUS
 10
10.850479641
 20
7.1793291235
 40
0.07
100
AcDbArc
 50
355.819996862
 51
60.1758301867
  0
ARC
  5
2B0
100
AcDbEntity
  8
0
100
AcDbCircle
 62
7
  6
CONTINUOUS
 10
10.8751472573
 20
7.1600580246
 40
0.04
100
AcDbArc
 50
270.2092869406
 51
330.0
  0
ARC
  5
2B1
100
AcDbEntity
  8
0
100
AcDbCircle
 62
7
  6
CONTINUOUS
 10
11.4403333309
 20
6.8481164931
 40
0.02
100
AcDbArc
 50
0.0
 51
117.1098550633
  0
ARC
  5
2B2
100
AcDbEntity
  8
0
100
AcDbCircle
 62
7
  6
CONTINUOUS
 10
11.4403333309
 20
5.8185002711
 40
0.02
100
AcDbArc
 50
242.8901449367
 51
360.0
  0
ARC
  5
2B3
100
AcDbEntity
  8
0
100
AcDbCircle
 62
7
  6
CONTINUOUS
 10
12.1790479934
 20
5.5914229598
 40
0.41
100
AcDbArc
 50
96.253440829
 51
116.2863824163
  0
ARC
  5
2B4
100
AcDbEntity
  8
0
100
AcDbCircle
 62
7
  6
CONTINUOUS
 10
11.6213333309
 20
5.7112324851
 40
0.11
100
AcDbArc
 50
93.2758289598
 51
128.2249102016
  0
ARC
  5
2B5
100
AcDbEntity
  8
0
100
AcDbCircle
 62
7
  6
CONTINUOUS
 10
11.5613333309
 20
6.7595167977
 40
0.94
100
AcDbArc
 50
273.2758289598
 51
289.8783240235
  0
ARC
  5
2B6
100
AcDbEntity
  8
0
100
AcDbCircle
 62
7
  6
CONTINUOUS
 10
11.5613333309
 20
5.9070999666
 40
0.94
100
AcDbArc
 50
70.1216759765
 51
86.7241710402
  0
ARC
  5
2B7
100
AcDbEntity
  8
0
100
AcDbCircle
 62
7
  6
CONTINUOUS
 10
11.7313452303
 20
6.2893083821
 40
0.44
100
AcDbArc
 50
289.8783240235
 51
294.389713624
  0
ARC
  5
2B8
100
AcDbEntity
  8
0
100
AcDbCircle
 62
7
  6
CONTINUOUS
 10
11.7313452303
 20
6.3773083821
 40
0.44
100
AcDbArc
 50
65.610286376
 51
70.1216759765
  0
ARC
  5
2B9
100
AcDbEntity
  8
0
100
AcDbCircle
 62
7
  6
CONTINUOUS
 10
12.1790479934
 20
7.0751938044
 40
0.41
100
AcDbArc
 50
243.7136175837
 51
263.746559171
  0
ARC
  5
2BA
100
AcDbEntity
  8
0
100
AcDbCircle
 62
7
  6
CONTINUOUS
 10
11.7978649778
 20
6.9429436404
 40
0.41
100
AcDbArc
 50
349.5243183036
 51
20.4139841937
  0
ARC
  5
2BB
100
AcDbEntity
  8
0
100
AcDbCircle
 62
7
  6
CONTINUOUS
 10
11.6213333309
 20
6.9553842791
 40
0.11
100
AcDbArc
 50
231.7750897984
 51
266.7241710402
  0
ARC
  5
2BC
100
AcDbEntity
  8
0
100
AcDbCircle
 62
7
  6
CONTINUOUS
 10
11.9543333309
 20
5.7974991641
 40
0.1
100
AcDbArc
 50
93.2758289598
 51
114.389713624
  0
ARC
  5
2BD
100
AcDbEntity
  8
0
100
AcDbCircle
 62
7
  6
CONTINUOUS
 10
11.9543333309
 20
6.8691176002
 40
0.1
100
AcDbArc
 50
245.610286376
 51
266.7241710402
  0
ARC
  5
2BE
100
AcDbEntity
  8
0
100
AcDbCircle
 62
7
  6
CONTINUOUS
 10
11.5223333309
 20
6.8296902061
 40
0.05
100
AcDbArc
 50
51.7750897985
 51
145.0847937526
  0
ARC
  5
2BF
100
AcDbEntity
  8
0
100
AcDbCircle
 62
7
  6
CONTINUOUS
 10
11.5223333309
 20
5.8369265582
 40
0.05
100
AcDbArc
 50
214.9152062474
 51
308.2249102015
  0
ARC
  5
2C0
100
AcDbEntity
  8
0
100
AcDbCircle
 62
7
  6
CONTINUOUS
 10
12.2289755451
 20
7.1033920082
 40
0.05
100
AcDbArc
 50
126.4848929408
 51
200.4139841937
  0
ARC
  5
2C1
100
AcDbEntity
  8
0
100
AcDbCircle
 62
7
  6
CONTINUOUS
 10
12.1695144636
 20
7.183793375
 40
0.05
100
AcDbArc
 50
306.4848929408
 51
4.7444603621
  0
ARC
  5
2C2
100
AcDbEntity
  8
0
100
AcDbCircle
 62
7
  6
CONTINUOUS
 10
11.9463333309
 20
5.9372704057
 40
0.04
100
AcDbArc
 50
273.2758289598
 51
360.0
  0
ARC
  5
2C3
100
AcDbEntity
  8
0
100
AcDbCircle
 62
7
  6
CONTINUOUS
 10
11.9463333309
 20
6.7293463585
 40
0.04
100
AcDbArc
 50
0.0
 51
86.7241710402
  0
ARC
  5
2C4
100
AcDbEntity
  8
0
100
AcDbCircle
 62
7
  6
CONTINUOUS
 10
12.1377920544
 20
6.6986974432
 40
0.03125
100
AcDbArc
 50
263.7465591709
 51
318.2136420512
  0
ARC
  5
2C5
100
AcDbEntity
  8
0
100
AcDbCircle
 62
7
  6
CONTINUOUS
 10
12.1377920544
 20
5.967919321
 40
0.03125
100
AcDbArc
 50
41.786357941
 51
96.2534408307
  0
ARC
  5
2C6
100
AcDbEntity
  8
0
100
AcDbCircle
 62
7
  6
CONTINUOUS
 10
12.2305311308
 20
6.8629436404
 40
0.03
100
AcDbArc
 50
169.5243183035
 51
270.0
  0
ARC
  5
2C7
100
AcDbEntity
  8
0
100
AcDbCircle
 62
7
  6
CONTINUOUS
 10
12.2478333309
 20
6.8029436404
 40
0.03
100
AcDbArc
 50
0.0
 51
89.9999999924
  0
ARC
  5
2C8
100
AcDbEntity
  8
0
100
AcDbCircle
 62
7
  6
CONTINUOUS
 10
12.0063333309
 20
5.9410937269
 40
0.02
100
AcDbArc
 50
116.2863824165
 51
180.0
  0
ARC
  5
2C9
100
AcDbEntity
  8
0
100
AcDbCircle
 62
7
  6
CONTINUOUS
 10
12.0063333309
 20
6.7255230373
 40
0.02
100
AcDbArc
 50
180.0
 51
243.7136175835
  0
ARC
  5
2CA
100
AcDbEntity
  8
0
100
AcDbCircle
 62
7
  6
CONTINUOUS
 10
13.7230290773
 20
6.9041801703
 40
3.33
100
AcDbArc
 50
219.5152142054
 51
222.7791643952
  0
ARC
  5
2CB
100
AcDbEntity
  8
0
100
AcDbCircle
 62
7
  6
CONTINUOUS
 10
12.3702934394
 20
6.3333083821
 40
3.0
100
AcDbArc
 50
164.7963906254
 51
195.9056507815
  0
ARC
  5
2CC
100
AcDbEntity
  8
0
100
AcDbCircle
 62
7
  6
CONTINUOUS
 10
12.3137934394
 20
5.6001652483
 40
1.41
100
AcDbArc
 50
222.7791643952
 51
225.1670903648
  0
ARC
  5
2CD
100
AcDbEntity
  8
0
100
AcDbCircle
 62
7
  6
CONTINUOUS
 10
12.4428333309
 20
6.3333083821
 40
0.45
100
AcDbArc
 50
66.729704735
 51
68.1472670796
  0
ARC
  5
2CE
100
AcDbEntity
  8
0
100
AcDbCircle
 62
7
  6
CONTINUOUS
 10
12.4428333309
 20
6.3333083821
 40
0.45
100
AcDbArc
 50
238.7582730988
 51
293.270295265
  0
ARC
  5
2CF
100
AcDbEntity
  8
0
100
AcDbCircle
 62
7
  6
CONTINUOUS
 10
12.4428333309
 20
6.3333083821
 40
0.45
100
AcDbArc
 50
111.8527329204
 51
121.2417269012
  0
ARC
  5
2D0
100
AcDbEntity
  8
0
100
AcDbCircle
 62
7
  6
CONTINUOUS
 10
13.0878016841
 20
6.9429436404
 40
0.41
100
AcDbArc
 50
159.5860158063
 51
190.4756816964
  0
ARC
  5
2D1
100
AcDbEntity
  8
0
100
AcDbCircle
 62
7
  6
CONTINUOUS
 10
12.3199133248
 20
6.5359402456
 40
0.213
100
AcDbArc
 50
121.241726513
 51
138.2136420583
  0
ARC
  5
2D2
100
AcDbEntity
  8
0
100
AcDbCircle
 62
7
  6
CONTINUOUS
 10
12.3199133248
 20
6.1306765187
 40
0.213
100
AcDbArc
 50
221.786357949
 51
238.7582734952
  0
ARC
  5
2D3
100
AcDbEntity
  8
0
100
AcDbCircle
 62
7
  6
CONTINUOUS
 10
12.5416006523
 20
6.5629712138
 40
0.2
100
AcDbArc
 50
2.9627007019
 51
66.7297047517
  0
ARC
  5
2D4
100
AcDbEntity
  8
0
100
AcDbCircle
 62
7
  6
CONTINUOUS
 10
12.5416006523
 20
6.1036455505
 40
0.2
100
AcDbArc
 50
293.2702952483
 51
357.0372992981
  0
ARC
  5
2D5
100
AcDbEntity
  8
0
100
AcDbCircle
 62
7
  6
CONTINUOUS
 10
12.7613333309
 20
6.1533083821
 40
0.06
100
AcDbArc
 50
270.0
 51
360.0
  0
ARC
  5
2D6
100
AcDbEntity
  8
0
100
AcDbCircle
 62
7
  6
CONTINUOUS
 10
12.7613333309
 20
6.5133083821
 40
0.06
100
AcDbArc
 50
0.0
 51
90.0
  0
ARC
  5
2D7
100
AcDbEntity
  8
0
100
AcDbCircle
 62
7
  6
CONTINUOUS
 10
12.6566911168
 20
7.1033920082
 40
0.05
100
AcDbArc
 50
339.5860158063
 51
53.5151070592
  0
ARC
  5
2D8
100
AcDbEntity
  8
0
100
AcDbCircle
 62
7
  6
CONTINUOUS
 10
12.7161521982
 20
7.183793375
 40
0.05
100
AcDbArc
 50
175.2555396379
 51
233.5151070592
  0
ARC
  5
2D9
100
AcDbEntity
  8
0
100
AcDbCircle
 62
7
  6
CONTINUOUS
 10
12.655135531
 20
6.8629436404
 40
0.03
100
AcDbArc
 50
270.0
 51
10.4756816965
  0
ARC
  5
2DA
100
AcDbEntity
  8
0
100
AcDbCircle
 62
7
  6
CONTINUOUS
 10
12.6378333309
 20
6.8029436404
 40
0.03
100
AcDbArc
 50
90.0000000076
 51
180.0
  0
ARC
  5
2DB
100
AcDbEntity
  8
0
100
AcDbCircle
 62
7
  6
CONTINUOUS
 10
11.0491279612
 20
8.2577893157
 40
1.45
100
AcDbArc
 50
268.4668732052
 51
282.7983811059
  0
ARC
  5
2DC
100
AcDbEntity
  8
0
100
AcDbCircle
 62
9
  6
CONTINUOUS
 10
10.1752934385
 20
11.9157679054
 40
0.831391887
100
AcDbArc
 50
269.6429201133
 51
270.3686837208
  0
ARC
  5
2DD
100
AcDbEntity
  8
0
100
AcDbCircle
 62
9
  6
CONTINUOUS
 10
10.1754211728
 20
11.9072903896
 40
0.822913728
100
AcDbArc
 50
270.3635884284
 51
274.1047866881
  0
ARC
  5
2DE
100
AcDbEntity
  8
0
100
AcDbCircle
 62
7
  6
CONTINUOUS
 10
12.4428333309
 20
8.2626623904
 40
0.82028125
100
AcDbArc
 50
63.599513499
 51
116.400486501
  0
ARC
  5
2DF
100
AcDbEntity
  8
0
100
AcDbCircle
 62
9
  6
CONTINUOUS
 10
10.1781787244
 20
11.8630773878
 40
0.7786168637
100
AcDbArc
 50
274.1352753151
 51
274.784283284
  0
ARC
  5
2E0
100
AcDbEntity
  8
0
100
AcDbCircle
 62
9
  6
CONTINUOUS
 10
10.184378832
 20
11.7978062593
 40
0.7130564161
100
AcDbArc
 50
274.7252564447
 51
279.1050563644
  0
ARC
  5
2E1
100
AcDbEntity
  8
0
100
AcDbCircle
 62
9
  6
CONTINUOUS
 10
10.1961001645
 20
11.7192988734
 40
0.6336839604
100
AcDbArc
 50
279.1818905213
 51
279.5145785039
  0
ARC
  5
2E2
100
AcDbEntity
  8
0
100
AcDbCircle
 62
7
  6
CONTINUOUS
 10
11.1340600037
 20
7.7860572888
 40
0.6
100
AcDbArc
 50
192.9238295202
 51
245.5051820501
  0
ARC
  5
2E3
100
AcDbEntity
  8
0
100
AcDbCircle
 62
7
  6
CONTINUOUS
 10
10.1752934394
 20
13.7200580246
 40
0.25
100
AcDbArc
 50
0.0
 51
180.0
  0
ARC
  5
2E4
100
AcDbEntity
  8
0
100
AcDbCircle
 62
7
  6
CONTINUOUS
 10
10.4772934394
 20
7.6200580246
 40
0.16
100
AcDbArc
 50
77.7612442321
 51
90.0
  0
ARC
  5
2E5
100
AcDbEntity
  8
0
100
AcDbCircle
 62
7
  6
CONTINUOUS
 10
12.962045313
 20
8.816577022
 40
0.16
100
AcDbArc
 50
145.7535793535
 51
175.2555396378
  0
ARC
  5
2E6
100
AcDbEntity
  8
0
100
AcDbCircle
 62
7
  6
CONTINUOUS
 10
11.9236213488
 20
8.8165770219
 40
0.16
100
AcDbArc
 50
4.7444603622
 51
34.2464206489
  0
ARC
  5
2E7
100
AcDbEntity
  8
0
100
AcDbCircle
 62
9
  6
CONTINUOUS
 10
10.4120118883
 20
11.5033018478
 40
0.1295816058
100
AcDbArc
 50
50.1037302992
 51
52.484827005
  0
ARC
  5
2E8
100
AcDbEntity
  8
0
100
AcDbCircle
 62
9
  6
CONTINUOUS
 10
10.4125076296
 20
11.5050492511
 40
0.1285108844
100
AcDbArc
 50
49.7127011368
 51
52.488180544
  0
ARC
  5
2E9
100
AcDbEntity
  8
0
100
AcDbCircle
 62
7
  6
CONTINUOUS
 10
10.3988368789
 20
11.5618204025
 40
0.1265972089
100
AcDbArc
 50
318.1453339986
 51
322.5684601705
  0
ARC
  5
2EA
100
AcDbEntity
  8
0
100
AcDbCircle
 62
7
  6
CONTINUOUS
 10
10.5832756342
 20
11.3995584825
 40
0.1204556127
100
AcDbArc
 50
170.499189482
 51
172.6619462659
  0
ARC
  5
2EB
100
AcDbEntity
  8
0
100
AcDbCircle
 62
7
  6
CONTINUOUS
 10
10.4039838433
 20
11.557834005
 40
0.1200871279
100
AcDbArc
 50
322.5861741415
 51
328.7611227814
  0
ARC
  5
2EC
100
AcDbEntity
  8
0
100
AcDbCircle
 62
7
  6
CONTINUOUS
 10
10.4104028195
 20
11.5538646379
 40
0.1125402986
100
AcDbArc
 50
328.7941799963
 51
334.3514862249
  0
ARC
  5
2ED
100
AcDbEntity
  8
0
100
AcDbCircle
 62
7
  6
CONTINUOUS
 10
10.4153639462
 20
11.5513877726
 40
0.1069959348
100
AcDbArc
 50
334.3972126492
 51
335.9842159384
  0
ARC
  5
2EE
100
AcDbEntity
  8
0
100
AcDbCircle
 62
7
  6
CONTINUOUS
 10
10.4185312725
 20
11.5499911943
 40
0.1035344032
100
AcDbArc
 50
335.9768095148
 51
340.4248588188
  0
ARC
  5
2EF
100
AcDbEntity
  8
0
100
AcDbCircle
 62
7
  6
CONTINUOUS
 10
10.4073954238
 20
11.2216561657
 40
0.0831923061
100
AcDbArc
 50
336.7708490539
 51
338.1882158336
  0
ARC
  5
2F0
100
AcDbEntity
  8
0
100
AcDbCircle
 62
7
  6
CONTINUOUS
 10
10.5430940975
 20
11.4227606319
 40
0.0737677682
100
AcDbArc
 50
140.3171351021
 51
143.3036996235
  0
ARC
  5
2F1
100
AcDbEntity
  8
0
100
AcDbCircle
 62
7
  6
CONTINUOUS
 10
10.4959481975
 20
7.7060580246
 40
0.072
100
AcDbArc
 50
64.9998302464
 51
77.7612442321
  0
ARC
  5
2F2
100
AcDbEntity
  8
0
100
AcDbCircle
 62
7
  6
CONTINUOUS
 10
10.4967934394
 20
7.7078706377
 40
0.07
100
AcDbArc
 50
33.7187767642
 51
64.9998302464
  0
ARC
  5
2F3
100
AcDbEntity
  8
0
100
AcDbCircle
 62
9
  6
CONTINUOUS
 10
10.461701301
 20
11.5505736714
 40
0.0606766061
100
AcDbArc
 50
30.8810648883
 51
31.8474039355
  0
ARC
  5
2F4
100
AcDbEntity
  8
0
100
AcDbCircle
 62
7
  6
CONTINUOUS
 10
10.6077391437
 20
7.665283317
 40
0.06
100
AcDbArc
 50
147.469596115
 51
192.9238295203
  0
ARC
  5
2F5
100
AcDbEntity
  8
0
100
AcDbCircle
 62
9
  6
CONTINUOUS
 10
10.4417300517
 20
11.5080796581
 40
0.0586914006
100
AcDbArc
 50
326.2892661935
 51
329.1011276967
  0
ARC
  5
2F6
100
AcDbEntity
  8
0
100
AcDbCircle
 62
9
  6
CONTINUOUS
 10
10.4098900153
 20
11.1893103959
 40
0.0523735219
100
AcDbArc
 50
326.2934100231
 51
327.7805716281
  0
ARC
  5
2F7
100
AcDbEntity
  8
0
100
AcDbCircle
 62
7
  6
CONTINUOUS
 10
10.5134288843
 20
7.7189729786
 40
0.05
100
AcDbArc
 50
0.4872840058
 51
33.7187767642
  0
ARC
  5
2F8
100
AcDbEntity
  8
0
100
AcDbCircle
 62
7
  6
CONTINUOUS
 10
12.7853333309
 20
8.9526094566
 40
0.05
100
AcDbArc
 50
0.0
 51
63.599513499
  0
ARC
  5
2F9
100
AcDbEntity
  8
0
100
AcDbCircle
 62
7
  6
CONTINUOUS
 10
12.1003333309
 20
8.9526094566
 40
0.05
100
AcDbArc
 50
116.400486501
 51
180.0
  0
ARC
  5
2FA
100
AcDbEntity
  8
0
100
AcDbCircle
 62
7
  6
CONTINUOUS
 10
10.5234285226
 20
7.7190580246
 40
0.04
100
AcDbArc
 50
327.4695961151
 51
0.4872840058
  0
ARC
  5
2FB
100
AcDbEntity
  8
0
100
AcDbCircle
 62
7
  6
CONTINUOUS
 10
12.8033333309
 20
8.9246256533
 40
0.032
100
AcDbArc
 50
325.7535793494
 51
0.0000016549
  0
ARC
  5
2FC
100
AcDbEntity
  8
0
100
AcDbCircle
 62
7
  6
CONTINUOUS
 10
12.0823333309
 20
8.9246256533
 40
0.032
100
AcDbArc
 50
179.9999983074
 51
214.2464206447
  0
SPLINE
  5
2FD
100
AcDbEntity
  8
0
100
AcDbSpline
 62
7
  6
CONTINUOUS
 70
0
 71
3
 72
25
 73
21
 74
0
 42
0.0000001
 43
0.0000001
 44
0.0000000001
 40
0.0
 40
0.0
 40
0.0
 40
0.0
 40
0.041275112
 40
0.0898323244
 40
0.1532715396
 40
0.2286971437
 40
0.313453798
 40
0.3585279182
 40
0.4049193906
 40
0.4522247579
 40
0.5000000027
 40
0.5477752454
 40
0.5950806152
 40
0.6414720864
 40
0.6865462071
 40
0.7713028613
 40
0.8467284614
 40
0.9101676754
 40
0.958724888
 40
1.0
 40
1.0
 40
1.0
 40
1.0
 10
10.9383333309
 20
5.8333083821
 30
0.0
 10
10.9320569041
 20
5.8462177484
 30
0.0
 10
10.9186974405
 20
5.8744622882
 30
0.0
 10
10.8971601926
 20
5.9232290872
 30
0.0
 10
10.8729908153
 20
5.9837858771
 30
0.0
 10
10.8479281522
 20
6.0574536582
 30
0.0
 10
10.8297312471
 20
6.1265692361
 30
0.0
 10
10.8181192796
 20
6.1867660826
 30
0.0
 10
10.8113694244
 20
6.2345756776
 30
0.0
 10
10.8071439039
 20
6.2836198916
 30
0.0
 10
10.8057041773
 20
6.3333083842
 30
0.0
 10
10.8071439044
 20
6.3829968776
 30
0.0
 10
10.8113694246
 20
6.4320410915
 30
0.0
 10
10.8181192807
 20
6.4798506869
 30
0.0
 10
10.8297312483
 20
6.5400475331
 30
0.0
 10
10.8479281534
 20
6.6091631097
 30
0.0
 10
10.8729908161
 20
6.682830889
 30
0.0
 10
10.8971601927
 20
6.7433876774
 30
0.0
 10
10.9186974405
 20
6.792154476
 30
0.0
 10
10.9320569041
 20
6.8203990158
 30
0.0
 10
10.9383333309
 20
6.8333083821
 30
0.0
  0
SPLINE
  5
2FE
100
AcDbEntity
  8
0
100
AcDbSpline
 62
7
  6
CONTINUOUS
 70
0
 71
3
 72
11
 73
7
 74
0
 42
0.0000001
 43
0.0000001
 44
0.0000000001
 40
0.0
 40
0.0
 40
0.0
 40
0.0
 40
0.198026158
 40
0.4378858486
 40
0.7080084757
 40
1.0
 40
1.0
 40
1.0
 40
1.0
 10
10.4839460511
 20
11.4668422861
 30
0.0
 10
10.4819052931
 20
11.4641080905
 30
0.0
 10
10.4777662032
 20
11.457780069
 30
0.0
 10
10.4722113497
 20
11.4468894308
 30
0.0
 10
10.4674958116
 20
11.433865194
 30
0.0
 10
10.4653025646
 20
11.4244028476
 30
0.0
 10
10.464472279
 20
11.4194410736
 30
0.0
  0
SPLINE
  5
2FF
100
AcDbEntity
  8
0
100
AcDbSpline
 62
7
  6
CONTINUOUS
 70
0
 71
3
 72
12
 73
8
 74
0
 42
0.0000001
 43
0.0000001
 44
0.0000000001
 40
0.0
 40
0.0
 40
0.0
 40
0.0
 40
0.302768563
 40
0.5781767087
 40
0.8156064583
 40
0.9155564962
 40
1.0
 40
1.0
 40
1.0
 40
1.0
 10
9.8861078286
 20
11.419481321
 30
0.0
 10
9.8851808306
 20
11.4250089051
 30
0.0
 10
9.8826780068
 20
11.435456074
 30
0.0
 10
9.8772279821
 20
11.449583996
 30
0.0
 10
9.8717133834
 20
11.4595382133
 30
0.0
 10
9.8673097635
 20
11.4659904315
 30
0.0
 10
9.8652252562
 20
11.4686966492
 30
0.0
 10
9.8642302279
 20
11.4699022625
 30
0.0
  0
SPLINE
  5
300
100
AcDbEntity
  8
0
100
AcDbSpline
 62
7
  6
CONTINUOUS
 70
0
 71
3
 72
9
 73
5
 74
0
 42
0.0000001
 43
0.0000001
 44
0.0000000001
 40
0.0
 40
0.0
 40
0.0
 40
0.0
 40
0.2495955272
 40
1.0
 40
1.0
 40
1.0
 40
1.0
 10
10.4628575515
 20
11.1584028782
 30
0.0
 10
10.4639551031
 20
11.1595128365
 30
0.0
 10
10.4682634159
 20
11.1640464
 30
0.0
 10
10.4722001861
 20
11.1689378512
 30
0.0
 10
10.4748785415
 20
11.1727915411
 30
0.0
  0
SPLINE
  5
301
100
AcDbEntity
  8
0
100
AcDbSpline
 62
7
  6
CONTINUOUS
 70
0
 71
3
 72
9
 73
5
 74
0
 42
0.0000001
 43
0.0000001
 44
0.0000000001
 40
0.0
 40
0.0
 40
0.0
 40
0.0
 40
0.2497985362
 40
1.0
 40
1.0
 40
1.0
 40
1.0
 10
10.4748785415
 20
11.1727915411
 30
0.0
 10
10.4757530977
 20
11.1740498762
 30
0.0
 10
10.4791377437
 20
11.179166487
 30
0.0
 10
10.4820287345
 20
11.1846151959
 30
0.0
 10
10.4838437282
 20
11.1888443302
 30
0.0
  0
SPLINE
  5
302
100
AcDbEntity
  8
0
100
AcDbSpline
 62
7
  6
CONTINUOUS
 70
0
 71
3
 72
9
 73
5
 74
0
 42
0.0000001
 43
0.0000001
 44
0.0000000001
 40
0.0
 40
0.0
 40
0.0
 40
0.0
 40
0.4920793704
 40
1.0
 40
1.0
 40
1.0
 40
1.0
 10
10.484631945
 20
11.190745333
 30
0.0
 10
10.4864474826
 20
11.1952822352
 30
0.0
 10
10.489320577
 20
11.2048543141
 30
0.0
 10
10.4902934546
 20
11.214811525
 30
0.0
 10
10.4902934546
 20
11.2198555213
 30
0.0
  0
SPLINE
  5
303
100
AcDbEntity
  8
0
100
AcDbSpline
 62
7
  6
CONTINUOUS
 70
0
 71
3
 72
9
 73
5
 74
0
 42
0.0000001
 43
0.0000001
 44
0.0000000001
 40
0.0
 40
0.0
 40
0.0
 40
0.0
 40
0.5085160407
 40
1.0
 40
1.0
 40
1.0
 40
1.0
 10
9.8602934241
 20
11.2198555213
 30
0.0
 10
9.8602934241
 20
11.2147973276
 30
0.0
 10
9.8612667702
 20
11.2048232212
 30
0.0
 10
9.8641517993
 20
11.1952372338
 30
0.0
 10
9.8659717463
 20
11.190699842
 30
0.0
  0
SPLINE
  5
304
100
AcDbEntity
  8
0
100
AcDbSpline
 62
7
  6
CONTINUOUS
 70
0
 71
3
 72
9
 73
5
 74
0
 42
0.0000001
 43
0.0000001
 44
0.0000000001
 40
0.0
 40
0.0
 40
0.0
 40
0.0
 40
0.250570003
 40
1.0
 40
1.0
 40
1.0
 40
1.0
 10
9.8667731116
 20
11.1887724041
 30
0.0
 10
9.8673849343
 20
11.1873512504
 30
0.0
 10
9.8699830695
 20
11.1817474753
 30
0.0
 10
9.873175333
 20
11.1764249095
 30
0.0
 10
9.8758249863
 20
11.1726308515
 30
0.0
  0
SPLINE
  5
305
100
AcDbEntity
  8
0
100
AcDbSpline
 62
7
  6
CONTINUOUS
 70
0
 71
3
 72
9
 73
5
 74
0
 42
0.0000001
 43
0.0000001
 44
0.0000000001
 40
0.0
 40
0.0
 40
0.0
 40
0.0
 40
0.2503519579
 40
1.0
 40
1.0
 40
1.0
 40
1.0
 10
9.8758249863
 20
11.1726308515
 30
0.0
 10
9.8767062471
 20
11.1713689676
 30
0.0
 10
9.8803423408
 20
11.1664100311
 30
0.0
 10
9.8844122527
 20
11.1617733265
 30
0.0
 10
9.8876477955
 20
11.1584912305
 30
0.0
  0
SPLINE
  5
306
100
AcDbEntity
  8
0
100
AcDbSpline
 62
7
  6
CONTINUOUS
 70
0
 71
3
 72
31
 73
27
 74
0
 42
0.0000001
 43
0.0000001
 44
0.0000000001
 40
0.0
 40
0.0
 40
0.0
 40
0.0
 40
0.0239509524
 40
0.0483692175
 40
0.0734978397
 40
0.0995159513
 40
0.126630278
 40
0.1550169959
 40
0.1847734012
 40
0.2158677486
 40
0.2817958247
 40
0.351976944
 40
0.4252029831
 40
0.5000026662
 40
0.5748022082
 40
0.6480276099
 40
0.7182076425
 40
0.7841344782
 40
0.8152279415
 40
0.844983376
 40
0.8733692337
 40
0.9004831419
 40
0.9265018564
 40
0.9516324085
 40
0.9760518581
 40
1.0
 40
1.0
 40
1.0
 40
1.0
 10
10.4993658454
 20
11.6074635365
 30
0.0
 10
10.4957858112
 20
11.6116472341
 30
0.0
 10
10.4879833344
 20
11.619619298
 30
0.0
 10
10.4748216505
 20
11.6302623551
 30
0.0
 10
10.460308687
 20
11.6398514356
 30
0.0
 10
10.4445424818
 20
11.6485541684
 30
0.0
 10
10.4275270502
 20
11.6564417759
 30
0.0
 10
10.409274195
 20
11.6636113455
 30
0.0
 10
10.3898155202
 20
11.67013705
 30
0.0
 10
10.361778977
 20
11.6781349623
 30
0.0
 10
10.3241842934
 20
11.686348503
 30
0.0
 10
10.2765404499
 20
11.6933649127
 30
0.0
 10
10.2265263681
 20
11.6976287248
 30
0.0
 10
10.1752916446
 20
11.6990592413
 30
0.0
 10
10.1240570657
 20
11.6976286039
 30
0.0
 10
10.0740434443
 20
11.6933644662
 30
0.0
 10
10.0264002839
 20
11.6863481229
 30
0.0
 10
9.9888063452
 20
11.6781346191
 30
0.0
 10
9.9607705207
 20
11.6701367813
 30
0.0
 10
9.9413124617
 20
11.6636112097
 30
0.0
 10
9.9230600565
 20
11.6564419165
 30
0.0
 10
9.906044715
 20
11.6485544825
 30
0.0
 10
9.8902780898
 20
11.6398514902
 30
0.0
 10
9.8757645888
 20
11.6302616587
 30
0.0
 10
9.8626029971
 20
11.6196184009
 30
0.0
 10
9.8548006475
 20
11.6116467432
 30
0.0
 10
9.8512210333
 20
11.6074635365
 30
0.0
  0
SPLINE
  5
307
100
AcDbEntity
  8
0
100
AcDbSpline
 62
7
  6
CONTINUOUS
 70
0
 71
3
 72
11
 73
7
 74
0
 42
0.0000001
 43
0.0000001
 44
0.0000000001
 40
0.0
 40
0.0
 40
0.0
 40
0.0
 40
0.2477627525
 40
0.4950156201
 40
0.7444552788
 40
1.0
 40
1.0
 40
1.0
 40
1.0
 10
9.8512753225
 20
11.6075262787
 30
0.0
 10
9.848807208
 20
11.6046458844
 30
0.0
 10
9.8441655728
 20
11.5986338254
 30
0.0
 10
9.8382534298
 20
11.5888577219
 30
0.0
 10
9.8336040935
 20
11.5782836772
 30
0.0
 10
9.8315301834
 20
11.5708010982
 30
0.0
 10
9.8307670874
 20
11.5669639144
 30
0.0
  0
SPLINE
  5
308
100
AcDbEntity
  8
0
100
AcDbSpline
 62
7
  6
CONTINUOUS
 70
0
 71
3
 72
11
 73
7
 74
0
 42
0.0000001
 43
0.0000001
 44
0.0000000001
 40
0.0
 40
0.0
 40
0.0
 40
0.0
 40
0.2555116608
 40
0.5049572649
 40
0.7522270714
 40
1.0
 40
1.0
 40
1.0
 40
1.0
 10
10.5198197914
 20
11.5669639144
 30
0.0
 10
10.5190568228
 20
11.5708004572
 30
0.0
 10
10.5169829822
 20
11.5782823153
 30
0.0
 10
10.5123340832
 20
11.5888558802
 30
0.0
 10
10.5064223989
 20
11.5986323511
 30
0.0
 10
10.5017808146
 20
11.6046446258
 30
0.0
 10
10.4993127336
 20
11.6075250658
 30
0.0
  0
SPLINE
  5
309
100
AcDbEntity
  8
0
100
AcDbSpline
 62
7
  6
CONTINUOUS
 70
0
 71
3
 72
14
 73
10
 74
0
 42
0.0000001
 43
0.0000001
 44
0.0000000001
 40
0.0
 40
0.0
 40
0.0
 40
0.0
 40
0.0824033663
 40
0.1812951742
 40
0.2941302017
 40
0.4186707037
 40
0.5530803878
 40
0.6957611343
 40
1.0
 40
1.0
 40
1.0
 40
1.0
 10
9.8783404568
 20
11.271990868
 30
0.0
 10
9.8790282704
 20
11.2729484122
 30
0.0
 10
9.8804679748
 20
11.27510842
 30
0.0
 10
9.8825831966
 20
11.2787494494
 30
0.0
 10
9.8847224738
 20
11.2830632507
 30
0.0
 10
9.8867289541
 20
11.2879951136
 30
0.0
 10
9.888479352
 20
11.2934746077
 30
0.0
 10
9.8904223126
 20
11.3015664694
 30
0.0
 10
9.8912012429
 20
11.3079484616
 30
0.0
 10
9.891382383
 20
11.3122975416
 30
0.0
  0
SPLINE
  5
30A
100
AcDbEntity
  8
0
100
AcDbSpline
 62
7
  6
CONTINUOUS
 70
0
 71
3
 72
14
 73
10
 74
0
 42
0.0000001
 43
0.0000001
 44
0.0000000001
 40
0.0
 40
0.0
 40
0.0
 40
0.0
 40
0.3050279441
 40
0.4478362824
 40
0.582173045
 40
0.7064048398
 40
0.8188169012
 40
0.9174478433
 40
1.0
 40
1.0
 40
1.0
 40
1.0
 10
10.4592044957
 20
11.3122975416
 30
0.0
 10
10.459386052
 20
11.3079384703
 30
0.0
 10
10.4601715072
 20
11.301545596
 30
0.0
 10
10.4621223191
 20
11.2934457919
 30
0.0
 10
10.46387174
 20
11.2879718836
 30
0.0
 10
10.4658642948
 20
11.2830484484
 30
0.0
 10
10.4680001025
 20
11.2787500287
 30
0.0
 10
10.4701190623
 20
11.2751213816
 30
0.0
 10
10.4715618348
 20
11.2729664508
 30
0.0
 10
10.4722504088
 20
11.2720072616
 30
0.0
  0
SPLINE
  5
30B
100
AcDbEntity
  8
0
100
AcDbSpline
 62
7
  6
CONTINUOUS
 70
0
 71
3
 72
10
 73
6
 74
0
 42
0.0000001
 43
0.0000001
 44
0.0000000001
 40
0.0
 40
0.0
 40
0.0
 40
0.0
 40
0.4899068994
 40
0.7411633372
 40
1.0
 40
1.0
 40
1.0
 40
1.0
 10
9.8784196043
 20
11.2720803071
 30
0.0
 10
9.874449044
 20
11.2666417777
 30
0.0
 10
9.869187212
 20
11.2578097842
 30
0.0
 10
9.864185122
 20
11.2449833902
 30
0.0
 10
9.8624217992
 20
11.2381756007
 30
0.0
 10
9.8617376555
 20
11.2346843188
 30
0.0
  0
SPLINE
  5
30C
100
AcDbEntity
  8
0
100
AcDbSpline
 62
7
  6
CONTINUOUS
 70
0
 71
3
 72
10
 73
6
 74
0
 42
0.0000001
 43
0.0000001
 44
0.0000000001
 40
0.0
 40
0.0
 40
0.0
 40
0.0
 40
0.258759722
 40
0.5100209557
 40
1.0
 40
1.0
 40
1.0
 40
1.0
 10
10.4888492232
 20
11.2346843188
 30
0.0
 10
10.4881653152
 20
11.2381743979
 30
0.0
 10
10.4864021279
 20
11.2449808505
 30
0.0
 10
10.4814005418
 20
11.257806695
 30
0.0
 10
10.4761392832
 20
11.2666397061
 30
0.0
 10
10.4721685516
 20
11.272078944
 30
0.0
  0
SPLINE
  5
30D
100
AcDbEntity
  8
0
100
AcDbSpline
 62
7
  6
CONTINUOUS
 70
0
 71
3
 72
9
 73
5
 74
0
 42
0.0000001
 43
0.0000001
 44
0.0000000001
 40
0.0
 40
0.0
 40
0.0
 40
0.0
 40
0.4934086511
 40
1.0
 40
1.0
 40
1.0
 40
1.0
 10
10.516081688
 20
11.515302737
 30
0.0
 10
10.5179086348
 20
11.5204491974
 30
0.0
 10
10.5207608563
 20
11.5312034506
 30
0.0
 10
10.5217208196
 20
11.5422943611
 30
0.0
 10
10.5217208196
 20
11.5479013851
 30
0.0
  0
SPLINE
  5
30E
100
AcDbEntity
  8
0
100
AcDbSpline
 62
7
  6
CONTINUOUS
 70
0
 71
3
 72
9
 73
5
 74
0
 42
0.0000001
 43
0.0000001
 44
0.0000000001
 40
0.0
 40
0.0
 40
0.0
 40
0.0
 40
0.5073469912
 40
1.0
 40
1.0
 40
1.0
 40
1.0
 10
9.8288660591
 20
11.5479013851
 30
0.0
 10
9.8288660591
 20
11.542153484
 30
0.0
 10
9.8298687508
 20
11.5307991393
 30
0.0
 10
9.8328599555
 20
11.5198073769
 30
0.0
 10
9.8347696711
 20
11.5145628249
 30
0.0
  0
SPLINE
  5
30F
100
AcDbEntity
  8
0
100
AcDbSpline
 62
7
  6
CONTINUOUS
 70
0
 71
3
 72
30
 73
26
 74
0
 42
0.0000001
 43
0.0000001
 44
0.0000000001
 40
0.0
 40
0.0
 40
0.0
 40
0.0
 40
0.0457948943
 40
0.0704708534
 40
0.0963419474
 40
0.1235102055
 40
0.152081089
 40
0.182113073
 40
0.2135432778
 40
0.2801685668
 40
0.3509689766
 40
0.4247158619
 40
0.4999733983
 40
0.5752308272
 40
0.6489773111
 40
0.7197768111
 40
0.7864010493
 40
0.8178309293
 40
0.8478632108
 40
0.8764333938
 40
0.9035995289
 40
0.9294691162
 40
0.9541461126
 40
0.9776421533
 40
1.0
 40
1.0
 40
1.0
 40
1.0
 10
9.8877011489
 20
11.1584539017
 30
0.0
 10
9.8942197603
 20
11.1518900765
 30
0.0
 10
9.9055296895
 20
11.1430333062
 30
0.0
 10
9.9222183177
 20
11.1330165952
 30
0.0
 10
9.9362373876
 20
11.1259171862
 30
0.0
 10
9.9513914031
 20
11.119405242
 30
0.0
 10
9.9676653158
 20
11.1134375352
 30
0.0
 10
9.9850198196
 20
11.1079784101
 30
0.0
 10
10.0100115354
 20
11.1012544443
 30
0.0
 10
10.0434416742
 20
11.0943215069
 30
0.0
 10
10.0857098613
 20
11.0883878796
 30
0.0
 10
10.1299880101
 20
11.0847784909
 30
0.0
 10
10.1752952941
 20
11.0835670485
 30
0.0
 10
10.2206024979
 20
11.0847786001
 30
0.0
 10
10.264880334
 20
11.0883883383
 30
0.0
 10
10.3071480142
 20
11.0943220336
 30
0.0
 10
10.3405777387
 20
11.1012548002
 30
0.0
 10
10.3655691416
 20
11.107978994
 30
0.0
 10
10.3829234387
 20
11.1134385827
 30
0.0
 10
10.3991965967
 20
11.1194059078
 30
0.0
 10
10.4143509171
 20
11.1259177539
 30
0.0
 10
10.4283661694
 20
11.133014939
 30
0.0
 10
10.4412034029
 20
11.1407206736
 30
0.0
 10
10.4527668231
 20
11.1490759268
 30
0.0
 10
10.459703148
 20
11.1552492563
 30
0.0
 10
10.4628856506
 20
11.158453822
 30
0.0
  0
SPLINE
  5
310
100
AcDbEntity
  8
0
100
AcDbSpline
 62
9
  6
CONTINUOUS
 70
0
 71
3
 72
9
 73
5
 74
0
 42
0.0000001
 43
0.0000001
 44
0.0000000001
 40
0.0
 40
0.0
 40
0.0
 40
0.0
 40
0.2581092269
 40
1.0
 40
1.0
 40
1.0
 40
1.0
 10
10.4629041311
 20
11.158472443
 30
0.0
 10
10.4634413873
 20
11.1590133687
 30
0.0
 10
10.4654943497
 20
11.1611370659
 30
0.0
 10
10.4674293883
 20
11.1633761885
 30
0.0
 10
10.4687772666
 20
11.165104
 30
0.0
  0
SPLINE
  5
311
100
AcDbEntity
  8
0
100
AcDbSpline
 62
9
  6
CONTINUOUS
 70
0
 71
3
 72
9
 73
5
 74
0
 42
0.0000001
 43
0.0000001
 44
0.0000000001
 40
0.0
 40
0.0
 40
0.0
 40
0.0
 40
0.256663729
 40
1.0
 40
1.0
 40
1.0
 40
1.0
 10
10.4687772666
 20
11.165104
 30
0.0
 10
10.4691511384
 20
11.1655832568
 30
0.0
 10
10.470581616
 20
11.1674706817
 30
0.0
 10
10.4719037636
 20
11.1694410558
 30
0.0
 10
10.4728105439
 20
11.1709499365
 30
0.0
  0
SPLINE
  5
312
100
AcDbEntity
  8
0
100
AcDbSpline
 62
9
  6
CONTINUOUS
 70
0
 71
3
 72
10
 73
6
 74
0
 42
0.0000001
 43
0.0000001
 44
0.0000000001
 40
0.0
 40
0.0
 40
0.0
 40
0.0
 40
0.5172306664
 40
0.7610448794
 40
1.0
 40
1.0
 40
1.0
 40
1.0
 10
10.4728105439
 20
11.1709499365
 30
0.0
 10
10.4747712322
 20
11.1742125183
 30
0.0
 10
10.4771540857
 20
11.1793700845
 30
0.0
 10
10.4787747855
 20
11.1865684751
 30
0.0
 10
10.4790433822
 20
11.1901272526
 30
0.0
 10
10.4790433822
 20
11.1918857728
 30
0.0
  0
SPLINE
  5
313
100
AcDbEntity
  8
0
100
AcDbSpline
 62
9
  6
CONTINUOUS
 70
0
 71
3
 72
11
 73
7
 74
0
 42
0.0000001
 43
0.0000001
 44
0.0000000001
 40
0.0
 40
0.0
 40
0.0
 40
0.0
 40
0.2190963018
 40
0.4548973918
 40
0.7137436789
 40
1.0
 40
1.0
 40
1.0
 40
1.0
 10
9.8307699156
 20
11.5669638484
 30
0.0
 10
9.8314014216
 20
11.5701329623
 30
0.0
 10
9.8334741132
 20
11.5765770606
 30
0.0
 10
9.838648093
 20
11.5858081847
 30
0.0
 10
9.8459004127
 20
11.5948113448
 30
0.0
 10
9.8517631518
 20
11.600346192
 30
0.0
 10
9.8549814513
 20
11.603078856
 30
0.0
  0
SPLINE
  5
314
100
AcDbEntity
  8
0
100
AcDbSpline
 62
9
  6
CONTINUOUS
 70
0
 71
3
 72
31
 73
27
 74
0
 42
0.0000001
 43
0.0000001
 44
0.0000000001
 40
0.0
 40
0.0
 40
0.0
 40
0.0
 40
0.020341477
 40
0.0424722377
 40
0.0663936769
 40
0.0920779915
 40
0.1194623183
 40
0.1484670195
 40
0.1789967198
 40
0.2109336597
 40
0.2785082354
 40
0.3500640824
 40
0.4243422456
 40
0.5
 40
0.5756577544
 40
0.6499359176
 40
0.7214917646
 40
0.7890663403
 40
0.8210032802
 40
0.8515329805
 40
0.8805376817
 40
0.9079220085
 40
0.9336063231
 40
0.9575277623
 40
0.979658523
 40
1.0
 40
1.0
 40
1.0
 40
1.0
 10
9.8598257491
 20
11.6069876499
 30
0.0
 10
9.8633486544
 20
11.6096935237
 30
0.0
 10
9.870981314
 20
11.6149870978
 30
0.0
 10
9.8835108314
 20
11.6223052024
 30
0.0
 10
9.8975406295
 20
11.6292979778
 30
0.0
 10
9.9130007447
 20
11.6359256295
 30
0.0
 10
9.929811669
 20
11.6421597383
 30
0.0
 10
9.9478886064
 20
11.6479666077
 30
0.0
 10
9.9671399557
 20
11.653314106
 30
0.0
 10
9.9947634772
 20
11.6599237942
 30
0.0
 10
10.0315147056
 20
11.6667738892
 30
0.0
 10
10.0777663899
 20
11.6726690468
 30
0.0
 10
10.1260236042
 20
11.6762557506
 30
0.0
 10
10.1752934394
 20
11.6774594039
 30
0.0
 10
10.2245632746
 20
11.6762557506
 30
0.0
 10
10.2728204888
 20
11.6726690468
 30
0.0
 10
10.3190721732
 20
11.6667738892
 30
0.0
 10
10.3558234015
 20
11.6599237942
 30
0.0
 10
10.383446923
 20
11.653314106
 30
0.0
 10
10.4026982723
 20
11.6479666077
 30
0.0
 10
10.4207752097
 20
11.6421597383
 30
0.0
 10
10.437586134
 20
11.6359256295
 30
0.0
 10
10.4530462492
 20
11.6292979778
 30
0.0
 10
10.4670760473
 20
11.6223052024
 30
0.0
 10
10.4796055647
 20
11.6149870978
 30
0.0
 10
10.4872382243
 20
11.6096935237
 30
0.0
 10
10.4907611297
 20
11.6069876499
 30
0.0
  0
SPLINE
  5
315
100
AcDbEntity
  8
0
100
AcDbSpline
 62
9
  6
CONTINUOUS
 70
0
 71
3
 72
11
 73
7
 74
0
 42
0.0000001
 43
0.0000001
 44
0.0000000001
 40
0.0
 40
0.0
 40
0.0
 40
0.0
 40
0.2862563211
 40
0.5451026082
 40
0.7809036982
 40
1.0
 40
1.0
 40
1.0
 40
1.0
 10
10.4956054274
 20
11.603078856
 30
0.0
 10
10.4988237269
 20
11.600346192
 30
0.0
 10
10.504686466
 20
11.5948113448
 30
0.0
 10
10.5119387857
 20
11.5858081847
 30
0.0
 10
10.5171127655
 20
11.5765770606
 30
0.0
 10
10.5191854571
 20
11.5701329623
 30
0.0
 10
10.5198169631
 20
11.5669638484
 30
0.0
  0
SPLINE
  5
316
100
AcDbEntity
  8
0
100
AcDbSpline
 62
9
  6
CONTINUOUS
 70
0
 71
3
 72
9
 73
5
 74
0
 42
0.0000001
 43
0.0000001
 44
0.0000000001
 40
0.0
 40
0.0
 40
0.0
 40
0.0
 40
0.4850969834
 40
1.0
 40
1.0
 40
1.0
 40
1.0
 10
9.8304913893
 20
11.5655148696
 30
0.0
 10
9.8310034088
 20
11.5682641917
 30
0.0
 10
9.8326279905
 20
11.5738360668
 30
0.0
 10
9.8352099176
 20
11.5790228842
 30
0.0
 10
9.8367263645
 20
11.5815747348
 30
0.0
  0
SPLINE
  5
317
100
AcDbEntity
  8
0
100
AcDbSpline
 62
9
  6
CONTINUOUS
 70
0
 71
3
 72
9
 73
5
 74
0
 42
0.0000001
 43
0.0000001
 44
0.0000000001
 40
0.0
 40
0.0
 40
0.0
 40
0.0
 40
0.471610165
 40
1.0
 40
1.0
 40
1.0
 40
1.0
 10
9.8373434449
 20
11.5825902152
 30
0.0
 10
9.8395966891
 20
11.5862179027
 30
0.0
 10
9.8451768507
 20
11.5934201678
 30
0.0
 10
9.8517924381
 20
11.59964664
 30
0.0
 10
9.8554613895
 20
11.6027177515
 30
0.0
  0
SPLINE
  5
318
100
AcDbEntity
  8
0
100
AcDbSpline
 62
9
  6
CONTINUOUS
 70
0
 71
3
 72
31
 73
27
 74
0
 42
0.0000001
 43
0.0000001
 44
0.0000000001
 40
0.0
 40
0.0
 40
0.0
 40
0.0
 40
0.0203413646
 40
0.0424721641
 40
0.0663936686
 40
0.0920780035
 40
0.1194623213
 40
0.1484670101
 40
0.1789967077
 40
0.2109336506
 40
0.2785082311
 40
0.3500640787
 40
0.4243422437
 40
0.5
 40
0.5756577563
 40
0.6499359213
 40
0.7214917689
 40
0.7890663494
 40
0.8210032923
 40
0.8515329899
 40
0.8805376787
 40
0.9079219965
 40
0.9336063314
 40
0.9575278359
 40
0.9796586354
 40
1.0
 40
1.0
 40
1.0
 40
1.0
 10
9.8596634852
 20
11.606084954
 30
0.0
 10
9.8631882131
 20
11.6087921655
 30
0.0
 10
9.8708248065
 20
11.6140884164
 30
0.0
 10
9.8833607434
 20
11.6214103216
 30
0.0
 10
9.8973977515
 20
11.6284067679
 30
0.0
 10
9.9128658295
 20
11.6350378477
 30
0.0
 10
9.9296854053
 20
11.641275149
 30
0.0
 10
9.9477716412
 20
11.6470849849
 30
0.0
 10
9.9670328901
 20
11.6524352302
 30
0.0
 10
9.9946706189
 20
11.6590483249
 30
0.0
 10
10.0314407508
 20
11.6659019486
 30
0.0
 10
10.0777162263
 20
11.6718001333
 30
0.0
 10
10.1259982617
 20
11.6753886833
 30
0.0
 10
10.1752934394
 20
11.6765929562
 30
0.0
 10
10.224588617
 20
11.6753886833
 30
0.0
 10
10.2728706524
 20
11.6718001333
 30
0.0
 10
10.319146128
 20
11.6659019486
 30
0.0
 10
10.3559162598
 20
11.6590483249
 30
0.0
 10
10.3835539886
 20
11.6524352302
 30
0.0
 10
10.4028152376
 20
11.6470849849
 30
0.0
 10
10.4209014734
 20
11.641275149
 30
0.0
 10
10.4377210492
 20
11.6350378477
 30
0.0
 10
10.4531891272
 20
11.6284067679
 30
0.0
 10
10.4672261353
 20
11.6214103216
 30
0.0
 10
10.4797620722
 20
11.6140884164
 30
0.0
 10
10.4873986656
 20
11.6087921655
 30
0.0
 10
10.4909233935
 20
11.606084954
 30
0.0
  0
SPLINE
  5
319
100
AcDbEntity
  8
0
100
AcDbSpline
 62
9
  6
CONTINUOUS
 70
0
 71
3
 72
9
 73
5
 74
0
 42
0.0000001
 43
0.0000001
 44
0.0000000001
 40
0.0
 40
0.0
 40
0.0
 40
0.0
 40
0.528389835
 40
1.0
 40
1.0
 40
1.0
 40
1.0
 10
10.4951254892
 20
11.6027177515
 30
0.0
 10
10.4987944406
 20
11.59964664
 30
0.0
 10
10.505410028
 20
11.5934201678
 30
0.0
 10
10.5109901896
 20
11.5862179027
 30
0.0
 10
10.5132434338
 20
11.5825902152
 30
0.0
  0
SPLINE
  5
31A
100
AcDbEntity
  8
0
100
AcDbSpline
 62
9
  6
CONTINUOUS
 70
0
 71
3
 72
9
 73
5
 74
0
 42
0.0000001
 43
0.0000001
 44
0.0000000001
 40
0.0
 40
0.0
 40
0.0
 40
0.0
 40
0.5150839505
 40
1.0
 40
1.0
 40
1.0
 40
1.0
 10
10.5137760622
 20
11.5817164037
 30
0.0
 10
10.5153145809
 20
11.5791435926
 30
0.0
 10
10.5179334793
 20
11.5739131425
 30
0.0
 10
10.5195788513
 20
11.568289082
 30
0.0
 10
10.5200955351
 20
11.5655146246
 30
0.0
  0
SPLINE
  5
31B
100
AcDbEntity
  8
0
100
AcDbSpline
 62
9
  6
CONTINUOUS
 70
0
 71
3
 72
9
 73
5
 74
0
 42
0.0000001
 43
0.0000001
 44
0.0000000001
 40
0.0
 40
0.0
 40
0.0
 40
0.0
 40
0.4713516882
 40
1.0
 40
1.0
 40
1.0
 40
1.0
 10
9.8512890591
 20
11.607543502
 30
0.0
 10
9.8543138239
 20
11.6110684447
 30
0.0
 10
9.8613807619
 20
11.6179959455
 30
0.0
 10
9.8692653799
 20
11.6239437237
 30
0.0
 10
9.8735721694
 20
11.626874572
 30
0.0
  0
SPLINE
  5
31C
100
AcDbEntity
  8
0
100
AcDbSpline
 62
9
  6
CONTINUOUS
 70
0
 71
3
 72
29
 73
25
 74
0
 42
0.0000001
 43
0.0000001
 44
0.0000000001
 40
0.0
 40
0.0
 40
0.0
 40
0.0
 40
0.0211451453
 40
0.0439859751
 40
0.0685054492
 40
0.0946654961
 40
0.1223983109
 40
0.1516215321
 40
0.2141472764
 40
0.2813445305
 40
0.352168315
 40
0.4254625445
 40
0.5000089274
 40
0.5745549827
 40
0.6478482337
 40
0.71867042
 40
0.7858654944
 40
0.8483885435
 40
0.877610253
 40
0.9053414658
 40
0.9314998294
 40
0.9560175646
 40
0.9788566278
 40
1.0
 40
1.0
 40
1.0
 40
1.0
 10
9.8735721694
 20
11.626874572
 30
0.0
 10
9.8772080684
 20
11.629348867
 30
0.0
 10
9.8849865475
 20
11.6341835359
 30
0.0
 10
9.8975752026
 20
11.6408754335
 30
0.0
 10
9.9114800846
 20
11.6472566368
 30
0.0
 10
9.9266374941
 20
11.6532925675
 30
0.0
 10
9.9429750429
 20
11.6589595544
 30
0.0
 10
9.9667689666
 20
11.6661491786
 30
0.0
 10
9.9989279183
 20
11.6739310646
 30
0.0
 10
10.0400165106
 20
11.6812367596
 30
0.0
 10
10.0836649323
 20
11.6865569567
 30
0.0
 10
10.1290473181
 20
11.6897908627
 30
0.0
 10
10.1753055624
 20
11.6908773578
 30
0.0
 10
10.2215635768
 20
11.6897897314
 30
0.0
 10
10.2669452783
 20
11.6865547121
 30
0.0
 10
10.3105925753
 20
11.6812334523
 30
0.0
 10
10.3516796235
 20
11.673926753
 30
0.0
 10
10.3838370185
 20
11.6661440658
 30
0.0
 10
10.4076294976
 20
11.6589538344
 30
0.0
 10
10.4239658528
 20
11.6532864486
 30
0.0
 10
10.43912199
 20
11.6472501438
 30
0.0
 10
10.4530255285
 20
11.6408685966
 30
0.0
 10
10.4656127787
 20
11.6341763912
 30
0.0
 10
10.473390266
 20
11.6293415164
 30
0.0
 10
10.4770256526
 20
11.6268671241
 30
0.0
  0
SPLINE
  5
31D
100
AcDbEntity
  8
0
100
AcDbSpline
 62
9
  6
CONTINUOUS
 70
0
 71
3
 72
9
 73
5
 74
0
 42
0.0000001
 43
0.0000001
 44
0.0000000001
 40
0.0
 40
0.0
 40
0.0
 40
0.0
 40
0.5286390878
 40
1.0
 40
1.0
 40
1.0
 40
1.0
 10
10.4770256526
 20
11.6268671241
 30
0.0
 10
10.4813304349
 20
11.6239371139
 30
0.0
 10
10.4892115003
 20
11.6179910609
 30
0.0
 10
10.4962753215
 20
11.6110659498
 30
0.0
 10
10.4992988885
 20
11.6075422564
 30
0.0
  0
LINE
  5
31E
100
AcDbEntity
  8
0
100
AcDbLine
 62
9
  6
CONTINUOUS
 10
10.4863675049
 20
11.4699114154
 11
10.4905525028
 21
11.4755059146
  0
SPLINE
  5
31F
100
AcDbEntity
  8
0
100
AcDbSpline
 62
9
  6
CONTINUOUS
 70
0
 71
3
 72
10
 73
6
 74
0
 42
0.0000001
 43
0.0000001
 44
0.0000000001
 40
0.0
 40
0.0
 40
0.0
 40
0.0
 40
0.5171089707
 40
0.7609741196
 40
1.0
 40
1.0
 40
1.0
 40
1.0
 10
10.492091676
 20
11.477940194
 30
0.0
 10
10.4941590137
 20
11.4813982723
 30
0.0
 10
10.4966701638
 20
11.4868626365
 30
0.0
 10
10.4983775386
 20
11.4944853117
 30
0.0
 10
10.4986602406
 20
11.4982539479
 30
0.0
 10
10.4986599769
 20
11.5001162555
 30
0.0
  0
SPLINE
  5
320
100
AcDbEntity
  8
0
100
AcDbSpline
 62
9
  6
CONTINUOUS
 70
0
 71
3
 72
41
 73
37
 74
0
 42
0.0000001
 43
0.0000001
 44
0.0000000001
 40
0.0
 40
0.0
 40
0.0
 40
0.0
 40
0.007514564
 40
0.0151727524
 40
0.0313652268
 40
0.0494192531
 40
0.0698721894
 40
0.0930275728
 40
0.1190072595
 40
0.1330575371
 40
0.1478021441
 40
0.1793067705
 40
0.2133513956
 40
0.249720846
 40
0.2881481518
 40
0.3283389317
 40
0.3699711199
 40
0.4127000896
 40
0.5
 40
0.5872999104
 40
0.6300288801
 40
0.6716610683
 40
0.7118518482
 40
0.750279154
 40
0.7866486044
 40
0.8206932295
 40
0.8521978559
 40
0.8669424629
 40
0.8809927405
 40
0.9069724272
 40
0.9301278106
 40
0.9505807469
 40
0.9686347732
 40
0.9848272476
 40
0.992485436
 40
1.0
 40
1.0
 40
1.0
 40
1.0
 10
9.8918660506
 20
11.3355342416
 30
0.0
 10
9.8918660506
 20
11.337121665
 30
0.0
 10
9.8921002281
 20
11.3403315896
 30
0.0
 10
9.8935140312
 20
11.3468238246
 30
0.0
 10
9.8971634708
 20
11.3550005284
 30
0.0
 10
9.9041495118
 20
11.3642936459
 30
0.0
 10
9.9136894748
 20
11.3732368044
 30
0.0
 10
9.9256913225
 20
11.3817830881
 30
0.0
 10
9.9373366926
 20
11.3883481127
 30
0.0
 10
9.9477511606
 20
11.3933951966
 30
0.0
 10
9.9594251809
 20
11.3984993481
 30
0.0
 10
9.9753240333
 20
11.4044473983
 30
0.0
 10
9.9959103786
 20
11.4107865774
 30
0.0
 10
10.0182145522
 20
11.4164074819
 30
0.0
 10
10.0420228332
 20
11.4212625376
 30
0.0
 10
10.0671091892
 20
11.4252996372
 30
0.0
 10
10.0932334751
 20
11.4284816
 30
0.0
 10
10.1293715844
 20
11.4315635444
 30
0.0
 10
10.1752934394
 20
11.4330821236
 30
0.0
 10
10.2212152943
 20
11.4315635444
 30
0.0
 10
10.2573534036
 20
11.4284816
 30
0.0
 10
10.2834776896
 20
11.4252996372
 30
0.0
 10
10.3085640455
 20
11.4212625376
 30
0.0
 10
10.3323723265
 20
11.4164074819
 30
0.0
 10
10.3546765001
 20
11.4107865774
 30
0.0
 10
10.3752628455
 20
11.4044473983
 30
0.0
 10
10.3911616978
 20
11.3984993481
 30
0.0
 10
10.4028357181
 20
11.3933951966
 30
0.0
 10
10.4132501861
 20
11.3883481127
 30
0.0
 10
10.4248955562
 20
11.3817830881
 30
0.0
 10
10.436897404
 20
11.3732368044
 30
0.0
 10
10.4464373669
 20
11.3642936459
 30
0.0
 10
10.4534234079
 20
11.3550005284
 30
0.0
 10
10.4570728475
 20
11.3468238246
 30
0.0
 10
10.4584866506
 20
11.3403315896
 30
0.0
 10
10.4587208281
 20
11.337121665
 30
0.0
 10
10.4587208281
 20
11.3355342416
 30
0.0
  0
SPLINE
  5
321
100
AcDbEntity
  8
0
100
AcDbSpline
 62
9
  6
CONTINUOUS
 70
0
 71
3
 72
22
 73
18
 74
0
 42
0.0000001
 43
0.0000001
 44
0.0000000001
 40
0.0
 40
0.0
 40
0.0
 40
0.0
 40
0.174574326
 40
0.3433238347
 40
0.423692202
 40
0.5005419659
 40
0.5732891023
 40
0.6413852502
 40
0.7043923075
 40
0.7619783631
 40
0.8139321788
 40
0.8602532207
 40
0.9011605584
 40
0.9372589681
 40
0.9696311922
 40
0.9849499063
 40
1.0
 40
1.0
 40
1.0
 40
1.0
 10
10.1752934394
 20
12.325108383
 30
0.0
 10
10.1590296872
 20
12.325108383
 30
0.0
 10
10.127035377
 20
12.3240468588
 30
0.0
 10
10.0877295779
 20
12.3200462315
 30
0.0
 10
10.0577399778
 20
12.3152212883
 30
0.0
 10
10.0367414644
 20
12.3109376929
 30
0.0
 10
10.0170678436
 20
12.3059800444
 30
0.0
 10
9.9989078712
 20
12.3003899261
 30
0.0
 10
9.9824336431
 20
12.2942227799
 30
0.0
 10
9.9677958868
 20
12.287540889
 30
0.0
 10
9.9551303896
 20
12.2803962755
 30
0.0
 10
9.9445427062
 20
12.2728594071
 30
0.0
 10
9.9361290665
 20
12.2649696283
 30
0.0
 10
9.9299695951
 20
12.2567746884
 30
0.0
 10
9.9267433401
 20
12.24956743
 30
0.0
 10
9.9255005428
 20
12.243838845
 30
0.0
 10
9.9252957095
 20
12.241005449
 30
0.0
 10
9.9252957095
 20
12.2396033471
 30
0.0
  0
SPLINE
  5
322
100
AcDbEntity
  8
0
100
AcDbSpline
 62
9
  6
CONTINUOUS
 70
0
 71
3
 72
41
 73
37
 74
0
 42
0.0000001
 43
0.0000001
 44
0.0000000001
 40
0.0
 40
0.0
 40
0.0
 40
0.0
 40
0.0075145395
 40
0.015172657
 40
0.0313649236
 40
0.049418831
 40
0.0698717237
 40
0.093027144
 40
0.1190068198
 40
0.1330570921
 40
0.1478017136
 40
0.1793063522
 40
0.2133509917
 40
0.2497204852
 40
0.2881478265
 40
0.3283386641
 40
0.3699709099
 40
0.4126999454
 40
0.5
 40
0.5873000546
 40
0.6300290901
 40
0.6716613359
 40
0.7118521735
 40
0.7502795148
 40
0.7866490083
 40
0.8206936478
 40
0.8521982864
 40
0.8669429079
 40
0.8809931802
 40
0.906972856
 40
0.9301282763
 40
0.950581169
 40
0.9686350764
 40
0.984827343
 40
0.9924854605
 40
1.0
 40
1.0
 40
1.0
 40
1.0
 10
9.9052934398
 20
11.1805697635
 30
0.0
 10
9.9052934398
 20
11.1790575492
 30
0.0
 10
9.9055165069
 20
11.1759997142
 30
0.0
 10
9.9068632656
 20
11.1698150973
 30
0.0
 10
9.9103397584
 20
11.1620258205
 30
0.0
 10
9.9169948422
 20
11.1531730668
 30
0.0
 10
9.9260827563
 20
11.1446535355
 30
0.0
 10
9.9375160062
 20
11.1365121163
 30
0.0
 10
9.9486096589
 20
11.1302580729
 30
0.0
 10
9.9585307349
 20
11.1254500808
 30
0.0
 10
9.9696517042
 20
11.1205877414
 30
0.0
 10
9.9847973481
 20
11.1149214576
 30
0.0
 10
10.0044084231
 20
11.108882574
 30
0.0
 10
10.0256559535
 20
11.1035279524
 30
0.0
 10
10.0483363399
 20
11.0989028806
 30
0.0
 10
10.0722342599
 20
11.0950570364
 30
0.0
 10
10.0971209422
 20
11.0920258027
 30
0.0
 10
10.1315470618
 20
11.08908986
 30
0.0
 10
10.1752934394
 20
11.0876432146
 30
0.0
 10
10.219039817
 20
11.08908986
 30
0.0
 10
10.2534659365
 20
11.0920258027
 30
0.0
 10
10.2783526188
 20
11.0950570364
 30
0.0
 10
10.3022505388
 20
11.0989028806
 30
0.0
 10
10.3249309252
 20
11.1035279524
 30
0.0
 10
10.3461784556
 20
11.108882574
 30
0.0
 10
10.3657895307
 20
11.1149214576
 30
0.0
 10
10.3809351745
 20
11.1205877414
 30
0.0
 10
10.3920561438
 20
11.1254500808
 30
0.0
 10
10.4019772198
 20
11.1302580729
 30
0.0
 10
10.4130708725
 20
11.1365121163
 30
0.0
 10
10.4245041225
 20
11.1446535355
 30
0.0
 10
10.4335920365
 20
11.1531730668
 30
0.0
 10
10.4402471203
 20
11.1620258205
 30
0.0
 10
10.4437236131
 20
11.1698150973
 30
0.0
 10
10.4450703718
 20
11.1759997142
 30
0.0
 10
10.4452934389
 20
11.1790575492
 30
0.0
 10
10.4452934389
 20
11.1805697635
 30
0.0
  0
SPLINE
  5
323
100
AcDbEntity
  8
0
100
AcDbSpline
 62
9
  6
CONTINUOUS
 70
0
 71
3
 72
10
 73
6
 74
0
 42
0.0000001
 43
0.0000001
 44
0.0000000001
 40
0.0
 40
0.0
 40
0.0
 40
0.0
 40
0.2381197604
 40
0.481472624
 40
1.0
 40
1.0
 40
1.0
 40
1.0
 10
9.8899742918
 20
11.1819609099
 30
0.0
 10
9.8899742918
 20
11.1802390994
 30
0.0
 10
9.89024884
 20
11.1767513412
 30
0.0
 10
9.8919066063
 20
11.1696917666
 30
0.0
 10
9.8943386094
 20
11.1646547203
 30
0.0
 10
9.8963306738
 20
11.1614782964
 30
0.0
  0
SPLINE
  5
324
100
AcDbEntity
  8
0
100
AcDbSpline
 62
9
  6
CONTINUOUS
 70
0
 71
3
 72
17
 73
13
 74
0
 42
0.0000001
 43
0.0000001
 44
0.0000000001
 40
0.0
 40
0.0
 40
0.0
 40
0.0
 40
0.0803514348
 40
0.1250852221
 40
0.1730874503
 40
0.2244735082
 40
0.2792816229
 40
0.3990727068
 40
0.5320938335
 40
0.6774335445
 40
0.8338997479
 40
1.0
 40
1.0
 40
1.0
 40
1.0
 10
9.8971278386
 20
11.1602462278
 30
0.0
 10
9.8996502755
 20
11.1564642223
 30
0.0
 10
9.9043257631
 20
11.151064269
 30
0.0
 10
9.9116295769
 20
11.144537669
 30
0.0
 10
9.918117564
 20
11.1395838474
 30
0.0
 10
9.9253963544
 20
11.1347654549
 30
0.0
 10
9.9364593405
 20
11.1283437156
 30
0.0
 10
9.9521820064
 20
11.1208147696
 30
0.0
 10
9.9732461295
 20
11.1127785818
 30
0.0
 10
9.9967866654
 20
11.1055769704
 30
0.0
 10
10.0225190222
 20
11.0993088692
 30
0.0
 10
10.040453775
 20
11.09588889
 30
0.0
 10
10.0497218321
 20
11.0943351297
 30
0.0
  0
SPLINE
  5
325
100
AcDbEntity
  8
0
100
AcDbSpline
 62
9
  6
CONTINUOUS
 70
0
 71
3
 72
17
 73
13
 74
0
 42
0.0000001
 43
0.0000001
 44
0.0000000001
 40
0.0
 40
0.0
 40
0.0
 40
0.0
 40
0.1661007108
 40
0.3225677641
 40
0.4679084043
 40
0.6009302686
 40
0.7207216478
 40
0.7755296804
 40
0.8269154824
 40
0.874917263
 40
0.9196504052
 40
1.0
 40
1.0
 40
1.0
 40
1.0
 10
10.3008472067
 20
11.0943321392
 30
0.0
 10
10.3101163215
 20
11.095885802
 30
0.0
 10
10.3280531539
 20
11.0993056543
 30
0.0
 10
10.3537885483
 20
11.1055737416
 30
0.0
 10
10.3773319236
 20
11.1127755232
 30
0.0
 10
10.3983986082
 20
11.1208120465
 30
0.0
 10
10.414123192
 20
11.1283414136
 30
0.0
 10
10.4251875083
 20
11.1347635714
 30
0.0
 10
10.4324671452
 20
11.1395822894
 30
0.0
 10
10.4389558629
 20
11.1445364625
 30
0.0
 10
10.4462604391
 20
11.1510635255
 30
0.0
 10
10.4509363923
 20
11.1564639061
 30
0.0
 10
10.4534590402
 20
11.1602462278
 30
0.0
  0
SPLINE
  5
326
100
AcDbEntity
  8
0
100
AcDbSpline
 62
9
  6
CONTINUOUS
 70
0
 71
3
 72
10
 73
6
 74
0
 42
0.0000001
 43
0.0000001
 44
0.0000000001
 40
0.0
 40
0.0
 40
0.0
 40
0.0
 40
0.5186747479
 40
0.7619752391
 40
1.0
 40
1.0
 40
1.0
 40
1.0
 10
10.4541986656
 20
11.1613867624
 30
0.0
 10
10.4562079141
 20
11.16457562
 30
0.0
 10
10.4586621399
 20
11.1696341399
 30
0.0
 10
10.4603354813
 20
11.1767272091
 30
0.0
 10
10.4606125869
 20
11.1802312478
 30
0.0
 10
10.4606125869
 20
11.1819609099
 30
0.0
  0
SPLINE
  5
327
100
AcDbEntity
  8
0
100
AcDbSpline
 62
9
  6
CONTINUOUS
 70
0
 71
3
 72
10
 73
6
 74
0
 42
0.0000001
 43
0.0000001
 44
0.0000000001
 40
0.0
 40
0.0
 40
0.0
 40
0.0
 40
0.2366673351
 40
0.4796812478
 40
1.0
 40
1.0
 40
1.0
 40
1.0
 10
9.8913826035
 20
11.3122975403
 30
0.0
 10
9.8914542289
 20
11.3140052974
 30
0.0
 10
9.891870357
 20
11.317461168
 30
0.0
 10
9.8937944502
 20
11.3244428659
 30
0.0
 10
9.8963874417
 20
11.3293976967
 30
0.0
 10
9.8984725487
 20
11.3325239933
 30
0.0
  0
SPLINE
  5
328
100
AcDbEntity
  8
0
100
AcDbSpline
 62
9
  6
CONTINUOUS
 70
0
 71
3
 72
33
 73
29
 74
0
 42
0.0000001
 43
0.0000001
 44
0.0000000001
 40
0.0
 40
0.0
 40
0.0
 40
0.0
 40
0.017130013
 40
0.0362065202
 40
0.0574256079
 40
0.0808785968
 40
0.1065680892
 40
0.1344504929
 40
0.1644308133
 40
0.1963778697
 40
0.2301402339
 40
0.2655329821
 40
0.3403891025
 40
0.4191884453
 40
0.5
 40
0.5808115547
 40
0.6596108975
 40
0.7344670179
 40
0.7698597661
 40
0.8036221303
 40
0.8355691867
 40
0.8655495071
 40
0.8934319108
 40
0.9191214032
 40
0.9425743921
 40
0.9637934798
 40
0.982869987
 40
1.0
 40
1.0
 40
1.0
 40
1.0
 10
9.8984725487
 20
11.3325239933
 30
0.0
 10
9.9003380262
 20
11.3353209894
 30
0.0
 10
9.9048421946
 20
11.3408655429
 30
0.0
 10
9.9131489812
 20
11.3485236423
 30
0.0
 10
9.9232824293
 20
11.3559018577
 30
0.0
 10
9.9351739812
 20
11.3629546093
 30
0.0
 10
9.948744286
 20
11.3696450961
 30
0.0
 10
9.9639049568
 20
11.3759210648
 30
0.0
 10
9.9805508742
 20
11.3817424493
 30
0.0
 10
9.998566793
 20
11.3870701411
 30
0.0
 10
10.0178283682
 20
11.3918616548
 30
0.0
 10
10.0455094835
 20
11.3976033798
 30
0.0
 10
10.0822295328
 20
11.4031390131
 30
0.0
 10
10.1280998696
 20
11.4071345664
 30
0.0
 10
10.1752934394
 20
11.4084794968
 30
0.0
 10
10.2224870091
 20
11.4071345664
 30
0.0
 10
10.2683573459
 20
11.4031390131
 30
0.0
 10
10.3050773952
 20
11.3976033798
 30
0.0
 10
10.3327585105
 20
11.3918616548
 30
0.0
 10
10.3520200858
 20
11.3870701411
 30
0.0
 10
10.3700360045
 20
11.3817424493
 30
0.0
 10
10.3866819219
 20
11.3759210648
 30
0.0
 10
10.4018425927
 20
11.3696450961
 30
0.0
 10
10.4154128975
 20
11.3629546093
 30
0.0
 10
10.4273044495
 20
11.3559018577
 30
0.0
 10
10.4374378975
 20
11.3485236423
 30
0.0
 10
10.4457446841
 20
11.3408655429
 30
0.0
 10
10.4502488525
 20
11.3353209894
 30
0.0
 10
10.4521143301
 20
11.3325239933
 30
0.0
  0
SPLINE
  5
329
100
AcDbEntity
  8
0
100
AcDbSpline
 62
9
  6
CONTINUOUS
 70
0
 71
3
 72
10
 73
6
 74
0
 42
0.0000001
 43
0.0000001
 44
0.0000000001
 40
0.0
 40
0.0
 40
0.0
 40
0.0
 40
0.5203187522
 40
0.7633326649
 40
1.0
 40
1.0
 40
1.0
 40
1.0
 10
10.4521143301
 20
11.3325239933
 30
0.0
 10
10.454199437
 20
11.3293976967
 30
0.0
 10
10.4567924285
 20
11.3244428659
 30
0.0
 10
10.4587165217
 20
11.317461168
 30
0.0
 10
10.4591326498
 20
11.3140052974
 30
0.0
 10
10.4592042753
 20
11.3122975403
 30
0.0
  0
SPLINE
  5
32A
100
AcDbEntity
  8
0
100
AcDbSpline
 62
9
  6
CONTINUOUS
 70
0
 71
3
 72
10
 73
6
 74
0
 42
0.0000001
 43
0.0000001
 44
0.0000000001
 40
0.0
 40
0.0
 40
0.0
 40
0.0
 40
0.2390305054
 40
0.4828982101
 40
1.0
 40
1.0
 40
1.0
 40
1.0
 10
9.8519269019
 20
11.5001162555
 30
0.0
 10
9.8519266382
 20
11.4982543941
 30
0.0
 10
9.8522092022
 20
11.4944866803
 30
0.0
 10
9.8539157381
 20
11.4868659002
 30
0.0
 10
9.8564256844
 20
11.4814027698
 30
0.0
 10
9.858492084
 20
11.4779454113
 30
0.0
  0
LINE
  5
32B
100
AcDbEntity
  8
0
100
AcDbLine
 62
9
  6
CONTINUOUS
 10
9.8600343759
 20
11.4755059146
 11
9.864250986
 21
11.4698733605
  0
SPLINE
  5
32C
100
AcDbEntity
  8
0
100
AcDbSpline
 62
9
  6
CONTINUOUS
 70
0
 71
3
 72
10
 73
6
 74
0
 42
0.0000001
 43
0.0000001
 44
0.0000000001
 40
0.0
 40
0.0
 40
0.0
 40
0.0
 40
0.2368178298
 40
0.4794546367
 40
1.0
 40
1.0
 40
1.0
 40
1.0
 10
9.8447755328
 20
11.5085245065
 30
0.0
 10
9.8447755328
 20
11.5064072844
 30
0.0
 10
9.8451347418
 20
11.5021122192
 30
0.0
 10
9.8473060624
 20
11.4934097198
 30
0.0
 10
9.8504800464
 20
11.4872416001
 30
0.0
 10
9.8530623068
 20
11.4833698986
 30
0.0
  0
SPLINE
  5
32D
100
AcDbEntity
  8
0
100
AcDbSpline
 62
9
  6
CONTINUOUS
 70
0
 71
3
 72
9
 73
5
 74
0
 42
0.0000001
 43
0.0000001
 44
0.0000000001
 40
0.0
 40
0.0
 40
0.0
 40
0.0
 40
0.2397260202
 40
1.0
 40
1.0
 40
1.0
 40
1.0
 10
9.8530623068
 20
11.4833698986
 30
0.0
 10
9.8536192745
 20
11.4825348113
 30
0.0
 10
9.8560272943
 20
11.4791079475
 30
0.0
 10
9.8587518906
 20
11.4759084029
 30
0.0
 10
9.8609443041
 20
11.4736002517
 30
0.0
  0
SPLINE
  5
32E
100
AcDbEntity
  8
0
100
AcDbSpline
 62
9
  6
CONTINUOUS
 70
0
 71
3
 72
10
 73
6
 74
0
 42
0.0000001
 43
0.0000001
 44
0.0000000001
 40
0.0
 40
0.0
 40
0.0
 40
0.0
 40
0.2375624014
 40
0.4806082734
 40
1.0
 40
1.0
 40
1.0
 40
1.0
 10
9.8427934392
 20
11.5107760589
 30
0.0
 10
9.8427934392
 20
11.5087161859
 30
0.0
 10
9.8431309659
 20
11.5045410042
 30
0.0
 10
9.845169956
 20
11.4960862676
 30
0.0
 10
9.8481567051
 20
11.4900707872
 30
0.0
 10
9.8505959686
 20
11.4862849958
 30
0.0
  0
SPLINE
  5
32F
100
AcDbEntity
  8
0
100
AcDbSpline
 62
9
  6
CONTINUOUS
 70
0
 71
3
 72
9
 73
5
 74
0
 42
0.0000001
 43
0.0000001
 44
0.0000000001
 40
0.0
 40
0.0
 40
0.0
 40
0.0
 40
0.2425957062
 40
1.0
 40
1.0
 40
1.0
 40
1.0
 10
9.851778712
 20
11.484516866
 30
0.0
 10
9.8521942967
 20
11.4839177124
 30
0.0
 10
9.8539493327
 20
11.4814771614
 30
0.0
 10
9.8558646064
 20
11.4791531659
 30
0.0
 10
9.8573838311
 20
11.4774576976
 30
0.0
  0
SPLINE
  5
330
100
AcDbEntity
  8
0
100
AcDbSpline
 62
9
  6
CONTINUOUS
 70
0
 71
3
 72
11
 73
7
 74
0
 42
0.0000001
 43
0.0000001
 44
0.0000000001
 40
0.0
 40
0.0
 40
0.0
 40
0.0
 40
0.2205452374
 40
0.4569953237
 40
0.7153958028
 40
1.0
 40
1.0
 40
1.0
 40
1.0
 10
9.8617407303
 20
11.2346842482
 30
0.0
 10
9.8622859282
 20
11.2374590091
 30
0.0
 10
9.8640561473
 20
11.2430960049
 30
0.0
 10
9.8684563709
 20
11.2511966009
 30
0.0
 10
9.8746191381
 20
11.2591108957
 30
0.0
 10
9.8796096392
 20
11.2639938441
 30
0.0
 10
9.882348091
 20
11.2664057639
 30
0.0
  0
SPLINE
  5
331
100
AcDbEntity
  8
0
100
AcDbSpline
 62
9
  6
CONTINUOUS
 70
0
 71
3
 72
9
 73
5
 74
0
 42
0.0000001
 43
0.0000001
 44
0.0000000001
 40
0.0
 40
0.0
 40
0.0
 40
0.0
 40
0.2408596074
 40
1.0
 40
1.0
 40
1.0
 40
1.0
 10
9.882348091
 20
11.2664057639
 30
0.0
 10
9.8831005177
 20
11.2670684716
 30
0.0
 10
9.8862645099
 20
11.26977429
 30
0.0
 10
9.8895790207
 20
11.2723022328
 30
0.0
 10
9.8921556635
 20
11.274131892
 30
0.0
  0
SPLINE
  5
332
100
AcDbEntity
  8
0
100
AcDbSpline
 62
9
  6
CONTINUOUS
 70
0
 71
3
 72
29
 73
25
 74
0
 42
0.0000001
 43
0.0000001
 44
0.0000000001
 40
0.0
 40
0.0
 40
0.0
 40
0.0
 40
0.0208566406
 40
0.0434447313
 40
0.0677514403
 40
0.0937425143
 40
0.1213530749
 40
0.1504994493
 40
0.2130018411
 40
0.2803331495
 40
0.3514173742
 40
0.4250599144
 40
0.5
 40
0.5749400856
 40
0.6485826258
 40
0.7196668505
 40
0.7869981589
 40
0.8495005507
 40
0.8786469251
 40
0.9062574857
 40
0.9322485597
 40
0.9565552687
 40
0.9791433594
 40
1.0
 40
1.0
 40
1.0
 40
1.0
 10
9.8921556635
 20
11.274131892
 30
0.0
 10
9.8954795048
 20
11.2764921328
 30
0.0
 10
9.9026209296
 20
11.2811054916
 30
0.0
 10
9.9142337933
 20
11.2874878857
 30
0.0
 10
9.9271207588
 20
11.293579235
 30
0.0
 10
9.941221444
 20
11.2993452096
 30
0.0
 10
9.9564670196
 20
11.304761452
 30
0.0
 10
9.9787441844
 20
11.3116429021
 30
0.0
 10
10.008940504
 20
11.3190932644
 30
0.0
 10
10.0476049542
 20
11.3260890791
 30
0.0
 10
10.0887588287
 20
11.3311866648
 30
0.0
 10
10.1315998192
 20
11.3342870828
 30
0.0
 10
10.1752934394
 20
11.3353291189
 30
0.0
 10
10.2189870595
 20
11.3342870828
 30
0.0
 10
10.26182805
 20
11.3311866648
 30
0.0
 10
10.3029819245
 20
11.3260890791
 30
0.0
 10
10.3416463747
 20
11.3190932644
 30
0.0
 10
10.3718426944
 20
11.3116429021
 30
0.0
 10
10.3941198591
 20
11.304761452
 30
0.0
 10
10.4093654347
 20
11.2993452096
 30
0.0
 10
10.4234661199
 20
11.293579235
 30
0.0
 10
10.4363530854
 20
11.2874878857
 30
0.0
 10
10.4479659491
 20
11.2811054916
 30
0.0
 10
10.4551073739
 20
11.2764921328
 30
0.0
 10
10.4584312153
 20
11.274131892
 30
0.0
  0
SPLINE
  5
333
100
AcDbEntity
  8
0
100
AcDbSpline
 62
9
  6
CONTINUOUS
 70
0
 71
3
 72
9
 73
5
 74
0
 42
0.0000001
 43
0.0000001
 44
0.0000000001
 40
0.0
 40
0.0
 40
0.0
 40
0.0
 40
0.2592918929
 40
1.0
 40
1.0
 40
1.0
 40
1.0
 10
10.4584312153
 20
11.274131892
 30
0.0
 10
10.4593096139
 20
11.2735081462
 30
0.0
 10
10.4626688617
 20
11.2710630541
 30
0.0
 10
10.4659110416
 20
11.2684550058
 30
0.0
 10
10.4682210083
 20
11.2664214197
 30
0.0
  0
SPLINE
  5
334
100
AcDbEntity
  8
0
100
AcDbSpline
 62
9
  6
CONTINUOUS
 70
0
 71
3
 72
11
 73
7
 74
0
 42
0.0000001
 43
0.0000001
 44
0.0000000001
 40
0.0
 40
0.0
 40
0.0
 40
0.0
 40
0.2846259686
 40
0.5430321298
 40
0.7794735377
 40
1.0
 40
1.0
 40
1.0
 40
1.0
 10
10.4682210083
 20
11.2664214197
 30
0.0
 10
10.470961906
 20
11.2640084623
 30
0.0
 10
10.4759568293
 20
11.2591233873
 30
0.0
 10
10.4821251204
 20
11.2512052528
 30
0.0
 10
10.486529115
 20
11.2431005394
 30
0.0
 10
10.488300662
 20
11.2374604776
 30
0.0
 10
10.4888461484
 20
11.2346842482
 30
0.0
  0
SPLINE
  5
335
100
AcDbEntity
  8
0
100
AcDbSpline
 62
9
  6
CONTINUOUS
 70
0
 71
3
 72
41
 73
37
 74
0
 42
0.0000001
 43
0.0000001
 44
0.0000000001
 40
0.0
 40
0.0
 40
0.0
 40
0.0
 40
0.0075145395
 40
0.015172657
 40
0.0313649236
 40
0.049418831
 40
0.0698717237
 40
0.093027144
 40
0.1190068198
 40
0.1330570921
 40
0.1478017136
 40
0.1793063522
 40
0.2133509917
 40
0.2497204852
 40
0.2881478265
 40
0.3283386641
 40
0.3699709099
 40
0.4126999454
 40
0.5
 40
0.5873000546
 40
0.6300290901
 40
0.6716613359
 40
0.7118521735
 40
0.7502795148
 40
0.7866490083
 40
0.8206936478
 40
0.8521982864
 40
0.8669429079
 40
0.8809931802
 40
0.906972856
 40
0.9301282763
 40
0.950581169
 40
0.9686350764
 40
0.984827343
 40
0.9924854605
 40
1.0
 40
1.0
 40
1.0
 40
1.0
 10
9.9052934398
 20
11.1805697635
 30
0.0
 10
9.9052934398
 20
11.1820819778
 30
0.0
 10
9.9055165069
 20
11.1851398128
 30
0.0
 10
9.9068632656
 20
11.1913244297
 30
0.0
 10
9.9103397584
 20
11.1991137065
 30
0.0
 10
9.9169948422
 20
11.2079664602
 30
0.0
 10
9.9260827563
 20
11.2164859915
 30
0.0
 10
9.9375160062
 20
11.2246274107
 30
0.0
 10
9.9486096589
 20
11.2308814541
 30
0.0
 10
9.9585307349
 20
11.2356894462
 30
0.0
 10
9.9696517042
 20
11.2405517856
 30
0.0
 10
9.9847973481
 20
11.2462180694
 30
0.0
 10
10.0044084231
 20
11.252256953
 30
0.0
 10
10.0256559535
 20
11.2576115746
 30
0.0
 10
10.0483363399
 20
11.2622366464
 30
0.0
 10
10.0722342599
 20
11.2660824906
 30
0.0
 10
10.0971209422
 20
11.2691137243
 30
0.0
 10
10.1315470618
 20
11.272049667
 30
0.0
 10
10.1752934394
 20
11.2734963124
 30
0.0
 10
10.219039817
 20
11.272049667
 30
0.0
 10
10.2534659365
 20
11.2691137243
 30
0.0
 10
10.2783526188
 20
11.2660824906
 30
0.0
 10
10.3022505388
 20
11.2622366464
 30
0.0
 10
10.3249309252
 20
11.2576115746
 30
0.0
 10
10.3461784556
 20
11.252256953
 30
0.0
 10
10.3657895307
 20
11.2462180694
 30
0.0
 10
10.3809351745
 20
11.2405517856
 30
0.0
 10
10.3920561438
 20
11.2356894462
 30
0.0
 10
10.4019772198
 20
11.2308814541
 30
0.0
 10
10.4130708725
 20
11.2246274107
 30
0.0
 10
10.4245041225
 20
11.2164859915
 30
0.0
 10
10.4335920365
 20
11.2079664602
 30
0.0
 10
10.4402471203
 20
11.1991137065
 30
0.0
 10
10.4437236131
 20
11.1913244297
 30
0.0
 10
10.4450703718
 20
11.1851398128
 30
0.0
 10
10.4452934389
 20
11.1820819778
 30
0.0
 10
10.4452934389
 20
11.1805697635
 30
0.0
  0
SPLINE
  5
336
100
AcDbEntity
  8
0
100
AcDbSpline
 62
9
  6
CONTINUOUS
 70
0
 71
3
 72
41
 73
37
 74
0
 42
0.0000001
 43
0.0000001
 44
0.0000000001
 40
0.0
 40
0.0
 40
0.0
 40
0.0
 40
0.007514564
 40
0.0151727524
 40
0.0313652268
 40
0.0494192531
 40
0.0698721894
 40
0.0930275728
 40
0.1190072595
 40
0.1330575371
 40
0.1478021441
 40
0.1793067705
 40
0.2133513956
 40
0.249720846
 40
0.2881481518
 40
0.3283389317
 40
0.3699711199
 40
0.4127000896
 40
0.5
 40
0.5872999104
 40
0.6300288801
 40
0.6716610683
 40
0.7118518482
 40
0.750279154
 40
0.7866486044
 40
0.8206932295
 40
0.8521978559
 40
0.8669424629
 40
0.8809927405
 40
0.9069724272
 40
0.9301278106
 40
0.9505807469
 40
0.9686347732
 40
0.9848272476
 40
0.992485436
 40
1.0
 40
1.0
 40
1.0
 40
1.0
 10
9.8899742918
 20
11.1819609099
 30
0.0
 10
9.8899742918
 20
11.1835589287
 30
0.0
 10
9.8902100323
 20
11.1867902782
 30
0.0
 10
9.891633272
 20
11.1933258462
 30
0.0
 10
9.89530707
 20
11.201557126
 30
0.0
 10
9.90233974
 20
11.2109122711
 30
0.0
 10
9.9119433782
 20
11.2199151215
 30
0.0
 10
9.9240253332
 20
11.228518448
 30
0.0
 10
9.9357484313
 20
11.2351272914
 30
0.0
 10
9.9462324114
 20
11.2402080624
 30
0.0
 10
9.9579843509
 20
11.245346282
 30
0.0
 10
9.9739893214
 20
11.251334033
 30
0.0
 10
9.994713072
 20
11.2577155235
 30
0.0
 10
10.0171661166
 20
11.2633739451
 30
0.0
 10
10.0411333079
 20
11.2682614063
 30
0.0
 10
10.0663871047
 20
11.2723254519
 30
0.0
 10
10.0926857593
 20
11.2755286529
 30
0.0
 10
10.1290650753
 20
11.2786311679
 30
0.0
 10
10.1752934394
 20
11.280159883
 30
0.0
 10
10.2215218034
 20
11.2786311679
 30
0.0
 10
10.2579011194
 20
11.2755286529
 30
0.0
 10
10.284199774
 20
11.2723254519
 30
0.0
 10
10.3094535708
 20
11.2682614063
 30
0.0
 10
10.3334207621
 20
11.2633739451
 30
0.0
 10
10.3558738067
 20
11.2577155235
 30
0.0
 10
10.3765975573
 20
11.251334033
 30
0.0
 10
10.3926025278
 20
11.245346282
 30
0.0
 10
10.4043544673
 20
11.2402080624
 30
0.0
 10
10.4148384474
 20
11.2351272914
 30
0.0
 10
10.4265615456
 20
11.228518448
 30
0.0
 10
10.4386435006
 20
11.2199151215
 30
0.0
 10
10.4482471388
 20
11.2109122711
 30
0.0
 10
10.4552798087
 20
11.201557126
 30
0.0
 10
10.4589536068
 20
11.1933258462
 30
0.0
 10
10.4603768464
 20
11.1867902782
 30
0.0
 10
10.4606125869
 20
11.1835589287
 30
0.0
 10
10.4606125869
 20
11.1819609099
 30
0.0
  0
SPLINE
  5
337
100
AcDbEntity
  8
0
100
AcDbSpline
 62
9
  6
CONTINUOUS
 70
0
 71
3
 72
22
 73
18
 74
0
 42
0.0000001
 43
0.0000001
 44
0.0000000001
 40
0.0
 40
0.0
 40
0.0
 40
0.0
 40
0.0150500937
 40
0.0303688078
 40
0.0627410319
 40
0.0988394416
 40
0.1397467793
 40
0.1860678212
 40
0.2380216369
 40
0.2956076925
 40
0.3586147498
 40
0.4267108977
 40
0.4994580341
 40
0.576307798
 40
0.6566761653
 40
0.825425674
 40
1.0
 40
1.0
 40
1.0
 40
1.0
 10
10.4252911693
 20
12.2396033471
 30
0.0
 10
10.4252911693
 20
12.241005449
 30
0.0
 10
10.425086336
 20
12.243838845
 30
0.0
 10
10.4238435387
 20
12.24956743
 30
0.0
 10
10.4206172836
 20
12.2567746884
 30
0.0
 10
10.4144578122
 20
12.2649696283
 30
0.0
 10
10.4060441726
 20
12.2728594071
 30
0.0
 10
10.3954564892
 20
12.2803962755
 30
0.0
 10
10.3827909919
 20
12.287540889
 30
0.0
 10
10.3681532356
 20
12.2942227799
 30
0.0
 10
10.3516790075
 20
12.3003899261
 30
0.0
 10
10.3335190352
 20
12.3059800444
 30
0.0
 10
10.3138454143
 20
12.3109376929
 30
0.0
 10
10.292846901
 20
12.3152212883
 30
0.0
 10
10.2628573008
 20
12.3200462315
 30
0.0
 10
10.2235515017
 20
12.3240468588
 30
0.0
 10
10.1915571916
 20
12.325108383
 30
0.0
 10
10.1752934394
 20
12.325108383
 30
0.0
  0
SPLINE
  5
338
100
AcDbEntity
  8
0
100
AcDbSpline
 62
9
  6
CONTINUOUS
 70
0
 71
3
 72
9
 73
5
 74
0
 42
0.0000001
 43
0.0000001
 44
0.0000000001
 40
0.0
 40
0.0
 40
0.0
 40
0.0
 40
0.4653382806
 40
1.0
 40
1.0
 40
1.0
 40
1.0
 10
9.8784102416
 20
11.2720807305
 30
0.0
 10
9.8812816952
 20
11.2760140912
 30
0.0
 10
9.8884422274
 20
11.283750806
 30
0.0
 10
9.8967374253
 20
11.2901884531
 30
0.0
 10
9.901349391
 20
11.2933568933
 30
0.0
  0
SPLINE
  5
339
100
AcDbEntity
  8
0
100
AcDbSpline
 62
9
  6
CONTINUOUS
 70
0
 71
3
 72
29
 73
25
 74
0
 42
0.0000001
 43
0.0000001
 44
0.0000000001
 40
0.0
 40
0.0
 40
0.0
 40
0.0
 40
0.021080113
 40
0.043863947
 40
0.0683353789
 40
0.0944572605
 40
0.1221623539
 40
0.1513679813
 40
0.2138876538
 40
0.2811139538
 40
0.351995043
 40
0.4253662898
 40
0.5
 40
0.5746337102
 40
0.648004957
 40
0.7188860462
 40
0.7861123462
 40
0.8486320187
 40
0.8778376461
 40
0.9055427395
 40
0.9316646211
 40
0.956136053
 40
0.978919887
 40
1.0
 40
1.0
 40
1.0
 40
1.0
 10
9.901349391
 20
11.2933568933
 30
0.0
 10
9.9046314664
 20
11.2956116932
 30
0.0
 10
9.9116595419
 20
11.3000177956
 30
0.0
 10
9.9230455835
 20
11.3061158148
 30
0.0
 10
9.9356350366
 20
11.3119318705
 30
0.0
 10
9.949369971
 20
11.3174341063
 30
0.0
 10
9.9641844426
 20
11.3226006382
 30
0.0
 10
9.9857760605
 20
11.3291574944
 30
0.0
 10
10.0149773158
 20
11.336254945
 30
0.0
 10
10.0523049759
 20
11.3429184797
 30
0.0
 10
10.0919756107
 20
11.3477717938
 30
0.0
 10
10.1332335496
 20
11.3507224595
 30
0.0
 10
10.1752934394
 20
11.3517141435
 30
0.0
 10
10.2173533291
 20
11.3507224595
 30
0.0
 10
10.258611268
 20
11.3477717938
 30
0.0
 10
10.2982819028
 20
11.3429184797
 30
0.0
 10
10.3356095629
 20
11.336254945
 30
0.0
 10
10.3648108183
 20
11.3291574944
 30
0.0
 10
10.3864024361
 20
11.3226006382
 30
0.0
 10
10.4012169077
 20
11.3174341063
 30
0.0
 10
10.4149518421
 20
11.3119318705
 30
0.0
 10
10.4275412952
 20
11.3061158148
 30
0.0
 10
10.4389273368
 20
11.3000177956
 30
0.0
 10
10.4459554123
 20
11.2956116932
 30
0.0
 10
10.4492374877
 20
11.2933568933
 30
0.0
  0
SPLINE
  5
33A
100
AcDbEntity
  8
0
100
AcDbSpline
 62
9
  6
CONTINUOUS
 70
0
 71
3
 72
9
 73
5
 74
0
 42
0.0000001
 43
0.0000001
 44
0.0000000001
 40
0.0
 40
0.0
 40
0.0
 40
0.0
 40
0.5346639699
 40
1.0
 40
1.0
 40
1.0
 40
1.0
 10
10.4492374877
 20
11.2933568933
 30
0.0
 10
10.4538497302
 20
11.2901882629
 30
0.0
 10
10.4621453737
 20
11.283750227
 30
0.0
 10
10.4693061871
 20
11.2760129515
 30
0.0
 10
10.4721776751
 20
11.2720793086
 30
0.0
  0
SPLINE
  5
33B
100
AcDbEntity
  8
0
100
AcDbSpline
 62
9
  6
CONTINUOUS
 70
0
 71
3
 72
43
 73
39
 74
0
 42
0.0000001
 43
0.0000001
 44
0.0000000001
 40
0.0
 40
0.0
 40
0.0
 40
0.0
 40
0.00751519
 40
0.0151732986
 40
0.0313648922
 40
0.0494182856
 40
0.0698707123
 40
0.0930254899
 40
0.1190045107
 40
0.1330544375
 40
0.1477986758
 40
0.1793024991
 40
0.2133462435
 40
0.2497147573
 40
0.2881410796
 40
0.328330831
 40
0.3699619513
 40
0.4126898244
 40
0.4561590093
 40
0.5
 40
0.5438409907
 40
0.5873101756
 40
0.6300380487
 40
0.671669169
 40
0.7118589204
 40
0.7502852427
 40
0.7866537565
 40
0.8206975009
 40
0.8522013242
 40
0.8669455625
 40
0.8809954893
 40
0.9069745101
 40
0.9301292877
 40
0.9505817144
 40
0.9686351078
 40
0.9848267014
 40
0.99248481
 40
1.0
 40
1.0
 40
1.0
 40
1.0
 10
9.8519269019
 20
11.5001162555
 30
0.0
 10
9.8519266455
 20
11.5019275679
 30
0.0
 10
9.8521934606
 20
11.5055900893
 30
0.0
 10
9.8538063979
 20
11.5129973461
 30
0.0
 10
9.8579708492
 20
11.5223258393
 30
0.0
 10
9.865941565
 20
11.5329280312
 30
0.0
 10
9.8768256206
 20
11.5431315854
 30
0.0
 10
9.8905186044
 20
11.5528823364
 30
0.0
 10
9.9038050018
 20
11.5603724397
 30
0.0
 10
9.9156870457
 20
11.5661306974
 30
0.0
 10
9.9290061297
 20
11.5719540682
 30
0.0
 10
9.9471453682
 20
11.5787402876
 30
0.0
 10
9.9706326288
 20
11.5859727692
 30
0.0
 10
9.9960797932
 20
11.5923857529
 30
0.0
 10
10.023243005
 20
11.5979249309
 30
0.0
 10
10.0518644535
 20
11.6025310057
 30
0.0
 10
10.0816698475
 20
11.6061610013
 30
0.0
 10
10.1123738674
 20
11.6087808235
 30
0.0
 10
10.1436818881
 20
11.6103607028
 30
0.0
 10
10.1752934394
 20
11.6108915892
 30
0.0
 10
10.2069049906
 20
11.6103607028
 30
0.0
 10
10.2382130114
 20
11.6087808235
 30
0.0
 10
10.2689170312
 20
11.6061610013
 30
0.0
 10
10.2987224253
 20
11.6025310057
 30
0.0
 10
10.3273438738
 20
11.5979249309
 30
0.0
 10
10.3545070855
 20
11.5923857529
 30
0.0
 10
10.3799542499
 20
11.5859727692
 30
0.0
 10
10.4034415105
 20
11.5787402876
 30
0.0
 10
10.4215807491
 20
11.5719540682
 30
0.0
 10
10.434899833
 20
11.5661306974
 30
0.0
 10
10.4467818769
 20
11.5603724397
 30
0.0
 10
10.4600682744
 20
11.5528823364
 30
0.0
 10
10.4737612581
 20
11.5431315854
 30
0.0
 10
10.4846453138
 20
11.5329280312
 30
0.0
 10
10.4926160295
 20
11.5223258393
 30
0.0
 10
10.4967804808
 20
11.5129973461
 30
0.0
 10
10.4983934182
 20
11.5055900893
 30
0.0
 10
10.4986602333
 20
11.5019275679
 30
0.0
 10
10.4986599769
 20
11.5001162555
 30
0.0
  0
SPLINE
  5
33C
100
AcDbEntity
  8
0
100
AcDbSpline
 62
9
  6
CONTINUOUS
 70
0
 71
3
 72
41
 73
37
 74
0
 42
0.0000001
 43
0.0000001
 44
0.0000000001
 40
0.0
 40
0.0
 40
0.0
 40
0.0
 40
0.0075144587
 40
0.0151725397
 40
0.0313647872
 40
0.0494185605
 40
0.0698712101
 40
0.093026269
 40
0.1190055916
 40
0.1477945763
 40
0.1792987612
 40
0.2133429092
 40
0.2497118499
 40
0.2881386171
 40
0.3283288338
 40
0.3699604385
 40
0.4126888093
 40
0.4561584998
 40
0.5
 40
0.5438415002
 40
0.5873111907
 40
0.6300395615
 40
0.6716711662
 40
0.7118613829
 40
0.7502881501
 40
0.7866570908
 40
0.8207012388
 40
0.8522054237
 40
0.8809944084
 40
0.906973731
 40
0.9301287899
 40
0.9505814395
 40
0.9686352128
 40
0.9848274603
 40
0.9924855413
 40
1.0
 40
1.0
 40
1.0
 40
1.0
 10
9.8447755328
 20
11.5085245065
 30
0.0
 10
9.8447755328
 20
11.510375675
 30
0.0
 10
9.845048618
 20
11.5141189178
 30
0.0
 10
9.8466973201
 20
11.5216898164
 30
0.0
 10
9.850953099
 20
11.5312250495
 30
0.0
 10
9.8590998617
 20
11.5420622009
 30
0.0
 10
9.8702247943
 20
11.5524911758
 30
0.0
 10
9.8842209943
 20
11.5624576643
 30
0.0
 10
9.9009677666
 20
11.5718981054
 30
0.0
 10
9.9203180553
 20
11.5807379872
 30
0.0
 10
9.942099267
 20
11.5888872917
 30
0.0
 10
9.9661066321
 20
11.5962797853
 30
0.0
 10
9.9921163754
 20
11.6028345657
 30
0.0
 10
10.019880368
 20
11.6084962567
 30
0.0
 10
10.0491347725
 20
11.6132041971
 30
0.0
 10
10.0795993283
 20
11.6169144709
 30
0.0
 10
10.1109823778
 20
11.6195922303
 30
0.0
 10
10.1429827873
 20
11.6212070494
 30
0.0
 10
10.1752934394
 20
11.6217496768
 30
0.0
 10
10.2076040914
 20
11.6212070494
 30
0.0
 10
10.2396045009
 20
11.6195922303
 30
0.0
 10
10.2709875505
 20
11.6169144709
 30
0.0
 10
10.3014521062
 20
11.6132041971
 30
0.0
 10
10.3307065107
 20
11.6084962567
 30
0.0
 10
10.3584705033
 20
11.6028345657
 30
0.0
 10
10.3844802466
 20
11.5962797853
 30
0.0
 10
10.4084876117
 20
11.5888872917
 30
0.0
 10
10.4302688234
 20
11.5807379872
 30
0.0
 10
10.4496191122
 20
11.5718981054
 30
0.0
 10
10.4663658844
 20
11.5624576643
 30
0.0
 10
10.4803620845
 20
11.5524911758
 30
0.0
 10
10.491487017
 20
11.5420622009
 30
0.0
 10
10.4996337797
 20
11.5312250495
 30
0.0
 10
10.5038895586
 20
11.5216898164
 30
0.0
 10
10.5055382607
 20
11.5141189178
 30
0.0
 10
10.5058113459
 20
11.510375675
 30
0.0
 10
10.5058113459
 20
11.5085245065
 30
0.0
  0
SPLINE
  5
33D
100
AcDbEntity
  8
0
100
AcDbSpline
 62
9
  6
CONTINUOUS
 70
0
 71
3
 72
45
 73
41
 74
0
 42
0.0000001
 43
0.0000001
 44
0.0000000001
 40
0.0
 40
0.0
 40
0.0
 40
0.0
 40
0.0075137679
 40
0.0151711451
 40
0.0230945557
 40
0.0313926017
 40
0.0494447155
 40
0.0593552043
 40
0.0699107474
 40
0.0930636778
 40
0.1190406124
 40
0.1478269508
 40
0.1793282399
 40
0.2133692586
 40
0.2497348562
 40
0.2881580913
 40
0.3283446137
 40
0.3699723916
 40
0.4126968349
 40
0.4561625297
 40
0.5
 40
0.5438374703
 40
0.5873031651
 40
0.6300276084
 40
0.6716553863
 40
0.7118419087
 40
0.7502651438
 40
0.7866307414
 40
0.8206717601
 40
0.8521730492
 40
0.8809593876
 40
0.9069363222
 40
0.9300892526
 40
0.9406447957
 40
0.9505552845
 40
0.9686073983
 40
0.9769054443
 40
0.9848288549
 40
0.9924862321
 40
1.0
 40
1.0
 40
1.0
 40
1.0
 10
9.8427934392
 20
11.5107760589
 30
0.0
 10
9.8427934392
 20
11.5126383288
 30
0.0
 10
9.8430678806
 20
11.5164038241
 30
0.0
 10
9.8442905492
 20
11.5220132867
 30
0.0
 10
9.8463173703
 20
11.5275916912
 30
0.0
 10
9.8501872191
 20
11.5351737904
 30
0.0
 10
9.8556258952
 20
11.5424186276
 30
0.0
 10
9.8622798946
 20
11.5492702538
 30
0.0
 10
9.8703936921
 20
11.5564307553
 30
0.0
 10
9.8824770218
 20
11.5650332377
 30
0.0
 10
9.8993221617
 20
11.5745295207
 30
0.0
 10
9.9187891369
 20
11.5834226557
 30
0.0
 10
9.9407007715
 20
11.5916207572
 30
0.0
 10
9.9648521666
 20
11.5990576053
 30
0.0
 10
9.9910178709
 20
11.6056516877
 30
0.0
 10
10.0189483675
 20
11.6113473334
 30
0.0
 10
10.0483782072
 20
11.6160835065
 30
0.0
 10
10.0790254572
 20
11.6198160307
 30
0.0
 10
10.1105967087
 20
11.6225098483
 30
0.0
 10
10.1427890225
 20
11.6241343515
 30
0.0
 10
10.1752934394
 20
11.6246802329
 30
0.0
 10
10.2077978562
 20
11.6241343515
 30
0.0
 10
10.23999017
 20
11.6225098483
 30
0.0
 10
10.2715614215
 20
11.6198160307
 30
0.0
 10
10.3022086716
 20
11.6160835065
 30
0.0
 10
10.3316385112
 20
11.6113473334
 30
0.0
 10
10.3595690078
 20
11.6056516877
 30
0.0
 10
10.3857347122
 20
11.5990576053
 30
0.0
 10
10.4098861073
 20
11.5916207572
 30
0.0
 10
10.4317977419
 20
11.5834226557
 30
0.0
 10
10.451264717
 20
11.5745295207
 30
0.0
 10
10.4681098569
 20
11.5650332377
 30
0.0
 10
10.4801931866
 20
11.5564307553
 30
0.0
 10
10.4883069841
 20
11.5492702538
 30
0.0
 10
10.4949609835
 20
11.5424186276
 30
0.0
 10
10.5003996596
 20
11.5351737904
 30
0.0
 10
10.5042695085
 20
11.5275916912
 30
0.0
 10
10.5062963295
 20
11.5220132867
 30
0.0
 10
10.5075189981
 20
11.5164038241
 30
0.0
 10
10.5077934395
 20
11.5126383288
 30
0.0
 10
10.5077934395
 20
11.5107760589
 30
0.0
  0
SPLINE
  5
33E
100
AcDbEntity
  8
0
100
AcDbSpline
 62
9
  6
CONTINUOUS
 70
0
 71
3
 72
11
 73
7
 74
0
 42
0.0000001
 43
0.0000001
 44
0.0000000001
 40
0.0
 40
0.0
 40
0.0
 40
0.0
 40
0.278566358
 40
0.5337377368
 40
0.7716270762
 40
1.0
 40
1.0
 40
1.0
 40
1.0
 10
10.4932030402
 20
11.4774576893
 30
0.0
 10
10.4955056736
 20
11.4800274481
 30
0.0
 10
10.4996191006
 20
11.4852370061
 30
0.0
 10
10.5042990972
 20
11.49362458
 30
0.0
 10
10.5071467758
 20
11.5021543604
 30
0.0
 10
10.5077934395
 20
11.5079473068
 30
0.0
 10
10.5077934395
 20
11.5107760589
 30
0.0
  0
SPLINE
  5
33F
100
AcDbEntity
  8
0
100
AcDbSpline
 62
9
  6
CONTINUOUS
 70
0
 71
3
 72
11
 73
7
 74
0
 42
0.0000001
 43
0.0000001
 44
0.0000000001
 40
0.0
 40
0.0
 40
0.0
 40
0.0
 40
0.2248199628
 40
0.4608269816
 40
0.7169758727
 40
1.0
 40
1.0
 40
1.0
 40
1.0
 10
9.8715434966
 20
11.1918857728
 30
0.0
 10
9.8715434966
 20
11.1890407281
 30
0.0
 10
9.8722650865
 20
11.1831882269
 30
0.0
 10
9.8754267779
 20
11.1746122721
 30
0.0
 10
9.8806061877
 20
11.1662180771
 30
0.0
 10
9.8851164854
 20
11.1610600436
 30
0.0
 10
9.8876385391
 20
11.1585169866
 30
0.0
  0
SPLINE
  5
340
100
AcDbEntity
  8
0
100
AcDbSpline
 62
9
  6
CONTINUOUS
 70
0
 71
3
 72
43
 73
39
 74
0
 42
0.0000001
 43
0.0000001
 44
0.0000000001
 40
0.0
 40
0.0
 40
0.0
 40
0.0
 40
0.0075143761
 40
0.015172373
 40
0.0313644424
 40
0.0494180173
 40
0.0698704421
 40
0.0930252464
 40
0.1190042834
 40
0.1330542097
 40
0.1477984479
 40
0.1793022866
 40
0.2133460603
 40
0.2497146012
 40
0.288140946
 40
0.3283307209
 40
0.3699618679
 40
0.4126897691
 40
0.4561589817
 40
0.5
 40
0.5438410183
 40
0.5873102309
 40
0.6300381321
 40
0.6716692791
 40
0.711859054
 40
0.7502853988
 40
0.7866539397
 40
0.8206977134
 40
0.8522015521
 40
0.8669457903
 40
0.8809957166
 40
0.9069747536
 40
0.9301295579
 40
0.9505819827
 40
0.9686355576
 40
0.984827627
 40
0.9924856239
 40
1.0
 40
1.0
 40
1.0
 40
1.0
 10
9.8715434966
 20
11.1918857728
 30
0.0
 10
9.8715434966
 20
11.193587019
 30
0.0
 10
9.8717944652
 20
11.1970271043
 30
0.0
 10
9.873309642
 20
11.2039848512
 30
0.0
 10
9.8772207569
 20
11.212747848
 30
0.0
 10
9.884707717
 20
11.2227073086
 30
0.0
 10
9.8949317226
 20
11.2322917172
 30
0.0
 10
9.9077941371
 20
11.2414507938
 30
0.0
 10
9.9202745136
 20
11.2484865494
 30
0.0
 10
9.9314357287
 20
11.2538955236
 30
0.0
 10
9.9439468096
 20
11.2593656574
 30
0.0
 10
9.9609856553
 20
11.2657402
 30
0.0
 10
9.9830480997
 20
11.2725339152
 30
0.0
 10
10.0069515492
 20
11.2785578599
 30
0.0
 10
10.0324669404
 20
11.2837610157
 30
0.0
 10
10.0593521061
 20
11.2880876716
 30
0.0
 10
10.0873493961
 20
11.2914974574
 30
0.0
 10
10.1161907983
 20
11.2939583507
 30
0.0
 10
10.1455995603
 20
11.2954423889
 30
0.0
 10
10.1752934394
 20
11.2959410701
 30
0.0
 10
10.2049873184
 20
11.2954423889
 30
0.0
 10
10.2343960804
 20
11.2939583507
 30
0.0
 10
10.2632374827
 20
11.2914974574
 30
0.0
 10
10.2912347726
 20
11.2880876716
 30
0.0
 10
10.3181199383
 20
11.2837610157
 30
0.0
 10
10.3436353295
 20
11.2785578599
 30
0.0
 10
10.367538779
 20
11.2725339152
 30
0.0
 10
10.3896012235
 20
11.2657402
 30
0.0
 10
10.4066400691
 20
11.2593656574
 30
0.0
 10
10.4191511501
 20
11.2538955236
 30
0.0
 10
10.4303123651
 20
11.2484865494
 30
0.0
 10
10.4427927416
 20
11.2414507938
 30
0.0
 10
10.4556551561
 20
11.2322917172
 30
0.0
 10
10.4658791617
 20
11.2227073086
 30
0.0
 10
10.4733661219
 20
11.212747848
 30
0.0
 10
10.4772772367
 20
11.2039848512
 30
0.0
 10
10.4787924135
 20
11.1970271043
 30
0.0
 10
10.4790433822
 20
11.193587019
 30
0.0
 10
10.4790433822
 20
11.1918857728
 30
0.0
  0
SPLINE
  5
341
100
AcDbEntity
  8
0
100
AcDbSpline
 62
9
  6
CONTINUOUS
 70
0
 71
3
 72
41
 73
37
 74
0
 42
0.0000001
 43
0.0000001
 44
0.0000000001
 40
0.0
 40
0.0
 40
0.0
 40
0.0
 40
0.007514564
 40
0.0151727524
 40
0.0313652268
 40
0.0494192531
 40
0.0698721894
 40
0.0930275728
 40
0.1190072595
 40
0.1330575371
 40
0.1478021441
 40
0.1793067705
 40
0.2133513956
 40
0.249720846
 40
0.2881481518
 40
0.3283389317
 40
0.3699711199
 40
0.4127000896
 40
0.5
 40
0.5872999104
 40
0.6300288801
 40
0.6716610683
 40
0.7118518482
 40
0.750279154
 40
0.7866486044
 40
0.8206932295
 40
0.8521978559
 40
0.8669424629
 40
0.8809927405
 40
0.9069724272
 40
0.9301278106
 40
0.9505807469
 40
0.9686347732
 40
0.9848272476
 40
0.992485436
 40
1.0
 40
1.0
 40
1.0
 40
1.0
 10
9.8865008934
 20
11.4192873523
 30
0.0
 10
9.8865008934
 20
11.420904825
 30
0.0
 10
9.8867395037
 20
11.424175512
 30
0.0
 10
9.8881800695
 20
11.4307906422
 30
0.0
 10
9.8918985914
 20
11.4391221274
 30
0.0
 10
9.8990168751
 20
11.4485911596
 30
0.0
 10
9.9087374254
 20
11.4577036083
 30
0.0
 10
9.9209664629
 20
11.4664116693
 30
0.0
 10
9.9328322749
 20
11.473100967
 30
0.0
 10
9.9434438842
 20
11.47824359
 30
0.0
 10
9.9553388886
 20
11.4834443608
 30
0.0
 10
9.9715386993
 20
11.4895050051
 30
0.0
 10
9.9925147352
 20
11.4959641821
 30
0.0
 10
10.0152411171
 20
11.5016914879
 30
0.0
 10
10.0395000786
 20
11.5066384477
 30
0.0
 10
10.0650613083
 20
11.5107519678
 30
0.0
 10
10.0916801157
 20
11.5139941638
 30
0.0
 10
10.1285023037
 20
11.517134448
 30
0.0
 10
10.1752934394
 20
11.5186817733
 30
0.0
 10
10.222084575
 20
11.517134448
 30
0.0
 10
10.258906763
 20
11.5139941638
 30
0.0
 10
10.2855255704
 20
11.5107519678
 30
0.0
 10
10.3110868002
 20
11.5066384477
 30
0.0
 10
10.3353457616
 20
11.5016914879
 30
0.0
 10
10.3580721435
 20
11.4959641821
 30
0.0
 10
10.3790481794
 20
11.4895050051
 30
0.0
 10
10.3952479901
 20
11.4834443608
 30
0.0
 10
10.4071429946
 20
11.47824359
 30
0.0
 10
10.4177546039
 20
11.473100967
 30
0.0
 10
10.4296204158
 20
11.4664116693
 30
0.0
 10
10.4418494533
 20
11.4577036083
 30
0.0
 10
10.4515700036
 20
11.4485911596
 30
0.0
 10
10.4586882874
 20
11.4391221274
 30
0.0
 10
10.4624068092
 20
11.4307906422
 30
0.0
 10
10.463847375
 20
11.424175512
 30
0.0
 10
10.4640859854
 20
11.420904825
 30
0.0
 10
10.4640859854
 20
11.4192873523
 30
0.0
  0
SPLINE
  5
342
100
AcDbEntity
  8
0
100
AcDbSpline
 62
9
  6
CONTINUOUS
 70
0
 71
3
 72
9
 73
5
 74
0
 42
0.0000001
 43
0.0000001
 44
0.0000000001
 40
0.0
 40
0.0
 40
0.0
 40
0.0
 40
0.260826837
 40
1.0
 40
1.0
 40
1.0
 40
1.0
 10
10.4896447709
 20
11.473602564
 30
0.0
 10
10.4903966712
 20
11.4743942151
 30
0.0
 10
10.4932219223
 20
11.4774827718
 30
0.0
 10
10.4958077177
 20
11.4807957401
 30
0.0
 10
10.497524572
 20
11.4833698986
 30
0.0
  0
SPLINE
  5
343
100
AcDbEntity
  8
0
100
AcDbSpline
 62
9
  6
CONTINUOUS
 70
0
 71
3
 72
10
 73
6
 74
0
 42
0.0000001
 43
0.0000001
 44
0.0000000001
 40
0.0
 40
0.0
 40
0.0
 40
0.0
 40
0.5205453633
 40
0.7631821702
 40
1.0
 40
1.0
 40
1.0
 40
1.0
 10
10.497524572
 20
11.4833698986
 30
0.0
 10
10.5001068324
 20
11.4872416001
 30
0.0
 10
10.5032808164
 20
11.4934097198
 30
0.0
 10
10.5054521369
 20
11.5021122192
 30
0.0
 10
10.5058113459
 20
11.5064072844
 30
0.0
 10
10.5058113459
 20
11.5085245065
 30
0.0
  0
ENDSEC
  0
SECTION
  2
OBJECTS
  0
DICTIONARY
  5
C
100
AcDbDictionary
280
0
281
1
  3
ACAD_GROUP
350
D
  3
ACAD_MLINESTYLE
350
17
  3
ACAD_LAYOUT
350
1A
  3
ACAD_PLOTSETTINGS
350
19
  3
ACAD_PLOTSTYLENAME
350
E
  0
DICTIONARY
  5
D
102
{ACAD_REACTORS
330
C
102
}
100
AcDbDictionary
280
0
281
1
  0
ACDBDICTIONARYWDFLT
  5
E
102
{ACAD_REACTORS
330
C
102
}
100
AcDbDictionary
281
1
  3
Normal
350
F
100
AcDbDictionaryWithDefault
340
F
  0
DICTIONARY
  5
17
102
{ACAD_REACTORS
330
C
102
}
100
AcDbDictionary
280
0
281
1
  3
Standard
350
18
  0
DICTIONARY
  5
19
102
{ACAD_REACTORS
330
C
102
}
100
AcDbDictionary
281
1
  0
DICTIONARY
  5
1A
102
{ACAD_REACTORS
330
C
102
}
100
AcDbDictionary
281
1
  3
Model
350
344
  3
Layout1
350
345
  0
ACDBPLACEHOLDER
  5
F
102
{ACAD_REACTORS
330
E
102
}
  0
MLINESTYLE
  5
18
102
{ACAD_REACTORS
330
17
102
}
100
AcDbMlineStyle
  2
STANDARD
 70
0
  3

 62
256
 51
90.0
 52
90.0
 71
2
 49
0.5
 62
256
  6
BYLAYER
 49
-0.5
 62
256
  6
BYLAYER
  0
LAYOUT
  5
344
102
{ACAD_REACTORS
330
1A
102
}
100
AcDbPlotSettings
  1

  2
none_device
  4
ANSI_C_(22.00_x_17.00_Inches)
  6

 40
0.0
 41
0.0
 42
0.0
 43
0.0
 44
558.8
 45
431.8
 46
0.0
 47
0.0
 48
0.0
 49
0.0
140
0.0
141
0.0
142
1.0
143
1.0
 70
1024
 72
0
 73
0
 74
0
  7

 75
0
147
1.0
148
0.0
149
0.0
100
AcDbLayout
  1
Model
 70
0
 71
0
 10
0.0
 20
0.0
 11
22.0
 21
17.0
 12
0.0
 22
0.0
 32
0.0
 14
0.0
 24
0.0
 34
0.0
 15
0.0
 25
0.0
 35
0.0
146
0.0
 13
0.0
 23
0.0
 33
0.0
 16
1.0
 26
0.0
 36
0.0
 17
0.0
 27
1.0
 37
0.0
 76
0
330
205
345
0
346
0
  0
LAYOUT
  5
345
102
{ACAD_REACTORS
330
1A
102
}
100
AcDbPlotSettings
  1

  2
none_device
  4
ANSI_C_(22.00_x_17.00_Inches)
  6

 40
0.0
 41
0.0
 42
0.0
 43
0.0
 44
558.8
 45
431.8
 46
0.0
 47
0.0
 48
0.0
 49
0.0
140
0.0
141
0.0
142
1.0
143
1.0
 70
0
 72
0
 73
0
 74
0
  7

 75
0
147
1.0
148
0.0
149
0.0
100
AcDbLayout
  1
Layout1
 70
0
 71
1
 10
0.0
 20
0.0
 11
22.0
 21
17.0
 12
0.0
 22
0.0
 32
0.0
 14
0.0
 24
0.0
 34
0.0
 15
0.0
 25
0.0
 35
0.0
146
0.0
 13
0.0
 23
0.0
 33
0.0
 16
1.0
 26
0.0
 36
0.0
 17
0.0
 27
1.0
 37
0.0
 76
0
330
206
345
0
346
0
  0
ENDSEC
  0
EOF
