999
DXF file: E:\BT Custom\CADOUTPUT\_TOP.dxf
999
Pro/ENGINEER 2018400 by Parametric Technology Corporation
  0
SECTION
  2
HEADER
  9
$ACADVER
  1
AC1018
  9
$DWGCODEPAGE
  3
ANSI_1252
  9
$EXTMAX
 10
22.0
 20
17.0
 30
0.0
  9
$EXTMIN
 10
0.0
 20
0.0
 30
0.0
  9
$LIMMIN
 10
0.0
 20
0.0
  9
$LIMMAX
 10
22.0
 20
17.0
  9
$VIEWCTR
 10
11.0
 20
8.5
  9
$VIEWSIZE
 40
17.0
  9
$CLAYER
  8
0
  9
$LTSCALE
 40
1.21
  9
$CELTYPE
  6
BYLAYER
  9
$DIMSCALE
 40
1.0
  9
$DIMASZ
 40
0.1
  9
$DIMEXO
 40
0.0625
  9
$DIMDLI
 40
0.836
  9
$DIMEXE
 40
0.125
  9
$DIMCEN
 40
0.198
  9
$DIMLFAC
 40
1.0
  9
$DIMBLK
  1
_FILLED
  9
$DIMALT
 70
1
  9
$DIMALTD
 70
2
  9
$DIMALTTD
 70
2
  9
$DIMALTF
 40
25.4
  9
$DIMTXT
 40
0.08
  9
$DIMTOL
 70
1
  9
$DIMLIM
 70
0
  9
$DIMTFAC
 40
1.0
  9
$DIMTP
 40
0.001
  9
$DIMTM
 40
0.001
  9
$DIMGAP
 40
0.09
  9
$DIMDSEP
 70
46
  9
$AUNITS
 70
0
  9
$PDMODE
 70
3
  9
$PDSIZE
 40
0.06
  9
$HANDSEED
  5
2C2
  9
$TILEMODE
 70
1
  9
$MEASUREMENT
 70
0
  9
$INSUNITS
 70
1
  0
ENDSEC
  0
SECTION
  2
CLASSES
  0
CLASS
  1
ACDBDICTIONARYWDFLT
  2
AcDbDictionaryWithDefault
  3
AutoCAD 2000
 90
0
 91
1
280
0
281
0
  0
CLASS
  1
ACDBPLACEHOLDER
  2
AcDbPlaceHolder
  3
AutoCAD 2000
 90
0
 91
1
280
0
281
0
  0
CLASS
  1
LAYOUT
  2
AcDbLayout
  3
AutoCAD 2000
 90
0
 91
0
280
0
281
0
  0
ENDSEC
  0
SECTION
  2
TABLES
  0
TABLE
  2
VPORT
  5
8
100
AcDbSymbolTable
 70
2
  0
VPORT
  5
1F4
100
AcDbSymbolTableRecord
100
AcDbViewportTableRecord
  2
*ACTIVE
 70
0
 10
0.0
 20
0.0
 11
1.0
 21
1.0
 12
11.0
 22
8.5
 13
0.0
 23
0.0
 14
1.0
 24
1.0
 15
0.0
 25
0.0
 16
0.0
 26
0.0
 36
1.0
 17
0.0
 27
0.0
 37
0.0
 40
17.0
 41
1.2941176471
 42
50.0
 43
0.0
 44
0.0
 50
0.0
 51
0.0
 71
0
 72
100
 73
1
 74
1
 75
0
 76
0
 77
0
 78
0
  0
ENDTAB
  0
TABLE
  2
LTYPE
  5
5
100
AcDbSymbolTable
 70
6
  0
LTYPE
  5
14
100
AcDbSymbolTableRecord
100
AcDbLinetypeTableRecord
  2
BYBLOCK
 70
0
  3

 72
65
 73
0
 40
0.0
  0
LTYPE
  5
15
100
AcDbSymbolTableRecord
100
AcDbLinetypeTableRecord
  2
BYLAYER
 70
0
  3

 72
65
 73
0
 40
0.0
  0
LTYPE
  5
16
100
AcDbSymbolTableRecord
100
AcDbLinetypeTableRecord
  2
CONTINUOUS
 70
64
  3
Solid line
 72
65
 73
0
 40
0.0
  0
LTYPE
  5
1F5
100
AcDbSymbolTableRecord
100
AcDbLinetypeTableRecord
  2
CENTER
 70
64
  3
____ _ ____ _ ____ _ ____ _ ____ _ ____ _ ____
 72
65
 73
4
 40
0.6
 49
0.375
 74
0
 49
-0.075
 74
0
 49
0.075
 74
0
 49
-0.075
 74
0
  0
LTYPE
  5
1F6
100
AcDbSymbolTableRecord
100
AcDbLinetypeTableRecord
  2
HIDDEN
 70
64
  3
- - - - - - - - - - - - - - - - - - - -
 72
65
 73
2
 40
0.2
 49
0.1
 74
0
 49
-0.1
 74
0
  0
LTYPE
  5
1F7
100
AcDbSymbolTableRecord
100
AcDbLinetypeTableRecord
  2
PHANTOM
 70
64
  3
_____ _ _ _____ _ _ _____ _ _ _____
 72
65
 73
6
 40
0.8
 49
0.45
 74
0
 49
-0.05
 74
0
 49
0.1
 74
0
 49
-0.05
 74
0
 49
0.1
 74
0
 49
-0.05
 74
0
  0
LTYPE
  5
1F8
100
AcDbSymbolTableRecord
100
AcDbLinetypeTableRecord
  2
DOT
 70
64
  3
. . . . . . . . . . . . . . . . . . . .
 72
65
 73
2
 40
0.2
 49
0.1
 74
0
 49
-0.1
 74
0
  0
LTYPE
  5
1F9
100
AcDbSymbolTableRecord
100
AcDbLinetypeTableRecord
  2
DASHED
 70
64
  3
- - - - - - - - - - - - - - - - - - - -
 72
65
 73
2
 40
0.2
 49
0.1
 74
0
 49
-0.1
 74
0
  0
ENDTAB
  0
TABLE
  2
LAYER
  5
2
100
AcDbSymbolTable
 70
36
  0
LAYER
  5
10
100
AcDbSymbolTableRecord
100
AcDbLayerTableRecord
  2
0
 70
0
 62
7
  6
CONTINUOUS
370
-3
390
F
  0
LAYER
  5
1FA
100
AcDbSymbolTableRecord
100
AcDbLayerTableRecord
  2
DEFAULT_1
 70
0
 62
7
  6
CENTER
370
-3
390
F
  0
LAYER
  5
1FB
100
AcDbSymbolTableRecord
100
AcDbLayerTableRecord
  2
DEFAULT_2
 70
0
 62
8
  6
HIDDEN
370
-3
390
F
  0
LAYER
  5
1FC
100
AcDbSymbolTableRecord
100
AcDbLayerTableRecord
  2
DEFAULT_3
 70
0
 62
7
  6
PHANTOM
370
-3
390
F
  0
LAYER
  5
1FD
100
AcDbSymbolTableRecord
100
AcDbLayerTableRecord
  2
ALL_FEATURES
 70
0
 62
7
  6
CONTINUOUS
370
-3
390
F
  0
LAYER
  5
1FE
100
AcDbSymbolTableRecord
100
AcDbLayerTableRecord
  2
AXES_FEATURES
 70
0
 62
7
  6
CONTINUOUS
370
-3
390
F
  0
LAYER
  5
1FF
100
AcDbSymbolTableRecord
100
AcDbLayerTableRecord
  2
DEFAULT_COORDINATE_SYSTEM
 70
0
 62
7
  6
CONTINUOUS
370
-3
390
F
  0
LAYER
  5
200
100
AcDbSymbolTableRecord
100
AcDbLayerTableRecord
  2
DEFAULT_DATUM_AXES
 70
0
 62
7
  6
CONTINUOUS
370
-3
390
F
  0
LAYER
  5
201
100
AcDbSymbolTableRecord
100
AcDbLayerTableRecord
  2
DEFAULT_DATUM_PLANES
 70
0
 62
7
  6
CONTINUOUS
370
-3
390
F
  0
LAYER
  5
202
100
AcDbSymbolTableRecord
100
AcDbLayerTableRecord
  2
DIMENSIONS
 70
0
 62
7
  6
CONTINUOUS
370
-3
390
F
  0
ENDTAB
  0
TABLE
  2
STYLE
  5
3
100
AcDbSymbolTable
 70
1
  0
STYLE
  5
11
100
AcDbSymbolTableRecord
100
AcDbTextStyleTableRecord
  2
STANDARD
 70
0
 40
0.0
 41
0.8
 50
0.0
 71
0
 42
0.2
  3
txt
  4

  0
STYLE
  5
203
100
AcDbSymbolTableRecord
100
AcDbTextStyleTableRecord
  2
TEXTSTYLE_1
 70
0
 40
0.0
 41
0.8
 50
0.0
 71
0
 42
0.2
  3
gdt
  4

  0
ENDTAB
  0
TABLE
  2
VIEW
  5
6
100
AcDbSymbolTable
 70
0
  0
ENDTAB
  0
TABLE
  2
UCS
  5
7
100
AcDbSymbolTable
 70
0
  0
ENDTAB
  0
TABLE
  2
APPID
  5
9
100
AcDbSymbolTable
 70
1
  0
APPID
  5
204
100
AcDbSymbolTableRecord
100
AcDbRegAppTableRecord
  2
ACAD
 70
0
  0
ENDTAB
  0
TABLE
  2
BLOCK_RECORD
  5
1
100
AcDbSymbolTable
 70
0
  0
BLOCK_RECORD
  5
205
100
AcDbSymbolTableRecord
100
AcDbBlockTableRecord
  2
*Model_Space
  0
BLOCK_RECORD
  5
206
100
AcDbSymbolTableRecord
100
AcDbBlockTableRecord
  2
*Paper_Space
  0
BLOCK_RECORD
  5
207
100
AcDbSymbolTableRecord
100
AcDbBlockTableRecord
  2
_FILLED
  0
ENDTAB
  0
TABLE
  2
DIMSTYLE
  5
A
100
AcDbSymbolTable
 70
1
100
AcDbDimStyleTable
 71
0
  0
DIMSTYLE
105
208
100
AcDbSymbolTableRecord
100
AcDbDimStyleTableRecord
  2
STANDARD
 70
0
  3

  4

 40
1.0
 41
0.1
 42
0.0625
 43
0.38
 44
0.125
 45
0.0
 46
0.0
 47
0.001
 48
0.001
140
0.08
141
0.09
142
0.0
143
25.4
144
1.0
145
0.0
146
1.0
147
0.09
 71
1.0
 72
0.0
 73
1
 74
1
 75
0
 76
0
 77
0
 78
4
 79
1
170
1
171
2
172
0
173
0
174
0
175
0
176
0
177
0
178
0
270
2
179
3
271
3
272
3
273
2
274
2
275
0
280
0
281
0
282
0
283
1
284
4
285
0
286
0
287
3
288
0
340
11
278
46
341
207
342
207
343
207
344
207
  0
ENDTAB
  0
ENDSEC
  0
SECTION
  2
BLOCKS
  0
BLOCK
  5
20
100
AcDbEntity
  8
0
100
AcDbBlockBegin
  2
*Model_Space
 70
0
 10
0.0
 20
0.0
 30
0.0
  3
*Model_Space
  1

  0
ENDBLK
  5
21
100
AcDbEntity
  8
0
100
AcDbBlockEnd
  0
BLOCK
  5
1C
100
AcDbEntity
  8
0
100
AcDbBlockBegin
  2
*Paper_Space
 70
0
 10
0.0
 20
0.0
 30
0.0
  3
*Paper_Space
  1

  0
ENDBLK
  5
1D
100
AcDbEntity
  8
0
100
AcDbBlockEnd
  0
BLOCK
  5
209
100
AcDbEntity
  8
0
100
AcDbBlockBegin
  2
_FILLED
 70
64
 10
0.0
 20
0.0
  3
_FILLED
  1

  0
SOLID
  5
20A
100
AcDbEntity
  8
0
  6
BYBLOCK
 62
0
100
AcDbTrace
 10
0.0
 20
0.0
 11
-1.0
 21
0.2
 12
-1.0
 22
-0.2
 13
-1.0
 23
-0.2
  0
ENDBLK
  5
20B
100
AcDbEntity
  8
0
  6
BYBLOCK
 62
0
100
AcDbBlockEnd
  0
ENDSEC
  0
SECTION
  2
ENTITIES
  0
LINE
  5
20C
100
AcDbEntity
  8
0
100
AcDbLine
 62
9
  6
CONTINUOUS
 10
10.5814943073
 20
4.9784564081
 11
10.5815618151
 21
4.9783500051
  0
LINE
  5
20D
100
AcDbEntity
  8
0
100
AcDbLine
 62
7
  6
CONTINUOUS
 10
10.5815618203
 20
4.9783500084
 11
10.5882170285
 21
4.9673868595
  0
LINE
  5
20E
100
AcDbEntity
  8
0
100
AcDbLine
 62
7
  6
CONTINUOUS
 10
10.5882264376
 20
4.9673706036
 11
10.5891393192
 21
4.9657876275
  0
LINE
  5
20F
100
AcDbEntity
  8
0
100
AcDbLine
 62
7
  6
CONTINUOUS
 10
10.0349194349
 20
9.4242782828
 11
10.0349194349
 21
4.8250020476
  0
LINE
  5
210
100
AcDbEntity
  8
0
100
AcDbLine
 62
7
  6
CONTINUOUS
 10
11.9905816973
 20
8.9664948771
 11
12.0226652338
 21
8.9795448459
  0
LINE
  5
211
100
AcDbEntity
  8
0
100
AcDbLine
 62
7
  6
CONTINUOUS
 10
10.5349194349
 20
9.4242782828
 11
10.5349194349
 21
4.8250020476
  0
LINE
  5
212
100
AcDbEntity
  8
0
100
AcDbLine
 62
7
  6
CONTINUOUS
 10
11.1199593265
 20
8.9492782828
 11
11.1199593265
 21
9.8992782828
  0
LINE
  5
213
100
AcDbEntity
  8
0
100
AcDbLine
 62
9
  6
CONTINUOUS
 10
11.4799593265
 20
8.9137729892
 11
11.4799593265
 21
9.9347835763
  0
LINE
  5
214
100
AcDbEntity
  8
0
100
AcDbLine
 62
9
  6
CONTINUOUS
 10
11.5408453661
 20
9.9568890825
 11
11.5408453661
 21
8.8916674831
  0
LINE
  5
215
100
AcDbEntity
  8
0
100
AcDbLine
 62
7
  6
CONTINUOUS
 10
9.9807005173
 20
4.9657893149
 11
9.9816122584
 21
4.9673703043
  0
LINE
  5
216
100
AcDbEntity
  8
0
100
AcDbLine
 62
7
  6
CONTINUOUS
 10
9.9816216676
 20
4.9673865601
 11
9.9882746902
 21
4.9783462881
  0
LINE
  5
217
100
AcDbEntity
  8
0
100
AcDbLine
 62
9
  6
CONTINUOUS
 10
9.9882746954
 20
4.9783462849
 11
9.9883445625
 21
4.9784564081
  0
LINE
  5
218
100
AcDbEntity
  8
0
100
AcDbLine
 62
7
  6
CONTINUOUS
 10
11.5699593265
 20
9.9390688718
 11
11.5699593265
 21
8.9094876938
  0
LINE
  5
219
100
AcDbEntity
  8
0
100
AcDbLine
 62
7
  6
CONTINUOUS
 10
11.5909593265
 20
8.8992782828
 11
11.5909593265
 21
9.9492782828
  0
LINE
  5
21A
100
AcDbEntity
  8
0
100
AcDbLine
 62
9
  6
CONTINUOUS
 10
11.6628968265
 20
8.888617061
 11
11.6628968265
 21
9.9599395046
  0
LINE
  5
21B
100
AcDbEntity
  8
0
100
AcDbLine
 62
9
  6
CONTINUOUS
 10
11.7246736122
 20
8.9120226471
 11
11.7246736122
 21
9.9365339185
  0
LINE
  5
21C
100
AcDbEntity
  8
0
100
AcDbLine
 62
9
  6
CONTINUOUS
 10
11.9905816973
 20
8.9664948771
 11
11.9905816973
 21
9.8820616885
  0
LINE
  5
21D
100
AcDbEntity
  8
0
100
AcDbLine
 62
9
  6
CONTINUOUS
 10
12.0226652338
 20
8.9795448459
 11
12.0226652338
 21
9.8690117197
  0
LINE
  5
21E
100
AcDbEntity
  8
0
100
AcDbLine
 62
9
  6
CONTINUOUS
 10
12.0582450408
 20
8.9883056659
 11
12.0582450408
 21
9.8602508997
  0
LINE
  5
21F
100
AcDbEntity
  8
0
100
AcDbLine
 62
7
  6
CONTINUOUS
 10
12.0959593265
 20
9.8202984282
 11
12.0959593265
 21
9.0282403064
  0
LINE
  5
220
100
AcDbEntity
  8
0
100
AcDbLine
 62
9
  6
CONTINUOUS
 10
12.1071021643
 20
9.0499954618
 11
12.1071021643
 21
9.7985611038
  0
LINE
  5
221
100
AcDbEntity
  8
0
100
AcDbLine
 62
9
  6
CONTINUOUS
 10
12.2440140946
 20
9.7586032877
 11
12.2440140946
 21
9.6650838361
  0
LINE
  5
222
100
AcDbEntity
  8
0
100
AcDbLine
 62
9
  6
CONTINUOUS
 10
12.2440140946
 20
9.1834727294
 11
12.2440140946
 21
9.0899532779
  0
LINE
  5
223
100
AcDbEntity
  8
0
100
AcDbLine
 62
9
  6
CONTINUOUS
 10
12.2707191337
 20
9.7688437516
 11
12.2707191337
 21
9.6947427868
  0
LINE
  5
224
100
AcDbEntity
  8
0
100
AcDbLine
 62
9
  6
CONTINUOUS
 10
12.2707191337
 20
9.1538137788
 11
12.2707191337
 21
9.079712814
  0
LINE
  5
225
100
AcDbEntity
  8
0
100
AcDbLine
 62
9
  6
CONTINUOUS
 10
12.3190669098
 20
9.8090223273
 11
12.3190669098
 21
9.7372077084
  0
LINE
  5
226
100
AcDbEntity
  8
0
100
AcDbLine
 62
9
  6
CONTINUOUS
 10
12.3190669098
 20
9.1113488571
 11
12.3190669098
 21
9.0395342382
  0
LINE
  5
227
100
AcDbEntity
  8
0
100
AcDbLine
 62
7
  6
CONTINUOUS
 10
11.1199593265
 20
8.9492782828
 11
10.9297814927
 21
8.9492782828
  0
LINE
  5
228
100
AcDbEntity
  8
0
100
AcDbLine
 62
9
  6
CONTINUOUS
 10
12.7302405049
 20
9.8376713797
 11
12.7302405049
 21
9.7724161029
  0
LINE
  5
229
100
AcDbEntity
  8
0
100
AcDbLine
 62
9
  6
CONTINUOUS
 10
12.7302405049
 20
9.0761404626
 11
12.7302405049
 21
9.0108851858
  0
LINE
  5
22A
100
AcDbEntity
  8
0
100
AcDbLine
 62
7
  6
CONTINUOUS
 10
12.9599593265
 20
9.4192782828
 11
12.9309593265
 21
9.2542782828
  0
LINE
  5
22B
100
AcDbEntity
  8
0
100
AcDbLine
 62
7
  6
CONTINUOUS
 10
11.5909593265
 20
9.1742782828
 11
11.5699593265
 21
9.1742782828
  0
LINE
  5
22C
100
AcDbEntity
  8
0
100
AcDbLine
 62
7
  6
CONTINUOUS
 10
12.8709593265
 20
9.1842782828
 11
12.8616298818
 21
9.1842782828
  0
LINE
  5
22D
100
AcDbEntity
  8
0
100
AcDbLine
 62
9
  6
CONTINUOUS
 10
12.8709593265
 20
9.6642782828
 11
12.8709593265
 21
9.6533197884
  0
LINE
  5
22E
100
AcDbEntity
  8
0
100
AcDbLine
 62
9
  6
CONTINUOUS
 10
12.8709593265
 20
9.1842782828
 11
12.8709593265
 21
9.1952367772
  0
LINE
  5
22F
100
AcDbEntity
  8
0
100
AcDbLine
 62
7
  6
CONTINUOUS
 10
12.9309593265
 20
9.6042638962
 11
12.9309593265
 21
9.5225736939
  0
LINE
  5
230
100
AcDbEntity
  8
0
100
AcDbLine
 62
7
  6
CONTINUOUS
 10
12.9309593265
 20
9.2442782828
 11
12.9309593265
 21
9.3259828716
  0
LINE
  5
231
100
AcDbEntity
  8
0
100
AcDbLine
 62
7
  6
CONTINUOUS
 10
12.9599593265
 20
9.4192961726
 11
12.9599593265
 21
9.429260393
  0
LINE
  5
232
100
AcDbEntity
  8
0
100
AcDbLine
 62
7
  6
CONTINUOUS
 10
12.8709593265
 20
9.6642782828
 11
12.8616298818
 21
9.6642782828
  0
LINE
  5
233
100
AcDbEntity
  8
0
100
AcDbLine
 62
7
  6
CONTINUOUS
 10
11.5909593265
 20
9.6742782828
 11
11.5699593265
 21
9.6742782828
  0
LINE
  5
234
100
AcDbEntity
  8
0
100
AcDbLine
 62
7
  6
CONTINUOUS
 10
11.1199593265
 20
9.8992782828
 11
10.9297815086
 21
9.8992782828
  0
LINE
  5
235
100
AcDbEntity
  8
0
100
AcDbLine
 62
7
  6
CONTINUOUS
 10
12.9599593265
 20
9.4292782828
 11
12.9309593265
 21
9.5942782828
  0
LINE
  5
236
100
AcDbEntity
  8
0
100
AcDbLine
 62
7
  6
CONTINUOUS
 10
11.9905816973
 20
9.8820616885
 11
12.0226652338
 21
9.8690117197
  0
ARC
  5
237
100
AcDbEntity
  8
0
100
AcDbCircle
 62
7
  6
CONTINUOUS
 10
10.2678359947
 20
4.8005982737
 40
0.3312904915
100
AcDbArc
 50
134.7609991682
 51
146.1991159853
  0
ARC
  5
238
100
AcDbEntity
  8
0
100
AcDbCircle
 62
7
  6
CONTINUOUS
 10
10.3020032763
 20
4.800598583
 40
0.3312899912
100
AcDbArc
 50
33.8023230294
 51
45.2383425083
  0
ARC
  5
239
100
AcDbEntity
  8
0
100
AcDbCircle
 62
7
  6
CONTINUOUS
 10
10.3084421111
 20
4.8051363469
 40
0.3234151287
100
AcDbArc
 50
32.4053651616
 51
33.7689115331
  0
ARC
  5
23A
100
AcDbEntity
  8
0
100
AcDbCircle
 62
7
  6
CONTINUOUS
 10
10.2613949445
 20
4.8051375115
 40
0.3234129729
100
AcDbArc
 50
146.2325613754
 51
147.5946367765
  0
ARC
  5
23B
100
AcDbEntity
  8
0
100
AcDbCircle
 62
7
  6
CONTINUOUS
 10
10.3094520368
 20
4.8054468536
 40
0.3223874453
100
AcDbArc
 50
32.4463725524
 51
33.8212431898
  0
ARC
  5
23C
100
AcDbEntity
  8
0
100
AcDbCircle
 62
7
  6
CONTINUOUS
 10
10.2603863525
 20
4.8054471647
 40
0.3223868729
100
AcDbArc
 50
146.1802418436
 51
147.553628467
  0
ARC
  5
23D
100
AcDbEntity
  8
0
100
AcDbCircle
 62
9
  6
CONTINUOUS
 10
10.3103732028
 20
4.8063811691
 40
0.3211153053
100
AcDbArc
 50
31.1630949803
 51
32.3800330276
  0
ARC
  5
23E
100
AcDbEntity
  8
0
100
AcDbCircle
 62
9
  6
CONTINUOUS
 10
10.2594651967
 20
4.8063814599
 40
0.3211147524
100
AcDbArc
 50
147.6207518775
 51
148.8373943289
  0
ARC
  5
23F
100
AcDbEntity
  8
0
100
AcDbCircle
 62
7
  6
CONTINUOUS
 10
10.3106092116
 20
4.8061811713
 40
0.3210169437
100
AcDbArc
 50
30.1402177992
 51
32.4465777213
  0
ARC
  5
240
100
AcDbEntity
  8
0
100
AcDbCircle
 62
7
  6
CONTINUOUS
 10
10.2589328049
 20
4.8063616142
 40
0.3206696216
100
AcDbArc
 50
147.5521732733
 51
149.8610932518
  0
ARC
  5
241
100
AcDbEntity
  8
0
100
AcDbCircle
 62
9
  6
CONTINUOUS
 10
10.3112684172
 20
4.8069230066
 40
0.3200688845
100
AcDbArc
 50
30.0817032865
 51
31.1630238703
  0
ARC
  5
242
100
AcDbEntity
  8
0
100
AcDbCircle
 62
9
  6
CONTINUOUS
 10
10.2585702243
 20
4.806923141
 40
0.3200686195
100
AcDbArc
 50
148.8374654942
 51
149.9183574682
  0
ARC
  5
243
100
AcDbEntity
  8
0
100
AcDbCircle
 62
9
  6
CONTINUOUS
 10
10.2579702383
 20
4.8072724512
 40
0.3193743585
100
AcDbArc
 50
149.9186318234
 51
150.2467632576
  0
ARC
  5
244
100
AcDbEntity
  8
0
100
AcDbCircle
 62
9
  6
CONTINUOUS
 10
10.3118687583
 20
4.8072725244
 40
0.3193742121
100
AcDbArc
 50
29.7528851775
 51
30.0814287639
  0
ARC
  5
245
100
AcDbEntity
  8
0
100
AcDbCircle
 62
9
  6
CONTINUOUS
 10
10.2639438241
 20
4.8097401925
 40
0.3187025278
100
AcDbArc
 50
136.256396303
 51
148.5889833538
  0
ARC
  5
246
100
AcDbEntity
  8
0
100
AcDbCircle
 62
9
  6
CONTINUOUS
 10
10.3058950457
 20
4.8097401925
 40
0.3187025277
100
AcDbArc
 50
31.4110166461
 51
43.743603687
  0
ARC
  5
247
100
AcDbEntity
  8
0
100
AcDbCircle
 62
9
  6
CONTINUOUS
 10
10.3135749837
 20
4.8082337041
 40
0.3174159168
100
AcDbArc
 50
25.8228664174
 51
29.7550983303
  0
ARC
  5
248
100
AcDbEntity
  8
0
100
AcDbCircle
 62
9
  6
CONTINUOUS
 10
10.2555536802
 20
4.8086082103
 40
0.3166134847
100
AcDbArc
 50
150.2395993164
 51
154.2428143832
  0
ARC
  5
249
100
AcDbEntity
  8
0
100
AcDbCircle
 62
9
  6
CONTINUOUS
 10
10.3163571008
 20
4.8096232798
 40
0.3143063247
100
AcDbArc
 50
25.2713039541
 51
25.8157649975
  0
ARC
  5
24A
100
AcDbEntity
  8
0
100
AcDbCircle
 62
9
  6
CONTINUOUS
 10
10.2534520285
 20
4.8096374113
 40
0.3142733977
100
AcDbArc
 50
154.2453035603
 51
154.7163000737
  0
ARC
  5
24B
100
AcDbEntity
  8
0
100
AcDbCircle
 62
9
  6
CONTINUOUS
 10
10.3111680257
 20
4.8131516533
 40
0.3124243787
100
AcDbArc
 50
29.0069260355
 51
31.3810552463
  0
ARC
  5
24C
100
AcDbEntity
  8
0
100
AcDbCircle
 62
7
  6
CONTINUOUS
 10
10.2508008859
 20
4.8081977114
 40
0.3123089206
100
AcDbArc
 50
178.0267500535
 51
179.2454409339
  0
ARC
  5
24D
100
AcDbEntity
  8
0
100
AcDbCircle
 62
7
  6
CONTINUOUS
 10
10.3190643034
 20
4.8081984255
 40
0.3122825919
100
AcDbArc
 50
0.6895787772
 51
1.9731579454
  0
ARC
  5
24E
100
AcDbEntity
  8
0
100
AcDbCircle
 62
9
  6
CONTINUOUS
 10
10.2582697413
 20
4.8133850446
 40
0.311960415
100
AcDbArc
 50
148.6171790603
 51
150.9949028465
  0
ARC
  5
24F
100
AcDbEntity
  8
0
100
AcDbCircle
 62
7
  6
CONTINUOUS
 10
10.2499390982
 20
4.8082101719
 40
0.3114470435
100
AcDbArc
 50
179.2456451974
 51
179.9998548473
  0
ARC
  5
250
100
AcDbEntity
  8
0
100
AcDbCircle
 62
7
  6
CONTINUOUS
 10
10.3199306901
 20
4.8082103006
 40
0.311416125
100
AcDbArc
 50
0.0001214829
 51
0.6893125196
  0
ARC
  5
251
100
AcDbEntity
  8
0
100
AcDbCircle
 62
9
  6
CONTINUOUS
 10
10.2570393084
 20
4.8140726344
 40
0.3105509036
100
AcDbArc
 50
150.9957752486
 51
151.3299751007
  0
ARC
  5
252
100
AcDbEntity
  8
0
100
AcDbCircle
 62
9
  6
CONTINUOUS
 10
10.3127997227
 20
4.8140727235
 40
0.3105507192
100
AcDbArc
 50
28.6696689326
 51
29.0042882298
  0
ARC
  5
253
100
AcDbEntity
  8
0
100
AcDbCircle
 62
9
  6
CONTINUOUS
 10
10.2559854608
 20
4.8146441871
 40
0.3093520499
100
AcDbArc
 50
151.3292120369
 51
152.8609925476
  0
ARC
  5
254
100
AcDbEntity
  8
0
100
AcDbCircle
 62
9
  6
CONTINUOUS
 10
10.3138536206
 20
4.814644298
 40
0.3093518109
100
AcDbArc
 50
27.1390070477
 51
28.6704315428
  0
ARC
  5
255
100
AcDbEntity
  8
0
100
AcDbCircle
 62
7
  6
CONTINUOUS
 10
10.2427758937
 20
4.8118989831
 40
0.3033564565
100
AcDbArc
 50
178.6802844004
 51
180.0008540993
  0
ARC
  5
256
100
AcDbEntity
  8
0
100
AcDbCircle
 62
7
  6
CONTINUOUS
 10
10.3270629761
 20
4.8118989831
 40
0.3033564565
100
AcDbArc
 50
359.9991459007
 51
1.3197155996
  0
ARC
  5
257
100
AcDbEntity
  8
0
100
AcDbCircle
 62
9
  6
CONTINUOUS
 10
10.2425177566
 20
4.811888125
 40
0.3030983195
100
AcDbArc
 50
179.9988022762
 51
180.6679107084
  0
ARC
  5
258
100
AcDbEntity
  8
0
100
AcDbCircle
 62
9
  6
CONTINUOUS
 10
10.3273211132
 20
4.811888125
 40
0.3030983195
100
AcDbArc
 50
359.3320892915
 51
0.0011977238
  0
ARC
  5
259
100
AcDbEntity
  8
0
100
AcDbCircle
 62
9
  6
CONTINUOUS
 10
10.3271911345
 20
4.8122327415
 40
0.3030506789
100
AcDbArc
 50
359.2712185323
 51
359.999861244
  0
ARC
  5
25A
100
AcDbEntity
  8
0
100
AcDbCircle
 62
9
  6
CONTINUOUS
 10
10.2426477352
 20
4.8122327415
 40
0.3030506788
100
AcDbArc
 50
180.000138756
 51
180.7287814678
  0
ARC
  5
25B
100
AcDbEntity
  8
0
100
AcDbCircle
 62
9
  6
CONTINUOUS
 10
10.2441925081
 20
4.8180970539
 40
0.2969398114
100
AcDbArc
 50
181.0029948585
 51
181.685577109
  0
ARC
  5
25C
100
AcDbEntity
  8
0
100
AcDbCircle
 62
9
  6
CONTINUOUS
 10
10.3256463617
 20
4.8180970539
 40
0.2969398114
100
AcDbArc
 50
358.314422891
 51
358.9970051415
  0
ARC
  5
25D
100
AcDbEntity
  8
0
100
AcDbCircle
 62
9
  6
CONTINUOUS
 10
10.243421449
 20
4.8180842977
 40
0.2961686472
100
AcDbArc
 50
180.0002803721
 51
181.0031385854
  0
ARC
  5
25E
100
AcDbEntity
  8
0
100
AcDbCircle
 62
9
  6
CONTINUOUS
 10
10.3264174208
 20
4.8180842977
 40
0.2961686472
100
AcDbArc
 50
358.9968614147
 51
359.9997196279
  0
ARC
  5
25F
100
AcDbEntity
  8
0
100
AcDbCircle
 62
7
  6
CONTINUOUS
 10
11.1587539567
 20
7.4997973493
 40
1.45
100
AcDbArc
 50
77.2016188941
 51
91.5331267948
  0
ARC
  5
260
100
AcDbEntity
  8
0
100
AcDbCircle
 62
7
  6
CONTINUOUS
 10
10.2849194349
 20
9.4242782828
 40
1.1502904291
100
AcDbArc
 50
282.5922694899
 51
334.988284375
  0
ARC
  5
261
100
AcDbEntity
  8
0
100
AcDbCircle
 62
7
  6
CONTINUOUS
 10
10.2849194349
 20
9.4242782828
 40
1.1502904291
100
AcDbArc
 50
25.011715625
 51
257.4077305101
  0
ARC
  5
262
100
AcDbEntity
  8
0
100
AcDbCircle
 62
9
  6
CONTINUOUS
 10
10.2849194349
 20
9.4242782828
 40
1.1443912622
100
AcDbArc
 50
25.0764090813
 51
257.3758337736
  0
ARC
  5
263
100
AcDbEntity
  8
0
100
AcDbCircle
 62
9
  6
CONTINUOUS
 10
10.2849194349
 20
9.4242782828
 40
1.1443912622
100
AcDbArc
 50
282.6241662264
 51
334.9235909187
  0
ARC
  5
264
100
AcDbEntity
  8
0
100
AcDbCircle
 62
9
  6
CONTINUOUS
 10
10.2849194349
 20
9.4242782828
 40
1.1035925784
100
AcDbArc
 50
283.096080571
 51
334.165273792
  0
ARC
  5
265
100
AcDbEntity
  8
0
100
AcDbCircle
 62
9
  6
CONTINUOUS
 10
10.2849194349
 20
9.4242782828
 40
1.1035925784
100
AcDbArc
 50
25.834726208
 51
256.903919429
  0
ARC
  5
266
100
AcDbEntity
  8
0
100
AcDbCircle
 62
9
  6
CONTINUOUS
 10
10.2849194349
 20
9.4242782828
 40
0.9787883126
100
AcDbArc
 50
284.8080649129
 51
330.8989363839
  0
ARC
  5
267
100
AcDbEntity
  8
0
100
AcDbCircle
 62
9
  6
CONTINUOUS
 10
10.2849194349
 20
9.4242782828
 40
0.9787883126
100
AcDbArc
 50
29.1010636161
 51
255.1919350871
  0
ARC
  5
268
100
AcDbEntity
  8
0
100
AcDbCircle
 62
7
  6
CONTINUOUS
 10
10.2849194349
 20
9.4242782828
 40
0.9775
100
AcDbArc
 50
284.8333109885
 51
330.849934717
  0
ARC
  5
269
100
AcDbEntity
  8
0
100
AcDbCircle
 62
7
  6
CONTINUOUS
 10
10.2849194349
 20
9.4242782828
 40
0.9775
100
AcDbArc
 50
29.150065283
 51
255.1666890115
  0
ARC
  5
26A
100
AcDbEntity
  8
0
100
AcDbCircle
 62
9
  6
CONTINUOUS
 10
10.2849194349
 20
9.4242782828
 40
0.9721439021
100
AcDbArc
 50
284.9111092151
 51
330.6974085518
  0
ARC
  5
26B
100
AcDbEntity
  8
0
100
AcDbCircle
 62
9
  6
CONTINUOUS
 10
10.2849194349
 20
9.4242782828
 40
0.9721439021
100
AcDbArc
 50
29.3025914482
 51
255.0888907849
  0
ARC
  5
26C
100
AcDbEntity
  8
0
100
AcDbCircle
 62
9
  6
CONTINUOUS
 10
10.2849194349
 20
9.4242782828
 40
0.9628424392
100
AcDbArc
 50
285.0577491775
 51
330.3665354497
  0
ARC
  5
26D
100
AcDbEntity
  8
0
100
AcDbCircle
 62
9
  6
CONTINUOUS
 10
10.2849194349
 20
9.4242782828
 40
0.9628424392
100
AcDbArc
 50
29.6334645503
 51
254.9422508225
  0
ARC
  5
26E
100
AcDbEntity
  8
0
100
AcDbCircle
 62
9
  6
CONTINUOUS
 10
10.2849194349
 20
9.4242782828
 40
0.9378104029
100
AcDbArc
 50
285.471841702
 51
329.5406879219
  0
ARC
  5
26F
100
AcDbEntity
  8
0
100
AcDbCircle
 62
9
  6
CONTINUOUS
 10
10.2849194349
 20
9.4242782828
 40
0.9378104029
100
AcDbArc
 50
30.4593120782
 51
254.5281582979
  0
ARC
  5
270
100
AcDbEntity
  8
0
100
AcDbCircle
 62
9
  6
CONTINUOUS
 10
10.2849194349
 20
9.4242782828
 40
0.9259690259
100
AcDbArc
 50
285.675695015
 51
329.1085621265
  0
ARC
  5
271
100
AcDbEntity
  8
0
100
AcDbCircle
 62
9
  6
CONTINUOUS
 10
10.2849194349
 20
9.4242782828
 40
0.9259690259
100
AcDbArc
 50
30.8914378736
 51
254.324304985
  0
ARC
  5
272
100
AcDbEntity
  8
0
100
AcDbCircle
 62
9
  6
CONTINUOUS
 10
10.2849194349
 20
9.4242782828
 40
0.8984691101
100
AcDbArc
 50
286.169845043
 51
328.0610688427
  0
ARC
  5
273
100
AcDbEntity
  8
0
100
AcDbCircle
 62
9
  6
CONTINUOUS
 10
10.2849194349
 20
9.4242782828
 40
0.8984691101
100
AcDbArc
 50
31.9389311554
 51
253.830154957
  0
ARC
  5
274
100
AcDbEntity
  8
0
100
AcDbCircle
 62
9
  6
CONTINUOUS
 10
10.2849194349
 20
9.4242782828
 40
0.8605517992
100
AcDbArc
 50
286.8901309959
 51
326.4846201525
  0
ARC
  5
275
100
AcDbEntity
  8
0
100
AcDbCircle
 62
9
  6
CONTINUOUS
 10
10.2849194349
 20
9.4242782828
 40
0.8605517992
100
AcDbArc
 50
33.5153798465
 51
253.109869004
  0
ARC
  5
276
100
AcDbEntity
  8
0
100
AcDbCircle
 62
9
  6
CONTINUOUS
 10
10.2849194349
 20
9.4242782828
 40
0.8215
100
AcDbArc
 50
287.7254338771
 51
324.6464131841
  0
ARC
  5
277
100
AcDbEntity
  8
0
100
AcDbCircle
 62
9
  6
CONTINUOUS
 10
10.2849194349
 20
9.4242782828
 40
0.8215
100
AcDbArc
 50
35.3535868159
 51
252.2745661229
  0
ARC
  5
278
100
AcDbEntity
  8
0
100
AcDbCircle
 62
7
  6
CONTINUOUS
 10
10.2849194349
 20
9.4242782828
 40
0.805
100
AcDbArc
 50
321.8494980702
 51
323.820671725
  0
ARC
  5
279
100
AcDbEntity
  8
0
100
AcDbCircle
 62
7
  6
CONTINUOUS
 10
10.2849194349
 20
9.4242782828
 40
0.805
100
AcDbArc
 50
36.179328275
 51
38.1505020289
  0
ARC
  5
27A
100
AcDbEntity
  8
0
100
AcDbCircle
 62
7
  6
CONTINUOUS
 10
10.2849194349
 20
9.4242782828
 40
0.805
100
AcDbArc
 50
288.1314503878
 51
321.6021762933
  0
ARC
  5
27B
100
AcDbEntity
  8
0
100
AcDbCircle
 62
7
  6
CONTINUOUS
 10
10.2849194349
 20
9.4242782828
 40
0.805
100
AcDbArc
 50
38.3978237067
 51
251.8685496122
  0
ARC
  5
27C
100
AcDbEntity
  8
0
100
AcDbCircle
 62
7
  6
CONTINUOUS
 10
10.2849194349
 20
9.4242782828
 40
0.7451862016
100
AcDbArc
 50
289.6119589534
 51
250.3880410466
  0
ARC
  5
27D
100
AcDbEntity
  8
0
100
AcDbCircle
 62
7
  6
CONTINUOUS
 10
10.2849194349
 20
9.4242782828
 40
0.71
100
AcDbArc
 50
290.6186600682
 51
249.3813399318
  0
ARC
  5
27E
100
AcDbEntity
  8
0
100
AcDbCircle
 62
7
  6
CONTINUOUS
 10
10.2849194349
 20
9.4242782828
 40
0.3881336367
100
AcDbArc
 50
310.1250267006
 51
229.8749732994
  0
ARC
  5
27F
100
AcDbEntity
  8
0
100
AcDbCircle
 62
9
  6
CONTINUOUS
 10
10.2849194349
 20
9.4242782828
 40
0.3797240572
100
AcDbArc
 50
311.1872372346
 51
228.8127627654
  0
ARC
  5
280
100
AcDbEntity
  8
0
100
AcDbCircle
 62
9
  6
CONTINUOUS
 10
10.2849194349
 20
9.4242782828
 40
0.3510834663
100
AcDbArc
 50
315.4407832912
 51
224.5592167088
  0
ARC
  5
281
100
AcDbEntity
  8
0
100
AcDbCircle
 62
9
  6
CONTINUOUS
 10
10.2849194349
 20
9.4242782828
 40
0.335917742
100
AcDbArc
 50
318.168519677
 51
221.831480323
  0
ARC
  5
282
100
AcDbEntity
  8
0
100
AcDbCircle
 62
9
  6
CONTINUOUS
 10
10.2849194349
 20
9.4242782828
 40
0.302
100
AcDbArc
 50
325.9225208857
 51
214.0774791143
  0
ARC
  5
283
100
AcDbEntity
  8
0
100
AcDbCircle
 62
7
  6
CONTINUOUS
 10
10.2849194349
 20
9.4242782828
 40
0.25
100
AcDbArc
 50
0.0
 51
180.0
  0
ARC
  5
284
100
AcDbEntity
  8
0
100
AcDbCircle
 62
7
  6
CONTINUOUS
 10
11.4223638809
 20
8.6602325297
 40
0.26
100
AcDbArc
 50
62.8901449367
 51
77.2016188941
  0
ARC
  5
285
100
AcDbEntity
  8
0
100
AcDbCircle
 62
7
  6
CONTINUOUS
 10
11.5499593265
 20
8.9094701718
 40
0.02
100
AcDbArc
 50
242.8901449367
 51
360.0
  0
ARC
  5
286
100
AcDbEntity
  8
0
100
AcDbCircle
 62
7
  6
CONTINUOUS
 10
11.5499593265
 20
9.9390863938
 40
0.02
100
AcDbArc
 50
0.0
 51
117.1098550633
  0
ARC
  5
287
100
AcDbEntity
  8
0
100
AcDbCircle
 62
7
  6
CONTINUOUS
 10
11.1587539567
 20
11.3487592163
 40
1.45
100
AcDbArc
 50
268.4668732052
 51
282.7983811059
  0
ARC
  5
288
100
AcDbEntity
  8
0
100
AcDbCircle
 62
7
  6
CONTINUOUS
 10
11.4223638809
 20
10.1883240359
 40
0.26
100
AcDbArc
 50
282.7983811059
 51
297.1098550633
  0
ARC
  5
289
100
AcDbEntity
  8
0
100
AcDbCircle
 62
7
  6
CONTINUOUS
 10
11.6709593265
 20
9.8504866984
 40
0.94
100
AcDbArc
 50
273.2758289598
 51
289.8783240235
  0
ARC
  5
28A
100
AcDbEntity
  8
0
100
AcDbCircle
 62
7
  6
CONTINUOUS
 10
11.6709593265
 20
8.9980698672
 40
0.94
100
AcDbArc
 50
70.1216759765
 51
86.7241710402
  0
ARC
  5
28B
100
AcDbEntity
  8
0
100
AcDbCircle
 62
7
  6
CONTINUOUS
 10
12.5524593265
 20
9.4242782828
 40
0.45
100
AcDbArc
 50
238.75827275
 51
293.2702952784
  0
ARC
  5
28C
100
AcDbEntity
  8
0
100
AcDbCircle
 62
7
  6
CONTINUOUS
 10
12.5524593265
 20
9.4242782828
 40
0.45
100
AcDbArc
 50
66.7297047216
 51
121.2417272574
  0
ARC
  5
28D
100
AcDbEntity
  8
0
100
AcDbCircle
 62
7
  6
CONTINUOUS
 10
12.2886739889
 20
8.6823928605
 40
0.41
100
AcDbArc
 50
96.253440829
 51
116.2863824163
  0
ARC
  5
28E
100
AcDbEntity
  8
0
100
AcDbCircle
 62
7
  6
CONTINUOUS
 10
12.2886739889
 20
10.1661637051
 40
0.41
100
AcDbArc
 50
243.7136175837
 51
263.7465591694
  0
CIRCLE
  5
28F
100
AcDbEntity
  8
0
100
AcDbCircle
 62
7
  6
CONTINUOUS
 10
12.5524593265
 20
9.4242782828
 40
0.3925
  0
ARC
  5
290
100
AcDbEntity
  8
0
100
AcDbCircle
 62
7
  6
CONTINUOUS
 10
12.5524593265
 20
9.4242782828
 40
0.3925
100
AcDbArc
 50
0.0
 51
180.0
  0
CIRCLE
  5
291
100
AcDbEntity
  8
0
100
AcDbCircle
 62
9
  6
CONTINUOUS
 10
12.5524593265
 20
9.4242782828
 40
0.3647321392
  0
ARC
  5
292
100
AcDbEntity
  8
0
100
AcDbCircle
 62
7
  6
CONTINUOUS
 10
12.4295393203
 20
9.6269101463
 40
0.213
100
AcDbArc
 50
121.2417272574
 51
138.213642052
  0
ARC
  5
293
100
AcDbEntity
  8
0
100
AcDbCircle
 62
7
  6
CONTINUOUS
 10
12.4295393204
 20
9.2216464193
 40
0.213
100
AcDbArc
 50
221.7863579427
 51
238.75827275
  0
ARC
  5
294
100
AcDbEntity
  8
0
100
AcDbCircle
 62
7
  6
CONTINUOUS
 10
12.6512266478
 20
9.6539411144
 40
0.2
100
AcDbArc
 50
7.1809146994
 51
66.7297047216
  0
ARC
  5
295
100
AcDbEntity
  8
0
100
AcDbCircle
 62
7
  6
CONTINUOUS
 10
12.6512266478
 20
9.1946154512
 40
0.2
100
AcDbArc
 50
293.2702952784
 51
352.8190853008
  0
ARC
  5
296
100
AcDbEntity
  8
0
100
AcDbCircle
 62
7
  6
CONTINUOUS
 10
11.7309593265
 20
8.8022023858
 40
0.11
100
AcDbArc
 50
93.2758289598
 51
128.2249102016
  0
ARC
  5
297
100
AcDbEntity
  8
0
100
AcDbCircle
 62
7
  6
CONTINUOUS
 10
11.7309593265
 20
10.0463541798
 40
0.11
100
AcDbArc
 50
231.7750897984
 51
266.7241710402
  0
ARC
  5
298
100
AcDbEntity
  8
0
100
AcDbCircle
 62
7
  6
CONTINUOUS
 10
12.0639593265
 20
8.8884690647
 40
0.1
100
AcDbArc
 50
93.2758289598
 51
114.389713624
  0
ARC
  5
299
100
AcDbEntity
  8
0
100
AcDbCircle
 62
7
  6
CONTINUOUS
 10
12.0639593265
 20
9.9600875009
 40
0.1
100
AcDbArc
 50
245.610286376
 51
266.7241710402
  0
ARC
  5
29A
100
AcDbEntity
  8
0
100
AcDbCircle
 62
7
  6
CONTINUOUS
 10
12.8709593265
 20
9.6042782828
 40
0.06
100
AcDbArc
 50
0.0
 51
90.0
  0
ARC
  5
29B
100
AcDbEntity
  8
0
100
AcDbCircle
 62
7
  6
CONTINUOUS
 10
12.8709593265
 20
9.2442782828
 40
0.06
100
AcDbArc
 50
270.0
 51
360.0
  0
ARC
  5
29C
100
AcDbEntity
  8
0
100
AcDbCircle
 62
7
  6
CONTINUOUS
 10
11.6319593265
 20
8.9278964588
 40
0.05
100
AcDbArc
 50
214.9152062474
 51
308.2249102016
  0
ARC
  5
29D
100
AcDbEntity
  8
0
100
AcDbCircle
 62
7
  6
CONTINUOUS
 10
11.6319593265
 20
9.9206601068
 40
0.05
100
AcDbArc
 50
51.7750897984
 51
145.0847937526
  0
ARC
  5
29E
100
AcDbEntity
  8
0
100
AcDbCircle
 62
7
  6
CONTINUOUS
 10
12.0559593265
 20
9.0282403064
 40
0.04
100
AcDbArc
 50
273.2758289598
 51
360.0
  0
ARC
  5
29F
100
AcDbEntity
  8
0
100
AcDbCircle
 62
7
  6
CONTINUOUS
 10
12.0559593265
 20
9.8203162592
 40
0.04
100
AcDbArc
 50
0.0
 51
86.7241710402
  0
ARC
  5
2A0
100
AcDbEntity
  8
0
100
AcDbCircle
 62
7
  6
CONTINUOUS
 10
12.24741805
 20
9.7896673439
 40
0.03125
100
AcDbArc
 50
263.7465591694
 51
318.213642052
  0
ARC
  5
2A1
100
AcDbEntity
  8
0
100
AcDbCircle
 62
7
  6
CONTINUOUS
 10
12.24741805
 20
9.0588892217
 40
0.03125
100
AcDbArc
 50
41.7863579427
 51
96.253440829
  0
ARC
  5
2A2
100
AcDbEntity
  8
0
100
AcDbCircle
 62
7
  6
CONTINUOUS
 10
12.1159593265
 20
9.816492938
 40
0.02
100
AcDbArc
 50
180.0
 51
243.7136175837
  0
ARC
  5
2A3
100
AcDbEntity
  8
0
100
AcDbCircle
 62
7
  6
CONTINUOUS
 10
12.1159593265
 20
9.0320636276
 40
0.02
100
AcDbArc
 50
116.2863824163
 51
180.0
  0
LINE
  5
2A4
100
AcDbEntity
  8
0
100
AcDbLine
 62
7
  6
CONTINUOUS
 10
10.9167797244
 20
8.9259517466
 11
10.9158116603
 21
8.9242782828
  0
SPLINE
  5
2A5
100
AcDbEntity
  8
0
100
AcDbSpline
 62
7
  6
CONTINUOUS
 70
0
 71
3
 72
41
 73
37
 74
0
 42
0.0000001
 43
0.0000001
 44
0.0000000001
 40
0.0
 40
0.0
 40
0.0
 40
0.0
 40
0.1895994695
 40
0.2821162001
 40
0.3719639722
 40
0.4584005186
 40
0.5407615556
 40
0.6184405875
 40
0.6908575255
 40
0.7574239343
 40
0.7883198731
 40
0.8175119672
 40
0.8449113186
 40
0.8704236538
 40
0.8939507479
 40
0.915390215
 40
0.9346379314
 40
0.9515890031
 40
0.9661421014
 40
0.9724886752
 40
0.9782005363
 40
0.9832673965
 40
0.9876790523
 40
0.991427153
 40
0.9945048137
 40
0.9957900861
 40
0.9969051912
 40
0.9978495735
 40
0.9986229244
 40
0.9992249433
 40
0.9994616093
 40
0.9996553294
 40
0.9998060662
 40
0.999913782
 40
0.9999784391
 40
1.0
 40
1.0
 40
1.0
 40
1.0
 10
11.0479593265
 20
9.4242782828
 30
0.0
 10
11.0479593265
 20
9.4573355677
 30
0.0
 10
11.0455835946
 20
9.5065675855
 30
0.0
 10
11.0378051349
 20
9.5709685666
 30
0.0
 10
11.0300167162
 20
9.617201696
 30
0.0
 10
11.020511849
 20
9.6612992476
 30
0.0
 10
11.0096247831
 20
9.7028850118
 30
0.0
 10
10.9977267572
 20
9.7416406811
 30
0.0
 10
10.9852175995
 20
9.777294829
 30
0.0
 10
10.9743827987
 20
9.8048682684
 30
0.0
 10
10.9657708599
 20
9.8252032843
 30
0.0
 10
10.9595950881
 20
9.8391516162
 30
0.0
 10
10.9535989505
 20
9.852150934
 30
0.0
 10
10.9478426539
 20
9.8641715367
 30
0.0
 10
10.9423867217
 20
9.8751825161
 30
0.0
 10
10.9372921541
 20
9.8851525182
 30
0.0
 10
10.9326188658
 20
9.8940494273
 30
0.0
 10
10.9284257665
 20
9.9018417764
 30
0.0
 10
10.9252474243
 20
9.9076254822
 30
0.0
 10
10.9229894329
 20
9.9116787966
 30
0.0
 10
10.921527535
 20
9.9142822931
 30
0.0
 10
10.9202236933
 20
9.9165876183
 30
0.0
 10
10.9190832135
 20
9.918591971
 30
0.0
 10
10.9181104513
 20
9.9202927118
 30
0.0
 10
10.9174058311
 20
9.9215188567
 30
0.0
 10
10.9169288983
 20
9.9223463703
 30
0.0
 10
10.9166373966
 20
9.9228514566
 30
0.0
 10
10.9163903322
 20
9.9232791421
 30
0.0
 10
10.9161877998
 20
9.9236292224
 30
0.0
 10
10.9160470561
 20
9.9238725389
 30
0.0
 10
10.9159566711
 20
9.9240281577
 30
0.0
 10
10.9159061277
 20
9.9241160696
 30
0.0
 10
10.9158658471
 20
9.9241835935
 30
0.0
 10
10.9158391963
 20
9.9242338316
 30
0.0
 10
10.9158193568
 20
9.9242604125
 30
0.0
 10
10.9158147652
 20
9.9242761636
 30
0.0
 10
10.9158116603
 20
9.9242782828
 30
0.0
  0
SPLINE
  5
2A6
100
AcDbEntity
  8
0
100
AcDbSpline
 62
7
  6
CONTINUOUS
 70
0
 71
3
 72
35
 73
31
 74
0
 42
0.0000001
 43
0.0000001
 44
0.0000000001
 40
0.0
 40
0.0
 40
0.0
 40
0.0
 40
0.0305558081
 40
0.0611581357
 40
0.0918106674
 40
0.1225421036
 40
0.184259803
 40
0.2153370092
 40
0.2465439553
 40
0.2778811849
 40
0.3093457241
 40
0.3409290071
 40
0.3726181028
 40
0.4043973498
 40
0.436246383
 40
0.5000035685
 40
0.5637604907
 40
0.5956092192
 40
0.6273880517
 40
0.6590766663
 40
0.6906593643
 40
0.7221232966
 40
0.7534598609
 40
0.7846661325
 40
0.8157426765
 40
0.8774592297
 40
0.9081901724
 40
0.9388422878
 40
0.9694443507
 40
1.0
 40
1.0
 40
1.0
 40
1.0
 10
10.5991265468
 20
4.6676676587
 30
0.0
 10
10.5984250111
 20
4.6583096619
 30
0.0
 10
10.5960925582
 20
4.6396356599
 30
0.0
 10
10.5898432561
 20
4.6120958301
 30
0.0
 10
10.5808859338
 20
4.5852513126
 30
0.0
 10
10.5654635875
 20
4.5506828636
 30
0.0
 10
10.5449741124
 20
4.5184210914
 30
0.0
 10
10.5201657568
 20
4.4894716469
 30
0.0
 10
10.4994532539
 20
4.4694638608
 30
0.0
 10
10.4768805025
 20
4.4513970905
 30
0.0
 10
10.4526383771
 20
4.4354296308
 30
0.0
 10
10.4269504809
 20
4.4216813562
 30
0.0
 10
10.4000334101
 20
4.4102819393
 30
0.0
 10
10.3721245555
 20
4.4013137355
 30
0.0
 10
10.3339170204
 20
4.3927027449
 30
0.0
 10
10.284892645
 20
4.3883532862
 30
0.0
 10
10.2358691407
 20
4.3927108349
 30
0.0
 10
10.1976631792
 20
4.4013274861
 30
0.0
 10
10.1697562205
 20
4.4103003903
 30
0.0
 10
10.1428413296
 20
4.4217037609
 30
0.0
 10
10.117156125
 20
4.435456003
 30
0.0
 10
10.0929171547
 20
4.4514271947
 30
0.0
 10
10.0703476663
 20
4.4694970902
 30
0.0
 10
10.0496390137
 20
4.4895079774
 30
0.0
 10
10.0248357296
 20
4.5184607576
 30
0.0
 10
10.0043520882
 20
4.5507254061
 30
0.0
 10
9.9889356189
 20
4.5852957779
 30
0.0
 10
9.9799828673
 20
4.6121414429
 30
0.0
 10
9.9737381758
 20
4.6396820517
 30
0.0
 10
9.9714088127
 20
4.6583563083
 30
0.0
 10
9.9707088242
 20
4.6677143721
 30
0.0
  0
SPLINE
  5
2A7
100
AcDbEntity
  8
0
100
AcDbSpline
 62
7
  6
CONTINUOUS
 70
0
 71
3
 72
35
 73
31
 74
0
 42
0.0000001
 43
0.0000001
 44
0.0000000001
 40
0.0
 40
0.0
 40
0.0
 40
0.0
 40
0.0612047395
 40
0.1225992524
 40
0.153454423
 40
0.1844148524
 40
0.2154885825
 40
0.2466835308
 40
0.2780026128
 40
0.3094448186
 40
0.3410025227
 40
0.3726649091
 40
0.4044162233
 40
0.4362379621
 40
0.468107976
 40
0.5000026477
 40
0.531897293
 40
0.5637671374
 40
0.5955886585
 40
0.6273396336
 40
0.6590016279
 40
0.6905588666
 40
0.7220005905
 40
0.7533191667
 40
0.7845135891
 40
0.8155868056
 40
0.846546779
 40
0.8774015743
 40
0.9387954274
 40
1.0
 40
1.0
 40
1.0
 40
1.0
 10
10.6313468152
 20
4.8082109609
 30
0.0
 10
10.6313468152
 20
4.7865665643
 30
0.0
 10
10.6268197058
 20
4.743085223
 30
0.0
 10
10.6100890754
 20
4.6910424338
 30
0.0
 10
10.590560843
 20
4.6520210381
 30
0.0
 10
10.5729460763
 20
4.6242254209
 30
0.0
 10
10.5525633681
 20
4.5982426777
 30
0.0
 10
10.529623609
 20
4.5743116976
 30
0.0
 10
10.5043528485
 20
4.5526575329
 30
0.0
 10
10.476999536
 20
4.5334795196
 30
0.0
 10
10.4478307208
 20
4.5169489107
 30
0.0
 10
10.4171234315
 20
4.5032220719
 30
0.0
 10
10.3851741304
 20
4.4924117705
 30
0.0
 10
10.3522812386
 20
4.4846272907
 30
0.0
 10
10.3187578881
 20
4.4799222049
 30
0.0
 10
10.2849166175
 20
4.4783553978
 30
0.0
 10
10.2510754484
 20
4.4799228077
 30
0.0
 10
10.2175522721
 20
4.4846281605
 30
0.0
 10
10.1846598337
 20
4.4924133978
 30
0.0
 10
10.1527108619
 20
4.5032236371
 30
0.0
 10
10.122004323
 20
4.5169511084
 30
0.0
 10
10.0928358945
 20
4.5334814329
 30
0.0
 10
10.0654834434
 20
4.5526597828
 30
0.0
 10
10.040213069
 20
4.5743135626
 30
0.0
 10
10.0172740615
 20
4.5982445112
 30
0.0
 10
9.9968916797
 20
4.6242268268
 30
0.0
 10
9.9792774094
 20
4.6520222013
 30
0.0
 10
9.9597495142
 20
4.6910431658
 30
0.0
 10
9.9430191147
 20
4.743085577
 30
0.0
 10
9.9384920547
 20
4.7865666233
 30
0.0
 10
9.9384920547
 20
4.8082109609
 30
0.0
  0
LINE
  5
2A8
100
AcDbEntity
  8
0
100
AcDbLine
 62
7
  6
CONTINUOUS
 10
10.9158116603
 20
9.9242782828
 11
10.9167794453
 21
9.9226053026
  0
SPLINE
  5
2A9
100
AcDbEntity
  8
0
100
AcDbSpline
 62
7
  6
CONTINUOUS
 70
0
 71
3
 72
11
 73
7
 74
0
 42
0.0000001
 43
0.0000001
 44
0.0000000001
 40
0.0
 40
0.0
 40
0.0
 40
0.0
 40
0.2514678745
 40
0.5017480545
 40
0.7512130603
 40
1.0
 40
1.0
 40
1.0
 40
1.0
 10
10.5891462958
 20
4.9657710114
 30
0.0
 10
10.5955647079
 20
4.9545672264
 30
0.0
 10
10.6070238462
 20
4.9314079743
 30
0.0
 10
10.6197704728
 20
4.8949008254
 30
0.0
 10
10.627843111
 20
4.8572246427
 30
0.0
 10
10.6300448473
 20
4.8316566754
 30
0.0
 10
10.6303389653
 20
4.8188856906
 30
0.0
  0
SPLINE
  5
2AA
100
AcDbEntity
  8
0
100
AcDbSpline
 62
7
  6
CONTINUOUS
 70
0
 71
3
 72
11
 73
7
 74
0
 42
0.0000001
 43
0.0000001
 44
0.0000000001
 40
0.0
 40
0.0
 40
0.0
 40
0.0
 40
0.2509550207
 40
0.5010994809
 40
0.7507571978
 40
1.0
 40
1.0
 40
1.0
 40
1.0
 10
10.5891462885
 20
4.9657710072
 30
0.0
 10
10.5955560387
 20
4.9545834517
 30
0.0
 10
10.6070345266
 20
4.93145677
 30
0.0
 10
10.6199222883
 20
4.8950035088
 30
0.0
 10
10.6282653086
 20
4.8573394092
 30
0.0
 10
10.6307208927
 20
4.831748812
 30
0.0
 10
10.6311617327
 20
4.8189507199
 30
0.0
  0
SPLINE
  5
2AB
100
AcDbEntity
  8
0
100
AcDbSpline
 62
7
  6
CONTINUOUS
 70
0
 71
3
 72
43
 73
39
 74
0
 42
0.0000001
 43
0.0000001
 44
0.0000000001
 40
0.0
 40
0.0
 40
0.0
 40
0.0
 40
0.0000215594
 40
0.0000862127
 40
0.0001939224
 40
0.0003446508
 40
0.0005383603
 40
0.0007750132
 40
0.001376999
 40
0.0021503073
 40
0.0030946374
 40
0.0042096808
 40
0.0054948822
 40
0.0085723732
 40
0.012320267
 40
0.0167316784
 40
0.0217982583
 40
0.0275098038
 40
0.0338560266
 40
0.0408262542
 40
0.0484083501
 40
0.0653584847
 40
0.0846051372
 40
0.106043419
 40
0.1295692121
 40
0.1550801374
 40
0.1824779741
 40
0.2116684528
 40
0.2425626811
 40
0.3091254068
 40
0.381538338
 40
0.4592130746
 40
0.5415695582
 40
0.6280013251
 40
0.7178441299
 40
0.8103557454
 40
0.9047061389
 40
1.0
 40
1.0
 40
1.0
 40
1.0
 10
10.9158116603
 20
8.9242782828
 30
0.0
 10
10.9158086083
 20
8.9242760881
 30
0.0
 10
10.9158281888
 20
8.9243023413
 30
0.0
 10
10.9158335524
 20
8.9243187796
 30
0.0
 10
10.9158684536
 20
8.9243747983
 30
0.0
 10
10.915905089
 20
8.9244397681
 30
0.0
 10
10.9159570437
 20
8.9245286689
 30
0.0
 10
10.916046756
 20
8.9246838164
 30
0.0
 10
10.9161879403
 20
8.9249274415
 30
0.0
 10
10.9163902806
 20
8.9252773872
 30
0.0
 10
10.9166374144
 20
8.9257051214
 30
0.0
 10
10.9169288923
 20
8.9262101911
 30
0.0
 10
10.9174058354
 20
8.9270377119
 30
0.0
 10
10.9181104495
 20
8.9282638525
 30
0.0
 10
10.9190832144
 20
8.9299645951
 30
0.0
 10
10.9202236932
 20
8.9319689473
 30
0.0
 10
10.9215275345
 20
8.934274273
 30
0.0
 10
10.9229894353
 20
8.9368777675
 30
0.0
 10
10.9246040394
 20
8.9397761703
 30
0.0
 10
10.9263657202
 20
8.9429659641
 30
0.0
 10
10.9290016387
 20
8.9477850502
 30
0.0
 10
10.9326188797
 20
8.9545071343
 30
0.0
 10
10.93729215
 20
8.9634040492
 30
0.0
 10
10.9423867233
 20
8.9733740497
 30
0.0
 10
10.9478426538
 20
8.9843850297
 30
0.0
 10
10.953598951
 20
8.9964056325
 30
0.0
 10
10.9595950885
 20
9.0094049504
 30
0.0
 10
10.9657708602
 20
9.0233532819
 30
0.0
 10
10.9743827985
 20
9.0436882968
 30
0.0
 10
10.985217599
 20
9.0712617365
 30
0.0
 10
10.9977267564
 20
9.1069158774
 30
0.0
 10
11.0096247828
 20
9.1456715723
 30
0.0
 10
11.0205118472
 20
9.187257232
 30
0.0
 10
11.0300167211
 20
9.2313552034
 30
0.0
 10
11.0378051143
 20
9.2775866766
 30
0.0
 10
11.0435919475
 20
9.3255038076
 30
0.0
 10
11.0471576617
 20
9.3745900092
 30
0.0
 10
11.0479593265
 20
9.407662569
 30
0.0
 10
11.0479593265
 20
9.4242782828
 30
0.0
  0
SPLINE
  5
2AC
100
AcDbEntity
  8
0
100
AcDbSpline
 62
7
  6
CONTINUOUS
 70
0
 71
3
 72
11
 73
7
 74
0
 42
0.0000001
 43
0.0000001
 44
0.0000000001
 40
0.0
 40
0.0
 40
0.0
 40
0.0
 40
0.2492412112
 40
0.4988986727
 40
0.7490439941
 40
1.0
 40
1.0
 40
1.0
 40
1.0
 10
9.9386771608
 20
4.8189514135
 30
0.0
 10
9.9391180299
 20
4.831749529
 30
0.0
 10
9.9415736938
 20
4.8573402368
 30
0.0
 10
9.9499168779
 20
4.8950045782
 30
0.0
 10
9.9628049397
 20
4.9314581582
 30
0.0
 10
9.9742836468
 20
4.9545850815
 30
0.0
 10
9.9806935748
 20
4.9657727166
 30
0.0
  0
SPLINE
  5
2AD
100
AcDbEntity
  8
0
100
AcDbSpline
 62
7
  6
CONTINUOUS
 70
0
 71
3
 72
22
 73
18
 74
0
 42
0.0000001
 43
0.0000001
 44
0.0000000001
 40
0.0
 40
0.0
 40
0.0
 40
0.0
 40
0.1286225793
 40
0.1928726613
 40
0.2568789118
 40
0.3206099161
 40
0.3840388041
 40
0.4471270348
 40
0.5098418243
 40
0.5721752428
 40
0.634131771
 40
0.6957328264
 40
0.7570127579
 40
0.818016002
 40
0.8788034579
 40
0.9394396897
 40
1.0
 40
1.0
 40
1.0
 40
1.0
 10
10.2849194349
 20
4.5900788924
 30
0.0
 10
10.2685953909
 20
4.5900788924
 30
0.0
 10
10.2440383057
 20
4.5923520845
 30
0.0
 10
10.2122710423
 20
4.5998205999
 30
0.0
 10
10.1891385157
 20
4.6075964373
 30
0.0
 10
10.1669329182
 20
4.6174581415
 30
0.0
 10
10.1458630829
 20
4.6293250295
 30
0.0
 10
10.1261229283
 20
4.6430683331
 30
0.0
 10
10.1079120584
 20
4.6585700389
 30
0.0
 10
10.0914052115
 20
4.6756762884
 30
0.0
 10
10.0767560886
 20
4.6942196014
 30
0.0
 10
10.0641184754
 20
4.7140302978
 30
0.0
 10
10.0535986443
 20
4.7349076366
 30
0.0
 10
10.0453138848
 20
4.7566587181
 30
0.0
 10
10.0393368487
 20
4.7790697758
 30
0.0
 10
10.0357232972
 20
4.8019222034
 30
0.0
 10
10.034921705
 20
4.8173160785
 30
0.0
 10
10.034921705
 20
4.8250020476
 30
0.0
  0
SPLINE
  5
2AE
100
AcDbEntity
  8
0
100
AcDbSpline
 62
9
  6
CONTINUOUS
 70
0
 71
3
 72
22
 73
18
 74
0
 42
0.0000001
 43
0.0000001
 44
0.0000000001
 40
0.0
 40
0.0
 40
0.0
 40
0.0
 40
0.1286225793
 40
0.1928726613
 40
0.2568789118
 40
0.3206099161
 40
0.3840388041
 40
0.4471270348
 40
0.5098418243
 40
0.5721752428
 40
0.634131771
 40
0.6957328264
 40
0.7570127579
 40
0.818016002
 40
0.8788034579
 40
0.9394396897
 40
1.0
 40
1.0
 40
1.0
 40
1.0
 10
10.2849194349
 20
4.8250467308
 30
0.0
 10
10.2685953909
 20
4.8250467308
 30
0.0
 10
10.2440383057
 20
4.827319923
 30
0.0
 10
10.2122710423
 20
4.8347884384
 30
0.0
 10
10.1891385157
 20
4.8425642758
 30
0.0
 10
10.1669329182
 20
4.85242598
 30
0.0
 10
10.1458630829
 20
4.864292868
 30
0.0
 10
10.1261229283
 20
4.8780361716
 30
0.0
 10
10.1079120584
 20
4.8935378773
 30
0.0
 10
10.0914052115
 20
4.9106441268
 30
0.0
 10
10.0767560886
 20
4.9291874399
 30
0.0
 10
10.0641184754
 20
4.9489981362
 30
0.0
 10
10.0535986443
 20
4.969875475
 30
0.0
 10
10.0453138848
 20
4.9916265566
 30
0.0
 10
10.0393368487
 20
5.0140376143
 30
0.0
 10
10.0357232972
 20
5.0368900419
 30
0.0
 10
10.034921705
 20
5.0522839169
 30
0.0
 10
10.034921705
 20
5.059969886
 30
0.0
  0
SPLINE
  5
2AF
100
AcDbEntity
  8
0
100
AcDbSpline
 62
9
  6
CONTINUOUS
 70
0
 71
3
 72
11
 73
7
 74
0
 42
0.0000001
 43
0.0000001
 44
0.0000000001
 40
0.0
 40
0.0
 40
0.0
 40
0.0
 40
0.2489908738
 40
0.4986229684
 40
0.7488476707
 40
1.0
 40
1.0
 40
1.0
 40
1.0
 10
9.9395970564
 20
4.8122320076
 30
0.0
 10
9.9395970564
 20
4.8235172483
 30
0.0
 10
9.9408618653
 20
4.8461360642
 30
0.0
 10
9.9464927655
 20
4.8796742598
 30
0.0
 10
9.9558277777
 20
4.9124774552
 30
0.0
 10
9.9644229748
 20
4.9335710336
 30
0.0
 10
9.9692847362
 20
4.9438637817
 30
0.0
  0
SPLINE
  5
2B0
100
AcDbEntity
  8
0
100
AcDbSpline
 62
9
  6
CONTINUOUS
 70
0
 71
3
 72
12
 73
8
 74
0
 42
0.0000001
 43
0.0000001
 44
0.0000000001
 40
0.0
 40
0.0
 40
0.0
 40
0.0
 40
0.2483603075
 40
0.3729637723
 40
0.4977596592
 40
0.7480385405
 40
1.0
 40
1.0
 40
1.0
 40
1.0
 10
9.9884194335
 20
4.8250020476
 30
0.0
 10
9.9884194335
 20
4.8379376523
 30
0.0
 10
9.9898748067
 20
4.857402152
 30
0.0
 10
9.9946463433
 20
4.8829013753
 30
0.0
 10
10.0013171452
 20
4.9080801606
 30
0.0
 10
10.0131492033
 20
4.9386497046
 30
0.0
 10
10.026082873
 20
4.9615075682
 30
0.0
 10
10.0333397463
 20
4.9724417032
 30
0.0
  0
SPLINE
  5
2B1
100
AcDbEntity
  8
0
100
AcDbSpline
 62
9
  6
CONTINUOUS
 70
0
 71
3
 72
12
 73
8
 74
0
 42
0.0000001
 43
0.0000001
 44
0.0000000001
 40
0.0
 40
0.0
 40
0.0
 40
0.0
 40
0.2519614595
 40
0.5022403408
 40
0.6270362277
 40
0.7516396925
 40
1.0
 40
1.0
 40
1.0
 40
1.0
 10
10.5364991235
 20
4.9724417031
 30
0.0
 10
10.5437559969
 20
4.9615075681
 30
0.0
 10
10.5566896666
 20
4.9386497045
 30
0.0
 10
10.5685217246
 20
4.9080801606
 30
0.0
 10
10.5751925265
 20
4.8829013753
 30
0.0
 10
10.5799640631
 20
4.857402152
 30
0.0
 10
10.5814194364
 20
4.8379376523
 30
0.0
 10
10.5814194364
 20
4.8250020476
 30
0.0
  0
SPLINE
  5
2B2
100
AcDbEntity
  8
0
100
AcDbSpline
 62
9
  6
CONTINUOUS
 70
0
 71
3
 72
11
 73
7
 74
0
 42
0.0000001
 43
0.0000001
 44
0.0000000001
 40
0.0
 40
0.0
 40
0.0
 40
0.0
 40
0.2488435286
 40
0.4984230079
 40
0.7486819572
 40
1.0
 40
1.0
 40
1.0
 40
1.0
 10
9.9472528019
 20
4.8180828484
 30
0.0
 10
9.9472528019
 20
4.8299383383
 30
0.0
 10
9.9486822734
 20
4.8537076402
 30
0.0
 10
9.9550361247
 20
4.8888885387
 30
0.0
 10
9.9655606641
 20
4.923177685
 30
0.0
 10
9.9752308042
 20
4.945100168
 30
0.0
 10
9.9806923108
 20
4.9557553925
 30
0.0
  0
SPLINE
  5
2B3
100
AcDbEntity
  8
0
100
AcDbSpline
 62
9
  6
CONTINUOUS
 70
0
 71
3
 72
11
 73
7
 74
0
 42
0.0000001
 43
0.0000001
 44
0.0000000001
 40
0.0
 40
0.0
 40
0.0
 40
0.0
 40
0.2513180428
 40
0.5015769921
 40
0.7511564714
 40
1.0
 40
1.0
 40
1.0
 40
1.0
 10
10.589146559
 20
4.9557553925
 30
0.0
 10
10.5946080656
 20
4.945100168
 30
0.0
 10
10.6042782057
 20
4.923177685
 30
0.0
 10
10.6148027451
 20
4.8888885387
 30
0.0
 10
10.6211565964
 20
4.8537076402
 30
0.0
 10
10.6225860679
 20
4.8299383383
 30
0.0
 10
10.6225860679
 20
4.8180828484
 30
0.0
  0
SPLINE
  5
2B4
100
AcDbEntity
  8
0
100
AcDbSpline
 62
9
  6
CONTINUOUS
 70
0
 71
3
 72
33
 73
29
 74
0
 42
0.0000001
 43
0.0000001
 44
0.0000000001
 40
0.0
 40
0.0
 40
0.0
 40
0.0
 40
0.0302775306
 40
0.060619143
 40
0.0910414778
 40
0.121581976
 40
0.1830572849
 40
0.2452240451
 40
0.2766077843
 40
0.3081634436
 40
0.3398774414
 40
0.371732111
 40
0.4037054468
 40
0.435770461
 40
0.4999987654
 40
0.5642271514
 40
0.5962922655
 40
0.6282657365
 40
0.6601205738
 40
0.6918347635
 40
0.723390636
 40
0.7547746002
 40
0.8169418186
 40
0.8784175497
 40
0.9089582221
 40
0.939380685
 40
0.96972238
 40
1.0
 40
1.0
 40
1.0
 40
1.0
 10
9.9719048254
 20
4.6653808248
 30
0.0
 10
9.9727678657
 20
4.6562928787
 30
0.0
 10
9.9753899172
 20
4.6381697941
 30
0.0
 10
9.9819764735
 20
4.6114794207
 30
0.0
 10
9.9911679175
 20
4.5854818595
 30
0.0
 10
10.0067986133
 20
4.5519852671
 30
0.0
 10
10.032479427
 20
4.5128740384
 30
0.0
 10
10.0652015257
 20
4.4790988782
 30
0.0
 10
10.094941041
 20
4.4558258519
 30
0.0
 10
10.118956088
 20
4.4403324185
 30
0.0
 10
10.1443848422
 20
4.4269861121
 30
0.0
 10
10.1710193984
 20
4.4159145605
 30
0.0
 10
10.1986274528
 20
4.4071992117
 30
0.0
 10
10.2364257342
 20
4.3988260718
 30
0.0
 10
10.2849007195
 20
4.3945937977
 30
0.0
 10
10.3333762014
 20
4.3988206832
 30
0.0
 10
10.3711755184
 20
4.4071895877
 30
0.0
 10
10.3987846671
 20
4.4159018718
 30
0.0
 10
10.4254206222
 20
4.4269704435
 30
0.0
 10
10.4508510581
 20
4.4403139168
 30
0.0
 10
10.4748680548
 20
4.4558046761
 30
0.0
 10
10.5046105143
 20
4.4790743761
 30
0.0
 10
10.5373368662
 20
4.512845873
 30
0.0
 10
10.5630226062
 20
4.5519542381
 30
0.0
 10
10.5786575478
 20
4.5854490894
 30
0.0
 10
10.5878522633
 20
4.6114456157
 30
0.0
 10
10.5944422122
 20
4.6381352445
 30
0.0
 10
10.5970665416
 20
4.6562580524
 30
0.0
 10
10.5979307271
 20
4.6653459167
 30
0.0
  0
SPLINE
  5
2B5
100
AcDbEntity
  8
0
100
AcDbSpline
 62
9
  6
CONTINUOUS
 70
0
 71
3
 72
35
 73
31
 74
0
 42
0.0000001
 43
0.0000001
 44
0.0000000001
 40
0.0
 40
0.0
 40
0.0
 40
0.0
 40
0.0302710169
 40
0.0606153963
 40
0.0910662117
 40
0.1216527147
 40
0.1523907215
 40
0.1832882343
 40
0.2455238454
 40
0.2769182595
 40
0.3084687763
 40
0.34016128
 40
0.3719796007
 40
0.4039027245
 40
0.4359067185
 40
0.5000011168
 40
0.564095448
 40
0.5960993587
 40
0.6280223704
 40
0.6598405507
 40
0.6915328923
 40
0.7230832285
 40
0.7544774477
 40
0.8167126554
 40
0.8476099713
 40
0.8783477898
 40
0.9089341163
 40
0.9393847842
 40
0.9697290547
 40
1.0
 40
1.0
 40
1.0
 40
1.0
 10
9.9839815241
 20
4.6465177482
 30
0.0
 10
9.9855851283
 20
4.6383249629
 30
0.0
 10
9.9895563035
 20
4.6220579554
 30
0.0
 10
9.9977347269
 20
4.598277353
 30
0.0
 10
10.0080709376
 20
4.5752544612
 30
0.0
 10
10.0204970997
 20
4.5531663155
 30
0.0
 10
10.0349102667
 20
4.5321683644
 30
0.0
 10
10.0566755553
 20
4.5057937433
 30
0.0
 10
10.0819754686
 20
4.4822664227
 30
0.0
 10
10.1100809905
 20
4.4621665067
 30
0.0
 10
10.132545953
 20
4.4488160832
 30
0.0
 10
10.1561528063
 20
4.4373445143
 30
0.0
 10
10.1807302085
 20
4.4278456897
 30
0.0
 10
10.2060892818
 20
4.4203768592
 30
0.0
 10
10.2406952134
 20
4.4132139076
 30
0.0
 10
10.2849355171
 20
4.4095974145
 30
0.0
 10
10.3291754453
 20
4.4132182502
 30
0.0
 10
10.3637805946
 20
4.4203846242
 30
0.0
 10
10.3891388381
 20
4.427855944
 30
0.0
 10
10.413715184
 20
4.4373571866
 30
0.0
 10
10.4373207556
 20
4.4488310881
 30
0.0
 10
10.4597842379
 20
4.4621837132
 30
0.0
 10
10.4878875097
 20
4.4822864066
 30
0.0
 10
10.5131848186
 20
4.5058162118
 30
0.0
 10
10.5349471541
 20
4.5321929887
 30
0.0
 10
10.5493579902
 20
4.553192352
 30
0.0
 10
10.5617816864
 20
4.575281724
 30
0.0
 10
10.5721153286
 20
4.598305638
 30
0.0
 10
10.5802911085
 20
4.6220870546
 30
0.0
 10
10.5842604569
 20
4.638354457
 30
0.0
 10
10.585863148
 20
4.6465474008
 30
0.0
  0
SPLINE
  5
2B6
100
AcDbEntity
  8
0
100
AcDbSpline
 62
9
  6
CONTINUOUS
 70
0
 71
3
 72
19
 73
15
 74
0
 42
0.0000001
 43
0.0000001
 44
0.0000000001
 40
0.0
 40
0.0
 40
0.0
 40
0.0
 40
0.0612850046
 40
0.1230012134
 40
0.1851382298
 40
0.2476621272
 40
0.3734616545
 40
0.4999940953
 40
0.6265274855
 40
0.752329684
 40
0.814855399
 40
0.8769944706
 40
0.9387128301
 40
1.0
 40
1.0
 40
1.0
 40
1.0
 10
10.0612315468
 20
4.5576145859
 30
0.0
 10
10.0678595886
 20
4.5496472629
 30
0.0
 10
10.0821014843
 20
4.5344135963
 30
0.0
 10
10.1059714822
 20
4.5140583893
 30
0.0
 10
10.132146086
 20
4.4963781997
 30
0.0
 10
10.1696934505
 20
4.476627018
 30
0.0
 10
10.2206571984
 20
4.4597106991
 30
0.0
 10
10.2848381328
 20
4.4528544064
 30
0.0
 10
10.3490231597
 20
4.4596764497
 30
0.0
 10
10.3999968955
 20
4.4765654708
 30
0.0
 10
10.4375560895
 20
4.4962965101
 30
0.0
 10
10.463741386
 20
4.5139626685
 30
0.0
 10
10.4876236901
 20
4.5343050891
 30
0.0
 10
10.5018748001
 20
4.5495311249
 30
0.0
 10
10.5085076888
 20
4.5574948898
 30
0.0
  0
SPLINE
  5
2B7
100
AcDbEntity
  8
0
100
AcDbSpline
 62
9
  6
CONTINUOUS
 70
0
 71
3
 72
35
 73
31
 74
0
 42
0.0000001
 43
0.0000001
 44
0.0000000001
 40
0.0
 40
0.0
 40
0.0
 40
0.0
 40
0.0302681792
 40
0.0606077246
 40
0.0910135592
 40
0.1215205157
 40
0.1829028468
 40
0.2449928869
 40
0.2763572999
 40
0.307906184
 40
0.3396266295
 40
0.3715012728
 40
0.4035056126
 40
0.4356120768
 40
0.4677881947
 40
0.5
 40
0.5322118053
 40
0.5643879232
 40
0.5964943874
 40
0.6284987272
 40
0.6603733705
 40
0.692093816
 40
0.7236427001
 40
0.7550071131
 40
0.8170971532
 40
0.8784794843
 40
0.9089864408
 40
0.9393922754
 40
0.9697318208
 40
1.0
 40
1.0
 40
1.0
 40
1.0
 10
9.9394400311
 20
4.8083549149
 30
0.0
 10
9.9395629302
 20
4.7978109077
 30
0.0
 10
9.9409108407
 20
4.7766948792
 30
0.0
 10
9.9461866532
 20
4.7453759266
 30
0.0
 10
9.9546970116
 20
4.7146844757
 30
0.0
 10
9.9702402866
 20
4.6749491034
 30
0.0
 10
9.9973615754
 20
4.6282151518
 30
0.0
 10
10.0333966393
 20
4.5875806647
 30
0.0
 10
10.0667457357
 20
4.5594891765
 30
0.0
 10
10.0939233341
 20
4.5407343246
 30
0.0
 10
10.1229083053
 20
4.5245553086
 30
0.0
 10
10.1534306398
 20
4.5111079776
 30
0.0
 10
10.185196575
 20
4.5005102138
 30
0.0
 10
10.21790886
 20
4.4928744913
 30
0.0
 10
10.2512543709
 20
4.4882572563
 30
0.0
 10
10.2849194349
 20
4.4867195404
 30
0.0
 10
10.3185844989
 20
4.4882572563
 30
0.0
 10
10.3519300098
 20
4.4928744913
 30
0.0
 10
10.3846422948
 20
4.5005102138
 30
0.0
 10
10.41640823
 20
4.5111079776
 30
0.0
 10
10.4469305645
 20
4.5245553086
 30
0.0
 10
10.4759155357
 20
4.5407343246
 30
0.0
 10
10.5030931341
 20
4.5594891765
 30
0.0
 10
10.5364422305
 20
4.5875806647
 30
0.0
 10
10.5724772944
 20
4.6282151518
 30
0.0
 10
10.5995985832
 20
4.6749491034
 30
0.0
 10
10.6151418582
 20
4.7146844757
 30
0.0
 10
10.6236522166
 20
4.7453759266
 30
0.0
 10
10.6289280292
 20
4.7766948792
 30
0.0
 10
10.6302759396
 20
4.7978109077
 30
0.0
 10
10.6303988387
 20
4.8083549149
 30
0.0
  0
SPLINE
  5
2B8
100
AcDbEntity
  8
0
100
AcDbSpline
 62
9
  6
CONTINUOUS
 70
0
 71
3
 72
35
 73
31
 74
0
 42
0.0000001
 43
0.0000001
 44
0.0000000001
 40
0.0
 40
0.0
 40
0.0
 40
0.0
 40
0.0302680097
 40
0.060607885
 40
0.0910138565
 40
0.1215210356
 40
0.1829043959
 40
0.2449953106
 40
0.2763599351
 40
0.3079088736
 40
0.3396292057
 40
0.3715035709
 40
0.403507482
 40
0.4356133965
 40
0.4677888766
 40
0.5
 40
0.5322111234
 40
0.5643866035
 40
0.596492518
 40
0.6284964291
 40
0.6603707943
 40
0.6920911264
 40
0.7236400649
 40
0.7550046894
 40
0.8170956041
 40
0.8784789644
 40
0.9089861435
 40
0.939392115
 40
0.9697319903
 40
1.0
 40
1.0
 40
1.0
 40
1.0
 10
9.9396215712
 20
4.808378151
 30
0.0
 10
9.9397555178
 20
4.7978461249
 30
0.0
 10
9.9411231348
 20
4.7767550954
 30
0.0
 10
9.9464219369
 20
4.7454759884
 30
0.0
 10
9.9549494594
 20
4.7148260716
 30
0.0
 10
9.9705073944
 20
4.675147236
 30
0.0
 10
9.9976307472
 20
4.6284841171
 30
0.0
 10
10.0336480927
 20
4.5879147459
 30
0.0
 10
10.0669729138
 20
4.5598696025
 30
0.0
 10
10.0941273598
 20
4.5411462204
 30
0.0
 10
10.123085042
 20
4.5249948173
 30
0.0
 10
10.1535764609
 20
4.5115706544
 30
0.0
 10
10.1853085716
 20
4.5009913566
 30
0.0
 10
10.2179847802
 20
4.4933690077
 30
0.0
 10
10.2512927123
 20
4.4887599014
 30
0.0
 10
10.2849194349
 20
4.4872249011
 30
0.0
 10
10.3185461575
 20
4.4887599014
 30
0.0
 10
10.3518540896
 20
4.4933690077
 30
0.0
 10
10.3845302982
 20
4.5009913566
 30
0.0
 10
10.4162624089
 20
4.5115706544
 30
0.0
 10
10.4467538278
 20
4.5249948173
 30
0.0
 10
10.47571151
 20
4.5411462204
 30
0.0
 10
10.502865956
 20
4.5598696025
 30
0.0
 10
10.5361907771
 20
4.5879147459
 30
0.0
 10
10.5722081226
 20
4.6284841171
 30
0.0
 10
10.5993314754
 20
4.675147236
 30
0.0
 10
10.6148894104
 20
4.7148260716
 30
0.0
 10
10.6234169329
 20
4.7454759884
 30
0.0
 10
10.6287157351
 20
4.7767550954
 30
0.0
 10
10.630083352
 20
4.7978461249
 30
0.0
 10
10.6302172986
 20
4.808378151
 30
0.0
  0
SPLINE
  5
2B9
100
AcDbEntity
  8
0
100
AcDbSpline
 62
9
  6
CONTINUOUS
 70
0
 71
3
 72
35
 73
31
 74
0
 42
0.0000001
 43
0.0000001
 44
0.0000000001
 40
0.0
 40
0.0
 40
0.0
 40
0.0
 40
0.0302600162
 40
0.0606006497
 40
0.0910095456
 40
0.1215131222
 40
0.1521527057
 40
0.1829580624
 40
0.2139419837
 40
0.2451132634
 40
0.2764742228
 40
0.3080209609
 40
0.339741896
 40
0.3716180424
 40
0.4356679823
 40
0.5
 40
0.5643320177
 40
0.6283819576
 40
0.660258104
 40
0.6919790391
 40
0.7235257772
 40
0.7548867366
 40
0.7860580163
 40
0.8170419376
 40
0.8478472943
 40
0.8784868778
 40
0.9089904544
 40
0.9393993503
 40
0.9697399838
 40
1.0
 40
1.0
 40
1.0
 40
1.0
 10
9.9884194335
 20
4.8250020476
 30
0.0
 10
9.9884194335
 20
4.8158938094
 30
0.0
 10
9.9893802834
 20
4.797639219
 30
0.0
 10
9.9936542154
 20
4.7705333288
 30
0.0
 10
10.0007449298
 20
4.7439452764
 30
0.0
 10
10.0105742875
 20
4.7181488938
 30
0.0
 10
10.023046353
 20
4.6933879764
 30
0.0
 10
10.0380413994
 20
4.6698980278
 30
0.0
 10
10.0554077714
 20
4.647898975
 30
0.0
 10
10.0749902236
 20
4.6276154176
 30
0.0
 10
10.0965851987
 20
4.6092281373
 30
0.0
 10
10.1199959209
 20
4.5929274422
 30
0.0
 10
10.1449900577
 20
4.5788554775
 30
0.0
 10
10.180146676
 20
4.5632388384
 30
0.0
 10
10.2268356791
 20
4.5499533348
 30
0.0
 10
10.2849194349
 20
4.5445941866
 30
0.0
 10
10.3430031907
 20
4.5499533348
 30
0.0
 10
10.3896921938
 20
4.5632388384
 30
0.0
 10
10.4248488121
 20
4.5788554775
 30
0.0
 10
10.4498429489
 20
4.5929274422
 30
0.0
 10
10.4732536711
 20
4.6092281373
 30
0.0
 10
10.4948486462
 20
4.6276154176
 30
0.0
 10
10.5144310984
 20
4.647898975
 30
0.0
 10
10.5317974704
 20
4.6698980278
 30
0.0
 10
10.5467925168
 20
4.6933879764
 30
0.0
 10
10.5592645823
 20
4.7181488938
 30
0.0
 10
10.56909394
 20
4.7439452764
 30
0.0
 10
10.5761846544
 20
4.7705333288
 30
0.0
 10
10.5804585864
 20
4.797639219
 30
0.0
 10
10.5814194364
 20
4.8158938094
 30
0.0
 10
10.5814194364
 20
4.8250020476
 30
0.0
  0
SPLINE
  5
2BA
100
AcDbEntity
  8
0
100
AcDbSpline
 62
9
  6
CONTINUOUS
 70
0
 71
3
 72
35
 73
31
 74
0
 42
0.0000001
 43
0.0000001
 44
0.0000000001
 40
0.0
 40
0.0
 40
0.0
 40
0.0
 40
0.0302657826
 40
0.0606064025
 40
0.0910157099
 40
0.121527362
 40
0.1521802289
 40
0.1829992308
 40
0.2139952216
 40
0.2451761439
 40
0.2765430154
 40
0.3080914853
 40
0.3398092368
 40
0.3716776374
 40
0.4357025893
 40
0.5
 40
0.5642974107
 40
0.6283223626
 40
0.6601907632
 40
0.6919085147
 40
0.7234569846
 40
0.7548238561
 40
0.7860047784
 40
0.8170007692
 40
0.8478197711
 40
0.878472638
 40
0.9089842901
 40
0.9393935975
 40
0.9697342174
 40
1.0
 40
1.0
 40
1.0
 40
1.0
 10
9.9473811837
 20
4.8093626801
 30
0.0
 10
9.9476811701
 20
4.7991678754
 30
0.0
 10
9.9493339268
 20
4.7787690149
 30
0.0
 10
9.9549182889
 20
4.7485586466
 30
0.0
 10
9.9635881506
 20
4.7189955793
 30
0.0
 10
9.9752407176
 20
4.6903644517
 30
0.0
 10
9.9897772262
 20
4.6629281975
 30
0.0
 10
10.0070538143
 20
4.6369347394
 30
0.0
 10
10.026910478
 20
4.6126248593
 30
0.0
 10
10.0491694662
 20
4.5902342172
 30
0.0
 10
10.0736106662
 20
4.5699565577
 30
0.0
 10
10.1000187932
 20
4.5519956052
 30
0.0
 10
10.1281397087
 20
4.5364995949
 30
0.0
 10
10.1676162302
 20
4.5193152169
 30
0.0
 10
10.2199255781
 20
4.5047048969
 30
0.0
 10
10.2849194349
 20
4.4988133924
 30
0.0
 10
10.3499132917
 20
4.5047048969
 30
0.0
 10
10.4022226396
 20
4.5193152169
 30
0.0
 10
10.4416991611
 20
4.5364995949
 30
0.0
 10
10.4698200766
 20
4.5519956052
 30
0.0
 10
10.4962282036
 20
4.5699565577
 30
0.0
 10
10.5206694036
 20
4.5902342172
 30
0.0
 10
10.5429283918
 20
4.6126248593
 30
0.0
 10
10.5627850555
 20
4.6369347394
 30
0.0
 10
10.5800616436
 20
4.6629281975
 30
0.0
 10
10.5945981522
 20
4.6903644517
 30
0.0
 10
10.6062507192
 20
4.7189955793
 30
0.0
 10
10.6149205809
 20
4.7485586466
 30
0.0
 10
10.620504943
 20
4.7787690149
 30
0.0
 10
10.6221576998
 20
4.7991678754
 30
0.0
 10
10.6224576861
 20
4.8093626801
 30
0.0
  0
SPLINE
  5
2BB
100
AcDbEntity
  8
0
100
AcDbSpline
 62
9
  6
CONTINUOUS
 70
0
 71
3
 72
15
 73
11
 74
0
 42
0.0000001
 43
0.0000001
 44
0.0000000001
 40
0.0
 40
0.0
 40
0.0
 40
0.0
 40
0.1235403279
 40
0.2482805572
 40
0.3739116468
 40
0.5000161362
 40
0.6261182912
 40
0.7517426202
 40
0.8764724473
 40
1.0
 40
1.0
 40
1.0
 40
1.0
 10
10.0968313693
 20
4.5316797564
 30
0.0
 10
10.1097195301
 20
4.520934255
 30
0.0
 10
10.1376412555
 20
4.5016485736
 30
0.0
 10
10.184061787
 20
4.4804496189
 30
0.0
 10
10.2337849769
 20
4.4674625767
 30
0.0
 10
10.2851708767
 20
4.4631163428
 30
0.0
 10
10.3365486002
 20
4.4675477247
 30
0.0
 10
10.3862474741
 20
4.4806172867
 30
0.0
 10
10.432628302
 20
4.501893371
 30
0.0
 10
10.460514042
 20
4.5212256386
 30
0.0
 10
10.4733820344
 20
4.5319925802
 30
0.0
  0
SPLINE
  5
2BC
100
AcDbEntity
  8
0
100
AcDbSpline
 62
9
  6
CONTINUOUS
 70
0
 71
3
 72
11
 73
7
 74
0
 42
0.0000001
 43
0.0000001
 44
0.0000000001
 40
0.0
 40
0.0
 40
0.0
 40
0.0
 40
0.251151225
 40
0.5013758829
 40
0.7510084325
 40
1.0
 40
1.0
 40
1.0
 40
1.0
 10
10.6005832021
 20
4.943802224
 30
0.0
 10
10.6054402814
 20
4.9335136134
 30
0.0
 10
10.6140271356
 20
4.9124290436
 30
0.0
 10
10.6233529488
 20
4.8796410576
 30
0.0
 10
10.6289782609
 20
4.8461191796
 30
0.0
 10
10.6302418134
 20
4.8235116381
 30
0.0
 10
10.6302418134
 20
4.8122320076
 30
0.0
  0
SPLINE
  5
2BD
100
AcDbEntity
  8
0
100
AcDbSpline
 62
7
  6
CONTINUOUS
 70
0
 71
3
 72
22
 73
18
 74
0
 42
0.0000001
 43
0.0000001
 44
0.0000000001
 40
0.0
 40
0.0
 40
0.0
 40
0.0
 40
0.0605603103
 40
0.1211965421
 40
0.181983998
 40
0.2429872421
 40
0.3042671736
 40
0.365868229
 40
0.4278247572
 40
0.4901581757
 40
0.5528729652
 40
0.6159611959
 40
0.6793900839
 40
0.7431210882
 40
0.8071273387
 40
0.8713774207
 40
1.0
 40
1.0
 40
1.0
 40
1.0
 10
10.5349171648
 20
4.8250020476
 30
0.0
 10
10.5349171648
 20
4.8173160785
 30
0.0
 10
10.5341155726
 20
4.8019222034
 30
0.0
 10
10.5305020211
 20
4.7790697758
 30
0.0
 10
10.5245249851
 20
4.7566587181
 30
0.0
 10
10.5162402255
 20
4.7349076366
 30
0.0
 10
10.5057203945
 20
4.7140302978
 30
0.0
 10
10.4930827813
 20
4.6942196014
 30
0.0
 10
10.4784336584
 20
4.6756762884
 30
0.0
 10
10.4619268115
 20
4.6585700389
 30
0.0
 10
10.4437159416
 20
4.6430683331
 30
0.0
 10
10.423975787
 20
4.6293250295
 30
0.0
 10
10.4029059517
 20
4.6174581415
 30
0.0
 10
10.3807003542
 20
4.6075964373
 30
0.0
 10
10.3575678276
 20
4.5998205999
 30
0.0
 10
10.3258005641
 20
4.5923520845
 30
0.0
 10
10.3012434789
 20
4.5900788924
 30
0.0
 10
10.2849194349
 20
4.5900788924
 30
0.0
  0
SPLINE
  5
2BE
100
AcDbEntity
  8
0
100
AcDbSpline
 62
9
  6
CONTINUOUS
 70
0
 71
3
 72
22
 73
18
 74
0
 42
0.0000001
 43
0.0000001
 44
0.0000000001
 40
0.0
 40
0.0
 40
0.0
 40
0.0
 40
0.0605603103
 40
0.1211965421
 40
0.181983998
 40
0.2429872421
 40
0.3042671736
 40
0.365868229
 40
0.4278247572
 40
0.4901581757
 40
0.5528729652
 40
0.6159611959
 40
0.6793900839
 40
0.7431210882
 40
0.8071273387
 40
0.8713774207
 40
1.0
 40
1.0
 40
1.0
 40
1.0
 10
10.5349171648
 20
5.059969886
 30
0.0
 10
10.5349171648
 20
5.0522839169
 30
0.0
 10
10.5341155726
 20
5.0368900419
 30
0.0
 10
10.5305020211
 20
5.0140376143
 30
0.0
 10
10.5245249851
 20
4.9916265566
 30
0.0
 10
10.5162402255
 20
4.969875475
 30
0.0
 10
10.5057203945
 20
4.9489981362
 30
0.0
 10
10.4930827813
 20
4.9291874399
 30
0.0
 10
10.4784336584
 20
4.9106441268
 30
0.0
 10
10.4619268115
 20
4.8935378773
 30
0.0
 10
10.4437159416
 20
4.8780361716
 30
0.0
 10
10.423975787
 20
4.864292868
 30
0.0
 10
10.4029059517
 20
4.85242598
 30
0.0
 10
10.3807003542
 20
4.8425642758
 30
0.0
 10
10.3575678276
 20
4.8347884384
 30
0.0
 10
10.3258005641
 20
4.827319923
 30
0.0
 10
10.3012434789
 20
4.8250467308
 30
0.0
 10
10.2849194349
 20
4.8250467308
 30
0.0
  0
SPLINE
  5
2BF
100
AcDbEntity
  8
0
100
AcDbSpline
 62
7
  6
CONTINUOUS
 70
0
 71
3
 72
11
 73
7
 74
0
 42
0.0000001
 43
0.0000001
 44
0.0000000001
 40
0.0
 40
0.0
 40
0.0
 40
0.0
 40
0.2487868626
 40
0.4982517983
 40
0.7485319298
 40
1.0
 40
1.0
 40
1.0
 40
1.0
 10
9.9394999045
 20
4.8188856906
 30
0.0
 10
9.9397940262
 20
4.8316568351
 30
0.0
 10
9.9419958101
 20
4.8572251226
 30
0.0
 10
9.950068639
 20
4.8949017614
 30
0.0
 10
9.9628155726
 20
4.9314093346
 30
0.0
 10
9.9742749881
 20
4.9545688294
 30
0.0
 10
9.9806935568
 20
4.9657727269
 30
0.0
  0
ENDSEC
  0
SECTION
  2
OBJECTS
  0
DICTIONARY
  5
C
100
AcDbDictionary
280
0
281
1
  3
ACAD_GROUP
350
D
  3
ACAD_MLINESTYLE
350
17
  3
ACAD_LAYOUT
350
1A
  3
ACAD_PLOTSETTINGS
350
19
  3
ACAD_PLOTSTYLENAME
350
E
  0
DICTIONARY
  5
D
102
{ACAD_REACTORS
330
C
102
}
100
AcDbDictionary
280
0
281
1
  0
ACDBDICTIONARYWDFLT
  5
E
102
{ACAD_REACTORS
330
C
102
}
100
AcDbDictionary
281
1
  3
Normal
350
F
100
AcDbDictionaryWithDefault
340
F
  0
DICTIONARY
  5
17
102
{ACAD_REACTORS
330
C
102
}
100
AcDbDictionary
280
0
281
1
  3
Standard
350
18
  0
DICTIONARY
  5
19
102
{ACAD_REACTORS
330
C
102
}
100
AcDbDictionary
281
1
  0
DICTIONARY
  5
1A
102
{ACAD_REACTORS
330
C
102
}
100
AcDbDictionary
281
1
  3
Model
350
2C0
  3
Layout1
350
2C1
  0
ACDBPLACEHOLDER
  5
F
102
{ACAD_REACTORS
330
E
102
}
  0
MLINESTYLE
  5
18
102
{ACAD_REACTORS
330
17
102
}
100
AcDbMlineStyle
  2
STANDARD
 70
0
  3

 62
256
 51
90.0
 52
90.0
 71
2
 49
0.5
 62
256
  6
BYLAYER
 49
-0.5
 62
256
  6
BYLAYER
  0
LAYOUT
  5
2C0
102
{ACAD_REACTORS
330
1A
102
}
100
AcDbPlotSettings
  1

  2
none_device
  4
ANSI_C_(22.00_x_17.00_Inches)
  6

 40
0.0
 41
0.0
 42
0.0
 43
0.0
 44
558.8
 45
431.8
 46
0.0
 47
0.0
 48
0.0
 49
0.0
140
0.0
141
0.0
142
1.0
143
1.0
 70
1024
 72
0
 73
0
 74
0
  7

 75
0
147
1.0
148
0.0
149
0.0
100
AcDbLayout
  1
Model
 70
0
 71
0
 10
0.0
 20
0.0
 11
22.0
 21
17.0
 12
0.0
 22
0.0
 32
0.0
 14
0.0
 24
0.0
 34
0.0
 15
0.0
 25
0.0
 35
0.0
146
0.0
 13
0.0
 23
0.0
 33
0.0
 16
1.0
 26
0.0
 36
0.0
 17
0.0
 27
1.0
 37
0.0
 76
0
330
205
345
0
346
0
  0
LAYOUT
  5
2C1
102
{ACAD_REACTORS
330
1A
102
}
100
AcDbPlotSettings
  1

  2
none_device
  4
ANSI_C_(22.00_x_17.00_Inches)
  6

 40
0.0
 41
0.0
 42
0.0
 43
0.0
 44
558.8
 45
431.8
 46
0.0
 47
0.0
 48
0.0
 49
0.0
140
0.0
141
0.0
142
1.0
143
1.0
 70
0
 72
0
 73
0
 74
0
  7

 75
0
147
1.0
148
0.0
149
0.0
100
AcDbLayout
  1
Layout1
 70
0
 71
1
 10
0.0
 20
0.0
 11
22.0
 21
17.0
 12
0.0
 22
0.0
 32
0.0
 14
0.0
 24
0.0
 34
0.0
 15
0.0
 25
0.0
 35
0.0
146
0.0
 13
0.0
 23
0.0
 33
0.0
 16
1.0
 26
0.0
 36
0.0
 17
0.0
 27
1.0
 37
0.0
 76
0
330
206
345
0
346
0
  0
ENDSEC
  0
EOF
