999
DXF file: E:\BT Custom\CADOUTPUT\_FRONT.dxf
999
Pro/ENGINEER 2018400 by Parametric Technology Corporation
  0
SECTION
  2
HEADER
  9
$ACADVER
  1
AC1018
  9
$DWGCODEPAGE
  3
ANSI_1252
  9
$EXTMAX
 10
22.0
 20
17.0
 30
0.0
  9
$EXTMIN
 10
0.0
 20
0.0
 30
0.0
  9
$LIMMIN
 10
0.0
 20
0.0
  9
$LIMMAX
 10
22.0
 20
17.0
  9
$VIEWCTR
 10
11.0
 20
8.5
  9
$VIEWSIZE
 40
17.0
  9
$CLAYER
  8
0
  9
$LTSCALE
 40
1.21
  9
$CELTYPE
  6
BYLAYER
  9
$DIMSCALE
 40
1.0
  9
$DIMASZ
 40
0.1
  9
$DIMEXO
 40
0.0625
  9
$DIMDLI
 40
0.836
  9
$DIMEXE
 40
0.125
  9
$DIMCEN
 40
0.198
  9
$DIMLFAC
 40
1.0
  9
$DIMBLK
  1
_FILLED
  9
$DIMALT
 70
1
  9
$DIMALTD
 70
2
  9
$DIMALTTD
 70
2
  9
$DIMALTF
 40
25.4
  9
$DIMTXT
 40
0.08
  9
$DIMTOL
 70
1
  9
$DIMLIM
 70
0
  9
$DIMTFAC
 40
1.0
  9
$DIMTP
 40
0.001
  9
$DIMTM
 40
0.001
  9
$DIMGAP
 40
0.09
  9
$DIMDSEP
 70
46
  9
$AUNITS
 70
0
  9
$PDMODE
 70
3
  9
$PDSIZE
 40
0.06
  9
$HANDSEED
  5
2B7
  9
$TILEMODE
 70
1
  9
$MEASUREMENT
 70
0
  9
$INSUNITS
 70
1
  0
ENDSEC
  0
SECTION
  2
CLASSES
  0
CLASS
  1
ACDBDICTIONARYWDFLT
  2
AcDbDictionaryWithDefault
  3
AutoCAD 2000
 90
0
 91
1
280
0
281
0
  0
CLASS
  1
ACDBPLACEHOLDER
  2
AcDbPlaceHolder
  3
AutoCAD 2000
 90
0
 91
1
280
0
281
0
  0
CLASS
  1
LAYOUT
  2
AcDbLayout
  3
AutoCAD 2000
 90
0
 91
0
280
0
281
0
  0
ENDSEC
  0
SECTION
  2
TABLES
  0
TABLE
  2
VPORT
  5
8
100
AcDbSymbolTable
 70
2
  0
VPORT
  5
1F4
100
AcDbSymbolTableRecord
100
AcDbViewportTableRecord
  2
*ACTIVE
 70
0
 10
0.0
 20
0.0
 11
1.0
 21
1.0
 12
11.0
 22
8.5
 13
0.0
 23
0.0
 14
1.0
 24
1.0
 15
0.0
 25
0.0
 16
0.0
 26
0.0
 36
1.0
 17
0.0
 27
0.0
 37
0.0
 40
17.0
 41
1.2941176471
 42
50.0
 43
0.0
 44
0.0
 50
0.0
 51
0.0
 71
0
 72
100
 73
1
 74
1
 75
0
 76
0
 77
0
 78
0
  0
ENDTAB
  0
TABLE
  2
LTYPE
  5
5
100
AcDbSymbolTable
 70
6
  0
LTYPE
  5
14
100
AcDbSymbolTableRecord
100
AcDbLinetypeTableRecord
  2
BYBLOCK
 70
0
  3

 72
65
 73
0
 40
0.0
  0
LTYPE
  5
15
100
AcDbSymbolTableRecord
100
AcDbLinetypeTableRecord
  2
BYLAYER
 70
0
  3

 72
65
 73
0
 40
0.0
  0
LTYPE
  5
16
100
AcDbSymbolTableRecord
100
AcDbLinetypeTableRecord
  2
CONTINUOUS
 70
64
  3
Solid line
 72
65
 73
0
 40
0.0
  0
LTYPE
  5
1F5
100
AcDbSymbolTableRecord
100
AcDbLinetypeTableRecord
  2
CENTER
 70
64
  3
____ _ ____ _ ____ _ ____ _ ____ _ ____ _ ____
 72
65
 73
4
 40
0.6
 49
0.375
 74
0
 49
-0.075
 74
0
 49
0.075
 74
0
 49
-0.075
 74
0
  0
LTYPE
  5
1F6
100
AcDbSymbolTableRecord
100
AcDbLinetypeTableRecord
  2
HIDDEN
 70
64
  3
- - - - - - - - - - - - - - - - - - - -
 72
65
 73
2
 40
0.2
 49
0.1
 74
0
 49
-0.1
 74
0
  0
LTYPE
  5
1F7
100
AcDbSymbolTableRecord
100
AcDbLinetypeTableRecord
  2
PHANTOM
 70
64
  3
_____ _ _ _____ _ _ _____ _ _ _____
 72
65
 73
6
 40
0.8
 49
0.45
 74
0
 49
-0.05
 74
0
 49
0.1
 74
0
 49
-0.05
 74
0
 49
0.1
 74
0
 49
-0.05
 74
0
  0
LTYPE
  5
1F8
100
AcDbSymbolTableRecord
100
AcDbLinetypeTableRecord
  2
DOT
 70
64
  3
. . . . . . . . . . . . . . . . . . . .
 72
65
 73
2
 40
0.2
 49
0.1
 74
0
 49
-0.1
 74
0
  0
LTYPE
  5
1F9
100
AcDbSymbolTableRecord
100
AcDbLinetypeTableRecord
  2
DASHED
 70
64
  3
- - - - - - - - - - - - - - - - - - - -
 72
65
 73
2
 40
0.2
 49
0.1
 74
0
 49
-0.1
 74
0
  0
ENDTAB
  0
TABLE
  2
LAYER
  5
2
100
AcDbSymbolTable
 70
36
  0
LAYER
  5
10
100
AcDbSymbolTableRecord
100
AcDbLayerTableRecord
  2
0
 70
0
 62
7
  6
CONTINUOUS
370
-3
390
F
  0
LAYER
  5
1FA
100
AcDbSymbolTableRecord
100
AcDbLayerTableRecord
  2
DEFAULT_1
 70
0
 62
7
  6
CENTER
370
-3
390
F
  0
LAYER
  5
1FB
100
AcDbSymbolTableRecord
100
AcDbLayerTableRecord
  2
DEFAULT_2
 70
0
 62
8
  6
HIDDEN
370
-3
390
F
  0
LAYER
  5
1FC
100
AcDbSymbolTableRecord
100
AcDbLayerTableRecord
  2
DEFAULT_3
 70
0
 62
7
  6
PHANTOM
370
-3
390
F
  0
LAYER
  5
1FD
100
AcDbSymbolTableRecord
100
AcDbLayerTableRecord
  2
ALL_FEATURES
 70
0
 62
7
  6
CONTINUOUS
370
-3
390
F
  0
LAYER
  5
1FE
100
AcDbSymbolTableRecord
100
AcDbLayerTableRecord
  2
AXES_FEATURES
 70
0
 62
7
  6
CONTINUOUS
370
-3
390
F
  0
LAYER
  5
1FF
100
AcDbSymbolTableRecord
100
AcDbLayerTableRecord
  2
DIMENSIONS
 70
0
 62
7
  6
CONTINUOUS
370
-3
390
F
  0
ENDTAB
  0
TABLE
  2
STYLE
  5
3
100
AcDbSymbolTable
 70
1
  0
STYLE
  5
11
100
AcDbSymbolTableRecord
100
AcDbTextStyleTableRecord
  2
STANDARD
 70
0
 40
0.0
 41
0.8
 50
0.0
 71
0
 42
0.2
  3
txt
  4

  0
STYLE
  5
200
100
AcDbSymbolTableRecord
100
AcDbTextStyleTableRecord
  2
TEXTSTYLE_1
 70
0
 40
0.0
 41
0.8
 50
0.0
 71
0
 42
0.2
  3
gdt
  4

  0
ENDTAB
  0
TABLE
  2
VIEW
  5
6
100
AcDbSymbolTable
 70
0
  0
ENDTAB
  0
TABLE
  2
UCS
  5
7
100
AcDbSymbolTable
 70
0
  0
ENDTAB
  0
TABLE
  2
APPID
  5
9
100
AcDbSymbolTable
 70
1
  0
APPID
  5
201
100
AcDbSymbolTableRecord
100
AcDbRegAppTableRecord
  2
ACAD
 70
0
  0
ENDTAB
  0
TABLE
  2
BLOCK_RECORD
  5
1
100
AcDbSymbolTable
 70
0
  0
BLOCK_RECORD
  5
202
100
AcDbSymbolTableRecord
100
AcDbBlockTableRecord
  2
*Model_Space
  0
BLOCK_RECORD
  5
203
100
AcDbSymbolTableRecord
100
AcDbBlockTableRecord
  2
*Paper_Space
  0
BLOCK_RECORD
  5
204
100
AcDbSymbolTableRecord
100
AcDbBlockTableRecord
  2
_FILLED
  0
ENDTAB
  0
TABLE
  2
DIMSTYLE
  5
A
100
AcDbSymbolTable
 70
1
100
AcDbDimStyleTable
 71
0
  0
DIMSTYLE
105
205
100
AcDbSymbolTableRecord
100
AcDbDimStyleTableRecord
  2
STANDARD
 70
0
  3

  4

 40
1.0
 41
0.1
 42
0.0625
 43
0.38
 44
0.125
 45
0.0
 46
0.0
 47
0.001
 48
0.001
140
0.08
141
0.09
142
0.0
143
25.4
144
1.0
145
0.0
146
1.0
147
0.09
 71
1.0
 72
0.0
 73
1
 74
1
 75
0
 76
0
 77
0
 78
4
 79
1
170
1
171
2
172
0
173
0
174
0
175
0
176
0
177
0
178
0
270
2
179
3
271
3
272
3
273
2
274
2
275
0
280
0
281
0
282
0
283
1
284
4
285
0
286
0
287
3
288
0
340
11
278
46
341
204
342
204
343
204
344
204
  0
ENDTAB
  0
ENDSEC
  0
SECTION
  2
BLOCKS
  0
BLOCK
  5
20
100
AcDbEntity
  8
0
100
AcDbBlockBegin
  2
*Model_Space
 70
0
 10
0.0
 20
0.0
 30
0.0
  3
*Model_Space
  1

  0
ENDBLK
  5
21
100
AcDbEntity
  8
0
100
AcDbBlockEnd
  0
BLOCK
  5
1C
100
AcDbEntity
  8
0
100
AcDbBlockBegin
  2
*Paper_Space
 70
0
 10
0.0
 20
0.0
 30
0.0
  3
*Paper_Space
  1

  0
ENDBLK
  5
1D
100
AcDbEntity
  8
0
100
AcDbBlockEnd
  0
BLOCK
  5
206
100
AcDbEntity
  8
0
100
AcDbBlockBegin
  2
_FILLED
 70
64
 10
0.0
 20
0.0
  3
_FILLED
  1

  0
SOLID
  5
207
100
AcDbEntity
  8
0
  6
BYBLOCK
 62
0
100
AcDbTrace
 10
0.0
 20
0.0
 11
-1.0
 21
0.2
 12
-1.0
 22
-0.2
 13
-1.0
 23
-0.2
  0
ENDBLK
  5
208
100
AcDbEntity
  8
0
  6
BYBLOCK
 62
0
100
AcDbBlockEnd
  0
ENDSEC
  0
SECTION
  2
ENTITIES
  0
LINE
  5
209
100
AcDbEntity
  8
0
100
AcDbLine
 62
7
  6
CONTINUOUS
 10
4.3776923427
 20
9.0511695021
 11
4.3776923427
 21
9.9551695021
  0
LINE
  5
20A
100
AcDbEntity
  8
0
100
AcDbLine
 62
9
  6
CONTINUOUS
 10
4.4176923427
 20
9.9951695021
 11
4.4176923427
 21
9.0111695021
  0
LINE
  5
20B
100
AcDbEntity
  8
0
100
AcDbLine
 62
7
  6
CONTINUOUS
 10
6.0126923427
 20
6.5451695021
 11
6.0126923427
 21
6.7751695021
  0
LINE
  5
20C
100
AcDbEntity
  8
0
100
AcDbLine
 62
7
  6
CONTINUOUS
 10
6.5076923427
 20
8.9711695021
 11
6.5076923427
 21
7.2211695021
  0
LINE
  5
20D
100
AcDbEntity
  8
0
100
AcDbLine
 62
7
  6
CONTINUOUS
 10
6.5076923427
 20
6.7951695021
 11
6.5076923427
 21
7.1711695021
  0
LINE
  5
20E
100
AcDbEntity
  8
0
100
AcDbLine
 62
7
  6
CONTINUOUS
 10
6.5976923427
 20
7.1711695021
 11
6.5976923427
 21
7.2211695021
  0
LINE
  5
20F
100
AcDbEntity
  8
0
100
AcDbLine
 62
7
  6
CONTINUOUS
 10
7.2776923427
 20
7.1711695021
 11
7.2776923427
 21
7.2211695021
  0
LINE
  5
210
100
AcDbEntity
  8
0
100
AcDbLine
 62
9
  6
CONTINUOUS
 10
7.3426671998
 20
9.7449022067
 11
7.3426671998
 21
9.0511619894
  0
LINE
  5
211
100
AcDbEntity
  8
0
100
AcDbLine
 62
7
  6
CONTINUOUS
 10
7.3676923427
 20
8.9711695021
 11
7.3676923427
 21
7.2211695021
  0
LINE
  5
212
100
AcDbEntity
  8
0
100
AcDbLine
 62
7
  6
CONTINUOUS
 10
7.3676923427
 20
6.7951695021
 11
7.3676923427
 21
7.1711695021
  0
LINE
  5
213
100
AcDbEntity
  8
0
100
AcDbLine
 62
9
  6
CONTINUOUS
 10
7.3803379507
 20
9.7449138507
 11
7.3803389286
 21
9.0511695021
  0
LINE
  5
214
100
AcDbEntity
  8
0
100
AcDbLine
 62
9
  6
CONTINUOUS
 10
7.5246923427
 20
9.0111695021
 11
7.5246923427
 21
9.9951695021
  0
LINE
  5
215
100
AcDbEntity
  8
0
100
AcDbLine
 62
7
  6
CONTINUOUS
 10
7.5646923427
 20
9.9551695021
 11
7.5646923427
 21
9.0511695021
  0
LINE
  5
216
100
AcDbEntity
  8
0
100
AcDbLine
 62
9
  6
CONTINUOUS
 10
6.5245630219
 20
9.0776087238
 11
6.5528472931
 21
9.0493244525
  0
LINE
  5
217
100
AcDbEntity
  8
0
100
AcDbLine
 62
7
  6
CONTINUOUS
 10
7.8626923427
 20
6.5451695021
 11
7.8626923427
 21
6.7751695021
  0
LINE
  5
218
100
AcDbEntity
  8
0
100
AcDbLine
 62
9
  6
CONTINUOUS
 10
7.2376848402
 20
9.7907305421
 11
6.5245630219
 21
9.0776087238
  0
LINE
  5
219
100
AcDbEntity
  8
0
100
AcDbLine
 62
7
  6
CONTINUOUS
 10
7.265969114
 20
9.7624462734
 11
6.5528472959
 21
9.0493244554
  0
LINE
  5
21A
100
AcDbEntity
  8
0
100
AcDbLine
 62
7
  6
CONTINUOUS
 10
6.0126928177
 20
6.5451695021
 11
7.8626919991
 21
6.5451695021
  0
LINE
  5
21B
100
AcDbEntity
  8
0
100
AcDbLine
 62
7
  6
CONTINUOUS
 10
9.9377089593
 20
6.5451695021
 11
11.9376757262
 21
6.5451695021
  0
LINE
  5
21C
100
AcDbEntity
  8
0
100
AcDbLine
 62
7
  6
CONTINUOUS
 10
14.0126928177
 20
6.5451695021
 11
15.8626919991
 21
6.5451695021
  0
LINE
  5
21D
100
AcDbEntity
  8
0
100
AcDbLine
 62
9
  6
CONTINUOUS
 10
15.8626919991
 20
6.7751695021
 11
14.0126923427
 21
6.7751695021
  0
LINE
  5
21E
100
AcDbEntity
  8
0
100
AcDbLine
 62
9
  6
CONTINUOUS
 10
7.8626919991
 20
6.7751695021
 11
6.0126923427
 21
6.7751695021
  0
LINE
  5
21F
100
AcDbEntity
  8
0
100
AcDbLine
 62
7
  6
CONTINUOUS
 10
15.8426920065
 20
6.7951695021
 11
14.0326934289
 21
6.7951695021
  0
LINE
  5
220
100
AcDbEntity
  8
0
100
AcDbLine
 62
7
  6
CONTINUOUS
 10
7.8426920065
 20
6.7951695021
 11
6.0326934289
 21
6.7951695021
  0
LINE
  5
221
100
AcDbEntity
  8
0
100
AcDbLine
 62
9
  6
CONTINUOUS
 10
11.9376923427
 20
6.9251695021
 11
11.5463512322
 21
6.9251695021
  0
LINE
  5
222
100
AcDbEntity
  8
0
100
AcDbLine
 62
9
  6
CONTINUOUS
 10
10.3290334533
 20
6.9251695021
 11
9.9376923427
 21
6.9251695021
  0
LINE
  5
223
100
AcDbEntity
  8
0
100
AcDbLine
 62
7
  6
CONTINUOUS
 10
11.8976773493
 20
6.9651695021
 11
11.514366756
 21
6.9651695021
  0
LINE
  5
224
100
AcDbEntity
  8
0
100
AcDbLine
 62
7
  6
CONTINUOUS
 10
10.3610179295
 20
6.9651695021
 11
9.9777073362
 21
6.9651695021
  0
LINE
  5
225
100
AcDbEntity
  8
0
100
AcDbLine
 62
7
  6
CONTINUOUS
 10
11.4326923427
 20
7.0451695021
 11
10.4426923427
 21
7.0451695021
  0
LINE
  5
226
100
AcDbEntity
  8
0
100
AcDbLine
 62
9
  6
CONTINUOUS
 10
11.4001923427
 20
7.1251695021
 11
10.4751923427
 21
7.1251695021
  0
LINE
  5
227
100
AcDbEntity
  8
0
100
AcDbLine
 62
7
  6
CONTINUOUS
 10
15.367691514
 20
7.1711695021
 11
14.5076931715
 21
7.1711695021
  0
LINE
  5
228
100
AcDbEntity
  8
0
100
AcDbLine
 62
7
  6
CONTINUOUS
 10
7.367691514
 20
7.1711695021
 11
6.5076931715
 21
7.1711695021
  0
LINE
  5
229
100
AcDbEntity
  8
0
100
AcDbLine
 62
7
  6
CONTINUOUS
 10
6.5076923427
 20
7.2211695021
 11
7.3676923427
 21
7.2211695021
  0
LINE
  5
22A
100
AcDbEntity
  8
0
100
AcDbLine
 62
7
  6
CONTINUOUS
 10
14.5076923427
 20
7.2211695021
 11
15.3676923427
 21
7.2211695021
  0
LINE
  5
22B
100
AcDbEntity
  8
0
100
AcDbLine
 62
7
  6
CONTINUOUS
 10
10.427698736
 20
7.2451695021
 11
10.4941980904
 21
7.2451695021
  0
LINE
  5
22C
100
AcDbEntity
  8
0
100
AcDbLine
 62
7
  6
CONTINUOUS
 10
11.3811865951
 20
7.2451695021
 11
11.4476859495
 21
7.2451695021
  0
LINE
  5
22D
100
AcDbEntity
  8
0
100
AcDbLine
 62
9
  6
CONTINUOUS
 10
10.3876923427
 20
7.2851695021
 11
10.5088967054
 21
7.2851695021
  0
LINE
  5
22E
100
AcDbEntity
  8
0
100
AcDbLine
 62
9
  6
CONTINUOUS
 10
11.36648798
 20
7.2851695021
 11
11.4876923427
 21
7.2851695021
  0
LINE
  5
22F
100
AcDbEntity
  8
0
100
AcDbLine
 62
9
  6
CONTINUOUS
 10
10.5104088365
 20
7.2892720662
 11
11.3649804298
 21
7.2892720662
  0
LINE
  5
230
100
AcDbEntity
  8
0
100
AcDbLine
 62
7
  6
CONTINUOUS
 10
11.3558607276
 20
7.2951695021
 11
10.5195284409
 21
7.2951695021
  0
LINE
  5
231
100
AcDbEntity
  8
0
100
AcDbLine
 62
9
  6
CONTINUOUS
 10
6.5051984892
 20
9.0511694971
 11
6.5402917818
 21
9.0332315728
  0
LINE
  5
232
100
AcDbEntity
  8
0
100
AcDbLine
 62
9
  6
CONTINUOUS
 10
7.2659690512
 20
9.7624462106
 11
7.23768478
 21
9.7907304819
  0
LINE
  5
233
100
AcDbEntity
  8
0
100
AcDbLine
 62
9
  6
CONTINUOUS
 10
11.4876923427
 20
7.4451695021
 11
10.3876923427
 21
7.4451695021
  0
LINE
  5
234
100
AcDbEntity
  8
0
100
AcDbLine
 62
7
  6
CONTINUOUS
 10
10.4276987553
 20
7.4851695021
 11
11.4476859301
 21
7.4851695021
  0
LINE
  5
235
100
AcDbEntity
  8
0
100
AcDbLine
 62
9
  6
CONTINUOUS
 10
11.7476923427
 20
7.7551695021
 11
10.1276923427
 21
7.7551695021
  0
LINE
  5
236
100
AcDbEntity
  8
0
100
AcDbLine
 62
7
  6
CONTINUOUS
 10
10.1676930802
 20
7.7951695021
 11
11.7076916053
 21
7.7951695021
  0
LINE
  5
237
100
AcDbEntity
  8
0
100
AcDbLine
 62
7
  6
CONTINUOUS
 10
9.9276923427
 20
11.3801695021
 11
9.9276923427
 21
11.8001695021
  0
LINE
  5
238
100
AcDbEntity
  8
0
100
AcDbLine
 62
7
  6
CONTINUOUS
 10
9.9376923427
 20
6.9251695021
 11
9.9376923427
 21
6.5451695021
  0
LINE
  5
239
100
AcDbEntity
  8
0
100
AcDbLine
 62
7
  6
CONTINUOUS
 10
10.1276923427
 20
11.9501695021
 11
10.1276923427
 21
11.8401695021
  0
LINE
  5
23A
100
AcDbEntity
  8
0
100
AcDbLine
 62
7
  6
CONTINUOUS
 10
10.1276923427
 20
7.7551695021
 11
10.1276923427
 21
6.9651695021
  0
LINE
  5
23B
100
AcDbEntity
  8
0
100
AcDbLine
 62
7
  6
CONTINUOUS
 10
10.1276923427
 20
10.1401695021
 11
10.1276923427
 21
11.3401695021
  0
LINE
  5
23C
100
AcDbEntity
  8
0
100
AcDbLine
 62
7
  6
CONTINUOUS
 10
10.2376923427
 20
7.7951695021
 11
10.2376923427
 21
10.1401695021
  0
LINE
  5
23D
100
AcDbEntity
  8
0
100
AcDbLine
 62
7
  6
CONTINUOUS
 10
10.3876923427
 20
7.2851695021
 11
10.3876923427
 21
7.4451695021
  0
LINE
  5
23E
100
AcDbEntity
  8
0
100
AcDbLine
 62
7
  6
CONTINUOUS
 10
10.4751923427
 20
7.0451695021
 11
10.4751923427
 21
7.1251695021
  0
LINE
  5
23F
100
AcDbEntity
  8
0
100
AcDbLine
 62
9
  6
CONTINUOUS
 10
15.3676923427
 20
8.9711695021
 11
15.3617294961
 21
8.9711695021
  0
LINE
  5
240
100
AcDbEntity
  8
0
100
AcDbLine
 62
9
  6
CONTINUOUS
 10
14.5136551893
 20
8.9711695021
 11
14.5076923427
 21
8.9711695021
  0
LINE
  5
241
100
AcDbEntity
  8
0
100
AcDbLine
 62
9
  6
CONTINUOUS
 10
7.3676923427
 20
8.9711695021
 11
7.3617294961
 21
8.9711695021
  0
LINE
  5
242
100
AcDbEntity
  8
0
100
AcDbLine
 62
9
  6
CONTINUOUS
 10
6.5136551893
 20
8.9711695021
 11
6.5076923427
 21
8.9711695021
  0
LINE
  5
243
100
AcDbEntity
  8
0
100
AcDbLine
 62
7
  6
CONTINUOUS
 10
17.4576923427
 20
9.0111695021
 11
15.4011748127
 21
9.0111695021
  0
LINE
  5
244
100
AcDbEntity
  8
0
100
AcDbLine
 62
7
  6
CONTINUOUS
 10
14.4742098727
 20
9.0111695021
 11
14.3506923427
 21
9.0111695021
  0
LINE
  5
245
100
AcDbEntity
  8
0
100
AcDbLine
 62
7
  6
CONTINUOUS
 10
7.5246923427
 20
9.0111695021
 11
7.4011748127
 21
9.0111695021
  0
LINE
  5
246
100
AcDbEntity
  8
0
100
AcDbLine
 62
7
  6
CONTINUOUS
 10
6.4742098727
 20
9.0111695021
 11
4.4176923427
 21
9.0111695021
  0
LINE
  5
247
100
AcDbEntity
  8
0
100
AcDbLine
 62
9
  6
CONTINUOUS
 10
4.3776923427
 20
9.0511695021
 11
6.5051984944
 21
9.0511695022
  0
LINE
  5
248
100
AcDbEntity
  8
0
100
AcDbLine
 62
9
  6
CONTINUOUS
 10
7.3426671998
 20
9.0511695019
 11
7.5646923427
 21
9.0511695021
  0
LINE
  5
249
100
AcDbEntity
  8
0
100
AcDbLine
 62
9
  6
CONTINUOUS
 10
15.3701862348
 20
9.0511695022
 11
17.4976923427
 21
9.0511695021
  0
LINE
  5
24A
100
AcDbEntity
  8
0
100
AcDbLine
 62
9
  6
CONTINUOUS
 10
14.5327174803
 20
9.051169773
 11
14.3106923427
 21
9.0511695021
  0
LINE
  5
24B
100
AcDbEntity
  8
0
100
AcDbLine
 62
7
  6
CONTINUOUS
 10
11.4001923427
 20
7.0451695021
 11
11.4001923427
 21
7.1251695021
  0
LINE
  5
24C
100
AcDbEntity
  8
0
100
AcDbLine
 62
9
  6
CONTINUOUS
 10
7.3803389286
 20
9.7449019175
 11
7.3426671998
 21
9.7449019175
  0
LINE
  5
24D
100
AcDbEntity
  8
0
100
AcDbLine
 62
7
  6
CONTINUOUS
 10
11.4876923427
 20
7.2851695021
 11
11.4876923427
 21
7.4451695021
  0
LINE
  5
24E
100
AcDbEntity
  8
0
100
AcDbLine
 62
7
  6
CONTINUOUS
 10
11.6376923427
 20
7.7951695021
 11
11.6376923427
 21
10.1401695021
  0
LINE
  5
24F
100
AcDbEntity
  8
0
100
AcDbLine
 62
7
  6
CONTINUOUS
 10
11.7476923427
 20
11.9501695021
 11
11.7476923427
 21
11.8401695021
  0
LINE
  5
250
100
AcDbEntity
  8
0
100
AcDbLine
 62
7
  6
CONTINUOUS
 10
11.7476923427
 20
7.7551695021
 11
11.7476923427
 21
6.9651695021
  0
LINE
  5
251
100
AcDbEntity
  8
0
100
AcDbLine
 62
7
  6
CONTINUOUS
 10
11.7476923427
 20
10.1401695021
 11
11.7476923427
 21
11.3401695021
  0
LINE
  5
252
100
AcDbEntity
  8
0
100
AcDbLine
 62
7
  6
CONTINUOUS
 10
11.9376923427
 20
6.9251695021
 11
11.9376923427
 21
6.5451695021
  0
LINE
  5
253
100
AcDbEntity
  8
0
100
AcDbLine
 62
7
  6
CONTINUOUS
 10
11.9476923427
 20
11.3801695021
 11
11.9476923427
 21
11.8001695021
  0
LINE
  5
254
100
AcDbEntity
  8
0
100
AcDbLine
 62
9
  6
CONTINUOUS
 10
17.4976923427
 20
9.9551695021
 11
14.3106923427
 21
9.9551695021
  0
LINE
  5
255
100
AcDbEntity
  8
0
100
AcDbLine
 62
9
  6
CONTINUOUS
 10
7.5646923427
 20
9.9551695021
 11
4.3776923427
 21
9.9551695021
  0
LINE
  5
256
100
AcDbEntity
  8
0
100
AcDbLine
 62
7
  6
CONTINUOUS
 10
4.4176923427
 20
9.9951695021
 11
7.5246923427
 21
9.9951695021
  0
LINE
  5
257
100
AcDbEntity
  8
0
100
AcDbLine
 62
7
  6
CONTINUOUS
 10
14.3506923427
 20
9.9951695021
 11
17.4576923427
 21
9.9951695021
  0
LINE
  5
258
100
AcDbEntity
  8
0
100
AcDbLine
 62
7
  6
CONTINUOUS
 10
10.1276934669
 20
10.1401695021
 11
11.7476912186
 21
10.1401695021
  0
LINE
  5
259
100
AcDbEntity
  8
0
100
AcDbLine
 62
9
  6
CONTINUOUS
 10
14.6377001069
 20
9.7907302805
 11
14.6094158356
 21
9.7624460093
  0
LINE
  5
25A
100
AcDbEntity
  8
0
100
AcDbLine
 62
9
  6
CONTINUOUS
 10
15.3701862119
 20
9.0511695477
 11
15.3350928677
 21
9.0332315092
  0
LINE
  5
25B
100
AcDbEntity
  8
0
100
AcDbLine
 62
7
  6
CONTINUOUS
 10
9.9676923427
 20
11.3401695021
 11
11.9076923427
 21
11.3401695021
  0
LINE
  5
25C
100
AcDbEntity
  8
0
100
AcDbLine
 62
9
  6
CONTINUOUS
 10
9.9276923427
 20
11.3801695021
 11
11.9476923427
 21
11.3801695021
  0
LINE
  5
25D
100
AcDbEntity
  8
0
100
AcDbLine
 62
9
  6
CONTINUOUS
 10
11.9476923427
 20
11.8001695021
 11
9.9276923427
 21
11.8001695021
  0
LINE
  5
25E
100
AcDbEntity
  8
0
100
AcDbLine
 62
7
  6
CONTINUOUS
 10
9.9677082828
 20
11.8401695021
 11
11.9076764027
 21
11.8401695021
  0
LINE
  5
25F
100
AcDbEntity
  8
0
100
AcDbLine
 62
9
  6
CONTINUOUS
 10
11.7476923427
 20
11.9501695021
 11
10.1276923427
 21
11.9501695021
  0
LINE
  5
260
100
AcDbEntity
  8
0
100
AcDbLine
 62
7
  6
CONTINUOUS
 10
11.7076912891
 20
11.9901695021
 11
10.1676933964
 21
11.9901695021
  0
LINE
  5
261
100
AcDbEntity
  8
0
100
AcDbLine
 62
7
  6
CONTINUOUS
 10
14.0126923427
 20
6.5451695021
 11
14.0126923427
 21
6.7751695021
  0
LINE
  5
262
100
AcDbEntity
  8
0
100
AcDbLine
 62
7
  6
CONTINUOUS
 10
14.3106923427
 20
9.0511695021
 11
14.3106923427
 21
9.9551695021
  0
LINE
  5
263
100
AcDbEntity
  8
0
100
AcDbLine
 62
9
  6
CONTINUOUS
 10
15.3225376336
 20
9.0493242113
 11
15.3508219049
 21
9.0776084825
  0
LINE
  5
264
100
AcDbEntity
  8
0
100
AcDbLine
 62
7
  6
CONTINUOUS
 10
15.3225376512
 20
9.0493241937
 11
14.6094158395
 21
9.7624460054
  0
LINE
  5
265
100
AcDbEntity
  8
0
100
AcDbLine
 62
9
  6
CONTINUOUS
 10
15.3508219252
 20
9.0776084622
 11
14.6377001069
 21
9.7907302805
  0
LINE
  5
266
100
AcDbEntity
  8
0
100
AcDbLine
 62
9
  6
CONTINUOUS
 10
14.3506923427
 20
9.9951695021
 11
14.3506923427
 21
9.0111695021
  0
LINE
  5
267
100
AcDbEntity
  8
0
100
AcDbLine
 62
9
  6
CONTINUOUS
 10
14.4950457569
 20
9.0511695021
 11
14.4950466738
 21
9.7448641098
  0
LINE
  5
268
100
AcDbEntity
  8
0
100
AcDbLine
 62
7
  6
CONTINUOUS
 10
14.5076923427
 20
8.9711695021
 11
14.5076923427
 21
7.2211695021
  0
LINE
  5
269
100
AcDbEntity
  8
0
100
AcDbLine
 62
7
  6
CONTINUOUS
 10
14.5076923427
 20
6.7951695021
 11
14.5076923427
 21
7.1711695021
  0
LINE
  5
26A
100
AcDbEntity
  8
0
100
AcDbLine
 62
9
  6
CONTINUOUS
 10
14.5327174803
 20
9.0511621361
 11
14.5327174803
 21
9.7449024891
  0
LINE
  5
26B
100
AcDbEntity
  8
0
100
AcDbLine
 62
7
  6
CONTINUOUS
 10
14.5976923427
 20
7.1711695021
 11
14.5976923427
 21
7.2211695021
  0
LINE
  5
26C
100
AcDbEntity
  8
0
100
AcDbLine
 62
7
  6
CONTINUOUS
 10
15.2776923427
 20
7.1711695021
 11
15.2776923427
 21
7.2211695021
  0
LINE
  5
26D
100
AcDbEntity
  8
0
100
AcDbLine
 62
7
  6
CONTINUOUS
 10
15.3676923427
 20
8.9711695021
 11
15.3676923427
 21
7.2211695021
  0
LINE
  5
26E
100
AcDbEntity
  8
0
100
AcDbLine
 62
7
  6
CONTINUOUS
 10
15.3676923427
 20
6.7951695021
 11
15.3676923427
 21
7.1711695021
  0
LINE
  5
26F
100
AcDbEntity
  8
0
100
AcDbLine
 62
7
  6
CONTINUOUS
 10
15.8626923427
 20
6.5451695021
 11
15.8626923427
 21
6.7751695021
  0
LINE
  5
270
100
AcDbEntity
  8
0
100
AcDbLine
 62
9
  6
CONTINUOUS
 10
17.4576923427
 20
9.0111695021
 11
17.4576923427
 21
9.9951695021
  0
LINE
  5
271
100
AcDbEntity
  8
0
100
AcDbLine
 62
7
  6
CONTINUOUS
 10
17.4976923427
 20
9.9551695021
 11
17.4976923427
 21
9.0511695021
  0
ARC
  5
272
100
AcDbEntity
  8
0
100
AcDbCircle
 62
7
  6
CONTINUOUS
 10
10.8464719365
 20
6.3622744624
 40
0.9
100
AcDbArc
 50
11.7251268757
 51
49.3560828237
  0
ARC
  5
273
100
AcDbEntity
  8
0
100
AcDbCircle
 62
7
  6
CONTINUOUS
 10
10.8751923427
 20
7.1251695021
 40
0.4
100
AcDbArc
 50
155.7790568907
 51
180.0
  0
ARC
  5
274
100
AcDbEntity
  8
0
100
AcDbCircle
 62
7
  6
CONTINUOUS
 10
10.4276923427
 20
7.4451695021
 40
0.04
100
AcDbArc
 50
90.0
 51
180.0
  0
ARC
  5
275
100
AcDbEntity
  8
0
100
AcDbCircle
 62
7
  6
CONTINUOUS
 10
10.4276923427
 20
7.2851695021
 40
0.04
100
AcDbArc
 50
180.0
 51
270.0
  0
ARC
  5
276
100
AcDbEntity
  8
0
100
AcDbCircle
 62
7
  6
CONTINUOUS
 10
9.9776923427
 20
6.9251695021
 40
0.04
100
AcDbArc
 50
90.0
 51
180.0
  0
ARC
  5
277
100
AcDbEntity
  8
0
100
AcDbCircle
 62
7
  6
CONTINUOUS
 10
10.1676923427
 20
7.7551695021
 40
0.04
100
AcDbArc
 50
90.0
 51
180.0
  0
ARC
  5
278
100
AcDbEntity
  8
0
100
AcDbCircle
 62
7
  6
CONTINUOUS
 10
4.4176923427
 20
9.0511695021
 40
0.04
100
AcDbArc
 50
180.0
 51
270.0
  0
ARC
  5
279
100
AcDbEntity
  8
0
100
AcDbCircle
 62
7
  6
CONTINUOUS
 10
7.4076923427
 20
8.9711695021
 40
0.04
100
AcDbArc
 50
99.2587646005
 51
180.0
  0
ARC
  5
27A
100
AcDbEntity
  8
0
100
AcDbCircle
 62
7
  6
CONTINUOUS
 10
6.4676923427
 20
8.9711695021
 40
0.04
100
AcDbArc
 50
0.0
 51
80.7412353995
  0
ARC
  5
27B
100
AcDbEntity
  8
0
100
AcDbCircle
 62
7
  6
CONTINUOUS
 10
7.5246923427
 20
9.0511695021
 40
0.04
100
AcDbArc
 50
270.0
 51
360.0
  0
ARC
  5
27C
100
AcDbEntity
  8
0
100
AcDbCircle
 62
7
  6
CONTINUOUS
 10
6.0326923427
 20
6.7751695021
 40
0.02
100
AcDbArc
 50
90.0
 51
180.0
  0
ARC
  5
27D
100
AcDbEntity
  8
0
100
AcDbCircle
 62
7
  6
CONTINUOUS
 10
7.8426923427
 20
6.7751695021
 40
0.02
100
AcDbArc
 50
0.0
 51
90.0
  0
ARC
  5
27E
100
AcDbEntity
  8
0
100
AcDbCircle
 62
7
  6
CONTINUOUS
 10
10.5195239579
 20
7.2851695021
 40
0.01
100
AcDbArc
 50
90.0
 51
155.7790568908
  0
ARC
  5
27F
100
AcDbEntity
  8
0
100
AcDbCircle
 62
7
  6
CONTINUOUS
 10
10.1676923427
 20
11.9501695021
 40
0.04
100
AcDbArc
 50
90.0
 51
180.0
  0
ARC
  5
280
100
AcDbEntity
  8
0
100
AcDbCircle
 62
7
  6
CONTINUOUS
 10
9.9676923427
 20
11.8001695021
 40
0.04
100
AcDbArc
 50
90.0
 51
180.0
  0
ARC
  5
281
100
AcDbEntity
  8
0
100
AcDbCircle
 62
7
  6
CONTINUOUS
 10
9.9676923427
 20
11.3801695021
 40
0.04
100
AcDbArc
 50
180.0
 51
270.0
  0
ARC
  5
282
100
AcDbEntity
  8
0
100
AcDbCircle
 62
7
  6
CONTINUOUS
 10
7.5246923427
 20
9.9551695021
 40
0.04
100
AcDbArc
 50
0.0
 51
90.0
  0
ARC
  5
283
100
AcDbEntity
  8
0
100
AcDbCircle
 62
7
  6
CONTINUOUS
 10
4.4176923427
 20
9.9551695021
 40
0.04
100
AcDbArc
 50
90.0
 51
180.0
  0
ARC
  5
284
100
AcDbEntity
  8
0
100
AcDbCircle
 62
7
  6
CONTINUOUS
 10
11.028912749
 20
6.3622744624
 40
0.9
100
AcDbArc
 50
130.6439171763
 51
168.2748731243
  0
ARC
  5
285
100
AcDbEntity
  8
0
100
AcDbCircle
 62
7
  6
CONTINUOUS
 10
11.0001923427
 20
7.1251695021
 40
0.4
100
AcDbArc
 50
0.0
 51
24.2209431093
  0
ARC
  5
286
100
AcDbEntity
  8
0
100
AcDbCircle
 62
7
  6
CONTINUOUS
 10
11.4476923427
 20
7.4451695021
 40
0.04
100
AcDbArc
 50
0.0
 51
90.0
  0
ARC
  5
287
100
AcDbEntity
  8
0
100
AcDbCircle
 62
7
  6
CONTINUOUS
 10
11.4476923427
 20
7.2851695021
 40
0.04
100
AcDbArc
 50
270.0
 51
360.0
  0
ARC
  5
288
100
AcDbEntity
  8
0
100
AcDbCircle
 62
7
  6
CONTINUOUS
 10
11.8976923427
 20
6.9251695021
 40
0.04
100
AcDbArc
 50
0.0
 51
90.0
  0
ARC
  5
289
100
AcDbEntity
  8
0
100
AcDbCircle
 62
7
  6
CONTINUOUS
 10
11.7076923427
 20
7.7551695021
 40
0.04
100
AcDbArc
 50
0.0
 51
90.0
  0
ARC
  5
28A
100
AcDbEntity
  8
0
100
AcDbCircle
 62
7
  6
CONTINUOUS
 10
17.4576923427
 20
9.0511695021
 40
0.04
100
AcDbArc
 50
270.0
 51
360.0
  0
ARC
  5
28B
100
AcDbEntity
  8
0
100
AcDbCircle
 62
7
  6
CONTINUOUS
 10
14.4676923427
 20
8.9711695021
 40
0.04
100
AcDbArc
 50
0.0
 51
80.7412353995
  0
ARC
  5
28C
100
AcDbEntity
  8
0
100
AcDbCircle
 62
7
  6
CONTINUOUS
 10
15.4076923427
 20
8.9711695021
 40
0.04
100
AcDbArc
 50
99.2587646005
 51
180.0
  0
ARC
  5
28D
100
AcDbEntity
  8
0
100
AcDbCircle
 62
7
  6
CONTINUOUS
 10
14.3506923427
 20
9.0511695021
 40
0.04
100
AcDbArc
 50
180.0
 51
270.0
  0
ARC
  5
28E
100
AcDbEntity
  8
0
100
AcDbCircle
 62
7
  6
CONTINUOUS
 10
15.8426923427
 20
6.7751695021
 40
0.02
100
AcDbArc
 50
0.0
 51
90.0
  0
ARC
  5
28F
100
AcDbEntity
  8
0
100
AcDbCircle
 62
7
  6
CONTINUOUS
 10
14.0326923427
 20
6.7751695021
 40
0.02
100
AcDbArc
 50
90.0
 51
180.0
  0
ARC
  5
290
100
AcDbEntity
  8
0
100
AcDbCircle
 62
7
  6
CONTINUOUS
 10
11.3558607276
 20
7.2851695021
 40
0.01
100
AcDbArc
 50
24.2209431092
 51
90.0
  0
ARC
  5
291
100
AcDbEntity
  8
0
100
AcDbCircle
 62
7
  6
CONTINUOUS
 10
11.7076923427
 20
11.9501695021
 40
0.04
100
AcDbArc
 50
0.0
 51
90.0
  0
ARC
  5
292
100
AcDbEntity
  8
0
100
AcDbCircle
 62
7
  6
CONTINUOUS
 10
11.9076923427
 20
11.8001695021
 40
0.04
100
AcDbArc
 50
0.0
 51
90.0
  0
ARC
  5
293
100
AcDbEntity
  8
0
100
AcDbCircle
 62
7
  6
CONTINUOUS
 10
11.9076923427
 20
11.3801695021
 40
0.04
100
AcDbArc
 50
270.0
 51
360.0
  0
ARC
  5
294
100
AcDbEntity
  8
0
100
AcDbCircle
 62
7
  6
CONTINUOUS
 10
14.3506923427
 20
9.9551695021
 40
0.04
100
AcDbArc
 50
90.0
 51
180.0
  0
ARC
  5
295
100
AcDbEntity
  8
0
100
AcDbCircle
 62
7
  6
CONTINUOUS
 10
17.4576923427
 20
9.9551695021
 40
0.04
100
AcDbArc
 50
0.0
 51
90.0
  0
SPLINE
  5
296
100
AcDbEntity
  8
0
100
AcDbSpline
 62
9
  6
CONTINUOUS
 70
0
 71
3
 72
19
 73
15
 74
0
 42
0.0000001
 43
0.0000001
 44
0.0000000001
 40
0.0
 40
0.0
 40
0.0
 40
0.0
 40
0.0207572244
 40
0.0454568162
 40
0.0755902209
 40
0.1118810151
 40
0.1546133075
 40
0.2037776005
 40
0.2592414873
 40
0.3208111608
 40
0.4612816276
 40
0.6230585292
 40
0.803653504
 40
1.0
 40
1.0
 40
1.0
 40
1.0
 10
6.5136551893
 20
8.9711695021
 30
0.0
 10
6.5139268984
 20
8.971169442
 30
0.0
 10
6.5145231463
 20
8.9713040542
 30
0.0
 10
6.5153809844
 20
8.9718153443
 30
0.0
 10
6.5162672682
 20
8.9726216401
 30
0.0
 10
6.5171839537
 20
8.9737216236
 30
0.0
 10
6.5181291864
 20
8.9751102964
 30
0.0
 10
6.5190977461
 20
8.9767798749
 30
0.0
 10
6.5200829023
 20
8.9787205618
 30
0.0
 10
6.5214706269
 20
8.9817933348
 30
0.0
 10
6.5231742745
 20
8.9862447777
 30
0.0
 10
6.5250927663
 20
8.9922696262
 30
0.0
 10
6.5269028133
 20
8.9990876442
 30
0.0
 10
6.5279622538
 20
9.0039083827
 30
0.0
 10
6.5284639402
 20
9.0064290908
 30
0.0
  0
SPLINE
  5
297
100
AcDbEntity
  8
0
100
AcDbSpline
 62
9
  6
CONTINUOUS
 70
0
 71
3
 72
23
 73
19
 74
0
 42
0.0000001
 43
0.0000001
 44
0.0000000001
 40
0.0
 40
0.0
 40
0.0
 40
0.0
 40
0.1800689601
 40
0.3548000296
 40
0.5185314679
 40
0.5946767452
 40
0.6661118889
 40
0.7321658628
 40
0.7921898564
 40
0.8455561206
 40
0.8916833216
 40
0.9301040506
 40
0.946330105
 40
0.9605505273
 40
0.9728259891
 40
0.9832916569
 40
0.9922004896
 40
1.0
 40
1.0
 40
1.0
 40
1.0
 10
7.3426671998
 20
9.0511619894
 30
0.0
 10
7.3426666611
 20
9.0461038061
 30
0.0
 10
7.3429770158
 20
9.0361344851
 30
0.0
 10
7.3443278886
 20
9.0216230256
 30
0.0
 10
7.3461317251
 20
9.0101079515
 30
0.0
 10
7.3479217875
 20
9.0015468249
 30
0.0
 10
7.3493525309
 20
8.9957174778
 30
0.0
 10
7.3508760138
 20
8.9903810545
 30
0.0
 10
7.3524604183
 20
8.9855942445
 30
0.0
 10
7.3540723175
 20
8.9814108522
 30
0.0
 10
7.3556797978
 20
8.9778835182
 30
0.0
 10
7.357054824
 20
8.9754028824
 30
0.0
 10
7.3581486147
 20
8.9738054982
 30
0.0
 10
7.3589034104
 20
8.9728704748
 30
0.0
 10
7.3596366692
 20
8.9721320633
 30
0.0
 10
7.3603482533
 20
8.9715923995
 30
0.0
 10
7.3610396513
 20
8.9712545527
 30
0.0
 10
7.3615104059
 20
8.9711694946
 30
0.0
 10
7.3617294961
 20
8.9711695021
 30
0.0
  0
SPLINE
  5
298
100
AcDbEntity
  8
0
100
AcDbSpline
 62
9
  6
CONTINUOUS
 70
0
 71
3
 72
12
 73
8
 74
0
 42
0.0000001
 43
0.0000001
 44
0.0000000001
 40
0.0
 40
0.0
 40
0.0
 40
0.0
 40
0.2604762862
 40
0.3898949882
 40
0.5179368211
 40
0.7667662312
 40
1.0
 40
1.0
 40
1.0
 40
1.0
 10
6.5051984944
 20
9.0511695021
 30
0.0
 10
6.5035469621
 20
9.0495442971
 30
0.0
 10
6.5012012759
 20
9.0469769361
 30
0.0
 10
6.4983936392
 20
9.0433214067
 30
0.0
 10
6.4958624585
 20
9.0395935036
 30
0.0
 10
6.4931697288
 20
9.0348707397
 30
0.0
 10
6.4913619189
 20
9.0309789607
 30
0.0
 10
6.4905296447
 20
9.0290784687
 30
0.0
  0
SPLINE
  5
299
100
AcDbEntity
  8
0
100
AcDbSpline
 62
9
  6
CONTINUOUS
 70
0
 71
3
 72
14
 73
10
 74
0
 42
0.0000001
 43
0.0000001
 44
0.0000000001
 40
0.0
 40
0.0
 40
0.0
 40
0.0
 40
0.0725005308
 40
0.158955619
 40
0.2612427143
 40
0.3795946949
 40
0.513646652
 40
0.6626847609
 40
1.0
 40
1.0
 40
1.0
 40
1.0
 10
6.4742098727
 20
9.0111695021
 30
0.0
 10
6.4748173848
 20
9.0111694602
 30
0.0
 10
6.4761490877
 20
9.011442226
 30
0.0
 10
6.4781216322
 20
9.0124207045
 30
0.0
 10
6.4802028686
 20
9.0139510904
 30
0.0
 10
6.482351845
 20
9.0160133788
 30
0.0
 10
6.4845245766
 20
9.018588582
 30
0.0
 10
6.4875118255
 20
9.0228487251
 30
0.0
 10
6.4894159116
 20
9.0264806374
 30
0.0
 10
6.4905296447
 20
9.0290784687
 30
0.0
  0
SPLINE
  5
29A
100
AcDbEntity
  8
0
100
AcDbSpline
 62
9
  6
CONTINUOUS
 70
0
 71
3
 72
15
 73
11
 74
0
 42
0.0000001
 43
0.0000001
 44
0.0000000001
 40
0.0
 40
0.0
 40
0.0
 40
0.0
 40
0.1430022206
 40
0.2858606091
 40
0.4251601813
 40
0.5584329505
 40
0.6838008314
 40
0.7997501717
 40
0.9052225432
 40
1.0
 40
1.0
 40
1.0
 40
1.0
 10
6.4905296448
 20
9.0290786789
 30
0.0
 10
6.4926739098
 20
9.0286952028
 30
0.0
 10
6.4969294326
 20
9.0277457303
 30
0.0
 10
6.5031242896
 20
9.0258353289
 30
0.0
 10
6.5090057169
 20
9.0234789046
 30
0.0
 10
6.5144070501
 20
9.0207039249
 30
0.0
 10
6.5191694607
 20
9.0175373021
 30
0.0
 10
6.5231807015
 20
9.0140741376
 30
0.0
 10
6.5263313464
 20
9.0104061033
 30
0.0
 10
6.5278865489
 20
9.0077526123
 30
0.0
 10
6.5284632297
 20
9.0064290906
 30
0.0
  0
SPLINE
  5
29B
100
AcDbEntity
  8
0
100
AcDbSpline
 62
9
  6
CONTINUOUS
 70
0
 71
3
 72
15
 73
11
 74
0
 42
0.0000001
 43
0.0000001
 44
0.0000000001
 40
0.0
 40
0.0
 40
0.0
 40
0.0
 40
0.1174411856
 40
0.2415541876
 40
0.370772325
 40
0.5022361388
 40
0.6333195885
 40
0.7615059774
 40
0.8841594127
 40
1.0
 40
1.0
 40
1.0
 40
1.0
 10
6.5136551847
 20
8.9711695021
 30
0.0
 10
6.513655185
 20
8.9736079947
 30
0.0
 10
6.5131952404
 20
8.9786336771
 30
0.0
 10
6.5110940958
 20
8.9860886696
 30
0.0
 10
6.5074114923
 20
8.993238537
 30
0.0
 10
6.5023165815
 20
8.9996540722
 30
0.0
 10
6.4959905242
 20
9.0048265785
 30
0.0
 10
6.4889364324
 20
9.0085669269
 30
0.0
 10
6.4815777154
 20
9.0107021048
 30
0.0
 10
6.4766151314
 20
9.0111695044
 30
0.0
 10
6.4742098729
 20
9.0111695044
 30
0.0
  0
SPLINE
  5
29C
100
AcDbEntity
  8
0
100
AcDbSpline
 62
9
  6
CONTINUOUS
 70
0
 71
3
 72
10
 73
6
 74
0
 42
0.0000001
 43
0.0000001
 44
0.0000000001
 40
0.0
 40
0.0
 40
0.0
 40
0.0
 40
0.2175425214
 40
0.4577269372
 40
1.0
 40
1.0
 40
1.0
 40
1.0
 10
6.5284643261
 20
9.0064290909
 30
0.0
 10
6.5291946656
 20
9.0084260763
 30
0.0
 10
6.5307542018
 20
9.0126202048
 30
0.0
 10
6.5343559106
 20
9.0217042727
 30
0.0
 10
6.5376281361
 20
9.0286489534
 30
0.0
 10
6.540291669
 20
9.0332314985
 30
0.0
  0
SPLINE
  5
29D
100
AcDbEntity
  8
0
100
AcDbSpline
 62
9
  6
CONTINUOUS
 70
0
 71
3
 72
9
 73
5
 74
0
 42
0.0000001
 43
0.0000001
 44
0.0000000001
 40
0.0
 40
0.0
 40
0.0
 40
0.0
 40
0.2453790925
 40
1.0
 40
1.0
 40
1.0
 40
1.0
 10
6.540291772
 20
9.0332315105
 30
0.0
 10
6.5411321871
 20
9.0346772078
 30
0.0
 10
6.5447751699
 20
9.0404414171
 30
0.0
 10
6.5492109692
 20
9.0456881352
 30
0.0
 10
6.5528474418
 20
9.0493244539
 30
0.0
  0
SPLINE
  5
29E
100
AcDbEntity
  8
0
100
AcDbSpline
 62
9
  6
CONTINUOUS
 70
0
 71
3
 72
21
 73
17
 74
0
 42
0.0000001
 43
0.0000001
 44
0.0000000001
 40
0.0
 40
0.0
 40
0.0
 40
0.0
 40
0.1400382753
 40
0.2745326567
 40
0.3397876905
 40
0.4034895533
 40
0.465525928
 40
0.5260648271
 40
0.5855430966
 40
0.644214364
 40
0.7023833283
 40
0.7603829242
 40
0.8186653765
 40
0.8778418053
 40
0.938249505
 40
1.0
 40
1.0
 40
1.0
 40
1.0
 10
7.2659689977
 20
9.7624463767
 30
0.0
 10
7.2694662247
 20
9.7659434701
 30
0.0
 10
7.2768864312
 20
9.7722680839
 30
0.0
 10
7.2874476649
 20
9.7781867148
 30
0.0
 10
7.2962839799
 20
9.7811739781
 30
0.0
 10
7.302920417
 20
9.7824924024
 30
0.0
 10
7.3095138786
 20
9.7828490854
 30
0.0
 10
7.3159389226
 20
9.7821754873
 30
0.0
 10
7.322034286
 20
9.7804132576
 30
0.0
 10
7.3276352395
 20
9.7776083408
 30
0.0
 10
7.3325524354
 20
9.7738095584
 30
0.0
 10
7.336635193
 20
9.769141485
 30
0.0
 10
7.3397273708
 20
9.7637265017
 30
0.0
 10
7.3417976301
 20
9.7577606755
 30
0.0
 10
7.3428385697
 20
9.7514128903
 30
0.0
 10
7.3428369544
 20
9.747076846
 30
0.0
 10
7.3426655037
 20
9.7449027539
 30
0.0
  0
LINE
  5
29F
100
AcDbEntity
  8
0
100
AcDbLine
 62
9
  6
CONTINUOUS
 10
7.3426671998
 20
9.7449022067
 11
6.5629044242
 21
9.0376758342
  0
LINE
  5
2A0
100
AcDbEntity
  8
0
100
AcDbLine
 62
9
  6
CONTINUOUS
 10
6.5629044242
 20
9.0376758342
 11
6.5284639402
 21
9.0064290908
  0
SPLINE
  5
2A1
100
AcDbEntity
  8
0
100
AcDbSpline
 62
9
  6
CONTINUOUS
 70
0
 71
3
 72
15
 73
11
 74
0
 42
0.0000001
 43
0.0000001
 44
0.0000000001
 40
0.0
 40
0.0
 40
0.0
 40
0.0
 40
0.1158407857
 40
0.2384943794
 40
0.3666808691
 40
0.4977643541
 40
0.6292281279
 40
0.7584461614
 40
0.8825590062
 40
1.0
 40
1.0
 40
1.0
 40
1.0
 10
7.4011748122
 20
9.011169494
 30
0.0
 10
7.3987695492
 20
9.0111694943
 30
0.0
 10
7.393806957
 20
9.0107020939
 30
0.0
 10
7.38644823
 20
9.0085669121
 30
0.0
 10
7.3793941326
 20
9.0048265586
 30
0.0
 10
7.3730680741
 20
8.9996540488
 30
0.0
 10
7.3679731651
 20
8.9932385137
 30
0.0
 10
7.3642905646
 20
8.9860886507
 30
0.0
 10
7.362189421
 20
8.9786336666
 30
0.0
 10
7.3617294752
 20
8.9736079911
 30
0.0
 10
7.3617294742
 20
8.9711695021
 30
0.0
  0
SPLINE
  5
2A2
100
AcDbEntity
  8
0
100
AcDbSpline
 62
9
  6
CONTINUOUS
 70
0
 71
3
 72
18
 73
14
 74
0
 42
0.0000001
 43
0.0000001
 44
0.0000000001
 40
0.0
 40
0.0
 40
0.0
 40
0.0
 40
0.0298809296
 40
0.0642696859
 40
0.1039387306
 40
0.1491790242
 40
0.1999736576
 40
0.2559961052
 40
0.3818934913
 40
0.5232125691
 40
0.6758413013
 40
0.8360414742
 40
1.0
 40
1.0
 40
1.0
 40
1.0
 10
7.4011746118
 20
9.011169494
 30
0.0
 10
7.4006982472
 20
9.0111694753
 30
0.0
 10
7.3996723899
 20
9.011333958
 30
0.0
 10
7.3981282905
 20
9.0119587124
 30
0.0
 10
7.3964996286
 20
9.0129537371
 30
0.0
 10
7.3948062486
 20
9.014307038
 30
0.0
 10
7.393070497
 20
9.0160041062
 30
0.0
 10
7.3906434546
 20
9.0188146486
 30
0.0
 10
7.3877335878
 20
9.0230900049
 30
0.0
 10
7.3847046507
 20
9.0290773227
 30
0.0
 10
7.3822735404
 20
9.0359200556
 30
0.0
 10
7.3807141761
 20
9.0433816611
 30
0.0
 10
7.3803406579
 20
9.0485556594
 30
0.0
 10
7.3803410085
 20
9.0511695016
 30
0.0
  0
SPLINE
  5
2A3
100
AcDbEntity
  8
0
100
AcDbSpline
 62
9
  6
CONTINUOUS
 70
0
 71
3
 72
25
 73
21
 74
0
 42
0.0000001
 43
0.0000001
 44
0.0000000001
 40
0.0
 40
0.0
 40
0.0
 40
0.0
 40
0.0624787328
 40
0.1250532568
 40
0.1563464432
 40
0.1876250749
 40
0.2188965344
 40
0.2501739404
 40
0.3126832692
 40
0.3751844638
 40
0.4376871021
 40
0.5001940987
 40
0.5314754526
 40
0.5627507312
 40
0.625261936
 40
0.6877445831
 40
0.7502151038
 40
0.8126819961
 40
0.8751998424
 40
1.0
 40
1.0
 40
1.0
 40
1.0
 10
7.3803379507
 20
9.7449138507
 30
0.0
 10
7.3803372876
 20
9.7489545702
 30
0.0
 10
7.3797329405
 20
9.7570544484
 30
0.0
 10
7.3774438423
 20
9.7669483612
 30
0.0
 10
7.3746794504
 20
9.7745635209
 30
0.0
 10
7.3721522897
 20
9.7800889811
 30
0.0
 10
7.3691812479
 20
9.7853883995
 30
0.0
 10
7.3646466576
 20
9.7920947771
 30
0.0
 10
7.3579549705
 20
9.7997390278
 30
0.0
 10
7.3485027227
 20
9.807425851
 30
0.0
 10
7.3379108218
 20
9.8134429928
 30
0.0
 10
7.3283791248
 20
9.8169467499
 30
0.0
 10
7.3205044258
 20
9.8188236738
 30
0.0
 10
7.3125063795
 20
9.8200778466
 30
0.0
 10
7.3023677149
 20
9.8204990719
 30
0.0
 10
7.2902700712
 20
9.8192301262
 30
0.0
 10
7.2784693985
 20
9.8163054279
 30
0.0
 10
7.2671539631
 20
9.81185689
 30
0.0
 10
7.252943846
 20
9.8041113996
 30
0.0
 10
7.2433920454
 20
9.7964378299
 30
0.0
 10
7.2376848402
 20
9.7907305421
 30
0.0
  0
SPLINE
  5
2A4
100
AcDbEntity
  8
0
100
AcDbSpline
 62
9
  6
CONTINUOUS
 70
0
 71
3
 72
9
 73
5
 74
0
 42
0.0000001
 43
0.0000001
 44
0.0000000001
 40
0.0
 40
0.0
 40
0.0
 40
0.0
 40
0.5000300981
 40
1.0
 40
1.0
 40
1.0
 40
1.0
 10
6.5245630219
 20
9.0776087238
 30
0.0
 10
6.5206885498
 20
9.0737345977
 30
0.0
 10
6.5135007366
 20
9.0654028679
 30
0.0
 10
6.5076912921
 20
9.0560479362
 30
0.0
 10
6.5051984944
 20
9.0511695022
 30
0.0
  0
SPLINE
  5
2A5
100
AcDbEntity
  8
0
100
AcDbSpline
 62
9
  6
CONTINUOUS
 70
0
 71
3
 72
18
 73
14
 74
0
 42
0.0000001
 43
0.0000001
 44
0.0000000001
 40
0.0
 40
0.0
 40
0.0
 40
0.0
 40
0.1638950968
 40
0.3240337724
 40
0.4766401452
 40
0.6179697141
 40
0.7438979295
 40
0.7999402374
 40
0.8507560883
 40
0.8960176599
 40
0.9357058677
 40
0.9701095404
 40
1.0
 40
1.0
 40
1.0
 40
1.0
 10
14.495044214
 20
9.0511695016
 30
0.0
 10
14.4950447063
 20
9.0485566636
 30
0.0
 10
14.4946715723
 20
9.0433846124
 30
0.0
 10
14.4931126479
 20
9.0359253063
 30
0.0
 10
14.4906824409
 20
9.0290835115
 30
0.0
 10
14.4876542393
 20
9.0230954697
 30
0.0
 10
14.4847444107
 20
9.0188188836
 30
0.0
 10
14.4823170175
 20
9.0160071158
 30
0.0
 10
14.4805807918
 20
9.0143090985
 30
0.0
 10
14.4788868249
 20
9.012954945
 30
0.0
 10
14.4772575397
 20
9.0119592306
 30
0.0
 10
14.4757128651
 20
9.0113340195
 30
0.0
 10
14.4746866016
 20
9.0111694345
 30
0.0
 10
14.4742100838
 20
9.0111695051
 30
0.0
  0
SPLINE
  5
2A6
100
AcDbEntity
  8
0
100
AcDbSpline
 62
9
  6
CONTINUOUS
 70
0
 71
3
 72
15
 73
11
 74
0
 42
0.0000001
 43
0.0000001
 44
0.0000000001
 40
0.0
 40
0.0
 40
0.0
 40
0.0
 40
0.1174413055
 40
0.2415544035
 40
0.3707726022
 40
0.5022364382
 40
0.6333198649
 40
0.7615061922
 40
0.8841595319
 40
1.0
 40
1.0
 40
1.0
 40
1.0
 10
14.5136551832
 20
8.9711695021
 30
0.0
 10
14.5136551836
 20
8.9736079972
 30
0.0
 10
14.5131952382
 20
8.9786336841
 30
0.0
 10
14.5110940905
 20
8.9860886818
 30
0.0
 10
14.5074114828
 20
8.9932385512
 30
0.0
 10
14.5023165686
 20
8.9996540853
 30
0.0
 10
14.4959905102
 20
9.0048265881
 30
0.0
 10
14.4889364203
 20
9.008566932
 30
0.0
 10
14.4815777084
 20
9.0107021065
 30
0.0
 10
14.4766151289
 20
9.0111695052
 30
0.0
 10
14.4742098729
 20
9.0111695051
 30
0.0
  0
SPLINE
  5
2A7
100
AcDbEntity
  8
0
100
AcDbSpline
 62
9
  6
CONTINUOUS
 70
0
 71
3
 72
19
 73
15
 74
0
 42
0.0000001
 43
0.0000001
 44
0.0000000001
 40
0.0
 40
0.0
 40
0.0
 40
0.0
 40
0.1963579565
 40
0.3769915484
 40
0.5387776933
 40
0.6792289771
 40
0.7407826069
 40
0.7962298057
 40
0.8453807627
 40
0.8881067425
 40
0.9244000433
 40
0.9545398917
 40
0.9792438759
 40
1.0
 40
1.0
 40
1.0
 40
1.0
 10
15.3469225055
 20
9.006432316
 30
0.0
 10
15.3474245771
 20
9.0039113977
 30
0.0
 10
15.3484837208
 20
8.9990896989
 30
0.0
 10
15.35029185
 20
8.9922699891
 30
0.0
 10
15.3522099885
 20
8.9862442623
 30
0.0
 10
15.3539140812
 20
8.9817930802
 30
0.0
 10
15.355302027
 20
8.978720964
 30
0.0
 10
15.3562872326
 20
8.9767808543
 30
0.0
 10
15.3572558035
 20
8.9751117195
 30
0.0
 10
15.3582010388
 20
8.9737232231
 30
0.0
 10
15.359117651
 20
8.9726230535
 30
0.0
 10
15.3600038207
 20
8.9718163019
 30
0.0
 10
15.3608615091
 20
8.9713044442
 30
0.0
 10
15.3614577876
 20
8.971169494
 30
0.0
 10
15.3617294961
 20
8.9711695021
 30
0.0
  0
SPLINE
  5
2A8
100
AcDbEntity
  8
0
100
AcDbSpline
 62
9
  6
CONTINUOUS
 70
0
 71
3
 72
23
 73
19
 74
0
 42
0.0000001
 43
0.0000001
 44
0.0000000001
 40
0.0
 40
0.0
 40
0.0
 40
0.0
 40
0.0078000685
 40
0.0167105464
 40
0.0271788987
 40
0.0394569548
 40
0.0536783269
 40
0.0699027313
 40
0.1083145618
 40
0.1544306062
 40
0.2077886443
 40
0.267806639
 40
0.3338550982
 40
0.4052828716
 40
0.4814193876
 40
0.6451420248
 40
0.8199071509
 40
1.0
 40
1.0
 40
1.0
 40
1.0
 10
14.5136551893
 20
8.9711695021
 30
0.0
 10
14.5138742948
 20
8.9711694516
 30
0.0
 10
14.5143451253
 20
8.9712545835
 30
0.0
 10
14.5150365182
 20
8.9715927587
 30
0.0
 10
14.5157480618
 20
8.9721327879
 30
0.0
 10
14.5164812688
 20
8.9728714864
 30
0.0
 10
14.5172360256
 20
8.9738065992
 30
0.0
 10
14.5183297555
 20
8.9754036884
 30
0.0
 10
14.5197047923
 20
8.97788361
 30
0.0
 10
14.5213122322
 20
8.9814100886
 30
0.0
 10
14.5229239102
 20
8.9855927954
 30
0.0
 10
14.52450808
 20
8.9903790888
 30
0.0
 10
14.5260313186
 20
8.9957150153
 30
0.0
 10
14.5274621513
 20
9.0015436993
 30
0.0
 10
14.5292522887
 20
9.0101040771
 30
0.0
 10
14.5310563603
 20
9.0216195708
 30
0.0
 10
14.5324071314
 20
9.0361323745
 30
0.0
 10
14.5327183163
 20
9.0461032924
 30
0.0
 10
14.5327174803
 20
9.0511621361
 30
0.0
  0
SPLINE
  5
2A9
100
AcDbEntity
  8
0
100
AcDbSpline
 62
9
  6
CONTINUOUS
 70
0
 71
3
 72
15
 73
11
 74
0
 42
0.0000001
 43
0.0000001
 44
0.0000000001
 40
0.0
 40
0.0
 40
0.0
 40
0.0
 40
0.1158405014
 40
0.2384938673
 40
0.3666802095
 40
0.4977636387
 40
0.6292274647
 40
0.758445644
 40
0.8825587183
 40
1.0
 40
1.0
 40
1.0
 40
1.0
 10
15.4011748122
 20
9.0111694939
 30
0.0
 10
15.3987695551
 20
9.0111694942
 30
0.0
 10
15.3938069736
 20
9.0107020962
 30
0.0
 10
15.3864482586
 20
9.0085669227
 30
0.0
 10
15.3793941656
 20
9.0048265804
 30
0.0
 10
15.3730681039
 20
8.9996540794
 30
0.0
 10
15.3679731861
 20
8.9932385474
 30
0.0
 10
15.3642905746
 20
8.9860886798
 30
0.0
 10
15.3621894228
 20
8.9786336834
 30
0.0
 10
15.3617294746
 20
8.9736079971
 30
0.0
 10
15.3617294736
 20
8.9711695021
 30
0.0
  0
SPLINE
  5
2AA
100
AcDbEntity
  8
0
100
AcDbSpline
 62
9
  6
CONTINUOUS
 70
0
 71
3
 72
15
 73
11
 74
0
 42
0.0000001
 43
0.0000001
 44
0.0000000001
 40
0.0
 40
0.0
 40
0.0
 40
0.0
 40
0.0949714729
 40
0.2002993677
 40
0.3157561136
 40
0.441119908
 40
0.5749956844
 40
0.7144833897
 40
0.8570387434
 40
1.0
 40
1.0
 40
1.0
 40
1.0
 10
15.3469231523
 20
9.0064323159
 30
0.0
 10
15.3474991567
 20
9.0077623703
 30
0.0
 10
15.3490486635
 20
9.0104268068
 30
0.0
 10
15.3522025317
 20
9.0140985261
 30
0.0
 10
15.3562489495
 20
9.0175223746
 30
0.0
 10
15.3610198286
 20
9.0206898838
 30
0.0
 10
15.3663633415
 20
9.0236172503
 30
0.0
 10
15.3722196178
 20
9.0261021236
 30
0.0
 10
15.378464726
 20
9.0279052815
 30
0.0
 10
15.3827617039
 20
9.0286757232
 30
0.0
 10
15.3849252858
 20
9.0289572899
 30
0.0
  0
SPLINE
  5
2AB
100
AcDbEntity
  8
0
100
AcDbSpline
 62
9
  6
CONTINUOUS
 70
0
 71
3
 72
15
 73
11
 74
0
 42
0.0000001
 43
0.0000001
 44
0.0000000001
 40
0.0
 40
0.0
 40
0.0
 40
0.0
 40
0.072589546
 40
0.1590607482
 40
0.2613522176
 40
0.3797037654
 40
0.5137047716
 40
0.6626200775
 40
0.8251967711
 40
1.0
 40
1.0
 40
1.0
 40
1.0
 10
15.4011748127
 20
9.0111695021
 30
0.0
 10
15.4005697783
 20
9.0111694927
 30
0.0
 10
15.3992441763
 20
9.0114397704
 30
0.0
 10
15.3972800507
 20
9.0124109459
 30
0.0
 10
15.3952067457
 20
9.0139290898
 30
0.0
 10
15.3930646923
 20
9.015975351
 30
0.0
 10
15.3909003729
 20
9.0185321775
 30
0.0
 10
15.3887655698
 20
9.0215759769
 30
0.0
 10
15.3867205713
 20
9.0250805443
 30
0.0
 10
15.3855031085
 20
9.0276194516
 30
0.0
 10
15.3849252859
 20
9.0289569604
 30
0.0
  0
LINE
  5
2AC
100
AcDbEntity
  8
0
100
AcDbLine
 62
9
  6
CONTINUOUS
 10
14.5327174803
 20
9.7449046602
 11
14.4950457568
 21
9.7448641091
  0
SPLINE
  5
2AD
100
AcDbEntity
  8
0
100
AcDbSpline
 62
9
  6
CONTINUOUS
 70
0
 71
3
 72
25
 73
21
 74
0
 42
0.0000001
 43
0.0000001
 44
0.0000000001
 40
0.0
 40
0.0
 40
0.0
 40
0.0
 40
0.0624765616
 40
0.1250479885
 40
0.1563407532
 40
0.1876194811
 40
0.2188914839
 40
0.2501698617
 40
0.3126816262
 40
0.3751857205
 40
0.4376922365
 40
0.5002029173
 40
0.5314858794
 40
0.5627618684
 40
0.6252738562
 40
0.6877592612
 40
0.7502297731
 40
0.8126942356
 40
0.8752083243
 40
1.0
 40
1.0
 40
1.0
 40
1.0
 10
14.4950466738
 20
9.7448641098
 30
0.0
 10
14.4950453189
 20
9.7489057199
 30
0.0
 10
14.4956451886
 20
9.7570076378
 30
0.0
 10
14.4979290359
 20
9.7669050282
 30
0.0
 10
14.5006892265
 20
9.7745236664
 30
0.0
 10
14.5032134928
 20
9.780052174
 30
0.0
 10
14.5061822315
 20
9.7853547948
 30
0.0
 10
14.510714674
 20
9.7920654381
 30
0.0
 10
14.5174047703
 20
9.7997151221
 30
0.0
 10
14.5268566235
 20
9.807408296
 30
0.0
 10
14.5374490606
 20
9.813432169
 30
0.0
 10
14.5469824237
 20
9.8169407773
 30
0.0
 10
14.5548588862
 20
9.8188209194
 30
0.0
 10
14.5628589017
 20
9.8200773989
 30
0.0
 10
14.5730004219
 20
9.8204993423
 30
0.0
 10
14.5851015702
 20
9.8192325132
 30
0.0
 10
14.5969057986
 20
9.8163087162
 30
0.0
 10
14.6082234717
 20
9.8118582612
 30
0.0
 10
14.6224359265
 20
9.8041108656
 30
0.0
 10
14.6319920123
 20
9.7964388162
 30
0.0
 10
14.6377001069
 20
9.7907302805
 30
0.0
  0
SPLINE
  5
2AE
100
AcDbEntity
  8
0
100
AcDbSpline
 62
9
  6
CONTINUOUS
 70
0
 71
3
 72
9
 73
5
 74
0
 42
0.0000001
 43
0.0000001
 44
0.0000000001
 40
0.0
 40
0.0
 40
0.0
 40
0.0
 40
0.2549358941
 40
1.0
 40
1.0
 40
1.0
 40
1.0
 10
15.3225373616
 20
9.0493243419
 30
0.0
 10
15.3237657225
 20
9.0480960365
 30
0.0
 10
15.3284448455
 20
9.0431432289
 30
0.0
 10
15.3325414022
 20
9.037620714
 30
0.0
 10
15.3350928593
 20
9.0332315897
 30
0.0
  0
SPLINE
  5
2AF
100
AcDbEntity
  8
0
100
AcDbSpline
 62
9
  6
CONTINUOUS
 70
0
 71
3
 72
12
 73
8
 74
0
 42
0.0000001
 43
0.0000001
 44
0.0000000001
 40
0.0
 40
0.0
 40
0.0
 40
0.0
 40
0.2330213531
 40
0.4818644769
 40
0.6099367955
 40
0.7394018131
 40
1.0
 40
1.0
 40
1.0
 40
1.0
 10
15.3849252859
 20
9.0289569604
 30
0.0
 10
15.3840915757
 20
9.0308665454
 30
0.0
 10
15.3822643454
 20
9.0347721684
 30
0.0
 10
15.3795597025
 20
9.0395182049
 30
0.0
 10
15.3770218605
 20
9.0432709238
 30
0.0
 10
15.3742049153
 20
9.0469518277
 30
0.0
 10
15.3718475113
 20
9.0495354393
 30
0.0
 10
15.3701862348
 20
9.0511695021
 30
0.0
  0
SPLINE
  5
2B0
100
AcDbEntity
  8
0
100
AcDbSpline
 62
9
  6
CONTINUOUS
 70
0
 71
3
 72
21
 73
17
 74
0
 42
0.0000001
 43
0.0000001
 44
0.0000000001
 40
0.0
 40
0.0
 40
0.0
 40
0.0
 40
0.0617492101
 40
0.1221555309
 40
0.1813310546
 40
0.2396132738
 40
0.2976131486
 40
0.3557828777
 40
0.4144554528
 40
0.4739343318
 40
0.5344718897
 40
0.59650577
 40
0.6602051438
 40
0.7254585354
 40
0.8599534595
 40
1.0
 40
1.0
 40
1.0
 40
1.0
 10
14.5327188542
 20
9.7449029117
 30
0.0
 10
14.5325473236
 20
9.7470769801
 30
0.0
 10
14.5325456041
 20
9.7514129922
 30
0.0
 10
14.5335865229
 20
9.7577607417
 30
0.0
 10
14.5356568287
 20
9.7637265442
 30
0.0
 10
14.5387490397
 20
9.7691415577
 30
0.0
 10
14.542831786
 20
9.7738097778
 30
0.0
 10
14.5477490493
 20
9.7776087466
 30
0.0
 10
14.5533501486
 20
9.7804137704
 30
0.0
 10
14.5594456033
 20
9.7821760549
 30
0.0
 10
14.565870625
 20
9.7828496132
 30
0.0
 10
14.5724639432
 20
9.782492801
 30
0.0
 10
14.579100202
 20
9.7811742416
 30
0.0
 10
14.5879364589
 20
9.778186866
 30
0.0
 10
14.5984981984
 20
9.7722683474
 30
0.0
 10
14.6059187535
 20
9.7659433869
 30
0.0
 10
14.6094160662
 20
9.7624458768
 30
0.0
  0
LINE
  5
2B1
100
AcDbEntity
  8
0
100
AcDbLine
 62
9
  6
CONTINUOUS
 10
15.3469225055
 20
9.006432316
 11
15.312480586
 21
9.0376758562
  0
LINE
  5
2B2
100
AcDbEntity
  8
0
100
AcDbLine
 62
9
  6
CONTINUOUS
 10
15.312480586
 20
9.0376758562
 11
14.5327174803
 21
9.7449024891
  0
SPLINE
  5
2B3
100
AcDbEntity
  8
0
100
AcDbSpline
 62
9
  6
CONTINUOUS
 70
0
 71
3
 72
10
 73
6
 74
0
 42
0.0000001
 43
0.0000001
 44
0.0000000001
 40
0.0
 40
0.0
 40
0.0
 40
0.0
 40
0.2804699233
 40
0.6654406396
 40
1.0
 40
1.0
 40
1.0
 40
1.0
 10
15.3350929619
 20
9.0332315792
 30
0.0
 10
15.3364737893
 20
9.030862819
 30
0.0
 10
15.3394892453
 20
9.0250893745
 30
0.0
 10
15.3433293359
 20
9.0160908269
 30
0.0
 10
15.3457893437
 20
9.0095005867
 30
0.0
 10
15.3469218849
 20
9.0064323161
 30
0.0
  0
SPLINE
  5
2B4
100
AcDbEntity
  8
0
100
AcDbSpline
 62
9
  6
CONTINUOUS
 70
0
 71
3
 72
9
 73
5
 74
0
 42
0.0000001
 43
0.0000001
 44
0.0000000001
 40
0.0
 40
0.0
 40
0.0
 40
0.0
 40
0.4999700978
 40
1.0
 40
1.0
 40
1.0
 40
1.0
 10
15.3701862348
 20
9.0511695022
 30
0.0
 10
15.3676934682
 20
9.056047891
 30
0.0
 10
15.361884102
 20
9.0654027401
 30
0.0
 10
15.3546963461
 20
9.0737343681
 30
0.0
 10
15.3508219252
 20
9.0776084622
 30
0.0
  0
ENDSEC
  0
SECTION
  2
OBJECTS
  0
DICTIONARY
  5
C
100
AcDbDictionary
280
0
281
1
  3
ACAD_GROUP
350
D
  3
ACAD_MLINESTYLE
350
17
  3
ACAD_LAYOUT
350
1A
  3
ACAD_PLOTSETTINGS
350
19
  3
ACAD_PLOTSTYLENAME
350
E
  0
DICTIONARY
  5
D
102
{ACAD_REACTORS
330
C
102
}
100
AcDbDictionary
280
0
281
1
  0
ACDBDICTIONARYWDFLT
  5
E
102
{ACAD_REACTORS
330
C
102
}
100
AcDbDictionary
281
1
  3
Normal
350
F
100
AcDbDictionaryWithDefault
340
F
  0
DICTIONARY
  5
17
102
{ACAD_REACTORS
330
C
102
}
100
AcDbDictionary
280
0
281
1
  3
Standard
350
18
  0
DICTIONARY
  5
19
102
{ACAD_REACTORS
330
C
102
}
100
AcDbDictionary
281
1
  0
DICTIONARY
  5
1A
102
{ACAD_REACTORS
330
C
102
}
100
AcDbDictionary
281
1
  3
Model
350
2B5
  3
Layout1
350
2B6
  0
ACDBPLACEHOLDER
  5
F
102
{ACAD_REACTORS
330
E
102
}
  0
MLINESTYLE
  5
18
102
{ACAD_REACTORS
330
17
102
}
100
AcDbMlineStyle
  2
STANDARD
 70
0
  3

 62
256
 51
90.0
 52
90.0
 71
2
 49
0.5
 62
256
  6
BYLAYER
 49
-0.5
 62
256
  6
BYLAYER
  0
LAYOUT
  5
2B5
102
{ACAD_REACTORS
330
1A
102
}
100
AcDbPlotSettings
  1

  2
none_device
  4
ANSI_C_(22.00_x_17.00_Inches)
  6

 40
0.0
 41
0.0
 42
0.0
 43
0.0
 44
558.8
 45
431.8
 46
0.0
 47
0.0
 48
0.0
 49
0.0
140
0.0
141
0.0
142
1.0
143
1.0
 70
1024
 72
0
 73
0
 74
0
  7

 75
0
147
1.0
148
0.0
149
0.0
100
AcDbLayout
  1
Model
 70
0
 71
0
 10
0.0
 20
0.0
 11
22.0
 21
17.0
 12
0.0
 22
0.0
 32
0.0
 14
0.0
 24
0.0
 34
0.0
 15
0.0
 25
0.0
 35
0.0
146
0.0
 13
0.0
 23
0.0
 33
0.0
 16
1.0
 26
0.0
 36
0.0
 17
0.0
 27
1.0
 37
0.0
 76
0
330
202
345
0
346
0
  0
LAYOUT
  5
2B6
102
{ACAD_REACTORS
330
1A
102
}
100
AcDbPlotSettings
  1

  2
none_device
  4
ANSI_C_(22.00_x_17.00_Inches)
  6

 40
0.0
 41
0.0
 42
0.0
 43
0.0
 44
558.8
 45
431.8
 46
0.0
 47
0.0
 48
0.0
 49
0.0
140
0.0
141
0.0
142
1.0
143
1.0
 70
0
 72
0
 73
0
 74
0
  7

 75
0
147
1.0
148
0.0
149
0.0
100
AcDbLayout
  1
Layout1
 70
0
 71
1
 10
0.0
 20
0.0
 11
22.0
 21
17.0
 12
0.0
 22
0.0
 32
0.0
 14
0.0
 24
0.0
 34
0.0
 15
0.0
 25
0.0
 35
0.0
146
0.0
 13
0.0
 23
0.0
 33
0.0
 16
1.0
 26
0.0
 36
0.0
 17
0.0
 27
1.0
 37
0.0
 76
0
330
203
345
0
346
0
  0
ENDSEC
  0
EOF
