999
DXF file: E:\BT Custom\CADOUTPUT\_FRONT.dxf
999
Pro/ENGINEER 2018400 by Parametric Technology Corporation
  0
SECTION
  2
HEADER
  9
$ACADVER
  1
AC1018
  9
$DWGCODEPAGE
  3
ANSI_1252
  9
$EXTMAX
 10
22.0
 20
17.0
 30
0.0
  9
$EXTMIN
 10
0.0
 20
0.0
 30
0.0
  9
$LIMMIN
 10
0.0
 20
0.0
  9
$LIMMAX
 10
22.0
 20
17.0
  9
$VIEWCTR
 10
11.0
 20
8.5
  9
$VIEWSIZE
 40
17.0
  9
$CLAYER
  8
0
  9
$LTSCALE
 40
1.21
  9
$CELTYPE
  6
BYLAYER
  9
$DIMSCALE
 40
1.0
  9
$DIMASZ
 40
0.1
  9
$DIMEXO
 40
0.0625
  9
$DIMDLI
 40
0.836
  9
$DIMEXE
 40
0.125
  9
$DIMCEN
 40
0.198
  9
$DIMLFAC
 40
1.0
  9
$DIMBLK
  1
_FILLED
  9
$DIMALT
 70
1
  9
$DIMALTD
 70
2
  9
$DIMALTTD
 70
2
  9
$DIMALTF
 40
25.4
  9
$DIMTXT
 40
0.08
  9
$DIMTOL
 70
1
  9
$DIMLIM
 70
0
  9
$DIMTFAC
 40
1.0
  9
$DIMTP
 40
0.001
  9
$DIMTM
 40
0.001
  9
$DIMGAP
 40
0.09
  9
$DIMDSEP
 70
46
  9
$AUNITS
 70
0
  9
$PDMODE
 70
3
  9
$PDSIZE
 40
0.06
  9
$HANDSEED
  5
2A0
  9
$TILEMODE
 70
1
  9
$MEASUREMENT
 70
0
  9
$INSUNITS
 70
1
  0
ENDSEC
  0
SECTION
  2
CLASSES
  0
CLASS
  1
ACDBDICTIONARYWDFLT
  2
AcDbDictionaryWithDefault
  3
AutoCAD 2000
 90
0
 91
1
280
0
281
0
  0
CLASS
  1
ACDBPLACEHOLDER
  2
AcDbPlaceHolder
  3
AutoCAD 2000
 90
0
 91
1
280
0
281
0
  0
CLASS
  1
LAYOUT
  2
AcDbLayout
  3
AutoCAD 2000
 90
0
 91
0
280
0
281
0
  0
ENDSEC
  0
SECTION
  2
TABLES
  0
TABLE
  2
VPORT
  5
8
100
AcDbSymbolTable
 70
2
  0
VPORT
  5
1F4
100
AcDbSymbolTableRecord
100
AcDbViewportTableRecord
  2
*ACTIVE
 70
0
 10
0.0
 20
0.0
 11
1.0
 21
1.0
 12
11.0
 22
8.5
 13
0.0
 23
0.0
 14
1.0
 24
1.0
 15
0.0
 25
0.0
 16
0.0
 26
0.0
 36
1.0
 17
0.0
 27
0.0
 37
0.0
 40
17.0
 41
1.2941176471
 42
50.0
 43
0.0
 44
0.0
 50
0.0
 51
0.0
 71
0
 72
100
 73
1
 74
1
 75
0
 76
0
 77
0
 78
0
  0
ENDTAB
  0
TABLE
  2
LTYPE
  5
5
100
AcDbSymbolTable
 70
6
  0
LTYPE
  5
14
100
AcDbSymbolTableRecord
100
AcDbLinetypeTableRecord
  2
BYBLOCK
 70
0
  3

 72
65
 73
0
 40
0.0
  0
LTYPE
  5
15
100
AcDbSymbolTableRecord
100
AcDbLinetypeTableRecord
  2
BYLAYER
 70
0
  3

 72
65
 73
0
 40
0.0
  0
LTYPE
  5
16
100
AcDbSymbolTableRecord
100
AcDbLinetypeTableRecord
  2
CONTINUOUS
 70
64
  3
Solid line
 72
65
 73
0
 40
0.0
  0
LTYPE
  5
1F5
100
AcDbSymbolTableRecord
100
AcDbLinetypeTableRecord
  2
CENTER
 70
64
  3
____ _ ____ _ ____ _ ____ _ ____ _ ____ _ ____
 72
65
 73
4
 40
0.6
 49
0.375
 74
0
 49
-0.075
 74
0
 49
0.075
 74
0
 49
-0.075
 74
0
  0
LTYPE
  5
1F6
100
AcDbSymbolTableRecord
100
AcDbLinetypeTableRecord
  2
HIDDEN
 70
64
  3
- - - - - - - - - - - - - - - - - - - -
 72
65
 73
2
 40
0.2
 49
0.1
 74
0
 49
-0.1
 74
0
  0
LTYPE
  5
1F7
100
AcDbSymbolTableRecord
100
AcDbLinetypeTableRecord
  2
PHANTOM
 70
64
  3
_____ _ _ _____ _ _ _____ _ _ _____
 72
65
 73
6
 40
0.8
 49
0.45
 74
0
 49
-0.05
 74
0
 49
0.1
 74
0
 49
-0.05
 74
0
 49
0.1
 74
0
 49
-0.05
 74
0
  0
LTYPE
  5
1F8
100
AcDbSymbolTableRecord
100
AcDbLinetypeTableRecord
  2
DOT
 70
64
  3
. . . . . . . . . . . . . . . . . . . .
 72
65
 73
2
 40
0.2
 49
0.1
 74
0
 49
-0.1
 74
0
  0
LTYPE
  5
1F9
100
AcDbSymbolTableRecord
100
AcDbLinetypeTableRecord
  2
DASHED
 70
64
  3
- - - - - - - - - - - - - - - - - - - -
 72
65
 73
2
 40
0.2
 49
0.1
 74
0
 49
-0.1
 74
0
  0
ENDTAB
  0
TABLE
  2
LAYER
  5
2
100
AcDbSymbolTable
 70
36
  0
LAYER
  5
10
100
AcDbSymbolTableRecord
100
AcDbLayerTableRecord
  2
0
 70
0
 62
7
  6
CONTINUOUS
370
-3
390
F
  0
LAYER
  5
1FA
100
AcDbSymbolTableRecord
100
AcDbLayerTableRecord
  2
DEFAULT_1
 70
0
 62
7
  6
CENTER
370
-3
390
F
  0
LAYER
  5
1FB
100
AcDbSymbolTableRecord
100
AcDbLayerTableRecord
  2
DEFAULT_2
 70
0
 62
8
  6
HIDDEN
370
-3
390
F
  0
LAYER
  5
1FC
100
AcDbSymbolTableRecord
100
AcDbLayerTableRecord
  2
DEFAULT_3
 70
0
 62
7
  6
PHANTOM
370
-3
390
F
  0
LAYER
  5
1FD
100
AcDbSymbolTableRecord
100
AcDbLayerTableRecord
  2
ALL_FEATURES
 70
0
 62
7
  6
CONTINUOUS
370
-3
390
F
  0
LAYER
  5
1FE
100
AcDbSymbolTableRecord
100
AcDbLayerTableRecord
  2
AXES_FEATURES
 70
0
 62
7
  6
CONTINUOUS
370
-3
390
F
  0
LAYER
  5
1FF
100
AcDbSymbolTableRecord
100
AcDbLayerTableRecord
  2
DIMENSIONS
 70
0
 62
7
  6
CONTINUOUS
370
-3
390
F
  0
ENDTAB
  0
TABLE
  2
STYLE
  5
3
100
AcDbSymbolTable
 70
1
  0
STYLE
  5
11
100
AcDbSymbolTableRecord
100
AcDbTextStyleTableRecord
  2
STANDARD
 70
0
 40
0.0
 41
0.8
 50
0.0
 71
0
 42
0.2
  3
txt
  4

  0
STYLE
  5
200
100
AcDbSymbolTableRecord
100
AcDbTextStyleTableRecord
  2
TEXTSTYLE_1
 70
0
 40
0.0
 41
0.8
 50
0.0
 71
0
 42
0.2
  3
gdt
  4

  0
ENDTAB
  0
TABLE
  2
VIEW
  5
6
100
AcDbSymbolTable
 70
0
  0
ENDTAB
  0
TABLE
  2
UCS
  5
7
100
AcDbSymbolTable
 70
0
  0
ENDTAB
  0
TABLE
  2
APPID
  5
9
100
AcDbSymbolTable
 70
1
  0
APPID
  5
201
100
AcDbSymbolTableRecord
100
AcDbRegAppTableRecord
  2
ACAD
 70
0
  0
ENDTAB
  0
TABLE
  2
BLOCK_RECORD
  5
1
100
AcDbSymbolTable
 70
0
  0
BLOCK_RECORD
  5
202
100
AcDbSymbolTableRecord
100
AcDbBlockTableRecord
  2
*Model_Space
  0
BLOCK_RECORD
  5
203
100
AcDbSymbolTableRecord
100
AcDbBlockTableRecord
  2
*Paper_Space
  0
BLOCK_RECORD
  5
204
100
AcDbSymbolTableRecord
100
AcDbBlockTableRecord
  2
_FILLED
  0
ENDTAB
  0
TABLE
  2
DIMSTYLE
  5
A
100
AcDbSymbolTable
 70
1
100
AcDbDimStyleTable
 71
0
  0
DIMSTYLE
105
205
100
AcDbSymbolTableRecord
100
AcDbDimStyleTableRecord
  2
STANDARD
 70
0
  3

  4

 40
1.0
 41
0.1
 42
0.0625
 43
0.38
 44
0.125
 45
0.0
 46
0.0
 47
0.001
 48
0.001
140
0.08
141
0.09
142
0.0
143
25.4
144
1.0
145
0.0
146
1.0
147
0.09
 71
1.0
 72
0.0
 73
1
 74
1
 75
0
 76
0
 77
0
 78
4
 79
1
170
1
171
2
172
0
173
0
174
0
175
0
176
0
177
0
178
0
270
2
179
3
271
3
272
3
273
2
274
2
275
0
280
0
281
0
282
0
283
1
284
4
285
0
286
0
287
3
288
0
340
11
278
46
341
204
342
204
343
204
344
204
  0
ENDTAB
  0
ENDSEC
  0
SECTION
  2
BLOCKS
  0
BLOCK
  5
20
100
AcDbEntity
  8
0
100
AcDbBlockBegin
  2
*Model_Space
 70
0
 10
0.0
 20
0.0
 30
0.0
  3
*Model_Space
  1

  0
ENDBLK
  5
21
100
AcDbEntity
  8
0
100
AcDbBlockEnd
  0
BLOCK
  5
1C
100
AcDbEntity
  8
0
100
AcDbBlockBegin
  2
*Paper_Space
 70
0
 10
0.0
 20
0.0
 30
0.0
  3
*Paper_Space
  1

  0
ENDBLK
  5
1D
100
AcDbEntity
  8
0
100
AcDbBlockEnd
  0
BLOCK
  5
206
100
AcDbEntity
  8
0
100
AcDbBlockBegin
  2
_FILLED
 70
64
 10
0.0
 20
0.0
  3
_FILLED
  1

  0
SOLID
  5
207
100
AcDbEntity
  8
0
  6
BYBLOCK
 62
0
100
AcDbTrace
 10
0.0
 20
0.0
 11
-1.0
 21
0.2
 12
-1.0
 22
-0.2
 13
-1.0
 23
-0.2
  0
ENDBLK
  5
208
100
AcDbEntity
  8
0
  6
BYBLOCK
 62
0
100
AcDbBlockEnd
  0
ENDSEC
  0
SECTION
  2
ENTITIES
  0
LINE
  5
209
100
AcDbEntity
  8
0
100
AcDbLine
 62
7
  6
CONTINUOUS
 10
4.3776923427
 20
8.2292123959
 11
4.3776923427
 21
9.1332123959
  0
LINE
  5
20A
100
AcDbEntity
  8
0
100
AcDbLine
 62
9
  6
CONTINUOUS
 10
4.4176923427
 20
9.1732123959
 11
4.4176923427
 21
8.1892123959
  0
LINE
  5
20B
100
AcDbEntity
  8
0
100
AcDbLine
 62
7
  6
CONTINUOUS
 10
6.0126923427
 20
5.7232123959
 11
6.0126923427
 21
5.9532123959
  0
LINE
  5
20C
100
AcDbEntity
  8
0
100
AcDbLine
 62
7
  6
CONTINUOUS
 10
6.5076923427
 20
8.1492123959
 11
6.5076923427
 21
6.3992123959
  0
LINE
  5
20D
100
AcDbEntity
  8
0
100
AcDbLine
 62
7
  6
CONTINUOUS
 10
6.5076923427
 20
5.9732123959
 11
6.5076923427
 21
6.3492123959
  0
LINE
  5
20E
100
AcDbEntity
  8
0
100
AcDbLine
 62
7
  6
CONTINUOUS
 10
6.5976923427
 20
6.3492123959
 11
6.5976923427
 21
6.3552123959
  0
LINE
  5
20F
100
AcDbEntity
  8
0
100
AcDbLine
 62
7
  6
CONTINUOUS
 10
7.2776923427
 20
6.3492123959
 11
7.2776923427
 21
6.3552123959
  0
LINE
  5
210
100
AcDbEntity
  8
0
100
AcDbLine
 62
9
  6
CONTINUOUS
 10
7.3426671998
 20
8.9229451018
 11
7.3426671998
 21
8.2292043869
  0
LINE
  5
211
100
AcDbEntity
  8
0
100
AcDbLine
 62
7
  6
CONTINUOUS
 10
7.3676923427
 20
8.1492123959
 11
7.3676923427
 21
6.3992123959
  0
LINE
  5
212
100
AcDbEntity
  8
0
100
AcDbLine
 62
7
  6
CONTINUOUS
 10
7.3676923427
 20
5.9732123959
 11
7.3676923427
 21
6.3492123959
  0
LINE
  5
213
100
AcDbEntity
  8
0
100
AcDbLine
 62
9
  6
CONTINUOUS
 10
7.3803379507
 20
8.9229567445
 11
7.3803389286
 21
8.2292123959
  0
LINE
  5
214
100
AcDbEntity
  8
0
100
AcDbLine
 62
9
  6
CONTINUOUS
 10
7.5246923427
 20
8.1892123959
 11
7.5246923427
 21
9.1732123959
  0
LINE
  5
215
100
AcDbEntity
  8
0
100
AcDbLine
 62
7
  6
CONTINUOUS
 10
6.0126928022
 20
5.7232123959
 11
7.8626919991
 21
5.7232123959
  0
LINE
  5
216
100
AcDbEntity
  8
0
100
AcDbLine
 62
7
  6
CONTINUOUS
 10
10.0126999981
 20
5.7232123959
 11
11.8626846873
 21
5.7232123959
  0
LINE
  5
217
100
AcDbEntity
  8
0
100
AcDbLine
 62
7
  6
CONTINUOUS
 10
14.0126928022
 20
5.7232123959
 11
15.8626919991
 21
5.7232123959
  0
LINE
  5
218
100
AcDbEntity
  8
0
100
AcDbLine
 62
9
  6
CONTINUOUS
 10
6.5245630219
 20
8.2556516175
 11
6.5528472931
 21
8.2273673463
  0
LINE
  5
219
100
AcDbEntity
  8
0
100
AcDbLine
 62
7
  6
CONTINUOUS
 10
7.5646923427
 20
9.1332123959
 11
7.5646923427
 21
8.2292123959
  0
LINE
  5
21A
100
AcDbEntity
  8
0
100
AcDbLine
 62
7
  6
CONTINUOUS
 10
7.8626923427
 20
5.7232123959
 11
7.8626923427
 21
5.9532123959
  0
LINE
  5
21B
100
AcDbEntity
  8
0
100
AcDbLine
 62
9
  6
CONTINUOUS
 10
15.8626919991
 20
5.9532123959
 11
14.0126923427
 21
5.9532123959
  0
LINE
  5
21C
100
AcDbEntity
  8
0
100
AcDbLine
 62
9
  6
CONTINUOUS
 10
11.8626923427
 20
5.9532123959
 11
10.0126923427
 21
5.9532123959
  0
LINE
  5
21D
100
AcDbEntity
  8
0
100
AcDbLine
 62
9
  6
CONTINUOUS
 10
7.8626919991
 20
5.9532123959
 11
6.0126923427
 21
5.9532123959
  0
LINE
  5
21E
100
AcDbEntity
  8
0
100
AcDbLine
 62
7
  6
CONTINUOUS
 10
15.8426920065
 20
5.9732123959
 11
14.0326927452
 21
5.9732123959
  0
LINE
  5
21F
100
AcDbEntity
  8
0
100
AcDbLine
 62
7
  6
CONTINUOUS
 10
11.8426847562
 20
5.9732123959
 11
10.0326999293
 21
5.9732123959
  0
LINE
  5
220
100
AcDbEntity
  8
0
100
AcDbLine
 62
7
  6
CONTINUOUS
 10
7.8426920065
 20
5.9732123959
 11
6.0326927452
 21
5.9732123959
  0
LINE
  5
221
100
AcDbEntity
  8
0
100
AcDbLine
 62
7
  6
CONTINUOUS
 10
15.3676866721
 20
6.3492123959
 11
14.5076980134
 21
6.3492123959
  0
LINE
  5
222
100
AcDbEntity
  8
0
100
AcDbLine
 62
7
  6
CONTINUOUS
 10
7.3676866721
 20
6.3492123959
 11
6.5076980134
 21
6.3492123959
  0
LINE
  5
223
100
AcDbEntity
  8
0
100
AcDbLine
 62
9
  6
CONTINUOUS
 10
6.5051984893
 20
8.2292123909
 11
6.5402917818
 21
8.2112744666
  0
LINE
  5
224
100
AcDbEntity
  8
0
100
AcDbLine
 62
7
  6
CONTINUOUS
 10
6.5076923427
 20
6.3992123959
 11
7.3676923427
 21
6.3992123959
  0
LINE
  5
225
100
AcDbEntity
  8
0
100
AcDbLine
 62
7
  6
CONTINUOUS
 10
14.5076923427
 20
6.3992123959
 11
15.3676923427
 21
6.3992123959
  0
LINE
  5
226
100
AcDbEntity
  8
0
100
AcDbLine
 62
9
  6
CONTINUOUS
 10
7.2659690484
 20
8.9404891016
 11
7.2376847772
 21
8.9687733729
  0
LINE
  5
227
100
AcDbEntity
  8
0
100
AcDbLine
 62
9
  6
CONTINUOUS
 10
7.2376848402
 20
8.9687734359
 11
6.5245630219
 21
8.2556516175
  0
LINE
  5
228
100
AcDbEntity
  8
0
100
AcDbLine
 62
7
  6
CONTINUOUS
 10
7.265969114
 20
8.9404891672
 11
6.5528472959
 21
8.2273673491
  0
LINE
  5
229
100
AcDbEntity
  8
0
100
AcDbLine
 62
9
  6
CONTINUOUS
 10
15.3676923427
 20
8.1492123959
 11
15.3617294961
 21
8.1492123959
  0
LINE
  5
22A
100
AcDbEntity
  8
0
100
AcDbLine
 62
9
  6
CONTINUOUS
 10
14.5136551893
 20
8.1492123959
 11
14.5076923427
 21
8.1492123959
  0
LINE
  5
22B
100
AcDbEntity
  8
0
100
AcDbLine
 62
9
  6
CONTINUOUS
 10
7.3676923427
 20
8.1492123959
 11
7.3617294961
 21
8.1492123959
  0
LINE
  5
22C
100
AcDbEntity
  8
0
100
AcDbLine
 62
9
  6
CONTINUOUS
 10
6.5136551893
 20
8.1492123959
 11
6.5076923427
 21
8.1492123959
  0
LINE
  5
22D
100
AcDbEntity
  8
0
100
AcDbLine
 62
7
  6
CONTINUOUS
 10
17.4576923427
 20
8.1892123959
 11
15.4011748127
 21
8.1892123959
  0
LINE
  5
22E
100
AcDbEntity
  8
0
100
AcDbLine
 62
7
  6
CONTINUOUS
 10
14.4742098727
 20
8.1892123959
 11
14.3506923427
 21
8.1892123959
  0
LINE
  5
22F
100
AcDbEntity
  8
0
100
AcDbLine
 62
7
  6
CONTINUOUS
 10
7.5246923427
 20
8.1892123959
 11
7.4011748127
 21
8.1892123959
  0
LINE
  5
230
100
AcDbEntity
  8
0
100
AcDbLine
 62
7
  6
CONTINUOUS
 10
6.4742098727
 20
8.1892123959
 11
4.4176923427
 21
8.1892123959
  0
LINE
  5
231
100
AcDbEntity
  8
0
100
AcDbLine
 62
9
  6
CONTINUOUS
 10
4.3776923427
 20
8.2292123959
 11
6.5051984944
 21
8.2292123959
  0
LINE
  5
232
100
AcDbEntity
  8
0
100
AcDbLine
 62
9
  6
CONTINUOUS
 10
7.3426671998
 20
8.2292123957
 11
7.5646923427
 21
8.2292123959
  0
LINE
  5
233
100
AcDbEntity
  8
0
100
AcDbLine
 62
9
  6
CONTINUOUS
 10
15.3701862348
 20
8.229212396
 11
17.4976923427
 21
8.2292123959
  0
LINE
  5
234
100
AcDbEntity
  8
0
100
AcDbLine
 62
9
  6
CONTINUOUS
 10
14.5327174803
 20
8.2292126668
 11
14.3106923427
 21
8.2292123959
  0
LINE
  5
235
100
AcDbEntity
  8
0
100
AcDbLine
 62
7
  6
CONTINUOUS
 10
10.0126923427
 20
5.7232123959
 11
10.0126923427
 21
5.9532123959
  0
LINE
  5
236
100
AcDbEntity
  8
0
100
AcDbLine
 62
7
  6
CONTINUOUS
 10
10.5001923427
 20
5.9732123961
 11
10.5001923427
 21
12.3732123961
  0
LINE
  5
237
100
AcDbEntity
  8
0
100
AcDbLine
 62
9
  6
CONTINUOUS
 10
7.3803389286
 20
8.9229448163
 11
7.3426671998
 21
8.9229448163
  0
LINE
  5
238
100
AcDbEntity
  8
0
100
AcDbLine
 62
9
  6
CONTINUOUS
 10
17.4976923427
 20
9.1332123959
 11
14.3106923427
 21
9.1332123959
  0
LINE
  5
239
100
AcDbEntity
  8
0
100
AcDbLine
 62
9
  6
CONTINUOUS
 10
7.5646923427
 20
9.1332123959
 11
4.3776923427
 21
9.1332123959
  0
LINE
  5
23A
100
AcDbEntity
  8
0
100
AcDbLine
 62
7
  6
CONTINUOUS
 10
4.4176923427
 20
9.1732123959
 11
7.5246923427
 21
9.1732123959
  0
LINE
  5
23B
100
AcDbEntity
  8
0
100
AcDbLine
 62
7
  6
CONTINUOUS
 10
14.3506923427
 20
9.1732123959
 11
17.4576923427
 21
9.1732123959
  0
LINE
  5
23C
100
AcDbEntity
  8
0
100
AcDbLine
 62
7
  6
CONTINUOUS
 10
11.3751923427
 20
5.9732123961
 11
11.3751923427
 21
12.3732123961
  0
LINE
  5
23D
100
AcDbEntity
  8
0
100
AcDbLine
 62
7
  6
CONTINUOUS
 10
11.8626923427
 20
5.7232123959
 11
11.8626923427
 21
5.9532123959
  0
LINE
  5
23E
100
AcDbEntity
  8
0
100
AcDbLine
 62
7
  6
CONTINUOUS
 10
10.5001923427
 20
11.7232123961
 11
11.3751923427
 21
11.7232123961
  0
LINE
  5
23F
100
AcDbEntity
  8
0
100
AcDbLine
 62
7
  6
CONTINUOUS
 10
15.3225376512
 20
8.2273670875
 11
14.6094158395
 21
8.9404888992
  0
LINE
  5
240
100
AcDbEntity
  8
0
100
AcDbLine
 62
9
  6
CONTINUOUS
 10
15.3508219252
 20
8.255651356
 11
14.6377001069
 21
8.9687731743
  0
LINE
  5
241
100
AcDbEntity
  8
0
100
AcDbLine
 62
9
  6
CONTINUOUS
 10
14.6377001069
 20
8.9687731743
 11
14.6094158356
 21
8.9404889031
  0
LINE
  5
242
100
AcDbEntity
  8
0
100
AcDbLine
 62
9
  6
CONTINUOUS
 10
15.3701862164
 20
8.2292124326
 11
15.3350928727
 21
8.2112743945
  0
LINE
  5
243
100
AcDbEntity
  8
0
100
AcDbLine
 62
7
  6
CONTINUOUS
 10
14.0126923427
 20
5.7232123959
 11
14.0126923427
 21
5.9532123959
  0
LINE
  5
244
100
AcDbEntity
  8
0
100
AcDbLine
 62
7
  6
CONTINUOUS
 10
14.3106923427
 20
8.2292123959
 11
14.3106923427
 21
9.1332123959
  0
LINE
  5
245
100
AcDbEntity
  8
0
100
AcDbLine
 62
9
  6
CONTINUOUS
 10
14.3506923427
 20
9.1732123959
 11
14.3506923427
 21
8.1892123959
  0
LINE
  5
246
100
AcDbEntity
  8
0
100
AcDbLine
 62
9
  6
CONTINUOUS
 10
14.4950457569
 20
8.2292123959
 11
14.4950466738
 21
8.9229070036
  0
LINE
  5
247
100
AcDbEntity
  8
0
100
AcDbLine
 62
7
  6
CONTINUOUS
 10
14.5076923427
 20
8.1492123959
 11
14.5076923427
 21
6.3992123959
  0
LINE
  5
248
100
AcDbEntity
  8
0
100
AcDbLine
 62
7
  6
CONTINUOUS
 10
14.5076923427
 20
5.9732123959
 11
14.5076923427
 21
6.3492123959
  0
LINE
  5
249
100
AcDbEntity
  8
0
100
AcDbLine
 62
9
  6
CONTINUOUS
 10
14.5327174803
 20
8.229205139
 11
14.5327174803
 21
8.9229453842
  0
LINE
  5
24A
100
AcDbEntity
  8
0
100
AcDbLine
 62
7
  6
CONTINUOUS
 10
14.5976923427
 20
6.3492123959
 11
14.5976923427
 21
6.3552123959
  0
LINE
  5
24B
100
AcDbEntity
  8
0
100
AcDbLine
 62
9
  6
CONTINUOUS
 10
15.3225376336
 20
8.2273671051
 11
15.3508219048
 21
8.2556513763
  0
LINE
  5
24C
100
AcDbEntity
  8
0
100
AcDbLine
 62
7
  6
CONTINUOUS
 10
15.2776923427
 20
6.3492123959
 11
15.2776923427
 21
6.3552123959
  0
LINE
  5
24D
100
AcDbEntity
  8
0
100
AcDbLine
 62
7
  6
CONTINUOUS
 10
15.3676923427
 20
8.1492123959
 11
15.3676923427
 21
6.3992123959
  0
LINE
  5
24E
100
AcDbEntity
  8
0
100
AcDbLine
 62
7
  6
CONTINUOUS
 10
15.3676923427
 20
5.9732123959
 11
15.3676923427
 21
6.3492123959
  0
LINE
  5
24F
100
AcDbEntity
  8
0
100
AcDbLine
 62
7
  6
CONTINUOUS
 10
15.8626923427
 20
5.7232123959
 11
15.8626923427
 21
5.9532123959
  0
LINE
  5
250
100
AcDbEntity
  8
0
100
AcDbLine
 62
9
  6
CONTINUOUS
 10
17.4576923427
 20
8.1892123959
 11
17.4576923427
 21
9.1732123959
  0
LINE
  5
251
100
AcDbEntity
  8
0
100
AcDbLine
 62
7
  6
CONTINUOUS
 10
17.4976923427
 20
9.1332123959
 11
17.4976923427
 21
8.2292123959
  0
ARC
  5
252
100
AcDbEntity
  8
0
100
AcDbCircle
 62
7
  6
CONTINUOUS
 10
7.6224912378
 20
6.3805377811
 40
0.3457279201
100
AcDbArc
 50
183.5363956204
 51
183.9971212372
  0
ARC
  5
253
100
AcDbEntity
  8
0
100
AcDbCircle
 62
7
  6
CONTINUOUS
 10
6.2535688806
 20
6.3804977485
 40
0.3450511477
100
AcDbArc
 50
356.0132544259
 51
356.5913298751
  0
ARC
  5
254
100
AcDbEntity
  8
0
100
AcDbCircle
 62
7
  6
CONTINUOUS
 10
6.258556855
 20
6.3802119636
 40
0.3400553561
100
AcDbArc
 50
356.5894271454
 51
3.2285424287
  0
ARC
  5
255
100
AcDbEntity
  8
0
100
AcDbCircle
 62
7
  6
CONTINUOUS
 10
7.6164984178
 20
6.3802106919
 40
0.3397263386
100
AcDbArc
 50
176.7611877667
 51
183.5436790874
  0
ARC
  5
256
100
AcDbEntity
  8
0
100
AcDbCircle
 62
7
  6
CONTINUOUS
 10
7.4076923427
 20
8.1492123959
 40
0.04
100
AcDbArc
 50
99.2587646005
 51
180.0
  0
ARC
  5
257
100
AcDbEntity
  8
0
100
AcDbCircle
 62
7
  6
CONTINUOUS
 10
6.4676923427
 20
8.1492123959
 40
0.04
100
AcDbArc
 50
0.0
 51
80.7412353995
  0
ARC
  5
258
100
AcDbEntity
  8
0
100
AcDbCircle
 62
7
  6
CONTINUOUS
 10
7.5246923427
 20
9.1332123959
 40
0.04
100
AcDbArc
 50
0.0
 51
90.0
  0
ARC
  5
259
100
AcDbEntity
  8
0
100
AcDbCircle
 62
7
  6
CONTINUOUS
 10
4.4176923427
 20
9.1332123959
 40
0.04
100
AcDbArc
 50
90.0
 51
180.0
  0
ARC
  5
25A
100
AcDbEntity
  8
0
100
AcDbCircle
 62
7
  6
CONTINUOUS
 10
4.4176923427
 20
8.2292123959
 40
0.04
100
AcDbArc
 50
180.0
 51
270.0
  0
ARC
  5
25B
100
AcDbEntity
  8
0
100
AcDbCircle
 62
7
  6
CONTINUOUS
 10
7.5246923427
 20
8.2292123959
 40
0.04
100
AcDbArc
 50
270.0
 51
360.0
  0
ARC
  5
25C
100
AcDbEntity
  8
0
100
AcDbCircle
 62
7
  6
CONTINUOUS
 10
6.9376923427
 20
6.3802123959
 40
0.025
100
AcDbArc
 50
129.9995758519
 51
50.1408227931
  0
ARC
  5
25D
100
AcDbEntity
  8
0
100
AcDbCircle
 62
7
  6
CONTINUOUS
 10
6.0326923427
 20
5.9532123959
 40
0.02
100
AcDbArc
 50
90.0
 51
180.0
  0
ARC
  5
25E
100
AcDbEntity
  8
0
100
AcDbCircle
 62
7
  6
CONTINUOUS
 10
7.8426923427
 20
5.9532123959
 40
0.02
100
AcDbArc
 50
0.0
 51
90.0
  0
ARC
  5
25F
100
AcDbEntity
  8
0
100
AcDbCircle
 62
7
  6
CONTINUOUS
 10
10.0326923427
 20
5.9532123959
 40
0.02
100
AcDbArc
 50
90.0
 51
180.0
  0
ARC
  5
260
100
AcDbEntity
  8
0
100
AcDbCircle
 62
7
  6
CONTINUOUS
 10
15.6224912375
 20
6.3805377811
 40
0.3457279198
100
AcDbArc
 50
183.5363956202
 51
183.9971212374
  0
ARC
  5
261
100
AcDbEntity
  8
0
100
AcDbCircle
 62
7
  6
CONTINUOUS
 10
14.2535688806
 20
6.3804977485
 40
0.3450511477
100
AcDbArc
 50
356.0132544259
 51
356.5913298751
  0
ARC
  5
262
100
AcDbEntity
  8
0
100
AcDbCircle
 62
7
  6
CONTINUOUS
 10
14.258556855
 20
6.3802119636
 40
0.3400553561
100
AcDbArc
 50
356.5894271452
 51
3.2285424285
  0
ARC
  5
263
100
AcDbEntity
  8
0
100
AcDbCircle
 62
7
  6
CONTINUOUS
 10
15.6164984178
 20
6.3802106919
 40
0.3397263386
100
AcDbArc
 50
176.7611877667
 51
183.5436790875
  0
ARC
  5
264
100
AcDbEntity
  8
0
100
AcDbCircle
 62
7
  6
CONTINUOUS
 10
17.4576923427
 20
8.2292123959
 40
0.04
100
AcDbArc
 50
270.0
 51
360.0
  0
ARC
  5
265
100
AcDbEntity
  8
0
100
AcDbCircle
 62
7
  6
CONTINUOUS
 10
17.4576923427
 20
9.1332123959
 40
0.04
100
AcDbArc
 50
0.0
 51
90.0
  0
ARC
  5
266
100
AcDbEntity
  8
0
100
AcDbCircle
 62
7
  6
CONTINUOUS
 10
14.3506923427
 20
9.1332123959
 40
0.04
100
AcDbArc
 50
90.0
 51
180.0
  0
ARC
  5
267
100
AcDbEntity
  8
0
100
AcDbCircle
 62
7
  6
CONTINUOUS
 10
14.3506923427
 20
8.2292123959
 40
0.04
100
AcDbArc
 50
180.0
 51
270.0
  0
ARC
  5
268
100
AcDbEntity
  8
0
100
AcDbCircle
 62
7
  6
CONTINUOUS
 10
14.4676923427
 20
8.1492123959
 40
0.04
100
AcDbArc
 50
0.0
 51
80.7412353995
  0
ARC
  5
269
100
AcDbEntity
  8
0
100
AcDbCircle
 62
7
  6
CONTINUOUS
 10
15.4076923427
 20
8.1492123959
 40
0.04
100
AcDbArc
 50
99.2587646005
 51
180.0
  0
ARC
  5
26A
100
AcDbEntity
  8
0
100
AcDbCircle
 62
7
  6
CONTINUOUS
 10
14.9376923427
 20
6.3802123959
 40
0.025
100
AcDbArc
 50
129.9995758519
 51
50.1408227931
  0
ARC
  5
26B
100
AcDbEntity
  8
0
100
AcDbCircle
 62
7
  6
CONTINUOUS
 10
15.8426923427
 20
5.9532123959
 40
0.02
100
AcDbArc
 50
0.0
 51
90.0
  0
ARC
  5
26C
100
AcDbEntity
  8
0
100
AcDbCircle
 62
7
  6
CONTINUOUS
 10
14.0326923427
 20
5.9532123959
 40
0.02
100
AcDbArc
 50
90.0
 51
180.0
  0
ARC
  5
26D
100
AcDbEntity
  8
0
100
AcDbCircle
 62
7
  6
CONTINUOUS
 10
11.8426923427
 20
5.9532123959
 40
0.02
100
AcDbArc
 50
0.0
 51
90.0
  0
ARC
  5
26E
100
AcDbEntity
  8
0
100
AcDbCircle
 62
7
  6
CONTINUOUS
 10
10.9376923427
 20
12.3746266096
 40
0.4375
100
AcDbArc
 50
0.0
 51
180.1868551804
  0
LINE
  5
26F
100
AcDbEntity
  8
0
100
AcDbLine
 62
7
  6
CONTINUOUS
 10
15.2776042823
 20
6.356438349
 11
15.2776339288
 21
6.3560181703
  0
LINE
  5
270
100
AcDbEntity
  8
0
100
AcDbLine
 62
7
  6
CONTINUOUS
 10
15.2776339288
 20
6.3560181703
 11
15.2776923427
 21
6.3552123959
  0
LINE
  5
271
100
AcDbEntity
  8
0
100
AcDbLine
 62
7
  6
CONTINUOUS
 10
14.5976923427
 20
6.3552123959
 11
14.5977406327
 21
6.3558768663
  0
LINE
  5
272
100
AcDbEntity
  8
0
100
AcDbLine
 62
7
  6
CONTINUOUS
 10
14.5977406327
 20
6.3558768663
 11
14.5977850599
 21
6.3565078252
  0
LINE
  5
273
100
AcDbEntity
  8
0
100
AcDbLine
 62
7
  6
CONTINUOUS
 10
7.2776042823
 20
6.356438349
 11
7.2776339288
 21
6.3560181703
  0
LINE
  5
274
100
AcDbEntity
  8
0
100
AcDbLine
 62
7
  6
CONTINUOUS
 10
7.2776339288
 20
6.3560181703
 11
7.2776923427
 21
6.3552123959
  0
LINE
  5
275
100
AcDbEntity
  8
0
100
AcDbLine
 62
7
  6
CONTINUOUS
 10
6.5976923427
 20
6.3552123959
 11
6.5977406327
 21
6.3558768663
  0
LINE
  5
276
100
AcDbEntity
  8
0
100
AcDbLine
 62
7
  6
CONTINUOUS
 10
6.5977406327
 20
6.3558768663
 11
6.5977850599
 21
6.3565078252
  0
SPLINE
  5
277
100
AcDbEntity
  8
0
100
AcDbSpline
 62
9
  6
CONTINUOUS
 70
0
 71
3
 72
9
 73
5
 74
0
 42
0.0000001
 43
0.0000001
 44
0.0000000001
 40
0.0
 40
0.0
 40
0.0
 40
0.0
 40
0.4577404219
 40
1.0
 40
1.0
 40
1.0
 40
1.0
 10
6.5284643261
 20
8.1844719847
 30
0.0
 10
6.5300065181
 20
8.1886717964
 30
0.0
 10
6.5334437058
 20
8.1978201235
 30
0.0
 10
6.5376317158
 20
8.2066900895
 30
0.0
 10
6.540291669
 20
8.2112743922
 30
0.0
  0
SPLINE
  5
278
100
AcDbEntity
  8
0
100
AcDbSpline
 62
9
  6
CONTINUOUS
 70
0
 71
3
 72
9
 73
5
 74
0
 42
0.0000001
 43
0.0000001
 44
0.0000000001
 40
0.0
 40
0.0
 40
0.0
 40
0.0
 40
0.2453789301
 40
1.0
 40
1.0
 40
1.0
 40
1.0
 10
6.5402917716
 20
8.2112744226
 30
0.0
 10
6.541132228
 20
8.2127201887
 30
0.0
 10
6.5447754024
 20
8.21848467
 30
0.0
 10
6.5492114652
 20
8.2237316091
 30
0.0
 10
6.5528481576
 20
8.2273680635
 30
0.0
  0
SPLINE
  5
279
100
AcDbEntity
  8
0
100
AcDbSpline
 62
9
  6
CONTINUOUS
 70
0
 71
3
 72
22
 73
18
 74
0
 42
0.0000001
 43
0.0000001
 44
0.0000000001
 40
0.0
 40
0.0
 40
0.0
 40
0.0
 40
0.0706850188
 40
0.1401582894
 40
0.2746339224
 40
0.3398798763
 40
0.4035729039
 40
0.4656006791
 40
0.5261311663
 40
0.5856011533
 40
0.6442642435
 40
0.702425086
 40
0.7604165691
 40
0.8186908485
 40
0.8778589685
 40
0.9382581834
 40
1.0
 40
1.0
 40
1.0
 40
1.0
 10
7.2659682492
 20
8.9404885221
 30
0.0
 10
7.2677337361
 20
8.9422539895
 30
0.0
 10
7.2713799883
 20
8.9456149127
 30
0.0
 10
7.2790722651
 20
8.951535733
 30
0.0
 10
7.2874479445
 20
8.9562299298
 30
0.0
 10
7.2962831672
 20
8.9592166688
 30
0.0
 10
7.3029198967
 20
8.9605353311
 30
0.0
 10
7.3095133827
 20
8.9608920715
 30
0.0
 10
7.3159385337
 20
8.9602185564
 30
0.0
 10
7.3220339918
 20
8.9584563735
 30
0.0
 10
7.3276350456
 20
8.9556514796
 30
0.0
 10
7.3325523345
 20
8.951852692
 30
0.0
 10
7.3366351725
 20
8.947184589
 30
0.0
 10
7.3397274107
 20
8.941769555
 30
0.0
 10
7.3417977063
 20
8.9358036636
 30
0.0
 10
7.3428386591
 20
8.9294558056
 30
0.0
 10
7.3428370369
 20
8.9251197114
 30
0.0
 10
7.342665579
 20
8.922945595
 30
0.0
  0
LINE
  5
27A
100
AcDbEntity
  8
0
100
AcDbLine
 62
9
  6
CONTINUOUS
 10
7.3426671998
 20
8.9229451018
 11
6.5284639402
 21
8.1844719846
  0
SPLINE
  5
27B
100
AcDbEntity
  8
0
100
AcDbSpline
 62
9
  6
CONTINUOUS
 70
0
 71
3
 72
15
 73
11
 74
0
 42
0.0000001
 43
0.0000001
 44
0.0000000001
 40
0.0
 40
0.0
 40
0.0
 40
0.0
 40
0.0725262357
 40
0.1139356511
 40
0.1591665507
 40
0.2614863979
 40
0.3798041648
 40
0.5137805082
 40
0.6627448209
 40
1.0
 40
1.0
 40
1.0
 40
1.0
 10
6.4742098727
 20
8.1892123959
 30
0.0
 10
6.4748176719
 20
8.189212354
 30
0.0
 10
6.4757738968
 20
8.189407764
 30
0.0
 10
6.4770083548
 20
8.189913311
 30
0.0
 10
6.4784038106
 20
8.1906689372
 30
0.0
 10
6.4802053384
 20
8.1919963477
 30
0.0
 10
6.4823535288
 20
8.1940584036
 30
0.0
 10
6.484524599
 20
8.1966337133
 30
0.0
 10
6.4875106243
 20
8.2008931394
 30
0.0
 10
6.4894159786
 20
8.2045236874
 30
0.0
 10
6.4905296447
 20
8.2071213625
 30
0.0
  0
SPLINE
  5
27C
100
AcDbEntity
  8
0
100
AcDbSpline
 62
9
  6
CONTINUOUS
 70
0
 71
3
 72
15
 73
11
 74
0
 42
0.0000001
 43
0.0000001
 44
0.0000000001
 40
0.0
 40
0.0
 40
0.0
 40
0.0
 40
0.1430102002
 40
0.2858808168
 40
0.4251870085
 40
0.558457457
 40
0.6838131965
 40
0.7997476735
 40
0.9052173814
 40
1.0
 40
1.0
 40
1.0
 40
1.0
 10
6.4905296448
 20
8.2071215727
 30
0.0
 10
6.492674172
 20
8.2067389772
 30
0.0
 10
6.4969302074
 20
8.2057903127
 30
0.0
 10
6.503125232
 20
8.2038790941
 30
0.0
 10
6.5090060693
 20
8.2015206012
 30
0.0
 10
6.5144064929
 20
8.1987443652
 30
0.0
 10
6.5191688495
 20
8.1955786779
 30
0.0
 10
6.5231804629
 20
8.192116678
 30
0.0
 10
6.5263312896
 20
8.1884490718
 30
0.0
 10
6.5278865772
 20
8.185795591
 30
0.0
 10
6.5284632297
 20
8.1844719844
 30
0.0
  0
SPLINE
  5
27D
100
AcDbEntity
  8
0
100
AcDbSpline
 62
9
  6
CONTINUOUS
 70
0
 71
3
 72
16
 73
12
 74
0
 42
0.0000001
 43
0.0000001
 44
0.0000000001
 40
0.0
 40
0.0
 40
0.0
 40
0.0
 40
0.1174221751
 40
0.2415150564
 40
0.3707122077
 40
0.5021546317
 40
0.6332167099
 40
0.6979374334
 40
0.7615450272
 40
0.8841783942
 40
1.0
 40
1.0
 40
1.0
 40
1.0
 10
6.5136551847
 20
8.1492123959
 30
0.0
 10
6.513655185
 20
8.1516508909
 30
0.0
 10
6.5131952212
 20
8.1566765949
 30
0.0
 10
6.5110941606
 20
8.1641315101
 30
0.0
 10
6.5074112137
 20
8.1712816989
 30
0.0
 10
6.502317593
 20
8.1776960134
 30
0.0
 10
6.49701487
 20
8.1820322874
 30
0.0
 10
6.4923759876
 20
8.1847841295
 30
0.0
 10
6.4876428022
 20
8.1869858217
 30
0.0
 10
6.4815769728
 20
8.1887449942
 30
0.0
 10
6.476615129
 20
8.1892123982
 30
0.0
 10
6.4742098729
 20
8.1892123982
 30
0.0
  0
SPLINE
  5
27E
100
AcDbEntity
  8
0
100
AcDbSpline
 62
9
  6
CONTINUOUS
 70
0
 71
3
 72
19
 73
15
 74
0
 42
0.0000001
 43
0.0000001
 44
0.0000000001
 40
0.0
 40
0.0
 40
0.0
 40
0.0
 40
0.0207559831
 40
0.0454600084
 40
0.0756022388
 40
0.1118969837
 40
0.1546136616
 40
0.2037479336
 40
0.2591807572
 40
0.3207334049
 40
0.4612313319
 40
0.6230623365
 40
0.803664902
 40
1.0
 40
1.0
 40
1.0
 40
1.0
 10
6.5136551893
 20
8.1492123959
 30
0.0
 10
6.5139268766
 20
8.1492123358
 30
0.0
 10
6.5145231338
 20
8.1493473634
 30
0.0
 10
6.5153805733
 20
8.1498595549
 30
0.0
 10
6.5162665135
 20
8.1506664759
 30
0.0
 10
6.5171831286
 20
8.1517663876
 30
0.0
 10
6.5181288043
 20
8.1531540384
 30
0.0
 10
6.5190978265
 20
8.1548221484
 30
0.0
 10
6.5200833378
 20
8.1567614673
 30
0.0
 10
6.5214712771
 20
8.1598337911
 30
0.0
 10
6.5231736991
 20
8.1642865411
 30
0.0
 10
6.5250911801
 20
8.1703127529
 30
0.0
 10
6.5269023319
 20
8.1771309884
 30
0.0
 10
6.5279622932
 20
8.1819514741
 30
0.0
 10
6.5284639402
 20
8.1844719846
 30
0.0
  0
SPLINE
  5
27F
100
AcDbEntity
  8
0
100
AcDbSpline
 62
9
  6
CONTINUOUS
 70
0
 71
3
 72
12
 73
8
 74
0
 42
0.0000001
 43
0.0000001
 44
0.0000000001
 40
0.0
 40
0.0
 40
0.0
 40
0.0
 40
0.2605095947
 40
0.3899328233
 40
0.5179557344
 40
0.7667583911
 40
1.0
 40
1.0
 40
1.0
 40
1.0
 10
6.5051984944
 20
8.2292123959
 30
0.0
 10
6.5035467483
 20
8.2275869798
 30
0.0
 10
6.5012008728
 20
8.2250193798
 30
0.0
 10
6.4983922022
 20
8.2213644116
 30
0.0
 10
6.4958619092
 20
8.2176362774
 30
0.0
 10
6.4931714935
 20
8.2129126781
 30
0.0
 10
6.4913619478
 20
8.2090219221
 30
0.0
 10
6.4905296447
 20
8.2071213625
 30
0.0
  0
SPLINE
  5
280
100
AcDbEntity
  8
0
100
AcDbSpline
 62
9
  6
CONTINUOUS
 70
0
 71
3
 72
23
 73
19
 74
0
 42
0.0000001
 43
0.0000001
 44
0.0000000001
 40
0.0
 40
0.0
 40
0.0
 40
0.0
 40
0.0624961115
 40
0.1249886249
 40
0.187480739
 40
0.2499704876
 40
0.31245823
 40
0.3749463081
 40
0.4374361855
 40
0.4999286906
 40
0.5624245118
 40
0.6249249468
 40
0.6874293092
 40
0.7499375641
 40
0.8124501297
 40
0.8749636488
 40
0.9374836859
 40
1.0
 40
1.0
 40
1.0
 40
1.0
 10
7.3803379507
 20
8.9229567445
 30
0.0
 10
7.3803372868
 20
8.9269988141
 30
0.0
 10
7.3797373661
 20
8.9350965553
 30
0.0
 10
7.376987627
 20
8.9469553559
 30
0.0
 10
7.372384687
 20
8.9582314347
 30
0.0
 10
7.3659945712
 20
8.9686014716
 30
0.0
 10
7.3579690773
 20
8.9777659627
 30
0.0
 10
7.3485231992
 20
8.9854583584
 30
0.0
 10
7.3379318939
 20
8.9914741207
 30
0.0
 10
7.3265048249
 20
8.9956849148
 30
0.0
 10
7.3145586492
 20
8.99803686
 30
0.0
 10
7.3023970241
 20
8.998542453
 30
0.0
 10
7.2902941494
 20
8.9972784364
 30
0.0
 10
7.2784854785
 20
8.9943531642
 30
0.0
 10
7.2671656286
 20
8.9899055824
 30
0.0
 10
7.2564885822
 20
8.9840857349
 30
0.0
 10
7.2465793463
 20
8.9770444584
 30
0.0
 10
7.2405439182
 20
8.9716325555
 30
0.0
 10
7.2376848402
 20
8.9687734359
 30
0.0
  0
SPLINE
  5
281
100
AcDbEntity
  8
0
100
AcDbSpline
 62
9
  6
CONTINUOUS
 70
0
 71
3
 72
9
 73
5
 74
0
 42
0.0000001
 43
0.0000001
 44
0.0000000001
 40
0.0
 40
0.0
 40
0.0
 40
0.0
 40
0.5000273854
 40
1.0
 40
1.0
 40
1.0
 40
1.0
 10
6.5245630219
 20
8.2556516175
 30
0.0
 10
6.5206885598
 20
8.2517775016
 30
0.0
 10
6.5134997931
 20
8.2434464905
 30
0.0
 10
6.5076913127
 20
8.2340908703
 30
0.0
 10
6.5051984944
 20
8.2292123959
 30
0.0
  0
SPLINE
  5
282
100
AcDbEntity
  8
0
100
AcDbSpline
 62
9
  6
CONTINUOUS
 70
0
 71
3
 72
18
 73
14
 74
0
 42
0.0000001
 43
0.0000001
 44
0.0000000001
 40
0.0
 40
0.0
 40
0.0
 40
0.0
 40
0.0298808456
 40
0.0642694763
 40
0.1039383716
 40
0.149178507
 40
0.1999729867
 40
0.2559952972
 40
0.3818924956
 40
0.5232115568
 40
0.6758404656
 40
0.8360410017
 40
1.0
 40
1.0
 40
1.0
 40
1.0
 10
7.4011742988
 20
8.1892123878
 30
0.0
 10
7.4006979352
 20
8.1892123654
 30
0.0
 10
7.399672079
 20
8.1893768401
 30
0.0
 10
7.39812798
 20
8.1900015837
 30
0.0
 10
7.3964993182
 20
8.1909965981
 30
0.0
 10
7.3948059377
 20
8.1923498896
 30
0.0
 10
7.3930701852
 20
8.1940469493
 30
0.0
 10
7.39064314
 20
8.1968574829
 30
0.0
 10
7.3877332685
 20
8.2011328345
 30
0.0
 10
7.384704326
 20
8.207120155
 30
0.0
 10
7.3822732104
 20
8.2139629009
 30
0.0
 10
7.3807138426
 20
8.2214245281
 30
0.0
 10
7.3803403235
 20
8.2265985437
 30
0.0
 10
7.3803406741
 20
8.2292123955
 30
0.0
  0
SPLINE
  5
283
100
AcDbEntity
  8
0
100
AcDbSpline
 62
9
  6
CONTINUOUS
 70
0
 71
3
 72
16
 73
12
 74
0
 42
0.0000001
 43
0.0000001
 44
0.0000000001
 40
0.0
 40
0.0
 40
0.0
 40
0.0
 40
0.1158214011
 40
0.2384546034
 40
0.3020621353
 40
0.3667828118
 40
0.4978448461
 40
0.6292873042
 40
0.7584845585
 40
0.8825776081
 40
1.0
 40
1.0
 40
1.0
 40
1.0
 10
7.4011748122
 20
8.1892123878
 30
0.0
 10
7.39876956
 20
8.1892123881
 30
0.0
 10
7.3938077232
 20
8.1887449866
 30
0.0
 10
7.3877419004
 20
8.1869858209
 30
0.0
 10
7.3830087172
 20
8.1847841357
 30
0.0
 10
7.3783698337
 20
8.1820323003
 30
0.0
 10
7.3730671053
 20
8.1776960333
 30
0.0
 10
7.3679734741
 20
8.1712817232
 30
0.0
 10
7.3642905146
 20
8.1641315323
 30
0.0
 10
7.3621894435
 20
8.1566766083
 30
0.0
 10
7.3617294752
 20
8.1516508958
 30
0.0
 10
7.3617294742
 20
8.1492123959
 30
0.0
  0
SPLINE
  5
284
100
AcDbEntity
  8
0
100
AcDbSpline
 62
9
  6
CONTINUOUS
 70
0
 71
3
 72
25
 73
21
 74
0
 42
0.0000001
 43
0.0000001
 44
0.0000000001
 40
0.0
 40
0.0
 40
0.0
 40
0.0
 40
0.0078037021
 40
0.0167159299
 40
0.0271857011
 40
0.0394666931
 40
0.05369345
 40
0.0699176862
 40
0.0881379478
 40
0.1083285599
 40
0.1544421106
 40
0.2078014922
 40
0.2678108896
 40
0.3338415771
 40
0.405254782
 40
0.4813964011
 40
0.5615810299
 40
0.6451306096
 40
0.8198269102
 40
1.0
 40
1.0
 40
1.0
 40
1.0
 10
7.3617294961
 20
8.1492123959
 30
0.0
 10
7.3615102822
 20
8.1492123883
 30
0.0
 10
7.3610392953
 20
8.1492975218
 30
0.0
 10
7.360347673
 20
8.1496357354
 30
0.0
 10
7.3596359862
 20
8.1501759083
 30
0.0
 10
7.3589026197
 20
8.1509148895
 30
0.0
 10
7.358147929
 20
8.1518503762
 30
0.0
 10
7.3573743021
 20
8.1529789509
 30
0.0
 10
7.3565847941
 20
8.1542959519
 30
0.0
 10
7.3554658982
 20
8.156391033
 30
0.0
 10
7.3540720495
 20
8.1594534309
 30
0.0
 10
7.3524609
 20
8.1636356579
 30
0.0
 10
7.3508772459
 20
8.1684216913
 30
0.0
 10
7.349353314
 20
8.1737563351
 30
0.0
 10
7.3479219776
 20
8.1795842957
 30
0.0
 10
7.3466143254
 20
8.1858478976
 30
0.0
 10
7.3454546608
 20
8.1924869457
 30
0.0
 10
7.3441193962
 20
8.2019009828
 30
0.0
 10
7.3429752462
 20
8.2141718535
 30
0.0
 10
7.3426666608
 20
8.2241431408
 30
0.0
 10
7.3426671998
 20
8.2292043869
 30
0.0
  0
SPLINE
  5
285
100
AcDbEntity
  8
0
100
AcDbSpline
 62
9
  6
CONTINUOUS
 70
0
 71
3
 72
11
 73
7
 74
0
 42
0.0000001
 43
0.0000001
 44
0.0000000001
 40
0.0
 40
0.0
 40
0.0
 40
0.0
 40
0.2805592676
 40
0.5424892715
 40
0.7826761715
 40
1.0
 40
1.0
 40
1.0
 40
1.0
 10
15.3350929619
 20
8.211274473
 30
0.0
 10
15.3364723115
 20
8.208903699
 30
0.0
 10
15.3389299838
 20
8.2041964458
 30
0.0
 10
15.3420392568
 20
8.1972020718
 30
0.0
 10
15.3446299256
 20
8.190661761
 30
0.0
 10
15.346186051
 20
8.1864683484
 30
0.0
 10
15.3469218849
 20
8.1844752099
 30
0.0
  0
LINE
  5
286
100
AcDbEntity
  8
0
100
AcDbLine
 62
9
  6
CONTINUOUS
 10
15.3469225055
 20
8.1844752098
 11
14.5327174803
 21
8.9229453842
  0
SPLINE
  5
287
100
AcDbEntity
  8
0
100
AcDbSpline
 62
9
  6
CONTINUOUS
 70
0
 71
3
 72
22
 73
18
 74
0
 42
0.0000001
 43
0.0000001
 44
0.0000000001
 40
0.0
 40
0.0
 40
0.0
 40
0.0
 40
0.0617405088
 40
0.1221382751
 40
0.181305388
 40
0.2395793296
 40
0.2975709952
 40
0.3557324939
 40
0.4143967874
 40
0.4738672891
 40
0.5343963723
 40
0.5964216275
 40
0.6601121723
 40
0.7253565268
 40
0.8598329234
 40
0.9293091579
 40
1.0
 40
1.0
 40
1.0
 40
1.0
 10
14.5327189478
 20
8.9229458709
 30
0.0
 10
14.5325474257
 20
8.9251199453
 30
0.0
 10
14.5325457217
 20
8.9294559665
 30
0.0
 10
14.5335866641
 20
8.9358037241
 30
0.0
 10
14.5356569976
 20
8.9417695274
 30
0.0
 10
14.5387492465
 20
8.9471845306
 30
0.0
 10
14.5428320317
 20
8.9518527307
 30
0.0
 10
14.5477493315
 20
8.9556516726
 30
0.0
 10
14.5533504658
 20
8.9584566595
 30
0.0
 10
14.5594459474
 20
8.9602189028
 30
0.0
 10
14.5658710114
 20
8.9608924019
 30
0.0
 10
14.5724642967
 20
8.9605355748
 30
0.0
 10
14.579100801
 20
8.9592168328
 30
0.0
 10
14.5879359208
 20
8.9562300692
 30
0.0
 10
14.5963118581
 20
8.9515361249
 30
0.0
 10
14.6040045358
 20
8.945615186
 30
0.0
 10
14.6076509808
 20
8.9422539729
 30
0.0
 10
14.6094165526
 20
8.9404882842
 30
0.0
  0
SPLINE
  5
288
100
AcDbEntity
  8
0
100
AcDbSpline
 62
9
  6
CONTINUOUS
 70
0
 71
3
 72
9
 73
5
 74
0
 42
0.0000001
 43
0.0000001
 44
0.0000000001
 40
0.0
 40
0.0
 40
0.0
 40
0.0
 40
0.254936026
 40
1.0
 40
1.0
 40
1.0
 40
1.0
 10
15.3225367963
 20
8.227367801
 30
0.0
 10
15.3237652162
 20
8.2261394593
 30
0.0
 10
15.3284445598
 20
8.2211865012
 30
0.0
 10
15.3325413025
 20
8.2156637911
 30
0.0
 10
15.3350928597
 20
8.2112745012
 30
0.0
  0
SPLINE
  5
289
100
AcDbEntity
  8
0
100
AcDbSpline
 62
9
  6
CONTINUOUS
 70
0
 71
3
 72
27
 73
23
 74
0
 42
0.0000001
 43
0.0000001
 44
0.0000000001
 40
0.0
 40
0.0
 40
0.0
 40
0.0
 40
0.06248848
 40
0.125087594
 40
0.1563866342
 40
0.187665154
 40
0.218929663
 40
0.2501936038
 40
0.2814625182
 40
0.3127328165
 40
0.3440036236
 40
0.3752798949
 40
0.4377962405
 40
0.5003332509
 40
0.5628644356
 40
0.5941290899
 40
0.6253897598
 40
0.6878559736
 40
0.75031773
 40
0.8127695468
 40
0.8752564321
 40
1.0
 40
1.0
 40
1.0
 40
1.0
 10
14.4950466738
 20
8.9229070036
 30
0.0
 10
14.4950453185
 20
8.926949839
 30
0.0
 10
14.4956477473
 20
8.9350550186
 30
0.0
 10
14.497930922
 20
8.944956692
 30
0.0
 10
14.5006924814
 20
8.9525781773
 30
0.0
 10
14.5032185801
 20
8.9581066109
 30
0.0
 10
14.506187284
 20
8.9634079094
 30
0.0
 10
14.5095873826
 20
8.9684429435
 30
0.0
 10
14.5133961388
 20
8.9731767985
 30
0.0
 10
14.5175861476
 20
8.9775773683
 30
0.0
 10
14.522132892
 20
8.9816098292
 30
0.0
 10
14.5286218116
 20
8.9864561015
 30
0.0
 10
14.5374578796
 20
8.9914814761
 30
0.0
 10
14.5488965234
 20
8.9956853414
 30
0.0
 10
14.558863349
 20
8.997650495
 30
0.0
 10
14.56693536
 20
8.9982904886
 30
0.0
 10
14.5750283741
 20
8.9983296956
 30
0.0
 10
14.5851154606
 20
8.9972723265
 30
0.0
 10
14.5969169516
 20
8.9943483922
 30
0.0
 10
14.6082333597
 20
8.9898985863
 30
0.0
 10
14.6224412792
 20
8.9821510427
 30
0.0
 10
14.6319935716
 20
8.9744801506
 30
0.0
 10
14.6377001069
 20
8.9687731743
 30
0.0
  0
LINE
  5
28A
100
AcDbEntity
  8
0
100
AcDbLine
 62
9
  6
CONTINUOUS
 10
14.5327174803
 20
8.9229467614
 11
14.4950457568
 21
8.9229070031
  0
SPLINE
  5
28B
100
AcDbEntity
  8
0
100
AcDbSpline
 62
9
  6
CONTINUOUS
 70
0
 71
3
 72
16
 73
12
 74
0
 42
0.0000001
 43
0.0000001
 44
0.0000000001
 40
0.0
 40
0.0
 40
0.0
 40
0.0
 40
0.1174224298
 40
0.2415155145
 40
0.3707127954
 40
0.5021552661
 40
0.6332172951
 40
0.6979379627
 40
0.7615454815
 40
0.8841786464
 40
1.0
 40
1.0
 40
1.0
 40
1.0
 10
14.5136551832
 20
8.1492123959
 30
0.0
 10
14.5136551836
 20
8.1516508962
 30
0.0
 10
14.5131952179
 20
8.1566766097
 30
0.0
 10
14.5110941504
 20
8.1641315358
 30
0.0
 10
14.5074111941
 20
8.1712817288
 30
0.0
 10
14.502317566
 20
8.1776960408
 30
0.0
 10
14.49701484
 20
8.1820323091
 30
0.0
 10
14.4923759584
 20
8.1847841452
 30
0.0
 10
14.4876427776
 20
8.1869858308
 30
0.0
 10
14.4815769581
 20
8.188744997
 30
0.0
 10
14.4766151238
 20
8.1892123989
 30
0.0
 10
14.4742098729
 20
8.1892123989
 30
0.0
  0
SPLINE
  5
28C
100
AcDbEntity
  8
0
100
AcDbSpline
 62
9
  6
CONTINUOUS
 70
0
 71
3
 72
18
 73
14
 74
0
 42
0.0000001
 43
0.0000001
 44
0.0000000001
 40
0.0
 40
0.0
 40
0.0
 40
0.0
 40
0.1638950194
 40
0.3240336354
 40
0.4766399793
 40
0.617969551
 40
0.7438977975
 40
0.799940128
 40
0.8507560041
 40
0.8960176016
 40
0.935705834
 40
0.9701095273
 40
1.0
 40
1.0
 40
1.0
 40
1.0
 10
14.4950441591
 20
8.2292123954
 30
0.0
 10
14.4950446514
 20
8.2265995589
 30
0.0
 10
14.4946715175
 20
8.2214275106
 30
0.0
 10
14.4931125937
 20
8.2139682081
 30
0.0
 10
14.4906823876
 20
8.2071264154
 30
0.0
 10
14.4876541869
 20
8.201138374
 30
0.0
 10
14.484744359
 20
8.1968617871
 30
0.0
 10
14.4823169662
 20
8.1940500179
 30
0.0
 10
14.4805807407
 20
8.1923519992
 30
0.0
 10
14.4788867739
 20
8.1909978442
 30
0.0
 10
14.4772574886
 20
8.1900021281
 30
0.0
 10
14.475712814
 20
8.1893769154
 30
0.0
 10
14.4746865503
 20
8.1892123289
 30
0.0
 10
14.4742100324
 20
8.1892123989
 30
0.0
  0
SPLINE
  5
28D
100
AcDbEntity
  8
0
100
AcDbSpline
 62
9
  6
CONTINUOUS
 70
0
 71
3
 72
19
 73
15
 74
0
 42
0.0000001
 43
0.0000001
 44
0.0000000001
 40
0.0
 40
0.0
 40
0.0
 40
0.0
 40
0.1963734376
 40
0.3770478812
 40
0.5388532334
 40
0.6792774719
 40
0.7408163791
 40
0.7962526051
 40
0.8453972576
 40
0.8881220223
 40
0.9244155377
 40
0.9545498609
 40
0.9792470086
 40
1.0
 40
1.0
 40
1.0
 40
1.0
 10
15.3469225055
 20
8.1844752098
 30
0.0
 10
15.3474246192
 20
8.1819540907
 30
0.0
 10
15.3484843148
 20
8.1771317444
 30
0.0
 10
15.3502931196
 20
8.1703112024
 30
0.0
 10
15.3522105588
 20
8.1642848049
 30
0.0
 10
15.3539142573
 20
8.159833764
 30
0.0
 10
15.3553021422
 20
8.15676237
 30
0.0
 10
15.3562874486
 20
8.1548227773
 30
0.0
 10
15.3572561915
 20
8.1531540188
 30
0.0
 10
15.358201566
 20
8.1517657394
 30
0.0
 10
15.3591180847
 20
8.1506656076
 30
0.0
 10
15.3600041167
 20
8.1498589384
 30
0.0
 10
15.360861667
 20
8.1493472216
 30
0.0
 10
15.3614578283
 20
8.1492123878
 30
0.0
 10
15.3617294961
 20
8.1492123959
 30
0.0
  0
SPLINE
  5
28E
100
AcDbEntity
  8
0
100
AcDbSpline
 62
9
  6
CONTINUOUS
 70
0
 71
3
 72
25
 73
21
 74
0
 42
0.0000001
 43
0.0000001
 44
0.0000000001
 40
0.0
 40
0.0
 40
0.0
 40
0.0
 40
0.0077992028
 40
0.0167083221
 40
0.0271754143
 40
0.0394525627
 40
0.0536734073
 40
0.0698958857
 40
0.0881178244
 40
0.1083099743
 40
0.1544131667
 40
0.207761043
 40
0.2677749337
 40
0.3338284475
 40
0.4052673584
 40
0.4814122612
 40
0.5615854308
 40
0.6451436659
 40
0.8199034917
 40
1.0
 40
1.0
 40
1.0
 40
1.0
 10
14.5136551893
 20
8.1492123959
 30
0.0
 10
14.5138742776
 20
8.1492123454
 30
0.0
 10
14.5143450626
 20
8.1492974898
 30
0.0
 10
14.5150363449
 20
8.1496357319
 30
0.0
 10
14.5157477445
 20
8.1501758289
 30
0.0
 10
14.5164808619
 20
8.1509145591
 30
0.0
 10
14.5172354828
 20
8.1518496913
 30
0.0
 10
14.5180089979
 20
8.1529781482
 30
0.0
 10
14.5187985491
 20
8.1542951734
 30
0.0
 10
14.5199175369
 20
8.1563899808
 30
0.0
 10
14.5213121094
 20
8.1594514192
 30
0.0
 10
14.5229239595
 20
8.1636328878
 30
0.0
 10
14.5245077581
 20
8.1684193771
 30
0.0
 10
14.5260306363
 20
8.1737559038
 30
0.0
 10
14.5274611842
 20
8.1795855396
 30
0.0
 10
14.5287711293
 20
8.1858491787
 30
0.0
 10
14.529930583
 20
8.1924883232
 30
0.0
 10
14.5312650388
 20
8.201904243
 30
0.0
 10
14.5324064092
 20
8.2141751941
 30
0.0
 10
14.5327183163
 20
8.2241460287
 30
0.0
 10
14.5327174803
 20
8.229205139
 30
0.0
  0
SPLINE
  5
28F
100
AcDbEntity
  8
0
100
AcDbSpline
 62
9
  6
CONTINUOUS
 70
0
 71
3
 72
16
 73
12
 74
0
 42
0.0000001
 43
0.0000001
 44
0.0000000001
 40
0.0
 40
0.0
 40
0.0
 40
0.0
 40
0.115821635
 40
0.2384550249
 40
0.3020626265
 40
0.3667833552
 40
0.4978454355
 40
0.6292878506
 40
0.7584849848
 40
0.8825778453
 40
1.0
 40
1.0
 40
1.0
 40
1.0
 10
15.4011748122
 20
8.1892123877
 30
0.0
 10
15.3987695551
 20
8.189212388
 30
0.0
 10
15.3938077095
 20
8.1887449846
 30
0.0
 10
15.3877418776
 20
8.186985813
 30
0.0
 10
15.3830086901
 20
8.1847841216
 30
0.0
 10
15.3783698058
 20
8.1820322806
 30
0.0
 10
15.3730670802
 20
8.1776960082
 30
0.0
 10
15.3679734561
 20
8.1712816956
 30
0.0
 10
15.3642905055
 20
8.1641315084
 30
0.0
 10
15.3621894411
 20
8.1566765945
 30
0.0
 10
15.3617294746
 20
8.1516508909
 30
0.0
 10
15.3617294736
 20
8.1492123959
 30
0.0
  0
SPLINE
  5
290
100
AcDbEntity
  8
0
100
AcDbSpline
 62
9
  6
CONTINUOUS
 70
0
 71
3
 72
15
 73
11
 74
0
 42
0.0000001
 43
0.0000001
 44
0.0000000001
 40
0.0
 40
0.0
 40
0.0
 40
0.0
 40
0.0948994958
 40
0.200245137
 40
0.3158221556
 40
0.4412319526
 40
0.5750043829
 40
0.7144369831
 40
0.8570334863
 40
1.0
 40
1.0
 40
1.0
 40
1.0
 10
15.3469231538
 20
8.1844752097
 30
0.0
 10
15.3474996906
 20
8.1858036263
 30
0.0
 10
15.3490505545
 20
8.1884657612
 30
0.0
 10
15.3522038537
 20
8.1921376809
 30
0.0
 10
15.3562421
 20
8.195573824
 30
0.0
 10
15.361008647
 20
8.198749834
 30
0.0
 10
15.3663642174
 20
8.2016517487
 30
0.0
 10
15.372230052
 20
8.2041047116
 30
0.0
 10
15.3784706831
 20
8.2059143797
 30
0.0
 10
15.3827635192
 20
8.2067065562
 30
0.0
 10
15.3849252858
 20
8.2070001837
 30
0.0
  0
SPLINE
  5
291
100
AcDbEntity
  8
0
100
AcDbSpline
 62
9
  6
CONTINUOUS
 70
0
 71
3
 72
16
 73
12
 74
0
 42
0.0000001
 43
0.0000001
 44
0.0000000001
 40
0.0
 40
0.0
 40
0.0
 40
0.0
 40
0.0726030271
 40
0.1140171444
 40
0.1592447758
 40
0.2615686734
 40
0.3799024413
 40
0.5138439722
 40
0.6626918919
 40
0.8252246525
 40
1.0
 40
1.0
 40
1.0
 40
1.0
 10
15.4011748127
 20
8.1892123959
 30
0.0
 10
15.400569581
 20
8.1892123865
 30
0.0
 10
15.3996176897
 20
8.1894061842
 30
0.0
 10
15.3983886578
 20
8.1899081587
 30
0.0
 10
15.3969996033
 20
8.1906580502
 30
0.0
 10
15.3952047529
 20
8.1919745824
 30
0.0
 10
15.3930618375
 20
8.1940193276
 30
0.0
 10
15.3908973955
 20
8.1965753521
 30
0.0
 10
15.3887636267
 20
8.1996187466
 30
0.0
 10
15.386720051
 20
8.2031234783
 30
0.0
 10
15.3855031034
 20
8.2056623736
 30
0.0
 10
15.3849252859
 20
8.2069998542
 30
0.0
  0
SPLINE
  5
292
100
AcDbEntity
  8
0
100
AcDbSpline
 62
9
  6
CONTINUOUS
 70
0
 71
3
 72
12
 73
8
 74
0
 42
0.0000001
 43
0.0000001
 44
0.0000000001
 40
0.0
 40
0.0
 40
0.0
 40
0.0
 40
0.2330194769
 40
0.4818188895
 40
0.6098705852
 40
0.7393475196
 40
1.0
 40
1.0
 40
1.0
 40
1.0
 10
15.3849252859
 20
8.2069998542
 30
0.0
 10
15.3840915531
 20
8.2089094946
 30
0.0
 10
15.3822655742
 20
8.2128153268
 30
0.0
 10
15.3795648856
 20
8.2175632257
 30
0.0
 10
15.3770269498
 20
8.2213156174
 30
0.0
 10
15.3742064494
 20
8.2249945553
 30
0.0
 10
15.3718479182
 20
8.2275779323
 30
0.0
 10
15.3701862348
 20
8.2292123959
 30
0.0
  0
SPLINE
  5
293
100
AcDbEntity
  8
0
100
AcDbSpline
 62
9
  6
CONTINUOUS
 70
0
 71
3
 72
9
 73
5
 74
0
 42
0.0000001
 43
0.0000001
 44
0.0000000001
 40
0.0
 40
0.0
 40
0.0
 40
0.0
 40
0.4999726939
 40
1.0
 40
1.0
 40
1.0
 40
1.0
 10
15.3701862348
 20
8.229212396
 30
0.0
 10
15.3676934487
 20
8.2340908241
 30
0.0
 10
15.3618850441
 20
8.2434463601
 30
0.0
 10
15.354696337
 20
8.251777271
 30
0.0
 10
15.3508219252
 20
8.255651356
 30
0.0
  0
ELLIPSE
  5
294
100
AcDbEntity
  8
0
100
AcDbEllipse
 62
7
  6
CONTINUOUS
 10
10.9376923427
 20
12.3732123961
 30
0.0
 11
-0.0
 21
0.4375
 31
0.0
 40
1.0
 41
-1.5707963268
 42
-1.56889895
  0
ELLIPSE
  5
295
100
AcDbEntity
  8
0
100
AcDbEllipse
 62
7
  6
CONTINUOUS
 10
10.9376923427
 20
12.3732123961
 30
0.0
 11
0.4375
 21
0.0
 31
0.0
 40
1.0
 41
6.2850826839
 42
6.3876491399
  0
ELLIPSE
  5
296
100
AcDbEntity
  8
0
100
AcDbEllipse
 62
7
  6
CONTINUOUS
 10
10.9376923427
 20
12.3732123961
 30
0.0
 11
-0.0
 21
0.4375
 31
0.0
 40
1.0
 41
4.8168528131
 42
4.9177625262
  0
ELLIPSE
  5
297
100
AcDbEntity
  8
0
100
AcDbEllipse
 62
7
  6
CONTINUOUS
 10
10.9376923427
 20
12.3732123961
 30
0.0
 11
0.4375
 21
0.0
 31
0.0
 40
1.0
 41
0.2053735458
 42
0.41080241
  0
ELLIPSE
  5
298
100
AcDbEntity
  8
0
100
AcDbEllipse
 62
7
  6
CONTINUOUS
 10
10.9376923427
 20
12.3732123961
 30
0.0
 11
-0.0
 21
0.4375
 31
0.0
 40
1.0
 41
-1.1599939168
 42
-1.1440430229
  0
ELLIPSE
  5
299
100
AcDbEntity
  8
0
100
AcDbEllipse
 62
7
  6
CONTINUOUS
 10
10.9376923427
 20
12.3732123961
 30
0.0
 11
0.4375
 21
-0.0
 31
0.0
 40
1.0
 41
6.7099386111
 42
9.0139106081
  0
ELLIPSE
  5
29A
100
AcDbEntity
  8
0
100
AcDbEllipse
 62
7
  6
CONTINUOUS
 10
10.9376923427
 20
12.3732123961
 30
0.0
 11
-0.0
 21
0.4375
 31
0.0
 40
1.0
 41
1.1599289741
 42
1.365480721
  0
ELLIPSE
  5
29B
100
AcDbEntity
  8
0
100
AcDbEllipse
 62
7
  6
CONTINUOUS
 10
10.9376923427
 20
12.3732123961
 30
0.0
 11
0.4375
 21
0.0
 31
0.0
 40
1.0
 41
9.219462355
 42
9.4138667917
  0
ELLIPSE
  5
29C
100
AcDbEntity
  8
0
100
AcDbEllipse
 62
7
  6
CONTINUOUS
 10
10.9376923427
 20
12.3732123961
 30
0.0
 11
0.0
 21
0.4375
 31
0.0
 40
1.0
 41
1.5598851577
 42
1.5675694312
  0
ELLIPSE
  5
29D
100
AcDbEntity
  8
0
100
AcDbEllipse
 62
7
  6
CONTINUOUS
 10
10.9376923427
 20
12.3732123961
 30
0.0
 11
0.4375
 21
0.0
 31
0.0
 40
1.0
 41
9.4215510652
 42
9.4247779608
  0
ENDSEC
  0
SECTION
  2
OBJECTS
  0
DICTIONARY
  5
C
100
AcDbDictionary
280
0
281
1
  3
ACAD_GROUP
350
D
  3
ACAD_MLINESTYLE
350
17
  3
ACAD_LAYOUT
350
1A
  3
ACAD_PLOTSETTINGS
350
19
  3
ACAD_PLOTSTYLENAME
350
E
  0
DICTIONARY
  5
D
102
{ACAD_REACTORS
330
C
102
}
100
AcDbDictionary
280
0
281
1
  0
ACDBDICTIONARYWDFLT
  5
E
102
{ACAD_REACTORS
330
C
102
}
100
AcDbDictionary
281
1
  3
Normal
350
F
100
AcDbDictionaryWithDefault
340
F
  0
DICTIONARY
  5
17
102
{ACAD_REACTORS
330
C
102
}
100
AcDbDictionary
280
0
281
1
  3
Standard
350
18
  0
DICTIONARY
  5
19
102
{ACAD_REACTORS
330
C
102
}
100
AcDbDictionary
281
1
  0
DICTIONARY
  5
1A
102
{ACAD_REACTORS
330
C
102
}
100
AcDbDictionary
281
1
  3
Model
350
29E
  3
Layout1
350
29F
  0
ACDBPLACEHOLDER
  5
F
102
{ACAD_REACTORS
330
E
102
}
  0
MLINESTYLE
  5
18
102
{ACAD_REACTORS
330
17
102
}
100
AcDbMlineStyle
  2
STANDARD
 70
0
  3

 62
256
 51
90.0
 52
90.0
 71
2
 49
0.5
 62
256
  6
BYLAYER
 49
-0.5
 62
256
  6
BYLAYER
  0
LAYOUT
  5
29E
102
{ACAD_REACTORS
330
1A
102
}
100
AcDbPlotSettings
  1

  2
none_device
  4
ANSI_C_(22.00_x_17.00_Inches)
  6

 40
0.0
 41
0.0
 42
0.0
 43
0.0
 44
558.8
 45
431.8
 46
0.0
 47
0.0
 48
0.0
 49
0.0
140
0.0
141
0.0
142
1.0
143
1.0
 70
1024
 72
0
 73
0
 74
0
  7

 75
0
147
1.0
148
0.0
149
0.0
100
AcDbLayout
  1
Model
 70
0
 71
0
 10
0.0
 20
0.0
 11
22.0
 21
17.0
 12
0.0
 22
0.0
 32
0.0
 14
0.0
 24
0.0
 34
0.0
 15
0.0
 25
0.0
 35
0.0
146
0.0
 13
0.0
 23
0.0
 33
0.0
 16
1.0
 26
0.0
 36
0.0
 17
0.0
 27
1.0
 37
0.0
 76
0
330
202
345
0
346
0
  0
LAYOUT
  5
29F
102
{ACAD_REACTORS
330
1A
102
}
100
AcDbPlotSettings
  1

  2
none_device
  4
ANSI_C_(22.00_x_17.00_Inches)
  6

 40
0.0
 41
0.0
 42
0.0
 43
0.0
 44
558.8
 45
431.8
 46
0.0
 47
0.0
 48
0.0
 49
0.0
140
0.0
141
0.0
142
1.0
143
1.0
 70
0
 72
0
 73
0
 74
0
  7

 75
0
147
1.0
148
0.0
149
0.0
100
AcDbLayout
  1
Layout1
 70
0
 71
1
 10
0.0
 20
0.0
 11
22.0
 21
17.0
 12
0.0
 22
0.0
 32
0.0
 14
0.0
 24
0.0
 34
0.0
 15
0.0
 25
0.0
 35
0.0
146
0.0
 13
0.0
 23
0.0
 33
0.0
 16
1.0
 26
0.0
 36
0.0
 17
0.0
 27
1.0
 37
0.0
 76
0
330
203
345
0
346
0
  0
ENDSEC
  0
EOF
