999
DXF file: E:\BT Custom\CADOUTPUT\_TOP.dxf
999
Pro/ENGINEER 2018400 by Parametric Technology Corporation
  0
SECTION
  2
HEADER
  9
$ACADVER
  1
AC1018
  9
$DWGCODEPAGE
  3
ANSI_1252
  9
$EXTMAX
 10
22.0
 20
17.0
 30
0.0
  9
$EXTMIN
 10
0.0
 20
0.0
 30
0.0
  9
$LIMMIN
 10
0.0
 20
0.0
  9
$LIMMAX
 10
22.0
 20
17.0
  9
$VIEWCTR
 10
11.0
 20
8.5
  9
$VIEWSIZE
 40
17.0
  9
$CLAYER
  8
0
  9
$LTSCALE
 40
1.21
  9
$CELTYPE
  6
BYLAYER
  9
$DIMSCALE
 40
1.0
  9
$DIMASZ
 40
0.1
  9
$DIMEXO
 40
0.0625
  9
$DIMDLI
 40
0.836
  9
$DIMEXE
 40
0.125
  9
$DIMCEN
 40
0.198
  9
$DIMLFAC
 40
1.0
  9
$DIMBLK
  1
_FILLED
  9
$DIMALT
 70
1
  9
$DIMALTD
 70
2
  9
$DIMALTTD
 70
2
  9
$DIMALTF
 40
25.4
  9
$DIMTXT
 40
0.08
  9
$DIMTOL
 70
1
  9
$DIMLIM
 70
0
  9
$DIMTFAC
 40
1.0
  9
$DIMTP
 40
0.001
  9
$DIMTM
 40
0.001
  9
$DIMGAP
 40
0.09
  9
$DIMDSEP
 70
46
  9
$AUNITS
 70
0
  9
$PDMODE
 70
3
  9
$PDSIZE
 40
0.06
  9
$HANDSEED
  5
26D
  9
$TILEMODE
 70
1
  9
$MEASUREMENT
 70
0
  9
$INSUNITS
 70
1
  0
ENDSEC
  0
SECTION
  2
CLASSES
  0
CLASS
  1
ACDBDICTIONARYWDFLT
  2
AcDbDictionaryWithDefault
  3
AutoCAD 2000
 90
0
 91
1
280
0
281
0
  0
CLASS
  1
ACDBPLACEHOLDER
  2
AcDbPlaceHolder
  3
AutoCAD 2000
 90
0
 91
1
280
0
281
0
  0
CLASS
  1
LAYOUT
  2
AcDbLayout
  3
AutoCAD 2000
 90
0
 91
0
280
0
281
0
  0
ENDSEC
  0
SECTION
  2
TABLES
  0
TABLE
  2
VPORT
  5
8
100
AcDbSymbolTable
 70
2
  0
VPORT
  5
1F4
100
AcDbSymbolTableRecord
100
AcDbViewportTableRecord
  2
*ACTIVE
 70
0
 10
0.0
 20
0.0
 11
1.0
 21
1.0
 12
11.0
 22
8.5
 13
0.0
 23
0.0
 14
1.0
 24
1.0
 15
0.0
 25
0.0
 16
0.0
 26
0.0
 36
1.0
 17
0.0
 27
0.0
 37
0.0
 40
17.0
 41
1.2941176471
 42
50.0
 43
0.0
 44
0.0
 50
0.0
 51
0.0
 71
0
 72
100
 73
1
 74
1
 75
0
 76
0
 77
0
 78
0
  0
ENDTAB
  0
TABLE
  2
LTYPE
  5
5
100
AcDbSymbolTable
 70
6
  0
LTYPE
  5
14
100
AcDbSymbolTableRecord
100
AcDbLinetypeTableRecord
  2
BYBLOCK
 70
0
  3

 72
65
 73
0
 40
0.0
  0
LTYPE
  5
15
100
AcDbSymbolTableRecord
100
AcDbLinetypeTableRecord
  2
BYLAYER
 70
0
  3

 72
65
 73
0
 40
0.0
  0
LTYPE
  5
16
100
AcDbSymbolTableRecord
100
AcDbLinetypeTableRecord
  2
CONTINUOUS
 70
64
  3
Solid line
 72
65
 73
0
 40
0.0
  0
LTYPE
  5
1F5
100
AcDbSymbolTableRecord
100
AcDbLinetypeTableRecord
  2
CENTER
 70
64
  3
____ _ ____ _ ____ _ ____ _ ____ _ ____ _ ____
 72
65
 73
4
 40
0.6
 49
0.375
 74
0
 49
-0.075
 74
0
 49
0.075
 74
0
 49
-0.075
 74
0
  0
LTYPE
  5
1F6
100
AcDbSymbolTableRecord
100
AcDbLinetypeTableRecord
  2
HIDDEN
 70
64
  3
- - - - - - - - - - - - - - - - - - - -
 72
65
 73
2
 40
0.2
 49
0.1
 74
0
 49
-0.1
 74
0
  0
LTYPE
  5
1F7
100
AcDbSymbolTableRecord
100
AcDbLinetypeTableRecord
  2
PHANTOM
 70
64
  3
_____ _ _ _____ _ _ _____ _ _ _____
 72
65
 73
6
 40
0.8
 49
0.45
 74
0
 49
-0.05
 74
0
 49
0.1
 74
0
 49
-0.05
 74
0
 49
0.1
 74
0
 49
-0.05
 74
0
  0
LTYPE
  5
1F8
100
AcDbSymbolTableRecord
100
AcDbLinetypeTableRecord
  2
DOT
 70
64
  3
. . . . . . . . . . . . . . . . . . . .
 72
65
 73
2
 40
0.2
 49
0.1
 74
0
 49
-0.1
 74
0
  0
LTYPE
  5
1F9
100
AcDbSymbolTableRecord
100
AcDbLinetypeTableRecord
  2
DASHED
 70
64
  3
- - - - - - - - - - - - - - - - - - - -
 72
65
 73
2
 40
0.2
 49
0.1
 74
0
 49
-0.1
 74
0
  0
ENDTAB
  0
TABLE
  2
LAYER
  5
2
100
AcDbSymbolTable
 70
36
  0
LAYER
  5
10
100
AcDbSymbolTableRecord
100
AcDbLayerTableRecord
  2
0
 70
0
 62
7
  6
CONTINUOUS
370
-3
390
F
  0
LAYER
  5
1FA
100
AcDbSymbolTableRecord
100
AcDbLayerTableRecord
  2
DEFAULT_1
 70
0
 62
7
  6
CENTER
370
-3
390
F
  0
LAYER
  5
1FB
100
AcDbSymbolTableRecord
100
AcDbLayerTableRecord
  2
DEFAULT_2
 70
0
 62
8
  6
HIDDEN
370
-3
390
F
  0
LAYER
  5
1FC
100
AcDbSymbolTableRecord
100
AcDbLayerTableRecord
  2
DEFAULT_3
 70
0
 62
7
  6
PHANTOM
370
-3
390
F
  0
LAYER
  5
1FD
100
AcDbSymbolTableRecord
100
AcDbLayerTableRecord
  2
ALL_FEATURES
 70
0
 62
7
  6
CONTINUOUS
370
-3
390
F
  0
LAYER
  5
1FE
100
AcDbSymbolTableRecord
100
AcDbLayerTableRecord
  2
AXES_FEATURES
 70
0
 62
7
  6
CONTINUOUS
370
-3
390
F
  0
LAYER
  5
1FF
100
AcDbSymbolTableRecord
100
AcDbLayerTableRecord
  2
DEFAULT_COORDINATE_SYSTEM
 70
0
 62
7
  6
CONTINUOUS
370
-3
390
F
  0
LAYER
  5
200
100
AcDbSymbolTableRecord
100
AcDbLayerTableRecord
  2
DEFAULT_DATUM_AXES
 70
0
 62
7
  6
CONTINUOUS
370
-3
390
F
  0
LAYER
  5
201
100
AcDbSymbolTableRecord
100
AcDbLayerTableRecord
  2
DEFAULT_DATUM_PLANES
 70
0
 62
7
  6
CONTINUOUS
370
-3
390
F
  0
LAYER
  5
202
100
AcDbSymbolTableRecord
100
AcDbLayerTableRecord
  2
DIMENSIONS
 70
0
 62
7
  6
CONTINUOUS
370
-3
390
F
  0
ENDTAB
  0
TABLE
  2
STYLE
  5
3
100
AcDbSymbolTable
 70
1
  0
STYLE
  5
11
100
AcDbSymbolTableRecord
100
AcDbTextStyleTableRecord
  2
STANDARD
 70
0
 40
0.0
 41
0.8
 50
0.0
 71
0
 42
0.2
  3
txt
  4

  0
STYLE
  5
203
100
AcDbSymbolTableRecord
100
AcDbTextStyleTableRecord
  2
TEXTSTYLE_1
 70
0
 40
0.0
 41
0.8
 50
0.0
 71
0
 42
0.2
  3
gdt
  4

  0
ENDTAB
  0
TABLE
  2
VIEW
  5
6
100
AcDbSymbolTable
 70
0
  0
ENDTAB
  0
TABLE
  2
UCS
  5
7
100
AcDbSymbolTable
 70
0
  0
ENDTAB
  0
TABLE
  2
APPID
  5
9
100
AcDbSymbolTable
 70
1
  0
APPID
  5
204
100
AcDbSymbolTableRecord
100
AcDbRegAppTableRecord
  2
ACAD
 70
0
  0
ENDTAB
  0
TABLE
  2
BLOCK_RECORD
  5
1
100
AcDbSymbolTable
 70
0
  0
BLOCK_RECORD
  5
205
100
AcDbSymbolTableRecord
100
AcDbBlockTableRecord
  2
*Model_Space
  0
BLOCK_RECORD
  5
206
100
AcDbSymbolTableRecord
100
AcDbBlockTableRecord
  2
*Paper_Space
  0
BLOCK_RECORD
  5
207
100
AcDbSymbolTableRecord
100
AcDbBlockTableRecord
  2
_FILLED
  0
ENDTAB
  0
TABLE
  2
DIMSTYLE
  5
A
100
AcDbSymbolTable
 70
1
100
AcDbDimStyleTable
 71
0
  0
DIMSTYLE
105
208
100
AcDbSymbolTableRecord
100
AcDbDimStyleTableRecord
  2
STANDARD
 70
0
  3

  4

 40
1.0
 41
0.1
 42
0.0625
 43
0.38
 44
0.125
 45
0.0
 46
0.0
 47
0.001
 48
0.001
140
0.08
141
0.09
142
0.0
143
25.4
144
1.0
145
0.0
146
1.0
147
0.09
 71
1.0
 72
0.0
 73
1
 74
1
 75
0
 76
0
 77
0
 78
4
 79
1
170
1
171
2
172
0
173
0
174
0
175
0
176
0
177
0
178
0
270
2
179
3
271
3
272
3
273
2
274
2
275
0
280
0
281
0
282
0
283
1
284
4
285
0
286
0
287
3
288
0
340
11
278
46
341
207
342
207
343
207
344
207
  0
ENDTAB
  0
ENDSEC
  0
SECTION
  2
BLOCKS
  0
BLOCK
  5
20
100
AcDbEntity
  8
0
100
AcDbBlockBegin
  2
*Model_Space
 70
0
 10
0.0
 20
0.0
 30
0.0
  3
*Model_Space
  1

  0
ENDBLK
  5
21
100
AcDbEntity
  8
0
100
AcDbBlockEnd
  0
BLOCK
  5
1C
100
AcDbEntity
  8
0
100
AcDbBlockBegin
  2
*Paper_Space
 70
0
 10
0.0
 20
0.0
 30
0.0
  3
*Paper_Space
  1

  0
ENDBLK
  5
1D
100
AcDbEntity
  8
0
100
AcDbBlockEnd
  0
BLOCK
  5
209
100
AcDbEntity
  8
0
100
AcDbBlockBegin
  2
_FILLED
 70
64
 10
0.0
 20
0.0
  3
_FILLED
  1

  0
SOLID
  5
20A
100
AcDbEntity
  8
0
  6
BYBLOCK
 62
0
100
AcDbTrace
 10
0.0
 20
0.0
 11
-1.0
 21
0.2
 12
-1.0
 22
-0.2
 13
-1.0
 23
-0.2
  0
ENDBLK
  5
20B
100
AcDbEntity
  8
0
  6
BYBLOCK
 62
0
100
AcDbBlockEnd
  0
ENDSEC
  0
SECTION
  2
ENTITIES
  0
LINE
  5
20C
100
AcDbEntity
  8
0
100
AcDbLine
 62
7
  6
CONTINUOUS
 10
9.4853160449
 20
10.6725983154
 11
9.4853159535
 21
4.59760958
  0
LINE
  5
20D
100
AcDbEntity
  8
0
100
AcDbLine
 62
7
  6
CONTINUOUS
 10
10.6248060801
 20
4.59760958
 11
10.6248060243
 21
10.6725271639
  0
LINE
  5
20E
100
AcDbEntity
  8
0
100
AcDbLine
 62
9
  6
CONTINUOUS
 10
12.7071556353
 20
10.4177061521
 11
12.7071556353
 21
10.9268397305
  0
LINE
  5
20F
100
AcDbEntity
  8
0
100
AcDbLine
 62
9
  6
CONTINUOUS
 10
12.7364497154
 20
10.4177061521
 11
12.7364497154
 21
10.9268397305
  0
LWPOLYLINE
  5
210
100
AcDbEntity
  8
0
100
AcDbPolyline
 62
7
  6
CONTINUOUS
 90
59
 70
0
 10
13.1285636094
 20
9.5641155954
 10
13.1401231538
 20
9.5656851366
 10
13.151527962
 20
9.5703156278
 10
13.1613084661
 20
9.5771650111
 10
13.1696533144
 20
9.5856055058
 10
13.1770309492
 20
9.5954916608
 10
13.1838390325
 20
9.6069777986
 10
13.1903333835
 20
9.620321766
 10
13.1966635381
 20
9.6358014157
 10
13.2029218849
 20
9.6537132842
 10
13.2091619343
 20
9.6743612308
 10
13.2154080909
 20
9.6980514068
 10
13.221676766
 20
9.7251313549
 10
13.2280044426
 20
9.7561199558
 10
13.2344144887
 20
9.7916421835
 10
13.2408842516
 20
9.8322551831
 10
13.2472516245
 20
9.8776520346
 10
13.2533306566
 20
9.9269828062
 10
13.2589748204
 20
9.9791139679
 10
13.2641427175
 20
10.033464044
 10
13.2688513255
 20
10.0900035839
 10
13.2731113151
 20
10.148765105
 10
13.2769169853
 20
10.2096907079
 10
13.2802460784
 20
10.27249397
 10
13.2830779819
 20
10.3368501547
 10
13.2854030652
 20
10.402427022
 10
13.2872201747
 20
10.468985688
 10
13.2885260988
 20
10.5363255809
 10
13.2893136821
 20
10.6042472799
 10
13.2895756573
 20
10.672482366
 10
13.2893104563
 20
10.7407164798
 10
13.2885196505
 20
10.8086353283
 10
13.2872105704
 20
10.8759707146
 10
13.2853903776
 20
10.9425229996
 10
13.283062262
 20
11.008091244
 10
13.2802273987
 20
11.072436203
 10
13.2768955153
 20
11.1352263836
 10
13.2730871961
 20
11.1961379212
 10
13.2688245963
 20
11.254885237
 10
13.2641133713
 20
11.3114106343
 10
13.2589429214
 20
11.36574551
 10
13.2532964066
 20
11.4178590867
 10
13.2472156156
 20
11.4671670131
 10
13.2408472368
 20
11.5125372904
 10
13.2343772251
 20
11.5531224643
 10
13.2279672757
 20
11.5886187619
 10
13.2216397139
 20
11.6195842534
 10
13.2153711057
 20
11.646643443
 10
13.2091250161
 20
11.6703146383
 10
13.2028850628
 20
11.6909452832
 10
13.1966266832
 20
11.7088415118
 10
13.1902961784
 20
11.7243071052
 10
13.183800942
 20
11.7376386161
 10
13.1769909573
 20
11.7491140183
 10
13.1696096774
 20
11.7589909851
 10
13.1612585882
 20
11.7674229304
 10
13.1514693829
 20
11.7742620541
 10
13.1400561503
 20
11.7788779168
 10
13.1285650423
 20
11.7804296492
  0
LWPOLYLINE
  5
211
100
AcDbEntity
  8
0
100
AcDbPolyline
 62
7
  6
CONTINUOUS
 90
23
 70
0
 10
10.6248060801
 20
9.7299424372
 10
10.6279873535
 20
9.7302130683
 10
10.6495507472
 20
9.7318915092
 10
10.6748474102
 20
9.7336982541
 10
10.7037798533
 20
9.7356019064
 10
10.7361512632
 20
9.7375739657
 10
10.7718888103
 20
9.7396009357
 10
10.811122809
 20
9.7416836406
 10
10.8540043433
 20
9.7438235989
 10
10.9006094386
 20
9.7460182731
 10
10.9508494812
 20
9.7482575416
 10
11.0045882972
 20
9.750529445
 10
11.061767622
 20
9.7528244114
 10
11.1224078608
 20
9.7551326564
 10
11.1865424645
 20
9.7574400223
 10
11.2541693608
 20
9.7597271492
 10
11.3252038893
 20
9.7619692748
 10
11.3995180873
 20
9.7641344088
 10
11.476947041
 20
9.7661814912
 10
11.5571678611
 20
9.7680557782
 10
11.640235112
 20
9.7696974036
 10
11.7263728665
 20
9.7710275344
 10
11.8159189923
 20
9.771936985
  0
LINE
  5
212
100
AcDbEntity
  8
0
100
AcDbLine
 62
7
  6
CONTINUOUS
 10
13.1285330992
 20
9.5641152664
 11
13.1285636097
 21
9.5641155054
  0
LINE
  5
213
100
AcDbEntity
  8
0
100
AcDbLine
 62
7
  6
CONTINUOUS
 10
11.9160850511
 20
9.7722726227
 11
11.8159189923
 21
9.771936985
  0
LWPOLYLINE
  5
214
100
AcDbEntity
  8
0
100
AcDbPolyline
 62
7
  6
CONTINUOUS
 90
4
 70
0
 10
12.7127950824
 20
10.3883373901
 10
12.8089631889
 20
10.4084230346
 10
12.8971719287
 20
10.4269425109
 10
12.9768587316
 20
10.4437994599
  0
LINE
  5
215
100
AcDbEntity
  8
0
100
AcDbLine
 62
7
  6
CONTINUOUS
 10
12.7127940011
 20
10.3883371658
 11
12.7128120784
 21
10.3883409386
  0
LINE
  5
216
100
AcDbEntity
  8
0
100
AcDbLine
 62
7
  6
CONTINUOUS
 10
12.7128120784
 20
10.3883409386
 11
12.71088455
 21
10.3880031955
  0
LWPOLYLINE
  5
217
100
AcDbEntity
  8
0
100
AcDbPolyline
 62
7
  6
CONTINUOUS
 90
3
 70
0
 10
13.1193649587
 20
9.5649698465
 10
13.1229007897
 20
9.5644205046
 10
13.1285330992
 20
9.5641152664
  0
LWPOLYLINE
  5
218
100
AcDbEntity
  8
0
100
AcDbPolyline
 62
7
  6
CONTINUOUS
 90
4
 70
0
 10
12.1478400393
 20
9.7539752105
 10
12.4338254255
 20
9.6984415445
 10
12.768940968
 20
9.6332510694
 10
13.1193650673
 20
9.5649698161
  0
LINE
  5
219
100
AcDbEntity
  8
0
100
AcDbLine
 62
9
  6
CONTINUOUS
 10
12.7364497154
 20
10.4177061521
 11
12.7071556353
 21
10.4177061521
  0
LWPOLYLINE
  5
21A
100
AcDbEntity
  8
0
100
AcDbPolyline
 62
7
  6
CONTINUOUS
 90
7
 70
0
 10
12.501412207
 20
10.3812957343
 10
12.5334363236
 20
10.378576938
 10
12.566796183
 20
10.3774714379
 10
12.6014467275
 20
10.3779309173
 10
12.6373813245
 20
10.3799177393
 10
12.6746276569
 20
10.3833985453
 10
12.7108862215
 20
10.3880034331
  0
LINE
  5
21B
100
AcDbEntity
  8
0
100
AcDbLine
 62
9
  6
CONTINUOUS
 10
12.2231171371
 20
10.6722726227
 11
11.8673516492
 21
10.6722726227
  0
LINE
  5
21C
100
AcDbEntity
  8
0
100
AcDbLine
 62
9
  6
CONTINUOUS
 10
10.8310941839
 20
10.6722726227
 11
11.7964771806
 21
10.6722726227
  0
LINE
  5
21D
100
AcDbEntity
  8
0
100
AcDbLine
 62
9
  6
CONTINUOUS
 10
12.7071556353
 20
10.9268397305
 11
12.7364497154
 21
10.9268397305
  0
LWPOLYLINE
  5
21E
100
AcDbEntity
  8
0
100
AcDbPolyline
 62
7
  6
CONTINUOUS
 90
41
 70
0
 10
12.7108880526
 20
10.9565421889
 10
12.6744431203
 20
10.961170253
 10
12.6371914637
 20
10.9646478766
 10
12.6012480185
 20
10.9666303497
 10
12.5665880295
 20
10.9670832494
 10
12.5332216193
 20
10.9659685553
 10
12.501194897
 20
10.9632373531
 10
12.4705384164
 20
10.9588060026
 10
12.4413437724
 20
10.9525375327
 10
12.4138376203
 20
10.944276714
 10
12.3883791078
 20
10.9340483463
 10
12.3652642352
 20
10.9221239112
 10
12.3443593515
 20
10.9087741626
 10
12.3252499276
 20
10.8940009838
 10
12.3075929432
 20
10.8776294623
 10
12.2911205916
 20
10.8594112845
 10
12.2759615963
 20
10.8394125824
 10
12.2623884881
 20
10.8178896128
 10
12.250620645
 20
10.7951231065
 10
12.240821764
 20
10.7714060625
 10
12.2331024496
 20
10.7469823551
 10
12.2275415497
 20
10.722096514
 10
12.2241941579
 20
10.6970034365
 10
12.2230978107
 20
10.6718288454
 10
12.2242781291
 20
10.6466493417
 10
12.2276955721
 20
10.6215519681
 10
12.2333261557
 20
10.5966742714
 10
12.2411184277
 20
10.572272698
 10
12.2509820932
 20
10.5486010294
 10
12.2627947865
 20
10.5259115687
 10
12.2763860453
 20
10.5044896413
 10
12.2915301773
 20
10.4846063858
 10
12.3079645398
 20
10.4665154336
 10
12.3255817533
 20
10.450257036
 10
12.3446309418
 20
10.4355659052
 10
12.3654744038
 20
10.4222898212
 10
12.3885716692
 20
10.4104152559
 10
12.414048025
 20
10.4002039116
 10
12.4415492535
 20
10.391961844
 10
12.4707553907
 20
10.3857132297
 10
12.501412207
 20
10.3812957343
  0
LWPOLYLINE
  5
21F
100
AcDbEntity
  8
0
100
AcDbPolyline
 62
7
  6
CONTINUOUS
 90
4
 70
0
 10
13.1193650674
 20
11.7795754292
 10
12.7689408321
 20
11.7112941495
 10
12.4338253613
 20
11.6461036883
 10
12.1478400393
 20
11.5905700348
  0
LINE
  5
220
100
AcDbEntity
  8
0
100
AcDbLine
 62
7
  6
CONTINUOUS
 10
12.7128375882
 20
10.9561995999
 11
12.7108864073
 21
10.9565424237
  0
LWPOLYLINE
  5
221
100
AcDbEntity
  8
0
100
AcDbPolyline
 62
7
  6
CONTINUOUS
 90
3
 70
0
 10
12.9766427079
 20
10.9010435593
 10
12.8970070116
 20
10.9177505246
 10
12.7127901018
 20
10.95620953
  0
LWPOLYLINE
  5
222
100
AcDbEntity
  8
0
100
AcDbPolyline
 62
7
  6
CONTINUOUS
 90
3
 70
0
 10
13.1285335598
 20
11.7804299751
 10
13.1228551194
 20
11.7801194188
 10
13.1193649107
 20
11.77957539
  0
LWPOLYLINE
  5
223
100
AcDbEntity
  8
0
100
AcDbPolyline
 62
7
  6
CONTINUOUS
 90
30
 70
0
 10
11.9160850511
 20
11.5722726227
 10
11.815897086
 20
11.5726084166
 10
11.7263307933
 20
11.573518256
 10
11.640174482
 20
11.574848915
 10
11.5570899751
 20
11.5764911504
 10
11.4768531268
 20
11.578366094
 10
11.399409687
 20
11.5804138472
 10
11.3250828063
 20
11.582579641
 10
11.254037289
 20
11.5848224063
 10
11.1864011259
 20
11.5871101451
 10
11.1222589397
 20
11.5894180892
 10
11.0616128197
 20
11.5917268699
 10
11.004429456
 20
11.5940223239
 10
10.9506886996
 20
11.5962946594
 10
10.9004497425
 20
11.598534261
 10
10.8538495655
 20
11.6007291185
 10
10.8109767496
 20
11.602869088
 10
10.7717531287
 20
11.6049517172
 10
10.7360256875
 20
11.6069786212
 10
10.7036632828
 20
11.608950679
 10
10.6747423484
 20
11.6108541559
 10
10.649461593
 20
11.6126603507
 10
10.6279189221
 20
11.6143377184
 10
10.6100331046
 20
11.6158597132
 10
10.5951138718
 20
11.6172514669
 10
10.5825507637
 20
11.6185408853
 10
10.5725282486
 20
11.6196774727
 10
10.5653399464
 20
11.6205808211
 10
10.5611424081
 20
11.6211652794
 10
10.5601290607
 20
11.6213186738
  0
LINE
  5
224
100
AcDbEntity
  8
0
100
AcDbLine
 62
7
  6
CONTINUOUS
 10
13.1285335595
 20
11.7804298968
 11
13.1285650423
 21
11.7804296492
  0
ARC
  5
225
100
AcDbEntity
  8
0
100
AcDbCircle
 62
9
  6
CONTINUOUS
 10
-1.8753813121
 20
80.6484765156
 40
71.7346974215
100
AcDbArc
 50
281.7529791787
 51
281.9683985836
  0
ARC
  5
226
100
AcDbEntity
  8
0
100
AcDbCircle
 62
7
  6
CONTINUOUS
 10
10.0550610168
 20
10.6722726227
 40
1.25
100
AcDbArc
 50
297.1435522276
 51
312.0974795181
  0
ARC
  5
227
100
AcDbEntity
  8
0
100
AcDbCircle
 62
7
  6
CONTINUOUS
 10
10.0550610168
 20
10.6722726227
 40
1.25
100
AcDbArc
 50
47.9025091185
 51
242.8564477724
  0
ARC
  5
228
100
AcDbEntity
  8
0
100
AcDbCircle
 62
9
  6
CONTINUOUS
 10
10.2381988502
 20
10.4957825826
 40
0.886208016
100
AcDbArc
 50
295.8659041066
 51
300.8226036757
  0
ARC
  5
229
100
AcDbEntity
  8
0
100
AcDbCircle
 62
7
  6
CONTINUOUS
 10
11.9160849999
 20
10.6722717
 40
0.8125009226
100
AcDbArc
 50
82.4844484013
 51
89.9999963841
  0
ARC
  5
22A
100
AcDbEntity
  8
0
100
AcDbCircle
 62
7
  6
CONTINUOUS
 10
11.9160850316
 20
10.6722729857
 40
0.8125003631
100
AcDbArc
 50
270.000001377
 51
277.5159920273
  0
ARC
  5
22B
100
AcDbEntity
  8
0
100
AcDbCircle
 62
7
  6
CONTINUOUS
 10
10.0550660875
 20
4.6067562687
 40
0.570507227
100
AcDbArc
 50
261.7533191219
 51
278.2466808779
  0
ARC
  5
22C
100
AcDbEntity
  8
0
100
AcDbCircle
 62
7
  6
CONTINUOUS
 10
10.0551373563
 20
4.6062026015
 40
0.5699490615
100
AcDbArc
 50
278.3111731493
 51
282.328299509
  0
ARC
  5
22D
100
AcDbEntity
  8
0
100
AcDbCircle
 62
7
  6
CONTINUOUS
 10
10.0549578066
 20
4.6060550303
 40
0.5697991561
100
AcDbArc
 50
257.6711718519
 51
261.6893554922
  0
ARC
  5
22E
100
AcDbEntity
  8
0
100
AcDbCircle
 62
7
  6
CONTINUOUS
 10
10.0548610071
 20
4.6055916006
 40
0.569325745
100
AcDbArc
 50
256.0866990346
 51
257.6707305243
  0
ARC
  5
22F
100
AcDbEntity
  8
0
100
AcDbCircle
 62
9
  6
CONTINUOUS
 10
10.0379723334
 20
4.5848837297
 40
0.554520947
100
AcDbArc
 50
175.4340042977
 51
178.6789020428
  0
ARC
  5
230
100
AcDbEntity
  8
0
100
AcDbCircle
 62
9
  6
CONTINUOUS
 10
10.0721497002
 20
4.5848837297
 40
0.554520947
100
AcDbArc
 50
1.3210979572
 51
4.5659957023
  0
ARC
  5
231
100
AcDbEntity
  8
0
100
AcDbCircle
 62
9
  6
CONTINUOUS
 10
10.0377010675
 20
4.584887087
 40
0.5542496758
100
AcDbArc
 50
178.6786024877
 51
179.9998541075
  0
ARC
  5
232
100
AcDbEntity
  8
0
100
AcDbCircle
 62
9
  6
CONTINUOUS
 10
10.0724209661
 20
4.584887087
 40
0.5542496758
100
AcDbArc
 50
0.0001458924
 51
1.3213975123
  0
SPLINE
  5
233
100
AcDbEntity
  8
0
100
AcDbSpline
 62
7
  6
CONTINUOUS
 70
0
 71
3
 72
37
 73
33
 74
0
 42
0.0000001
 43
0.0000001
 44
0.0000000001
 40
0.0
 40
0.0
 40
0.0
 40
0.0
 40
0.086400444
 40
0.1721146492
 40
0.2564789884
 40
0.2979497208
 40
0.3388336608
 40
0.3790478496
 40
0.4185166589
 40
0.4571695236
 40
0.4949396304
 40
0.5317609931
 40
0.5675689672
 40
0.6023003487
 40
0.6358907602
 40
0.6682801929
 40
0.6994197556
 40
0.7292731554
 40
0.7578132046
 40
0.7850157236
 40
0.8108619602
 40
0.8353400246
 40
0.8584448875
 40
0.8801845916
 40
0.9005867223
 40
0.9197097879
 40
0.9376381732
 40
0.9544787426
 40
0.9703666629
 40
0.9854698014
 40
0.9927934089
 40
1.0
 40
1.0
 40
1.0
 40
1.0
 10
11.8673516492
 20
10.6722726227
 30
0.0
 10
11.8673516492
 20
10.6434187874
 30
0.0
 10
11.8682400726
 20
10.5859362939
 30
0.0
 10
11.8721946451
 20
10.5003627414
 30
0.0
 10
11.8776629788
 20
10.4299133514
 30
0.0
 10
11.8833404239
 20
10.3745248097
 30
0.0
 10
11.8882038196
 20
10.3338801751
 30
0.0
 10
11.8936912383
 20
10.2939898137
 30
0.0
 10
11.8997868516
 20
10.2549416606
 30
0.0
 10
11.9064739746
 20
10.2168187448
 30
0.0
 10
11.9137339177
 20
10.1797010911
 30
0.0
 10
11.9215498148
 20
10.1436678956
 30
0.0
 10
11.9299047164
 20
10.1087983028
 30
0.0
 10
11.9387805637
 20
10.0751721239
 30
0.0
 10
11.9481616968
 20
10.0428701442
 30
0.0
 10
11.9580318264
 20
10.0119706689
 30
0.0
 10
11.9683687698
 20
9.9825433184
 30
0.0
 10
11.9791469403
 20
9.9546480466
 30
0.0
 10
11.9903374801
 20
9.928338047
 30
0.0
 10
12.0019156033
 20
9.9036660169
 30
0.0
 10
12.0138561028
 20
9.8806846507
 30
0.0
 10
12.0261329361
 20
9.8594464383
 30
0.0
 10
12.0387228296
 20
9.8400052544
 30
0.0
 10
12.0516016956
 20
9.8224125295
 30
0.0
 10
12.0647479526
 20
9.806713915
 30
0.0
 10
12.0781318091
 20
9.7929384711
 30
0.0
 10
12.0917226067
 20
9.7811043926
 30
0.0
 10
12.1054969342
 20
9.7712336044
 30
0.0
 10
12.1194276625
 20
9.7633508558
 30
0.0
 10
12.131271626
 20
9.7584104526
 30
0.0
 10
12.1407449328
 20
9.7555272691
 30
0.0
 10
12.145477412
 20
9.7544336266
 30
0.0
 10
12.147840041
 20
9.7539752934
 30
0.0
  0
SPLINE
  5
234
100
AcDbEntity
  8
0
100
AcDbSpline
 62
7
  6
CONTINUOUS
 70
0
 71
3
 72
31
 73
27
 74
0
 42
0.0000001
 43
0.0000001
 44
0.0000000001
 40
0.0
 40
0.0
 40
0.0
 40
0.0
 40
0.0624564743
 40
0.1249464099
 40
0.1874668454
 40
0.2499932327
 40
0.2812586955
 40
0.3125159099
 40
0.3437637852
 40
0.3750032526
 40
0.4062378304
 40
0.4374737106
 40
0.4687161994
 40
0.4999677366
 40
0.5624780436
 40
0.6250056218
 40
0.6875216071
 40
0.7187770276
 40
0.7500231143
 40
0.7812612592
 40
0.7968797543
 40
0.8124980537
 40
0.8437349025
 40
0.8749790492
 40
0.9374761059
 40
1.0
 40
1.0
 40
1.0
 40
1.0
 10
10.0550610168
 20
11.2422726227
 30
0.0
 10
10.0364369124
 20
11.2422726227
 30
0.0
 10
9.9991529964
 20
11.2403803128
 30
0.0
 10
9.9437915006
 20
11.2320387102
 30
0.0
 10
9.8894774624
 20
11.218367366
 30
0.0
 10
9.8455064171
 20
11.2026673306
 30
0.0
 10
9.8113785368
 20
11.1876127967
 30
0.0
 10
9.7863636486
 20
11.1750922103
 30
0.0
 10
9.7619996174
 20
11.1613646897
 30
0.0
 10
9.7383503777
 20
11.1464512514
 30
0.0
 10
9.7154821468
 20
11.1303713881
 30
0.0
 10
9.6934577004
 20
11.1131528926
 30
0.0
 10
9.6723151958
 20
11.0948541033
 30
0.0
 10
9.6453583195
 20
11.069091669
 30
0.0
 10
9.6140591449
 20
11.0344529085
 30
0.0
 10
9.5806878478
 20
10.9894706039
 30
0.0
 10
9.5566089781
 20
10.9494716239
 30
0.0
 10
9.5397580437
 20
10.9162043358
 30
0.0
 10
9.5283616511
 20
10.8906677636
 30
0.0
 10
9.5199339554
 20
10.8689451918
 30
0.0
 10
9.5138547715
 20
10.8513335137
 30
0.0
 10
9.5082242373
 20
10.8335737956
 30
0.0
 10
9.5020284347
 20
10.8111129844
 30
0.0
 10
9.493915422
 20
10.7747261514
 30
0.0
 10
9.487144372
 20
10.7285453181
 30
0.0
 10
9.4853265103
 20
10.6912426296
 30
0.0
 10
9.4853160449
 20
10.672598424
 30
0.0
  0
SPLINE
  5
235
100
AcDbEntity
  8
0
100
AcDbSpline
 62
7
  6
CONTINUOUS
 70
0
 71
3
 72
30
 73
26
 74
0
 42
0.0000001
 43
0.0000001
 44
0.0000000001
 40
0.0
 40
0.0
 40
0.0
 40
0.0
 40
0.0629323195
 40
0.1258797655
 40
0.1888223418
 40
0.2517198914
 40
0.3145301302
 40
0.3459025359
 40
0.3772457206
 40
0.4085619363
 40
0.4398564397
 40
0.4711341915
 40
0.5023975296
 40
0.5648614724
 40
0.6272518353
 40
0.6895449447
 40
0.7206592632
 40
0.7517459715
 40
0.7828078543
 40
0.798332395
 40
0.8138531286
 40
0.8448849963
 40
0.8759129104
 40
0.9379521739
 40
1.0
 40
1.0
 40
1.0
 40
1.0
 10
10.0550610168
 20
4.0362691608
 30
0.0
 10
10.0364308495
 20
4.0362691608
 30
0.0
 10
9.9991408982
 20
4.0381334986
 30
0.0
 10
9.9437674917
 20
4.0463516962
 30
0.0
 10
9.8894385742
 20
4.0598226642
 30
0.0
 10
9.8366774648
 20
4.0783785791
 30
0.0
 10
9.7944123713
 20
4.0979582024
 30
0.0
 10
9.7619117122
 20
4.1159994163
 30
0.0
 10
9.7382567991
 20
4.1306959708
 30
0.0
 10
9.7153841462
 20
4.146541782
 30
0.0
 10
9.6933556856
 20
4.1635097535
 30
0.0
 10
9.6722099472
 20
4.1815421597
 30
0.0
 10
9.6452599051
 20
4.206919887
 30
0.0
 10
9.6139681824
 20
4.241039917
 30
0.0
 10
9.5805952677
 20
4.2853654347
 30
0.0
 10
9.5565106855
 20
4.324793368
 30
0.0
 10
9.5396608377
 20
4.3575844958
 30
0.0
 10
9.5282704957
 20
4.3827473382
 30
0.0
 10
9.5198478593
 20
4.4041544915
 30
0.0
 10
9.5137737938
 20
4.4215099506
 30
0.0
 10
9.5081501542
 20
4.439007131
 30
0.0
 10
9.5019631306
 20
4.4611361919
 30
0.0
 10
9.4938656953
 20
4.496983549
 30
0.0
 10
9.4871147784
 20
4.5424834603
 30
0.0
 10
9.4853159535
 20
4.5792412537
 30
0.0
 10
9.4853159535
 20
4.59760958
 30
0.0
  0
LINE
  5
236
100
AcDbEntity
  8
0
100
AcDbLine
 62
7
  6
CONTINUOUS
 10
9.0503410545
 20
4.0321509516
 11
9.0503414064
 21
4.0329790112
  0
SPLINE
  5
237
100
AcDbEntity
  8
0
100
AcDbSpline
 62
7
  6
CONTINUOUS
 70
0
 71
3
 72
26
 73
22
 74
0
 42
0.0000001
 43
0.0000001
 44
0.0000000001
 40
0.0
 40
0.0
 40
0.0
 40
0.0
 40
0.0622602048
 40
0.0933967618
 40
0.1245348114
 40
0.1868152257
 40
0.2491157779
 40
0.2802790692
 40
0.3114496553
 40
0.3738081305
 40
0.4362037619
 40
0.498641306
 40
0.5611248844
 40
0.623657946
 40
0.6862432096
 40
0.7488826268
 40
0.8115773567
 40
0.8743277501
 40
0.9057272747
 40
0.9371404699
 40
1.0
 40
1.0
 40
1.0
 40
1.0
 10
9.0503414064
 20
4.0329790112
 30
0.0
 10
9.0503583488
 20
4.0529153095
 30
0.0
 10
9.0513018095
 20
4.0828316772
 30
0.0
 10
9.0543910078
 20
4.1225935089
 30
0.0
 10
9.0586984742
 20
4.1622496746
 30
0.0
 10
9.0663614773
 20
4.2115535032
 30
0.0
 10
9.0770322125
 20
4.2603032777
 30
0.0
 10
9.087348055
 20
4.2988617785
 30
0.0
 10
9.0988440695
 20
4.3371042725
 30
0.0
 10
9.1154073254
 20
4.3842413134
 30
0.0
 10
9.1387096975
 20
4.4395064257
 30
0.0
 10
9.1653577106
 20
4.4932841761
 30
0.0
 10
9.1952534356
 20
4.545376852
 30
0.0
 10
9.2282875886
 20
4.5955946843
 30
0.0
 10
9.2643392178
 20
4.6437542598
 30
0.0
 10
9.3032767456
 20
4.6896801361
 30
0.0
 10
9.3449568059
 20
4.7332039698
 30
0.0
 10
9.3818445185
 20
4.7673357723
 30
0.0
 10
9.41256429
 20
4.793283745
 30
0.0
 10
9.444077964
 20
4.8183159651
 30
0.0
 10
9.4685583302
 20
4.8360195208
 30
0.0
 10
9.4852153702
 20
4.847319435
 30
0.0
  0
SPLINE
  5
238
100
AcDbEntity
  8
0
100
AcDbSpline
 62
7
  6
CONTINUOUS
 70
0
 71
3
 72
26
 73
22
 74
0
 42
0.0000001
 43
0.0000001
 44
0.0000000001
 40
0.0
 40
0.0
 40
0.0
 40
0.0
 40
0.0628595294
 40
0.0942727244
 40
0.1256722486
 40
0.1884226414
 40
0.2511173707
 40
0.3137567874
 40
0.3763420506
 40
0.4388751118
 40
0.50135869
 40
0.563796234
 40
0.6261918655
 40
0.688550341
 40
0.7197209273
 40
0.7508842189
 40
0.8131847716
 40
0.8754651866
 40
0.9066032366
 40
0.9377397942
 40
1.0
 40
1.0
 40
1.0
 40
1.0
 10
10.6249072314
 20
4.8473190497
 30
0.0
 10
10.6415642516
 20
4.8360191323
 30
0.0
 10
10.6660445882
 20
4.8183155731
 30
0.0
 10
10.6975582238
 20
4.7932833516
 30
0.0
 10
10.7282779571
 20
4.7673353787
 30
0.0
 10
10.7651656233
 20
4.7332035797
 30
0.0
 10
10.8068456301
 20
4.6896797552
 30
0.0
 10
10.8457831071
 20
4.6437538929
 30
0.0
 10
10.8818346886
 20
4.5955943359
 30
0.0
 10
10.9148687974
 20
4.5453765264
 30
0.0
 10
10.9447644818
 20
4.4932838769
 30
0.0
 10
10.9714124585
 20
4.4395061565
 30
0.0
 10
10.9947147985
 20
4.3842410771
 30
0.0
 10
11.0112780316
 20
4.3371040658
 30
0.0
 10
11.0227740301
 20
4.2988615966
 30
0.0
 10
11.0330898583
 20
4.2603031212
 30
0.0
 10
11.0437605786
 20
4.2115533794
 30
0.0
 10
11.051423571
 20
4.1622495846
 30
0.0
 10
11.0557310314
 20
4.1225934465
 30
0.0
 10
11.0588202255
 20
4.0828316424
 30
0.0
 10
11.0597636848
 20
4.0529152955
 30
0.0
 10
11.0597806273
 20
4.0329790112
 30
0.0
  0
LINE
  5
239
100
AcDbEntity
  8
0
100
AcDbLine
 62
7
  6
CONTINUOUS
 10
11.0597806273
 20
4.0329790112
 11
11.0597809791
 21
4.0321509516
  0
SPLINE
  5
23A
100
AcDbEntity
  8
0
100
AcDbSpline
 62
7
  6
CONTINUOUS
 70
0
 71
3
 72
71
 73
67
 74
0
 42
0.0000001
 43
0.0000001
 44
0.0000000001
 40
0.0
 40
0.0
 40
0.0
 40
0.0
 40
0.0155098717
 40
0.0310215369
 40
0.0465348231
 40
0.0620516242
 40
0.0775727195
 40
0.0930991497
 40
0.1086318814
 40
0.124171793
 40
0.1397197097
 40
0.155276371
 40
0.1708424329
 40
0.1864184618
 40
0.2020049265
 40
0.217602193
 40
0.2332105228
 40
0.2488300722
 40
0.2644608895
 40
0.2801029127
 40
0.2957559715
 40
0.3114197918
 40
0.3270939966
 40
0.3427781087
 40
0.3584715549
 40
0.3741736747
 40
0.389883726
 40
0.4056008907
 40
0.4213242812
 40
0.4370529524
 40
0.4527859102
 40
0.4685221196
 40
0.4842605131
 40
0.5000000032
 40
0.5157394932
 40
0.5314778868
 40
0.547214096
 40
0.5629470537
 40
0.5786757248
 40
0.5943991152
 40
0.6101162796
 40
0.6258263308
 40
0.6415284504
 40
0.6572218963
 40
0.6729060081
 40
0.6885802127
 40
0.7042440326
 40
0.7198970912
 40
0.735539114
 40
0.751169931
 40
0.7667894801
 40
0.7823978096
 40
0.7979950758
 40
0.8135815402
 40
0.8291575688
 40
0.8447236305
 40
0.8602802914
 40
0.8758282079
 40
0.8913681193
 40
0.9069008509
 40
0.9224272809
 40
0.937948376
 40
0.953465177
 40
0.9689784631
 40
0.9844901283
 40
1.0
 40
1.0
 40
1.0
 40
1.0
 10
11.0597809791
 20
4.0321509516
 30
0.0
 10
11.0597809791
 20
4.0159552751
 30
0.0
 10
11.0589734017
 20
3.9835562506
 30
0.0
 10
11.0553429966
 20
3.9350804036
 30
0.0
 10
11.0493015561
 20
3.8868371419
 30
0.0
 10
11.0408644133
 20
3.8389450793
 30
0.0
 10
11.0300514307
 20
3.7915187478
 30
0.0
 10
11.0168889439
 20
3.7446728268
 30
0.0
 10
11.0014088078
 20
3.6985201727
 30
0.0
 10
10.9836484006
 20
3.6531720522
 30
0.0
 10
10.9636505789
 20
3.6087378006
 30
0.0
 10
10.9414636379
 20
3.5653245123
 30
0.0
 10
10.9171412377
 20
3.523036757
 30
0.0
 10
10.8907421093
 20
3.4819763994
 30
0.0
 10
10.8623299401
 20
3.4422423599
 30
0.0
 10
10.8319732608
 20
3.4039303604
 30
0.0
 10
10.7997453981
 20
3.3671325838
 30
0.0
 10
10.7657241103
 20
3.3319375871
 30
0.0
 10
10.7299914329
 20
3.2984300796
 30
0.0
 10
10.6926334739
 20
3.2666907473
 30
0.0
 10
10.6537403515
 20
3.2367958837
 30
0.0
 10
10.6134058308
 20
3.2088173527
 30
0.0
 10
10.5717271004
 20
3.1828224324
 30
0.0
 10
10.5288045339
 20
3.1588736919
 30
0.0
 10
10.4847415501
 20
3.1370286701
 30
0.0
 10
10.4396443015
 20
3.1173398071
 30
0.0
 10
10.3936213809
 20
3.0998544107
 30
0.0
 10
10.3467835752
 20
3.0846145547
 30
0.0
 10
10.2992436449
 20
3.0716568716
 30
0.0
 10
10.2511160518
 20
3.0610124033
 30
0.0
 10
10.2025166332
 20
3.052706707
 30
0.0
 10
10.1535623469
 20
3.0467597718
 30
0.0
 10
10.1043710071
 20
3.043185947
 30
0.0
 10
10.0550610068
 20
3.0419937249
 30
0.0
 10
10.0057510065
 20
3.0431859478
 30
0.0
 10
9.956559667
 20
3.0467597736
 30
0.0
 10
9.9076053811
 20
3.0527067101
 30
0.0
 10
9.8590059629
 20
3.061012407
 30
0.0
 10
9.8108783704
 20
3.071656876
 30
0.0
 10
9.7633384408
 20
3.0846145599
 30
0.0
 10
9.716500636
 20
3.0998544168
 30
0.0
 10
9.6704777163
 20
3.1173398136
 30
0.0
 10
9.6253804687
 20
3.1370286769
 30
0.0
 10
9.5813174858
 20
3.1588736991
 30
0.0
 10
9.5383949205
 20
3.18282244
 30
0.0
 10
9.4967161913
 20
3.2088173604
 30
0.0
 10
9.4563816716
 20
3.2367958913
 30
0.0
 10
9.4174885503
 20
3.2666907548
 30
0.0
 10
9.3801305925
 20
3.298430087
 30
0.0
 10
9.3443979162
 20
3.3319375942
 30
0.0
 10
9.3103766294
 20
3.3671325905
 30
0.0
 10
9.2781487676
 20
3.4039303666
 30
0.0
 10
9.2477920892
 20
3.4422423656
 30
0.0
 10
9.2193799208
 20
3.4819764046
 30
0.0
 10
9.1929807932
 20
3.5230367615
 30
0.0
 10
9.1686583935
 20
3.5653245163
 30
0.0
 10
9.1464714531
 20
3.6087378039
 30
0.0
 10
9.1264736319
 20
3.653172055
 30
0.0
 10
9.1087132251
 20
3.6985201748
 30
0.0
 10
9.0932330892
 20
3.7446728285
 30
0.0
 10
9.0800706026
 20
3.791518749
 30
0.0
 10
9.0692576201
 20
3.83894508
 30
0.0
 10
9.0608204775
 20
3.8868371423
 30
0.0
 10
9.054779037
 20
3.9350804039
 30
0.0
 10
9.051148632
 20
3.9835562507
 30
0.0
 10
9.0503410545
 20
4.0159552751
 30
0.0
 10
9.0503410545
 20
4.0321509516
 30
0.0
  0
SPLINE
  5
23B
100
AcDbEntity
  8
0
100
AcDbSpline
 62
7
  6
CONTINUOUS
 70
0
 71
3
 72
31
 73
27
 74
0
 42
0.0000001
 43
0.0000001
 44
0.0000000001
 40
0.0
 40
0.0
 40
0.0
 40
0.0
 40
0.0625239081
 40
0.1250210016
 40
0.1562651665
 40
0.1875020262
 40
0.2031203265
 40
0.2187388189
 40
0.2499769507
 40
0.2812230198
 40
0.312478423
 40
0.3749943829
 40
0.437521959
 40
0.5000322816
 40
0.5312838298
 40
0.5625263274
 40
0.5937622117
 40
0.6249967867
 40
0.6562362469
 40
0.6874841138
 40
0.7187413207
 40
0.750006778
 40
0.8125331583
 40
0.8750535934
 40
0.937543529
 40
1.0
 40
1.0
 40
1.0
 40
1.0
 10
10.6248060243
 20
10.6725272458
 30
0.0
 10
10.6247978446
 20
10.691172939
 30
0.0
 10
10.6229842694
 20
10.7284788341
 30
0.0
 10
10.6162178659
 20
10.7746641288
 30
0.0
 10
10.6081081416
 20
10.8110547532
 30
0.0
 10
10.6019142132
 20
10.8335180133
 30
0.0
 10
10.5962850754
 20
10.8512797308
 30
0.0
 10
10.5902071953
 20
10.8688934217
 30
0.0
 10
10.5817809456
 20
10.890618533
 30
0.0
 10
10.5703860071
 20
10.9161581754
 30
0.0
 10
10.5535366489
 20
10.9494295679
 30
0.0
 10
10.5294590925
 20
10.9894336717
 30
0.0
 10
10.4960884078
 20
11.0344219866
 30
0.0
 10
10.4647890014
 20
11.0690655652
 30
0.0
 10
10.4378315314
 20
11.0948316866
 30
0.0
 10
10.4166883854
 20
11.1131331451
 30
0.0
 10
10.3946631143
 20
11.1303542017
 30
0.0
 10
10.3717938758
 20
11.1464364965
 30
0.0
 10
10.348143437
 20
11.1613521946
 30
0.0
 10
10.3237780377
 20
11.1750818061
 30
0.0
 10
10.2987616261
 20
11.1876043078
 30
0.0
 10
10.2646315292
 20
11.2026611548
 30
0.0
 10
10.2206574005
 20
11.2183636198
 30
0.0
 10
10.1663392957
 20
11.2320370964
 30
0.0
 10
10.1109734841
 20
11.2403800118
 30
0.0
 10
10.0736866009
 20
11.2422726227
 30
0.0
 10
10.0550610168
 20
11.2422726227
 30
0.0
  0
SPLINE
  5
23C
100
AcDbEntity
  8
0
100
AcDbSpline
 62
7
  6
CONTINUOUS
 70
0
 71
3
 72
30
 73
26
 74
0
 42
0.0000001
 43
0.0000001
 44
0.0000000001
 40
0.0
 40
0.0
 40
0.0
 40
0.0
 40
0.0620478261
 40
0.1240870896
 40
0.1551150037
 40
0.1861468714
 40
0.201667605
 40
0.2171921457
 40
0.2482540285
 40
0.2793407368
 40
0.3104550553
 40
0.3727481647
 40
0.4351385276
 40
0.4976024704
 40
0.5288658085
 40
0.5601435603
 40
0.5914380637
 40
0.6227542794
 40
0.6540974641
 40
0.6854698698
 40
0.7482801086
 40
0.8111776582
 40
0.8741202345
 40
0.9370676805
 40
1.0
 40
1.0
 40
1.0
 40
1.0
 10
10.6248060801
 20
4.59760958
 30
0.0
 10
10.6248060801
 20
4.5792412537
 30
0.0
 10
10.6230072552
 20
4.5424834603
 30
0.0
 10
10.6162563384
 20
4.496983549
 30
0.0
 10
10.608158903
 20
4.4611361919
 30
0.0
 10
10.6019718794
 20
4.439007131
 30
0.0
 10
10.5963482398
 20
4.4215099506
 30
0.0
 10
10.5902741744
 20
4.4041544915
 30
0.0
 10
10.581851538
 20
4.3827473382
 30
0.0
 10
10.5704611959
 20
4.3575844958
 30
0.0
 10
10.5536113482
 20
4.324793368
 30
0.0
 10
10.529526766
 20
4.2853654347
 30
0.0
 10
10.4961538513
 20
4.241039917
 30
0.0
 10
10.4648621285
 20
4.206919887
 30
0.0
 10
10.4379120864
 20
4.1815421597
 30
0.0
 10
10.4167663481
 20
4.1635097535
 30
0.0
 10
10.3947378874
 20
4.146541782
 30
0.0
 10
10.3718652346
 20
4.1306959708
 30
0.0
 10
10.3482103214
 20
4.1159994163
 30
0.0
 10
10.3157096623
 20
4.0979582024
 30
0.0
 10
10.2734445688
 20
4.0783785791
 30
0.0
 10
10.2206834595
 20
4.0598226642
 30
0.0
 10
10.166354542
 20
4.0463516962
 30
0.0
 10
10.1109811354
 20
4.0381334986
 30
0.0
 10
10.0736911841
 20
4.0362691608
 30
0.0
 10
10.0550610168
 20
4.0362691608
 30
0.0
  0
SPLINE
  5
23D
100
AcDbEntity
  8
0
100
AcDbSpline
 62
7
  6
CONTINUOUS
 70
0
 71
3
 72
37
 73
33
 74
0
 42
0.0000001
 43
0.0000001
 44
0.0000000001
 40
0.0
 40
0.0
 40
0.0
 40
0.0
 40
0.0072065911
 40
0.0145301986
 40
0.0296333371
 40
0.0455212574
 40
0.0623618268
 40
0.0802902121
 40
0.0994132777
 40
0.1198154084
 40
0.1415551125
 40
0.1646599754
 40
0.1891380398
 40
0.2149842764
 40
0.2421867954
 40
0.2707268446
 40
0.3005802444
 40
0.3317198071
 40
0.3641092398
 40
0.3976996513
 40
0.4324310328
 40
0.468239007
 40
0.5050603696
 40
0.5428304764
 40
0.5814833411
 40
0.6209521504
 40
0.6611663392
 40
0.7020502792
 40
0.7435210116
 40
0.8278853508
 40
0.913599556
 40
1.0
 40
1.0
 40
1.0
 40
1.0
 10
12.147840041
 20
11.590569952
 30
0.0
 10
12.145477412
 20
11.5901116187
 30
0.0
 10
12.1407449328
 20
11.5890179763
 30
0.0
 10
12.131271626
 20
11.5861347928
 30
0.0
 10
12.1194276625
 20
11.5811943896
 30
0.0
 10
12.1054969342
 20
11.573311641
 30
0.0
 10
12.0917226067
 20
11.5634408528
 30
0.0
 10
12.0781318091
 20
11.5516067743
 30
0.0
 10
12.0647479526
 20
11.5378313304
 30
0.0
 10
12.0516016956
 20
11.5221327159
 30
0.0
 10
12.0387228296
 20
11.5045399909
 30
0.0
 10
12.0261329361
 20
11.4850988071
 30
0.0
 10
12.0138561028
 20
11.4638605946
 30
0.0
 10
12.0019156033
 20
11.4408792285
 30
0.0
 10
11.9903374801
 20
11.4162071984
 30
0.0
 10
11.9791469403
 20
11.3898971988
 30
0.0
 10
11.9683687698
 20
11.3620019269
 30
0.0
 10
11.9580318264
 20
11.3325745765
 30
0.0
 10
11.9481616968
 20
11.3016751012
 30
0.0
 10
11.9387805637
 20
11.2693731214
 30
0.0
 10
11.9299047164
 20
11.2357469425
 30
0.0
 10
11.9215498148
 20
11.2008773498
 30
0.0
 10
11.9137339177
 20
11.1648441542
 30
0.0
 10
11.9064739746
 20
11.1277265005
 30
0.0
 10
11.8997868516
 20
11.0896035848
 30
0.0
 10
11.8936912383
 20
11.0505554317
 30
0.0
 10
11.8882038196
 20
11.0106650702
 30
0.0
 10
11.8833404239
 20
10.9700204356
 30
0.0
 10
11.8776629788
 20
10.9146318939
 30
0.0
 10
11.8721946451
 20
10.8441825039
 30
0.0
 10
11.8682400726
 20
10.7586089515
 30
0.0
 10
11.8673516492
 20
10.701126458
 30
0.0
 10
11.8673516492
 20
10.6722726227
 30
0.0
  0
SPLINE
  5
23E
100
AcDbEntity
  8
0
100
AcDbSpline
 62
7
  6
CONTINUOUS
 70
0
 71
3
 72
25
 73
21
 74
0
 42
0.0000001
 43
0.0000001
 44
0.0000000001
 40
0.0
 40
0.0
 40
0.0
 40
0.0
 40
0.0146592827
 40
0.029506608
 40
0.0447230487
 40
0.0604767432
 40
0.0941496694
 40
0.1315526382
 40
0.1734012125
 40
0.2201935183
 40
0.2722737863
 40
0.3298788071
 40
0.3931654596
 40
0.462238901
 40
0.5371636354
 40
0.6179717923
 40
0.7046756457
 40
0.7972662188
 40
0.8957191132
 40
1.0
 40
1.0
 40
1.0
 40
1.0
 10
11.9160850511
 20
9.7722727029
 30
0.0
 10
11.9165968782
 20
9.7722727029
 30
0.0
 10
11.9176280548
 20
9.7723321852
 30
0.0
 10
11.9191697067
 20
9.7725990977
 30
0.0
 10
11.9207096951
 20
9.7730434778
 30
0.0
 10
11.9228055476
 20
9.7738902264
 30
0.0
 10
11.9254363912
 20
9.7754309821
 30
0.0
 10
11.9284967412
 20
9.7779356297
 30
0.0
 10
11.9315367841
 20
9.7811302725
 30
0.0
 10
11.9345588779
 20
9.7850121452
 30
0.0
 10
11.9375644462
 20
9.7895800746
 30
0.0
 10
11.9405525973
 20
9.7948322463
 30
0.0
 10
11.9435221383
 20
9.8007658511
 30
0.0
 10
11.9464709389
 20
9.807377384
 30
0.0
 10
11.949396804
 20
9.8146624427
 30
0.0
 10
11.9522976109
 20
9.8226158588
 30
0.0
 10
11.955170862
 20
9.8312318681
 30
0.0
 10
11.958014333
 20
9.8405040183
 30
0.0
 10
11.9608257786
 20
9.8504252459
 30
0.0
 10
11.9626256781
 20
9.8572714695
 30
0.0
 10
11.9635222258
 20
9.8608003147
 30
0.0
  0
SPLINE
  5
23F
100
AcDbEntity
  8
0
100
AcDbSpline
 62
7
  6
CONTINUOUS
 70
0
 71
3
 72
25
 73
21
 74
0
 42
0.0000001
 43
0.0000001
 44
0.0000000001
 40
0.0
 40
0.0
 40
0.0
 40
0.0
 40
0.0146588444
 40
0.0295057413
 40
0.0447217727
 40
0.0604750846
 40
0.0941473445
 40
0.1315497971
 40
0.1733980082
 40
0.220190096
 40
0.2722702809
 40
0.3298753411
 40
0.3931621438
 40
0.4622358367
 40
0.5371609117
 40
0.6179694898
 40
0.704673836
 40
0.7972649621
 40
0.8957184629
 40
1.0
 40
1.0
 40
1.0
 40
1.0
 10
11.9160850511
 20
11.5722725425
 30
0.0
 10
11.9165968997
 20
11.5722725425
 30
0.0
 10
11.9176281205
 20
11.572213055
 30
0.0
 10
11.9191698379
 20
11.5719461199
 30
0.0
 10
11.9207098914
 20
11.5715017021
 30
0.0
 10
11.9228058355
 20
11.5706548805
 30
0.0
 10
11.9254367927
 20
11.5691139913
 30
0.0
 10
11.9284972686
 20
11.5666091326
 30
0.0
 10
11.9315374355
 20
11.5634142221
 30
0.0
 10
11.9345596518
 20
11.559532025
 30
0.0
 10
11.937565341
 20
11.5549637145
 30
0.0
 10
11.9405536112
 20
11.5497111053
 30
0.0
 10
11.9435232692
 20
11.5437770071
 30
0.0
 10
11.9464721843
 20
11.5371649256
 30
0.0
 10
11.949398161
 20
11.5298792639
 30
0.0
 10
11.9522990764
 20
11.5219251912
 30
0.0
 10
11.9551724327
 20
11.5133084729
 30
0.0
 10
11.9580160051
 20
11.5040355623
 30
0.0
 10
11.9608275481
 20
11.4941135241
 30
0.0
 10
11.9626275079
 20
11.4872667434
 30
0.0
 10
11.9635240852
 20
11.4837376116
 30
0.0
  0
SPLINE
  5
240
100
AcDbEntity
  8
0
100
AcDbSpline
 62
9
  6
CONTINUOUS
 70
0
 71
3
 72
65
 73
61
 74
0
 42
0.0000001
 43
0.0000001
 44
0.0000000001
 40
0.0
 40
0.0
 40
0.0
 40
0.0
 40
0.0312447071
 40
0.0624909424
 40
0.0937371553
 40
0.1093603605
 40
0.1249840904
 40
0.1406080341
 40
0.1562317019
 40
0.1718559404
 40
0.1874802272
 40
0.2031042223
 40
0.2187291102
 40
0.2343536072
 40
0.2499795627
 40
0.2656049214
 40
0.28123065
 40
0.2968566349
 40
0.3124826726
 40
0.3281086978
 40
0.3437348502
 40
0.3593609965
 40
0.3749873761
 40
0.3906138848
 40
0.4062405273
 40
0.4218673002
 40
0.4374943621
 40
0.4531214251
 40
0.4687486179
 40
0.4999903316
 40
0.5156178831
 40
0.5312454093
 40
0.5468729402
 40
0.5625004747
 40
0.5781282248
 40
0.5937558115
 40
0.6015707199
 40
0.6093855941
 40
0.6172003165
 40
0.6250149759
 40
0.6406428315
 40
0.6562704271
 40
0.671897974
 40
0.6875254879
 40
0.7187673546
 40
0.7500087148
 40
0.7812488685
 40
0.796875604
 40
0.8125024194
 40
0.8281288304
 40
0.8437551385
 40
0.8593814337
 40
0.8750074835
 40
0.89063368
 40
0.9062595596
 40
0.9374996838
 40
0.9531248977
 40
0.9687505484
 40
0.9843749697
 40
1.0
 40
1.0
 40
1.0
 40
1.0
 10
12.7071556353
 20
10.4177061521
 30
0.0
 10
12.6968267941
 20
10.4162411695
 30
0.0
 10
12.6761320002
 20
10.4135602006
 30
0.0
 10
12.6449885854
 20
10.4104131601
 30
0.0
 10
12.6189622445
 20
10.4086262639
 30
0.0
 10
12.5981130629
 20
10.4077699668
 30
0.0
 10
12.5824660416
 20
10.4074316306
 30
0.0
 10
12.5668150862
 20
10.4074187641
 30
0.0
 10
12.5511674071
 20
10.4077559671
 30
0.0
 10
12.5355318793
 20
10.4084656471
 30
0.0
 10
12.5199194459
 20
10.4095786106
 30
0.0
 10
12.5043440616
 20
10.4111312046
 30
0.0
 10
12.4888225779
 20
10.4131571145
 30
0.0
 10
12.473378188
 20
10.415713004
 30
0.0
 10
12.4580403896
 20
10.4188505078
 30
0.0
 10
12.4428502699
 20
10.4226467778
 30
0.0
 10
12.4278669167
 20
10.4271964151
 30
0.0
 10
12.4131543233
 20
10.4325621456
 30
0.0
 10
12.3987862493
 20
10.4387949317
 30
0.0
 10
12.3848307096
 20
10.4459049259
 30
0.0
 10
12.3713549753
 20
10.453888004
 30
0.0
 10
12.3584225168
 20
10.4627247072
 30
0.0
 10
12.3460924466
 20
10.472384604
 30
0.0
 10
12.3344186954
 20
10.482828169
 30
0.0
 10
12.3234400842
 20
10.4939998508
 30
0.0
 10
12.3131866003
 20
10.5058400348
 30
0.0
 10
12.303670056
 20
10.5182793936
 30
0.0
 10
12.2949082942
 20
10.5312621945
 30
0.0
 10
12.2842640881
 20
10.5492201469
 30
0.0
 10
12.2752026866
 20
10.5680789732
 30
0.0
 10
12.267826
 20
10.5876077927
 30
0.0
 10
12.2631514971
 20
10.6025570052
 30
0.0
 10
12.2593627415
 20
10.6177542853
 30
0.0
 10
12.2564827042
 20
10.6331502277
 30
0.0
 10
12.2545341602
 20
10.6486915452
 30
0.0
 10
12.2537097798
 20
10.6617197541
 30
0.0
 10
12.2535407559
 20
10.6721562415
 30
0.0
 10
12.2536587941
 20
10.6799845025
 30
0.0
 10
12.25402268
 20
10.687805119
 30
0.0
 10
12.2548346743
 20
10.6982112941
 30
0.0
 10
12.2564518584
 20
10.7111646286
 30
0.0
 10
12.2593240867
 20
10.7265615951
 30
0.0
 10
12.2631039398
 20
10.7417617639
 30
0.0
 10
12.2693196768
 20
10.7616915576
 30
0.0
 10
12.2792446573
 20
10.7858785484
 30
0.0
 10
12.2944143369
 20
10.8133249546
 30
0.0
 10
12.3096509583
 20
10.8345739181
 30
0.0
 10
12.323303646
 20
10.8503677675
 30
0.0
 10
12.3342674232
 20
10.8615544678
 30
0.0
 10
12.345926877
 20
10.8720140792
 30
0.0
 10
12.3582507674
 20
10.8816821222
 30
0.0
 10
12.3711761607
 20
10.8905289067
 30
0.0
 10
12.3846416758
 20
10.8985288588
 30
0.0
 10
12.3985860077
 20
10.9056614376
 30
0.0
 10
12.4177271402
 20
10.9139956491
 30
0.0
 10
12.4375816012
 20
10.9205736381
 30
0.0
 10
12.4578225527
 20
10.9256545669
 30
0.0
 10
12.4731582962
 20
10.928805301
 30
0.0
 10
12.4886010201
 20
10.9313690941
 30
0.0
 10
12.4989487043
 20
10.9327236469
 30
0.0
 10
12.5041312682
 20
10.933322094
 30
0.0
  0
SPLINE
  5
241
100
AcDbEntity
  8
0
100
AcDbSpline
 62
9
  6
CONTINUOUS
 70
0
 71
3
 72
27
 73
23
 74
0
 42
0.0000001
 43
0.0000001
 44
0.0000000001
 40
0.0
 40
0.0
 40
0.0
 40
0.0
 40
0.1049652303
 40
0.2060907523
 40
0.3943923469
 40
0.4805450101
 40
0.5607948622
 40
0.6348103292
 40
0.702333005
 40
0.7631823711
 40
0.8172465186
 40
0.8644705169
 40
0.8855160863
 40
0.9048551922
 40
0.9224961247
 40
0.9384489332
 40
0.9527276482
 40
0.9653515135
 40
0.9763455861
 40
0.9857447551
 40
0.9936013359
 40
1.0
 40
1.0
 40
1.0
 40
1.0
 10
12.9927336335
 20
10.28421116
 30
0.0
 10
12.9925088608
 20
10.2897969087
 30
0.0
 10
12.9920261069
 20
10.3007624747
 30
0.0
 10
12.9909391013
 20
10.3217391114
 30
0.0
 10
12.9896673818
 20
10.3417025743
 30
0.0
 10
12.9882050003
 20
10.3605370613
 30
0.0
 10
12.9870874041
 20
10.3732926844
 30
0.0
 10
12.9859282763
 20
10.3850479837
 30
0.0
 10
12.9847397719
 20
10.3957613769
 30
0.0
 10
12.9835312986
 20
10.4054025773
 30
0.0
 10
12.9823116039
 20
10.4139516282
 30
0.0
 10
12.9812562694
 20
10.4203816145
 30
0.0
 10
12.980402786
 20
10.4249689448
 30
0.0
 10
12.9797887944
 20
10.4279978404
 30
0.0
 10
12.979176775
 20
10.4307499186
 30
0.0
 10
12.9785673427
 20
10.4332258849
 30
0.0
 10
12.9779611399
 20
10.4354266716
 30
0.0
 10
12.9773587765
 20
10.437353535
 30
0.0
 10
12.9767609336
 20
10.4390079251
 30
0.0
 10
12.9761680494
 20
10.4403921218
 30
0.0
 10
12.9755808259
 20
10.4415081852
 30
0.0
 10
12.9751507115
 20
10.4421379446
 30
0.0
 10
12.9749317519
 20
10.4423990748
 30
0.0
  0
SPLINE
  5
242
100
AcDbEntity
  8
0
100
AcDbSpline
 62
9
  6
CONTINUOUS
 70
0
 71
3
 72
11
 73
7
 74
0
 42
0.0000001
 43
0.0000001
 44
0.0000000001
 40
0.0
 40
0.0
 40
0.0
 40
0.0
 40
0.2972369629
 40
0.558718428
 40
0.790237107
 40
1.0
 40
1.0
 40
1.0
 40
1.0
 10
12.9749317519
 20
10.4423990748
 30
0.0
 10
12.9748311314
 20
10.4425190744
 30
0.0
 10
12.9746312038
 20
10.4427361004
 30
0.0
 10
12.9743110236
 20
10.4430045244
 30
0.0
 10
12.9739902247
 20
10.4431933777
 30
0.0
 10
12.9737673214
 20
10.4432675804
 30
0.0
 10
12.9736588799
 20
10.4432888926
 30
0.0
  0
LINE
  5
243
100
AcDbEntity
  8
0
100
AcDbLine
 62
9
  6
CONTINUOUS
 10
11.0592281374
 20
4.0329618725
 11
11.0592278151
 21
4.0321697734
  0
SPLINE
  5
244
100
AcDbEntity
  8
0
100
AcDbSpline
 62
9
  6
CONTINUOUS
 70
0
 71
3
 72
71
 73
67
 74
0
 42
0.0000001
 43
0.0000001
 44
0.0000000001
 40
0.0
 40
0.0
 40
0.0
 40
0.0
 40
0.0155050524
 40
0.0310118926
 40
0.0465204811
 40
0.0620327404
 40
0.0775494909
 40
0.0930718172
 40
0.1086007232
 40
0.124137123
 40
0.1396818743
 40
0.1552357456
 40
0.1707994181
 40
0.1863734793
 40
0.2019584149
 40
0.2175546038
 40
0.2331623159
 40
0.2487817112
 40
0.2644128375
 40
0.2800556283
 40
0.2957099042
 40
0.3113753778
 40
0.3270516552
 40
0.3427382381
 40
0.3584345292
 40
0.3741398403
 40
0.3898533986
 40
0.4055743525
 40
0.421301779
 40
0.4370346949
 40
0.4527720664
 40
0.4685128176
 40
0.4842558389
 40
0.5
 40
0.5157441611
 40
0.5314871824
 40
0.5472279336
 40
0.5629653051
 40
0.578698221
 40
0.5944256475
 40
0.6101466014
 40
0.6258601597
 40
0.6415654708
 40
0.6572617619
 40
0.6729483448
 40
0.6886246222
 40
0.7042900958
 40
0.7199443717
 40
0.7355871625
 40
0.7512182888
 40
0.7668376841
 40
0.7824453962
 40
0.7980415851
 40
0.8136265207
 40
0.8292005819
 40
0.8447642544
 40
0.8603181257
 40
0.875862877
 40
0.8913992768
 40
0.9069281828
 40
0.9224505091
 40
0.9379672596
 40
0.9534795189
 40
0.9689881074
 40
0.9844949476
 40
1.0
 40
1.0
 40
1.0
 40
1.0
 10
11.0592278151
 20
4.0321697734
 30
0.0
 10
11.0592146538
 20
4.0159986891
 30
0.0
 10
11.0583822921
 20
3.9836495256
 30
0.0
 10
11.0547192932
 20
3.9352500295
 30
0.0
 10
11.0486499409
 20
3.8870842622
 30
0.0
 10
11.0401895629
 20
3.839270351
 30
0.0
 10
11.0293580026
 20
3.7919224431
 30
0.0
 10
11.016181541
 20
3.7451548258
 30
0.0
 10
11.0006919541
 20
3.6990799744
 30
0.0
 10
10.982926516
 20
3.6538087936
 30
0.0
 10
10.9629279541
 20
3.6094502729
 30
0.0
 10
10.9407444057
 20
3.5661111865
 30
0.0
 10
10.9164293624
 20
3.5238958024
 30
0.0
 10
10.8900413704
 20
3.4829057083
 30
0.0
 10
10.86164392
 20
3.4432395707
 30
0.0
 10
10.831305331
 20
3.4049928856
 30
0.0
 10
10.7990987156
 20
3.368257633
 30
0.0
 10
10.7651016152
 20
3.3331221902
 30
0.0
 10
10.7293958464
 20
3.2996711099
 30
0.0
 10
10.6920672978
 20
3.267984945
 30
0.0
 10
10.6532058713
 20
3.2381398775
 30
0.0
 10
10.6129051225
 20
3.2102076765
 30
0.0
 10
10.5712620358
 20
3.1842555434
 30
0.0
 10
10.5283767878
 20
3.1603459859
 30
0.0
 10
10.4843526072
 20
3.1385364969
 30
0.0
 10
10.439295467
 20
3.1188794801
 30
0.0
 10
10.393313788
 20
3.1014222167
 30
0.0
 10
10.3465181938
 20
3.0862067618
 30
0.0
 10
10.299021289
 20
3.0732697368
 30
0.0
 10
10.2509373878
 20
3.0626421758
 30
0.0
 10
10.2023821859
 20
3.0543496317
 30
0.0
 10
10.1534725051
 20
3.048412091
 30
0.0
 10
10.1043260275
 20
3.044843903
 30
0.0
 10
10.0550610168
 20
3.0436535597
 30
0.0
 10
10.0057960062
 20
3.044843903
 30
0.0
 10
9.9566495285
 20
3.048412091
 30
0.0
 10
9.9077398477
 20
3.0543496317
 30
0.0
 10
9.8591846458
 20
3.0626421758
 30
0.0
 10
9.8111007446
 20
3.0732697368
 30
0.0
 10
9.7636038399
 20
3.0862067618
 30
0.0
 10
9.7168082456
 20
3.1014222167
 30
0.0
 10
9.6708265666
 20
3.1188794801
 30
0.0
 10
9.6257694264
 20
3.1385364969
 30
0.0
 10
9.5817452458
 20
3.1603459859
 30
0.0
 10
9.5388599978
 20
3.1842555434
 30
0.0
 10
9.4972169112
 20
3.2102076765
 30
0.0
 10
9.4569161623
 20
3.2381398776
 30
0.0
 10
9.4180547358
 20
3.267984945
 30
0.0
 10
9.3807261872
 20
3.2996711099
 30
0.0
 10
9.3450204184
 20
3.3331221902
 30
0.0
 10
9.311023318
 20
3.368257633
 30
0.0
 10
9.2788167026
 20
3.4049928856
 30
0.0
 10
9.2484781136
 20
3.4432395707
 30
0.0
 10
9.2200806632
 20
3.4829057083
 30
0.0
 10
9.1936926712
 20
3.5238958024
 30
0.0
 10
9.1693776279
 20
3.5661111865
 30
0.0
 10
9.1471940796
 20
3.6094502729
 30
0.0
 10
9.1271955177
 20
3.6538087936
 30
0.0
 10
9.1094300795
 20
3.6990799744
 30
0.0
 10
9.0939404926
 20
3.7451548258
 30
0.0
 10
9.080764031
 20
3.7919224431
 30
0.0
 10
9.0699324707
 20
3.839270351
 30
0.0
 10
9.0614720927
 20
3.8870842622
 30
0.0
 10
9.0554027404
 20
3.9352500295
 30
0.0
 10
9.0517397415
 20
3.9836495256
 30
0.0
 10
9.0509073798
 20
4.0159986891
 30
0.0
 10
9.0508942186
 20
4.0321697734
 30
0.0
  0
LINE
  5
245
100
AcDbEntity
  8
0
100
AcDbLine
 62
9
  6
CONTINUOUS
 10
9.0508942186
 20
4.0321697734
 11
9.0508938962
 21
4.0329618725
  0
SPLINE
  5
246
100
AcDbEntity
  8
0
100
AcDbSpline
 62
9
  6
CONTINUOUS
 70
0
 71
3
 72
47
 73
43
 74
0
 42
0.0000001
 43
0.0000001
 44
0.0000000001
 40
0.0
 40
0.0
 40
0.0
 40
0.0
 40
0.0155082289
 40
0.0310189946
 40
0.046531029
 40
0.0620466992
 40
0.0930831558
 40
0.1241457917
 40
0.13969399
 40
0.155251309
 40
0.1708184284
 40
0.1863959388
 40
0.2175744981
 40
0.2487991097
 40
0.2800706055
 40
0.3113880182
 40
0.342748621
 40
0.3741480425
 40
0.4055804404
 40
0.4370387227
 40
0.4685148213
 40
0.5
 40
0.5314851787
 40
0.5629612773
 40
0.5944195596
 40
0.6258519575
 40
0.657251379
 40
0.6886119818
 40
0.7199293945
 40
0.7512008903
 40
0.7824255019
 40
0.8136040612
 40
0.8291815716
 40
0.844748691
 40
0.86030601
 40
0.8758542083
 40
0.9069168442
 40
0.9379533008
 40
0.953468971
 40
0.9689810054
 40
0.9844917711
 40
1.0
 40
1.0
 40
1.0
 40
1.0
 10
10.6266706419
 20
4.5848884983
 30
0.0
 10
10.6266706419
 20
4.5756788295
 30
0.0
 10
10.6262112446
 20
4.5572546605
 30
0.0
 10
10.6241465984
 20
4.5296883527
 30
0.0
 10
10.6207103617
 20
4.5022534278
 30
0.0
 10
10.6143126858
 20
4.4659428322
 30
0.0
 10
10.6029305454
 20
4.4211944656
 30
0.0
 10
10.5871533016
 20
4.3777802307
 30
0.0
 10
10.571994157
 20
4.3441031409
 30
0.0
 10
10.5593740407
 20
4.3194129369
 30
0.0
 10
10.5455387501
 20
4.2953624704
 30
0.0
 10
10.5255145098
 20
4.2642214137
 30
0.0
 10
10.4976042991
 20
4.2271650295
 30
0.0
 10
10.4598702045
 20
4.1861710614
 30
0.0
 10
10.418237282
 20
4.1490156529
 30
0.0
 10
10.3731085286
 20
4.1160593997
 30
0.0
 10
10.3249183401
 20
4.087618235
 30
0.0
 10
10.2741308666
 20
4.0639659288
 30
0.0
 10
10.2212350488
 20
4.0453298381
 30
0.0
 10
10.1667401326
 20
4.0318888597
 30
0.0
 10
10.1111705313
 20
4.0237722942
 30
0.0
 10
10.0550610168
 20
4.0210581468
 30
0.0
 10
9.9989515023
 20
4.0237722942
 30
0.0
 10
9.9433819011
 20
4.0318888597
 30
0.0
 10
9.8888869849
 20
4.0453298381
 30
0.0
 10
9.835991167
 20
4.0639659288
 30
0.0
 10
9.7852036936
 20
4.087618235
 30
0.0
 10
9.737013505
 20
4.1160593997
 30
0.0
 10
9.6918847516
 20
4.1490156529
 30
0.0
 10
9.6502518292
 20
4.1861710614
 30
0.0
 10
9.6125177345
 20
4.2271650295
 30
0.0
 10
9.5846075238
 20
4.2642214137
 30
0.0
 10
9.5645832836
 20
4.2953624704
 30
0.0
 10
9.5507479929
 20
4.3194129369
 30
0.0
 10
9.5381278766
 20
4.3441031409
 30
0.0
 10
9.522968732
 20
4.3777802307
 30
0.0
 10
9.5071914882
 20
4.4211944656
 30
0.0
 10
9.4958093478
 20
4.4659428322
 30
0.0
 10
9.489411672
 20
4.5022534278
 30
0.0
 10
9.4859754352
 20
4.5296883527
 30
0.0
 10
9.483910789
 20
4.5572546605
 30
0.0
 10
9.4834513917
 20
4.5756788295
 30
0.0
 10
9.4834513917
 20
4.5848884983
 30
0.0
  0
SPLINE
  5
247
100
AcDbEntity
  8
0
100
AcDbSpline
 62
9
  6
CONTINUOUS
 70
0
 71
3
 72
26
 73
22
 74
0
 42
0.0000001
 43
0.0000001
 44
0.0000000001
 40
0.0
 40
0.0
 40
0.0
 40
0.0
 40
0.0622501712
 40
0.0933819195
 40
0.1245152074
 40
0.1867864678
 40
0.2490786773
 40
0.2802381812
 40
0.3114052795
 40
0.3737577931
 40
0.4361490184
 40
0.4985839227
 40
0.5610668097
 40
0.6236012784
 40
0.686190165
 40
0.7488355052
 40
0.8115385055
 40
0.8742995285
 40
0.9057052516
 40
0.9371252239
 40
1.0
 40
1.0
 40
1.0
 40
1.0
 10
9.0508938962
 20
4.0329618725
 30
0.0
 10
9.0508938962
 20
4.0528889447
 30
0.0
 10
9.0518121976
 20
4.0827923287
 30
0.0
 10
9.0548683707
 20
4.1225383429
 30
0.0
 10
9.0591432488
 20
4.162179896
 30
0.0
 10
9.066766366
 20
4.2114674911
 30
0.0
 10
9.077398473
 20
4.2602033475
 30
0.0
 10
9.0876842758
 20
4.2987522284
 30
0.0
 10
9.0991510064
 20
4.3369865054
 30
0.0
 10
9.1156789855
 20
4.3841152825
 30
0.0
 10
9.1389412427
 20
4.4393731711
 30
0.0
 10
9.1655516931
 20
4.493146584
 30
0.0
 10
9.195412639
 20
4.5452376404
 30
0.0
 10
9.2284150031
 20
4.5954563654
 30
0.0
 10
9.2644380133
 20
4.6436191005
 30
0.0
 10
9.3033502363
 20
4.689550123
 30
0.0
 10
9.3450084098
 20
4.7330807763
 30
0.0
 10
9.3818804408
 20
4.767219065
 30
0.0
 10
9.412589384
 20
4.7931727537
 30
0.0
 10
9.4440939446
 20
4.8182114356
 30
0.0
 10
9.4685683647
 20
4.8359197233
 30
0.0
 10
9.4852218375
 20
4.8472227593
 30
0.0
  0
SPLINE
  5
248
100
AcDbEntity
  8
0
100
AcDbSpline
 62
9
  6
CONTINUOUS
 70
0
 71
3
 72
26
 73
22
 74
0
 42
0.0000001
 43
0.0000001
 44
0.0000000001
 40
0.0
 40
0.0
 40
0.0
 40
0.0
 40
0.0628747761
 40
0.0942947484
 40
0.1257004715
 40
0.1884614945
 40
0.2511644948
 40
0.313809835
 40
0.3763987216
 40
0.4389331903
 40
0.5014160773
 40
0.5638509816
 40
0.6262422069
 40
0.6885947205
 40
0.7197618188
 40
0.7509213227
 40
0.8132135322
 40
0.8754847926
 40
0.9066180805
 40
0.9377498288
 40
1.0
 40
1.0
 40
1.0
 40
1.0
 10
10.6249001961
 20
4.8472227593
 30
0.0
 10
10.6415536689
 20
4.8359197233
 30
0.0
 10
10.666028089
 20
4.8182114356
 30
0.0
 10
10.6975326496
 20
4.7931727537
 30
0.0
 10
10.7282415928
 20
4.767219065
 30
0.0
 10
10.7651136238
 20
4.7330807763
 30
0.0
 10
10.8067717973
 20
4.689550123
 30
0.0
 10
10.8456840203
 20
4.6436191005
 30
0.0
 10
10.8817070306
 20
4.5954563654
 30
0.0
 10
10.9147093947
 20
4.5452376404
 30
0.0
 10
10.9445703405
 20
4.493146584
 30
0.0
 10
10.9711807909
 20
4.4393731711
 30
0.0
 10
10.9944430482
 20
4.3841152825
 30
0.0
 10
11.0109710272
 20
4.3369865054
 30
0.0
 10
11.0224377579
 20
4.2987522284
 30
0.0
 10
11.0327235606
 20
4.2602033475
 30
0.0
 10
11.0433556677
 20
4.2114674911
 30
0.0
 10
11.0509787848
 20
4.162179896
 30
0.0
 10
11.0552536629
 20
4.1225383429
 30
0.0
 10
11.058309836
 20
4.0827923287
 30
0.0
 10
11.0592281374
 20
4.0528889447
 30
0.0
 10
11.0592281374
 20
4.0329618725
 30
0.0
  0
SPLINE
  5
249
100
AcDbEntity
  8
0
100
AcDbSpline
 62
9
  6
CONTINUOUS
 70
0
 71
3
 72
22
 73
18
 74
0
 42
0.0000001
 43
0.0000001
 44
0.0000000001
 40
0.0
 40
0.0
 40
0.0
 40
0.0
 40
0.0731672925
 40
0.1489330196
 40
0.3044356623
 40
0.4590490329
 40
0.5336921194
 40
0.6053575282
 40
0.6732249957
 40
0.7365554782
 40
0.7947192618
 40
0.8472347739
 40
0.8938109167
 40
0.9344285068
 40
0.9526285426
 40
0.9695338177
 40
1.0
 40
1.0
 40
1.0
 40
1.0
 10
12.9927321672
 20
10.284200604
 30
0.0
 10
12.9938258418
 20
10.2840709658
 30
0.0
 10
12.9960588928
 20
10.2838623611
 30
0.0
 10
13.0006371146
 20
10.2836403001
 30
0.0
 10
13.0064517721
 20
10.2837279397
 30
0.0
 10
13.0122241045
 20
10.2842788804
 30
0.0
 10
13.0166969024
 20
10.285002023
 30
0.0
 10
13.0198534041
 20
10.2856637345
 30
0.0
 10
13.0228077408
 20
10.2864415108
 30
0.0
 10
13.0255197001
 20
10.2873246406
 30
0.0
 10
13.027952648
 20
10.2883008607
 30
0.0
 10
13.030074628
 20
10.289356978
 30
0.0
 10
13.0318578778
 20
10.2904791094
 30
0.0
 10
13.0330862924
 20
10.2914935428
 30
0.0
 10
13.0338613102
 20
10.2923320431
 30
0.0
 10
13.0344547262
 20
10.2931214506
 30
0.0
 10
13.0347854393
 20
10.293765733
 30
0.0
 10
13.0349273663
 20
10.2942018019
 30
0.0
  0
SPLINE
  5
24A
100
AcDbEntity
  8
0
100
AcDbSpline
 62
9
  6
CONTINUOUS
 70
0
 71
3
 72
22
 73
18
 74
0
 42
0.0000001
 43
0.0000001
 44
0.0000000001
 40
0.0
 40
0.0
 40
0.0
 40
0.0
 40
0.0731442161
 40
0.1488807307
 40
0.3043153706
 40
0.4588627305
 40
0.5334789785
 40
0.6051242438
 40
0.6729800324
 40
0.736308897
 40
0.7944824868
 40
0.8470203445
 40
0.8936321343
 40
0.9342987657
 40
0.952527993
 40
0.9694650986
 40
1.0
 40
1.0
 40
1.0
 40
1.0
 10
12.9927836948
 20
11.0612660357
 30
0.0
 10
12.9938769624
 20
11.0613959501
 30
0.0
 10
12.9961091334
 20
11.0616050214
 30
0.0
 10
13.0006854177
 20
11.0618276624
 30
0.0
 10
13.0064975193
 20
11.0617400922
 30
0.0
 10
13.0122672445
 20
11.0611883672
 30
0.0
 10
13.0167380409
 20
11.0604640983
 30
0.0
 10
13.0198933425
 20
11.059801291
 30
0.0
 10
13.0228467413
 20
11.0590221767
 30
0.0
 10
13.025558072
 20
11.0581374747
 30
0.0
 10
13.0279907365
 20
11.057159456
 30
0.0
 10
13.0301127999
 20
11.0561013247
 30
0.0
 10
13.0318965109
 20
11.0549769802
 30
0.0
 10
13.033125486
 20
11.0539606003
 30
0.0
 10
13.033901186
 20
11.0531205176
 30
0.0
 10
13.0344955335
 20
11.0523293923
 30
0.0
 10
13.0348270066
 20
11.0516838687
 30
0.0
 10
13.034969569
 20
11.0512469296
 30
0.0
  0
SPLINE
  5
24B
100
AcDbEntity
  8
0
100
AcDbSpline
 62
9
  6
CONTINUOUS
 70
0
 71
3
 72
97
 73
93
 74
0
 42
0.0000001
 43
0.0000001
 44
0.0000000001
 40
0.0
 40
0.0
 40
0.0
 40
0.0
 40
0.0288468045
 40
0.0432662588
 40
0.0576764429
 40
0.0864537701
 40
0.1151544617
 40
0.129467947
 40
0.1437494685
 40
0.1721926322
 40
0.2004441388
 40
0.2284508426
 40
0.2561500884
 40
0.2834686485
 40
0.3103238874
 40
0.3366286015
 40
0.3622997873
 40
0.3872588486
 40
0.4114255013
 40
0.4347208719
 40
0.4570689507
 40
0.4784315464
 40
0.4987931298
 40
0.5181423491
 40
0.5364646231
 40
0.5537440284
 40
0.5699698762
 40
0.5776866681
 40
0.585141518
 40
0.5992737233
 40
0.6123852101
 40
0.6244951763
 40
0.6356226198
 40
0.6408244308
 40
0.6457890772
 40
0.6505198755
 40
0.6550201284
 40
0.6592931224
 40
0.6633425025
 40
0.6671723631
 40
0.6707871385
 40
0.6741918512
 40
0.6773923783
 40
0.6803955554
 40
0.6832091533
 40
0.6858423512
 40
0.6883061286
 40
0.6906133361
 40
0.6927786816
 40
0.6948195748
 40
0.6967564855
 40
0.6986126196
 40
0.7004131052
 40
0.7021849854
 40
0.7039562732
 40
0.7057544068
 40
0.7076044332
 40
0.7095288451
 40
0.7115473035
 40
0.7136764409
 40
0.7159295279
 40
0.7183172496
 40
0.7208483135
 40
0.7235297689
 40
0.7263671435
 40
0.7293648227
 40
0.7325264215
 40
0.7358549369
 40
0.7393529049
 40
0.7430225952
 40
0.7468660723
 40
0.7508852373
 40
0.7550819008
 40
0.7640145512
 40
0.768755248
 40
0.7736813115
 40
0.7840975917
 40
0.7952832483
 40
0.8072575723
 40
0.8200405429
 40
0.8336540612
 40
0.8481235227
 40
0.8634800084
 40
0.8797617776
 40
0.8970164348
 40
0.9060281422
 40
0.9153075792
 40
0.924864217
 40
0.9347082654
 40
0.9552809201
 40
0.9770482537
 40
1.0
 40
1.0
 40
1.0
 40
1.0
 10
10.8310941839
 20
10.6722726227
 30
0.0
 10
10.8310928951
 20
10.6912876024
 30
0.0
 10
10.8300756078
 20
10.7198210949
 30
0.0
 10
10.826693109
 20
10.7576946899
 30
0.0
 10
10.8219727381
 20
10.7953803728
 30
0.0
 10
10.8135850212
 20
10.842061388
 30
0.0
 10
10.8019400942
 20
10.8879720133
 30
0.0
 10
10.7907379368
 20
10.9240472
 30
0.0
 10
10.7783384512
 20
10.9595486155
 30
0.0
 10
10.7606151221
 20
11.0028911827
 30
0.0
 10
10.7359573109
 20
11.0530313668
 30
0.0
 10
10.708199028
 20
11.1009576053
 30
0.0
 10
10.6776488501
 20
11.1464123369
 30
0.0
 10
10.6446598225
 20
11.1891716916
 30
0.0
 10
10.6096246706
 20
11.2290520706
 30
0.0
 10
10.5729634636
 20
11.2659228099
 30
0.0
 10
10.5351059437
 20
11.2997100959
 30
0.0
 10
10.4964839952
 20
11.3303982266
 30
0.0
 10
10.4575271829
 20
11.3580282184
 30
0.0
 10
10.418654791
 20
11.3826907299
 30
0.0
 10
10.3802502944
 20
11.4045390738
 30
0.0
 10
10.3426298354
 20
11.4237632489
 30
0.0
 10
10.3060431088
 20
11.4405845431
 30
0.0
 10
10.2706982549
 20
11.4552379753
 30
0.0
 10
10.2367781388
 20
11.4679624913
 30
0.0
 10
10.2044417412
 20
11.4789979273
 30
0.0
 10
10.1785063252
 20
11.4871116881
 30
0.0
 10
10.15865795
 20
11.4929759643
 30
0.0
 10
10.1400828063
 20
11.4982760669
 30
0.0
 10
10.1180146454
 20
11.504290547
 30
0.0
 10
10.0929121242
 20
11.5108328335
 30
0.0
 10
10.0696944168
 20
11.5167510707
 30
0.0
 10
10.0515328242
 20
11.521396941
 30
0.0
 10
10.0379568227
 20
11.5249623875
 30
0.0
 10
10.0284744963
 20
11.5275151102
 30
0.0
 10
10.0194595189
 20
11.5300238343
 30
0.0
 10
10.0109102253
 20
11.532503698
 30
0.0
 10
10.0028246779
 20
11.5349675597
 30
0.0
 10
9.9952012128
 20
11.5374285252
 30
0.0
 10
9.988038449
 20
11.5398998692
 30
0.0
 10
9.9813342469
 20
11.5423918308
 30
0.0
 10
9.9750864129
 20
11.5449141119
 30
0.0
 10
9.9692929163
 20
11.5474766437
 30
0.0
 10
9.9639518756
 20
11.550088895
 30
0.0
 10
9.9590603399
 20
11.5527574499
 30
0.0
 10
9.954615569
 20
11.5554891371
 30
0.0
 10
9.950615174
 20
11.5582909522
 30
0.0
 10
9.947057123
 20
11.5611690681
 30
0.0
 10
9.9439388631
 20
11.5641277607
 30
0.0
 10
9.9412587624
 20
11.5671714419
 30
0.0
 10
9.9390160632
 20
11.5703041594
 30
0.0
 10
9.9372107211
 20
11.5735283859
 30
0.0
 10
9.9358425171
 20
11.5768444298
 30
0.0
 10
9.9349114873
 20
11.5802511837
 30
0.0
 10
9.9344167939
 20
11.5837464088
 30
0.0
 10
9.9343561459
 20
11.5873269552
 30
0.0
 10
9.9347262948
 20
11.5909894802
 30
0.0
 10
9.9355237843
 20
11.5947308851
 30
0.0
 10
9.9367452113
 20
11.598548704
 30
0.0
 10
9.9383872471
 20
11.6024406789
 30
0.0
 10
9.9404477762
 20
11.6064038408
 30
0.0
 10
9.9429250666
 20
11.6104345042
 30
0.0
 10
9.9458175624
 20
11.6145287242
 30
0.0
 10
9.9491236005
 20
11.6186825152
 30
0.0
 10
9.9528426428
 20
11.622890737
 30
0.0
 10
9.956974795
 20
11.6271472074
 30
0.0
 10
9.9615199237
 20
11.631445698
 30
0.0
 10
9.966477843
 20
11.6357800392
 30
0.0
 10
9.9718489855
 20
11.6401434897
 30
0.0
 10
9.9776351769
 20
11.6445276305
 30
0.0
 10
9.9838379782
 20
11.6489242729
 30
0.0
 10
9.9904590653
 20
11.6533252662
 30
0.0
 10
10.0000480067
 20
11.659313169
 30
0.0
 10
10.0102967227
 20
11.6651331672
 30
0.0
 10
10.0211771052
 20
11.6707856557
 30
0.0
 10
10.0330725242
 20
11.6765978129
 30
0.0
 10
10.049062896
 20
11.6836926135
 30
0.0
 10
10.0696962037
 20
11.691720618
 30
0.0
 10
10.0921520913
 20
11.6993005223
 30
0.0
 10
10.1164637917
 20
11.7063077559
 30
0.0
 10
10.1426650627
 20
11.7126020595
 30
0.0
 10
10.170789337
 20
11.7180328665
 30
0.0
 10
10.200874134
 20
11.722425402
 30
0.0
 10
10.2329591045
 20
11.7255883061
 30
0.0
 10
10.2609825538
 20
11.7269958469
 30
0.0
 10
10.2844133134
 20
11.7273050104
 30
0.0
 10
10.3027704873
 20
11.727079944
 30
0.0
 10
10.3216639513
 20
11.7263540571
 30
0.0
 10
10.3479599019
 20
11.7246378523
 30
0.0
 10
10.3821819109
 20
11.7209730623
 30
0.0
 10
10.4246715315
 20
11.7139870929
 30
0.0
 10
10.4534526533
 20
11.7075247368
 30
0.0
 10
10.4681125359
 20
11.7037859738
 30
0.0
  0
SPLINE
  5
24C
100
AcDbEntity
  8
0
100
AcDbSpline
 62
7
  6
CONTINUOUS
 70
0
 71
3
 72
42
 73
38
 74
0
 42
0.0000001
 43
0.0000001
 44
0.0000000001
 40
0.0
 40
0.0
 40
0.0
 40
0.0
 40
0.0958834115
 40
0.1908553867
 40
0.2840186539
 40
0.3744894819
 40
0.4614133196
 40
0.5439716342
 40
0.5833704714
 40
0.6213919129
 40
0.6579478825
 40
0.6929543023
 40
0.7263310826
 40
0.7580031416
 40
0.7879001174
 40
0.8159570254
 40
0.8421151467
 40
0.8663219331
 40
0.8885326592
 40
0.8988782192
 40
0.9087121497
 40
0.9180314878
 40
0.9268344811
 40
0.9351202275
 40
0.9428887865
 40
0.9501419707
 40
0.9568833269
 40
0.9631183696
 40
0.9688557274
 40
0.9741079247
 40
0.9788923286
 40
0.9832333797
 40
0.9871652253
 40
0.9907346453
 40
0.9940050583
 40
0.997059557
 40
1.0
 40
1.0
 40
1.0
 40
1.0
 10
11.8170662096
 20
10.6722726227
 30
0.0
 10
11.8170662096
 20
10.6988196294
 30
0.0
 10
11.8173810735
 20
10.751661849
 30
0.0
 10
11.818795607
 20
10.8302865314
 30
0.0
 10
11.8211375271
 20
10.9073900278
 30
0.0
 10
11.8243836354
 20
10.982230647
 30
0.0
 10
11.828501861
 20
11.0540876853
 30
0.0
 10
11.8326881612
 20
11.111771156
 30
0.0
 10
11.8364690515
 20
11.1559028915
 30
0.0
 10
11.8394513369
 20
11.1873184689
 30
0.0
 10
11.8426170331
 20
11.2174936049
 30
0.0
 10
11.8459584083
 20
11.2463556936
 30
0.0
 10
11.8494673213
 20
11.2738353267
 30
0.0
 10
11.8531350225
 20
11.2998664463
 30
0.0
 10
11.8569524402
 20
11.3243865583
 30
0.0
 10
11.8609101244
 20
11.3473368609
 30
0.0
 10
11.8649979572
 20
11.3686625387
 30
0.0
 10
11.869205853
 20
11.3883125769
 30
0.0
 10
11.8728850446
 20
11.4035940718
 30
0.0
 10
11.8758982333
 20
11.4149376357
 30
0.0
 10
11.8781281533
 20
11.422795044
 30
0.0
 10
11.880380596
 20
11.4302007634
 30
0.0
 10
11.8826541381
 20
11.4371504641
 30
0.0
 10
11.8849473344
 20
11.4436401076
 30
0.0
 10
11.8872588929
 20
11.4496659027
 30
0.0
 10
11.8895873457
 20
11.455224471
 30
0.0
 10
11.8919312409
 20
11.4603128077
 30
0.0
 10
11.8942893634
 20
11.4649281805
 30
0.0
 10
11.8966604775
 20
11.4690683297
 30
0.0
 10
11.8990434489
 20
11.4727315139
 30
0.0
 10
11.9014377255
 20
11.4759162657
 30
0.0
 10
11.9038433167
 20
11.4786214172
 30
0.0
 10
11.9062610048
 20
11.4808459624
 30
0.0
 10
11.9086927635
 20
11.4825878054
 30
0.0
 10
11.9111416216
 20
11.4838422885
 30
0.0
 10
11.9136066684
 20
11.4846016858
 30
0.0
 10
11.9152709379
 20
11.4847726227
 30
0.0
 10
11.9160850511
 20
11.4847726227
 30
0.0
  0
SPLINE
  5
24D
100
AcDbEntity
  8
0
100
AcDbSpline
 62
9
  6
CONTINUOUS
 70
0
 71
3
 72
20
 73
16
 74
0
 42
0.0000001
 43
0.0000001
 44
0.0000000001
 40
0.0
 40
0.0
 40
0.0
 40
0.0
 40
0.0637746571
 40
0.1275366005
 40
0.1912502206
 40
0.2548959015
 40
0.3184467806
 40
0.3818718132
 40
0.5081791496
 40
0.6335575411
 40
0.6958022119
 40
0.7576682978
 40
0.8190948317
 40
0.8800141869
 40
1.0
 40
1.0
 40
1.0
 40
1.0
 10
10.8310941839
 20
10.6722726227
 30
0.0
 10
10.8310933294
 20
10.6597280461
 30
0.0
 10
10.8305025884
 20
10.6346374419
 30
0.0
 10
10.827851803
 20
10.5970985426
 30
0.0
 10
10.8234448841
 20
10.5597497816
 30
0.0
 10
10.8173024315
 20
10.5226895735
 30
0.0
 10
10.8094502348
 20
10.4860109188
 30
0.0
 10
10.7967634555
 20
10.4378166356
 30
0.0
 10
10.7768398547
 20
10.3790241664
 30
0.0
 10
10.751715894
 20
10.3225166176
 30
0.0
 10
10.7287813499
 20
10.2791149543
 30
0.0
 10
10.7103012703
 20
10.247629975
 30
0.0
 10
10.6905923066
 20
10.2172093143
 30
0.0
 10
10.66295136
 20
10.1783621759
 30
0.0
 10
10.6404743412
 20
10.1507036842
 30
0.0
 10
10.6248365511
 20
10.1330264213
 30
0.0
  0
SPLINE
  5
24E
100
AcDbEntity
  8
0
100
AcDbSpline
 62
9
  6
CONTINUOUS
 70
0
 71
3
 72
42
 73
38
 74
0
 42
0.0000001
 43
0.0000001
 44
0.0000000001
 40
0.0
 40
0.0
 40
0.0
 40
0.0
 40
0.1024737704
 40
0.2015338453
 40
0.2966756023
 40
0.3874107904
 40
0.4309740233
 40
0.4732519114
 40
0.5537042359
 40
0.5917664371
 40
0.6283263639
 40
0.6633443926
 40
0.6967828251
 40
0.7286047071
 40
0.7587739777
 40
0.7872557114
 40
0.8140161005
 40
0.8390206899
 40
0.8622380814
 40
0.8836499093
 40
0.9032484089
 40
0.9123707406
 40
0.9210444941
 40
0.9292726419
 40
0.9370587905
 40
0.9444075287
 40
0.9513247162
 40
0.9578178168
 40
0.9638963232
 40
0.9695722868
 40
0.9748610248
 40
0.9797820295
 40
0.9843601121
 40
0.988626744
 40
0.9926214823
 40
0.9963930778
 40
1.0
 40
1.0
 40
1.0
 40
1.0
 10
12.9927767792
 20
11.0612608591
 30
0.0
 10
12.9939611735
 20
11.0865442917
 30
0.0
 10
12.9965478913
 20
11.1362573679
 30
0.0
 10
13.0011974824
 20
11.2093905816
 30
0.0
 10
13.006490829
 20
11.2795728076
 30
0.0
 10
13.0114953054
 20
11.3360254542
 30
0.0
 10
13.015826992
 20
11.3794248133
 30
0.0
 10
13.0202218869
 20
11.4202639691
 30
0.0
 10
13.0249507118
 20
11.4596999738
 30
0.0
 10
13.0300719863
 20
11.4976602198
 30
0.0
 10
13.0339681199
 20
11.5244602857
 30
0.0
 10
13.037984076
 20
11.55008729
 30
0.0
 10
13.0421146716
 20
11.5745099985
 30
0.0
 10
13.0463545079
 20
11.5976975629
 30
0.0
 10
13.0506983832
 20
11.6196191546
 30
0.0
 10
13.0551404214
 20
11.6402440317
 30
0.0
 10
13.059674196
 20
11.6595409328
 30
0.0
 10
13.0642938071
 20
11.6774779489
 30
0.0
 10
13.0689946967
 20
11.6940248775
 30
0.0
 10
13.0737689229
 20
11.7091563089
 30
0.0
 10
13.0778956885
 20
11.7208347308
 30
0.0
 10
13.0812446645
 20
11.7294434235
 30
0.0
 10
13.0837100359
 20
11.7353805306
 30
0.0
 10
13.0861884806
 20
11.7409528895
 30
0.0
 10
13.0886793011
 20
11.7461592622
 30
0.0
 10
13.0911817221
 20
11.7509983913
 30
0.0
 10
13.0936950164
 20
11.7554690393
 30
0.0
 10
13.0962184868
 20
11.7595700128
 30
0.0
 10
13.0987514513
 20
11.7633001932
 30
0.0
 10
13.1012933419
 20
11.7666584892
 30
0.0
 10
13.1038437372
 20
11.7696438202
 30
0.0
 10
13.1064024475
 20
11.7722550327
 30
0.0
 10
13.1089696226
 20
11.7744907591
 30
0.0
 10
13.1115455792
 20
11.7763492601
 30
0.0
 10
13.1141310356
 20
11.7778281651
 30
0.0
 10
13.1167253393
 20
11.77892411
 30
0.0
 10
13.1184905868
 20
11.7794048009
 30
0.0
 10
13.1193650268
 20
11.7795753397
 30
0.0
  0
SPLINE
  5
24F
100
AcDbEntity
  8
0
100
AcDbSpline
 62
9
  6
CONTINUOUS
 70
0
 71
3
 72
23
 73
19
 74
0
 42
0.0000001
 43
0.0000001
 44
0.0000000001
 40
0.0
 40
0.0
 40
0.0
 40
0.0
 40
0.120844801
 40
0.1816681413
 40
0.2427675147
 40
0.3041501364
 40
0.3349518277
 40
0.3658285726
 40
0.427808625
 40
0.4901075753
 40
0.6156854165
 40
0.6789817578
 40
0.7425961382
 40
0.8065157562
 40
0.8385884098
 40
0.8707353911
 40
0.9352378815
 40
1.0
 40
1.0
 40
1.0
 40
1.0
 10
12.9927767792
 20
11.0612608591
 30
0.0
 10
12.9797397529
 20
11.0603775169
 30
0.0
 10
12.9601679786
 20
11.0585704846
 30
0.0
 10
12.9341436111
 20
11.0551148131
 30
0.0
 10
12.914572784
 20
11.0519597478
 30
0.0
 10
12.8982894947
 20
11.0488528808
 30
0.0
 10
12.8852767468
 20
11.0460698977
 30
0.0
 10
12.8722444033
 20
11.0430772076
 30
0.0
 10
12.8559826451
 20
11.0389371744
 30
0.0
 10
12.8300389606
 20
11.0313846482
 30
0.0
 10
12.8043865152
 20
11.0223685236
 30
0.0
 10
12.7792057057
 20
11.0118034871
 30
0.0
 10
12.7605096663
 20
11.0030583534
 30
0.0
 10
12.7451881049
 20
10.9951026863
 30
0.0
 10
12.7331090188
 20
10.9883126631
 30
0.0
 10
12.7211341667
 20
10.9812159468
 30
0.0
 10
12.7064322759
 20
10.9717978174
 30
0.0
 10
12.6950226579
 20
10.9637135331
 30
0.0
 10
12.6894073942
 20
10.9595294222
 30
0.0
  0
LINE
  5
250
100
AcDbEntity
  8
0
100
AcDbLine
 62
7
  6
CONTINUOUS
 10
9.972599017
 20
4.0422393618
 11
9.9732250757
 21
4.0421482589
  0
LINE
  5
251
100
AcDbEntity
  8
0
100
AcDbLine
 62
7
  6
CONTINUOUS
 10
10.136896958
 20
4.0421482589
 11
10.1375230166
 21
4.0422393618
  0
SPLINE
  5
252
100
AcDbEntity
  8
0
100
AcDbSpline
 62
9
  6
CONTINUOUS
 70
0
 71
3
 72
19
 73
15
 74
0
 42
0.0000001
 43
0.0000001
 44
0.0000000001
 40
0.0
 40
0.0
 40
0.0
 40
0.0
 40
0.0647488066
 40
0.1292361637
 40
0.2573191033
 40
0.3841407729
 40
0.5096589744
 40
0.571943969
 40
0.633923316
 40
0.6956072589
 40
0.7570084724
 40
0.8181410576
 40
0.8790135468
 40
1.0
 40
1.0
 40
1.0
 40
1.0
 10
12.6885591328
 20
10.3849459721
 30
0.0
 10
12.6942081973
 20
10.3808004566
 30
0.0
 10
12.7056846295
 20
10.3727961445
 30
0.0
 10
12.7292438838
 20
10.3579368787
 30
0.0
 10
12.759698112
 20
10.341485033
 30
0.0
 10
12.7975113934
 20
10.3250943738
 30
0.0
 10
12.8297412002
 20
10.3140143198
 30
0.0
 10
12.8557336448
 20
10.3065801199
 30
0.0
 10
12.8752546237
 20
10.301680882
 30
0.0
 10
12.8948208167
 20
10.2973954489
 30
0.0
 10
12.9144115774
 20
10.2936898426
 30
0.0
 10
12.9340099258
 20
10.2905374506
 30
0.0
 10
12.9600743791
 20
10.2870406929
 30
0.0
 10
12.9796746931
 20
10.2851588563
 30
0.0
 10
12.992733178
 20
10.2842111646
 30
0.0
  0
SPLINE
  5
253
100
AcDbEntity
  8
0
100
AcDbSpline
 62
7
  6
CONTINUOUS
 70
0
 71
3
 72
43
 73
39
 74
0
 42
0.0000001
 43
0.0000001
 44
0.0000000001
 40
0.0
 40
0.0
 40
0.0
 40
0.0
 40
0.0958833241
 40
0.1908552949
 40
0.2840184499
 40
0.3744892257
 40
0.4614129925
 40
0.503287691
 40
0.543971957
 40
0.5833707185
 40
0.6213922016
 40
0.6579481166
 40
0.6929544684
 40
0.7263313184
 40
0.7580032802
 40
0.7879002457
 40
0.8159571992
 40
0.8421151949
 40
0.8663220553
 40
0.8885327586
 40
0.8988783406
 40
0.9087121392
 40
0.9180315487
 40
0.9268346016
 40
0.9351202103
 40
0.9428888067
 40
0.9501420803
 40
0.9568833139
 40
0.9631183552
 40
0.968855822
 40
0.9741079275
 40
0.9788922902
 40
0.9832334445
 40
0.987165241
 40
0.9907346061
 40
0.9940050825
 40
0.9970595718
 40
1.0
 40
1.0
 40
1.0
 40
1.0
 10
11.8064026421
 20
10.6722726227
 30
0.0
 10
11.8064026421
 20
10.701678531
 30
0.0
 10
11.8067514131
 20
10.7602114654
 30
0.0
 10
11.8083182898
 20
10.8473034066
 30
0.0
 10
11.8109123696
 20
10.9327104037
 30
0.0
 10
11.8145082253
 20
11.0156106208
 30
0.0
 10
11.8183555542
 20
11.0827495544
 30
0.0
 10
11.8219297265
 20
11.1346046806
 30
0.0
 10
11.8248030039
 20
11.1718971164
 30
0.0
 10
11.8278950786
 20
11.2079861627
 30
0.0
 10
11.8311984508
 20
11.2427849476
 30
0.0
 10
11.8347050924
 20
11.2762097128
 30
0.0
 10
11.8384063277
 20
11.3081800286
 30
0.0
 10
11.8422930788
 20
11.3386190044
 30
0.0
 10
11.8463558016
 20
11.3674534783
 30
0.0
 10
11.8505843224
 20
11.3946142175
 30
0.0
 10
11.8549681776
 20
11.4200360886
 30
0.0
 10
11.8594963087
 20
11.4436583786
 30
0.0
 10
11.8641572958
 20
11.4654245816
 30
0.0
 10
11.868232757
 20
11.4823517989
 30
0.0
 10
11.871570387
 20
11.4949169597
 30
0.0
 10
11.8740405271
 20
11.5036205234
 30
0.0
 10
11.8765355025
 20
11.5118237982
 30
0.0
 10
11.8790538405
 20
11.5195219483
 30
0.0
 10
11.8815940792
 20
11.5267104397
 30
0.0
 10
11.8841545548
 20
11.5333851742
 30
0.0
 10
11.8867336892
 20
11.5395423965
 30
0.0
 10
11.8893300892
 20
11.545178663
 30
0.0
 10
11.8919421748
 20
11.5502910657
 30
0.0
 10
11.8945685366
 20
11.5548771472
 30
0.0
 10
11.8972082092
 20
11.5589347804
 30
0.0
 10
11.8998603829
 20
11.5624624512
 30
0.0
 10
11.9025249131
 20
11.565459045
 30
0.0
 10
11.9052030201
 20
11.5679231216
 30
0.0
 10
11.9078967352
 20
11.5698524041
 30
0.0
 10
11.9106092104
 20
11.5712421817
 30
0.0
 10
11.9133397659
 20
11.5720833537
 30
0.0
 10
11.915183268
 20
11.5722725425
 30
0.0
 10
11.9160850511
 20
11.5722725425
 30
0.0
  0
LINE
  5
254
100
AcDbEntity
  8
0
100
AcDbLine
 62
9
  6
CONTINUOUS
 10
12.7364497154
 20
10.9268397305
 11
13.0002469862
 21
10.8716853086
  0
SPLINE
  5
255
100
AcDbEntity
  8
0
100
AcDbSpline
 62
9
  6
CONTINUOUS
 70
0
 71
3
 72
33
 73
29
 74
0
 42
0.0000001
 43
0.0000001
 44
0.0000000001
 40
0.0
 40
0.0
 40
0.0
 40
0.0
 40
0.003679189
 40
0.0073241076
 40
0.0110049008
 40
0.0147896807
 40
0.022901438
 40
0.0320853863
 40
0.0426291751
 40
0.0547253881
 40
0.0685017401
 40
0.0840444099
 40
0.1014130348
 40
0.1206475941
 40
0.141775944
 40
0.1648161215
 40
0.1897777014
 40
0.2166656881
 40
0.2454792709
 40
0.2762141209
 40
0.3433859161
 40
0.4179927689
 40
0.4997814589
 40
0.588367637
 40
0.6832850033
 40
0.7839789953
 40
0.8897936782
 40
1.0
 40
1.0
 40
1.0
 40
1.0
 10
13.0002469862
 20
10.8716853086
 30
0.0
 10
13.0004722378
 20
10.8716380347
 30
0.0
 10
13.0009276256
 20
10.8715738292
 30
0.0
 10
13.0016182494
 20
10.871574324
 30
0.0
 10
13.0023086028
 20
10.8716725869
 30
0.0
 10
13.0032485872
 20
10.8719392999
 30
0.0
 10
13.004435951
 20
10.8725420101
 30
0.0
 10
13.00580567
 20
10.8736309978
 30
0.0
 10
13.0071613595
 20
10.8750969557
 30
0.0
 10
13.0085057929
 20
10.8769407679
 30
0.0
 10
13.0098405153
 20
10.8791644286
 30
0.0
 10
13.0111649068
 20
10.8817696454
 30
0.0
 10
13.0124776476
 20
10.8847574508
 30
0.0
 10
13.0137771851
 20
10.8881281701
 30
0.0
 10
13.0150616622
 20
10.8918815821
 30
0.0
 10
13.0163291669
 20
10.8960168993
 30
0.0
 10
13.0175778012
 20
10.9005328472
 30
0.0
 10
13.0188054962
 20
10.9054276961
 30
0.0
 10
13.02001028
 20
10.9106993354
 30
0.0
 10
13.0216313832
 20
10.9184594343
 30
0.0
 10
13.0235670259
 20
10.9290782265
 30
0.0
 10
13.0257042278
 20
10.9429009818
 30
0.0
 10
13.0276994352
 20
10.9580970354
 30
0.0
 10
13.0295381172
 20
10.9745916541
 30
0.0
 10
13.0312037815
 20
10.9922927744
 30
0.0
 10
13.032681055
 20
11.0110917924
 30
0.0
 10
13.0339578526
 20
11.0308639018
 30
0.0
 10
13.0346549956
 20
11.0443599379
 30
0.0
 10
13.0349695727
 20
11.0512469296
 30
0.0
  0
SPLINE
  5
256
100
AcDbEntity
  8
0
100
AcDbSpline
 62
9
  6
CONTINUOUS
 70
0
 71
3
 72
42
 73
38
 74
0
 42
0.0000001
 43
0.0000001
 44
0.0000000001
 40
0.0
 40
0.0
 40
0.0
 40
0.0
 40
0.1042895179
 40
0.2050220454
 40
0.3016424874
 40
0.393646879
 40
0.4805082144
 40
0.5218433362
 40
0.5617025062
 40
0.6000330191
 40
0.6367860194
 40
0.6719194753
 40
0.7053944951
 40
0.7371732822
 40
0.7672186254
 40
0.7954930668
 40
0.8219591344
 40
0.846578467
 40
0.8693222725
 40
0.890177731
 40
0.9091445995
 40
0.9179245816
 40
0.9262388214
 40
0.9340910329
 40
0.9414860049
 40
0.9484298739
 40
0.9549304397
 40
0.9609976161
 40
0.9666441348
 40
0.9718863827
 40
0.9767454892
 40
0.9812486919
 40
0.9854309506
 40
0.9893366534
 40
0.993020884
 40
0.9965499335
 40
1.0
 40
1.0
 40
1.0
 40
1.0
 10
13.0349695727
 20
11.0512469296
 30
0.0
 10
13.036118051
 20
11.076360815
 30
0.0
 10
13.0386340493
 20
11.1257206865
 30
0.0
 10
13.0431453857
 20
11.1982963906
 30
0.0
 10
13.0483126973
 20
11.2678593636
 30
0.0
 10
13.0540941804
 20
11.3340181509
 30
0.0
 10
13.0594838279
 20
11.3868280904
 30
0.0
 10
13.0641098549
 20
11.4270752118
 30
0.0
 10
13.0676569995
 20
11.4556692271
 30
0.0
 10
13.0713337407
 20
11.4831328632
 30
0.0
 10
13.075134783
 20
11.5094291042
 30
0.0
 10
13.0790538095
 20
11.5345240687
 30
0.0
 10
13.0830844598
 20
11.5583861792
 30
0.0
 10
13.0872205784
 20
11.5809844836
 30
0.0
 10
13.0914558827
 20
11.6022877407
 30
0.0
 10
13.0957843086
 20
11.6222638636
 30
0.0
 10
13.1001993498
 20
11.6408794218
 30
0.0
 10
13.1046957548
 20
11.6581011849
 30
0.0
 10
13.1092678479
 20
11.6739000303
 30
0.0
 10
13.1139080281
 20
11.6882535325
 30
0.0
 10
13.1179224293
 20
11.699264398
 30
0.0
 10
13.1211807336
 20
11.707324392
 30
0.0
 10
13.1235740816
 20
11.712841997
 30
0.0
 10
13.1259794399
 20
11.7179881659
 30
0.0
 10
13.1283960397
 20
11.7227617036
 30
0.0
 10
13.1308230502
 20
11.7271614536
 30
0.0
 10
13.1332597064
 20
11.731186267
 30
0.0
 10
13.1357053344
 20
11.7348349922
 30
0.0
 10
13.1381593705
 20
11.738106496
 30
0.0
 10
13.1406214277
 20
11.740999659
 30
0.0
 10
13.1430914052
 20
11.7435132864
 30
0.0
 10
13.1455695425
 20
11.7456459565
 30
0.0
 10
13.1480564254
 20
11.7473957846
 30
0.0
 10
13.1505526409
 20
11.748760022
 30
0.0
 10
13.1530585426
 20
11.7497348511
 30
0.0
 10
13.155572028
 20
11.7503154877
 30
0.0
 10
13.1572582532
 20
11.7504370534
 30
0.0
 10
13.158089906
 20
11.750430792
 30
0.0
  0
SPLINE
  5
257
100
AcDbEntity
  8
0
100
AcDbSpline
 62
9
  6
CONTINUOUS
 70
0
 71
3
 72
87
 73
83
 74
0
 42
0.0000001
 43
0.0000001
 44
0.0000000001
 40
0.0
 40
0.0
 40
0.0
 40
0.0
 40
0.0007322142
 40
0.0014724836
 40
0.0030034789
 40
0.0046453534
 40
0.0064384931
 40
0.0084135713
 40
0.0105930931
 40
0.0129933574
 40
0.015626238
 40
0.0185004014
 40
0.0216221769
 40
0.02499615
 40
0.0286256542
 40
0.0325128955
 40
0.0366587432
 40
0.0410633881
 40
0.0457266123
 40
0.0506479254
 40
0.055826583
 40
0.0612611139
 40
0.0669485398
 40
0.0790683139
 40
0.0921574562
 40
0.1061865853
 40
0.121128872
 40
0.1369584218
 40
0.1536460997
 40
0.1711523184
 40
0.1894337064
 40
0.2084453037
 40
0.2281415817
 40
0.2484764693
 40
0.2694032574
 40
0.290874379
 40
0.3128417374
 40
0.3580612097
 40
0.3812032304
 40
0.4046243627
 40
0.4520845081
 40
0.5000000002
 40
0.5479154937
 40
0.5953756423
 40
0.6187967691
 40
0.6419387866
 40
0.6871582898
 40
0.7091256386
 40
0.7305967379
 40
0.7515235181
 40
0.7718584169
 40
0.7915547107
 40
0.8105663052
 40
0.8288476571
 40
0.8463538591
 40
0.8630415657
 40
0.8788711451
 40
0.8938134332
 40
0.9078425387
 40
0.9209316665
 40
0.9330514655
 40
0.9387389155
 40
0.9441734654
 40
0.949352128
 40
0.9542734326
 40
0.9589366387
 40
0.9633412604
 40
0.9674870861
 40
0.9713743136
 40
0.9750038172
 40
0.9783777996
 40
0.9814995881
 40
0.984373763
 40
0.9870066515
 40
0.9894069188
 40
0.9915864387
 40
0.9935615126
 40
0.9953546482
 40
0.9969965206
 40
0.9985275159
 40
0.9992677856
 40
1.0
 40
1.0
 40
1.0
 40
1.0
 10
13.158089906
 20
11.750430792
 30
0.0
 10
13.1586278404
 20
11.7504266518
 30
0.0
 10
13.1597100423
 20
11.7503626943
 30
0.0
 10
13.1618915532
 20
11.7500108204
 30
0.0
 10
13.1646482984
 20
11.7491321987
 30
0.0
 10
13.1678930443
 20
11.7474315844
 30
0.0
 10
13.1711166448
 20
11.7450862175
 30
0.0
 10
13.1743214085
 20
11.7421031304
 30
0.0
 10
13.177510462
 20
11.738486095
 30
0.0
 10
13.1806849593
 20
11.7342372251
 30
0.0
 10
13.1838447165
 20
11.7293579756
 30
0.0
 10
13.1869887722
 20
11.7238498521
 30
0.0
 10
13.1901156963
 20
11.7177145871
 30
0.0
 10
13.1932238651
 20
11.7109542163
 30
0.0
 10
13.1963113944
 20
11.7035710991
 30
0.0
 10
13.1993762186
 20
11.6955683634
 30
0.0
 10
13.2024167749
 20
11.68695018
 30
0.0
 10
13.2054311917
 20
11.6777212257
 30
0.0
 10
13.2084175836
 20
11.66788626
 30
0.0
 10
13.2113739982
 20
11.6574499867
 30
0.0
 10
13.2142983422
 20
11.6464174445
 30
0.0
 10
13.2171885392
 20
11.6347950819
 30
0.0
 10
13.2210777776
 20
11.6181679628
 30
0.0
 10
13.2258184936
 20
11.5959669176
 30
0.0
 10
13.2312360822
 20
11.56765097
 30
0.0
 10
13.236483585
 20
11.5371967317
 30
0.0
 10
13.2415470167
 20
11.5046724267
 30
0.0
 10
13.2464115005
 20
11.4701442777
 30
0.0
 10
13.2510618357
 20
11.4336870018
 30
0.0
 10
13.2554886966
 20
11.3953881231
 30
0.0
 10
13.2596820695
 20
11.3553459658
 30
0.0
 10
13.26363276
 20
11.3136627038
 30
0.0
 10
13.2673316903
 20
11.2704420113
 30
0.0
 10
13.2707700955
 20
11.2257884895
 30
0.0
 10
13.2739393832
 20
11.1798079641
 30
0.0
 10
13.2768315417
 20
11.1326075141
 30
0.0
 10
13.2803403945
 20
11.0675655311
 30
0.0
 10
13.2832102464
 20
11.0012614728
 30
0.0
 10
13.2854738124
 20
10.9338673797
 30
0.0
 10
13.2873581184
 20
10.8648147013
 30
0.0
 10
13.2889324106
 20
10.7775477718
 30
0.0
 10
13.2895630286
 20
10.6722726215
 30
0.0
 10
13.2889323996
 20
10.566997469
 30
0.0
 10
13.2873581264
 20
10.4797305399
 30
0.0
 10
13.2854738072
 20
10.4106778657
 30
0.0
 10
13.2832102328
 20
10.3432837568
 30
0.0
 10
13.2803404189
 20
10.2769796834
 30
0.0
 10
13.2768315552
 20
10.2119377017
 30
0.0
 10
13.2739393778
 20
10.1647372822
 30
0.0
 10
13.2707700866
 20
10.1187567711
 30
0.0
 10
13.2673316887
 20
10.0741032347
 30
0.0
 10
13.2636327679
 20
10.0308825235
 30
0.0
 10
13.2596820809
 20
9.9891992782
 30
0.0
 10
13.2554886866
 20
9.9491571641
 30
0.0
 10
13.2510618136
 20
9.9108583047
 30
0.0
 10
13.2464114962
 20
9.8744009959
 30
0.0
 10
13.2415470251
 20
9.8398728007
 30
0.0
 10
13.2364835943
 20
9.80734849
 30
0.0
 10
13.231236079
 20
9.7768942811
 30
0.0
 10
13.2258184793
 20
9.7485783456
 30
0.0
 10
13.2210777701
 20
9.7263772732
 30
0.0
 10
13.2171885436
 20
9.7097501001
 30
0.0
 10
13.2142983525
 20
9.6981276995
 30
0.0
 10
13.2113740093
 20
9.6870951452
 30
0.0
 10
13.2084175926
 20
9.6766588891
 30
0.0
 10
13.2054311974
 20
9.6668239625
 30
0.0
 10
13.2024167761
 20
9.6575950586
 30
0.0
 10
13.1993762148
 20
9.648976923
 30
0.0
 10
13.1963113862
 20
9.6409742176
 30
0.0
 10
13.1932238578
 20
9.6335911043
 30
0.0
 10
13.1901156922
 20
9.6268307147
 30
0.0
 10
13.1869887718
 20
9.62069542
 30
0.0
 10
13.1838447181
 20
9.6151872679
 30
0.0
 10
13.1806849623
 20
9.6103079977
 30
0.0
 10
13.1775104662
 20
9.6060591184
 30
0.0
 10
13.1743214113
 20
9.602442087
 30
0.0
 10
13.1711166452
 20
9.5994590131
 30
0.0
 10
13.1678930426
 20
9.5971136623
 30
0.0
 10
13.1646482963
 20
9.5954130594
 30
0.0
 10
13.1618915526
 20
9.5945344395
 30
0.0
 10
13.1597100424
 20
9.5941825597
 30
0.0
 10
13.1586278406
 20
9.5941185969
 30
0.0
 10
13.158089906
 20
9.5941144534
 30
0.0
  0
SPLINE
  5
258
100
AcDbEntity
  8
0
100
AcDbSpline
 62
9
  6
CONTINUOUS
 70
0
 71
3
 72
34
 73
30
 74
0
 42
0.0000001
 43
0.0000001
 44
0.0000000001
 40
0.0
 40
0.0
 40
0.0
 40
0.0
 40
0.0001491434
 40
0.000418959
 40
0.0013849858
 40
0.0029393178
 40
0.0050855477
 40
0.0078235713
 40
0.0111524379
 40
0.0150710516
 40
0.0195782186
 40
0.0303495925
 40
0.0434451062
 40
0.0588388614
 40
0.0764998126
 40
0.0963822304
 40
0.1184367375
 40
0.1426137578
 40
0.1688562892
 40
0.2272713136
 40
0.2931289065
 40
0.3657898711
 40
0.4445633868
 40
0.5286906642
 40
0.6173651145
 40
0.7097231926
 40
0.8048971706
 40
0.9020016939
 40
1.0
 40
1.0
 40
1.0
 40
1.0
 10
12.7108845739
 20
10.3880032036
 30
0.0
 10
12.7108860477
 20
10.3880034152
 30
0.0
 10
12.7108891878
 20
10.3880069773
 30
0.0
 10
12.7108939973
 20
10.3880196028
 30
0.0
 10
12.7108992834
 20
10.388047429
 30
0.0
 10
12.7109041368
 20
10.3880935547
 30
0.0
 10
12.710907757
 20
10.3881578466
 30
0.0
 10
12.7109095104
 20
10.3882397929
 30
0.0
 10
12.7109089293
 20
10.3883395002
 30
0.0
 10
12.7109055037
 20
10.3884568011
 30
0.0
 10
12.710896053
 20
10.3886482237
 30
0.0
 10
12.7108758524
 20
10.3889307845
 30
0.0
 10
12.7108419273
 20
10.3893212561
 30
0.0
 10
12.7107979152
 20
10.3897798689
 30
0.0
 10
12.7107448201
 20
10.3903056651
 30
0.0
 10
12.7106824388
 20
10.3908973507
 30
0.0
 10
12.7106106789
 20
10.3915534521
 30
0.0
 10
12.7105294029
 20
10.3922723793
 30
0.0
 10
12.7104038733
 20
10.3933515955
 30
0.0
 10
12.7102242795
 20
10.3948434158
 30
0.0
 10
12.7099821566
 20
10.3967944316
 30
0.0
 10
12.7097083927
 20
10.3989463075
 30
0.0
 10
12.7094053956
 20
10.4012783105
 30
0.0
 10
12.709076549
 20
10.4037681541
 30
0.0
 10
12.7087249706
 20
10.4063917831
 30
0.0
 10
12.7083522025
 20
10.409123829
 30
0.0
 10
12.7079632735
 20
10.4119386017
 30
0.0
 10
12.7075690033
 20
10.4148094715
 30
0.0
 10
12.7072970546
 20
10.4167381147
 30
0.0
 10
12.7071556353
 20
10.4177061521
 30
0.0
  0
SPLINE
  5
259
100
AcDbEntity
  8
0
100
AcDbSpline
 62
9
  6
CONTINUOUS
 70
0
 71
3
 72
42
 73
38
 74
0
 42
0.0000001
 43
0.0000001
 44
0.0000000001
 40
0.0
 40
0.0
 40
0.0
 40
0.0
 40
0.0034483138
 40
0.0069756877
 40
0.0106583833
 40
0.0145627352
 40
0.0187438511
 40
0.0232461281
 40
0.0281045253
 40
0.0333462737
 40
0.0389924935
 40
0.0450595613
 40
0.0515601986
 40
0.0585043092
 40
0.0658996848
 40
0.073752455
 40
0.0820674024
 40
0.0908482352
 40
0.1098172077
 40
0.1306752569
 40
0.1534220243
 40
0.1780445311
 40
0.2045138931
 40
0.2327916956
 40
0.2628404111
 40
0.2946225304
 40
0.3281008145
 40
0.3632374368
 40
0.3999934387
 40
0.438326698
 40
0.4781882266
 40
0.5195251667
 40
0.6063878694
 40
0.6983900739
 40
0.7950044535
 40
0.895726502
 40
1.0
 40
1.0
 40
1.0
 40
1.0
 10
13.158089906
 20
9.5941144534
 30
0.0
 10
13.1572576361
 20
9.5941081875
 30
0.0
 10
13.1555701269
 20
9.5942299474
 30
0.0
 10
13.1530547568
 20
9.5948114713
 30
0.0
 10
13.1505469939
 20
9.5957877696
 30
0.0
 10
13.1480489424
 20
9.5971540439
 30
0.0
 10
13.1455602441
 20
9.5989064678
 30
0.0
 10
13.1430803082
 20
9.6010422881
 30
0.0
 10
13.1406085468
 20
9.6035596177
 30
0.0
 10
13.1381447197
 20
9.6064570335
 30
0.0
 10
13.1356889286
 20
9.6097333391
 30
0.0
 10
13.1332415619
 20
9.6133874128
 30
0.0
 10
13.1308031851
 20
9.6174181191
 30
0.0
 10
13.128374474
 20
9.6218243037
 30
0.0
 10
13.1259561956
 20
9.6266048159
 30
0.0
 10
13.1235491832
 20
9.6317584974
 30
0.0
 10
13.1211542075
 20
9.6372841509
 30
0.0
 10
13.1178936986
 20
9.6453559331
 30
0.0
 10
13.1138766513
 20
9.6563828552
 30
0.0
 10
13.1092335342
 20
9.6707571732
 30
0.0
 10
13.1046586572
 20
9.6865788154
 30
0.0
 10
13.10015962
 20
9.7038252468
 30
0.0
 10
13.0957421175
 20
9.7224672476
 30
0.0
 10
13.0914114168
 20
9.7424715073
 30
0.0
 10
13.0871740362
 20
9.7638045218
 30
0.0
 10
13.0830360506
 20
9.7864341373
 30
0.0
 10
13.0790037602
 20
9.8103290526
 30
0.0
 10
13.0750833379
 20
9.8354582513
 30
0.0
 10
13.0712811556
 20
9.8617900735
 30
0.0
 10
13.067603544
 20
9.8892905277
 30
0.0
 10
13.0640558026
 20
9.9179224617
 30
0.0
 10
13.0594293905
 20
9.9582218823
 30
0.0
 10
13.0540399624
 20
10.011098815
 30
0.0
 10
13.0482597987
 20
10.0773394174
 30
0.0
 10
13.04309503
 20
10.1469855197
 30
0.0
 10
13.0385875918
 20
10.2196447038
 30
0.0
 10
13.0360749162
 20
10.2690602289
 30
0.0
 10
13.0349283122
 20
10.2942018019
 30
0.0
  0
SPLINE
  5
25A
100
AcDbEntity
  8
0
100
AcDbSpline
 62
9
  6
CONTINUOUS
 70
0
 71
3
 72
33
 73
29
 74
0
 42
0.0000001
 43
0.0000001
 44
0.0000000001
 40
0.0
 40
0.0
 40
0.0
 40
0.0
 40
0.0004389073
 40
0.001419431
 40
0.0029827383
 40
0.0051348538
 40
0.0078766534
 40
0.0112077373
 40
0.0151273979
 40
0.0196347942
 40
0.0304053419
 40
0.0434993722
 40
0.0588915104
 40
0.0765509337
 40
0.0964320025
 40
0.1184853884
 40
0.1426615402
 40
0.1689033962
 40
0.2273173514
 40
0.2931737623
 40
0.3658325068
 40
0.444602283
 40
0.5287241936
 40
0.6173918811
 40
0.7097421546
 40
0.8049086725
 40
0.9020076966
 40
1.0
 40
1.0
 40
1.0
 40
1.0
 10
12.7108864266
 20
10.9565424163
 30
0.0
 10
12.7108907613
 20
10.9565417758
 30
0.0
 10
12.7108975455
 20
10.9565255874
 30
0.0
 10
12.7109034189
 20
10.9564989763
 30
0.0
 10
12.7109094375
 20
10.9564510676
 30
0.0
 10
12.7109135692
 20
10.9563872999
 30
0.0
 10
12.7109158502
 20
10.9563049795
 30
0.0
 10
12.7109155135
 20
10.9562052881
 30
0.0
 10
12.7109121369
 20
10.9560879129
 30
0.0
 10
12.7109024146
 20
10.9558965038
 30
0.0
 10
12.7108813487
 20
10.9556140044
 30
0.0
 10
12.7108459857
 20
10.9552236884
 30
0.0
 10
12.7108003535
 20
10.9547652618
 30
0.0
 10
12.710745736
 20
10.9542396472
 30
0.0
 10
12.7106820289
 20
10.9536481204
 30
0.0
 10
12.710609248
 20
10.9529921401
 30
0.0
 10
12.7105273744
 20
10.95227328
 30
0.0
 10
12.7104016711
 20
10.9511940688
 30
0.0
 10
12.7102229925
 20
10.9497021119
 30
0.0
 10
12.709983299
 20
10.9477507654
 30
0.0
 10
12.7097118114
 20
10.9455985877
 30
0.0
 10
12.7094095713
 20
10.9432665076
 30
0.0
 10
12.7090797277
 20
10.9407768571
 30
0.0
 10
12.7087255098
 20
10.9381536802
 30
0.0
 10
12.7083493065
 20
10.935422221
 30
0.0
 10
12.707957983
 20
10.9326078776
 30
0.0
 10
12.7075662674
 20
10.9297367381
 30
0.0
 10
12.7072966735
 20
10.9278078009
 30
0.0
 10
12.7071556353
 20
10.9268397305
 30
0.0
  0
SPLINE
  5
25B
100
AcDbEntity
  8
0
100
AcDbSpline
 62
9
  6
CONTINUOUS
 70
0
 71
3
 72
15
 73
11
 74
0
 42
0.0000001
 43
0.0000001
 44
0.0000000001
 40
0.0
 40
0.0
 40
0.0
 40
0.0
 40
0.124596698
 40
0.2492408992
 40
0.3739922518
 40
0.4988857237
 40
0.6239415268
 40
0.7491621932
 40
0.87452348
 40
1.0
 40
1.0
 40
1.0
 40
1.0
 10
12.7128374774
 20
10.9561995139
 30
0.0
 10
12.7144929808
 20
10.9558518639
 30
0.0
 10
12.7177516819
 20
10.954869227
 30
0.0
 10
12.7223113633
 20
10.952581377
 30
0.0
 10
12.7264177542
 20
10.9495452826
 30
0.0
 10
12.7299495613
 20
10.9458494291
 30
0.0
 10
12.7328048698
 20
10.9416015543
 30
0.0
 10
12.7349004772
 20
10.936924701
 30
0.0
 10
12.7361762307
 20
10.9319567823
 30
0.0
 10
12.7364548017
 20
10.9285432802
 30
0.0
 10
12.7364497154
 20
10.9268397305
 30
0.0
  0
SPLINE
  5
25C
100
AcDbEntity
  8
0
100
AcDbSpline
 62
9
  6
CONTINUOUS
 70
0
 71
3
 72
33
 73
29
 74
0
 42
0.0000001
 43
0.0000001
 44
0.0000000001
 40
0.0
 40
0.0
 40
0.0
 40
0.0
 40
0.1101208876
 40
0.215881606
 40
0.3165558497
 40
0.4114876422
 40
0.5001125058
 40
0.5819591562
 40
0.656638355
 40
0.723876887
 40
0.7546442094
 40
0.7834880482
 40
0.8104002545
 40
0.8353773624
 40
0.8584242762
 40
0.8795508891
 40
0.8987761153
 40
0.9161290379
 40
0.9316509023
 40
0.9454025461
 40
0.9574714733
 40
0.9679870473
 40
0.9771439913
 40
0.9852328997
 40
0.9890090457
 40
0.992683394
 40
0.9963238639
 40
1.0
 40
1.0
 40
1.0
 40
1.0
 10
13.0349283122
 20
10.2942018019
 30
0.0
 10
13.0346159041
 20
10.3010597276
 30
0.0
 10
13.0339236691
 20
10.3145005792
 30
0.0
 10
13.0326560482
 20
10.3341947675
 30
0.0
 10
13.0311892922
 20
10.3529255751
 30
0.0
 10
13.0295353846
 20
10.370568212
 30
0.0
 10
13.0277090256
 20
10.3870134957
 30
0.0
 10
13.0257264244
 20
10.4021684348
 30
0.0
 10
13.0236026245
 20
10.415956809
 30
0.0
 10
13.02167789
 20
10.4265505663
 30
0.0
 10
13.0200657367
 20
10.4342928078
 30
0.0
 10
13.0188674992
 20
10.4395523456
 30
0.0
 10
13.0176462898
 20
10.4444353537
 30
0.0
 10
13.0164039958
 20
10.4489392755
 30
0.0
 10
13.0151427689
 20
10.4530622358
 30
0.0
 10
13.0138645134
 20
10.4568030162
 30
0.0
 10
13.0125711618
 20
10.4601609679
 30
0.0
 10
13.0112645947
 20
10.4631360637
 30
0.0
 10
13.0099463865
 20
10.4657288348
 30
0.0
 10
13.0086178556
 20
10.4679404933
 30
0.0
 10
13.0072796169
 20
10.4697729187
 30
0.0
 10
13.0059300976
 20
10.4712282395
 30
0.0
 10
13.0045664656
 20
10.4723074899
 30
0.0
 10
13.0033843365
 20
10.4729024486
 30
0.0
 10
13.0024488192
 20
10.4731638529
 30
0.0
 10
13.0017616757
 20
10.4732588388
 30
0.0
 10
13.0010743268
 20
10.4732567821
 30
0.0
 10
13.0006211929
 20
10.4731914862
 30
0.0
 10
13.0003970285
 20
10.4731438323
 30
0.0
  0
SPLINE
  5
25D
100
AcDbEntity
  8
0
100
AcDbSpline
 62
9
  6
CONTINUOUS
 70
0
 71
3
 72
15
 73
11
 74
0
 42
0.0000001
 43
0.0000001
 44
0.0000000001
 40
0.0
 40
0.0
 40
0.0
 40
0.0
 40
0.12460507
 40
0.2492453596
 40
0.3739950817
 40
0.498885969
 40
0.6239392143
 40
0.7491577813
 40
0.8745207847
 40
1.0
 40
1.0
 40
1.0
 40
1.0
 10
12.9766428108
 20
10.9010439952
 30
0.0
 10
12.9782980713
 20
10.9006960947
 30
0.0
 10
12.9815559914
 20
10.8997127004
 30
0.0
 10
12.9861143966
 20
10.8974242954
 30
0.0
 10
12.9902194084
 20
10.8943880497
 30
0.0
 10
12.9937499349
 20
10.8906923621
 30
0.0
 10
12.9966040894
 20
10.8864449405
 30
0.0
 10
12.9986988626
 20
10.881768745
 30
0.0
 10
12.9999738007
 20
10.8768015574
 30
0.0
 10
13.0002524127
 20
10.8733885921
 30
0.0
 10
13.0002470557
 20
10.8716853086
 30
0.0
  0
SPLINE
  5
25E
100
AcDbEntity
  8
0
100
AcDbSpline
 62
9
  6
CONTINUOUS
 70
0
 71
3
 72
44
 73
40
 74
0
 42
0.0000001
 43
0.0000001
 44
0.0000000001
 40
0.0
 40
0.0
 40
0.0
 40
0.0
 40
0.09588157
 40
0.1908556447
 40
0.2840259703
 40
0.3744971361
 40
0.4613976002
 40
0.5032635586
 40
0.5439468516
 40
0.5833530146
 40
0.6213878649
 40
0.6579575911
 40
0.6929688696
 40
0.7263342741
 40
0.7579881218
 40
0.787870769
 40
0.8159236145
 40
0.8420894887
 40
0.8663132226
 40
0.8885425095
 40
0.8988943275
 40
0.9087299915
 40
0.9180453466
 40
0.9268401055
 40
0.9351154655
 40
0.9428734602
 40
0.9501172017
 40
0.9568512111
 40
0.9630818774
 40
0.9688181005
 40
0.9740722058
 40
0.9788612497
 40
0.9832088838
 40
0.9871479625
 40
0.9907239992
 40
0.9939991975
 40
0.9970558251
 40
0.9985353378
 40
1.0
 40
1.0
 40
1.0
 40
1.0
 10
11.7964771812
 20
10.6722726227
 30
0.0
 10
11.7964771812
 20
10.7016773631
 30
0.0
 10
11.7968301988
 20
10.7602091425
 30
0.0
 10
11.7984010559
 20
10.8473014249
 30
0.0
 10
11.8009914832
 20
10.9327096298
 30
0.0
 10
11.8045801286
 20
11.0156035842
 30
0.0
 10
11.8084325777
 20
11.0827310932
 30
0.0
 10
11.8120097253
 20
11.1345747409
 30
0.0
 10
11.814883977
 20
11.1718655823
 30
0.0
 10
11.8179754479
 20
11.2079599881
 30
0.0
 10
11.8212767993
 20
11.2427688604
 30
0.0
 10
11.8247805955
 20
11.2762030986
 30
0.0
 10
11.8284794875
 20
11.3081752565
 30
0.0
 10
11.8323674019
 20
11.3386058221
 30
0.0
 10
11.8364323487
 20
11.3674257668
 30
0.0
 10
11.840662901
 20
11.3945742465
 30
0.0
 10
11.8450478185
 20
11.4199920748
 30
0.0
 10
11.8495756448
 20
11.4436203239
 30
0.0
 10
11.8542350228
 20
11.4653999491
 30
0.0
 10
11.8583082704
 20
11.4823404677
 30
0.0
 10
11.861644904
 20
11.4949140778
 30
0.0
 10
11.8641142163
 20
11.5036189756
 30
0.0
 10
11.8666091746
 20
11.511818718
 30
0.0
 10
11.8691278429
 20
11.5195092962
 30
0.0
 10
11.8716684839
 20
11.5266879993
 30
0.0
 10
11.874229472
 20
11.5333523971
 30
0.0
 10
11.876809189
 20
11.5395001206
 30
0.0
 10
11.8794060513
 20
11.5451288815
 30
0.0
 10
11.88201854
 20
11.5502364998
 30
0.0
 10
11.8846452583
 20
11.5548209346
 30
0.0
 10
11.8872850388
 20
11.5588803113
 30
0.0
 10
11.8899371057
 20
11.5624129171
 30
0.0
 10
11.8926014038
 20
11.5654170853
 30
0.0
 10
11.8952788138
 20
11.5678908304
 30
0.0
 10
11.8979719237
 20
11.5698308658
 30
0.0
 10
11.9006828039
 20
11.571231111
 30
0.0
 10
11.9029852228
 20
11.5719467467
 30
0.0
 10
11.9048067911
 20
11.5722262654
 30
0.0
 10
11.9057104119
 20
11.5722726227
 30
0.0
 10
11.9061595911
 20
11.5722726227
 30
0.0
  0
SPLINE
  5
25F
100
AcDbEntity
  8
0
100
AcDbSpline
 62
9
  6
CONTINUOUS
 70
0
 71
3
 72
15
 73
11
 74
0
 42
0.0000001
 43
0.0000001
 44
0.0000000001
 40
0.0
 40
0.0
 40
0.0
 40
0.0
 40
0.1245385898
 40
0.2491533719
 40
0.3738942664
 40
0.4988034287
 40
0.6238934451
 40
0.7491537933
 40
0.8745370322
 40
1.0
 40
1.0
 40
1.0
 40
1.0
 10
13.1285650425
 20
11.7804296696
 30
0.0
 10
13.1305004794
 20
11.7804134411
 30
0.0
 10
13.1343800697
 20
11.7799977839
 30
0.0
 10
13.1399593346
 20
11.7782499884
 30
0.0
 10
13.1450975036
 20
11.7754439432
 30
0.0
 10
13.1495962085
 20
11.7716869782
 30
0.0
 10
13.1532854548
 20
11.767122383
 30
0.0
 10
13.1560248311
 20
11.761923129
 30
0.0
 10
13.1577110371
 20
11.7562897635
 30
0.0
 10
13.1580901154
 20
11.752380663
 30
0.0
 10
13.158089906
 20
11.750430792
 30
0.0
  0
SPLINE
  5
260
100
AcDbEntity
  8
0
100
AcDbSpline
 62
9
  6
CONTINUOUS
 70
0
 71
3
 72
15
 73
11
 74
0
 42
0.0000001
 43
0.0000001
 44
0.0000000001
 40
0.0
 40
0.0
 40
0.0
 40
0.0
 40
0.124538621
 40
0.2491534053
 40
0.3738942897
 40
0.4988034367
 40
0.6238934402
 40
0.7491537825
 40
0.8745370227
 40
1.0
 40
1.0
 40
1.0
 40
1.0
 10
13.1285636099
 20
9.564115485
 30
0.0
 10
13.130499111
 20
9.5641316198
 30
0.0
 10
13.1343788486
 20
9.5645471145
 30
0.0
 10
13.139958366
 20
9.5662947485
 30
0.0
 10
13.1450967961
 20
9.5691007169
 30
0.0
 10
13.1495957478
 20
9.5728576865
 30
0.0
 10
13.1532852054
 20
9.5774223587
 30
0.0
 10
13.1560247393
 20
9.5826217482
 30
0.0
 10
13.1577110357
 20
9.5882552888
 30
0.0
 10
13.1580901236
 20
9.5921645188
 30
0.0
 10
13.158089906
 20
9.5941144534
 30
0.0
  0
SPLINE
  5
261
100
AcDbEntity
  8
0
100
AcDbSpline
 62
9
  6
CONTINUOUS
 70
0
 71
3
 72
15
 73
11
 74
0
 42
0.0000001
 43
0.0000001
 44
0.0000000001
 40
0.0
 40
0.0
 40
0.0
 40
0.0
 40
0.1246009764
 40
0.2492432667
 40
0.3739933779
 40
0.4988846752
 40
0.6239381593
 40
0.7491566626
 40
0.874520442
 40
1.0
 40
1.0
 40
1.0
 40
1.0
 10
12.9768587152
 20
10.4437995369
 30
0.0
 10
12.9785104122
 20
10.4441505233
 30
0.0
 10
12.9817607677
 20
10.44513919
 30
0.0
 10
12.9863074142
 20
10.4474319875
 30
0.0
 10
12.9904009231
 20
10.4504695296
 30
0.0
 10
12.9939209176
 20
10.4541635063
 30
0.0
 10
12.9967661304
 20
10.4584066662
 30
0.0
 10
12.9988541158
 20
10.4630765547
 30
0.0
 10
13.0001247765
 20
10.4680360333
 30
0.0
 10
13.0004024028
 20
10.4714433568
 30
0.0
 10
13.0003970285
 20
10.4731438323
 30
0.0
  0
SPLINE
  5
262
100
AcDbEntity
  8
0
100
AcDbSpline
 62
9
  6
CONTINUOUS
 70
0
 71
3
 72
15
 73
11
 74
0
 42
0.0000001
 43
0.0000001
 44
0.0000000001
 40
0.0
 40
0.0
 40
0.0
 40
0.0
 40
0.1245969022
 40
0.2492410315
 40
0.3739921819
 40
0.4988854262
 40
0.6239410781
 40
0.7491617403
 40
0.8745231659
 40
1.0
 40
1.0
 40
1.0
 40
1.0
 10
12.7128119694
 20
10.3883410239
 30
0.0
 10
12.7144688388
 20
10.3886874325
 30
0.0
 10
12.7177304615
 20
10.3896679944
 30
0.0
 10
12.7222947221
 20
10.3919540433
 30
0.0
 10
12.7264055958
 20
10.3949895991
 30
0.0
 10
12.7299415009
 20
10.3986860825
 30
0.0
 10
12.732800273
 20
10.4029355973
 30
0.0
 10
12.7348985016
 20
10.4076148953
 30
0.0
 10
12.7361758817
 20
10.4125858137
 30
0.0
 10
12.7364548095
 20
10.4160015109
 30
0.0
 10
12.7364497154
 20
10.4177061521
 30
0.0
  0
SPLINE
  5
263
100
AcDbEntity
  8
0
100
AcDbSpline
 62
9
  6
CONTINUOUS
 70
0
 71
3
 72
11
 73
7
 74
0
 42
0.0000001
 43
0.0000001
 44
0.0000000001
 40
0.0
 40
0.0
 40
0.0
 40
0.0
 40
0.2086175089
 40
0.4383642742
 40
0.6997463164
 40
1.0
 40
1.0
 40
1.0
 40
1.0
 10
12.9738140016
 20
10.9014974388
 30
0.0
 10
12.9739318693
 20
10.9015116914
 30
0.0
 10
12.9741760316
 20
10.9015773381
 30
0.0
 10
12.974527224
 20
10.9017710038
 30
0.0
 10
12.9748758566
 20
10.902059229
 30
0.0
 10
12.9750915494
 20
10.9022963505
 30
0.0
 10
12.9752000897
 20
10.902428328
 30
0.0
  0
SPLINE
  5
264
100
AcDbEntity
  8
0
100
AcDbSpline
 62
9
  6
CONTINUOUS
 70
0
 71
3
 72
26
 73
22
 74
0
 42
0.0000001
 43
0.0000001
 44
0.0000000001
 40
0.0
 40
0.0
 40
0.0
 40
0.0
 40
0.0064325997
 40
0.0143228486
 40
0.0237527598
 40
0.0347721588
 40
0.0474146674
 40
0.0617047282
 40
0.0776609537
 40
0.0952971328
 40
0.1146235237
 40
0.1356487144
 40
0.182811891
 40
0.236795163
 40
0.2975535495
 40
0.364986988
 40
0.4389279738
 40
0.5191286815
 40
0.6052655838
 40
0.7936567741
 40
1.0
 40
1.0
 40
1.0
 40
1.0
 10
12.9752000897
 20
10.902428328
 30
0.0
 10
12.9754185136
 20
10.9026939165
 30
0.0
 10
12.9758466581
 20
10.9033327713
 30
0.0
 10
12.9764296238
 20
10.9044622758
 30
0.0
 10
12.9770165629
 20
10.905860295
 30
0.0
 10
12.9776069748
 20
10.9075285507
 30
0.0
 10
12.9782006953
 20
10.9094690648
 30
0.0
 10
12.9787973851
 20
10.9116831227
 30
0.0
 10
12.9793968222
 20
10.9141718685
 30
0.0
 10
12.9799985707
 20
10.9169362158
 30
0.0
 10
12.9806020542
 20
10.9199769272
 30
0.0
 10
12.9814406624
 20
10.9245796131
 30
0.0
 10
12.9824776168
 20
10.9310284396
 30
0.0
 10
12.9836769531
 20
10.9396003694
 30
0.0
 10
12.9848664014
 20
10.9492664349
 30
0.0
 10
12.9860375916
 20
10.9600085384
 30
0.0
 10
12.9871822416
 20
10.971798156
 30
0.0
 10
12.9882878595
 20
10.9845953558
 30
0.0
 10
12.9897366378
 20
11.0035030274
 30
0.0
 10
12.99135115
 20
11.0291596746
 30
0.0
 10
12.9923405935
 20
11.0502388486
 30
0.0
 10
12.9927776408
 20
11.0612607405
 30
0.0
  0
SPLINE
  5
265
100
AcDbEntity
  8
0
100
AcDbSpline
 62
9
  6
CONTINUOUS
 70
0
 71
3
 72
42
 73
38
 74
0
 42
0.0000001
 43
0.0000001
 44
0.0000000001
 40
0.0
 40
0.0
 40
0.0
 40
0.0
 40
0.0036051699
 40
0.0073751013
 40
0.0113683116
 40
0.0156335823
 40
0.0202104875
 40
0.0251305058
 40
0.0304184486
 40
0.0360938053
 40
0.0421718876
 40
0.048664741
 40
0.0555818518
 40
0.0629306773
 40
0.0707170708
 40
0.0789456152
 40
0.0876199111
 40
0.0967429262
 40
0.1163431993
 40
0.1377572932
 40
0.1609772962
 40
0.1859847056
 40
0.2127480691
 40
0.2412328881
 40
0.2714053057
 40
0.3032303482
 40
0.3366719058
 40
0.3716929832
 40
0.4082558509
 40
0.4463207929
 40
0.5267773399
 40
0.5690563961
 40
0.6126200334
 40
0.7033535881
 40
0.7984900744
 40
0.8975406701
 40
1.0
 40
1.0
 40
1.0
 40
1.0
 10
13.1193650646
 20
9.5649698986
 30
0.0
 10
13.1184899546
 20
9.5651405662
 30
0.0
 10
13.1167233316
 20
9.5656217352
 30
0.0
 10
13.1141270617
 20
9.56671896
 30
0.0
 10
13.111539661
 20
9.5681997174
 30
0.0
 10
13.1089617811
 20
9.5700606349
 30
0.0
 10
13.1063927001
 20
9.572299337
 30
0.0
 10
13.1038320996
 20
9.5749140817
 30
0.0
 10
13.1012798291
 20
9.5779034993
 30
0.0
 10
13.0987360791
 20
9.5812664347
 30
0.0
 10
13.0962012723
 20
9.5850018053
 30
0.0
 10
13.0936759785
 20
9.5891085179
 30
0.0
 10
13.0911608818
 20
9.5935854515
 30
0.0
 10
13.088656681
 20
9.59843141
 30
0.0
 10
13.0861641047
 20
9.6036451527
 30
0.0
 10
13.0836839298
 20
9.6092254193
 30
0.0
 10
13.0812168551
 20
9.6151709687
 30
0.0
 10
13.0778655752
 20
9.6237919706
 30
0.0
 10
13.0737360469
 20
9.635487101
 30
0.0
 10
13.0689587695
 20
9.6506401245
 30
0.0
 10
13.0642549859
 20
9.6672105983
 30
0.0
 10
13.0596326407
 20
9.6851730038
 30
0.0
 10
13.055096313
 20
9.704497055
 30
0.0
 10
13.0506519142
 20
9.725150774
 30
0.0
 10
13.0463058884
 20
9.7471028327
 30
0.0
 10
13.0420641255
 20
9.7703224195
 30
0.0
 10
13.0379318276
 20
9.7947786351
 30
0.0
 10
13.033914405
 20
9.8204405665
 30
0.0
 10
13.0300170754
 20
9.8472769056
 30
0.0
 10
13.0248946012
 20
9.8852878563
 30
0.0
 10
13.0201651989
 20
9.9247759032
 30
0.0
 10
13.0157702007
 20
9.9656682161
 30
0.0
 10
13.0114388466
 20
10.0091224748
 30
0.0
 10
13.0064355916
 20
10.0656448547
 30
0.0
 10
13.0011448023
 20
10.1359115855
 30
0.0
 10
12.9964991629
 20
10.2091297563
 30
0.0
 10
12.9939156361
 20
10.2588994896
 30
0.0
 10
12.992733178
 20
10.2842111646
 30
0.0
  0
SPLINE
  5
266
100
AcDbEntity
  8
0
100
AcDbSpline
 62
7
  6
CONTINUOUS
 70
0
 71
3
 72
42
 73
38
 74
0
 42
0.0000001
 43
0.0000001
 44
0.0000000001
 40
0.0
 40
0.0
 40
0.0
 40
0.0
 40
0.002940443
 40
0.0059949417
 40
0.0092653547
 40
0.0128347747
 40
0.0167666203
 40
0.0211076714
 40
0.0258920753
 40
0.0311442726
 40
0.0368816304
 40
0.0431166731
 40
0.0498580293
 40
0.0571112135
 40
0.0648797725
 40
0.0731655189
 40
0.0819685122
 40
0.0912878503
 40
0.1011217808
 40
0.1114673408
 40
0.1336780669
 40
0.1578848533
 40
0.1840429746
 40
0.2120998826
 40
0.2419968584
 40
0.2736689174
 40
0.3070456977
 40
0.3420521175
 40
0.3786080871
 40
0.4166295286
 40
0.4560283658
 40
0.5385866804
 40
0.6255105181
 40
0.7159813461
 40
0.8091446133
 40
0.9041165885
 40
1.0
 40
1.0
 40
1.0
 40
1.0
 10
11.9160850511
 20
9.8597726227
 30
0.0
 10
11.9152709379
 20
9.8597726227
 30
0.0
 10
11.9136066684
 20
9.8599435595
 30
0.0
 10
11.9111416216
 20
9.8607029568
 30
0.0
 10
11.9086927635
 20
9.86195744
 30
0.0
 10
11.9062610048
 20
9.863699283
 30
0.0
 10
11.9038433167
 20
9.8659238281
 30
0.0
 10
11.9014377255
 20
9.8686289797
 30
0.0
 10
11.8990434489
 20
9.8718137315
 30
0.0
 10
11.8966604775
 20
9.8754769156
 30
0.0
 10
11.8942893634
 20
9.8796170649
 30
0.0
 10
11.8919312409
 20
9.8842324377
 30
0.0
 10
11.8895873457
 20
9.8893207743
 30
0.0
 10
11.8872588929
 20
9.8948793427
 30
0.0
 10
11.8849473344
 20
9.9009051378
 30
0.0
 10
11.8826541381
 20
9.9073947812
 30
0.0
 10
11.880380596
 20
9.914344482
 30
0.0
 10
11.8781281533
 20
9.9217502014
 30
0.0
 10
11.8758982333
 20
9.9296076096
 30
0.0
 10
11.8728850446
 20
9.9409511736
 30
0.0
 10
11.869205853
 20
9.9562326684
 30
0.0
 10
11.8649979572
 20
9.9758827067
 30
0.0
 10
11.8609101244
 20
9.9972083844
 30
0.0
 10
11.8569524402
 20
10.0201586871
 30
0.0
 10
11.8531350225
 20
10.0446787991
 30
0.0
 10
11.8494673213
 20
10.0707099186
 30
0.0
 10
11.8459584083
 20
10.0981895518
 30
0.0
 10
11.8426170331
 20
10.1270516404
 30
0.0
 10
11.8394513369
 20
10.1572267765
 30
0.0
 10
11.8364690515
 20
10.1886423538
 30
0.0
 10
11.8326881612
 20
10.2327740894
 30
0.0
 10
11.828501861
 20
10.2904575601
 30
0.0
 10
11.8243836354
 20
10.3623145983
 30
0.0
 10
11.8211375271
 20
10.4371552176
 30
0.0
 10
11.818795607
 20
10.514258714
 30
0.0
 10
11.8173810735
 20
10.5928833964
 30
0.0
 10
11.8170662096
 20
10.645725616
 30
0.0
 10
11.8170662096
 20
10.6722726227
 30
0.0
  0
SPLINE
  5
267
100
AcDbEntity
  8
0
100
AcDbSpline
 62
7
  6
CONTINUOUS
 70
0
 71
3
 72
43
 73
39
 74
0
 42
0.0000001
 43
0.0000001
 44
0.0000000001
 40
0.0
 40
0.0
 40
0.0
 40
0.0
 40
0.0958833238
 40
0.1908552945
 40
0.2840184496
 40
0.3744892255
 40
0.4614129923
 40
0.5032876908
 40
0.5439719568
 40
0.5833707184
 40
0.6213922014
 40
0.6579481165
 40
0.6929544683
 40
0.7263313182
 40
0.7580032801
 40
0.7879002456
 40
0.8159571991
 40
0.8421151948
 40
0.8663220552
 40
0.8885327586
 40
0.8988783405
 40
0.9087121391
 40
0.9180315486
 40
0.9268346016
 40
0.9351202102
 40
0.9428888067
 40
0.9501420803
 40
0.9568833138
 40
0.9631183552
 40
0.968855822
 40
0.9741079275
 40
0.9788922902
 40
0.9832334445
 40
0.987165241
 40
0.9907346061
 40
0.9940050825
 40
0.9970595718
 40
1.0
 40
1.0
 40
1.0
 40
1.0
 10
11.8064026421
 20
10.6722726227
 30
0.0
 10
11.8064026421
 20
10.6428667145
 30
0.0
 10
11.8067514131
 20
10.5843337802
 30
0.0
 10
11.8083182898
 20
10.4972418391
 30
0.0
 10
11.8109123696
 20
10.4118348419
 30
0.0
 10
11.8145082253
 20
10.3289346248
 30
0.0
 10
11.8183555542
 20
10.2617956911
 30
0.0
 10
11.8219297265
 20
10.2099405649
 30
0.0
 10
11.8248030039
 20
10.1726481291
 30
0.0
 10
11.8278950786
 20
10.1365590828
 30
0.0
 10
11.8311984508
 20
10.1017602979
 30
0.0
 10
11.8347050924
 20
10.0683355327
 30
0.0
 10
11.8384063277
 20
10.0363652168
 30
0.0
 10
11.8422930788
 20
10.0059262411
 30
0.0
 10
11.8463558016
 20
9.9770917671
 30
0.0
 10
11.8505843224
 20
9.949931028
 30
0.0
 10
11.8549681776
 20
9.9245091568
 30
0.0
 10
11.8594963087
 20
9.9008868668
 30
0.0
 10
11.8641572958
 20
9.8791206638
 30
0.0
 10
11.8682327569
 20
9.8621934465
 30
0.0
 10
11.8715703869
 20
9.8496282857
 30
0.0
 10
11.8740405271
 20
9.840924722
 30
0.0
 10
11.8765355025
 20
9.8327214472
 30
0.0
 10
11.8790538405
 20
9.8250232971
 30
0.0
 10
11.8815940792
 20
9.8178348056
 30
0.0
 10
11.8841545548
 20
9.8111600712
 30
0.0
 10
11.8867336892
 20
9.8050028489
 30
0.0
 10
11.8893300892
 20
9.7993665824
 30
0.0
 10
11.8919421748
 20
9.7942541796
 30
0.0
 10
11.8945685365
 20
9.7896680982
 30
0.0
 10
11.8972082091
 20
9.7856104649
 30
0.0
 10
11.8998603829
 20
9.7820827941
 30
0.0
 10
11.9025249131
 20
9.7790862003
 30
0.0
 10
11.9052030201
 20
9.7766221237
 30
0.0
 10
11.9078967352
 20
9.7746928412
 30
0.0
 10
11.9106092104
 20
9.7733030637
 30
0.0
 10
11.9133397659
 20
9.7724618917
 30
0.0
 10
11.915183268
 20
9.7722727029
 30
0.0
 10
11.9160850511
 20
9.7722727029
 30
0.0
  0
SPLINE
  5
268
100
AcDbEntity
  8
0
100
AcDbSpline
 62
9
  6
CONTINUOUS
 70
0
 71
3
 72
44
 73
40
 74
0
 42
0.0000001
 43
0.0000001
 44
0.0000000001
 40
0.0
 40
0.0
 40
0.0
 40
0.0
 40
0.0014646627
 40
0.0029441761
 40
0.0060008049
 40
0.0092760047
 40
0.0128520433
 40
0.0167911241
 40
0.0211387608
 40
0.0259278076
 40
0.0311819162
 40
0.036918143
 40
0.0431488133
 40
0.049882827
 40
0.0571265731
 40
0.0648845729
 40
0.0731599381
 40
0.0819547026
 40
0.0912700635
 40
0.1011057334
 40
0.1114575577
 40
0.1336868576
 40
0.1579106049
 40
0.1840764927
 40
0.2121293516
 40
0.2420120118
 40
0.2736658718
 40
0.3070312876
 40
0.3420425761
 40
0.3786123108
 40
0.4166471677
 40
0.4560533352
 40
0.4967366304
 40
0.5386025883
 40
0.6255030425
 40
0.715974185
 40
0.8091444731
 40
0.9041184962
 40
1.0
 40
1.0
 40
1.0
 40
1.0
 10
11.9061595896
 20
9.7722726227
 30
0.0
 10
11.9057104102
 20
9.7722726227
 30
0.0
 10
11.9048067891
 20
9.77231898
 30
0.0
 10
11.90298522
 20
9.7725984989
 30
0.0
 10
11.9006828003
 20
9.7733141352
 30
0.0
 10
11.897971919
 20
9.7747143816
 30
0.0
 10
11.8952788082
 20
9.7766544184
 30
0.0
 10
11.8926013971
 20
9.7791281655
 30
0.0
 10
11.8899370981
 20
9.782132336
 30
0.0
 10
11.8872850303
 20
9.7856649445
 30
0.0
 10
11.8846452488
 20
9.7897243242
 30
0.0
 10
11.8820185297
 20
9.7943087624
 30
0.0
 10
11.8794060401
 20
9.7994163843
 30
0.0
 10
11.876809177
 20
9.8050451492
 30
0.0
 10
11.8742294591
 20
9.8111928771
 30
0.0
 10
11.8716684703
 20
9.8178572794
 30
0.0
 10
11.8691278285
 20
9.8250359874
 30
0.0
 10
11.8666091595
 20
9.8327265707
 30
0.0
 10
11.8641142006
 20
9.8409263184
 30
0.0
 10
11.8616448877
 20
9.8496312218
 30
0.0
 10
11.8583082534
 20
9.8622048398
 30
0.0
 10
11.854235005
 20
9.8791453685
 30
0.0
 10
11.8495756264
 20
9.9009250061
 30
0.0
 10
11.8450477996
 20
9.9245532677
 30
0.0
 10
11.8406628818
 20
9.9499711084
 30
0.0
 10
11.8364323295
 20
9.9771196001
 30
0.0
 10
11.8323673829
 20
10.0059395562
 30
0.0
 10
11.8284794689
 20
10.0363701322
 30
0.0
 10
11.8247805775
 20
10.0683422993
 30
0.0
 10
11.8212767822
 20
10.1017765454
 30
0.0
 10
11.8179754319
 20
10.1365854237
 30
0.0
 10
11.8148839621
 20
10.1726798338
 30
0.0
 10
11.8120097118
 20
10.2099706771
 30
0.0
 10
11.8084325662
 20
10.2618143224
 30
0.0
 10
11.8045801198
 20
10.3289418212
 30
0.0
 10
11.8009914775
 20
10.4118357541
 30
0.0
 10
11.7984010529
 20
10.4972439245
 30
0.0
 10
11.7968301977
 20
10.5843361593
 30
0.0
 10
11.7964771806
 20
10.6428679025
 30
0.0
 10
11.7964771806
 20
10.6722726227
 30
0.0
  0
SPLINE
  5
269
100
AcDbEntity
  8
0
100
AcDbSpline
 62
9
  6
CONTINUOUS
 70
0
 71
3
 72
13
 73
9
 74
0
 42
0.0000001
 43
0.0000001
 44
0.0000000001
 40
0.0
 40
0.0
 40
0.0
 40
0.0
 40
0.2343112311
 40
0.3559617105
 40
0.4803357254
 40
0.6071881003
 40
0.7362563505
 40
1.0
 40
1.0
 40
1.0
 40
1.0
 10
10.4681125359
 20
11.7037859738
 30
0.0
 10
10.486568708
 20
11.6990790294
 30
0.0
 10
10.5143599906
 20
11.6909068771
 30
0.0
 10
10.5511886728
 20
11.6779193581
 30
0.0
 10
10.5793979023
 20
11.6668102313
 30
0.0
 10
10.6077398991
 20
11.6544475395
 30
0.0
 10
10.6458286623
 20
11.6361651117
 30
0.0
 10
10.6738531353
 20
11.6207835226
 30
0.0
 10
10.6922670524
 20
11.6098027078
 30
0.0
  0
SPLINE
  5
26A
100
AcDbEntity
  8
0
100
AcDbSpline
 62
9
  6
CONTINUOUS
 70
0
 71
3
 72
15
 73
11
 74
0
 42
0.0000001
 43
0.0000001
 44
0.0000000001
 40
0.0
 40
0.0
 40
0.0
 40
0.0
 40
0.1250040375
 40
0.1875113517
 40
0.2500165805
 40
0.3750210496
 40
0.4375263144
 40
0.5000290639
 40
0.7500140086
 40
1.0
 40
1.0
 40
1.0
 40
1.0
 10
12.5041312682
 20
10.933322094
 30
0.0
 10
12.5125612425
 20
10.9342955298
 30
0.0
 10
12.5252448221
 20
10.9354429811
 30
0.0
 10
12.5421899795
 20
10.9364196001
 30
0.0
 10
12.559151783
 20
10.9370530156
 30
0.0
 10
12.5761279902
 20
10.9371993565
 30
0.0
 10
12.5930983649
 20
10.9369098644
 30
0.0
 10
12.618541888
 20
10.9360654707
 30
0.0
 10
12.6566506174
 20
10.9333334168
 30
0.0
 10
12.6903534315
 20
10.9292236857
 30
0.0
 10
12.7071556353
 20
10.9268397305
 30
0.0
  0
ENDSEC
  0
SECTION
  2
OBJECTS
  0
DICTIONARY
  5
C
100
AcDbDictionary
280
0
281
1
  3
ACAD_GROUP
350
D
  3
ACAD_MLINESTYLE
350
17
  3
ACAD_LAYOUT
350
1A
  3
ACAD_PLOTSETTINGS
350
19
  3
ACAD_PLOTSTYLENAME
350
E
  0
DICTIONARY
  5
D
102
{ACAD_REACTORS
330
C
102
}
100
AcDbDictionary
280
0
281
1
  0
ACDBDICTIONARYWDFLT
  5
E
102
{ACAD_REACTORS
330
C
102
}
100
AcDbDictionary
281
1
  3
Normal
350
F
100
AcDbDictionaryWithDefault
340
F
  0
DICTIONARY
  5
17
102
{ACAD_REACTORS
330
C
102
}
100
AcDbDictionary
280
0
281
1
  3
Standard
350
18
  0
DICTIONARY
  5
19
102
{ACAD_REACTORS
330
C
102
}
100
AcDbDictionary
281
1
  0
DICTIONARY
  5
1A
102
{ACAD_REACTORS
330
C
102
}
100
AcDbDictionary
281
1
  3
Model
350
26B
  3
Layout1
350
26C
  0
ACDBPLACEHOLDER
  5
F
102
{ACAD_REACTORS
330
E
102
}
  0
MLINESTYLE
  5
18
102
{ACAD_REACTORS
330
17
102
}
100
AcDbMlineStyle
  2
STANDARD
 70
0
  3

 62
256
 51
90.0
 52
90.0
 71
2
 49
0.5
 62
256
  6
BYLAYER
 49
-0.5
 62
256
  6
BYLAYER
  0
LAYOUT
  5
26B
102
{ACAD_REACTORS
330
1A
102
}
100
AcDbPlotSettings
  1

  2
none_device
  4
ANSI_C_(22.00_x_17.00_Inches)
  6

 40
0.0
 41
0.0
 42
0.0
 43
0.0
 44
558.8
 45
431.8
 46
0.0
 47
0.0
 48
0.0
 49
0.0
140
0.0
141
0.0
142
1.0
143
1.0
 70
1024
 72
0
 73
0
 74
0
  7

 75
0
147
1.0
148
0.0
149
0.0
100
AcDbLayout
  1
Model
 70
0
 71
0
 10
0.0
 20
0.0
 11
22.0
 21
17.0
 12
0.0
 22
0.0
 32
0.0
 14
0.0
 24
0.0
 34
0.0
 15
0.0
 25
0.0
 35
0.0
146
0.0
 13
0.0
 23
0.0
 33
0.0
 16
1.0
 26
0.0
 36
0.0
 17
0.0
 27
1.0
 37
0.0
 76
0
330
205
345
0
346
0
  0
LAYOUT
  5
26C
102
{ACAD_REACTORS
330
1A
102
}
100
AcDbPlotSettings
  1

  2
none_device
  4
ANSI_C_(22.00_x_17.00_Inches)
  6

 40
0.0
 41
0.0
 42
0.0
 43
0.0
 44
558.8
 45
431.8
 46
0.0
 47
0.0
 48
0.0
 49
0.0
140
0.0
141
0.0
142
1.0
143
1.0
 70
0
 72
0
 73
0
 74
0
  7

 75
0
147
1.0
148
0.0
149
0.0
100
AcDbLayout
  1
Layout1
 70
0
 71
1
 10
0.0
 20
0.0
 11
22.0
 21
17.0
 12
0.0
 22
0.0
 32
0.0
 14
0.0
 24
0.0
 34
0.0
 15
0.0
 25
0.0
 35
0.0
146
0.0
 13
0.0
 23
0.0
 33
0.0
 16
1.0
 26
0.0
 36
0.0
 17
0.0
 27
1.0
 37
0.0
 76
0
330
206
345
0
346
0
  0
ENDSEC
  0
EOF
