999
DXF file: E:\BT Custom\CADOUTPUT\_FRONT.dxf
999
Pro/ENGINEER 2018400 by Parametric Technology Corporation
  0
SECTION
  2
HEADER
  9
$ACADVER
  1
AC1018
  9
$DWGCODEPAGE
  3
ANSI_1252
  9
$EXTMAX
 10
22.0
 20
17.0
 30
0.0
  9
$EXTMIN
 10
0.0
 20
0.0
 30
0.0
  9
$LIMMIN
 10
0.0
 20
0.0
  9
$LIMMAX
 10
22.0
 20
17.0
  9
$VIEWCTR
 10
11.0
 20
8.5
  9
$VIEWSIZE
 40
17.0
  9
$CLAYER
  8
0
  9
$LTSCALE
 40
1.21
  9
$CELTYPE
  6
BYLAYER
  9
$DIMSCALE
 40
1.0
  9
$DIMASZ
 40
0.1
  9
$DIMEXO
 40
0.0625
  9
$DIMDLI
 40
0.836
  9
$DIMEXE
 40
0.125
  9
$DIMCEN
 40
0.198
  9
$DIMLFAC
 40
1.0
  9
$DIMBLK
  1
_FILLED
  9
$DIMALT
 70
1
  9
$DIMALTD
 70
2
  9
$DIMALTTD
 70
2
  9
$DIMALTF
 40
25.4
  9
$DIMTXT
 40
0.08
  9
$DIMTOL
 70
1
  9
$DIMLIM
 70
0
  9
$DIMTFAC
 40
1.0
  9
$DIMTP
 40
0.001
  9
$DIMTM
 40
0.001
  9
$DIMGAP
 40
0.09
  9
$DIMDSEP
 70
46
  9
$AUNITS
 70
0
  9
$PDMODE
 70
3
  9
$PDSIZE
 40
0.06
  9
$HANDSEED
  5
25D
  9
$TILEMODE
 70
1
  9
$MEASUREMENT
 70
0
  9
$INSUNITS
 70
1
  0
ENDSEC
  0
SECTION
  2
CLASSES
  0
CLASS
  1
ACDBDICTIONARYWDFLT
  2
AcDbDictionaryWithDefault
  3
AutoCAD 2000
 90
0
 91
1
280
0
281
0
  0
CLASS
  1
ACDBPLACEHOLDER
  2
AcDbPlaceHolder
  3
AutoCAD 2000
 90
0
 91
1
280
0
281
0
  0
CLASS
  1
LAYOUT
  2
AcDbLayout
  3
AutoCAD 2000
 90
0
 91
0
280
0
281
0
  0
ENDSEC
  0
SECTION
  2
TABLES
  0
TABLE
  2
VPORT
  5
8
100
AcDbSymbolTable
 70
2
  0
VPORT
  5
1F4
100
AcDbSymbolTableRecord
100
AcDbViewportTableRecord
  2
*ACTIVE
 70
0
 10
0.0
 20
0.0
 11
1.0
 21
1.0
 12
11.0
 22
8.5
 13
0.0
 23
0.0
 14
1.0
 24
1.0
 15
0.0
 25
0.0
 16
0.0
 26
0.0
 36
1.0
 17
0.0
 27
0.0
 37
0.0
 40
17.0
 41
1.2941176471
 42
50.0
 43
0.0
 44
0.0
 50
0.0
 51
0.0
 71
0
 72
100
 73
1
 74
1
 75
0
 76
0
 77
0
 78
0
  0
ENDTAB
  0
TABLE
  2
LTYPE
  5
5
100
AcDbSymbolTable
 70
6
  0
LTYPE
  5
14
100
AcDbSymbolTableRecord
100
AcDbLinetypeTableRecord
  2
BYBLOCK
 70
0
  3

 72
65
 73
0
 40
0.0
  0
LTYPE
  5
15
100
AcDbSymbolTableRecord
100
AcDbLinetypeTableRecord
  2
BYLAYER
 70
0
  3

 72
65
 73
0
 40
0.0
  0
LTYPE
  5
16
100
AcDbSymbolTableRecord
100
AcDbLinetypeTableRecord
  2
CONTINUOUS
 70
64
  3
Solid line
 72
65
 73
0
 40
0.0
  0
LTYPE
  5
1F5
100
AcDbSymbolTableRecord
100
AcDbLinetypeTableRecord
  2
CENTER
 70
64
  3
____ _ ____ _ ____ _ ____ _ ____ _ ____ _ ____
 72
65
 73
4
 40
0.6
 49
0.375
 74
0
 49
-0.075
 74
0
 49
0.075
 74
0
 49
-0.075
 74
0
  0
LTYPE
  5
1F6
100
AcDbSymbolTableRecord
100
AcDbLinetypeTableRecord
  2
HIDDEN
 70
64
  3
- - - - - - - - - - - - - - - - - - - -
 72
65
 73
2
 40
0.2
 49
0.1
 74
0
 49
-0.1
 74
0
  0
LTYPE
  5
1F7
100
AcDbSymbolTableRecord
100
AcDbLinetypeTableRecord
  2
PHANTOM
 70
64
  3
_____ _ _ _____ _ _ _____ _ _ _____
 72
65
 73
6
 40
0.8
 49
0.45
 74
0
 49
-0.05
 74
0
 49
0.1
 74
0
 49
-0.05
 74
0
 49
0.1
 74
0
 49
-0.05
 74
0
  0
LTYPE
  5
1F8
100
AcDbSymbolTableRecord
100
AcDbLinetypeTableRecord
  2
DOT
 70
64
  3
. . . . . . . . . . . . . . . . . . . .
 72
65
 73
2
 40
0.2
 49
0.1
 74
0
 49
-0.1
 74
0
  0
LTYPE
  5
1F9
100
AcDbSymbolTableRecord
100
AcDbLinetypeTableRecord
  2
DASHED
 70
64
  3
- - - - - - - - - - - - - - - - - - - -
 72
65
 73
2
 40
0.2
 49
0.1
 74
0
 49
-0.1
 74
0
  0
ENDTAB
  0
TABLE
  2
LAYER
  5
2
100
AcDbSymbolTable
 70
36
  0
LAYER
  5
10
100
AcDbSymbolTableRecord
100
AcDbLayerTableRecord
  2
0
 70
0
 62
7
  6
CONTINUOUS
370
-3
390
F
  0
LAYER
  5
1FA
100
AcDbSymbolTableRecord
100
AcDbLayerTableRecord
  2
DEFAULT_1
 70
0
 62
7
  6
CENTER
370
-3
390
F
  0
LAYER
  5
1FB
100
AcDbSymbolTableRecord
100
AcDbLayerTableRecord
  2
DEFAULT_2
 70
0
 62
8
  6
HIDDEN
370
-3
390
F
  0
LAYER
  5
1FC
100
AcDbSymbolTableRecord
100
AcDbLayerTableRecord
  2
DEFAULT_3
 70
0
 62
7
  6
PHANTOM
370
-3
390
F
  0
LAYER
  5
1FD
100
AcDbSymbolTableRecord
100
AcDbLayerTableRecord
  2
ALL_FEATURES
 70
0
 62
7
  6
CONTINUOUS
370
-3
390
F
  0
LAYER
  5
1FE
100
AcDbSymbolTableRecord
100
AcDbLayerTableRecord
  2
AXES_FEATURES
 70
0
 62
7
  6
CONTINUOUS
370
-3
390
F
  0
LAYER
  5
1FF
100
AcDbSymbolTableRecord
100
AcDbLayerTableRecord
  2
DEFAULT_COORDINATE_SYSTEM
 70
0
 62
7
  6
CONTINUOUS
370
-3
390
F
  0
LAYER
  5
200
100
AcDbSymbolTableRecord
100
AcDbLayerTableRecord
  2
DEFAULT_DATUM_AXES
 70
0
 62
7
  6
CONTINUOUS
370
-3
390
F
  0
LAYER
  5
201
100
AcDbSymbolTableRecord
100
AcDbLayerTableRecord
  2
DEFAULT_DATUM_PLANES
 70
0
 62
7
  6
CONTINUOUS
370
-3
390
F
  0
LAYER
  5
202
100
AcDbSymbolTableRecord
100
AcDbLayerTableRecord
  2
DIMENSIONS
 70
0
 62
7
  6
CONTINUOUS
370
-3
390
F
  0
ENDTAB
  0
TABLE
  2
STYLE
  5
3
100
AcDbSymbolTable
 70
1
  0
STYLE
  5
11
100
AcDbSymbolTableRecord
100
AcDbTextStyleTableRecord
  2
STANDARD
 70
0
 40
0.0
 41
0.8
 50
0.0
 71
0
 42
0.2
  3
txt
  4

  0
STYLE
  5
203
100
AcDbSymbolTableRecord
100
AcDbTextStyleTableRecord
  2
TEXTSTYLE_1
 70
0
 40
0.0
 41
0.8
 50
0.0
 71
0
 42
0.2
  3
gdt
  4

  0
ENDTAB
  0
TABLE
  2
VIEW
  5
6
100
AcDbSymbolTable
 70
0
  0
ENDTAB
  0
TABLE
  2
UCS
  5
7
100
AcDbSymbolTable
 70
0
  0
ENDTAB
  0
TABLE
  2
APPID
  5
9
100
AcDbSymbolTable
 70
1
  0
APPID
  5
204
100
AcDbSymbolTableRecord
100
AcDbRegAppTableRecord
  2
ACAD
 70
0
  0
ENDTAB
  0
TABLE
  2
BLOCK_RECORD
  5
1
100
AcDbSymbolTable
 70
0
  0
BLOCK_RECORD
  5
205
100
AcDbSymbolTableRecord
100
AcDbBlockTableRecord
  2
*Model_Space
  0
BLOCK_RECORD
  5
206
100
AcDbSymbolTableRecord
100
AcDbBlockTableRecord
  2
*Paper_Space
  0
BLOCK_RECORD
  5
207
100
AcDbSymbolTableRecord
100
AcDbBlockTableRecord
  2
_FILLED
  0
ENDTAB
  0
TABLE
  2
DIMSTYLE
  5
A
100
AcDbSymbolTable
 70
1
100
AcDbDimStyleTable
 71
0
  0
DIMSTYLE
105
208
100
AcDbSymbolTableRecord
100
AcDbDimStyleTableRecord
  2
STANDARD
 70
0
  3

  4

 40
1.0
 41
0.1
 42
0.0625
 43
0.38
 44
0.125
 45
0.0
 46
0.0
 47
0.001
 48
0.001
140
0.08
141
0.09
142
0.0
143
25.4
144
1.0
145
0.0
146
1.0
147
0.09
 71
1.0
 72
0.0
 73
1
 74
1
 75
0
 76
0
 77
0
 78
4
 79
1
170
1
171
2
172
0
173
0
174
0
175
0
176
0
177
0
178
0
270
2
179
3
271
3
272
3
273
2
274
2
275
0
280
0
281
0
282
0
283
1
284
4
285
0
286
0
287
3
288
0
340
11
278
46
341
207
342
207
343
207
344
207
  0
ENDTAB
  0
ENDSEC
  0
SECTION
  2
BLOCKS
  0
BLOCK
  5
20
100
AcDbEntity
  8
0
100
AcDbBlockBegin
  2
*Model_Space
 70
0
 10
0.0
 20
0.0
 30
0.0
  3
*Model_Space
  1

  0
ENDBLK
  5
21
100
AcDbEntity
  8
0
100
AcDbBlockEnd
  0
BLOCK
  5
1C
100
AcDbEntity
  8
0
100
AcDbBlockBegin
  2
*Paper_Space
 70
0
 10
0.0
 20
0.0
 30
0.0
  3
*Paper_Space
  1

  0
ENDBLK
  5
1D
100
AcDbEntity
  8
0
100
AcDbBlockEnd
  0
BLOCK
  5
209
100
AcDbEntity
  8
0
100
AcDbBlockBegin
  2
_FILLED
 70
64
 10
0.0
 20
0.0
  3
_FILLED
  1

  0
SOLID
  5
20A
100
AcDbEntity
  8
0
  6
BYBLOCK
 62
0
100
AcDbTrace
 10
0.0
 20
0.0
 11
-1.0
 21
0.2
 12
-1.0
 22
-0.2
 13
-1.0
 23
-0.2
  0
ENDBLK
  5
20B
100
AcDbEntity
  8
0
  6
BYBLOCK
 62
0
100
AcDbBlockEnd
  0
ENDSEC
  0
SECTION
  2
ENTITIES
  0
LINE
  5
20C
100
AcDbEntity
  8
0
100
AcDbLine
 62
7
  6
CONTINUOUS
 10
9.1666042071
 20
4.6120602606
 11
11.1137264429
 21
4.6120602606
  0
LINE
  5
20D
100
AcDbEntity
  8
0
100
AcDbLine
 62
9
  6
CONTINUOUS
 10
9.1473535333
 20
4.637483503
 11
11.1329771166
 21
4.637483503
  0
LINE
  5
20E
100
AcDbEntity
  8
0
100
AcDbLine
 62
9
  6
CONTINUOUS
 10
11.0193744602
 20
5.0668665733
 11
9.2609561897
 21
5.0668665733
  0
LINE
  5
20F
100
AcDbEntity
  8
0
100
AcDbLine
 62
7
  6
CONTINUOUS
 10
11.000165325
 20
5.0820602606
 11
9.280165325
 21
5.0820602606
  0
LINE
  5
210
100
AcDbEntity
  8
0
100
AcDbLine
 62
7
  6
CONTINUOUS
 10
9.280165325
 20
5.0920602606
 11
11.000165325
 21
5.0920602606
  0
LINE
  5
211
100
AcDbEntity
  8
0
100
AcDbLine
 62
9
  6
CONTINUOUS
 10
9.2723192698
 20
5.1131037314
 11
11.0080113801
 21
5.1131037314
  0
LINE
  5
212
100
AcDbEntity
  8
0
100
AcDbLine
 62
7
  6
CONTINUOUS
 10
11.6713377914
 20
6.0359236479
 11
12.6936603276
 21
6.1614490716
  0
LINE
  5
213
100
AcDbEntity
  8
0
100
AcDbLine
 62
7
  6
CONTINUOUS
 10
11.6028276256
 20
6.1015636294
 11
11.6077903563
 21
6.1021729762
  0
LINE
  5
214
100
AcDbEntity
  8
0
100
AcDbLine
 62
9
  6
CONTINUOUS
 10
10.3868379144
 20
6.6408043417
 11
9.5557326077
 21
6.6408043417
  0
LINE
  5
215
100
AcDbEntity
  8
0
100
AcDbLine
 62
7
  6
CONTINUOUS
 10
11.5037478494
 20
6.9085036507
 11
11.5087105801
 21
6.9091129974
  0
LINE
  5
216
100
AcDbEntity
  8
0
100
AcDbLine
 62
7
  6
CONTINUOUS
 10
11.5543432217
 20
6.9887679535
 11
12.0813852282
 21
7.0534805748
  0
LINE
  5
217
100
AcDbEntity
  8
0
100
AcDbLine
 62
7
  6
CONTINUOUS
 10
12.3692236122
 20
7.0888226844
 11
12.5766657579
 21
7.1142933772
  0
LINE
  5
218
100
AcDbEntity
  8
0
100
AcDbLine
 62
7
  6
CONTINUOUS
 10
9.280165325
 20
5.0920602606
 11
9.280165325
 21
5.0820602606
  0
LINE
  5
219
100
AcDbEntity
  8
0
100
AcDbLine
 62
9
  6
CONTINUOUS
 10
10.5953647521
 20
7.7743690886
 11
9.6849658978
 21
7.7743690886
  0
LWPOLYLINE
  5
21A
100
AcDbEntity
  8
0
100
AcDbPolyline
 62
7
  6
CONTINUOUS
 90
19
 70
0
 10
9.7651673776
 20
12.1661847692
 10
9.7653602025
 20
12.1617090271
 10
9.7679265897
 20
12.1494574878
 10
9.7735417133
 20
12.1374096468
 10
9.782063313
 20
12.1259682341
 10
9.7934249558
 20
12.1151595056
 10
9.8076623294
 20
12.1049250592
 10
9.8248511815
 20
12.0952238529
 10
9.8450062978
 20
12.0860875451
 10
9.8678941664
 20
12.0776326444
 10
9.8930506362
 20
12.0700021768
 10
9.9200122726
 20
12.0632678139
 10
9.9485566307
 20
12.0574228737
 10
9.9784855659
 20
12.0524620632
 10
10.0096118708
 20
12.0483871858
 10
10.0417518733
 20
12.0452071122
 10
10.0747482084
 20
12.0429313812
 10
10.1084466298
 20
12.0415779039
 10
10.1401653251
 20
12.0411638599
  0
LINE
  5
21B
100
AcDbEntity
  8
0
100
AcDbLine
 62
7
  6
CONTINUOUS
 10
9.765165325
 20
9.4170602606
 11
9.765165325
 21
13.5482761414
  0
LINE
  5
21C
100
AcDbEntity
  8
0
100
AcDbLine
 62
7
  6
CONTINUOUS
 10
9.827665325
 20
9.3970602606
 11
9.827665325
 21
9.3820602606
  0
LINE
  5
21D
100
AcDbEntity
  8
0
100
AcDbLine
 62
9
  6
CONTINUOUS
 10
11.9059813308
 20
8.523058226
 11
12.1838942532
 21
8.5571816421
  0
LINE
  5
21E
100
AcDbEntity
  8
0
100
AcDbLine
 62
7
  6
CONTINUOUS
 10
11.9408084031
 20
8.5676348458
 11
12.1393176334
 21
8.5920087144
  0
LINE
  5
21F
100
AcDbEntity
  8
0
100
AcDbLine
 62
7
  6
CONTINUOUS
 10
10.452665325
 20
9.3970602606
 11
10.452665325
 21
9.3820602606
  0
LINE
  5
220
100
AcDbEntity
  8
0
100
AcDbLine
 62
7
  6
CONTINUOUS
 10
10.515165325
 20
9.4170602606
 11
10.515165325
 21
13.5482761414
  0
LINE
  5
221
100
AcDbEntity
  8
0
100
AcDbLine
 62
7
  6
CONTINUOUS
 10
11.000165325
 20
5.0920602606
 11
11.000165325
 21
5.0820602606
  0
LINE
  5
222
100
AcDbEntity
  8
0
100
AcDbLine
 62
9
  6
CONTINUOUS
 10
9.7651303453
 20
9.3521229746
 11
10.5152003046
 21
9.3521229746
  0
LINE
  5
223
100
AcDbEntity
  8
0
100
AcDbLine
 62
7
  6
CONTINUOUS
 10
9.7951302798
 20
9.3820602606
 11
10.4852003701
 21
9.3820602606
  0
LINE
  5
224
100
AcDbEntity
  8
0
100
AcDbLine
 62
7
  6
CONTINUOUS
 10
10.495165325
 20
9.3970602606
 11
9.785165325
 21
9.3970602606
  0
LINE
  5
225
100
AcDbEntity
  8
0
100
AcDbLine
 62
9
  6
CONTINUOUS
 10
10.515165325
 20
9.4170602606
 11
9.765165325
 21
9.4170602606
  0
LINE
  5
226
100
AcDbEntity
  8
0
100
AcDbLine
 62
7
  6
CONTINUOUS
 10
11.6093449601
 20
6.0484841989
 11
11.4972313345
 21
6.9615764049
  0
LINE
  5
227
100
AcDbEntity
  8
0
100
AcDbLine
 62
9
  6
CONTINUOUS
 10
11.6077903563
 20
6.1021729762
 11
11.5087105801
 21
6.9091129974
  0
LINE
  5
228
100
AcDbEntity
  8
0
100
AcDbLine
 62
7
  6
CONTINUOUS
 10
11.6267611716
 20
6.0707507202
 11
11.5195161494
 21
6.9441913337
  0
LINE
  5
229
100
AcDbEntity
  8
0
100
AcDbLine
 62
9
  6
CONTINUOUS
 10
11.6713377914
 20
6.0359236479
 11
11.5543432217
 21
6.9887679535
  0
LINE
  5
22A
100
AcDbEntity
  8
0
100
AcDbLine
 62
7
  6
CONTINUOUS
 10
12.0865286935
 20
7.0526179571
 11
11.9059813308
 21
8.523058226
  0
LINE
  5
22B
100
AcDbEntity
  8
0
100
AcDbLine
 62
7
  6
CONTINUOUS
 10
12.364441616
 20
7.0867413732
 11
12.1838942532
 21
8.5571816421
  0
LINE
  5
22C
100
AcDbEntity
  8
0
100
AcDbLine
 62
9
  6
CONTINUOUS
 10
12.5766657579
 20
7.1142933772
 11
12.6936603276
 21
6.1614490716
  0
LINE
  5
22D
100
AcDbEntity
  8
0
100
AcDbLine
 62
7
  6
CONTINUOUS
 10
12.6212423777
 20
7.0794663048
 11
12.7284873999
 21
6.2060256914
  0
LINE
  5
22E
100
AcDbEntity
  8
0
100
AcDbLine
 62
9
  6
CONTINUOUS
 10
9.765165325
 20
11.3290602606
 11
10.515165325
 21
11.3290602606
  0
LWPOLYLINE
  5
22F
100
AcDbEntity
  8
0
100
AcDbPolyline
 62
7
  6
CONTINUOUS
 90
19
 70
0
 10
10.1401653251
 20
12.0411641509
 10
10.1717245715
 20
12.0415736865
 10
10.205471893
 20
12.0429251944
 10
10.2385032731
 20
12.0452008353
 10
10.2706674224
 20
12.0483812775
 10
10.3018067697
 20
12.0524565472
 10
10.3317415722
 20
12.0574166773
 10
10.3602854027
 20
12.063260513
 10
10.3872449153
 20
12.0699923947
 10
10.4123977209
 20
12.0776198637
 10
10.4352844725
 20
12.086071162
 10
10.4554454381
 20
12.0952067229
 10
10.4726444357
 20
12.104909974
 10
10.4868942472
 20
12.115149755
 10
10.4982615092
 20
12.1259622317
 10
10.5067873357
 20
12.1374063222
 10
10.5124045305
 20
12.1494593968
 10
10.5149701129
 20
12.1617085708
 10
10.5151632635
 20
12.1661988047
  0
ARC
  5
230
100
AcDbEntity
  8
0
100
AcDbCircle
 62
7
  6
CONTINUOUS
 10
50.9251404687
 20
11.7980602606
 40
40.53
100
AcDbArc
 50
185.6975304446
 51
186.5062976735
  0
ARC
  5
231
100
AcDbEntity
  8
0
100
AcDbCircle
 62
7
  6
CONTINUOUS
 10
-30.6448098188
 20
11.7980602606
 40
40.53
100
AcDbArc
 50
352.6895568497
 51
354.3024695554
  0
ARC
  5
232
100
AcDbEntity
  8
0
100
AcDbCircle
 62
7
  6
CONTINUOUS
 10
-6.4691425347
 20
9.3860602606
 40
16.2343083524
100
AcDbArc
 50
354.3024695554
 51
359.8802249761
  0
ARC
  5
233
100
AcDbEntity
  8
0
100
AcDbCircle
 62
7
  6
CONTINUOUS
 10
26.7494731846
 20
9.3860602606
 40
16.2343083524
100
AcDbArc
 50
180.1197750239
 51
185.6975304446
  0
ARC
  5
234
100
AcDbEntity
  8
0
100
AcDbCircle
 62
7
  6
CONTINUOUS
 10
24.5314460703
 20
8.4120602606
 40
13.92
100
AcDbArc
 50
193.9051703414
 51
195.7334316632
  0
ARC
  5
235
100
AcDbEntity
  8
0
100
AcDbCircle
 62
7
  6
CONTINUOUS
 10
-4.2511154204
 20
8.4120602606
 40
13.92
100
AcDbArc
 50
344.2665683368
 51
346.0948296586
  0
ARC
  5
236
100
AcDbEntity
  8
0
100
AcDbCircle
 62
7
  6
CONTINUOUS
 10
-4.2511154204
 20
8.4120602606
 40
13.92
100
AcDbArc
 50
346.2908083396
 51
352.6895568497
  0
ARC
  5
237
100
AcDbEntity
  8
0
100
AcDbCircle
 62
7
  6
CONTINUOUS
 10
24.5314460703
 20
8.4120602606
 40
13.92
100
AcDbArc
 50
192.8126069975
 51
193.7091916604
  0
ARC
  5
238
100
AcDbEntity
  8
0
100
AcDbCircle
 62
7
  6
CONTINUOUS
 10
10.140165325
 20
13.5486011066
 40
0.375
100
AcDbArc
 50
0.0
 51
180.0
  0
ARC
  5
239
100
AcDbEntity
  8
0
100
AcDbCircle
 62
7
  6
CONTINUOUS
 10
12.5815405316
 20
7.0745915311
 40
0.04
100
AcDbArc
 50
7.0
 51
97.0
  0
ARC
  5
23A
100
AcDbEntity
  8
0
100
AcDbCircle
 62
7
  6
CONTINUOUS
 10
12.6887855538
 20
6.2011509177
 40
0.04
100
AcDbArc
 50
277.0
 51
7.0
  0
ARC
  5
23B
100
AcDbEntity
  8
0
100
AcDbCircle
 62
7
  6
CONTINUOUS
 10
11.6664630177
 20
6.075625494
 40
0.04
100
AcDbArc
 50
187.0
 51
277.0
  0
ARC
  5
23C
100
AcDbEntity
  8
0
100
AcDbCircle
 62
7
  6
CONTINUOUS
 10
11.5592179955
 20
6.9490661074
 40
0.04
100
AcDbArc
 50
97.0
 51
187.0
  0
ARC
  5
23D
100
AcDbEntity
  8
0
100
AcDbCircle
 62
7
  6
CONTINUOUS
 10
11.9456831768
 20
8.5279329997
 40
0.04
100
AcDbArc
 50
97.0
 51
187.0
  0
ARC
  5
23E
100
AcDbEntity
  8
0
100
AcDbCircle
 62
7
  6
CONTINUOUS
 10
12.1441924072
 20
8.5523068684
 40
0.04
100
AcDbArc
 50
7.0
 51
97.0
  0
ARC
  5
23F
100
AcDbEntity
  8
0
100
AcDbCircle
 62
7
  6
CONTINUOUS
 10
9.7951302798
 20
9.3520602606
 40
0.03
100
AcDbArc
 50
90.0
 51
179.8802249739
  0
ARC
  5
240
100
AcDbEntity
  8
0
100
AcDbCircle
 62
7
  6
CONTINUOUS
 10
10.4852003701
 20
9.3520602606
 40
0.03
100
AcDbArc
 50
0.1197750261
 51
90.0
  0
ARC
  5
241
100
AcDbEntity
  8
0
100
AcDbCircle
 62
7
  6
CONTINUOUS
 10
9.785165325
 20
9.4170602606
 40
0.02
100
AcDbArc
 50
180.0
 51
270.0
  0
ARC
  5
242
100
AcDbEntity
  8
0
100
AcDbCircle
 62
7
  6
CONTINUOUS
 10
9.1666042071
 20
4.6320602606
 40
0.02
100
AcDbArc
 50
164.2665682415
 51
270.0
  0
ARC
  5
243
100
AcDbEntity
  8
0
100
AcDbCircle
 62
7
  6
CONTINUOUS
 10
11.1137264429
 20
4.6320602606
 40
0.02
100
AcDbArc
 50
270.0
 51
15.7334317585
  0
ARC
  5
244
100
AcDbEntity
  8
0
100
AcDbCircle
 62
7
  6
CONTINUOUS
 10
10.9999605642
 20
5.0620602606
 40
0.02
100
AcDbArc
 50
13.9051704257
 51
89.4158008082
  0
ARC
  5
245
100
AcDbEntity
  8
0
100
AcDbCircle
 62
7
  6
CONTINUOUS
 10
9.2803700857
 20
5.0620602606
 40
0.02
100
AcDbArc
 50
90.5841991918
 51
166.0948295743
  0
ARC
  5
246
100
AcDbEntity
  8
0
100
AcDbCircle
 62
7
  6
CONTINUOUS
 10
9.291749491
 20
5.1083638472
 40
0.02
100
AcDbArc
 50
166.2907961603
 51
234.6051137469
  0
ARC
  5
247
100
AcDbEntity
  8
0
100
AcDbCircle
 62
7
  6
CONTINUOUS
 10
10.9885811589
 20
5.1083638472
 40
0.02
100
AcDbArc
 50
305.3948863575
 51
13.7092041223
  0
ARC
  5
248
100
AcDbEntity
  8
0
100
AcDbCircle
 62
7
  6
CONTINUOUS
 10
11.5894940378
 20
6.0460468065
 40
0.02
100
AcDbArc
 50
276.7406910387
 51
6.9999999875
  0
ARC
  5
249
100
AcDbEntity
  8
0
100
AcDbCircle
 62
7
  6
CONTINUOUS
 10
11.4773804101
 20
6.9591390292
 40
0.02
100
AcDbArc
 50
7.0000000008
 51
97.3553959438
  0
ARC
  5
24A
100
AcDbEntity
  8
0
100
AcDbCircle
 62
7
  6
CONTINUOUS
 10
10.495165325
 20
9.4170602606
 40
0.02
100
AcDbArc
 50
270.0
 51
360.0
  0
ARC
  5
24B
100
AcDbEntity
  8
0
100
AcDbCircle
 62
7
  6
CONTINUOUS
 10
11.50688254
 20
6.9240011897
 40
0.015
100
AcDbArc
 50
277.0
 51
7.0
  0
ARC
  5
24C
100
AcDbEntity
  8
0
100
AcDbCircle
 62
7
  6
CONTINUOUS
 10
11.6096183965
 20
6.0872847839
 40
0.015
100
AcDbArc
 50
7.0
 51
97.0
  0
SPLINE
  5
24D
100
AcDbEntity
  8
0
100
AcDbSpline
 62
7
  6
CONTINUOUS
 70
0
 71
3
 72
13
 73
9
 74
0
 42
0.0000001
 43
0.0000001
 44
0.0000000001
 40
0.0
 40
0.0
 40
0.0
 40
0.0
 40
0.0786764517
 40
0.298196079
 40
0.4493991888
 40
0.620961658
 40
0.8067736768
 40
1.0
 40
1.0
 40
1.0
 40
1.0
 10
12.3692236122
 20
7.0888226844
 30
0.0
 10
12.3656911042
 20
7.0872639082
 30
0.0
 10
12.3522435588
 20
7.0814843903
 30
0.0
 10
12.3316504965
 20
7.0735433328
 30
0.0
 10
12.3063483533
 20
7.0652615121
 30
0.0
 10
12.2822725935
 20
7.0586281773
 30
0.0
 10
12.2558495277
 20
7.0528931615
 30
0.0
 10
12.2374502879
 20
7.0500496782
 30
0.0
 10
12.2280373244
 20
7.0488939116
 30
0.0
  0
SPLINE
  5
24E
100
AcDbEntity
  8
0
100
AcDbSpline
 62
7
  6
CONTINUOUS
 70
0
 71
3
 72
46
 73
42
 74
0
 42
0.0000001
 43
0.0000001
 44
0.0000000001
 40
0.0
 40
0.0
 40
0.0
 40
0.0
 40
0.0293183019
 40
0.0599835905
 40
0.0917308411
 40
0.1242992396
 40
0.1574360365
 40
0.1909042128
 40
0.2244796086
 40
0.2579522115
 40
0.2911259664
 40
0.3238089577
 40
0.3558394969
 40
0.371575472
 40
0.387110956
 40
0.4024429172
 40
0.4175799837
 40
0.4473236499
 40
0.461978747
 40
0.4765180592
 40
0.4909696353
 40
0.5053649682
 40
0.5125531073
 40
0.5197409198
 40
0.5341346903
 40
0.5485845462
 40
0.563120379
 40
0.5925299531
 40
0.6224870534
 40
0.6376854832
 40
0.6530280048
 40
0.6841255812
 40
0.7157244308
 40
0.7477312128
 40
0.7800249561
 40
0.8124588357
 40
0.8770677903
 40
0.9088777947
 40
0.940100751
 40
0.970540086
 40
1.0
 40
1.0
 40
1.0
 40
1.0
 10
10.9580459607
 20
5.3251184947
 30
0.0
 10
10.9558529941
 20
5.336125836
 30
0.0
 10
10.9518022757
 20
5.3587350065
 30
0.0
 10
10.9468589823
 20
5.3935089482
 30
0.0
 10
10.9430263761
 20
5.4296750233
 30
0.0
 10
10.9404366198
 20
5.4669002476
 30
0.0
 10
10.9392217635
 20
5.5048557902
 30
0.0
 10
10.939505597
 20
5.5432164431
 30
0.0
 10
10.9414110218
 20
5.5816613098
 30
0.0
 10
10.9450615731
 20
5.619868798
 30
0.0
 10
10.9505772763
 20
5.6575104247
 30
0.0
 10
10.9581114756
 20
5.6942408609
 30
0.0
 10
10.9662518797
 20
5.7239723425
 30
0.0
 10
10.9739613127
 20
5.7469523989
 30
0.0
 10
10.9803133356
 20
5.7636296344
 30
0.0
 10
10.9872919342
 20
5.7798064084
 30
0.0
 10
10.9973779764
 20
5.8005395114
 30
0.0
 10
11.008794766
 20
5.8203169508
 30
0.0
 10
11.0215594611
 20
5.838931908
 30
0.0
 10
11.0317351809
 20
5.852195446
 30
0.0
 10
11.0425623678
 20
5.8648015671
 30
0.0
 10
11.0521367855
 20
5.8747445841
 30
0.0
 10
11.0601184079
 20
5.8823365319
 30
0.0
 10
11.0683174534
 20
5.8896922257
 30
0.0
 10
11.078973009
 20
5.8984633785
 30
0.0
 10
11.0923480735
 20
5.9083190092
 30
0.0
 10
11.1109961002
 20
5.9206620779
 30
0.0
 10
11.1356673506
 20
5.9345900177
 30
0.0
 10
11.1615968447
 20
5.9465889807
 30
0.0
 10
11.183082327
 20
5.9552435142
 30
0.0
 10
11.2052379455
 20
5.9633729127
 30
0.0
 10
11.2337215245
 20
5.9724365008
 30
0.0
 10
11.2687796867
 20
5.9817186505
 30
0.0
 10
11.3046376863
 20
5.9896342134
 30
0.0
 10
11.3410601199
 20
5.9963585797
 30
0.0
 10
11.3899882942
 20
6.0039777225
 30
0.0
 10
11.4389611323
 20
6.0099708733
 30
0.0
 10
11.4875495326
 20
6.0151473195
 30
0.0
 10
11.5231491408
 20
6.0187692845
 30
0.0
 10
11.55784927
 20
6.0223407634
 30
0.0
 10
11.58064171
 20
6.0248607034
 30
0.0
 10
11.5918416298
 20
6.0261844546
 30
0.0
  0
SPLINE
  5
24F
100
AcDbEntity
  8
0
100
AcDbSpline
 62
7
  6
CONTINUOUS
 70
0
 71
3
 72
40
 73
36
 74
0
 42
0.0000001
 43
0.0000001
 44
0.0000000001
 40
0.0
 40
0.0
 40
0.0
 40
0.0
 40
0.0281923251
 40
0.0564197406
 40
0.0847906963
 40
0.1133763063
 40
0.1422126559
 40
0.1712955908
 40
0.200600605
 40
0.2300944117
 40
0.2597508968
 40
0.289590431
 40
0.3196414702
 40
0.3347567145
 40
0.3499332232
 40
0.3651747169
 40
0.3804941361
 40
0.4114205382
 40
0.4428058495
 40
0.4746951351
 40
0.5070957456
 40
0.5399789938
 40
0.5732920087
 40
0.6069645522
 40
0.6409121485
 40
0.6750390874
 40
0.7092397372
 40
0.7434000994
 40
0.8111112317
 40
0.844407511
 40
0.8771552949
 40
0.9092211431
 40
0.9404715358
 40
0.9707742524
 40
1.0
 40
1.0
 40
1.0
 40
1.0
 10
10.656177706
 20
7.2055078103
 30
0.0
 10
10.6571960603
 20
7.1965785549
 30
0.0
 10
10.6602290379
 20
7.1788077968
 30
0.0
 10
10.6675968184
 20
7.152753927
 30
0.0
 10
10.677612667
 20
7.127465085
 30
0.0
 10
10.690111131
 20
7.1030935146
 30
0.0
 10
10.7049250718
 20
7.0797897271
 30
0.0
 10
10.7218925015
 20
7.0577163867
 30
0.0
 10
10.7408508315
 20
7.0370439118
 30
0.0
 10
10.7616388843
 20
7.0179414826
 30
0.0
 10
10.78411253
 20
7.0005742963
 30
0.0
 10
10.8081049703
 20
6.9850487772
 30
0.0
 10
10.8292014431
 20
6.9737342072
 30
0.0
 10
10.8466765975
 20
6.9656839476
 30
0.0
 10
10.8600973832
 20
6.9601441666
 30
0.0
 10
10.8737911271
 20
6.9551266206
 30
0.0
 10
10.8924463367
 20
6.949098532
 30
0.0
 10
10.9163989279
 20
6.9427909653
 30
0.0
 10
10.9458919932
 20
6.9370465627
 30
0.0
 10
10.9761277627
 20
6.9329360054
 30
0.0
 10
11.0070026995
 20
6.9302924417
 30
0.0
 10
11.0384150124
 20
6.9289844178
 30
0.0
 10
11.0702579083
 20
6.9288883307
 30
0.0
 10
11.1024234267
 20
6.9298791519
 30
0.0
 10
11.1348034154
 20
6.9318337296
 30
0.0
 10
11.1672903139
 20
6.9346199313
 30
0.0
 10
11.1997771652
 20
6.9381036451
 30
0.0
 10
11.2428208973
 20
6.9434846438
 30
0.0
 10
11.2854598566
 20
6.9497215814
 30
0.0
 10
11.3275795246
 20
6.9563513514
 30
0.0
 10
11.3584558302
 20
6.9613325427
 30
0.0
 10
11.3886866439
 20
6.9662192388
 30
0.0
 10
11.4181643435
 20
6.9708805569
 30
0.0
 10
11.4467811287
 20
6.9751856637
 30
0.0
 10
11.4655800089
 20
6.9777818907
 30
0.0
 10
11.4748199158
 20
6.9789746319
 30
0.0
  0
SPLINE
  5
250
100
AcDbEntity
  8
0
100
AcDbSpline
 62
7
  6
CONTINUOUS
 70
0
 71
3
 72
13
 73
9
 74
0
 42
0.0000001
 43
0.0000001
 44
0.0000000001
 40
0.0
 40
0.0
 40
0.0
 40
0.0
 40
0.1932263229
 40
0.3790383411
 40
0.5506008106
 40
0.7018039203
 40
0.9213235481
 40
1.0
 40
1.0
 40
1.0
 40
1.0
 10
12.2280373244
 20
7.0488939116
 30
0.0
 10
12.2186243609
 20
7.047738145
 30
0.0
 10
12.2000837562
 20
7.0460459857
 30
0.0
 10
12.1730581426
 20
7.0452183289
 30
0.0
 10
12.1480927868
 20
7.0458301718
 30
0.0
 10
12.1215386716
 20
7.0477448446
 30
0.0
 10
12.0996361955
 20
7.0504681061
 30
0.0
 10
12.0851899078
 20
7.052822692
 30
0.0
 10
12.0813852282
 20
7.0534805748
 30
0.0
  0
SPLINE
  5
251
100
AcDbEntity
  8
0
100
AcDbSpline
 62
9
  6
CONTINUOUS
 70
0
 71
3
 72
18
 73
14
 74
0
 42
0.0000001
 43
0.0000001
 44
0.0000000001
 40
0.0
 40
0.0
 40
0.0
 40
0.0
 40
0.1572308172
 40
0.3097482211
 40
0.4539525582
 40
0.5870355492
 40
0.7071896818
 40
0.7623577492
 40
0.8143768367
 40
0.863578268
 40
0.9104708295
 40
0.9557015234
 40
1.0
 40
1.0
 40
1.0
 40
1.0
 10
11.5016392336
 20
6.7683994019
 30
0.0
 10
11.5028970755
 20
6.7685242309
 30
0.0
 10
11.5053902289
 20
6.7686394743
 30
0.0
 10
11.5090398063
 20
6.7684083422
 30
0.0
 10
11.5124470945
 20
6.7677792456
 30
0.0
 10
11.5154915756
 20
6.7667747623
 30
0.0
 10
11.5177022211
 20
6.7656171936
 30
0.0
 10
11.5191702978
 20
6.7645228261
 30
0.0
 10
11.5200864854
 20
6.7636571317
 30
0.0
 10
11.5208402084
 20
6.7627304784
 30
0.0
 10
11.5214236648
 20
6.7617503263
 30
0.0
 10
11.5218294003
 20
6.7607263529
 30
0.0
 10
11.5219795692
 20
6.7600182086
 30
0.0
 10
11.5220229702
 20
6.7596647357
 30
0.0
  0
SPLINE
  5
252
100
AcDbEntity
  8
0
100
AcDbSpline
 62
9
  6
CONTINUOUS
 70
0
 71
3
 72
33
 73
29
 74
0
 42
0.0000001
 43
0.0000001
 44
0.0000000001
 40
0.0
 40
0.0
 40
0.0
 40
0.0
 40
0.0133259303
 40
0.0269811637
 40
0.0412666901
 40
0.056440873
 40
0.0727115381
 40
0.0902387546
 40
0.1091392141
 40
0.1294949157
 40
0.1513582057
 40
0.1747589297
 40
0.1997073832
 40
0.2261990262
 40
0.2542159307
 40
0.2837298113
 40
0.314702796
 40
0.3470892392
 40
0.3808363084
 40
0.415885033
 40
0.4521709378
 40
0.4896244946
 40
0.5677315494
 40
0.6495736771
 40
0.7344628706
 40
0.8216717692
 40
0.9104425545
 40
1.0
 40
1.0
 40
1.0
 40
1.0
 10
10.5151652094
 20
12.1661968881
 30
0.0
 10
10.5151625376
 20
12.1680197077
 30
0.0
 10
10.5148472524
 20
12.1717169111
 30
0.0
 10
10.5134544603
 20
12.1772101337
 30
0.0
 10
10.511152211
 20
12.1826621395
 30
0.0
 10
10.5079535835
 20
12.1880572112
 30
0.0
 10
10.5038726394
 20
12.1933864016
 30
0.0
 10
10.4989214516
 20
12.1986402152
 30
0.0
 10
10.4931131503
 20
12.20380998
 30
0.0
 10
10.4864610629
 20
12.208885396
 30
0.0
 10
10.4789806959
 20
12.2138563932
 30
0.0
 10
10.4706890052
 20
12.2187117772
 30
0.0
 10
10.4616052901
 20
12.2234408662
 30
0.0
 10
10.451750633
 20
12.2280324373
 30
0.0
 10
10.4411482431
 20
12.2324758476
 30
0.0
 10
10.4298231437
 20
12.2367603618
 30
0.0
 10
10.4178022542
 20
12.2408758379
 30
0.0
 10
10.405114208
 20
12.2448123167
 30
0.0
 10
10.391789308
 20
12.2485603213
 30
0.0
 10
10.3778594566
 20
12.2521107974
 30
0.0
 10
10.3633579932
 20
12.2554552065
 30
0.0
 10
10.3430217868
 20
12.2596879665
 30
0.0
 10
10.3164228402
 20
12.2643797999
 30
0.0
 10
10.283245802
 20
12.2690005241
 30
0.0
 10
10.2486952324
 20
12.2726421965
 30
0.0
 10
10.2131028115
 20
12.2752690346
 30
0.0
 10
10.1768102632
 20
12.2768558319
 30
0.0
 10
10.1524156703
 20
12.2772085526
 30
0.0
 10
10.140165325
 20
12.2772088119
 30
0.0
  0
SPLINE
  5
253
100
AcDbEntity
  8
0
100
AcDbSpline
 62
9
  6
CONTINUOUS
 70
0
 71
3
 72
42
 73
38
 74
0
 42
0.0000001
 43
0.0000001
 44
0.0000000001
 40
0.0
 40
0.0
 40
0.0
 40
0.0
 40
0.0000227298
 40
0.0000904885
 40
0.0002032447
 40
0.0003609673
 40
0.0008111865
 40
0.001440896
 40
0.0022498461
 40
0.003237787
 40
0.0044044738
 40
0.005749759
 40
0.0089759104
 40
0.0129158357
 40
0.0175690388
 40
0.0229330538
 40
0.0290036279
 40
0.0357764322
 40
0.0514017548
 40
0.0697404807
 40
0.0907175275
 40
0.1142467719
 40
0.140205364
 40
0.1684639865
 40
0.1988956434
 40
0.2313590579
 40
0.265701429
 40
0.301759161
 40
0.3393693214
 40
0.4185645321
 40
0.501823996
 40
0.5876310538
 40
0.6744134577
 40
0.7605869681
 40
0.8445850116
 40
0.9248712994
 40
1.0
 40
1.0
 40
1.0
 40
1.0
 10
11.5918416298
 20
6.0261844546
 30
0.0
 10
11.591840968
 20
6.0261900811
 30
0.0
 10
11.591840113
 20
6.0262126456
 30
0.0
 10
11.5918360389
 20
6.0262631275
 30
0.0
 10
11.5918306778
 20
6.026347271
 30
0.0
 10
11.5918182162
 20
6.0265264641
 30
0.0
 10
11.5917972358
 20
6.0268342335
 30
0.0
 10
11.5917646524
 20
6.0273038983
 30
0.0
 10
11.5917226185
 20
6.0279072572
 30
0.0
 10
11.5916708533
 20
6.028644101
 30
0.0
 10
11.5916092926
 20
6.0295142657
 30
0.0
 10
11.5915075394
 20
6.030940846
 30
0.0
 10
11.5913543973
 20
6.0330567353
 30
0.0
 10
11.591137343
 20
6.035994638
 30
0.0
 10
11.5908756306
 20
6.0394635439
 30
0.0
 10
11.5905666852
 20
6.0434614456
 30
0.0
 10
11.5902073421
 20
6.0479853211
 30
0.0
 10
11.5896289436
 20
6.055057425
 30
0.0
 10
11.5887618639
 20
6.065173883
 30
0.0
 10
11.5875201076
 20
6.0788113827
 30
0.0
 10
11.5860119165
 20
6.094402569
 30
0.0
 10
11.5842180337
 20
6.1118739003
 30
0.0
 10
11.5821416459
 20
6.1311404028
 30
0.0
 10
11.5797863263
 20
6.1521069866
 30
0.0
 10
11.5771557204
 20
6.1746739349
 30
0.0
 10
11.5742646761
 20
6.1987369745
 30
0.0
 10
11.5711335024
 20
6.2241834028
 30
0.0
 10
11.5677928051
 20
6.2508964643
 30
0.0
 10
11.5630101768
 20
6.2886956325
 30
0.0
 10
11.5566723884
 20
6.3381566222
 30
0.0
 10
11.548758217
 20
6.3995266794
 30
0.0
 10
11.5405997566
 20
6.4627719746
 30
0.0
 10
11.5323702958
 20
6.5267404409
 30
0.0
 10
11.5242322659
 20
6.5902660565
 30
0.0
 10
11.5163376569
 20
6.6521904819
 30
0.0
 10
11.5088306186
 20
6.7113891478
 30
0.0
 10
11.5039801395
 20
6.7498208393
 30
0.0
 10
11.5016392302
 20
6.768399474
 30
0.0
  0
SPLINE
  5
254
100
AcDbEntity
  8
0
100
AcDbSpline
 62
9
  6
CONTINUOUS
 70
0
 71
3
 72
40
 73
36
 74
0
 42
0.0000001
 43
0.0000001
 44
0.0000000001
 40
0.0
 40
0.0
 40
0.0
 40
0.0
 40
0.0065118973
 40
0.0133662084
 40
0.0205804622
 40
0.0281678593
 40
0.0361380483
 40
0.0444977779
 40
0.0532514358
 40
0.0624014874
 40
0.0719486675
 40
0.0818917452
 40
0.1029535252
 40
0.1255635004
 40
0.1496888913
 40
0.1752954319
 40
0.2023557596
 40
0.2308376604
 40
0.2607020037
 40
0.2919029338
 40
0.3243800469
 40
0.358060213
 40
0.392862462
 40
0.410657123
 40
0.4286950696
 40
0.465432857
 40
0.5029398057
 40
0.5410796299
 40
0.6187190574
 40
0.6972996071
 40
0.7757748667
 40
0.8530888116
 40
0.9281828649
 40
0.9645670126
 40
1.0
 40
1.0
 40
1.0
 40
1.0
 10
10.3868379144
 20
6.6408043417
 30
0.0
 10
10.388781717
 20
6.6392772458
 30
0.0
 10
10.3928942584
 20
6.6362966863
 30
0.0
 10
10.3995208144
 20
6.6321494154
 30
0.0
 10
10.4067462833
 20
6.6282189915
 30
0.0
 10
10.4145587107
 20
6.6245101484
 30
0.0
 10
10.4229468015
 20
6.6210273022
 30
0.0
 10
10.4318990616
 20
6.6177751616
 30
0.0
 10
10.4414040214
 20
6.6147584851
 30
0.0
 10
10.4514500774
 20
6.6119821796
 30
0.0
 10
10.4620253524
 20
6.6094510761
 30
0.0
 10
10.4771064306
 20
6.6063538899
 30
0.0
 10
10.4972226004
 20
6.6031826413
 30
0.0
 10
10.5228336906
 20
6.6005456867
 30
0.0
 10
10.5502653593
 20
6.5990699447
 30
0.0
 10
10.5794234075
 20
6.598818998
 30
0.0
 10
10.6102197809
 20
6.5997749849
 30
0.0
 10
10.6425751789
 20
6.6019177535
 30
0.0
 10
10.6764111038
 20
6.6052263265
 30
0.0
 10
10.7116427609
 20
6.6096844094
 30
0.0
 10
10.7481990663
 20
6.6151279092
 30
0.0
 10
10.7860102813
 20
6.6213851634
 30
0.0
 10
10.8182601953
 20
6.6270936894
 30
0.0
 10
10.844639404
 20
6.6318975638
 30
0.0
 10
10.8717265187
 20
6.6369145423
 30
0.0
 10
10.9061433357
 20
6.6434442275
 30
0.0
 10
10.9480149147
 20
6.6516153908
 30
0.0
 10
11.0050712774
 20
6.6630340445
 30
0.0
 10
11.077317593
 20
6.6779986802
 30
0.0
 10
11.1644534303
 20
6.6965590435
 30
0.0
 10
11.2514197506
 20
6.7153200479
 30
0.0
 10
11.3370888374
 20
6.7338180194
 30
0.0
 10
11.4071745766
 20
6.7487839697
 30
0.0
 10
11.4617575755
 20
6.7602175959
 30
0.0
 10
11.488459295
 20
6.7657157891
 30
0.0
 10
11.5016392302
 20
6.768399474
 30
0.0
  0
SPLINE
  5
255
100
AcDbEntity
  8
0
100
AcDbSpline
 62
9
  6
CONTINUOUS
 70
0
 71
3
 72
31
 73
27
 74
0
 42
0.0000001
 43
0.0000001
 44
0.0000000001
 40
0.0
 40
0.0
 40
0.0
 40
0.0
 40
0.2196945248
 40
0.41722636
 40
0.5068258463
 40
0.5898517952
 40
0.6659526371
 40
0.7347711287
 40
0.7959846002
 40
0.8494226507
 40
0.894957624
 40
0.9147236862
 40
0.9324692977
 40
0.9481803336
 40
0.9618426729
 40
0.9734421555
 40
0.9829645709
 40
0.986942435
 40
0.9903956998
 40
0.9933225953
 40
0.9957213633
 40
0.9975902459
 40
0.9989274851
 40
0.9993961889
 40
0.9997313226
 40
1.0
 40
1.0
 40
1.0
 40
1.0
 10
11.5016392302
 20
6.768399474
 30
0.0
 10
11.4996944915
 20
6.7838227031
 30
0.0
 10
11.4960083985
 20
6.8131141802
 30
0.0
 10
11.4915360283
 20
6.8486966781
 30
0.0
 10
11.4882664542
 20
6.8746837428
 30
0.0
 10
11.486065167
 20
6.8921451461
 30
0.0
 10
11.4840384752
 20
6.9081464781
 30
0.0
 10
11.4821950011
 20
6.9226152534
 30
0.0
 10
11.4805446123
 20
6.9354920674
 30
0.0
 10
11.4790946773
 20
6.9467335751
 30
0.0
 10
11.4780119994
 20
6.9550653803
 30
0.0
 10
11.4772479394
 20
6.9608917894
 30
0.0
 10
11.476755112
 20
6.9646253871
 30
0.0
 10
11.4763159985
 20
6.9679304343
 30
0.0
 10
11.4759315843
 20
6.9708040326
 30
0.0
 10
11.4756029785
 20
6.9732432944
 30
0.0
 10
11.4753643098
 20
6.9750032178
 30
0.0
 10
11.475202309
 20
6.9761918438
 30
0.0
 10
11.4751030522
 20
6.9769180146
 30
0.0
 10
11.4750186764
 20
6.9775334455
 30
0.0
 10
11.4749493992
 20
6.9780377875
 30
0.0
 10
11.4748951313
 20
6.9784306553
 30
0.0
 10
11.4748597778
 20
6.9786882632
 30
0.0
 10
11.4748386661
 20
6.9788382918
 30
0.0
 10
11.4748288165
 20
6.9789135314
 30
0.0
 10
11.4748218263
 20
6.9789557168
 30
0.0
 10
11.4748199158
 20
6.9789746319
 30
0.0
  0
SPLINE
  5
256
100
AcDbEntity
  8
0
100
AcDbSpline
 62
9
  6
CONTINUOUS
 70
0
 71
3
 72
59
 73
55
 74
0
 42
0.0000001
 43
0.0000001
 44
0.0000000001
 40
0.0
 40
0.0
 40
0.0
 40
0.0
 40
0.0851284703
 40
0.127494566
 40
0.1696912195
 40
0.2116931946
 40
0.2534723921
 40
0.2949990072
 40
0.3362414741
 40
0.4176965213
 40
0.4974402182
 40
0.5365105283
 40
0.5749451305
 40
0.6126528963
 40
0.6495309365
 40
0.6854703152
 40
0.7203436199
 40
0.7540160597
 40
0.786332031
 40
0.8171220422
 40
0.8461973481
 40
0.8733543879
 40
0.8983897989
 40
0.9100483926
 40
0.9211013684
 40
0.9315248239
 40
0.9412947675
 40
0.9503876708
 40
0.9587807107
 40
0.966451067
 40
0.973376937
 40
0.9795393528
 40
0.9849197931
 40
0.987311142
 40
0.9895009832
 40
0.9914879175
 40
0.9932705444
 40
0.9948474629
 40
0.9962172712
 40
0.9973785229
 40
0.9978804278
 40
0.9983295672
 40
0.9987257279
 40
0.9990686972
 40
0.9993582638
 40
0.9995942189
 40
0.9997763597
 40
0.999847191
 40
0.9999045022
 40
0.9999482807
 40
0.9999785335
 40
0.9999886111
 40
0.9999953676
 40
1.0
 40
1.0
 40
1.0
 40
1.0
 10
10.3868379144
 20
6.6408043417
 30
0.0
 10
10.3912568881
 20
6.6581275607
 30
0.0
 10
10.3981840673
 20
6.683995708
 30
0.0
 10
10.4081666568
 20
6.7182073044
 30
0.0
 10
10.4160297492
 20
6.7435991149
 30
0.0
 10
10.4243047417
 20
6.7687299414
 30
0.0
 10
10.4329645405
 20
6.7935816852
 30
0.0
 10
10.4419860775
 20
6.8181345597
 30
0.0
 10
10.4544104734
 20
6.850309202
 30
0.0
 10
10.470683696
 20
6.8895951718
 30
0.0
 10
10.488045424
 20
6.927912032
 30
0.0
 10
10.5024047778
 20
6.9576521219
 30
0.0
 10
10.5132747094
 20
6.9792702245
 30
0.0
 10
10.5242720049
 20
7.0003054938
 30
0.0
 10
10.5353433783
 20
7.020707547
 30
0.0
 10
10.5464329309
 20
7.0404193798
 30
0.0
 10
10.5574698871
 20
7.0593855803
 30
0.0
 10
10.5683797226
 20
7.0775428326
 30
0.0
 10
10.5790819918
 20
7.0948221348
 30
0.0
 10
10.5894908637
 20
7.1111454907
 30
0.0
 10
10.5995132451
 20
7.126428526
 30
0.0
 10
10.6090542841
 20
7.1405802587
 30
0.0
 10
10.6166841261
 20
7.151607838
 30
0.0
 10
10.622458594
 20
7.1598057212
 30
0.0
 10
10.6264951408
 20
7.1654741163
 30
0.0
 10
10.6303269519
 20
7.1708012755
 30
0.0
 10
10.6339398326
 20
7.1757787699
 30
0.0
 10
10.6373202267
 20
7.1803980578
 30
0.0
 10
10.6404556815
 20
7.1846501513
 30
0.0
 10
10.6433338163
 20
7.1885265011
 30
0.0
 10
10.6459428722
 20
7.1920191471
 30
0.0
 10
10.6482724354
 20
7.1951202837
 30
0.0
 10
10.6500355664
 20
7.1974558488
 30
0.0
 10
10.6512985297
 20
7.1991236693
 30
0.0
 10
10.6521322116
 20
7.2002226087
 30
0.0
 10
10.6528893965
 20
7.2012191179
 30
0.0
 10
10.6535692748
 20
7.2021127034
 30
0.0
 10
10.6541710288
 20
7.2029028774
 30
0.0
 10
10.6546938677
 20
7.2035891206
 30
0.0
 10
10.6550797403
 20
7.2040958918
 30
0.0
 10
10.6553486146
 20
7.2044487277
 30
0.0
 10
10.6555202398
 20
7.2046736575
 30
0.0
 10
10.655671828
 20
7.2048718901
 30
0.0
 10
10.6558033613
 20
7.2050432727
 30
0.0
 10
10.655914798
 20
7.2051876613
 30
0.0
 10
10.6560061485
 20
7.2053049004
 30
0.0
 10
10.6560697959
 20
7.2053854508
 30
0.0
 10
10.6561108622
 20
7.2054360886
 30
0.0
 10
10.6561337804
 20
7.2054639003
 30
0.0
 10
10.6561520486
 20
7.205484807
 30
0.0
 10
10.6561633841
 20
7.2054978852
 30
0.0
 10
10.6561712258
 20
7.2055047415
 30
0.0
 10
10.6561735814
 20
7.2055076411
 30
0.0
 10
10.6561775957
 20
7.2055087769
 30
0.0
 10
10.656177706
 20
7.2055078103
 30
0.0
  0
SPLINE
  5
257
100
AcDbEntity
  8
0
100
AcDbSpline
 62
9
  6
CONTINUOUS
 70
0
 71
3
 72
33
 73
29
 74
0
 42
0.0000001
 43
0.0000001
 44
0.0000000001
 40
0.0
 40
0.0
 40
0.0
 40
0.0
 40
0.0895604675
 40
0.1783341775
 40
0.2655457656
 40
0.3504373119
 40
0.4322813376
 40
0.5103897452
 40
0.5478437412
 40
0.58412993
 40
0.6191787619
 40
0.652925769
 40
0.685311955
 40
0.7162845143
 40
0.7457977778
 40
0.7738138987
 40
0.80030457
 40
0.8252519072
 40
0.8486513592
 40
0.8705132735
 40
0.8908675003
 40
0.909766456
 40
0.927292179
 40
0.9435614643
 40
0.9587344643
 40
0.973019128
 40
0.9866739379
 40
1.0
 40
1.0
 40
1.0
 40
1.0
 10
10.140165325
 20
12.2772088119
 30
0.0
 10
10.1279142573
 20
12.2772085208
 30
0.0
 10
10.1035182355
 20
12.2768558015
 30
0.0
 10
10.0672235951
 20
12.2752687988
 30
0.0
 10
10.0316291999
 20
12.2726416667
 30
0.0
 10
9.9970768383
 20
12.2689995682
 30
0.0
 10
9.9638982443
 20
12.2643783242
 30
0.0
 10
9.9372981883
 20
12.259685945
 30
0.0
 10
9.9169612544
 20
12.2554527146
 30
0.0
 10
9.9024593724
 20
12.2521079433
 30
0.0
 10
9.8885292005
 20
12.2485570726
 30
0.0
 10
9.8752040793
 20
12.244808671
 30
0.0
 10
9.8625159168
 20
12.240871779
 30
0.0
 10
9.8504950194
 20
12.2367558833
 30
0.0
 10
9.8391700279
 20
12.2324709246
 30
0.0
 10
9.8285678576
 20
12.2280270776
 30
0.0
 10
9.8187135404
 20
12.2234350554
 30
0.0
 10
9.8096302806
 20
12.2187055245
 30
0.0
 10
9.8013391716
 20
12.213849683
 30
0.0
 10
9.7938595007
 20
12.2088782432
 30
0.0
 10
9.7872082393
 20
12.2038023739
 30
0.0
 10
9.7814008755
 20
12.1986321745
 30
0.0
 10
9.7764507567
 20
12.1933779187
 30
0.0
 10
9.7723709944
 20
12.1880482999
 30
0.0
 10
9.7691736863
 20
12.1826527974
 30
0.0
 10
9.7668728752
 20
12.177200379
 30
0.0
 10
9.7654816646
 20
12.1717067626
 30
0.0
 10
9.7651675213
 20
12.1680094041
 30
0.0
 10
9.7651654269
 20
12.1661865196
 30
0.0
  0
SPLINE
  5
258
100
AcDbEntity
  8
0
100
AcDbSpline
 62
9
  6
CONTINUOUS
 70
0
 71
3
 72
59
 73
55
 74
0
 42
0.0000001
 43
0.0000001
 44
0.0000000001
 40
0.0
 40
0.0
 40
0.0
 40
0.0
 40
0.0447947422
 40
0.0891970632
 40
0.1328165644
 40
0.1752753026
 40
0.2162072806
 40
0.255272136
 40
0.2740024151
 40
0.292148217
 40
0.3096755136
 40
0.32655133
 40
0.342744986
 40
0.3582311029
 40
0.3729872619
 40
0.3869944449
 40
0.4002375477
 40
0.4127079919
 40
0.4244031882
 40
0.4353291892
 40
0.4455006163
 40
0.4549433599
 40
0.463697546
 40
0.4718231794
 40
0.4794006124
 40
0.4865333383
 40
0.4933503908
 40
0.5000037832
 40
0.5066570975
 40
0.5134739605
 40
0.5206064968
 40
0.5281836226
 40
0.5363085893
 40
0.5450621124
 40
0.554504694
 40
0.5646759483
 40
0.575601117
 40
0.5872954895
 40
0.5997659094
 40
0.6130090703
 40
0.6270155446
 40
0.6417709328
 40
0.6572570565
 40
0.673450872
 40
0.6903262382
 40
0.7078529975
 40
0.7259988232
 40
0.7447292686
 40
0.7837934879
 40
0.8247251804
 40
0.8671837449
 40
0.9108031381
 40
0.9552053416
 40
1.0
 40
1.0
 40
1.0
 40
1.0
 10
10.1401606663
 20
12.0420584743
 30
0.0
 10
10.1517607168
 20
12.0420590487
 30
0.0
 10
10.1748605786
 20
12.042393829
 30
0.0
 10
10.2092268971
 20
12.0438920653
 30
0.0
 10
10.2429298775
 20
12.0463783449
 30
0.0
 10
10.2756454577
 20
12.0498222336
 30
0.0
 10
10.3070596991
 20
12.0541953108
 30
0.0
 10
10.3322452564
 20
12.0586317154
 30
0.0
 10
10.3515002077
 20
12.0626360991
 30
0.0
 10
10.3652298751
 20
12.0657999087
 30
0.0
 10
10.3784183858
 20
12.0691580496
 30
0.0
 10
10.3910338449
 20
12.0727026781
 30
0.0
 10
10.4030455082
 20
12.076426261
 30
0.0
 10
10.4144250288
 20
12.080318904
 30
0.0
 10
10.4251457028
 20
12.0843711707
 30
0.0
 10
10.4351820325
 20
12.0885731836
 30
0.0
 10
10.4445097639
 20
12.0929156935
 30
0.0
 10
10.4531070464
 20
12.0973878338
 30
0.0
 10
10.4609537837
 20
12.1019797459
 30
0.0
 10
10.4680323869
 20
12.1066803388
 30
0.0
 10
10.4743265348
 20
12.1114796091
 30
0.0
 10
10.4798216109
 20
12.1163674514
 30
0.0
 10
10.4845034736
 20
12.1213357243
 30
0.0
 10
10.4883615486
 20
12.1263745147
 30
0.0
 10
10.4913847708
 20
12.1314752577
 30
0.0
 10
10.4935597905
 20
12.1366291178
 30
0.0
 10
10.4948701293
 20
12.1418241716
 30
0.0
 10
10.4953080424
 20
12.1470410803
 30
0.0
 10
10.4948710157
 20
12.152258019
 30
0.0
 10
10.493561364
 20
12.1574531442
 30
0.0
 10
10.4913866783
 20
12.162606964
 30
0.0
 10
10.4883639813
 20
12.1677076458
 30
0.0
 10
10.4845069127
 20
12.1727466622
 30
0.0
 10
10.4798258107
 20
12.1777151522
 30
0.0
 10
10.474330896
 20
12.1826028054
 30
0.0
 10
10.4680370385
 20
12.1874019351
 30
0.0
 10
10.4609592399
 20
12.1921028701
 30
0.0
 10
10.453113161
 20
12.1966950688
 30
0.0
 10
10.4445159858
 20
12.201166988
 30
0.0
 10
10.4351883771
 20
12.2055093299
 30
0.0
 10
10.4251525922
 20
12.2097116784
 30
0.0
 10
10.4144324324
 20
12.2137642428
 30
0.0
 10
10.4030530147
 20
12.2176567155
 30
0.0
 10
10.3910413847
 20
12.2213801462
 30
0.0
 10
10.3784262239
 20
12.2249250336
 30
0.0
 10
10.365238031
 20
12.2282834218
 30
0.0
 10
10.3515084267
 20
12.2314471155
 30
0.0
 10
10.3322535581
 20
12.2354513144
 30
0.0
 10
10.3070682958
 20
12.2398882459
 30
0.0
 10
10.275654336
 20
12.2442613397
 30
0.0
 10
10.2429389199
 20
12.2477053541
 30
0.0
 10
10.2092360465
 20
12.2501917296
 30
0.0
 10
10.1748698156
 20
12.2516899653
 30
0.0
 10
10.1517700117
 20
12.2520253269
 30
0.0
 10
10.1401699828
 20
12.2520258424
 30
0.0
  0
SPLINE
  5
259
100
AcDbEntity
  8
0
100
AcDbSpline
 62
9
  6
CONTINUOUS
 70
0
 71
3
 72
59
 73
55
 74
0
 42
0.0000001
 43
0.0000001
 44
0.0000000001
 40
0.0
 40
0.0
 40
0.0
 40
0.0
 40
0.044794747
 40
0.0891971018
 40
0.1328166885
 40
0.1752755762
 40
0.2162077663
 40
0.2552728812
 40
0.2740032994
 40
0.2921492408
 40
0.3096766733
 40
0.326552617
 40
0.3427463863
 40
0.3582325985
 40
0.3729888312
 40
0.3869960631
 40
0.4002391872
 40
0.4127096242
 40
0.4244047846
 40
0.4353307232
 40
0.4455020647
 40
0.4549447041
 40
0.4636987744
 40
0.4718242897
 40
0.4794016131
 40
0.486534249
 40
0.493351242
 40
0.5000046137
 40
0.5066579488
 40
0.5134748712
 40
0.5206074975
 40
0.5281847329
 40
0.5363098177
 40
0.5450634566
 40
0.5545061423
 40
0.5646774822
 40
0.5756027134
 40
0.5872971219
 40
0.5997675489
 40
0.6130106884
 40
0.627017114
 40
0.6417724286
 40
0.6572584568
 40
0.673452159
 40
0.6903273979
 40
0.7078540213
 40
0.7259997074
 40
0.7447300138
 40
0.7837939735
 40
0.824725454
 40
0.8671838689
 40
0.9108031766
 40
0.9552053464
 40
1.0
 40
1.0
 40
1.0
 40
1.0
 10
10.1401699828
 20
12.2520258424
 30
0.0
 10
10.128569931
 20
12.2520252681
 30
0.0
 10
10.1054700594
 20
12.2516905005
 30
0.0
 10
10.0711037067
 20
12.2501923191
 30
0.0
 10
10.0374006507
 20
12.2477061251
 30
0.0
 10
10.0046849433
 20
12.2442623417
 30
0.0
 10
9.9732705238
 20
12.2398893796
 30
0.0
 10
9.948084789
 20
12.2354530714
 30
0.0
 10
9.9288296809
 20
12.231448758
 30
0.0
 10
9.9150998926
 20
12.228284995
 30
0.0
 10
9.9019112637
 20
12.2249268957
 30
0.0
 10
9.8892956933
 20
12.2213823029
 30
0.0
 10
9.8772839298
 20
12.2176587491
 30
0.0
 10
9.8659043242
 20
12.2137661288
 30
0.0
 10
9.8551835835
 20
12.2097138785
 30
0.0
 10
9.8451472089
 20
12.205511876
 30
0.0
 10
9.8358194572
 20
12.2011693707
 30
0.0
 10
9.827222181
 20
12.19669723
 30
0.0
 10
9.8193754778
 20
12.1921053132
 30
0.0
 10
9.8122969366
 20
12.1874047122
 30
0.0
 10
9.8060028783
 20
12.1826054312
 30
0.0
 10
9.8005079182
 20
12.1777175764
 30
0.0
 10
9.7958261968
 20
12.1727492893
 30
0.0
 10
9.7919682854
 20
12.1677104843
 30
0.0
 10
9.788945246
 20
12.1626097271
 30
0.0
 10
9.7867704261
 20
12.157455854
 30
0.0
 10
9.7854603006
 20
12.1522607909
 30
0.0
 10
9.7850226075
 20
12.1470438789
 30
0.0
 10
9.7854598541
 20
12.1418269435
 30
0.0
 10
9.7867697189
 20
12.1366318276
 30
0.0
 10
9.7889446046
 20
12.1314780208
 30
0.0
 10
9.7919674844
 20
12.1263773533
 30
0.0
 10
9.7958247166
 20
12.1213383514
 30
0.0
 10
9.8005059599
 20
12.1163698757
 30
0.0
 10
9.8060009905
 20
12.111482235
 30
0.0
 10
9.8122949376
 20
12.1066831159
 30
0.0
 10
9.8193727982
 20
12.1019821891
 30
0.0
 10
9.8272189113
 20
12.0973899953
 30
0.0
 10
9.8358160926
 20
12.0929180763
 30
0.0
 10
9.8451436809
 20
12.0885757298
 30
0.0
 10
9.8551794209
 20
12.084373371
 30
0.0
 10
9.8658995141
 20
12.0803207903
 30
0.0
 10
9.8772788467
 20
12.0764282949
 30
0.0
 10
9.8892903764
 20
12.072704835
 30
0.0
 10
9.9019054258
 20
12.0691599118
 30
0.0
 10
9.9150935005
 20
12.0658014822
 30
0.0
 10
9.9288229838
 20
12.0626377418
 30
0.0
 10
9.9480776954
 20
12.0586334726
 30
0.0
 10
9.9732627801
 20
12.0541964445
 30
0.0
 10
10.0046765617
 20
12.0498232359
 30
0.0
 10
10.0373918505
 20
12.046379116
 30
0.0
 10
10.071094648
 20
12.0438926548
 30
0.0
 10
10.1054608446
 20
12.0423943644
 30
0.0
 10
10.1285606387
 20
12.0420589899
 30
0.0
 10
10.1401606663
 20
12.0420584743
 30
0.0
  0
SPLINE
  5
25A
100
AcDbEntity
  8
0
100
AcDbSpline
 62
7
  6
CONTINUOUS
 70
0
 71
3
 72
72
 73
68
 74
0
 42
0.0000001
 43
0.0000001
 44
0.0000000001
 40
0.0
 40
0.0
 40
0.0
 40
0.0
 40
0.0000029724
 40
0.0000090724
 40
0.0000184372
 40
0.0000310981
 40
0.0000663469
 40
0.0001148581
 40
0.0001766417
 40
0.0002517005
 40
0.0003400343
 40
0.0004416415
 40
0.0006846659
 40
0.000980751
 40
0.0013298706
 40
0.0017319966
 40
0.0021871007
 40
0.0026951754
 40
0.0032562769
 40
0.0038704731
 40
0.0052584219
 40
0.0068595717
 40
0.0086744844
 40
0.010703481
 40
0.0129462434
 40
0.0154023646
 40
0.0180714516
 40
0.0209530894
 40
0.0273513046
 40
0.0345913242
 40
0.042666852
 40
0.0515705631
 40
0.0612934477
 40
0.0718220214
 40
0.083142336
 40
0.0952399702
 40
0.1080984181
 40
0.1216942675
 40
0.1359971121
 40
0.1509621993
 40
0.1665451714
 40
0.1827051674
 40
0.1993972602
 40
0.2165721182
 40
0.2341796748
 40
0.2704847379
 40
0.3078905729
 40
0.3268904476
 40
0.3460325046
 40
0.3846024477
 40
0.4233938552
 40
0.4622653306
 40
0.4817052034
 40
0.501135983
 40
0.5399513767
 40
0.5786958415
 40
0.6173645487
 40
0.6559600089
 40
0.6944866185
 40
0.7329491173
 40
0.7713490251
 40
0.8479345179
 40
0.8861215355
 40
0.9242120252
 40
0.9432152496
 40
0.9621851873
 40
1.0
 40
1.0
 40
1.0
 40
1.0
 10
10.9580459607
 20
5.3251184947
 30
0.0
 10
10.9580456138
 20
5.3251200203
 30
0.0
 10
10.9580414041
 20
5.3251232262
 30
0.0
 10
10.9580336619
 20
5.3251284292
 30
0.0
 10
10.9580204518
 20
5.3251355612
 30
0.0
 10
10.9579936413
 20
5.325149096
 30
0.0
 10
10.9579474464
 20
5.3251703483
 30
0.0
 10
10.9578773405
 20
5.3252011356
 30
0.0
 10
10.9577875203
 20
5.3252392755
 30
0.0
 10
10.9576780818
 20
5.325284775
 30
0.0
 10
10.9575489872
 20
5.3253376143
 30
0.0
 10
10.9573377236
 20
5.3254230854
 30
0.0
 10
10.9570244778
 20
5.325548056
 30
0.0
 10
10.9565895683
 20
5.3257196445
 30
0.0
 10
10.9560762112
 20
5.3259205807
 30
0.0
 10
10.9554844585
 20
5.3261508679
 30
0.0
 10
10.9548143441
 20
5.3264104966
 30
0.0
 10
10.9540658834
 20
5.3266995324
 30
0.0
 10
10.9532391957
 20
5.3270184537
 30
0.0
 10
10.9519804922
 20
5.3275042823
 30
0.0
 10
10.9502117087
 20
5.3281889079
 30
0.0
 10
10.9478556634
 20
5.3291071982
 30
0.0
 10
10.9451884199
 20
5.3301561842
 30
0.0
 10
10.9422110429
 20
5.3313392984
 30
0.0
 10
10.9389249356
 20
5.3326593792
 30
0.0
 10
10.9353318947
 20
5.3341191796
 30
0.0
 10
10.9314337892
 20
5.335721437
 30
0.0
 10
10.925626475
 20
5.3381366961
 30
0.0
 10
10.9176209699
 20
5.3415317455
 30
0.0
 10
10.9071431674
 20
5.3460981039
 30
0.0
 10
10.8955127646
 20
5.3513190636
 30
0.0
 10
10.8827636691
 20
5.3572367111
 30
0.0
 10
10.8689339869
 20
5.3638899784
 30
0.0
 10
10.8540683257
 20
5.371319904
 30
0.0
 10
10.8382169413
 20
5.3795687384
 30
0.0
 10
10.8214447321
 20
5.3886982159
 30
0.0
 10
10.803822946
 20
5.3987640444
 30
0.0
 10
10.7854394342
 20
5.4098262981
 30
0.0
 10
10.7663917781
 20
5.4219230924
 30
0.0
 10
10.7467673238
 20
5.4350503967
 30
0.0
 10
10.7266720379
 20
5.4492194471
 30
0.0
 10
10.7062318196
 20
5.4644620644
 30
0.0
 10
10.6855699412
 20
5.4807923142
 30
0.0
 10
10.6648116458
 20
5.4982117299
 30
0.0
 10
10.6369065963
 20
5.523148427
 30
0.0
 10
10.602701465
 20
5.5569735427
 30
0.0
 10
10.5703573698
 20
5.5935690449
 30
0.0
 10
10.5455970411
 20
5.6246947796
 30
0.0
 10
10.5215560167
 20
5.6571448689
 30
0.0
 10
10.4934320974
 20
5.6994969889
 30
0.0
 10
10.4631005666
 20
5.7526807526
 30
0.0
 10
10.4407502414
 20
5.7986902791
 30
0.0
 10
10.4246496302
 20
5.8363167895
 30
0.0
 10
10.4097443258
 20
5.8744010736
 30
0.0
 10
10.3933105354
 20
5.9227708599
 30
0.0
 10
10.3769826197
 20
5.9817626713
 30
0.0
 10
10.3639064101
 20
6.0414387557
 30
0.0
 10
10.3539599812
 20
6.1015966476
 30
0.0
 10
10.34701685
 20
6.162062542
 30
0.0
 10
10.3429353955
 20
6.2226850358
 30
0.0
 10
10.3411848294
 20
6.3034574707
 30
0.0
 10
10.3447851592
 20
6.3841202671
 30
0.0
 10
10.3533486384
 20
6.4641403332
 30
0.0
 10
10.3606825781
 20
6.5137693809
 30
0.0
 10
10.3676950617
 20
6.5531899775
 30
0.0
 10
10.3754390122
 20
6.5923253166
 30
0.0
 10
10.3820705853
 20
6.6214792117
 30
0.0
 10
10.3868379144
 20
6.6408043417
 30
0.0
  0
ENDSEC
  0
SECTION
  2
OBJECTS
  0
DICTIONARY
  5
C
100
AcDbDictionary
280
0
281
1
  3
ACAD_GROUP
350
D
  3
ACAD_MLINESTYLE
350
17
  3
ACAD_LAYOUT
350
1A
  3
ACAD_PLOTSETTINGS
350
19
  3
ACAD_PLOTSTYLENAME
350
E
  0
DICTIONARY
  5
D
102
{ACAD_REACTORS
330
C
102
}
100
AcDbDictionary
280
0
281
1
  0
ACDBDICTIONARYWDFLT
  5
E
102
{ACAD_REACTORS
330
C
102
}
100
AcDbDictionary
281
1
  3
Normal
350
F
100
AcDbDictionaryWithDefault
340
F
  0
DICTIONARY
  5
17
102
{ACAD_REACTORS
330
C
102
}
100
AcDbDictionary
280
0
281
1
  3
Standard
350
18
  0
DICTIONARY
  5
19
102
{ACAD_REACTORS
330
C
102
}
100
AcDbDictionary
281
1
  0
DICTIONARY
  5
1A
102
{ACAD_REACTORS
330
C
102
}
100
AcDbDictionary
281
1
  3
Model
350
25B
  3
Layout1
350
25C
  0
ACDBPLACEHOLDER
  5
F
102
{ACAD_REACTORS
330
E
102
}
  0
MLINESTYLE
  5
18
102
{ACAD_REACTORS
330
17
102
}
100
AcDbMlineStyle
  2
STANDARD
 70
0
  3

 62
256
 51
90.0
 52
90.0
 71
2
 49
0.5
 62
256
  6
BYLAYER
 49
-0.5
 62
256
  6
BYLAYER
  0
LAYOUT
  5
25B
102
{ACAD_REACTORS
330
1A
102
}
100
AcDbPlotSettings
  1

  2
none_device
  4
ANSI_C_(22.00_x_17.00_Inches)
  6

 40
0.0
 41
0.0
 42
0.0
 43
0.0
 44
558.8
 45
431.8
 46
0.0
 47
0.0
 48
0.0
 49
0.0
140
0.0
141
0.0
142
1.0
143
1.0
 70
1024
 72
0
 73
0
 74
0
  7

 75
0
147
1.0
148
0.0
149
0.0
100
AcDbLayout
  1
Model
 70
0
 71
0
 10
0.0
 20
0.0
 11
22.0
 21
17.0
 12
0.0
 22
0.0
 32
0.0
 14
0.0
 24
0.0
 34
0.0
 15
0.0
 25
0.0
 35
0.0
146
0.0
 13
0.0
 23
0.0
 33
0.0
 16
1.0
 26
0.0
 36
0.0
 17
0.0
 27
1.0
 37
0.0
 76
0
330
205
345
0
346
0
  0
LAYOUT
  5
25C
102
{ACAD_REACTORS
330
1A
102
}
100
AcDbPlotSettings
  1

  2
none_device
  4
ANSI_C_(22.00_x_17.00_Inches)
  6

 40
0.0
 41
0.0
 42
0.0
 43
0.0
 44
558.8
 45
431.8
 46
0.0
 47
0.0
 48
0.0
 49
0.0
140
0.0
141
0.0
142
1.0
143
1.0
 70
0
 72
0
 73
0
 74
0
  7

 75
0
147
1.0
148
0.0
149
0.0
100
AcDbLayout
  1
Layout1
 70
0
 71
1
 10
0.0
 20
0.0
 11
22.0
 21
17.0
 12
0.0
 22
0.0
 32
0.0
 14
0.0
 24
0.0
 34
0.0
 15
0.0
 25
0.0
 35
0.0
146
0.0
 13
0.0
 23
0.0
 33
0.0
 16
1.0
 26
0.0
 36
0.0
 17
0.0
 27
1.0
 37
0.0
 76
0
330
206
345
0
346
0
  0
ENDSEC
  0
EOF
