999
DXF file: E:\BT Custom\CADOUTPUT\_TOP.dxf
999
Pro/ENGINEER 2018400 by Parametric Technology Corporation
  0
SECTION
  2
HEADER
  9
$ACADVER
  1
AC1018
  9
$DWGCODEPAGE
  3
ANSI_1252
  9
$EXTMAX
 10
22.0
 20
17.0
 30
0.0
  9
$EXTMIN
 10
0.0
 20
0.0
 30
0.0
  9
$LIMMIN
 10
0.0
 20
0.0
  9
$LIMMAX
 10
22.0
 20
17.0
  9
$VIEWCTR
 10
11.0
 20
8.5
  9
$VIEWSIZE
 40
17.0
  9
$CLAYER
  8
0
  9
$LTSCALE
 40
1.21
  9
$CELTYPE
  6
BYLAYER
  9
$DIMSCALE
 40
1.0
  9
$DIMASZ
 40
0.1
  9
$DIMEXO
 40
0.0625
  9
$DIMDLI
 40
0.836
  9
$DIMEXE
 40
0.125
  9
$DIMCEN
 40
0.198
  9
$DIMLFAC
 40
1.0
  9
$DIMBLK
  1
_FILLED
  9
$DIMALT
 70
1
  9
$DIMALTD
 70
2
  9
$DIMALTTD
 70
2
  9
$DIMALTF
 40
25.4
  9
$DIMTXT
 40
0.08
  9
$DIMTOL
 70
1
  9
$DIMLIM
 70
0
  9
$DIMTFAC
 40
1.0
  9
$DIMTP
 40
0.001
  9
$DIMTM
 40
0.001
  9
$DIMGAP
 40
0.09
  9
$DIMDSEP
 70
46
  9
$AUNITS
 70
0
  9
$PDMODE
 70
3
  9
$PDSIZE
 40
0.06
  9
$HANDSEED
  5
260
  9
$TILEMODE
 70
1
  9
$MEASUREMENT
 70
0
  9
$INSUNITS
 70
1
  0
ENDSEC
  0
SECTION
  2
CLASSES
  0
CLASS
  1
ACDBDICTIONARYWDFLT
  2
AcDbDictionaryWithDefault
  3
AutoCAD 2000
 90
0
 91
1
280
0
281
0
  0
CLASS
  1
ACDBPLACEHOLDER
  2
AcDbPlaceHolder
  3
AutoCAD 2000
 90
0
 91
1
280
0
281
0
  0
CLASS
  1
LAYOUT
  2
AcDbLayout
  3
AutoCAD 2000
 90
0
 91
0
280
0
281
0
  0
ENDSEC
  0
SECTION
  2
TABLES
  0
TABLE
  2
VPORT
  5
8
100
AcDbSymbolTable
 70
2
  0
VPORT
  5
1F4
100
AcDbSymbolTableRecord
100
AcDbViewportTableRecord
  2
*ACTIVE
 70
0
 10
0.0
 20
0.0
 11
1.0
 21
1.0
 12
11.0
 22
8.5
 13
0.0
 23
0.0
 14
1.0
 24
1.0
 15
0.0
 25
0.0
 16
0.0
 26
0.0
 36
1.0
 17
0.0
 27
0.0
 37
0.0
 40
17.0
 41
1.2941176471
 42
50.0
 43
0.0
 44
0.0
 50
0.0
 51
0.0
 71
0
 72
100
 73
1
 74
1
 75
0
 76
0
 77
0
 78
0
  0
ENDTAB
  0
TABLE
  2
LTYPE
  5
5
100
AcDbSymbolTable
 70
6
  0
LTYPE
  5
14
100
AcDbSymbolTableRecord
100
AcDbLinetypeTableRecord
  2
BYBLOCK
 70
0
  3

 72
65
 73
0
 40
0.0
  0
LTYPE
  5
15
100
AcDbSymbolTableRecord
100
AcDbLinetypeTableRecord
  2
BYLAYER
 70
0
  3

 72
65
 73
0
 40
0.0
  0
LTYPE
  5
16
100
AcDbSymbolTableRecord
100
AcDbLinetypeTableRecord
  2
CONTINUOUS
 70
64
  3
Solid line
 72
65
 73
0
 40
0.0
  0
LTYPE
  5
1F5
100
AcDbSymbolTableRecord
100
AcDbLinetypeTableRecord
  2
CENTER
 70
64
  3
____ _ ____ _ ____ _ ____ _ ____ _ ____ _ ____
 72
65
 73
4
 40
0.6
 49
0.375
 74
0
 49
-0.075
 74
0
 49
0.075
 74
0
 49
-0.075
 74
0
  0
LTYPE
  5
1F6
100
AcDbSymbolTableRecord
100
AcDbLinetypeTableRecord
  2
HIDDEN
 70
64
  3
- - - - - - - - - - - - - - - - - - - -
 72
65
 73
2
 40
0.2
 49
0.1
 74
0
 49
-0.1
 74
0
  0
LTYPE
  5
1F7
100
AcDbSymbolTableRecord
100
AcDbLinetypeTableRecord
  2
PHANTOM
 70
64
  3
_____ _ _ _____ _ _ _____ _ _ _____
 72
65
 73
6
 40
0.8
 49
0.45
 74
0
 49
-0.05
 74
0
 49
0.1
 74
0
 49
-0.05
 74
0
 49
0.1
 74
0
 49
-0.05
 74
0
  0
LTYPE
  5
1F8
100
AcDbSymbolTableRecord
100
AcDbLinetypeTableRecord
  2
DOT
 70
64
  3
. . . . . . . . . . . . . . . . . . . .
 72
65
 73
2
 40
0.2
 49
0.1
 74
0
 49
-0.1
 74
0
  0
LTYPE
  5
1F9
100
AcDbSymbolTableRecord
100
AcDbLinetypeTableRecord
  2
DASHED
 70
64
  3
- - - - - - - - - - - - - - - - - - - -
 72
65
 73
2
 40
0.2
 49
0.1
 74
0
 49
-0.1
 74
0
  0
ENDTAB
  0
TABLE
  2
LAYER
  5
2
100
AcDbSymbolTable
 70
36
  0
LAYER
  5
10
100
AcDbSymbolTableRecord
100
AcDbLayerTableRecord
  2
0
 70
0
 62
7
  6
CONTINUOUS
370
-3
390
F
  0
LAYER
  5
1FA
100
AcDbSymbolTableRecord
100
AcDbLayerTableRecord
  2
DEFAULT_1
 70
0
 62
7
  6
CENTER
370
-3
390
F
  0
LAYER
  5
1FB
100
AcDbSymbolTableRecord
100
AcDbLayerTableRecord
  2
DEFAULT_2
 70
0
 62
8
  6
HIDDEN
370
-3
390
F
  0
LAYER
  5
1FC
100
AcDbSymbolTableRecord
100
AcDbLayerTableRecord
  2
DEFAULT_3
 70
0
 62
7
  6
PHANTOM
370
-3
390
F
  0
LAYER
  5
1FD
100
AcDbSymbolTableRecord
100
AcDbLayerTableRecord
  2
ALL_FEATURES
 70
0
 62
7
  6
CONTINUOUS
370
-3
390
F
  0
LAYER
  5
1FE
100
AcDbSymbolTableRecord
100
AcDbLayerTableRecord
  2
AXES_FEATURES
 70
0
 62
7
  6
CONTINUOUS
370
-3
390
F
  0
LAYER
  5
1FF
100
AcDbSymbolTableRecord
100
AcDbLayerTableRecord
  2
DEFAULT_COORDINATE_SYSTEM
 70
0
 62
7
  6
CONTINUOUS
370
-3
390
F
  0
LAYER
  5
200
100
AcDbSymbolTableRecord
100
AcDbLayerTableRecord
  2
DEFAULT_DATUM_AXES
 70
0
 62
7
  6
CONTINUOUS
370
-3
390
F
  0
LAYER
  5
201
100
AcDbSymbolTableRecord
100
AcDbLayerTableRecord
  2
DEFAULT_DATUM_PLANES
 70
0
 62
7
  6
CONTINUOUS
370
-3
390
F
  0
LAYER
  5
202
100
AcDbSymbolTableRecord
100
AcDbLayerTableRecord
  2
DIMENSIONS
 70
0
 62
7
  6
CONTINUOUS
370
-3
390
F
  0
ENDTAB
  0
TABLE
  2
STYLE
  5
3
100
AcDbSymbolTable
 70
1
  0
STYLE
  5
11
100
AcDbSymbolTableRecord
100
AcDbTextStyleTableRecord
  2
STANDARD
 70
0
 40
0.0
 41
0.8
 50
0.0
 71
0
 42
0.2
  3
txt
  4

  0
STYLE
  5
203
100
AcDbSymbolTableRecord
100
AcDbTextStyleTableRecord
  2
TEXTSTYLE_1
 70
0
 40
0.0
 41
0.8
 50
0.0
 71
0
 42
0.2
  3
gdt
  4

  0
ENDTAB
  0
TABLE
  2
VIEW
  5
6
100
AcDbSymbolTable
 70
0
  0
ENDTAB
  0
TABLE
  2
UCS
  5
7
100
AcDbSymbolTable
 70
0
  0
ENDTAB
  0
TABLE
  2
APPID
  5
9
100
AcDbSymbolTable
 70
1
  0
APPID
  5
204
100
AcDbSymbolTableRecord
100
AcDbRegAppTableRecord
  2
ACAD
 70
0
  0
ENDTAB
  0
TABLE
  2
BLOCK_RECORD
  5
1
100
AcDbSymbolTable
 70
0
  0
BLOCK_RECORD
  5
205
100
AcDbSymbolTableRecord
100
AcDbBlockTableRecord
  2
*Model_Space
  0
BLOCK_RECORD
  5
206
100
AcDbSymbolTableRecord
100
AcDbBlockTableRecord
  2
*Paper_Space
  0
BLOCK_RECORD
  5
207
100
AcDbSymbolTableRecord
100
AcDbBlockTableRecord
  2
_FILLED
  0
ENDTAB
  0
TABLE
  2
DIMSTYLE
  5
A
100
AcDbSymbolTable
 70
1
100
AcDbDimStyleTable
 71
0
  0
DIMSTYLE
105
208
100
AcDbSymbolTableRecord
100
AcDbDimStyleTableRecord
  2
STANDARD
 70
0
  3

  4

 40
1.0
 41
0.1
 42
0.0625
 43
0.38
 44
0.125
 45
0.0
 46
0.0
 47
0.001
 48
0.001
140
0.08
141
0.09
142
0.0
143
25.4
144
1.0
145
0.0
146
1.0
147
0.09
 71
1.0
 72
0.0
 73
1
 74
1
 75
0
 76
0
 77
0
 78
4
 79
1
170
1
171
2
172
0
173
0
174
0
175
0
176
0
177
0
178
0
270
2
179
3
271
3
272
3
273
2
274
2
275
0
280
0
281
0
282
0
283
1
284
4
285
0
286
0
287
3
288
0
340
11
278
46
341
207
342
207
343
207
344
207
  0
ENDTAB
  0
ENDSEC
  0
SECTION
  2
BLOCKS
  0
BLOCK
  5
20
100
AcDbEntity
  8
0
100
AcDbBlockBegin
  2
*Model_Space
 70
0
 10
0.0
 20
0.0
 30
0.0
  3
*Model_Space
  1

  0
ENDBLK
  5
21
100
AcDbEntity
  8
0
100
AcDbBlockEnd
  0
BLOCK
  5
1C
100
AcDbEntity
  8
0
100
AcDbBlockBegin
  2
*Paper_Space
 70
0
 10
0.0
 20
0.0
 30
0.0
  3
*Paper_Space
  1

  0
ENDBLK
  5
1D
100
AcDbEntity
  8
0
100
AcDbBlockEnd
  0
BLOCK
  5
209
100
AcDbEntity
  8
0
100
AcDbBlockBegin
  2
_FILLED
 70
64
 10
0.0
 20
0.0
  3
_FILLED
  1

  0
SOLID
  5
20A
100
AcDbEntity
  8
0
  6
BYBLOCK
 62
0
100
AcDbTrace
 10
0.0
 20
0.0
 11
-1.0
 21
0.2
 12
-1.0
 22
-0.2
 13
-1.0
 23
-0.2
  0
ENDBLK
  5
20B
100
AcDbEntity
  8
0
  6
BYBLOCK
 62
0
100
AcDbBlockEnd
  0
ENDSEC
  0
SECTION
  2
ENTITIES
  0
LWPOLYLINE
  5
20C
100
AcDbEntity
  8
0
100
AcDbPolyline
 62
7
  6
CONTINUOUS
 90
18
 70
0
 10
10.6336210825
 20
11.439635916
 10
10.606986229
 20
11.4315397973
 10
10.5794405658
 20
11.4250758878
 10
10.5531687612
 20
11.4206474009
 10
10.5283329061
 20
11.4179809598
 10
10.505113613
 20
11.4168110102
 10
10.4836229845
 20
11.4168718891
 10
10.4638654995
 20
11.4179137694
 10
10.4457182795
 20
11.4197247338
 10
10.4292644097
 20
11.4220988195
 10
10.4146040447
 20
11.4248295982
 10
10.4019041166
 20
11.4276944605
 10
10.3910852701
 20
11.4305307708
 10
10.381501158
 20
11.4333715552
 10
10.3735769526
 20
11.4359723603
 10
10.3677360186
 20
11.4380534158
 10
10.3634858951
 20
11.4396735761
 10
10.3599973174
 20
11.4410863404
  0
LWPOLYLINE
  5
20D
100
AcDbEntity
  8
0
100
AcDbPolyline
 62
7
  6
CONTINUOUS
 90
17
 70
0
 10
10.3650634016
 20
9.6803364175
 10
10.3693723347
 20
9.6819422828
 10
10.3755618216
 20
9.684094835
 10
10.3838445442
 20
9.6867397923
 10
10.3937251728
 20
9.6895783323
 10
10.4047927038
 20
9.6923782645
 10
10.41766703
 20
9.6951656348
 10
10.4323955337
 20
9.6977795247
 10
10.4488317966
 20
9.7000134341
 10
10.4668922204
 20
9.7016736898
 10
10.486480465
 20
9.7025642635
 10
10.50769834
 20
9.7024851651
 10
10.5305550646
 20
9.7012027688
 10
10.5549470452
 20
9.6984683252
 10
10.580712194
 20
9.694031977
 10
10.6076910524
 20
9.6876383529
 10
10.6337055648
 20
9.6797100599
  0
LINE
  5
20E
100
AcDbEntity
  8
0
100
AcDbLine
 62
7
  6
CONTINUOUS
 10
10.3803827566
 20
9.6917957228
 11
10.3802457079
 21
9.6917033647
  0
LINE
  5
20F
100
AcDbEntity
  8
0
100
AcDbLine
 62
7
  6
CONTINUOUS
 10
9.2255733664
 20
10.5600130548
 11
9.225573275
 21
4.4804523426
  0
LINE
  5
210
100
AcDbEntity
  8
0
100
AcDbLine
 62
7
  6
CONTINUOUS
 10
10.3650634061
 20
4.4804523425
 11
10.3650633459
 21
10.5599415126
  0
LINE
  5
211
100
AcDbEntity
  8
0
100
AcDbLine
 62
7
  6
CONTINUOUS
 10
11.7203183383
 20
9.6396870885
 11
11.7203183383
 21
11.4796875474
  0
LINE
  5
212
100
AcDbEntity
  8
0
100
AcDbLine
 62
7
  6
CONTINUOUS
 10
11.7793183383
 20
11.4794417395
 11
11.7793183383
 21
9.6399328951
  0
LINE
  5
213
100
AcDbEntity
  8
0
100
AcDbLine
 62
7
  6
CONTINUOUS
 10
13.5177428401
 20
10.339437223
 11
13.5236970169
 21
10.3560290075
  0
LINE
  5
214
100
AcDbEntity
  8
0
100
AcDbLine
 62
7
  6
CONTINUOUS
 10
12.4893183383
 20
9.9376873173
 11
12.4893183383
 21
11.1816873173
  0
LINE
  5
215
100
AcDbEntity
  8
0
100
AcDbLine
 62
7
  6
CONTINUOUS
 10
12.6064684128
 20
11.0955224077
 11
12.6064684128
 21
10.023494505
  0
LINE
  5
216
100
AcDbEntity
  8
0
100
AcDbLine
 62
9
  6
CONTINUOUS
 10
12.8171766237
 20
10.96199666
 11
12.8171766237
 21
10.816762602
  0
LINE
  5
217
100
AcDbEntity
  8
0
100
AcDbLine
 62
9
  6
CONTINUOUS
 10
12.8171766237
 20
10.3026120326
 11
12.8171766237
 21
10.1573779746
  0
LINE
  5
218
100
AcDbEntity
  8
0
100
AcDbLine
 62
7
  6
CONTINUOUS
 10
13.4193183383
 20
10.8510015806
 11
13.4193183383
 21
10.268373054
  0
LINE
  5
219
100
AcDbEntity
  8
0
100
AcDbLine
 62
9
  6
CONTINUOUS
 10
13.4329788631
 20
10.2796873173
 11
13.4329788631
 21
10.8396873173
  0
LINE
  5
21A
100
AcDbEntity
  8
0
100
AcDbLine
 62
9
  6
CONTINUOUS
 10
13.5177428401
 20
10.339437223
 11
13.5177428401
 21
10.7799374116
  0
LINE
  5
21B
100
AcDbEntity
  8
0
100
AcDbLine
 62
9
  6
CONTINUOUS
 10
13.5236970169
 20
10.3560290075
 11
13.523697017
 21
10.7633456268
  0
LINE
  5
21C
100
AcDbEntity
  8
0
100
AcDbLine
 62
7
  6
CONTINUOUS
 10
13.4329788631
 20
10.2796873173
 11
13.4193183383
 21
10.2796873173
  0
LINE
  5
21D
100
AcDbEntity
  8
0
100
AcDbLine
 62
7
  6
CONTINUOUS
 10
10.3797280095
 20
11.4280199176
 11
10.3798675343
 21
11.4279260119
  0
LINE
  5
21E
100
AcDbEntity
  8
0
100
AcDbLine
 62
7
  6
CONTINUOUS
 10
13.4329788631
 20
10.8396873173
 11
13.4193183383
 21
10.8396873173
  0
LWPOLYLINE
  5
21F
100
AcDbEntity
  8
0
100
AcDbPolyline
 62
7
  6
CONTINUOUS
 90
4
 70
0
 10
10.3599973174
 20
11.4410863404
 10
10.3571038517
 20
11.4423296992
 10
10.3549520948
 20
11.4433086529
 10
10.3542454919
 20
11.4436450248
  0
LINE
  5
220
100
AcDbEntity
  8
0
100
AcDbLine
 62
7
  6
CONTINUOUS
 10
13.5177428401
 20
10.7799374116
 11
13.523697017
 21
10.7633456268
  0
ARC
  5
221
100
AcDbEntity
  8
0
100
AcDbCircle
 62
7
  6
CONTINUOUS
 10
9.7736566296
 20
4.0385698939
 40
0.8823382913
100
AcDbArc
 50
172.226824726
 51
179.999680774
  0
ARC
  5
222
100
AcDbEntity
  8
0
100
AcDbCircle
 62
7
  6
CONTINUOUS
 10
9.8169800659
 20
4.0385698947
 40
0.8823382724
100
AcDbArc
 50
0.0003191745
 51
7.7727711839
  0
ARC
  5
223
100
AcDbEntity
  8
0
100
AcDbCircle
 62
7
  6
CONTINUOUS
 10
9.7717415133
 20
4.0732545956
 40
0.8768889006
100
AcDbArc
 50
166.5110026701
 51
179.9979693921
  0
ARC
  5
224
100
AcDbEntity
  8
0
100
AcDbCircle
 62
7
  6
CONTINUOUS
 10
9.8188952426
 20
4.0732546023
 40
0.8768888212
100
AcDbArc
 50
0.0020301705
 51
13.4880235437
  0
ARC
  5
225
100
AcDbEntity
  8
0
100
AcDbCircle
 62
7
  6
CONTINUOUS
 10
9.8100123936
 20
4.4613057425
 40
0.6493160164
100
AcDbArc
 50
0.0243571565
 51
31.2003827254
  0
ARC
  5
226
100
AcDbEntity
  8
0
100
AcDbCircle
 62
7
  6
CONTINUOUS
 10
9.7806242686
 20
4.4613057451
 40
0.649316003
100
AcDbArc
 50
148.7997265817
 51
179.9756430751
  0
ARC
  5
227
100
AcDbEntity
  8
0
100
AcDbCircle
 62
7
  6
CONTINUOUS
 10
11.2440222284
 20
11.4790192655
 40
1.9
100
AcDbArc
 50
251.2633260312
 51
284.5178827456
  0
ARC
  5
228
100
AcDbEntity
  8
0
100
AcDbCircle
 62
7
  6
CONTINUOUS
 10
11.2440222284
 20
9.6403553691
 40
1.9
100
AcDbArc
 50
75.4821172544
 51
108.7393658407
  0
ARC
  5
229
100
AcDbEntity
  8
0
100
AcDbCircle
 62
7
  6
CONTINUOUS
 10
9.7953183383
 20
10.5596873173
 40
1.26
100
AcDbArc
 50
296.889490953
 51
314.7241395602
  0
ARC
  5
22A
100
AcDbEntity
  8
0
100
AcDbCircle
 62
7
  6
CONTINUOUS
 10
9.7953183383
 20
10.5596873173
 40
1.26
100
AcDbArc
 50
45.2759622527
 51
243.110509047
  0
ARC
  5
22B
100
AcDbEntity
  8
0
100
AcDbCircle
 62
7
  6
CONTINUOUS
 10
9.7953183383
 20
10.5596873173
 40
1.2242978863
100
AcDbArc
 50
46.1607120908
 51
242.2528271681
  0
ARC
  5
22C
100
AcDbEntity
  8
0
100
AcDbCircle
 62
7
  6
CONTINUOUS
 10
9.7953183383
 20
10.5596873173
 40
1.2242978863
100
AcDbArc
 50
297.7471728319
 51
313.8392166513
  0
ARC
  5
22D
100
AcDbEntity
  8
0
100
AcDbCircle
 62
7
  6
CONTINUOUS
 10
9.7953183383
 20
10.5596873173
 40
1.0803954121
100
AcDbArc
 50
52.7628083293
 51
238.1631239342
  0
ARC
  5
22E
100
AcDbEntity
  8
0
100
AcDbCircle
 62
7
  6
CONTINUOUS
 10
9.7953183383
 20
10.5596873173
 40
1.0803954121
100
AcDbArc
 50
301.8368760658
 51
307.2425800127
  0
ARC
  5
22F
100
AcDbEntity
  8
0
100
AcDbCircle
 62
7
  6
CONTINUOUS
 10
9.7953183383
 20
10.5596873173
 40
1.0466786485
100
AcDbArc
 50
56.0496920751
 51
237.0015549202
  0
ARC
  5
230
100
AcDbEntity
  8
0
100
AcDbCircle
 62
7
  6
CONTINUOUS
 10
9.7953183383
 20
10.5596873173
 40
1.0466786485
100
AcDbArc
 50
302.9889569373
 51
303.9843909711
  0
ARC
  5
231
100
AcDbEntity
  8
0
100
AcDbCircle
 62
7
  6
CONTINUOUS
 10
9.7953183383
 20
10.5596873173
 40
0.8391690524
100
AcDbArc
 50
312.7687270387
 51
227.2312729613
  0
ARC
  5
232
100
AcDbEntity
  8
0
100
AcDbCircle
 62
9
  6
CONTINUOUS
 10
9.7953183383
 20
10.5596873173
 40
0.7626323357
100
AcDbArc
 50
318.3954327492
 51
221.6045672399
  0
ARC
  5
233
100
AcDbEntity
  8
0
100
AcDbCircle
 62
9
  6
CONTINUOUS
 10
9.7953183383
 20
10.5596873173
 40
0.7242105216
100
AcDbArc
 50
321.9173245159
 51
218.0826754728
  0
ARC
  5
234
100
AcDbEntity
  8
0
100
AcDbCircle
 62
7
  6
CONTINUOUS
 10
9.7953183383
 20
10.5596873173
 40
0.64
100
AcDbArc
 50
332.9759227636
 51
207.0240772364
  0
ARC
  5
235
100
AcDbEntity
  8
0
100
AcDbCircle
 62
7
  6
CONTINUOUS
 10
9.7850244039
 20
10.5596894048
 40
0.5800389968
100
AcDbArc
 50
0.0248768083
 51
4.265563312
  0
ARC
  5
236
100
AcDbEntity
  8
0
100
AcDbCircle
 62
7
  6
CONTINUOUS
 10
9.8053303904
 20
10.5596999846
 40
0.5797571085
100
AcDbArc
 50
175.7334471034
 51
179.9690931451
  0
ARC
  5
237
100
AcDbEntity
  8
0
100
AcDbCircle
 62
7
  6
CONTINUOUS
 10
11.735532142
 20
10.7388155032
 40
1.1
100
AcDbArc
 50
272.400422316
 51
313.2560721476
  0
ARC
  5
238
100
AcDbEntity
  8
0
100
AcDbCircle
 62
7
  6
CONTINUOUS
 10
11.735532142
 20
10.3805591314
 40
1.1
100
AcDbArc
 50
46.7439278524
 51
87.599577684
  0
ARC
  5
239
100
AcDbEntity
  8
0
100
AcDbCircle
 62
7
  6
CONTINUOUS
 10
11.7203183383
 20
10.5596873173
 40
0.8125
100
AcDbArc
 50
85.8356866517
 51
90.0
  0
ARC
  5
23A
100
AcDbEntity
  8
0
100
AcDbCircle
 62
7
  6
CONTINUOUS
 10
11.7203183383
 20
10.5596873173
 40
0.8125
100
AcDbArc
 50
270.0
 51
274.1642878977
  0
ARC
  5
23B
100
AcDbEntity
  8
0
100
AcDbCircle
 62
7
  6
CONTINUOUS
 10
12.9593183383
 20
10.5596873173
 40
0.6
100
AcDbArc
 50
340.1578181461
 51
19.8421818217
  0
ARC
  5
23C
100
AcDbEntity
  8
0
100
AcDbCircle
 62
7
  6
CONTINUOUS
 10
13.0543183383
 20
10.5596873173
 40
0.467
100
AcDbArc
 50
239.4827264509
 51
321.4058881075
  0
ARC
  5
23D
100
AcDbEntity
  8
0
100
AcDbCircle
 62
7
  6
CONTINUOUS
 10
13.0543183383
 20
10.5596873173
 40
0.467
100
AcDbArc
 50
38.5941118925
 51
120.5172735491
  0
CIRCLE
  5
23E
100
AcDbEntity
  8
0
100
AcDbCircle
 62
7
  6
CONTINUOUS
 10
13.0543183383
 20
10.5596873173
 40
0.35
  0
ARC
  5
23F
100
AcDbEntity
  8
0
100
AcDbCircle
 62
7
  6
CONTINUOUS
 10
13.0543183383
 20
10.5596873173
 40
0.35
100
AcDbArc
 50
180.0
 51
360.0
  0
ARC
  5
240
100
AcDbEntity
  8
0
100
AcDbCircle
 62
7
  6
CONTINUOUS
 10
12.7460848891
 20
10.0367713195
 40
0.14
100
AcDbArc
 50
59.4827264509
 51
176.3906163205
  0
ARC
  5
241
100
AcDbEntity
  8
0
100
AcDbCircle
 62
7
  6
CONTINUOUS
 10
12.7460848891
 20
11.0826033151
 40
0.14
100
AcDbArc
 50
183.6093836795
 51
300.5172735491
  0
ARC
  5
242
100
AcDbEntity
  8
0
100
AcDbCircle
 62
7
  6
CONTINUOUS
 10
13.4329788631
 20
10.7496873173
 40
0.09
100
AcDbArc
 50
19.6401819394
 51
90.0
  0
ARC
  5
243
100
AcDbEntity
  8
0
100
AcDbCircle
 62
7
  6
CONTINUOUS
 10
13.4329788631
 20
10.3696873173
 40
0.09
100
AcDbArc
 50
270.0
 51
340.3598180252
  0
ARC
  5
244
100
AcDbEntity
  8
0
100
AcDbCircle
 62
7
  6
CONTINUOUS
 10
12.5164684128
 20
10.023494505
 40
0.09
100
AcDbArc
 50
252.442215746
 51
360.0
  0
ARC
  5
245
100
AcDbEntity
  8
0
100
AcDbCircle
 62
7
  6
CONTINUOUS
 10
12.5164684128
 20
11.0958801296
 40
0.09
100
AcDbArc
 50
0.0
 51
107.557784254
  0
LINE
  5
246
100
AcDbEntity
  8
0
100
AcDbLine
 62
7
  6
CONTINUOUS
 10
9.2255733662
 20
10.5600127209
 11
9.225573298
 21
10.5598508436
  0
LINE
  5
247
100
AcDbEntity
  8
0
100
AcDbLine
 62
7
  6
CONTINUOUS
 10
9.225573298
 20
10.5598508436
 11
9.225573275
 21
10.5596873173
  0
LINE
  5
248
100
AcDbEntity
  8
0
100
AcDbLine
 62
7
  6
CONTINUOUS
 10
10.3650634016
 20
10.5596873173
 11
10.365063346
 21
10.5599412474
  0
SPLINE
  5
249
100
AcDbEntity
  8
0
100
AcDbSpline
 62
7
  6
CONTINUOUS
 70
0
 71
3
 72
19
 73
15
 74
0
 42
0.0000001
 43
0.0000001
 44
0.0000000001
 40
0.0
 40
0.0
 40
0.0
 40
0.0
 40
0.0132487383
 40
0.0295543671
 40
0.0513845942
 40
0.079799118
 40
0.1152695696
 40
0.1580324351
 40
0.2082192363
 40
0.2659090056
 40
0.4039524206
 40
0.5723204772
 40
0.7710198904
 40
1.0
 40
1.0
 40
1.0
 40
1.0
 10
11.7793183383
 20
9.6399328951
 30
0.0
 10
11.7793183383
 20
9.6399225901
 30
0.0
 10
11.7793261309
 20
9.6398993792
 30
0.0
 10
11.7793567829
 20
9.6398722445
 30
0.0
 10
11.7794031411
 20
9.6398487602
 30
0.0
 10
11.7794666701
 20
9.639827923
 30
0.0
 10
11.7795476331
 20
9.6398095836
 30
0.0
 10
11.7796463154
 20
9.6397937845
 30
0.0
 10
11.7797627636
 20
9.6397805602
 30
0.0
 10
11.7799534798
 20
9.6397655244
 30
0.0
 10
11.7802365807
 20
9.6397548527
 30
0.0
 10
11.7806294924
 20
9.6397528839
 30
0.0
 10
11.78109306
 20
9.6397614117
 30
0.0
 10
11.7814255156
 20
9.6397732699
 30
0.0
 10
11.7816034625
 20
9.6397807298
 30
0.0
  0
SPLINE
  5
24A
100
AcDbEntity
  8
0
100
AcDbSpline
 62
7
  6
CONTINUOUS
 70
0
 71
3
 72
23
 73
19
 74
0
 42
0.0000001
 43
0.0000001
 44
0.0000000001
 40
0.0
 40
0.0
 40
0.0
 40
0.0
 40
0.0637270128
 40
0.1272156928
 40
0.1904809167
 40
0.2535382968
 40
0.3164035166
 40
0.3790932589
 40
0.4416250041
 40
0.5040155219
 40
0.5662811117
 40
0.6284385316
 40
0.6905041209
 40
0.7524937604
 40
0.8144232064
 40
0.8763053469
 40
0.9381636169
 40
1.0
 40
1.0
 40
1.0
 40
1.0
 10
10.3652764507
 20
4.9248247066
 30
0.0
 10
10.37766181
 20
4.9138435133
 30
0.0
 10
10.4017785735
 20
4.8912257567
 30
0.0
 10
10.4359504207
 20
4.8554140978
 30
0.0
 10
10.4679914802
 20
4.8179111032
 30
0.0
 10
10.4978449498
 20
4.7788491938
 30
0.0
 10
10.5254629861
 20
4.7383572729
 30
0.0
 10
10.5508034094
 20
4.6965624839
 30
0.0
 10
10.5738298174
 20
4.6535898082
 30
0.0
 10
10.5945104775
 20
4.6095624036
 30
0.0
 10
10.6128181544
 20
4.5646018463
 30
0.0
 10
10.6287295007
 20
4.518828065
 30
0.0
 10
10.6422249887
 20
4.4723596116
 30
0.0
 10
10.6532883476
 20
4.4253138324
 30
0.0
 10
10.6619061126
 20
4.3778079452
 30
0.0
 10
10.6680694415
 20
4.3299558955
 30
0.0
 10
10.6717693779
 20
4.2818762643
 30
0.0
 10
10.6725923082
 20
4.2497417532
 30
0.0
 10
10.6725923082
 20
4.2336803715
 30
0.0
  0
SPLINE
  5
24B
100
AcDbEntity
  8
0
100
AcDbSpline
 62
7
  6
CONTINUOUS
 70
0
 71
3
 72
31
 73
27
 74
0
 42
0.0000001
 43
0.0000001
 44
0.0000000001
 40
0.0
 40
0.0
 40
0.0
 40
0.0
 40
0.0624564743
 40
0.1249464099
 40
0.1874668454
 40
0.2499932327
 40
0.2812586955
 40
0.3125159099
 40
0.3437637853
 40
0.3750032526
 40
0.4062378304
 40
0.4374737106
 40
0.4687161994
 40
0.4999677366
 40
0.5624780436
 40
0.6250056218
 40
0.6875216071
 40
0.7187770276
 40
0.7500231143
 40
0.7812612592
 40
0.7968797543
 40
0.8124980537
 40
0.8437349026
 40
0.8749790492
 40
0.9374761059
 40
1.0
 40
1.0
 40
1.0
 40
1.0
 10
9.7953183383
 20
11.1296873173
 30
0.0
 10
9.7766942348
 20
11.1296873173
 30
0.0
 10
9.7394103206
 20
11.1277950076
 30
0.0
 10
9.6840488274
 20
11.1194534058
 30
0.0
 10
9.6297347917
 20
11.1057820629
 30
0.0
 10
9.5857637483
 20
11.090082029
 30
0.0
 10
9.5516358693
 20
11.0750274965
 30
0.0
 10
9.5266209821
 20
11.0625069112
 30
0.0
 10
9.5022569517
 20
11.048779392
 30
0.0
 10
9.4786077127
 20
11.033865955
 30
0.0
 10
9.4557394824
 20
11.0177860932
 30
0.0
 10
9.4337150366
 20
11.0005675993
 30
0.0
 10
9.4125725323
 20
10.9822688116
 30
0.0
 10
9.3856156564
 20
10.9565063795
 30
0.0
 10
9.3543164819
 20
10.921867622
 30
0.0
 10
9.3209451845
 20
10.8768853211
 30
0.0
 10
9.296866314
 20
10.8368863442
 30
0.0
 10
9.2800153786
 20
10.8036190586
 30
0.0
 10
9.2686189851
 20
10.7780824883
 30
0.0
 10
9.2601912885
 20
10.756359918
 30
0.0
 10
9.2541121039
 20
10.7387482411
 30
0.0
 10
9.2484815688
 20
10.7209885243
 30
0.0
 10
9.242285765
 20
10.6985277146
 30
0.0
 10
9.2341727503
 20
10.6621408838
 30
0.0
 10
9.2274016975
 20
10.6159600533
 30
0.0
 10
9.2255838332
 20
10.5786573667
 30
0.0
 10
9.2255733664
 20
10.560013162
 30
0.0
  0
SPLINE
  5
24C
100
AcDbEntity
  8
0
100
AcDbSpline
 62
7
  6
CONTINUOUS
 70
0
 71
3
 72
23
 73
19
 74
0
 42
0.0000001
 43
0.0000001
 44
0.0000000001
 40
0.0
 40
0.0
 40
0.0
 40
0.0
 40
0.0618361667
 40
0.1236944708
 40
0.1855765414
 40
0.2475060075
 40
0.3094957318
 40
0.3715613975
 40
0.4337189444
 40
0.495984639
 40
0.558375265
 40
0.6209071199
 40
0.6835969958
 40
0.7464621797
 40
0.8095194993
 40
0.8727847129
 40
0.9362733691
 40
1.0
 40
1.0
 40
1.0
 40
1.0
 10
8.9180443683
 20
4.2336803715
 30
0.0
 10
8.9180443683
 20
4.2497375551
 30
0.0
 10
8.9188668768
 20
4.2818637283
 30
0.0
 10
8.9225648794
 20
4.3299309599
 30
0.0
 10
8.9287250351
 20
4.3777708582
 30
0.0
 10
8.9373383637
 20
4.4252648939
 30
0.0
 10
8.948396058
 20
4.4722992388
 30
0.0
 10
8.96188468
 20
4.5187567582
 30
0.0
 10
8.9777879643
 20
4.5645201834
 30
0.0
 10
8.9960864174
 20
4.6094710624
 30
0.0
 10
9.0167567543
 20
4.6534895363
 30
0.0
 10
9.0397717411
 20
4.6964541572
 30
0.0
 10
9.0650996875
 20
4.7382418184
 30
0.0
 10
9.0927042171
 20
4.7787276468
 30
0.0
 10
9.1225432357
 20
4.8177845914
 30
0.0
 10
9.1545690037
 20
4.8552838689
 30
0.0
 10
9.1887247226
 20
4.8910931022
 30
0.0
 10
9.2128302236
 20
4.9137102326
 30
0.0
 10
9.2252098466
 20
4.9246913112
 30
0.0
  0
SPLINE
  5
24D
100
AcDbEntity
  8
0
100
AcDbSpline
 62
7
  6
CONTINUOUS
 70
0
 71
3
 72
15
 73
11
 74
0
 42
0.0000001
 43
0.0000001
 44
0.0000000001
 40
0.0
 40
0.0
 40
0.0
 40
0.0
 40
0.1248523113
 40
0.2497192207
 40
0.3746161963
 40
0.4995567836
 40
0.6245543196
 40
0.7496206651
 40
0.8747663035
 40
1.0
 40
1.0
 40
1.0
 40
1.0
 10
9.1116080468
 20
4.4311933396
 30
0.0
 10
9.1116080468
 20
4.4476443326
 30
0.0
 10
9.1128283646
 20
4.4805612781
 30
0.0
 10
9.1183098043
 20
4.5296600288
 30
0.0
 10
9.1274123327
 20
4.5782326188
 30
0.0
 10
9.140086608
 20
4.6260148589
 30
0.0
 10
9.1562636037
 20
4.6727511769
 30
0.0
 10
9.1758561178
 20
4.7181917122
 30
0.0
 10
9.1987560832
 20
4.7620904472
 30
0.0
 10
9.2161434507
 20
4.7901689308
 30
0.0
 10
9.2253401961
 20
4.8038696968
 30
0.0
  0
SPLINE
  5
24E
100
AcDbEntity
  8
0
100
AcDbSpline
 62
7
  6
CONTINUOUS
 70
0
 71
3
 72
15
 73
11
 74
0
 42
0.0000001
 43
0.0000001
 44
0.0000000001
 40
0.0
 40
0.0
 40
0.0
 40
0.0
 40
0.1252336847
 40
0.2503793141
 40
0.3754456538
 40
0.5004431875
 40
0.6253837761
 40
0.7502807573
 40
0.8751476754
 40
1.0
 40
1.0
 40
1.0
 40
1.0
 10
10.3652979636
 20
4.803867487
 30
0.0
 10
10.374494592
 20
4.7901667782
 30
0.0
 10
10.3918817371
 20
4.7620884218
 30
0.0
 10
10.4147814056
 20
4.7181899123
 30
0.0
 10
10.4343736634
 20
4.6727496323
 30
0.0
 10
10.450550446
 20
4.6260135941
 30
0.0
 10
10.4632245537
 20
4.5782316537
 30
0.0
 10
10.4723269612
 20
4.5296593779
 30
0.0
 10
10.4778083281
 20
4.4805609504
 30
0.0
 10
10.4790286297
 20
4.4476442237
 30
0.0
 10
10.4790286297
 20
4.4311933396
 30
0.0
  0
SPLINE
  5
24F
100
AcDbEntity
  8
0
100
AcDbSpline
 62
7
  6
CONTINUOUS
 70
0
 71
3
 72
71
 73
67
 74
0
 42
0.0000001
 43
0.0000001
 44
0.0000000001
 40
0.0
 40
0.0
 40
0.0
 40
0.0
 40
0.0155486688
 40
0.0310989037
 40
0.0466498864
 40
0.0622032626
 40
0.0777594634
 40
0.0933191463
 40
0.1088829769
 40
0.1244515256
 40
0.1400253398
 40
0.1556049121
 40
0.1711906806
 40
0.1867830256
 40
0.2023822641
 40
0.2179886463
 40
0.2336023542
 40
0.2492234999
 40
0.2648521246
 40
0.2804881968
 40
0.2961316122
 40
0.3117821961
 40
0.3274397056
 40
0.3431038302
 40
0.3587741937
 40
0.3744503592
 40
0.3901318354
 40
0.405818079
 40
0.421508498
 40
0.4372024597
 40
0.4528992991
 40
0.4685983229
 40
0.484298814
 40
0.5000000411
 40
0.515701268
 40
0.5314017586
 40
0.5471007814
 40
0.5627976194
 40
0.5784915795
 40
0.5941819964
 40
0.6098682376
 40
0.6255497111
 40
0.6412258737
 40
0.656896234
 40
0.6725603551
 40
0.688217861
 40
0.7038684411
 40
0.7195118527
 40
0.7351479208
 40
0.7507765415
 40
0.7663976832
 40
0.7820113871
 40
0.7976177653
 40
0.8132170001
 40
0.8288093414
 40
0.8443951064
 40
0.8599746754
 40
0.8755484866
 40
0.8911170326
 40
0.9066808607
 40
0.9222405416
 40
0.9377967406
 40
0.9533501154
 40
0.9689010971
 40
0.9844513313
 40
1.0
 40
1.0
 40
1.0
 40
1.0
 10
10.6993183383
 20
4.0385748098
 30
0.0
 10
10.6993183383
 20
4.0239462498
 30
0.0
 10
10.6985901108
 20
3.9946824372
 30
0.0
 10
10.6953166201
 20
3.9508980838
 30
0.0
 10
10.6898692454
 20
3.9073251767
 30
0.0
 10
10.682262095
 20
3.8640716357
 30
0.0
 10
10.6725134349
 20
3.8212414333
 30
0.0
 10
10.6606474899
 20
3.7789386882
 30
0.0
 10
10.646693504
 20
3.7372658095
 30
0.0
 10
10.6306856402
 20
3.6963236871
 30
0.0
 10
10.6126632068
 20
3.6562113351
 30
0.0
 10
10.5926705158
 20
3.6170255787
 30
0.0
 10
10.570756534
 20
3.5788609341
 30
0.0
 10
10.5469747649
 20
3.5418094015
 30
0.0
 10
10.5213833451
 20
3.5059600973
 30
0.0
 10
10.4940447762
 20
3.4713990842
 30
0.0
 10
10.4650256226
 20
3.4382092748
 30
0.0
 10
10.4343963646
 20
3.4064702529
 30
0.0
 10
10.4022314574
 20
3.3762578597
 30
0.0
 10
10.3686089258
 20
3.3476441991
 30
0.0
 10
10.3336101326
 20
3.320697544
 30
0.0
 10
10.2973196335
 20
3.295482146
 30
0.0
 10
10.2598251185
 20
3.2720578625
 30
0.0
 10
10.2212169935
 20
3.250480298
 30
0.0
 10
10.1815881789
 20
3.2308007163
 30
0.0
 10
10.1410339777
 20
3.2130657828
 30
0.0
 10
10.099651873
 20
3.1973173592
 30
0.0
 10
10.0575411814
 20
3.18359268
 30
0.0
 10
10.0148028523
 20
3.1719242897
 30
0.0
 10
9.9715393179
 20
3.1623397001
 30
0.0
 10
9.9278542004
 20
3.154861433
 30
0.0
 10
9.8838520485
 20
3.1495071473
 30
0.0
 10
9.8396381313
 20
3.1462895951
 30
0.0
 10
9.7953182223
 20
3.1452162556
 30
0.0
 10
9.750998314
 20
3.1462896039
 30
0.0
 10
9.7067843994
 20
3.1495071704
 30
0.0
 10
9.6627822517
 20
3.1548614677
 30
0.0
 10
9.6190971395
 20
3.1623397424
 30
0.0
 10
9.5758336116
 20
3.17192434
 30
0.0
 10
9.533095292
 20
3.1835927429
 30
0.0
 10
9.4909846097
 20
3.1973174288
 30
0.0
 10
9.4496025147
 20
3.2130658568
 30
0.0
 10
9.4090483248
 20
3.2308007955
 30
0.0
 10
9.3694195238
 20
3.2504803844
 30
0.0
 10
9.3308114108
 20
3.2720579501
 30
0.0
 10
9.2933169078
 20
3.2954822337
 30
0.0
 10
9.2570264223
 20
3.3206976328
 30
0.0
 10
9.2220276433
 20
3.3476442881
 30
0.0
 10
9.1884051235
 20
3.3762579452
 30
0.0
 10
9.1562402279
 20
3.4064703343
 30
0.0
 10
9.125610983
 20
3.4382093531
 30
0.0
 10
9.0965918406
 20
3.4713991573
 30
0.0
 10
9.0692532812
 20
3.5059601638
 30
0.0
 10
9.0436618705
 20
3.5418094612
 30
0.0
 10
9.0198801108
 20
3.5788609877
 30
0.0
 10
8.9979661361
 20
3.6170256249
 30
0.0
 10
8.9779734509
 20
3.656211374
 30
0.0
 10
8.9599510228
 20
3.696323719
 30
0.0
 10
8.9439431638
 20
3.737265835
 30
0.0
 10
8.9299891808
 20
3.7789387075
 30
0.0
 10
8.9181232382
 20
3.8212414471
 30
0.0
 10
8.9083745798
 20
3.8640716448
 30
0.0
 10
8.9007674304
 20
3.9073251821
 30
0.0
 10
8.8953200563
 20
3.9508980864
 30
0.0
 10
8.8920465657
 20
3.9946824381
 30
0.0
 10
8.8913183383
 20
4.0239462499
 30
0.0
 10
8.8913183383
 20
4.0385748098
 30
0.0
  0
SPLINE
  5
250
100
AcDbEntity
  8
0
100
AcDbSpline
 62
7
  6
CONTINUOUS
 70
0
 71
3
 72
71
 73
67
 74
0
 42
0.0000001
 43
0.0000001
 44
0.0000000001
 40
0.0
 40
0.0
 40
0.0
 40
0.0
 40
0.0155305902
 40
0.0310629391
 40
0.0465963774
 40
0.0621327379
 40
0.0776726153
 40
0.0932168258
 40
0.1087661871
 40
0.1243214095
 40
0.1398831681
 40
0.1554520721
 40
0.1710286617
 40
0.1866134036
 40
0.2022066846
 40
0.2178088101
 40
0.2334200008
 40
0.2490403892
 40
0.264670019
 40
0.2803088459
 40
0.2959567369
 40
0.3116134704
 40
0.3272787405
 40
0.3429521603
 40
0.3586332631
 40
0.3743215073
 40
0.3900162842
 40
0.4057169232
 40
0.4214226951
 40
0.4371328209
 40
0.4528464817
 40
0.4685628253
 40
0.4842809711
 40
0.5000000212
 40
0.5157190712
 40
0.5314372167
 40
0.5471535598
 40
0.5628672199
 40
0.5785773448
 40
0.5942831157
 40
0.6099837534
 40
0.6256785289
 40
0.6413667716
 40
0.6570478727
 40
0.6727212908
 40
0.688386559
 40
0.7040432905
 40
0.7196911795
 40
0.7353300044
 40
0.7509596322
 40
0.7665800184
 40
0.7821912071
 40
0.7977933305
 40
0.8133866096
 40
0.8289713496
 40
0.8445479374
 40
0.8601168397
 40
0.8756785968
 40
0.8912338177
 40
0.9067831778
 40
0.9223273873
 40
0.9378672637
 40
0.9534036235
 40
0.9689370613
 40
0.9844694099
 40
1.0
 40
1.0
 40
1.0
 40
1.0
 10
10.6957837888
 20
4.0732856732
 30
0.0
 10
10.6957837888
 20
4.0587410282
 30
0.0
 10
10.695059086
 20
4.0296448929
 30
0.0
 10
10.6918014357
 20
3.9861112057
 30
0.0
 10
10.6863803349
 20
3.9427871404
 30
0.0
 10
10.6788097237
 20
3.8997797317
 30
0.0
 10
10.6691076259
 20
3.8571920835
 30
0.0
 10
10.6572979613
 20
3.8151274882
 30
0.0
 10
10.6434096136
 20
3.7736875706
 30
0.0
 10
10.6274763326
 20
3.7329724865
 30
0.0
 10
10.6095369778
 20
3.6930805675
 30
0.0
 10
10.5896353674
 20
3.6541080178
 30
0.0
 10
10.567819947
 20
3.6161487945
 30
0.0
 10
10.5441436789
 20
3.5792944045
 30
0.0
 10
10.5186641535
 20
3.5436335319
 30
0.0
 10
10.4914433106
 20
3.5092518771
 30
0.0
 10
10.4625471583
 20
3.4762320528
 30
0.0
 10
10.432045634
 20
3.4446534033
 30
0.0
 10
10.4000126687
 20
3.4145915856
 30
0.0
 10
10.3665257786
 20
3.3861185785
 30
0.0
 10
10.3316658463
 20
3.3593025765
 30
0.0
 10
10.2955169842
 20
3.3342077918
 30
0.0
 10
10.2581664713
 20
3.3108940825
 30
0.0
 10
10.2197043365
 20
3.2894170865
 30
0.0
 10
10.1802231624
 20
3.2698281241
 30
0.0
 10
10.1398179555
 20
3.2521739305
 30
0.0
 10
10.0985859374
 20
3.2364964547
 30
0.0
 10
10.0566261987
 20
3.2228330233
 30
0.0
 10
10.0140394971
 20
3.2112162712
 30
0.0
 10
9.9709281028
 20
3.2016737953
 30
0.0
 10
9.9273955028
 20
3.1942281959
 30
0.0
 10
9.8835461318
 20
3.1888971953
 30
0.0
 10
9.8394851614
 20
3.1856935927
 30
0.0
 10
9.7953182788
 20
3.1846248983
 30
0.0
 10
9.7511513965
 20
3.1856935972
 30
0.0
 10
9.7070904274
 20
3.1888972072
 30
0.0
 10
9.6632410585
 20
3.1942282137
 30
0.0
 10
9.6197084613
 20
3.201673817
 30
0.0
 10
9.5765970703
 20
3.2112162969
 30
0.0
 10
9.5340103735
 20
3.2228330555
 30
0.0
 10
9.4920506397
 20
3.2364964904
 30
0.0
 10
9.4508186266
 20
3.2521739684
 30
0.0
 10
9.4104134255
 20
3.2698281647
 30
0.0
 10
9.3709322584
 20
3.2894171308
 30
0.0
 10
9.3324701297
 20
3.3108941274
 30
0.0
 10
9.295119623
 20
3.3342078367
 30
0.0
 10
9.2589707678
 20
3.3593026219
 30
0.0
 10
9.2241108429
 20
3.3861186241
 30
0.0
 10
9.1906239588
 20
3.4145916294
 30
0.0
 10
9.1585909995
 20
3.444653445
 30
0.0
 10
9.1280894818
 20
3.4762320929
 30
0.0
 10
9.0991933354
 20
3.5092519145
 30
0.0
 10
9.0719724974
 20
3.5436335659
 30
0.0
 10
9.0464929765
 20
3.5792944351
 30
0.0
 10
9.0228167133
 20
3.6161488219
 30
0.0
 10
9.0010012965
 20
3.6541080415
 30
0.0
 10
8.9810996891
 20
3.6930805874
 30
0.0
 10
8.963160337
 20
3.7329725028
 30
0.0
 10
8.9472270584
 20
3.7736875837
 30
0.0
 10
8.9333387123
 20
3.8151274981
 30
0.0
 10
8.9215290488
 20
3.8571920905
 30
0.0
 10
8.9118269519
 20
3.8997797364
 30
0.0
 10
8.9042563413
 20
3.9427871432
 30
0.0
 10
8.8988352408
 20
3.986111207
 30
0.0
 10
8.8955775906
 20
4.0296448934
 30
0.0
 10
8.8948528878
 20
4.0587410283
 30
0.0
 10
8.8948528878
 20
4.0732856732
 30
0.0
  0
SPLINE
  5
251
100
AcDbEntity
  8
0
100
AcDbSpline
 62
7
  6
CONTINUOUS
 70
0
 71
3
 72
65
 73
61
 74
0
 42
0.0000001
 43
0.0000001
 44
0.0000000001
 40
0.0
 40
0.0
 40
0.0
 40
0.0
 40
0.0303229487
 40
0.0606678251
 40
0.0910594727
 40
0.12152093
 40
0.1367895922
 40
0.152085149
 40
0.1674106987
 40
0.1827694221
 40
0.1981646255
 40
0.2135996218
 40
0.2290774846
 40
0.2446012233
 40
0.26017382
 40
0.2757980231
 40
0.2914761263
 40
0.3072099869
 40
0.3230010688
 40
0.3388501625
 40
0.3547571341
 40
0.3707209301
 40
0.3867396085
 40
0.4028100462
 40
0.4189277935
 40
0.4350872674
 40
0.4512818209
 40
0.4675037219
 40
0.4837443138
 40
0.4999943952
 40
0.5162444569
 40
0.5324849894
 40
0.5487067993
 40
0.5649012608
 40
0.5810605926
 40
0.5971781612
 40
0.6132484137
 40
0.6292668829
 40
0.6452304488
 40
0.6611372088
 40
0.6769861076
 40
0.6927769174
 40
0.7085105185
 40
0.7241884111
 40
0.7398124271
 40
0.7553847648
 40
0.7709082735
 40
0.786385947
 40
0.8018207672
 40
0.8172157748
 40
0.8325743216
 40
0.8478997183
 40
0.8631951334
 40
0.8784636705
 40
0.8937085512
 40
0.9089329231
 40
0.9241397949
 40
0.939332293
 40
0.9696770898
 40
1.0
 40
1.0
 40
1.0
 40
1.0
 10
10.6725923082
 20
4.2336803715
 30
0.0
 10
10.6725923082
 20
4.2053164731
 30
0.0
 10
10.6700244129
 20
4.148534834
 30
0.0
 10
10.6584821357
 20
4.064031151
 30
0.0
 10
10.6392933799
 20
3.9807916771
 30
0.0
 10
10.6169976999
 20
3.9130539944
 30
0.0
 10
10.5954466176
 20
3.8601774278
 30
0.0
 10
10.5774168453
 20
3.8212047593
 30
0.0
 10
10.557554432
 20
3.7830392293
 30
0.0
 10
10.5358801991
 20
3.7457642934
 30
0.0
 10
10.5124180763
 20
3.7094658434
 30
0.0
 10
10.4871951019
 20
3.6742306166
 30
0.0
 10
10.4602420641
 20
3.6401467027
 30
0.0
 10
10.4315935487
 20
3.607303554
 30
0.0
 10
10.4012885463
 20
3.5757917032
 30
0.0
 10
10.3693710629
 20
3.5457028031
 30
0.0
 10
10.3358908649
 20
3.5171295045
 30
0.0
 10
10.3009038868
 20
3.4901652895
 30
0.0
 10
10.2644731062
 20
3.4649037176
 30
0.0
 10
10.2266692742
 20
3.4414380233
 30
0.0
 10
10.1875717978
 20
3.4198603649
 30
0.0
 10
10.1472691746
 20
3.4002609831
 30
0.0
 10
10.1058595958
 20
3.3827267954
 30
0.0
 10
10.0634513803
 20
3.3673401173
 30
0.0
 10
10.0201631375
 20
3.3541770789
 30
0.0
 10
9.9761233089
 20
3.3433061224
 30
0.0
 10
9.9314694685
 20
3.3347861417
 30
0.0
 10
9.8863473038
 20
3.3286649969
 30
0.0
 10
9.8409091052
 20
3.3249780391
 30
0.0
 10
9.795311776
 20
3.3237468817
 30
0.0
 10
9.7497145231
 20
3.3249787975
 30
0.0
 10
9.704276543
 20
3.3286664657
 30
0.0
 10
9.6591546911
 20
3.3347882188
 30
0.0
 10
9.614501262
 20
3.3433087314
 30
0.0
 10
9.5704619586
 20
3.3541802041
 30
0.0
 10
9.5271743547
 20
3.3673437191
 30
0.0
 10
9.4847668794
 20
3.3827308625
 30
0.0
 10
9.4433580586
 20
3.4002653369
 30
0.0
 10
9.4030562017
 20
3.4198648983
 30
0.0
 10
9.3639594442
 20
3.4414426265
 30
0.0
 10
9.3261564092
 20
3.4649084024
 30
0.0
 10
9.2897264511
 20
3.4901699656
 30
0.0
 10
9.2547402624
 20
3.517134064
 30
0.0
 10
9.2212607142
 20
3.5457071757
 30
0.0
 10
9.1893438908
 20
3.5757958811
 30
0.0
 10
9.159039553
 20
3.6073074925
 30
0.0
 10
9.1303916404
 20
3.6401503225
 30
0.0
 10
9.1034390811
 20
3.6742339056
 30
0.0
 10
9.0782165783
 20
3.7094688202
 30
0.0
 10
9.0547548758
 20
3.7457669457
 30
0.0
 10
9.03308101
 20
3.7830414667
 30
0.0
 10
9.0132188313
 20
3.8212068369
 30
0.0
 10
8.9951895271
 20
3.8601785001
 30
0.0
 10
8.9790115649
 20
3.8998728365
 30
0.0
 10
8.9647009723
 20
3.9402073325
 30
0.0
 10
8.9522715742
 20
3.9811000179
 30
0.0
 10
8.941734983
 20
4.0224708838
 30
0.0
 10
8.9302292826
 20
4.0781305266
 30
0.0
 10
8.9206117666
 20
4.1485370772
 30
0.0
 10
8.9180443683
 20
4.2053165091
 30
0.0
 10
8.9180443683
 20
4.2336803715
 30
0.0
  0
SPLINE
  5
252
100
AcDbEntity
  8
0
100
AcDbSpline
 62
7
  6
CONTINUOUS
 70
0
 71
3
 72
61
 73
57
 74
0
 42
0.0000001
 43
0.0000001
 44
0.0000000001
 40
0.0
 40
0.0
 40
0.0
 40
0.0
 40
0.0155381408
 40
0.0310783209
 40
0.046619251
 40
0.0621629057
 40
0.0932513123
 40
0.1243588331
 40
0.1399262111
 40
0.1555002586
 40
0.1710814753
 40
0.1866702992
 40
0.202267097
 40
0.2178721516
 40
0.2334856687
 40
0.2491077779
 40
0.2647385226
 40
0.280377859
 40
0.2960256661
 40
0.3116817396
 40
0.3273457941
 40
0.3430174697
 40
0.3586963309
 40
0.3743818715
 40
0.3900735246
 40
0.4057706637
 40
0.4371693931
 40
0.4685813431
 40
0.5000000314
 40
0.5314187191
 40
0.5628306674
 40
0.5942293939
 40
0.6099265312
 40
0.6256181822
 40
0.6413037206
 40
0.6569825793
 40
0.6726542523
 40
0.688318304
 40
0.7039743747
 40
0.7196221787
 40
0.7352615121
 40
0.7508922537
 40
0.7665143598
 40
0.7821278738
 40
0.7977329255
 40
0.8133297204
 40
0.8289185415
 40
0.8444997555
 40
0.8600738005
 40
0.8756411762
 40
0.9067486931
 40
0.9378370967
 40
0.9533807504
 40
0.9689216797
 40
0.9844618592
 40
1.0
 40
1.0
 40
1.0
 40
1.0
 10
10.4790286297
 20
4.4311933396
 30
0.0
 10
10.4790286297
 20
4.4201429925
 30
0.0
 10
10.4784781285
 20
4.3980368673
 30
0.0
 10
10.4760039187
 20
4.3649619444
 30
0.0
 10
10.4718862194
 20
4.3320456314
 30
0.0
 10
10.464220465
 20
4.2884838959
 30
0.0
 10
10.4505838635
 20
4.2348052892
 30
0.0
 10
10.4316825705
 20
4.1827292424
 30
0.0
 10
10.4135236965
 20
4.1423384129
 30
0.0
 10
10.398408978
 20
4.1127311858
 30
0.0
 10
10.3818412546
 20
4.0838951876
 30
0.0
 10
10.3638607902
 20
4.0558988458
 30
0.0
 10
10.3445113724
 20
4.0288098161
 30
0.0
 10
10.3238399351
 20
4.0026932375
 30
0.0
 10
10.3018968633
 20
3.9776117174
 30
0.0
 10
10.2787353793
 20
3.9536254075
 30
0.0
 10
10.2544114914
 20
3.930791907
 30
0.0
 10
10.2289842126
 20
3.9091657346
 30
0.0
 10
10.2025150485
 20
3.8887985468
 30
0.0
 10
10.17506782
 20
3.8697391323
 30
0.0
 10
10.1467088228
 20
3.8520328656
 30
0.0
 10
10.1175064806
 20
3.835721855
 30
0.0
 10
10.0875309577
 20
3.8208450736
 30
0.0
 10
10.0568546732
 20
3.8074379359
 30
0.0
 10
10.0255504127
 20
3.7955319754
 30
0.0
 10
9.9830794312
 20
3.7816977994
 30
0.0
 10
9.9287824049
 20
3.7682882572
 30
0.0
 10
9.8623727244
 20
3.7585769622
 30
0.0
 10
9.7953182716
 20
3.7553289319
 30
0.0
 10
9.7282638203
 20
3.7585769737
 30
0.0
 10
9.6618541461
 20
3.7682882844
 30
0.0
 10
9.6075571255
 20
3.7816978309
 30
0.0
 10
9.5650861521
 20
3.7955320165
 30
0.0
 10
9.5337818972
 20
3.8074379791
 30
0.0
 10
9.5031056188
 20
3.8208451188
 30
0.0
 10
9.4731301041
 20
3.8357219049
 30
0.0
 10
9.4439277687
 20
3.8520329161
 30
0.0
 10
9.4155687782
 20
3.8697391825
 30
0.0
 10
9.3881215584
 20
3.8887985988
 30
0.0
 10
9.3616524016
 20
3.9091657856
 30
0.0
 10
9.3362251294
 20
3.9307919558
 30
0.0
 10
9.3119012494
 20
3.9536254552
 30
0.0
 10
9.2887397725
 20
3.9776117627
 30
0.0
 10
9.2667967063
 20
4.0026932791
 30
0.0
 10
9.2461252752
 20
4.0288098545
 30
0.0
 10
9.2267758634
 20
4.0558988807
 30
0.0
 10
9.2087954031
 20
4.0838952181
 30
0.0
 10
9.192227684
 20
4.1127312123
 30
0.0
 10
9.1771129697
 20
4.1423384356
 30
0.0
 10
9.1589540989
 20
4.1827292597
 30
0.0
 10
9.1400528099
 20
4.234805301
 30
0.0
 10
9.1264162101
 20
4.2884839023
 30
0.0
 10
9.1187504567
 20
4.3320456345
 30
0.0
 10
9.1146327578
 20
4.3649619459
 30
0.0
 10
9.112158548
 20
4.3980368678
 30
0.0
 10
9.1116080468
 20
4.4201429925
 30
0.0
 10
9.1116080468
 20
4.4311933396
 30
0.0
  0
SPLINE
  5
253
100
AcDbEntity
  8
0
100
AcDbSpline
 62
7
  6
CONTINUOUS
 70
0
 71
3
 72
61
 73
57
 74
0
 42
0.0000001
 43
0.0000001
 44
0.0000000001
 40
0.0
 40
0.0
 40
0.0
 40
0.0
 40
0.0155433395
 40
0.0310886613
 40
0.0466346357
 40
0.062183183
 40
0.0932807327
 40
0.1243962464
 40
0.1399670906
 40
0.1555442053
 40
0.1711280608
 40
0.1867190707
 40
0.2023175814
 40
0.2179238596
 40
0.2335381003
 40
0.2491604272
 40
0.2647908828
 40
0.2804294271
 40
0.2960759474
 40
0.3117302528
 40
0.327392076
 40
0.3430610792
 40
0.3587368529
 40
0.3744189209
 40
0.3901067501
 40
0.4057997506
 40
0.4371894176
 40
0.4685915507
 40
0.5000000379
 40
0.5314085244
 40
0.5628106554
 40
0.594200319
 40
0.6098933172
 40
0.625581144
 40
0.6412632092
 40
0.6569389799
 40
0.67260798
 40
0.6882697998
 40
0.7039241018
 40
0.7195706185
 40
0.735209159
 40
0.750839611
 40
0.7664619342
 40
0.7820761711
 40
0.7976824458
 40
0.8132809529
 40
0.8288719594
 40
0.8444558117
 40
0.8600329235
 40
0.8756037648
 40
0.9067192738
 40
0.9378168199
 40
0.953365366
 40
0.9689113395
 40
0.9844566606
 40
1.0
 40
1.0
 40
1.0
 40
1.0
 10
10.4593183383
 20
4.4615817706
 30
0.0
 10
10.4593183383
 20
4.4508443283
 30
0.0
 10
10.4587835632
 20
4.4293642082
 30
0.0
 10
10.4563800335
 20
4.3972259519
 30
0.0
 10
10.4523799828
 20
4.3652419448
 30
0.0
 10
10.4449333428
 20
4.3229145707
 30
0.0
 10
10.4316867805
 20
4.270757839
 30
0.0
 10
10.4133261812
 20
4.2201584284
 30
0.0
 10
10.3956870203
 20
4.1809136137
 30
0.0
 10
10.3810052894
 20
4.1521472209
 30
0.0
 10
10.3649124471
 20
4.1241306291
 30
0.0
 10
10.3474476673
 20
4.0969303218
 30
0.0
 10
10.3286535459
 20
4.0706120202
 30
0.0
 10
10.3085757288
 20
4.0452389924
 30
0.0
 10
10.2872632114
 20
4.0208720357
 30
0.0
 10
10.2647677396
 20
3.9975695514
 30
0.0
 10
10.2411437569
 20
3.9753874538
 30
0.0
 10
10.216448617
 20
3.9543786579
 30
0.0
 10
10.1907420876
 20
3.9345932901
 30
0.0
 10
10.1640861742
 20
3.9160786866
 30
0.0
 10
10.1365452749
 20
3.8988788652
 30
0.0
 10
10.1081858463
 20
3.883034666
 30
0.0
 10
10.0790760245
 20
3.8685838838
 30
0.0
 10
10.0492861247
 20
3.8555608588
 30
0.0
 10
10.0188868083
 20
3.8439961617
 30
0.0
 10
9.9776444284
 20
3.830558795
 30
0.0
 10
9.9249187352
 20
3.8175339981
 30
0.0
 10
9.8604313165
 20
3.8081013984
 30
0.0
 10
9.7953182601
 20
3.8049466043
 30
0.0
 10
9.7302052055
 20
3.8081014118
 30
0.0
 10
9.6657177941
 20
3.81753403
 30
0.0
 10
9.6129921077
 20
3.8305588319
 30
0.0
 10
9.5717497373
 20
3.8439962099
 30
0.0
 10
9.5413504275
 20
3.8555609095
 30
0.0
 10
9.5115605347
 20
3.8685839368
 30
0.0
 10
9.4824507225
 20
3.8830347245
 30
0.0
 10
9.454091302
 20
3.8988789245
 30
0.0
 10
9.4265504105
 20
3.9160787456
 30
0.0
 10
9.3998945073
 20
3.9345933511
 30
0.0
 10
9.3741879866
 20
3.9543787177
 30
0.0
 10
9.3494928543
 20
3.975387511
 30
0.0
 10
9.3258688809
 20
3.9975696073
 30
0.0
 10
9.3033734173
 20
4.0208720888
 30
0.0
 10
9.2820609065
 20
4.0452390412
 30
0.0
 10
9.2619830967
 20
4.0706120652
 30
0.0
 10
9.2431889823
 20
4.0969303628
 30
0.0
 10
9.2257242074
 20
4.1241306649
 30
0.0
 10
9.20963137
 20
4.152147252
 30
0.0
 10
9.1949496441
 20
4.1809136402
 30
0.0
 10
9.177310487
 20
4.2201584487
 30
0.0
 10
9.1589498925
 20
4.2707578528
 30
0.0
 10
9.145703332
 20
4.3229145781
 30
0.0
 10
9.1382566934
 20
4.3652419484
 30
0.0
 10
9.1342566429
 20
4.3972259536
 30
0.0
 10
9.1318531134
 20
4.4293642088
 30
0.0
 10
9.1313183383
 20
4.4508443284
 30
0.0
 10
9.1313183383
 20
4.4615817706
 30
0.0
  0
SPLINE
  5
254
100
AcDbEntity
  8
0
100
AcDbSpline
 62
7
  6
CONTINUOUS
 70
0
 71
3
 72
31
 73
27
 74
0
 42
0.0000001
 43
0.0000001
 44
0.0000000001
 40
0.0
 40
0.0
 40
0.0
 40
0.0
 40
0.0625239082
 40
0.1250210018
 40
0.1562651669
 40
0.1875020266
 40
0.2031203269
 40
0.2187388193
 40
0.249976951
 40
0.2812230201
 40
0.3124784232
 40
0.3749943829
 40
0.437521959
 40
0.5000322817
 40
0.5312838299
 40
0.5625263276
 40
0.593762212
 40
0.6249967869
 40
0.6562362471
 40
0.687484114
 40
0.7187413208
 40
0.750006778
 40
0.8125331583
 40
0.8750535935
 40
0.9375435291
 40
1.0
 40
1.0
 40
1.0
 40
1.0
 10
10.3650633459
 20
10.5599415934
 30
0.0
 10
10.3650551774
 20
10.5785872939
 30
0.0
 10
10.3632416231
 20
10.6158932046
 30
0.0
 10
10.3564752422
 20
10.6620785211
 30
0.0
 10
10.3483655339
 20
10.6984691639
 30
0.0
 10
10.3421716147
 20
10.7209324359
 30
0.0
 10
10.3365424837
 20
10.7386941633
 30
0.0
 10
10.33046461
 20
10.7563078639
 30
0.0
 10
10.3220383673
 20
10.7780329877
 30
0.0
 10
10.3106434358
 20
10.803572645
 30
0.0
 10
10.2937940854
 20
10.8368440576
 30
0.0
 10
10.2697165353
 20
10.8768481863
 30
0.0
 10
10.2363458536
 20
10.9218365305
 30
0.0
 10
10.2050464461
 20
10.9564801326
 30
0.0
 10
10.1780889732
 20
10.982246272
 30
0.0
 10
10.1569458241
 20
11.0005477435
 30
0.0
 10
10.134920549
 20
11.0177688125
 30
0.0
 10
10.1120513056
 20
11.0338511192
 30
0.0
 10
10.0884008609
 20
11.0487668283
 30
0.0
 10
10.064035455
 20
11.0624964501
 30
0.0
 10
10.039019036
 20
11.0750189611
 30
0.0
 10
10.0048889283
 20
11.0900758194
 30
0.0
 10
9.9609147845
 20
11.1057782961
 30
0.0
 10
9.9065966599
 20
11.1194517831
 30
0.0
 10
9.8512308273
 20
11.1277947049
 30
0.0
 10
9.8139439296
 20
11.1296873173
 30
0.0
 10
9.7953183383
 20
11.1296873173
 30
0.0
  0
SPLINE
  5
255
100
AcDbEntity
  8
0
100
AcDbSpline
 62
7
  6
CONTINUOUS
 70
0
 71
3
 72
19
 73
15
 74
0
 42
0.0000001
 43
0.0000001
 44
0.0000000001
 40
0.0
 40
0.0
 40
0.0
 40
0.0
 40
0.2289801096
 40
0.4276795228
 40
0.5960475794
 40
0.7340909944
 40
0.7917807637
 40
0.8419675649
 40
0.8847304304
 40
0.920200882
 40
0.9486154058
 40
0.970445633
 40
0.9867512617
 40
1.0
 40
1.0
 40
1.0
 40
1.0
 10
11.7816034625
 20
11.4795939048
 30
0.0
 10
11.7814255156
 20
11.4796013647
 30
0.0
 10
11.78109306
 20
11.4796132229
 30
0.0
 10
11.7806294924
 20
11.4796217507
 30
0.0
 10
11.7802365807
 20
11.4796197819
 30
0.0
 10
11.7799534798
 20
11.4796091102
 30
0.0
 10
11.7797627636
 20
11.4795940744
 30
0.0
 10
11.7796463154
 20
11.4795808501
 30
0.0
 10
11.7795476331
 20
11.479565051
 30
0.0
 10
11.7794666701
 20
11.4795467116
 30
0.0
 10
11.7794031411
 20
11.4795258744
 30
0.0
 10
11.7793567829
 20
11.4795023901
 30
0.0
 10
11.7793261309
 20
11.4794752554
 30
0.0
 10
11.7793183383
 20
11.4794520445
 30
0.0
 10
11.7793183383
 20
11.4794417395
 30
0.0
  0
SPLINE
  5
256
100
AcDbEntity
  8
0
100
AcDbSpline
 62
9
  6
CONTINUOUS
 70
0
 71
3
 72
47
 73
43
 74
0
 42
0.0000001
 43
0.0000001
 44
0.0000000001
 40
0.0
 40
0.0
 40
0.0
 40
0.0
 40
0.0466011216
 40
0.0930800218
 40
0.139302214
 40
0.1851477004
 40
0.2304933338
 40
0.2752202394
 40
0.3192156638
 40
0.3623731471
 40
0.4045945293
 40
0.4457903675
 40
0.4858806738
 40
0.5247958319
 40
0.5624759271
 40
0.5988705394
 40
0.633938945
 40
0.6676484185
 40
0.6999723758
 40
0.730889549
 40
0.760381653
 40
0.7884318257
 40
0.8150218634
 40
0.8401294018
 40
0.8637255876
 40
0.8749462215
 40
0.8857733953
 40
0.9062182259
 40
0.9158228342
 40
0.9250039899
 40
0.9337531556
 40
0.9420617307
 40
0.949921626
 40
0.9573291505
 40
0.9642863417
 40
0.9707979617
 40
0.9768610962
 40
0.98245732
 40
0.9875690282
 40
0.9921879316
 40
0.9963228742
 40
1.0
 40
1.0
 40
1.0
 40
1.0
 10
11.0223388401
 20
10.5596873173
 30
0.0
 10
11.0222712215
 20
10.54371344
 30
0.0
 10
11.0218187289
 20
10.5118078975
 30
0.0
 10
11.0201384422
 20
10.4640836143
 30
0.0
 10
11.0174042187
 20
10.4166668218
 30
0.0
 10
11.0135649977
 20
10.369715946
 30
0.0
 10
11.0085874724
 20
10.3233870028
 30
0.0
 10
11.0024472677
 20
10.2778370274
 30
0.0
 10
10.9951328959
 20
10.233220155
 30
0.0
 10
10.9866513217
 20
10.1896845538
 30
0.0
 10
10.9770232953
 20
10.1473711787
 30
0.0
 10
10.966279647
 20
10.1064126854
 30
0.0
 10
10.9544589047
 20
10.0669330619
 30
0.0
 10
10.9416202598
 20
10.0290424892
 30
0.0
 10
10.9278293937
 20
9.9928400326
 30
0.0
 10
10.9131578552
 20
9.9584138418
 30
0.0
 10
10.8976844005
 20
9.9258407295
 30
0.0
 10
10.8814997985
 20
9.895184049
 30
0.0
 10
10.8647046319
 20
9.8664946188
 30
0.0
 10
10.8474101422
 20
9.8398103376
 30
0.0
 10
10.8297329613
 20
9.8151594743
 30
0.0
 10
10.8117950814
 20
9.7925628858
 30
0.0
 10
10.7937310218
 20
9.7720295779
 30
0.0
 10
10.7756836566
 20
9.7535626137
 30
0.0
 10
10.7605414114
 20
9.7396658811
 30
0.0
 10
10.7485670731
 20
9.7295924412
 30
0.0
 10
10.7371530286
 20
9.7205414253
 30
0.0
 10
10.7257966433
 20
9.7123160682
 30
0.0
 10
10.7145364322
 20
9.7049611142
 30
0.0
 10
10.7064671362
 20
9.7000614885
 30
0.0
 10
10.6986210653
 20
9.6956604934
 30
0.0
 10
10.6910220342
 20
9.691756219
 30
0.0
 10
10.6836932864
 20
9.6883452483
 30
0.0
 10
10.6766533251
 20
9.6854272176
 30
0.0
 10
10.6699165678
 20
9.6830046738
 30
0.0
 10
10.6634995689
 20
9.6810818649
 30
0.0
 10
10.6574317234
 20
9.6796573508
 30
0.0
 10
10.6517558851
 20
9.678715169
 30
0.0
 10
10.6465178462
 20
9.6782431083
 30
0.0
 10
10.6417574236
 20
9.6782312875
 30
0.0
 10
10.6375105765
 20
9.6786740719
 30
0.0
 10
10.6348956261
 20
9.6793064223
 30
0.0
 10
10.6337019953
 20
9.679711373
 30
0.0
  0
SPLINE
  5
257
100
AcDbEntity
  8
0
100
AcDbSpline
 62
9
  6
CONTINUOUS
 70
0
 71
3
 72
27
 73
23
 74
0
 42
0.0000001
 43
0.0000001
 44
0.0000000001
 40
0.0
 40
0.0
 40
0.0
 40
0.0
 40
0.0782424283
 40
0.1561594719
 40
0.2334019185
 40
0.3095722741
 40
0.3842456311
 40
0.4569879696
 40
0.527368906
 40
0.5949831964
 40
0.6594555247
 40
0.7204448878
 40
0.7776618202
 40
0.8308643229
 40
0.8558977157
 40
0.8798534155
 40
0.9027117397
 40
0.9244555324
 40
0.945069299
 40
0.9645394929
 40
0.9828533276
 40
1.0
 40
1.0
 40
1.0
 40
1.0
 10
10.8008918027
 20
10.5596873173
 30
0.0
 10
10.800907681
 20
10.5335966676
 30
0.0
 10
10.7991268599
 20
10.4815047702
 30
0.0
 10
10.7911004184
 20
10.4040312505
 30
0.0
 10
10.777930974
 20
10.3279638836
 30
0.0
 10
10.7599367718
 20
10.2540077856
 30
0.0
 10
10.7375472377
 20
10.182836101
 30
0.0
 10
10.711288194
 20
10.1150695478
 30
0.0
 10
10.68177091
 20
10.0512460327
 30
0.0
 10
10.6496643455
 20
9.9918059348
 30
0.0
 10
10.6156751703
 20
9.9370808541
 30
0.0
 10
10.5805222549
 20
9.8872888746
 30
0.0
 10
10.5449106123
 20
9.8425423177
 30
0.0
 10
10.5148293928
 20
9.8088144317
 30
0.0
 10
10.4910942935
 20
9.7843580905
 30
0.0
 10
10.4739427994
 20
9.7676258176
 30
0.0
 10
10.4571485565
 20
9.7521107817
 30
0.0
 10
10.4407784747
 20
9.7377908013
 30
0.0
 10
10.424895645
 20
9.7246415667
 30
0.0
 10
10.4095598555
 20
9.7126365999
 30
0.0
 10
10.3948275838
 20
9.7017480486
 30
0.0
 10
10.3851218238
 20
9.6949904102
 30
0.0
 10
10.3803807579
 20
9.6917943879
 30
0.0
  0
SPLINE
  5
258
100
AcDbEntity
  8
0
100
AcDbSpline
 62
7
  6
CONTINUOUS
 70
0
 71
3
 72
31
 73
27
 74
0
 42
0.0000001
 43
0.0000001
 44
0.0000000001
 40
0.0
 40
0.0
 40
0.0
 40
0.0
 40
0.062015823
 40
0.1240498197
 40
0.1550891558
 40
0.1861388168
 40
0.2172007881
 40
0.2482774201
 40
0.2793705657
 40
0.3104819946
 40
0.3727470707
 40
0.4351000443
 40
0.4663201097
 40
0.4975635359
 40
0.5288304011
 40
0.5601205475
 40
0.591433521
 40
0.6227688047
 40
0.6541258496
 40
0.6855036156
 40
0.7169007768
 40
0.748316028
 40
0.8111765399
 40
0.8740887015
 40
0.9370351658
 40
1.0
 40
1.0
 40
1.0
 40
1.0
 10
9.225573275
 20
4.4804523426
 30
0.0
 10
9.2255732754
 20
4.462092655
 30
0.0
 10
9.2273705029
 20
4.4253441978
 30
0.0
 10
9.2341181718
 20
4.3798496386
 30
0.0
 10
9.242214653
 20
4.3439927522
 30
0.0
 10
9.2496414381
 20
4.3174215502
 30
0.0
 10
9.2584260217
 20
4.2912565822
 30
0.0
 10
9.2685356901
 20
4.2655610224
 30
0.0
 10
9.2799311725
 20
4.2403929259
 30
0.0
 10
9.2967811793
 20
4.207607916
 30
0.0
 10
9.3208567088
 20
4.1681985585
 30
0.0
 10
9.348652702
 20
4.1312804218
 30
0.0
 10
9.3729673922
 20
4.1034394683
 30
0.0
 10
9.3922216816
 20
4.0834419718
 30
0.0
 10
9.4124442282
 20
4.0643946078
 30
0.0
 10
9.4335957167
 20
4.0463519332
 30
0.0
 10
9.4556384742
 20
4.0293760694
 30
0.0
 10
9.4785226052
 20
4.0135177393
 30
0.0
 10
9.5021894427
 20
3.9988171878
 30
0.0
 10
9.5265659088
 20
3.985289369
 30
0.0
 10
9.5515866817
 20
3.9729540144
 30
0.0
 10
9.5857211026
 20
3.9581233196
 30
0.0
 10
9.6296927803
 20
3.9426588476
 30
0.0
 10
9.6840009198
 20
3.9291895703
 30
0.0
 10
9.7393768167
 20
3.9209638788
 30
0.0
 10
9.7766776973
 20
3.9190964079
 30
0.0
 10
9.7953183383
 20
3.9190964079
 30
0.0
  0
SPLINE
  5
259
100
AcDbEntity
  8
0
100
AcDbSpline
 62
7
  6
CONTINUOUS
 70
0
 71
3
 72
31
 73
27
 74
0
 42
0.0000001
 43
0.0000001
 44
0.0000000001
 40
0.0
 40
0.0
 40
0.0
 40
0.0
 40
0.0629648355
 40
0.1259112972
 40
0.1888234597
 40
0.2516839714
 40
0.2830992226
 40
0.314496384
 40
0.3458741506
 40
0.3772311961
 40
0.4085664793
 40
0.4398794518
 40
0.4711695979
 40
0.5024364633
 40
0.5336798901
 40
0.5648999557
 40
0.6272529293
 40
0.6895180056
 40
0.7206294329
 40
0.7517225765
 40
0.7827992097
 40
0.8138611836
 40
0.8449108448
 40
0.87595018
 40
0.9379841767
 40
1.0
 40
1.0
 40
1.0
 40
1.0
 10
9.7953183383
 20
3.9190964079
 30
0.0
 10
9.8139589796
 20
3.9190964079
 30
0.0
 10
9.8512598598
 20
3.9209638788
 30
0.0
 10
9.9066357566
 20
3.9291895703
 30
0.0
 10
9.9609438957
 20
3.9426588474
 30
0.0
 10
10.0049155735
 20
3.9581233194
 30
0.0
 10
10.0390499944
 20
3.9729540142
 30
0.0
 10
10.0640707676
 20
3.9852893689
 30
0.0
 10
10.088447234
 20
3.998817188
 30
0.0
 10
10.1121140717
 20
4.0135177395
 30
0.0
 10
10.1349982027
 20
4.0293760692
 30
0.0
 10
10.1570409595
 20
4.046351933
 30
0.0
 10
10.1781924478
 20
4.0643946073
 30
0.0
 10
10.1984149945
 20
4.0834419713
 30
0.0
 10
10.2176692842
 20
4.1034394681
 30
0.0
 10
10.2419839746
 20
4.1312804218
 30
0.0
 10
10.2697799678
 20
4.1681985586
 30
0.0
 10
10.2938554971
 20
4.2076079157
 30
0.0
 10
10.3107055034
 20
4.2403929247
 30
0.0
 10
10.3221009858
 20
4.2655610204
 30
0.0
 10
10.3322106537
 20
4.291256581
 30
0.0
 10
10.3409952386
 20
4.3174215498
 30
0.0
 10
10.3484220237
 20
4.3439927524
 30
0.0
 10
10.3565185047
 20
4.3798496387
 30
0.0
 10
10.3632661737
 20
4.4253441977
 30
0.0
 10
10.3650634012
 20
4.4620926549
 30
0.0
 10
10.3650634016
 20
4.4804523426
 30
0.0
  0
SPLINE
  5
25A
100
AcDbEntity
  8
0
100
AcDbSpline
 62
9
  6
CONTINUOUS
 70
0
 71
3
 72
43
 73
39
 74
0
 42
0.0000001
 43
0.0000001
 44
0.0000000001
 40
0.0
 40
0.0
 40
0.0
 40
0.0
 40
0.0310293756
 40
0.0620876141
 40
0.0931769093
 40
0.1242988262
 40
0.1554542724
 40
0.1866434818
 40
0.2178660122
 40
0.249120756
 40
0.2804059644
 40
0.3117192842
 40
0.343057806
 40
0.3587378699
 40
0.3744229207
 40
0.4058011963
 40
0.4371932415
 40
0.4528954318
 40
0.4685993755
 40
0.5000053987
 40
0.5314113565
 40
0.5471152188
 40
0.5628172953
 40
0.5942090192
 40
0.625586854
 40
0.6412716424
 40
0.6569514172
 40
0.6882892871
 40
0.7196018678
 40
0.7508862644
 40
0.7821401399
 40
0.8133617626
 40
0.8445500433
 40
0.8757045581
 40
0.9068255596
 40
0.9379139739
 40
0.9689713839
 40
1.0
 40
1.0
 40
1.0
 40
1.0
 10
10.5371309935
 20
3.7478775419
 30
0.0
 10
10.5289178884
 20
3.7306235442
 30
0.0
 10
10.511241952
 20
3.6966752043
 30
0.0
 10
10.4811533316
 20
3.6477603501
 30
0.0
 10
10.4476234101
 20
3.6010633345
 30
0.0
 10
10.4108221398
 20
3.5568218369
 30
0.0
 10
10.3709337886
 20
3.5152567669
 30
0.0
 10
10.3281586601
 20
3.4765767782
 30
0.0
 10
10.282711326
 20
3.4409757026
 30
0.0
 10
10.2348199299
 20
3.4086320517
 30
0.0
 10
10.1847242668
 20
3.3797077765
 30
0.0
 10
10.1326772955
 20
3.3543483946
 30
0.0
 10
10.0878976322
 20
3.3362931273
 30
0.0
 10
10.0513691405
 20
3.3237501021
 30
0.0
 10
10.0144008427
 20
3.3124847575
 30
0.0
 10
9.9674680036
 20
3.3008331485
 30
0.0
 10
9.9198259579
 20
3.2924844085
 30
0.0
 10
9.8814290651
 20
3.2878104863
 30
0.0
 10
9.8428839577
 20
3.2844776187
 30
0.0
 10
9.7945170831
 20
3.2828362492
 30
0.0
 10
9.7461535076
 20
3.2845707123
 30
0.0
 10
9.7076150472
 20
3.287977761
 30
0.0
 10
9.6692275427
 20
3.2927255845
 30
0.0
 10
9.621602198
 20
3.3011659912
 30
0.0
 10
9.5746925259
 20
3.3129079318
 30
0.0
 10
9.5377466166
 20
3.3242444046
 30
0.0
 10
9.5012431213
 20
3.3368577237
 30
0.0
 10
9.4564993985
 20
3.3549991258
 30
0.0
 10
9.4045028434
 20
3.3804586442
 30
0.0
 10
9.354464666
 20
3.4094792922
 30
0.0
 10
9.3066375378
 20
3.4419150699
 30
0.0
 10
9.2612609323
 20
3.4776035638
 30
0.0
 10
9.218562639
 20
3.5163658236
 30
0.0
 10
9.1787568448
 20
3.5580076046
 30
0.0
 10
9.1420434392
 20
3.6023198673
 30
0.0
 10
9.1086062528
 20
3.6490813481
 30
0.0
 10
9.078614761
 20
3.6980540374
 30
0.0
 10
9.0610062632
 20
3.7320363069
 30
0.0
 10
9.0528274219
 20
3.7493060554
 30
0.0
  0
SPLINE
  5
25B
100
AcDbEntity
  8
0
100
AcDbSpline
 62
9
  6
CONTINUOUS
 70
0
 71
3
 72
49
 73
45
 74
0
 42
0.0000001
 43
0.0000001
 44
0.0000000001
 40
0.0
 40
0.0
 40
0.0
 40
0.0
 40
0.0155023452
 40
0.031009072
 40
0.0465210588
 40
0.0620390767
 40
0.093088466
 40
0.1241699305
 40
0.1397277768
 40
0.1552951016
 40
0.1708722486
 40
0.1864594822
 40
0.2020569933
 40
0.2176648947
 40
0.2489045027
 40
0.2801850556
 40
0.3115046242
 40
0.3428601044
 40
0.374247315
 40
0.4056611249
 40
0.4370956087
 40
0.4685442262
 40
0.5000000172
 40
0.531455808
 40
0.5629044246
 40
0.5943389072
 40
0.6257527153
 40
0.6571399238
 40
0.6884954014
 40
0.7198149672
 40
0.7510955171
 40
0.782335122
 40
0.7979430219
 40
0.8135405315
 40
0.8291277635
 40
0.8447049091
 40
0.8602722324
 40
0.8758300773
 40
0.9069115393
 40
0.9379609264
 40
0.9534789433
 40
0.9689909293
 40
0.9844976553
 40
1.0
 40
1.0
 40
1.0
 40
1.0
 10
10.6776716111
 20
3.8940783921
 30
0.0
 10
10.6754026349
 20
3.8814441242
 30
0.0
 10
10.6703040004
 20
3.8562688832
 30
0.0
 10
10.66099322
 20
3.8188781214
 30
0.0
 10
10.6500351527
 20
3.7819214788
 30
0.0
 10
10.6332566284
 20
3.733318657
 30
0.0
 10
10.6082665667
 20
3.6739818756
 30
0.0
 10
10.5781358508
 20
3.6170461013
 30
0.0
 10
10.5510899443
 20
3.5731928476
 30
0.0
 10
10.5293586932
 20
3.5411898626
 30
0.0
 10
10.506231399
 20
3.5101512091
 30
0.0
 10
10.4817519315
 20
3.4801352473
 30
0.0
 10
10.455966353
 20
3.4511985587
 30
0.0
 10
10.419905208
 20
3.4141239535
 30
0.0
 10
10.3717970304
 20
3.3707388369
 30
0.0
 10
10.3097139978
 20
3.3238545148
 30
0.0
 10
10.2437184963
 20
3.2824735358
 30
0.0
 10
10.1743150544
 20
3.2469130909
 30
0.0
 10
10.1020306416
 20
3.2174426083
 30
0.0
 10
10.0274150751
 20
3.1942859176
 30
0.0
 10
9.9510355036
 20
3.1776186996
 30
0.0
 10
9.8734724496
 20
3.1675676565
 30
0.0
 10
9.795315432
 20
3.1642090191
 30
0.0
 10
9.7171584365
 20
3.1675681552
 30
0.0
 10
9.6395954487
 20
3.1776196931
 30
0.0
 10
9.5632159867
 20
3.1942873985
 30
0.0
 10
9.4886005725
 20
3.2174445652
 30
0.0
 10
9.4163163535
 20
3.2469155091
 30
0.0
 10
9.3469131455
 20
3.2824763969
 30
0.0
 10
9.2809179161
 20
3.3238577969
 30
0.0
 10
9.2188351919
 20
3.3707425153
 30
0.0
 10
9.1707272997
 20
3.4141279389
 30
0.0
 10
9.1346663986
 20
3.4512027743
 30
0.0
 10
9.1088810105
 20
3.4801396274
 30
0.0
 10
9.0844017405
 20
3.5101557455
 30
0.0
 10
9.0612746504
 20
3.5411945465
 30
0.0
 10
9.0395436099
 20
3.5731976702
 30
0.0
 10
9.0124979919
 20
3.6170510966
 30
0.0
 10
8.9823676505
 20
3.6739870633
 30
0.0
 10
8.9573779792
 20
3.7333240041
 30
0.0
 10
8.9405997748
 20
3.7819269328
 30
0.0
 10
8.9296419507
 20
3.8188836454
 30
0.0
 10
8.9203314162
 20
3.8562744665
 30
0.0
 10
8.9152329474
 20
3.88144974
 30
0.0
 10
8.9129640543
 20
3.8940840224
 30
0.0
  0
SPLINE
  5
25C
100
AcDbEntity
  8
0
100
AcDbSpline
 62
9
  6
CONTINUOUS
 70
0
 71
3
 72
27
 73
23
 74
0
 42
0.0000001
 43
0.0000001
 44
0.0000000001
 40
0.0
 40
0.0
 40
0.0
 40
0.0
 40
0.0170833038
 40
0.0353336392
 40
0.0547406503
 40
0.0752922519
 40
0.0969748774
 40
0.1197737533
 40
0.1436720081
 40
0.1686510193
 40
0.2217557285
 40
0.2788947206
 40
0.3398319234
 40
0.4042829693
 40
0.4719104213
 40
0.5423407043
 40
0.6151663862
 40
0.6899511853
 40
0.7662509564
 40
0.8436267684
 40
0.9216648283
 40
1.0
 40
1.0
 40
1.0
 40
1.0
 10
10.3798650715
 20
11.4279276212
 30
0.0
 10
10.384592741
 20
11.4247447468
 30
0.0
 10
10.39427212
 20
11.4180135783
 30
0.0
 10
10.4089660196
 20
11.4071653205
 30
0.0
 10
10.424265253
 20
11.3952010412
 30
0.0
 10
10.4401139067
 20
11.3820929342
 30
0.0
 10
10.456452435
 20
11.3678140021
 30
0.0
 10
10.4732181221
 20
11.3523397936
 30
0.0
 10
10.4903445392
 20
11.3356475487
 30
0.0
 10
10.5140536165
 20
11.3112411264
 30
0.0
 10
10.5441141427
 20
11.2775693191
 30
0.0
 10
10.579718254
 20
11.2328797376
 30
0.0
 10
10.6148863627
 20
11.1831253921
 30
0.0
 10
10.6489140769
 20
11.1284124204
 30
0.0
 10
10.6810813282
 20
11.0689535148
 30
0.0
 10
10.7106784997
 20
11.0050770408
 30
0.0
 10
10.7370317452
 20
10.9372231186
 30
0.0
 10
10.7595241907
 20
10.865933771
 30
0.0
 10
10.7776244517
 20
10.7918383055
 30
0.0
 10
10.7908991232
 20
10.7156225173
 30
0.0
 10
10.7990269644
 20
10.6380064925
 30
0.0
 10
10.8008755546
 20
10.5858211563
 30
0.0
 10
10.8008918027
 20
10.5596873173
 30
0.0
  0
SPLINE
  5
25D
100
AcDbEntity
  8
0
100
AcDbSpline
 62
9
  6
CONTINUOUS
 70
0
 71
3
 72
43
 73
39
 74
0
 42
0.0000001
 43
0.0000001
 44
0.0000000001
 40
0.0
 40
0.0
 40
0.0
 40
0.0
 40
0.0036940586
 40
0.0078461965
 40
0.0124845607
 40
0.0176197253
 40
0.0232443531
 40
0.029339721
 40
0.0358855841
 40
0.0428758642
 40
0.0503148692
 40
0.058204572
 40
0.0665418381
 40
0.0753185893
 40
0.0845261098
 40
0.094155709
 40
0.1146460518
 40
0.1254935759
 40
0.1367328275
 40
0.160361061
 40
0.185493352
 40
0.212100695
 40
0.240160676
 40
0.2696552629
 40
0.3005678399
 40
0.3328806775
 40
0.366573108
 40
0.4016193025
 40
0.4379874727
 40
0.4756377851
 40
0.5145207199
 40
0.5545773193
 40
0.595738727
 40
0.6379256114
 40
0.725000773
 40
0.8149996324
 40
0.9069953006
 40
1.0
 40
1.0
 40
1.0
 40
1.0
 10
10.6336178065
 20
11.4396346843
 30
0.0
 10
10.634818554
 20
11.4400421075
 30
0.0
 10
10.6374480555
 20
11.4406795001
 30
0.0
 10
10.6417185045
 20
11.4411292432
 30
0.0
 10
10.6465060121
 20
11.4411249035
 30
0.0
 10
10.6517765554
 20
11.4406617908
 30
0.0
 10
10.6574914095
 20
11.4397310382
 30
0.0
 10
10.6636044903
 20
11.4383199464
 30
0.0
 10
10.6700712773
 20
11.4364126473
 30
0.0
 10
10.6768597449
 20
11.4340049253
 30
0.0
 10
10.6839521557
 20
11.4311018212
 30
0.0
 10
10.6913338775
 20
11.427705473
 30
0.0
 10
10.6989869635
 20
11.4238164059
 30
0.0
 10
10.7068882697
 20
11.4194309626
 30
0.0
 10
10.7150138817
 20
11.4145472127
 30
0.0
 10
10.7263505927
 20
11.4072152321
 30
0.0
 10
10.737785018
 20
11.3990119996
 30
0.0
 10
10.7492779684
 20
11.389982019
 30
0.0
 10
10.7613320473
 20
11.3799325328
 30
0.0
 10
10.7765752238
 20
11.3660661939
 30
0.0
 10
10.7947439602
 20
11.3476331886
 30
0.0
 10
10.8129292444
 20
11.3271332595
 30
0.0
 10
10.8309867428
 20
11.3045684895
 30
0.0
 10
10.8487806783
 20
11.2799472173
 30
0.0
 10
10.8661873027
 20
11.2532893099
 30
0.0
 10
10.8830880283
 20
11.2246220745
 30
0.0
 10
10.8993696146
 20
11.1939825332
 30
0.0
 10
10.9149290775
 20
11.1614205768
 30
0.0
 10
10.9296726036
 20
11.1269985839
 30
0.0
 10
10.943519467
 20
11.0907930972
 30
0.0
 10
10.9563939027
 20
11.0528913382
 30
0.0
 10
10.9682265329
 20
11.013392233
 30
0.0
 10
10.9789550881
 20
10.9724058195
 30
0.0
 10
10.9918660811
 20
10.9153411643
 30
0.0
 10
11.0048991638
 20
10.8411633943
 30
0.0
 10
11.015534858
 20
10.7493731365
 30
0.0
 10
11.0214568824
 20
10.6551274796
 30
0.0
 10
11.022475475
 20
10.5916108942
 30
0.0
 10
11.0223388401
 20
10.5596873173
 30
0.0
  0
ENDSEC
  0
SECTION
  2
OBJECTS
  0
DICTIONARY
  5
C
100
AcDbDictionary
280
0
281
1
  3
ACAD_GROUP
350
D
  3
ACAD_MLINESTYLE
350
17
  3
ACAD_LAYOUT
350
1A
  3
ACAD_PLOTSETTINGS
350
19
  3
ACAD_PLOTSTYLENAME
350
E
  0
DICTIONARY
  5
D
102
{ACAD_REACTORS
330
C
102
}
100
AcDbDictionary
280
0
281
1
  0
ACDBDICTIONARYWDFLT
  5
E
102
{ACAD_REACTORS
330
C
102
}
100
AcDbDictionary
281
1
  3
Normal
350
F
100
AcDbDictionaryWithDefault
340
F
  0
DICTIONARY
  5
17
102
{ACAD_REACTORS
330
C
102
}
100
AcDbDictionary
280
0
281
1
  3
Standard
350
18
  0
DICTIONARY
  5
19
102
{ACAD_REACTORS
330
C
102
}
100
AcDbDictionary
281
1
  0
DICTIONARY
  5
1A
102
{ACAD_REACTORS
330
C
102
}
100
AcDbDictionary
281
1
  3
Model
350
25E
  3
Layout1
350
25F
  0
ACDBPLACEHOLDER
  5
F
102
{ACAD_REACTORS
330
E
102
}
  0
MLINESTYLE
  5
18
102
{ACAD_REACTORS
330
17
102
}
100
AcDbMlineStyle
  2
STANDARD
 70
0
  3

 62
256
 51
90.0
 52
90.0
 71
2
 49
0.5
 62
256
  6
BYLAYER
 49
-0.5
 62
256
  6
BYLAYER
  0
LAYOUT
  5
25E
102
{ACAD_REACTORS
330
1A
102
}
100
AcDbPlotSettings
  1

  2
none_device
  4
ANSI_C_(22.00_x_17.00_Inches)
  6

 40
0.0
 41
0.0
 42
0.0
 43
0.0
 44
558.8
 45
431.8
 46
0.0
 47
0.0
 48
0.0
 49
0.0
140
0.0
141
0.0
142
1.0
143
1.0
 70
1024
 72
0
 73
0
 74
0
  7

 75
0
147
1.0
148
0.0
149
0.0
100
AcDbLayout
  1
Model
 70
0
 71
0
 10
0.0
 20
0.0
 11
22.0
 21
17.0
 12
0.0
 22
0.0
 32
0.0
 14
0.0
 24
0.0
 34
0.0
 15
0.0
 25
0.0
 35
0.0
146
0.0
 13
0.0
 23
0.0
 33
0.0
 16
1.0
 26
0.0
 36
0.0
 17
0.0
 27
1.0
 37
0.0
 76
0
330
205
345
0
346
0
  0
LAYOUT
  5
25F
102
{ACAD_REACTORS
330
1A
102
}
100
AcDbPlotSettings
  1

  2
none_device
  4
ANSI_C_(22.00_x_17.00_Inches)
  6

 40
0.0
 41
0.0
 42
0.0
 43
0.0
 44
558.8
 45
431.8
 46
0.0
 47
0.0
 48
0.0
 49
0.0
140
0.0
141
0.0
142
1.0
143
1.0
 70
0
 72
0
 73
0
 74
0
  7

 75
0
147
1.0
148
0.0
149
0.0
100
AcDbLayout
  1
Layout1
 70
0
 71
1
 10
0.0
 20
0.0
 11
22.0
 21
17.0
 12
0.0
 22
0.0
 32
0.0
 14
0.0
 24
0.0
 34
0.0
 15
0.0
 25
0.0
 35
0.0
146
0.0
 13
0.0
 23
0.0
 33
0.0
 16
1.0
 26
0.0
 36
0.0
 17
0.0
 27
1.0
 37
0.0
 76
0
330
206
345
0
346
0
  0
ENDSEC
  0
EOF
