999
DXF file: E:\BT Custom\CADOUTPUT\_RIGHT.dxf
999
Pro/ENGINEER 2018400 by Parametric Technology Corporation
  0
SECTION
  2
HEADER
  9
$ACADVER
  1
AC1018
  9
$DWGCODEPAGE
  3
ANSI_1252
  9
$EXTMAX
 10
22.0
 20
17.0
 30
0.0
  9
$EXTMIN
 10
0.0
 20
0.0
 30
0.0
  9
$LIMMIN
 10
0.0
 20
0.0
  9
$LIMMAX
 10
22.0
 20
17.0
  9
$VIEWCTR
 10
11.0
 20
8.5
  9
$VIEWSIZE
 40
17.0
  9
$CLAYER
  8
0
  9
$LTSCALE
 40
1.21
  9
$CELTYPE
  6
BYLAYER
  9
$DIMSCALE
 40
1.0
  9
$DIMASZ
 40
0.1
  9
$DIMEXO
 40
0.0625
  9
$DIMDLI
 40
0.836
  9
$DIMEXE
 40
0.125
  9
$DIMCEN
 40
0.198
  9
$DIMLFAC
 40
1.0
  9
$DIMBLK
  1
_FILLED
  9
$DIMALT
 70
1
  9
$DIMALTD
 70
2
  9
$DIMALTTD
 70
2
  9
$DIMALTF
 40
25.4
  9
$DIMTXT
 40
0.08
  9
$DIMTOL
 70
1
  9
$DIMLIM
 70
0
  9
$DIMTFAC
 40
1.0
  9
$DIMTP
 40
0.001
  9
$DIMTM
 40
0.001
  9
$DIMGAP
 40
0.09
  9
$DIMDSEP
 70
46
  9
$AUNITS
 70
0
  9
$PDMODE
 70
3
  9
$PDSIZE
 40
0.06
  9
$HANDSEED
  5
3EC
  9
$TILEMODE
 70
1
  9
$MEASUREMENT
 70
0
  9
$INSUNITS
 70
1
  0
ENDSEC
  0
SECTION
  2
CLASSES
  0
CLASS
  1
ACDBDICTIONARYWDFLT
  2
AcDbDictionaryWithDefault
  3
AutoCAD 2000
 90
0
 91
1
280
0
281
0
  0
CLASS
  1
ACDBPLACEHOLDER
  2
AcDbPlaceHolder
  3
AutoCAD 2000
 90
0
 91
1
280
0
281
0
  0
CLASS
  1
LAYOUT
  2
AcDbLayout
  3
AutoCAD 2000
 90
0
 91
0
280
0
281
0
  0
ENDSEC
  0
SECTION
  2
TABLES
  0
TABLE
  2
VPORT
  5
8
100
AcDbSymbolTable
 70
2
  0
VPORT
  5
1F4
100
AcDbSymbolTableRecord
100
AcDbViewportTableRecord
  2
*ACTIVE
 70
0
 10
0.0
 20
0.0
 11
1.0
 21
1.0
 12
11.0
 22
8.5
 13
0.0
 23
0.0
 14
1.0
 24
1.0
 15
0.0
 25
0.0
 16
0.0
 26
0.0
 36
1.0
 17
0.0
 27
0.0
 37
0.0
 40
17.0
 41
1.2941176471
 42
50.0
 43
0.0
 44
0.0
 50
0.0
 51
0.0
 71
0
 72
100
 73
1
 74
1
 75
0
 76
0
 77
0
 78
0
  0
ENDTAB
  0
TABLE
  2
LTYPE
  5
5
100
AcDbSymbolTable
 70
6
  0
LTYPE
  5
14
100
AcDbSymbolTableRecord
100
AcDbLinetypeTableRecord
  2
BYBLOCK
 70
0
  3

 72
65
 73
0
 40
0.0
  0
LTYPE
  5
15
100
AcDbSymbolTableRecord
100
AcDbLinetypeTableRecord
  2
BYLAYER
 70
0
  3

 72
65
 73
0
 40
0.0
  0
LTYPE
  5
16
100
AcDbSymbolTableRecord
100
AcDbLinetypeTableRecord
  2
CONTINUOUS
 70
64
  3
Solid line
 72
65
 73
0
 40
0.0
  0
LTYPE
  5
1F5
100
AcDbSymbolTableRecord
100
AcDbLinetypeTableRecord
  2
CENTER
 70
64
  3
____ _ ____ _ ____ _ ____ _ ____ _ ____ _ ____
 72
65
 73
4
 40
0.6
 49
0.375
 74
0
 49
-0.075
 74
0
 49
0.075
 74
0
 49
-0.075
 74
0
  0
LTYPE
  5
1F6
100
AcDbSymbolTableRecord
100
AcDbLinetypeTableRecord
  2
HIDDEN
 70
64
  3
- - - - - - - - - - - - - - - - - - - -
 72
65
 73
2
 40
0.2
 49
0.1
 74
0
 49
-0.1
 74
0
  0
LTYPE
  5
1F7
100
AcDbSymbolTableRecord
100
AcDbLinetypeTableRecord
  2
PHANTOM
 70
64
  3
_____ _ _ _____ _ _ _____ _ _ _____
 72
65
 73
6
 40
0.8
 49
0.45
 74
0
 49
-0.05
 74
0
 49
0.1
 74
0
 49
-0.05
 74
0
 49
0.1
 74
0
 49
-0.05
 74
0
  0
LTYPE
  5
1F8
100
AcDbSymbolTableRecord
100
AcDbLinetypeTableRecord
  2
DOT
 70
64
  3
. . . . . . . . . . . . . . . . . . . .
 72
65
 73
2
 40
0.2
 49
0.1
 74
0
 49
-0.1
 74
0
  0
LTYPE
  5
1F9
100
AcDbSymbolTableRecord
100
AcDbLinetypeTableRecord
  2
DASHED
 70
64
  3
- - - - - - - - - - - - - - - - - - - -
 72
65
 73
2
 40
0.2
 49
0.1
 74
0
 49
-0.1
 74
0
  0
ENDTAB
  0
TABLE
  2
LAYER
  5
2
100
AcDbSymbolTable
 70
36
  0
LAYER
  5
10
100
AcDbSymbolTableRecord
100
AcDbLayerTableRecord
  2
0
 70
0
 62
7
  6
CONTINUOUS
370
-3
390
F
  0
LAYER
  5
1FA
100
AcDbSymbolTableRecord
100
AcDbLayerTableRecord
  2
DEFAULT_1
 70
0
 62
7
  6
CENTER
370
-3
390
F
  0
LAYER
  5
1FB
100
AcDbSymbolTableRecord
100
AcDbLayerTableRecord
  2
DEFAULT_2
 70
0
 62
8
  6
HIDDEN
370
-3
390
F
  0
LAYER
  5
1FC
100
AcDbSymbolTableRecord
100
AcDbLayerTableRecord
  2
DEFAULT_3
 70
0
 62
7
  6
PHANTOM
370
-3
390
F
  0
LAYER
  5
1FD
100
AcDbSymbolTableRecord
100
AcDbLayerTableRecord
  2
ALL_FEATURES
 70
0
 62
7
  6
CONTINUOUS
370
-3
390
F
  0
LAYER
  5
1FE
100
AcDbSymbolTableRecord
100
AcDbLayerTableRecord
  2
AXES_FEATURES
 70
0
 62
7
  6
CONTINUOUS
370
-3
390
F
  0
LAYER
  5
1FF
100
AcDbSymbolTableRecord
100
AcDbLayerTableRecord
  2
DIMENSIONS
 70
0
 62
7
  6
CONTINUOUS
370
-3
390
F
  0
ENDTAB
  0
TABLE
  2
STYLE
  5
3
100
AcDbSymbolTable
 70
1
  0
STYLE
  5
11
100
AcDbSymbolTableRecord
100
AcDbTextStyleTableRecord
  2
STANDARD
 70
0
 40
0.0
 41
0.8
 50
0.0
 71
0
 42
0.2
  3
txt
  4

  0
STYLE
  5
200
100
AcDbSymbolTableRecord
100
AcDbTextStyleTableRecord
  2
TEXTSTYLE_1
 70
0
 40
0.0
 41
0.8
 50
0.0
 71
0
 42
0.2
  3
gdt
  4

  0
ENDTAB
  0
TABLE
  2
VIEW
  5
6
100
AcDbSymbolTable
 70
0
  0
ENDTAB
  0
TABLE
  2
UCS
  5
7
100
AcDbSymbolTable
 70
0
  0
ENDTAB
  0
TABLE
  2
APPID
  5
9
100
AcDbSymbolTable
 70
1
  0
APPID
  5
201
100
AcDbSymbolTableRecord
100
AcDbRegAppTableRecord
  2
ACAD
 70
0
  0
ENDTAB
  0
TABLE
  2
BLOCK_RECORD
  5
1
100
AcDbSymbolTable
 70
0
  0
BLOCK_RECORD
  5
202
100
AcDbSymbolTableRecord
100
AcDbBlockTableRecord
  2
*Model_Space
  0
BLOCK_RECORD
  5
203
100
AcDbSymbolTableRecord
100
AcDbBlockTableRecord
  2
*Paper_Space
  0
BLOCK_RECORD
  5
204
100
AcDbSymbolTableRecord
100
AcDbBlockTableRecord
  2
_FILLED
  0
ENDTAB
  0
TABLE
  2
DIMSTYLE
  5
A
100
AcDbSymbolTable
 70
1
100
AcDbDimStyleTable
 71
0
  0
DIMSTYLE
105
205
100
AcDbSymbolTableRecord
100
AcDbDimStyleTableRecord
  2
STANDARD
 70
0
  3

  4

 40
1.0
 41
0.1
 42
0.0625
 43
0.38
 44
0.125
 45
0.0
 46
0.0
 47
0.001
 48
0.001
140
0.08
141
0.09
142
0.0
143
25.4
144
1.0
145
0.0
146
1.0
147
0.09
 71
1.0
 72
0.0
 73
1
 74
1
 75
0
 76
0
 77
0
 78
4
 79
1
170
1
171
2
172
0
173
0
174
0
175
0
176
0
177
0
178
0
270
2
179
3
271
3
272
3
273
2
274
2
275
0
280
0
281
0
282
0
283
1
284
4
285
0
286
0
287
3
288
0
340
11
278
46
341
204
342
204
343
204
344
204
  0
ENDTAB
  0
ENDSEC
  0
SECTION
  2
BLOCKS
  0
BLOCK
  5
20
100
AcDbEntity
  8
0
100
AcDbBlockBegin
  2
*Model_Space
 70
0
 10
0.0
 20
0.0
 30
0.0
  3
*Model_Space
  1

  0
ENDBLK
  5
21
100
AcDbEntity
  8
0
100
AcDbBlockEnd
  0
BLOCK
  5
1C
100
AcDbEntity
  8
0
100
AcDbBlockBegin
  2
*Paper_Space
 70
0
 10
0.0
 20
0.0
 30
0.0
  3
*Paper_Space
  1

  0
ENDBLK
  5
1D
100
AcDbEntity
  8
0
100
AcDbBlockEnd
  0
BLOCK
  5
206
100
AcDbEntity
  8
0
100
AcDbBlockBegin
  2
_FILLED
 70
64
 10
0.0
 20
0.0
  3
_FILLED
  1

  0
SOLID
  5
207
100
AcDbEntity
  8
0
  6
BYBLOCK
 62
0
100
AcDbTrace
 10
0.0
 20
0.0
 11
-1.0
 21
0.2
 12
-1.0
 22
-0.2
 13
-1.0
 23
-0.2
  0
ENDBLK
  5
208
100
AcDbEntity
  8
0
  6
BYBLOCK
 62
0
100
AcDbBlockEnd
  0
ENDSEC
  0
SECTION
  2
ENTITIES
  0
LINE
  5
209
100
AcDbEntity
  8
0
100
AcDbLine
 62
7
  6
CONTINUOUS
 10
-0.4150822745
 20
7.244891804
 11
-0.4150822745
 21
7.324891804
  0
LINE
  5
20A
100
AcDbEntity
  8
0
100
AcDbLine
 62
7
  6
CONTINUOUS
 10
0.5099177255
 20
7.244891804
 11
0.5099177255
 21
7.324891804
  0
LINE
  5
20B
100
AcDbEntity
  8
0
100
AcDbLine
 62
7
  6
CONTINUOUS
 10
3.3974177255
 20
6.784891804
 11
3.3974177255
 21
6.744891804
  0
LINE
  5
20C
100
AcDbEntity
  8
0
100
AcDbLine
 62
7
  6
CONTINUOUS
 10
3.4774177255
 20
6.8429060574
 11
3.4774177255
 21
6.824891804
  0
LINE
  5
20D
100
AcDbEntity
  8
0
100
AcDbLine
 62
7
  6
CONTINUOUS
 10
3.4964177255
 20
7.578891804
 11
3.4964177255
 21
7.541891804
  0
LINE
  5
20E
100
AcDbEntity
  8
0
100
AcDbLine
 62
7
  6
CONTINUOUS
 10
3.5949177255
 20
7.706891804
 11
3.5949177255
 21
7.658891804
  0
LINE
  5
20F
100
AcDbEntity
  8
0
100
AcDbLine
 62
7
  6
CONTINUOUS
 10
3.5949177255
 20
7.461891804
 11
3.5949177255
 21
7.4130796126
  0
LINE
  5
210
100
AcDbEntity
  8
0
100
AcDbLine
 62
7
  6
CONTINUOUS
 10
3.9574177255
 20
7.064891804
 11
3.9574177255
 21
6.994891804
  0
LINE
  5
211
100
AcDbEntity
  8
0
100
AcDbLine
 62
7
  6
CONTINUOUS
 10
4.1374177255
 20
7.064891804
 11
4.1374177255
 21
6.994891804
  0
LINE
  5
212
100
AcDbEntity
  8
0
100
AcDbLine
 62
7
  6
CONTINUOUS
 10
4.4999177255
 20
7.706891804
 11
4.4999177255
 21
7.658891804
  0
LINE
  5
213
100
AcDbEntity
  8
0
100
AcDbLine
 62
7
  6
CONTINUOUS
 10
4.4999177255
 20
7.461891804
 11
4.4999177255
 21
7.4130796126
  0
LINE
  5
214
100
AcDbEntity
  8
0
100
AcDbLine
 62
7
  6
CONTINUOUS
 10
4.5984177255
 20
7.578891804
 11
4.5984177255
 21
7.541891804
  0
LINE
  5
215
100
AcDbEntity
  8
0
100
AcDbLine
 62
7
  6
CONTINUOUS
 10
4.6174177255
 20
6.8429060574
 11
4.6174177255
 21
6.824891804
  0
LINE
  5
216
100
AcDbEntity
  8
0
100
AcDbLine
 62
7
  6
CONTINUOUS
 10
4.6974177255
 20
6.784891804
 11
4.6974177255
 21
6.744891804
  0
LINE
  5
217
100
AcDbEntity
  8
0
100
AcDbLine
 62
7
  6
CONTINUOUS
 10
13.125481235
 20
6.7448923216
 11
13.125378103
 21
6.7448918013
  0
LINE
  5
218
100
AcDbEntity
  8
0
100
AcDbLine
 62
9
  6
CONTINUOUS
 10
11.115346091
 20
6.7770061607
 11
11.0477275101
 21
6.7769500673
  0
LINE
  5
219
100
AcDbEntity
  8
0
100
AcDbLine
 62
9
  6
CONTINUOUS
 10
12.0474177255
 20
6.7786645441
 11
11.2356461128
 21
6.7784856531
  0
LINE
  5
21A
100
AcDbEntity
  8
0
100
AcDbLine
 62
7
  6
CONTINUOUS
 10
11.0224313465
 20
6.734891804
 11
13.0724041045
 21
6.734891804
  0
LINE
  5
21B
100
AcDbEntity
  8
0
100
AcDbLine
 62
7
  6
CONTINUOUS
 10
-0.7425822936
 20
6.744891804
 11
0.8374177446
 21
6.744891804
  0
LINE
  5
21C
100
AcDbEntity
  8
0
100
AcDbLine
 62
7
  6
CONTINUOUS
 10
3.3974177255
 20
6.744891804
 11
4.6974177255
 21
6.744891804
  0
LINE
  5
21D
100
AcDbEntity
  8
0
100
AcDbLine
 62
7
  6
CONTINUOUS
 10
10.9687481848
 20
6.7448918041
 11
11.1629567017
 21
6.744891804
  0
LINE
  5
21E
100
AcDbEntity
  8
0
100
AcDbLine
 62
7
  6
CONTINUOUS
 10
11.1630395592
 20
6.744891804
 11
12.9317959717
 21
6.744891804
  0
LINE
  5
21F
100
AcDbEntity
  8
0
100
AcDbLine
 62
7
  6
CONTINUOUS
 10
12.9318788112
 20
6.744891804
 11
13.1260872775
 21
6.744891804
  0
LINE
  5
220
100
AcDbEntity
  8
0
100
AcDbLine
 62
7
  6
CONTINUOUS
 10
19.9324177255
 20
6.744891804
 11
22.1624177255
 21
6.744891804
  0
LINE
  5
221
100
AcDbEntity
  8
0
100
AcDbLine
 62
9
  6
CONTINUOUS
 10
12.8591894998
 20
6.778485609
 11
12.0474177255
 21
6.7786645441
  0
LINE
  5
222
100
AcDbEntity
  8
0
100
AcDbLine
 62
9
  6
CONTINUOUS
 10
13.0471079344
 20
6.7769500931
 11
12.9794893518
 21
6.7770061818
  0
LINE
  5
223
100
AcDbEntity
  8
0
100
AcDbLine
 62
9
  6
CONTINUOUS
 10
4.6974177255
 20
6.784891804
 11
3.3974177255
 21
6.784891804
  0
LINE
  5
224
100
AcDbEntity
  8
0
100
AcDbLine
 62
7
  6
CONTINUOUS
 10
4.6574177255
 20
6.824891804
 11
3.4374177255
 21
6.824891804
  0
LINE
  5
225
100
AcDbEntity
  8
0
100
AcDbLine
 62
9
  6
CONTINUOUS
 10
4.6174177255
 20
6.8429060574
 11
3.4774177255
 21
6.8429060574
  0
LINE
  5
226
100
AcDbEntity
  8
0
100
AcDbLine
 62
7
  6
CONTINUOUS
 10
4.5774177255
 20
6.8829060574
 11
3.5174177255
 21
6.8829060574
  0
LINE
  5
227
100
AcDbEntity
  8
0
100
AcDbLine
 62
9
  6
CONTINUOUS
 10
22.1624177255
 20
6.904891804
 11
19.9324177255
 21
6.904891804
  0
LINE
  5
228
100
AcDbEntity
  8
0
100
AcDbLine
 62
7
  6
CONTINUOUS
 10
22.1224177255
 20
6.944891804
 11
19.9724177255
 21
6.944891804
  0
LINE
  5
229
100
AcDbEntity
  8
0
100
AcDbLine
 62
7
  6
CONTINUOUS
 10
4.2474177255
 20
6.994891804
 11
3.8474177255
 21
6.994891804
  0
LINE
  5
22A
100
AcDbEntity
  8
0
100
AcDbLine
 62
7
  6
CONTINUOUS
 10
3.8504177255
 20
7.064891804
 11
4.2444177255
 21
7.064891804
  0
LINE
  5
22B
100
AcDbEntity
  8
0
100
AcDbLine
 62
7
  6
CONTINUOUS
 10
0.5424161891
 20
7.244891804
 11
-0.4475807381
 21
7.244891804
  0
LINE
  5
22C
100
AcDbEntity
  8
0
100
AcDbLine
 62
9
  6
CONTINUOUS
 10
0.5099177255
 20
7.324891804
 11
-0.4150822745
 21
7.324891804
  0
LINE
  5
22D
100
AcDbEntity
  8
0
100
AcDbLine
 62
9
  6
CONTINUOUS
 10
4.4649177255
 20
7.3653826525
 11
3.6299177255
 21
7.3653826525
  0
LINE
  5
22E
100
AcDbEntity
  8
0
100
AcDbLine
 62
9
  6
CONTINUOUS
 10
3.5949177255
 20
7.4130796126
 11
4.4999177255
 21
7.4130796126
  0
LINE
  5
22F
100
AcDbEntity
  8
0
100
AcDbLine
 62
7
  6
CONTINUOUS
 10
3.5764177255
 20
7.461891804
 11
4.5184177255
 21
7.461891804
  0
LINE
  5
230
100
AcDbEntity
  8
0
100
AcDbLine
 62
9
  6
CONTINUOUS
 10
-0.3798703616
 20
7.4889943681
 11
0.4747058125
 21
7.4889943681
  0
LINE
  5
231
100
AcDbEntity
  8
0
100
AcDbLine
 62
7
  6
CONTINUOUS
 10
0.4655810915
 20
7.494891804
 11
-0.3707456405
 21
7.494891804
  0
LINE
  5
232
100
AcDbEntity
  8
0
100
AcDbLine
 62
9
  6
CONTINUOUS
 10
3.4964177255
 20
7.541891804
 11
4.5984177255
 21
7.541891804
  0
LINE
  5
233
100
AcDbEntity
  8
0
100
AcDbLine
 62
9
  6
CONTINUOUS
 10
4.5984177255
 20
7.578891804
 11
3.4964177255
 21
7.578891804
  0
LINE
  5
234
100
AcDbEntity
  8
0
100
AcDbLine
 62
7
  6
CONTINUOUS
 10
4.5184177255
 20
7.658891804
 11
3.5764177255
 21
7.658891804
  0
LINE
  5
235
100
AcDbEntity
  8
0
100
AcDbLine
 62
9
  6
CONTINUOUS
 10
4.4999177255
 20
7.706891804
 11
3.5949177255
 21
7.706891804
  0
LINE
  5
236
100
AcDbEntity
  8
0
100
AcDbLine
 62
7
  6
CONTINUOUS
 10
4.4499177255
 20
7.756891804
 11
3.6449177255
 21
7.756891804
  0
LWPOLYLINE
  5
237
100
AcDbEntity
  8
0
100
AcDbPolyline
 62
7
  6
CONTINUOUS
 90
3
 70
0
 10
11.1993832334
 20
8.9027871615
 10
11.2099484841
 20
8.9055394406
 10
11.2141027712
 20
8.9058128279
  0
LWPOLYLINE
  5
238
100
AcDbEntity
  8
0
100
AcDbPolyline
 62
7
  6
CONTINUOUS
 90
9
 70
0
 10
12.0604956158
 20
8.5964695243
 10
12.066337439
 20
8.5967273553
 10
12.0812537414
 20
8.599668388
 10
12.0945817175
 20
8.6054185752
 10
12.1059214197
 20
8.6133460899
 10
12.1150332437
 20
8.6227818804
 10
12.1218793707
 20
8.6331036417
 10
12.1265347733
 20
8.6436774965
 10
12.1275379397
 20
8.6468204392
  0
LINE
  5
239
100
AcDbEntity
  8
0
100
AcDbLine
 62
7
  6
CONTINUOUS
 10
11.2205064996
 20
8.9058545715
 11
11.2141022667
 21
8.9058111257
  0
LINE
  5
23A
100
AcDbEntity
  8
0
100
AcDbLine
 62
7
  6
CONTINUOUS
 10
12.4014092725
 20
8.359891804
 11
11.6934261785
 21
8.359891804
  0
LINE
  5
23B
100
AcDbEntity
  8
0
100
AcDbLine
 62
7
  6
CONTINUOUS
 10
11.6924183974
 20
8.390891804
 11
12.4024170536
 21
8.390891804
  0
LINE
  5
23C
100
AcDbEntity
  8
0
100
AcDbLine
 62
9
  6
CONTINUOUS
 10
12.4024177255
 20
8.4338545715
 11
12.3860668331
 21
8.4338545715
  0
LINE
  5
23D
100
AcDbEntity
  8
0
100
AcDbLine
 62
9
  6
CONTINUOUS
 10
12.1539155256
 20
8.4338545715
 11
11.9409199231
 21
8.4338545715
  0
LINE
  5
23E
100
AcDbEntity
  8
0
100
AcDbLine
 62
9
  6
CONTINUOUS
 10
11.7087686172
 20
8.4338545715
 11
11.6924177255
 21
8.4338545715
  0
LINE
  5
23F
100
AcDbEntity
  8
0
100
AcDbLine
 62
9
  6
CONTINUOUS
 10
12.3910672809
 20
8.5159312735
 11
12.1435434448
 21
8.5159312735
  0
LINE
  5
240
100
AcDbEntity
  8
0
100
AcDbLine
 62
9
  6
CONTINUOUS
 10
11.9512929616
 20
8.5159312735
 11
11.7037688147
 21
8.5159312735
  0
LINE
  5
241
100
AcDbEntity
  8
0
100
AcDbLine
 62
7
  6
CONTINUOUS
 10
12.0604956567
 20
8.5964693225
 11
12.0343666764
 21
8.5964693225
  0
LINE
  5
242
100
AcDbEntity
  8
0
100
AcDbLine
 62
9
  6
CONTINUOUS
 10
11.2140137492
 20
8.9058111257
 11
11.2140769051
 21
8.9058111257
  0
LINE
  5
243
100
AcDbEntity
  8
0
100
AcDbLine
 62
9
  6
CONTINUOUS
 10
12.8807335875
 20
8.9058111257
 11
12.8807519946
 21
8.9058111257
  0
LINE
  5
244
100
AcDbEntity
  8
0
100
AcDbLine
 62
9
  6
CONTINUOUS
 10
12.9870922865
 20
8.9115497339
 11
13.0543476553
 21
8.9115565774
  0
LINE
  5
245
100
AcDbEntity
  8
0
100
AcDbLine
 62
9
  6
CONTINUOUS
 10
12.9870922865
 20
8.9400773019
 11
12.9632775646
 21
8.9400773019
  0
LINE
  5
246
100
AcDbEntity
  8
0
100
AcDbLine
 62
9
  6
CONTINUOUS
 10
11.1315574404
 20
8.9400773813
 11
11.1077431619
 21
8.9400776504
  0
LINE
  5
247
100
AcDbEntity
  8
0
100
AcDbLine
 62
9
  6
CONTINUOUS
 10
20.4474177255
 20
9.1048397201
 11
21.6474177255
 21
9.1048397201
  0
LINE
  5
248
100
AcDbEntity
  8
0
100
AcDbLine
 62
9
  6
CONTINUOUS
 10
11.1497466694
 20
8.9115540431
 11
11.0404877957
 21
8.9115565762
  0
LINE
  5
249
100
AcDbEntity
  8
0
100
AcDbLine
 62
9
  6
CONTINUOUS
 10
12.9870922865
 20
8.9115510678
 11
12.9450887387
 21
8.9115540458
  0
LINE
  5
24A
100
AcDbEntity
  8
0
100
AcDbLine
 62
7
  6
CONTINUOUS
 10
12.8743292993
 20
8.9058545715
 11
12.8807335875
 21
8.9058111257
  0
LINE
  5
24B
100
AcDbEntity
  8
0
100
AcDbLine
 62
7
  6
CONTINUOUS
 10
12.8807321043
 20
8.9058112796
 11
12.8848273217
 21
8.9055451137
  0
LWPOLYLINE
  5
24C
100
AcDbEntity
  8
0
100
AcDbPolyline
 62
7
  6
CONTINUOUS
 90
5
 70
0
 10
11.9400085078
 20
8.6739833496
 10
11.9439176902
 20
8.6726326744
 10
11.9557265865
 20
8.6652381338
 10
11.9642836067
 20
8.6542400676
 10
11.9672979014
 20
8.6468194777
  0
LINE
  5
24D
100
AcDbEntity
  8
0
100
AcDbLine
 62
9
  6
CONTINUOUS
 10
11.5648222912
 20
9.2763245337
 11
11.5714177215
 21
9.2093933617
  0
LINE
  5
24E
100
AcDbEntity
  8
0
100
AcDbLine
 62
7
  6
CONTINUOUS
 10
11.0224177255
 20
6.744891804
 11
11.0224177255
 21
6.734891804
  0
LINE
  5
24F
100
AcDbEntity
  8
0
100
AcDbLine
 62
9
  6
CONTINUOUS
 10
11.0404876494
 20
9.0199996691
 11
11.0404874793
 21
8.9115565762
  0
LINE
  5
250
100
AcDbEntity
  8
0
100
AcDbLine
 62
9
  6
CONTINUOUS
 10
11.1077431619
 20
8.9400768123
 11
11.1077431619
 21
8.9115529148
  0
LINE
  5
251
100
AcDbEntity
  8
0
100
AcDbLine
 62
9
  6
CONTINUOUS
 10
11.5714177254
 20
8.9339359835
 11
11.5714177255
 21
9.2093933207
  0
LINE
  5
252
100
AcDbEntity
  8
0
100
AcDbLine
 62
7
  6
CONTINUOUS
 10
11.172677453
 20
8.8558408902
 11
11.1750235518
 21
8.8710375912
  0
LINE
  5
253
100
AcDbEntity
  8
0
100
AcDbLine
 62
7
  6
CONTINUOUS
 10
11.1725649541
 20
8.8552197541
 11
11.172642747
 21
8.8557201951
  0
LINE
  5
254
100
AcDbEntity
  8
0
100
AcDbLine
 62
7
  6
CONTINUOUS
 10
11.1750195974
 20
8.8710071844
 11
11.1765650209
 21
8.8779704379
  0
LINE
  5
255
100
AcDbEntity
  8
0
100
AcDbLine
 62
7
  6
CONTINUOUS
 10
11.1765650209
 20
8.8779704379
 11
11.1827030175
 21
8.8898693678
  0
LINE
  5
256
100
AcDbEntity
  8
0
100
AcDbLine
 62
9
  6
CONTINUOUS
 10
11.5295973571
 20
8.8812638496
 11
11.5714178012
 21
8.9339359125
  0
LINE
  5
257
100
AcDbEntity
  8
0
100
AcDbLine
 62
7
  6
CONTINUOUS
 10
11.1827030175
 20
8.8898693678
 11
11.1906507424
 21
8.8978124825
  0
LINE
  5
258
100
AcDbEntity
  8
0
100
AcDbLine
 62
7
  6
CONTINUOUS
 10
11.1906501845
 20
8.8978096155
 11
11.1993832334
 21
8.9027871615
  0
LWPOLYLINE
  5
259
100
AcDbEntity
  8
0
100
AcDbPolyline
 62
7
  6
CONTINUOUS
 90
6
 70
0
 10
12.1548268584
 20
8.6739833089
 10
12.1667612628
 20
8.6786480889
 10
12.1826616348
 20
8.689585872
 10
12.1949681293
 20
8.7044453507
 10
12.2027520498
 20
8.7221052381
 10
12.2054177255
 20
8.7412386843
  0
LWPOLYLINE
  5
25A
100
AcDbEntity
  8
0
100
AcDbPolyline
 62
7
  6
CONTINUOUS
 90
7
 70
0
 10
10.9426110638
 20
8.6068144973
 10
10.9760458775
 20
8.6176240333
 10
11.033566618
 20
8.6469217778
 10
11.083887767
 20
8.6873031065
 10
11.1249006345
 20
8.7370443909
 10
11.1549009012
 20
8.7940203743
 10
11.1726774531
 20
8.8558408905
  0
LINE
  5
25B
100
AcDbEntity
  8
0
100
AcDbLine
 62
9
  6
CONTINUOUS
 10
10.7828443616
 20
9.2163179221
 11
10.7827800096
 21
9.2163179221
  0
LINE
  5
25C
100
AcDbEntity
  8
0
100
AcDbLine
 62
9
  6
CONTINUOUS
 10
12.0346604589
 20
9.2163179221
 11
12.0602934727
 21
9.2163179221
  0
LINE
  5
25D
100
AcDbEntity
  8
0
100
AcDbLine
 62
9
  6
CONTINUOUS
 10
13.3119914646
 20
9.2163179221
 11
13.3120554414
 21
9.2163179221
  0
LINE
  5
25E
100
AcDbEntity
  8
0
100
AcDbLine
 62
7
  6
CONTINUOUS
 10
20.2974177255
 20
9.434891804
 11
21.7974177255
 21
9.434891804
  0
LINE
  5
25F
100
AcDbEntity
  8
0
100
AcDbLine
 62
7
  6
CONTINUOUS
 10
12.8848273217
 20
8.9055451137
 11
12.8953416779
 21
8.9028321984
  0
LINE
  5
260
100
AcDbEntity
  8
0
100
AcDbLine
 62
7
  6
CONTINUOUS
 10
13.1407572356
 20
6.7784855889
 11
13.1407467458
 21
6.7784970675
  0
LWPOLYLINE
  5
261
100
AcDbEntity
  8
0
100
AcDbPolyline
 62
7
  6
CONTINUOUS
 90
4
 70
0
 10
13.1407467458
 20
6.7784970675
 10
13.0376134938
 20
6.8955629321
 10
12.9295189284
 20
7.0325127701
 10
12.8332621417
 20
7.1693768956
  0
LINE
  5
262
100
AcDbEntity
  8
0
100
AcDbLine
 62
7
  6
CONTINUOUS
 10
12.9477451882
 20
6.7769591803
 11
12.9477309036
 21
6.776978365
  0
LWPOLYLINE
  5
263
100
AcDbEntity
  8
0
100
AcDbPolyline
 62
7
  6
CONTINUOUS
 90
4
 70
0
 10
12.9477309036
 20
6.776978365
 10
12.8683393153
 20
6.8867372243
 10
12.7790030472
 20
7.0237686728
 10
12.6990940865
 20
7.1609952671
  0
LINE
  5
264
100
AcDbEntity
  8
0
100
AcDbLine
 62
7
  6
CONTINUOUS
 10
12.8332619255
 20
7.1693770391
 11
12.8332581005
 21
7.1693828007
  0
LINE
  5
265
100
AcDbEntity
  8
0
100
AcDbLine
 62
7
  6
CONTINUOUS
 10
12.8332581005
 20
7.1693828007
 11
12.754181362
 21
7.2949732093
  0
LINE
  5
266
100
AcDbEntity
  8
0
100
AcDbLine
 62
7
  6
CONTINUOUS
 10
12.7619638548
 20
7.2819999244
 11
12.7525310783
 21
7.2978015551
  0
LINE
  5
267
100
AcDbEntity
  8
0
100
AcDbLine
 62
7
  6
CONTINUOUS
 10
12.6990947567
 20
7.1609942427
 11
12.6960360726
 21
7.166570913
  0
LINE
  5
268
100
AcDbEntity
  8
0
100
AcDbLine
 62
9
  6
CONTINUOUS
 10
10.8248411393
 20
9.0762982999
 11
10.7880400978
 21
9.2176732104
  0
LINE
  5
269
100
AcDbEntity
  8
0
100
AcDbLine
 62
9
  6
CONTINUOUS
 10
11.1389378742
 20
8.977821016
 11
11.1440939073
 21
8.9509236187
  0
LINE
  5
26A
100
AcDbEntity
  8
0
100
AcDbLine
 62
9
  6
CONTINUOUS
 10
11.5756039031
 20
9.2773596234
 11
11.5680459555
 21
9.3558427013
  0
LINE
  5
26B
100
AcDbEntity
  8
0
100
AcDbLine
 62
9
  6
CONTINUOUS
 10
11.9399556075
 20
9.2773596315
 11
11.9400085945
 21
9.2763245168
  0
LINE
  5
26C
100
AcDbEntity
  8
0
100
AcDbLine
 62
7
  6
CONTINUOUS
 10
11.6924177255
 20
8.4338545715
 11
11.6924177255
 21
8.390891804
  0
LINE
  5
26D
100
AcDbEntity
  8
0
100
AcDbLine
 62
9
  6
CONTINUOUS
 10
11.7087686172
 20
8.4338545715
 11
11.7087686172
 21
8.5159312794
  0
LINE
  5
26E
100
AcDbEntity
  8
0
100
AcDbLine
 62
7
  6
CONTINUOUS
 10
11.7944177255
 20
8.390891804
 11
11.7944177255
 21
8.359891804
  0
LINE
  5
26F
100
AcDbEntity
  8
0
100
AcDbLine
 62
7
  6
CONTINUOUS
 10
11.8894177255
 20
9.2093933207
 11
11.8894177255
 21
8.7412473133
  0
LINE
  5
270
100
AcDbEntity
  8
0
100
AcDbLine
 62
9
  6
CONTINUOUS
 10
11.9400085079
 20
8.6739833496
 11
11.9400086364
 21
9.2763245286
  0
LINE
  5
271
100
AcDbEntity
  8
0
100
AcDbLine
 62
9
  6
CONTINUOUS
 10
11.9409199231
 20
8.5159312794
 11
11.9409199231
 21
8.4338545715
  0
LINE
  5
272
100
AcDbEntity
  8
0
100
AcDbLine
 62
9
  6
CONTINUOUS
 10
11.9674421196
 20
9.1681592314
 11
11.9674422977
 21
9.3049152366
  0
LINE
  5
273
100
AcDbEntity
  8
0
100
AcDbLine
 62
9
  6
CONTINUOUS
 10
12.0346974038
 20
9.2176732383
 11
12.0346819013
 21
9.3558425837
  0
LINE
  5
274
100
AcDbEntity
  8
0
100
AcDbLine
 62
9
  6
CONTINUOUS
 10
12.0474177255
 20
8.3598911072
 11
12.0474177255
 21
6.7786645441
  0
LINE
  5
275
100
AcDbEntity
  8
0
100
AcDbLine
 62
9
  6
CONTINUOUS
 10
12.1273931793
 20
9.3049150491
 11
12.1273932163
 21
9.1681595887
  0
LINE
  5
276
100
AcDbEntity
  8
0
100
AcDbLine
 62
9
  6
CONTINUOUS
 10
12.1539155256
 20
8.4338545715
 11
12.1539155256
 21
8.5159312794
  0
LINE
  5
277
100
AcDbEntity
  8
0
100
AcDbLine
 62
9
  6
CONTINUOUS
 10
12.1548268285
 20
8.6739833165
 11
12.1548268038
 21
9.2763245337
  0
LINE
  5
278
100
AcDbEntity
  8
0
100
AcDbLine
 62
7
  6
CONTINUOUS
 10
12.2054177255
 20
8.741250633
 11
12.2054177255
 21
9.2093933207
  0
LINE
  5
279
100
AcDbEntity
  8
0
100
AcDbLine
 62
7
  6
CONTINUOUS
 10
12.3004177255
 20
8.390891804
 11
12.3004177255
 21
8.359891804
  0
LINE
  5
27A
100
AcDbEntity
  8
0
100
AcDbLine
 62
9
  6
CONTINUOUS
 10
12.0601536545
 20
9.355842704
 11
12.0601382769
 21
9.2176732387
  0
LINE
  5
27B
100
AcDbEntity
  8
0
100
AcDbLine
 62
9
  6
CONTINUOUS
 10
12.1548268038
 20
9.2763245344
 11
12.1548799167
 21
9.277359613
  0
LWPOLYLINE
  5
27C
100
AcDbEntity
  8
0
100
AcDbPolyline
 62
7
  6
CONTINUOUS
 90
5
 70
0
 10
11.6934177255
 20
8.359891804
 10
11.6550536064
 20
8.1197781571
 10
11.5934657752
 20
7.8767316129
 10
11.5100209011
 20
7.6401284609
 10
11.4052578103
 20
7.4119918742
  0
LWPOLYLINE
  5
27D
100
AcDbEntity
  8
0
100
AcDbPolyline
 62
7
  6
CONTINUOUS
 90
5
 70
0
 10
12.127537578
 20
8.6468195746
 10
12.1305518644
 20
8.6542401058
 10
12.1391088946
 20
8.665238161
 10
12.150917796
 20
8.6726326886
 10
12.1548268285
 20
8.6739833165
  0
LWPOLYLINE
  5
27E
100
AcDbEntity
  8
0
100
AcDbPolyline
 62
7
  6
CONTINUOUS
 90
9
 70
0
 10
11.4052578103
 20
7.4119918742
 10
11.399112148
 20
7.4001565738
 10
11.3921251786
 20
7.3868814339
 10
11.3845838399
 20
7.3727724916
 10
11.3766099854
 20
7.3581027341
 10
11.3681733453
 20
7.3428559165
 10
11.3592060656
 20
7.326951469
 10
11.350604708
 20
7.3119819331
 10
11.3423851092
 20
7.2979382357
  0
LINE
  5
27F
100
AcDbEntity
  8
0
100
AcDbLine
 62
7
  6
CONTINUOUS
 10
11.3989200015
 20
7.1667914848
 11
11.3957406943
 21
7.1609942427
  0
LWPOLYLINE
  5
280
100
AcDbEntity
  8
0
100
AcDbPolyline
 62
7
  6
CONTINUOUS
 90
4
 70
0
 10
11.3957414433
 20
7.1609952416
 10
11.3158330042
 20
7.0237696644
 10
11.2264898479
 20
6.886727953
 10
11.1471044892
 20
6.7769780702
  0
LINE
  5
281
100
AcDbEntity
  8
0
100
AcDbLine
 62
7
  6
CONTINUOUS
 10
11.3423851092
 20
7.2979382357
 11
11.332873719
 21
7.2820034463
  0
LINE
  5
282
100
AcDbEntity
  8
0
100
AcDbLine
 62
7
  6
CONTINUOUS
 10
11.3342498678
 20
7.2842882327
 11
11.332873719
 21
7.2820034463
  0
LINE
  5
283
100
AcDbEntity
  8
0
100
AcDbLine
 62
7
  6
CONTINUOUS
 10
11.3408077648
 20
7.2952308335
 11
11.2615774998
 21
7.1693828957
  0
LINE
  5
284
100
AcDbEntity
  8
0
100
AcDbLine
 62
7
  6
CONTINUOUS
 10
11.2615774998
 20
7.1693828957
 11
11.2615734607
 21
7.1693768116
  0
LWPOLYLINE
  5
285
100
AcDbEntity
  8
0
100
AcDbPolyline
 62
7
  6
CONTINUOUS
 90
3
 70
0
 10
11.2615733593
 20
7.1693768695
 10
11.1653387428
 20
7.0325425845
 10
11.0572553154
 20
6.8956028128
  0
LINE
  5
286
100
AcDbEntity
  8
0
100
AcDbLine
 62
7
  6
CONTINUOUS
 10
11.0572553154
 20
6.8956028128
 11
10.9540879721
 21
6.7784962772
  0
LINE
  5
287
100
AcDbEntity
  8
0
100
AcDbLine
 62
7
  6
CONTINUOUS
 10
20.2774177255
 20
10.484891804
 11
21.8174177255
 21
10.484891804
  0
LINE
  5
288
100
AcDbEntity
  8
0
100
AcDbLine
 62
9
  6
CONTINUOUS
 10
20.2374177255
 20
10.524891804
 11
21.8574177255
 21
10.524891804
  0
LINE
  5
289
100
AcDbEntity
  8
0
100
AcDbLine
 62
7
  6
CONTINUOUS
 10
21.8574177255
 20
10.634891804
 11
20.2374177255
 21
10.634891804
  0
LINE
  5
28A
100
AcDbEntity
  8
0
100
AcDbLine
 62
7
  6
CONTINUOUS
 10
12.8953416779
 20
8.9028321984
 11
12.9043282644
 21
8.897702766
  0
LINE
  5
28B
100
AcDbEntity
  8
0
100
AcDbLine
 62
7
  6
CONTINUOUS
 10
12.9042792297
 20
8.8977397457
 11
12.904184658
 21
8.8978109806
  0
LINE
  5
28C
100
AcDbEntity
  8
0
100
AcDbLine
 62
7
  6
CONTINUOUS
 10
12.9114824674
 20
8.8905188188
 11
12.912132487
 21
8.889869163
  0
LINE
  5
28D
100
AcDbEntity
  8
0
100
AcDbLine
 62
7
  6
CONTINUOUS
 10
12.9041848508
 20
8.8978128887
 11
12.912473093
 21
8.8894103194
  0
LINE
  5
28E
100
AcDbEntity
  8
0
100
AcDbLine
 62
9
  6
CONTINUOUS
 10
12.5652375978
 20
8.8812631722
 11
12.5234180265
 21
8.9339357225
  0
LWPOLYLINE
  5
28F
100
AcDbEntity
  8
0
100
AcDbPolyline
 62
7
  6
CONTINUOUS
 90
8
 70
0
 10
12.7525310783
 20
7.2978015551
 10
12.744304622
 20
7.3118545692
 10
12.7356986121
 20
7.3268298724
 10
12.7267200772
 20
7.3427521106
 10
12.7182702084
 20
7.3580211351
 10
12.7102828524
 20
7.3727145188
 10
12.7027299159
 20
7.3868443862
 10
12.6957328207
 20
7.4001383587
  0
LINE
  5
290
100
AcDbEntity
  8
0
100
AcDbLine
 62
7
  6
CONTINUOUS
 10
12.6957277145
 20
7.4001481922
 11
12.6895776407
 21
7.4119918742
  0
LWPOLYLINE
  5
291
100
AcDbEntity
  8
0
100
AcDbPolyline
 62
7
  6
CONTINUOUS
 90
5
 70
0
 10
12.6895776407
 20
7.4119918742
 10
12.5848145499
 20
7.6401284609
 10
12.5013696758
 20
7.8767316129
 10
12.4397818446
 20
8.1197781571
 10
12.4014177255
 20
8.359891804
  0
LWPOLYLINE
  5
292
100
AcDbEntity
  8
0
100
AcDbPolyline
 62
7
  6
CONTINUOUS
 90
9
 70
0
 10
11.9672974225
 20
8.646821486
 10
11.9682952127
 20
8.6436941111
 10
11.9729401941
 20
8.6331337696
 10
11.9797709355
 20
8.6228219124
 10
11.9888627872
 20
8.6133909859
 10
12.0001789284
 20
8.6054614986
 10
12.0134816836
 20
8.599700708
 10
12.0283734195
 20
8.5967391092
 10
12.0343667707
 20
8.5964703785
  0
LWPOLYLINE
  5
293
100
AcDbEntity
  8
0
100
AcDbPolyline
 62
7
  6
CONTINUOUS
 90
6
 70
0
 10
11.8894177255
 20
8.7412385595
 10
11.8920833951
 20
8.7221051778
 10
11.8998673053
 20
8.7044453355
 10
11.9121737925
 20
8.6895858855
 10
11.9280741651
 20
8.6786481169
 10
11.9400085817
 20
8.673983339
  0
LINE
  5
294
100
AcDbEntity
  8
0
100
AcDbLine
 62
9
  6
CONTINUOUS
 10
12.3860668331
 20
8.5159312794
 11
12.3860668331
 21
8.4338545715
  0
LINE
  5
295
100
AcDbEntity
  8
0
100
AcDbLine
 62
7
  6
CONTINUOUS
 10
12.4024177255
 20
8.4338545715
 11
12.4024177255
 21
8.390891804
  0
LINE
  5
296
100
AcDbEntity
  8
0
100
AcDbLine
 62
9
  6
CONTINUOUS
 10
12.5234177255
 20
9.2093933207
 11
12.5234177256
 21
8.9339359834
  0
LINE
  5
297
100
AcDbEntity
  8
0
100
AcDbLine
 62
9
  6
CONTINUOUS
 10
12.9870922865
 20
8.9115497339
 11
12.9870922865
 21
8.9400769941
  0
LINE
  5
298
100
AcDbEntity
  8
0
100
AcDbLine
 62
9
  6
CONTINUOUS
 10
13.0543479719
 20
8.9115565774
 11
13.0543477118
 21
9.0199988172
  0
LINE
  5
299
100
AcDbEntity
  8
0
100
AcDbLine
 62
7
  6
CONTINUOUS
 10
13.0724177255
 20
6.744891804
 11
13.0724177255
 21
6.734891804
  0
LINE
  5
29A
100
AcDbEntity
  8
0
100
AcDbLine
 62
9
  6
CONTINUOUS
 10
12.5192316283
 20
9.2773596315
 11
12.5267909966
 21
9.3558425562
  0
LINE
  5
29B
100
AcDbEntity
  8
0
100
AcDbLine
 62
9
  6
CONTINUOUS
 10
12.5300131598
 20
9.2763245286
 11
12.5234177122
 21
9.2093931855
  0
LINE
  5
29C
100
AcDbEntity
  8
0
100
AcDbLine
 62
9
  6
CONTINUOUS
 10
12.9507405001
 20
8.9509241044
 11
12.9558969887
 21
8.977821508
  0
LINE
  5
29D
100
AcDbEntity
  8
0
100
AcDbLine
 62
7
  6
CONTINUOUS
 10
11.1471044892
 20
6.7769780702
 11
11.1470904316
 21
6.7769591844
  0
LINE
  5
29E
100
AcDbEntity
  8
0
100
AcDbLine
 62
7
  6
CONTINUOUS
 10
10.9540879721
 20
6.7784962772
 11
10.9540782272
 21
6.7784856012
  0
LINE
  5
29F
100
AcDbEntity
  8
0
100
AcDbLine
 62
9
  6
CONTINUOUS
 10
20.0374177255
 20
10.834891804
 11
22.0574177255
 21
10.834891804
  0
LINE
  5
2A0
100
AcDbEntity
  8
0
100
AcDbLine
 62
9
  6
CONTINUOUS
 10
22.0574177255
 20
10.934891804
 11
20.0374177255
 21
10.934891804
  0
LINE
  5
2A1
100
AcDbEntity
  8
0
100
AcDbLine
 62
7
  6
CONTINUOUS
 10
20.2374177255
 20
11.134891804
 11
21.8574177255
 21
11.134891804
  0
LINE
  5
2A2
100
AcDbEntity
  8
0
100
AcDbLine
 62
9
  6
CONTINUOUS
 10
21.8574177255
 20
11.244891804
 11
20.2374177255
 21
11.244891804
  0
LINE
  5
2A3
100
AcDbEntity
  8
0
100
AcDbLine
 62
7
  6
CONTINUOUS
 10
21.8174177255
 20
11.284891804
 11
20.2774177255
 21
11.284891804
  0
LINE
  5
2A4
100
AcDbEntity
  8
0
100
AcDbLine
 62
7
  6
CONTINUOUS
 10
12.9399343062
 20
8.7940209831
 11
12.9400731036
 21
8.7937573797
  0
LINE
  5
2A5
100
AcDbEntity
  8
0
100
AcDbLine
 62
7
  6
CONTINUOUS
 10
12.912132487
 20
8.889869163
 11
12.9174314125
 21
8.8795968081
  0
LWPOLYLINE
  5
2A6
100
AcDbEntity
  8
0
100
AcDbPolyline
 62
7
  6
CONTINUOUS
 90
3
 70
0
 10
12.912473093
 20
8.8894103194
 10
12.9183567518
 20
8.8776977049
 10
12.9198165137
 20
8.8710072684
  0
LWPOLYLINE
  5
2A7
100
AcDbEntity
  8
0
100
AcDbPolyline
 62
7
  6
CONTINUOUS
 90
7
 70
0
 10
12.9222704956
 20
8.8552197612
 10
12.9401567167
 20
8.7934687108
 10
12.9702510942
 20
8.7365700436
 10
13.0113414532
 20
8.686914975
 10
13.0617144745
 20
8.646634179
 10
13.1192466865
 20
8.6174476777
 10
13.174372289
 20
8.601840249
  0
LINE
  5
2A8
100
AcDbEntity
  8
0
100
AcDbLine
 62
7
  6
CONTINUOUS
 10
12.9221579458
 20
8.8558411773
 11
12.9221926686
 21
8.8557204229
  0
LINE
  5
2A9
100
AcDbEntity
  8
0
100
AcDbLine
 62
7
  6
CONTINUOUS
 10
12.9198170735
 20
8.8710026088
 11
12.922270497
 21
8.8552197538
  0
LINE
  5
2AA
100
AcDbEntity
  8
0
100
AcDbLine
 62
7
  6
CONTINUOUS
 10
12.9198179243
 20
8.8709967779
 11
12.9198170735
 21
8.8710026088
  0
LINE
  5
2AB
100
AcDbEntity
  8
0
100
AcDbLine
 62
9
  6
CONTINUOUS
 10
13.2699942689
 20
9.0762981281
 11
13.3067953617
 21
9.2176732377
  0
LINE
  5
2AC
100
AcDbEntity
  8
0
100
AcDbLine
 62
7
  6
CONTINUOUS
 10
19.9324177255
 20
6.904891804
 11
19.9324177255
 21
6.744891804
  0
LINE
  5
2AD
100
AcDbEntity
  8
0
100
AcDbLine
 62
7
  6
CONTINUOUS
 10
20.0374177255
 20
10.834891804
 11
20.0374177255
 21
10.934891804
  0
LINE
  5
2AE
100
AcDbEntity
  8
0
100
AcDbLine
 62
7
  6
CONTINUOUS
 10
20.2374177255
 20
11.244891804
 11
20.2374177255
 21
11.134891804
  0
LINE
  5
2AF
100
AcDbEntity
  8
0
100
AcDbLine
 62
7
  6
CONTINUOUS
 10
20.2374177255
 20
10.524891804
 11
20.2374177255
 21
10.634891804
  0
LINE
  5
2B0
100
AcDbEntity
  8
0
100
AcDbLine
 62
7
  6
CONTINUOUS
 10
20.2974177255
 20
9.434891804
 11
20.2974177255
 21
10.484891804
  0
LINE
  5
2B1
100
AcDbEntity
  8
0
100
AcDbLine
 62
7
  6
CONTINUOUS
 10
20.4474177255
 20
9.434891804
 11
20.4474177255
 21
9.1048397201
  0
LINE
  5
2B2
100
AcDbEntity
  8
0
100
AcDbLine
 62
7
  6
CONTINUOUS
 10
21.6474177255
 20
9.434891804
 11
21.6474177255
 21
9.1048397201
  0
LINE
  5
2B3
100
AcDbEntity
  8
0
100
AcDbLine
 62
7
  6
CONTINUOUS
 10
21.7974177255
 20
9.434891804
 11
21.7974177255
 21
10.484891804
  0
LINE
  5
2B4
100
AcDbEntity
  8
0
100
AcDbLine
 62
7
  6
CONTINUOUS
 10
21.8574177255
 20
11.244891804
 11
21.8574177255
 21
11.134891804
  0
LINE
  5
2B5
100
AcDbEntity
  8
0
100
AcDbLine
 62
7
  6
CONTINUOUS
 10
21.8574177255
 20
10.524891804
 11
21.8574177255
 21
10.634891804
  0
LINE
  5
2B6
100
AcDbEntity
  8
0
100
AcDbLine
 62
7
  6
CONTINUOUS
 10
22.0574177255
 20
10.834891804
 11
22.0574177255
 21
10.934891804
  0
LINE
  5
2B7
100
AcDbEntity
  8
0
100
AcDbLine
 62
7
  6
CONTINUOUS
 10
22.1624177255
 20
6.904891804
 11
22.1624177255
 21
6.744891804
  0
ARC
  5
2B8
100
AcDbEntity
  8
0
100
AcDbCircle
 62
7
  6
CONTINUOUS
 10
0.1386381318
 20
6.5619967643
 40
0.9
100
AcDbArc
 50
130.6439171764
 51
168.2748731242
  0
ARC
  5
2B9
100
AcDbEntity
  8
0
100
AcDbCircle
 62
7
  6
CONTINUOUS
 10
-0.0438026808
 20
6.5619967643
 40
0.9
100
AcDbArc
 50
11.7251268758
 51
49.3560828236
  0
ARC
  5
2BA
100
AcDbEntity
  8
0
100
AcDbCircle
 62
7
  6
CONTINUOUS
 10
4.5630032541
 20
7.382713637
 40
0.5
100
AcDbArc
 50
230.8634260457
 51
269.6169510033
  0
ARC
  5
2BB
100
AcDbEntity
  8
0
100
AcDbCircle
 62
7
  6
CONTINUOUS
 10
3.5318321969
 20
7.382713637
 40
0.5
100
AcDbArc
 50
270.3830489967
 51
309.1365739543
  0
ARC
  5
2BC
100
AcDbEntity
  8
0
100
AcDbCircle
 62
7
  6
CONTINUOUS
 10
-0.0150822745
 20
7.324891804
 40
0.4
100
AcDbArc
 50
155.7790568911
 51
180.0
  0
ARC
  5
2BD
100
AcDbEntity
  8
0
100
AcDbCircle
 62
7
  6
CONTINUOUS
 10
0.1099177255
 20
7.324891804
 40
0.4
100
AcDbArc
 50
0.0
 51
24.2209431089
  0
ARC
  5
2BE
100
AcDbEntity
  8
0
100
AcDbCircle
 62
7
  6
CONTINUOUS
 10
3.5354177255
 20
7.064891804
 40
0.315
100
AcDbArc
 50
0.0
 51
72.5423968763
  0
ARC
  5
2BF
100
AcDbEntity
  8
0
100
AcDbCircle
 62
7
  6
CONTINUOUS
 10
4.5594177255
 20
7.064891804
 40
0.315
100
AcDbArc
 50
107.4576031237
 51
180.0
  0
ARC
  5
2C0
100
AcDbEntity
  8
0
100
AcDbCircle
 62
7
  6
CONTINUOUS
 10
3.5764177255
 20
7.541891804
 40
0.08
100
AcDbArc
 50
180.0
 51
270.0
  0
ARC
  5
2C1
100
AcDbEntity
  8
0
100
AcDbCircle
 62
7
  6
CONTINUOUS
 10
4.5184177255
 20
7.541891804
 40
0.08
100
AcDbArc
 50
270.0
 51
360.0
  0
ARC
  5
2C2
100
AcDbEntity
  8
0
100
AcDbCircle
 62
7
  6
CONTINUOUS
 10
3.5764177255
 20
7.578891804
 40
0.08
100
AcDbArc
 50
90.0
 51
180.0
  0
ARC
  5
2C3
100
AcDbEntity
  8
0
100
AcDbCircle
 62
7
  6
CONTINUOUS
 10
4.5184177255
 20
7.578891804
 40
0.08
100
AcDbArc
 50
0.0
 51
90.0
  0
ARC
  5
2C4
100
AcDbEntity
  8
0
100
AcDbCircle
 62
7
  6
CONTINUOUS
 10
3.6449177255
 20
7.706891804
 40
0.05
100
AcDbArc
 50
90.0
 51
180.0
  0
ARC
  5
2C5
100
AcDbEntity
  8
0
100
AcDbCircle
 62
7
  6
CONTINUOUS
 10
4.4499177255
 20
7.706891804
 40
0.05
100
AcDbArc
 50
0.0
 51
90.0
  0
ARC
  5
2C6
100
AcDbEntity
  8
0
100
AcDbCircle
 62
7
  6
CONTINUOUS
 10
4.4499177255
 20
7.4130796126
 40
0.05
100
AcDbArc
 50
287.4576031237
 51
360.0
  0
ARC
  5
2C7
100
AcDbEntity
  8
0
100
AcDbCircle
 62
7
  6
CONTINUOUS
 10
3.6449177255
 20
7.4130796126
 40
0.05
100
AcDbArc
 50
180.0
 51
252.5423968763
  0
ARC
  5
2C8
100
AcDbEntity
  8
0
100
AcDbCircle
 62
7
  6
CONTINUOUS
 10
4.5774177255
 20
6.8429060574
 40
0.04
100
AcDbArc
 50
0.0
 51
90.0
  0
ARC
  5
2C9
100
AcDbEntity
  8
0
100
AcDbCircle
 62
7
  6
CONTINUOUS
 10
3.5174177255
 20
6.8429060574
 40
0.04
100
AcDbArc
 50
90.0
 51
180.0
  0
ARC
  5
2CA
100
AcDbEntity
  8
0
100
AcDbCircle
 62
7
  6
CONTINUOUS
 10
3.4374177255
 20
6.784891804
 40
0.04
100
AcDbArc
 50
90.0
 51
180.0
  0
ARC
  5
2CB
100
AcDbEntity
  8
0
100
AcDbCircle
 62
7
  6
CONTINUOUS
 10
4.6574177255
 20
6.784891804
 40
0.04
100
AcDbArc
 50
0.0
 51
90.0
  0
ARC
  5
2CC
100
AcDbEntity
  8
0
100
AcDbCircle
 62
7
  6
CONTINUOUS
 10
-0.3707506594
 20
7.484891804
 40
0.01
100
AcDbArc
 50
90.0
 51
155.7790568911
  0
ARC
  5
2CD
100
AcDbEntity
  8
0
100
AcDbCircle
 62
7
  6
CONTINUOUS
 10
0.4655861104
 20
7.484891804
 40
0.01
100
AcDbArc
 50
24.2209431089
 51
90.0
  0
ARC
  5
2CE
100
AcDbEntity
  8
0
100
AcDbCircle
 62
7
  6
CONTINUOUS
 10
12.0474177255
 20
4.378891804
 40
5.0
100
AcDbArc
 50
75.3491830153
 51
104.6508169847
  0
ARC
  5
2CF
100
AcDbEntity
  8
0
100
AcDbCircle
 62
9
  6
CONTINUOUS
 10
12.0474177827
 20
4.3788921712
 40
4.9488203769
100
AcDbArc
 50
75.4114259706
 51
84.4983186885
  0
ARC
  5
2D0
100
AcDbEntity
  8
0
100
AcDbCircle
 62
9
  6
CONTINUOUS
 10
12.0474176841
 20
4.3788921227
 40
4.9488203044
100
AcDbArc
 50
95.5016948585
 51
104.5885738374
  0
ARC
  5
2D1
100
AcDbEntity
  8
0
100
AcDbCircle
 62
9
  6
CONTINUOUS
 10
12.0474177527
 20
4.3788919787
 40
4.9211526889
100
AcDbArc
 50
75.4114426296
 51
84.3722145308
  0
ARC
  5
2D2
100
AcDbEntity
  8
0
100
AcDbCircle
 62
9
  6
CONTINUOUS
 10
12.0474176616
 20
4.3788921835
 40
4.9211524985
100
AcDbArc
 50
95.6277852714
 51
104.5885904413
  0
ARC
  5
2D3
100
AcDbEntity
  8
0
100
AcDbCircle
 62
9
  6
CONTINUOUS
 10
12.0474177524
 20
4.3788919771
 40
4.8538971822
100
AcDbArc
 50
75.411493008
 51
84.3722145324
  0
ARC
  5
2D4
100
AcDbEntity
  8
0
100
AcDbCircle
 62
9
  6
CONTINUOUS
 10
12.047417662
 20
4.3788921814
 40
4.8538971512
100
AcDbArc
 50
95.627785274
 51
104.5885071589
  0
ARC
  5
2D5
100
AcDbEntity
  8
0
100
AcDbCircle
 62
9
  6
CONTINUOUS
 10
11.4231412003
 20
7.1456406614
 40
0.0314249597
100
AcDbArc
 50
139.290351034
 51
140.3189457561
  0
ARC
  5
2D6
100
AcDbEntity
  8
0
100
AcDbCircle
 62
9
  6
CONTINUOUS
 10
12.6717452037
 20
7.1456836369
 40
0.0313583216
100
AcDbArc
 50
39.6092118463
 51
40.2933988847
  0
ARC
  5
2D7
100
AcDbEntity
  8
0
100
AcDbCircle
 62
9
  6
CONTINUOUS
 10
11.4229629113
 20
7.1457888763
 40
0.0311931094
100
AcDbArc
 50
140.3193641555
 51
141.0398534914
  0
ARC
  5
2D8
100
AcDbEntity
  8
0
100
AcDbCircle
 62
9
  6
CONTINUOUS
 10
11.4221860558
 20
7.1463978516
 40
0.0302061317
100
AcDbArc
 50
141.0115116456
 51
151.1006530176
  0
ARC
  5
2D9
100
AcDbEntity
  8
0
100
AcDbCircle
 62
7
  6
CONTINUOUS
 10
13.1260650966
 20
6.7650118571
 40
0.0201200652
100
AcDbArc
 50
270.0630946238
 51
292.1613915308
  0
ARC
  5
2DA
100
AcDbEntity
  8
0
100
AcDbCircle
 62
7
  6
CONTINUOUS
 10
10.9687703544
 20
6.7650118571
 40
0.0201200652
100
AcDbArc
 50
247.8386084662
 51
269.9369053764
  0
ARC
  5
2DB
100
AcDbEntity
  8
0
100
AcDbCircle
 62
7
  6
CONTINUOUS
 10
10.9687479763
 20
6.764890249
 40
0.0199980585
100
AcDbArc
 50
137.1768105257
 51
270.0006351381
  0
ARC
  5
2DC
100
AcDbEntity
  8
0
100
AcDbCircle
 62
7
  6
CONTINUOUS
 10
13.1260882574
 20
6.7648915161
 40
0.019998018
100
AcDbArc
 50
269.9971942677
 51
42.8411926543
  0
ARC
  5
2DD
100
AcDbEntity
  8
0
100
AcDbCircle
 62
9
  6
CONTINUOUS
 10
2.3164307348
 20
8.5116072385
 40
9.6244923615
100
AcDbArc
 50
0.0257415454
 51
0.9494017846
  0
ARC
  5
2DE
100
AcDbEntity
  8
0
100
AcDbCircle
 62
9
  6
CONTINUOUS
 10
5.5694744484
 20
9.2810192239
 40
6.4275172587
100
AcDbArc
 50
352.4263705055
 51
353.1636899569
  0
ARC
  5
2DF
100
AcDbEntity
  8
0
100
AcDbCircle
 62
9
  6
CONTINUOUS
 10
9.5794071578
 20
8.3453099617
 40
2.1312024965
100
AcDbArc
 50
2.3817042286
 51
4.5919401061
  0
ARC
  5
2E0
100
AcDbEntity
  8
0
100
AcDbCircle
 62
9
  6
CONTINUOUS
 10
10.8528234061
 20
8.2935137365
 40
0.8673747895
100
AcDbArc
 50
9.3113677184
 51
14.1349411711
  0
ARC
  5
2E1
100
AcDbEntity
  8
0
100
AcDbCircle
 62
9
  6
CONTINUOUS
 10
8.9019351871
 20
8.6403402041
 40
2.9854161435
100
AcDbArc
 50
321.4168340068
 51
330.4760050384
  0
ARC
  5
2E2
100
AcDbEntity
  8
0
100
AcDbCircle
 62
7
  6
CONTINUOUS
 10
8.8848481487
 20
8.5002089846
 40
2.8439241857
100
AcDbArc
 50
322.7043849099
 51
324.3125958983
  0
ARC
  5
2E3
100
AcDbEntity
  8
0
100
AcDbCircle
 62
9
  6
CONTINUOUS
 10
9.2145950352
 20
8.6675810555
 40
2.6007729187
100
AcDbArc
 50
348.7786415308
 51
353.2056012035
  0
ARC
  5
2E4
100
AcDbEntity
  8
0
100
AcDbCircle
 62
9
  6
CONTINUOUS
 10
11.67025015
 20
8.2568129755
 40
1.0249304396
100
AcDbArc
 50
95.2984863554
 51
95.9039233068
  0
ARC
  5
2E5
100
AcDbEntity
  8
0
100
AcDbCircle
 62
7
  6
CONTINUOUS
 10
11.2197840556
 20
8.4319914483
 40
0.4740220281
100
AcDbArc
 50
59.0534373845
 51
61.6334625593
  0
ARC
  5
2E6
100
AcDbEntity
  8
0
100
AcDbCircle
 62
7
  6
CONTINUOUS
 10
11.2202485895
 20
8.4328652939
 40
0.47303052
100
AcDbArc
 50
68.7422599986
 51
71.1191350847
  0
ARC
  5
2E7
100
AcDbEntity
  8
0
100
AcDbCircle
 62
7
  6
CONTINUOUS
 10
11.2204305321
 20
8.432829343
 40
0.4730251416
100
AcDbArc
 50
80.4268027889
 51
89.811468914
  0
ARC
  5
2E8
100
AcDbEntity
  8
0
100
AcDbCircle
 62
7
  6
CONTINUOUS
 10
11.2204420759
 20
8.4329217765
 40
0.4729325883
100
AcDbArc
 50
80.6886132801
 51
89.9921813649
  0
ARC
  5
2E9
100
AcDbEntity
  8
0
100
AcDbCircle
 62
7
  6
CONTINUOUS
 10
11.2203150791
 20
8.432972921
 40
0.4729061098
100
AcDbArc
 50
61.6335780971
 51
68.7450398048
  0
ARC
  5
2EA
100
AcDbEntity
  8
0
100
AcDbCircle
 62
7
  6
CONTINUOUS
 10
11.2204881918
 20
8.4335515863
 40
0.472303619
100
AcDbArc
 50
71.119696143
 51
80.6817719417
  0
ARC
  5
2EB
100
AcDbEntity
  8
0
100
AcDbCircle
 62
7
  6
CONTINUOUS
 10
11.2204177255
 20
8.4338545715
 40
0.472
100
AcDbArc
 50
0.0
 51
90.0
  0
ARC
  5
2EC
100
AcDbEntity
  8
0
100
AcDbCircle
 62
7
  6
CONTINUOUS
 10
11.2206452225
 20
8.4343005714
 40
0.4715386982
100
AcDbArc
 50
76.0044685746
 51
80.4227959817
  0
ARC
  5
2ED
100
AcDbEntity
  8
0
100
AcDbCircle
 62
7
  6
CONTINUOUS
 10
11.2204761504
 20
8.4354119127
 40
0.4704424373
100
AcDbArc
 50
89.8159898287
 51
89.996303665
  0
ARC
  5
2EE
100
AcDbEntity
  8
0
100
AcDbCircle
 62
9
  6
CONTINUOUS
 10
13.2450609367
 20
8.2928810136
 40
0.8704858794
100
AcDbArc
 50
165.8736818978
 51
170.6800059814
  0
ARC
  5
2EF
100
AcDbEntity
  8
0
100
AcDbCircle
 62
7
  6
CONTINUOUS
 10
12.8749448066
 20
8.4320949239
 40
0.4738793604
100
AcDbArc
 50
115.4073430437
 51
119.9829269282
  0
ARC
  5
2F0
100
AcDbEntity
  8
0
100
AcDbCircle
 62
7
  6
CONTINUOUS
 10
12.874692319
 20
8.4326495577
 40
0.4732700407
100
AcDbArc
 50
109.9796484644
 51
115.4085414577
  0
ARC
  5
2F1
100
AcDbEntity
  8
0
100
AcDbCircle
 62
7
  6
CONTINUOUS
 10
12.8744186723
 20
8.4326851473
 40
0.4731693111
100
AcDbArc
 50
90.1325315501
 51
99.6895170174
  0
ARC
  5
2F2
100
AcDbEntity
  8
0
100
AcDbCircle
 62
7
  6
CONTINUOUS
 10
12.8744488886
 20
8.4331918755
 40
0.472677188
100
AcDbArc
 50
104.0178420923
 51
109.9743784179
  0
ARC
  5
2F3
100
AcDbEntity
  8
0
100
AcDbCircle
 62
7
  6
CONTINUOUS
 10
12.8744177255
 20
8.4338545715
 40
0.472
100
AcDbArc
 50
90.0
 51
180.0
  0
ARC
  5
2F4
100
AcDbEntity
  8
0
100
AcDbCircle
 62
7
  6
CONTINUOUS
 10
12.8741732939
 20
8.4343664096
 40
0.4714708479
100
AcDbArc
 50
99.6310782126
 51
104.0674350125
  0
ARC
  5
2F5
100
AcDbEntity
  8
0
100
AcDbCircle
 62
7
  6
CONTINUOUS
 10
12.874156534
 20
8.4344372015
 40
0.4713981324
100
AcDbArc
 50
99.6939519061
 51
104.0200298219
  0
ARC
  5
2F6
100
AcDbEntity
  8
0
100
AcDbCircle
 62
9
  6
CONTINUOUS
 10
11.6572503372
 20
8.4954490318
 40
0.7190853159
100
AcDbArc
 50
96.1562355855
 51
96.8553755208
  0
ARC
  5
2F7
100
AcDbEntity
  8
0
100
AcDbCircle
 62
9
  6
CONTINUOUS
 10
12.4375915764
 20
8.4955051717
 40
0.7190288004
100
AcDbArc
 50
83.144601715
 51
83.8438102813
  0
ARC
  5
2F8
100
AcDbEntity
  8
0
100
AcDbCircle
 62
9
  6
CONTINUOUS
 10
7.8372509184
 20
8.8272607996
 40
4.1276141104
100
AcDbArc
 50
357.5067259502
 51
357.6579171931
  0
ARC
  5
2F9
100
AcDbEntity
  8
0
100
AcDbCircle
 62
9
  6
CONTINUOUS
 10
8.6981308614
 20
8.8714976612
 40
3.0770697925
100
AcDbArc
 50
329.185334631
 51
331.6683638097
  0
ARC
  5
2FA
100
AcDbEntity
  8
0
100
AcDbCircle
 62
9
  6
CONTINUOUS
 10
8.9630338052
 20
8.7944792266
 40
2.9010834595
100
AcDbArc
 50
315.9381334869
 51
325.7264312147
  0
ARC
  5
2FB
100
AcDbEntity
  8
0
100
AcDbCircle
 62
9
  6
CONTINUOUS
 10
10.4579199578
 20
8.9115562794
 40
0.6742410426
100
AcDbArc
 50
359.9995571215
 51
2.4243951296
  0
ARC
  5
2FC
100
AcDbEntity
  8
0
100
AcDbCircle
 62
9
  6
CONTINUOUS
 10
10.903635521
 20
8.7741796131
 40
0.4071473766
100
AcDbArc
 50
104.6115163048
 51
105.413020912
  0
ARC
  5
2FD
100
AcDbEntity
  8
0
100
AcDbCircle
 62
9
  6
CONTINUOUS
 10
11.2430831053
 20
8.8238385654
 40
0.1610883984
100
AcDbArc
 50
127.9157684273
 51
133.8145836691
  0
ARC
  5
2FE
100
AcDbEntity
  8
0
100
AcDbCircle
 62
9
  6
CONTINUOUS
 10
11.4791367411
 20
8.9380732257
 40
0.410376932
100
AcDbArc
 50
355.958607636
 51
356.3073379321
  0
ARC
  5
2FF
100
AcDbEntity
  8
0
100
AcDbCircle
 62
9
  6
CONTINUOUS
 10
10.8624113915
 20
8.9119395451
 40
0.3154898743
100
AcDbArc
 50
284.7185058648
 51
293.1008228219
  0
ARC
  5
300
100
AcDbEntity
  8
0
100
AcDbCircle
 62
7
  6
CONTINUOUS
 10
10.8624924387
 20
8.9119216535
 40
0.315453638
100
AcDbArc
 50
272.0166406321
 51
280.5894267726
  0
ARC
  5
301
100
AcDbEntity
  8
0
100
AcDbCircle
 62
7
  6
CONTINUOUS
 10
10.8625208428
 20
8.9117093333
 40
0.3152395732
100
AcDbArc
 50
270.002759343
 51
284.7180173649
  0
ARC
  5
302
100
AcDbEntity
  8
0
100
AcDbCircle
 62
9
  6
CONTINUOUS
 10
10.8625230103
 20
8.9115313849
 40
0.315060363
100
AcDbArc
 50
180.0028969502
 51
270.0023667284
  0
ARC
  5
303
100
AcDbEntity
  8
0
100
AcDbCircle
 62
7
  6
CONTINUOUS
 10
10.8624638525
 20
8.9115154495
 40
0.315046127
100
AcDbArc
 50
104.6508169847
 51
270.0
  0
ARC
  5
304
100
AcDbEntity
  8
0
100
AcDbCircle
 62
9
  6
CONTINUOUS
 10
10.8626093907
 20
8.9113139393
 40
0.3148347814
100
AcDbArc
 50
280.5888297505
 51
283.4359858398
  0
ARC
  5
305
100
AcDbEntity
  8
0
100
AcDbCircle
 62
9
  6
CONTINUOUS
 10
10.862673018
 20
8.9112870433
 40
0.314787044
100
AcDbArc
 50
293.1036187637
 51
299.1376442253
  0
ARC
  5
306
100
AcDbEntity
  8
0
100
AcDbCircle
 62
7
  6
CONTINUOUS
 10
10.8625581041
 20
8.9110731618
 40
0.3146033631
100
AcDbArc
 50
269.9959248578
 51
272.0101268254
  0
ARC
  5
307
100
AcDbEntity
  8
0
100
AcDbCircle
 62
9
  6
CONTINUOUS
 10
10.8627167678
 20
8.9108317258
 40
0.3143408205
100
AcDbArc
 50
283.6260287922
 51
284.7159738188
  0
ARC
  5
308
100
AcDbEntity
  8
0
100
AcDbCircle
 62
7
  6
CONTINUOUS
 10
10.8617835755
 20
8.9115053401
 40
0.3143185119
100
AcDbArc
 50
177.6392094366
 51
179.9981561629
  0
ARC
  5
309
100
AcDbEntity
  8
0
100
AcDbCircle
 62
9
  6
CONTINUOUS
 10
10.8627731993
 20
8.910602978
 40
0.3141052167
100
AcDbArc
 50
283.4370571331
 51
283.6258547853
  0
ARC
  5
30A
100
AcDbEntity
  8
0
100
AcDbCircle
 62
7
  6
CONTINUOUS
 10
10.862121326
 20
8.9130498114
 40
0.3134584413
100
AcDbArc
 50
104.6495879803
 51
105.1089518894
  0
ARC
  5
30B
100
AcDbEntity
  8
0
100
AcDbCircle
 62
7
  6
CONTINUOUS
 10
11.2152308139
 20
8.865413344
 40
0.0406853559
100
AcDbArc
 50
141.4664335545
 51
147.5286712271
  0
ARC
  5
30C
100
AcDbEntity
  8
0
100
AcDbCircle
 62
7
  6
CONTINUOUS
 10
11.2149326184
 20
8.8653724906
 40
0.0405158093
100
AcDbArc
 50
119.2173535596
 51
126.8154618198
  0
ARC
  5
30D
100
AcDbEntity
  8
0
100
AcDbCircle
 62
7
  6
CONTINUOUS
 10
11.2149048089
 20
8.8656234354
 40
0.0402975252
100
AcDbArc
 50
147.5318292379
 51
148.5358706946
  0
ARC
  5
30E
100
AcDbEntity
  8
0
100
AcDbCircle
 62
9
  6
CONTINUOUS
 10
11.214685057
 20
8.8655479453
 40
0.0402675321
100
AcDbArc
 50
90.8292709256
 51
102.762438763
  0
ARC
  5
30F
100
AcDbEntity
  8
0
100
AcDbCircle
 62
7
  6
CONTINUOUS
 10
11.2147009437
 20
8.865572808
 40
0.0402509844
100
AcDbArc
 50
90.8188113242
 51
102.2052467622
  0
ARC
  5
310
100
AcDbEntity
  8
0
100
AcDbCircle
 62
7
  6
CONTINUOUS
 10
11.2147967451
 20
8.8656605995
 40
0.0401980382
100
AcDbArc
 50
109.8407472942
 51
119.2487767244
  0
ARC
  5
311
100
AcDbEntity
  8
0
100
AcDbCircle
 62
7
  6
CONTINUOUS
 10
11.2148022538
 20
8.865802273
 40
0.0401243035
100
AcDbArc
 50
159.6772318739
 51
172.6003950099
  0
ARC
  5
312
100
AcDbEntity
  8
0
100
AcDbCircle
 62
7
  6
CONTINUOUS
 10
11.2145413206
 20
8.8659059976
 40
0.0398542191
100
AcDbArc
 50
126.8278328403
 51
127.7174324856
  0
ARC
  5
313
100
AcDbEntity
  8
0
100
AcDbCircle
 62
9
  6
CONTINUOUS
 10
11.2145757336
 20
8.8659937734
 40
0.0398085687
100
AcDbArc
 50
102.7507303033
 51
107.6107944421
  0
ARC
  5
314
100
AcDbEntity
  8
0
100
AcDbCircle
 62
7
  6
CONTINUOUS
 10
11.2145457332
 20
8.8661907385
 40
0.0396142131
100
AcDbArc
 50
102.1747827436
 51
109.759493412
  0
ARC
  5
315
100
AcDbEntity
  8
0
100
AcDbCircle
 62
7
  6
CONTINUOUS
 10
11.2140943192
 20
8.8661019156
 40
0.0393564572
100
AcDbArc
 50
147.4921806692
 51
159.9186246689
  0
ARC
  5
316
100
AcDbEntity
  8
0
100
AcDbCircle
 62
9
  6
CONTINUOUS
 10
13.1926498664
 20
8.7795861311
 40
0.4015498974
100
AcDbArc
 50
74.5813942142
 51
75.3940568275
  0
ARC
  5
317
100
AcDbEntity
  8
0
100
AcDbCircle
 62
9
  6
CONTINUOUS
 10
12.6179602859
 20
8.9382283676
 40
0.4126438593
100
AcDbArc
 50
183.6940218778
 51
184.0374453224
  0
ARC
  5
318
100
AcDbEntity
  8
0
100
AcDbCircle
 62
9
  6
CONTINUOUS
 10
13.2324694756
 20
8.9120686337
 40
0.3156269883
100
AcDbArc
 50
247.2142540094
 51
252.0554316894
  0
ARC
  5
319
100
AcDbEntity
  8
0
100
AcDbCircle
 62
9
  6
CONTINUOUS
 10
13.2323579332
 20
8.9117230635
 40
0.3152638625
100
AcDbArc
 50
252.0553676097
 51
255.2743629725
  0
ARC
  5
31A
100
AcDbEntity
  8
0
100
AcDbCircle
 62
7
  6
CONTINUOUS
 10
13.2323210244
 20
8.9117323548
 40
0.315263697
100
AcDbArc
 50
259.397364272
 51
267.9861522393
  0
ARC
  5
31B
100
AcDbEntity
  8
0
100
AcDbCircle
 62
7
  6
CONTINUOUS
 10
13.2323065628
 20
8.9116331208
 40
0.3151633214
100
AcDbArc
 50
259.4074447758
 51
269.9987565392
  0
ARC
  5
31C
100
AcDbEntity
  8
0
100
AcDbCircle
 62
9
  6
CONTINUOUS
 10
13.232314357
 20
8.911527865
 40
0.3150562654
100
AcDbArc
 50
269.997338682
 51
359.9976581404
  0
ARC
  5
31D
100
AcDbEntity
  8
0
100
AcDbCircle
 62
7
  6
CONTINUOUS
 10
13.2323715985
 20
8.9115154495
 40
0.315046127
100
AcDbArc
 50
270.0
 51
75.3491830153
  0
ARC
  5
31E
100
AcDbEntity
  8
0
100
AcDbCircle
 62
7
  6
CONTINUOUS
 10
13.2322614039
 20
8.9114962584
 40
0.3150206619
100
AcDbArc
 50
257.8702856187
 51
259.4001218629
  0
ARC
  5
31F
100
AcDbEntity
  8
0
100
AcDbCircle
 62
9
  6
CONTINUOUS
 10
13.2319756966
 20
8.9111572673
 40
0.3145794925
100
AcDbArc
 50
229.3390479359
 51
235.4048589601
  0
ARC
  5
320
100
AcDbEntity
  8
0
100
AcDbCircle
 62
9
  6
CONTINUOUS
 10
13.232063105
 20
8.9110852339
 40
0.3145629518
100
AcDbArc
 50
240.9888960346
 51
247.2131247313
  0
ARC
  5
321
100
AcDbEntity
  8
0
100
AcDbCircle
 62
7
  6
CONTINUOUS
 10
13.2322772481
 20
8.9110267047
 40
0.3145569449
100
AcDbArc
 50
267.9896042814
 51
270.004039704
  0
ARC
  5
322
100
AcDbEntity
  8
0
100
AcDbCircle
 62
7
  6
CONTINUOUS
 10
13.2321400899
 20
8.9109223785
 40
0.3144341031
100
AcDbArc
 50
255.2756678948
 51
257.8699245883
  0
ARC
  5
323
100
AcDbEntity
  8
0
100
AcDbCircle
 62
7
  6
CONTINUOUS
 10
13.2330518674
 20
8.9115053399
 40
0.3143185202
100
AcDbArc
 50
0.0018438664
 51
2.3608106512
  0
ARC
  5
324
100
AcDbEntity
  8
0
100
AcDbCircle
 62
7
  6
CONTINUOUS
 10
13.2333515363
 20
8.911513163
 40
0.3140176153
100
AcDbArc
 50
0.0003329526
 51
2.3598090075
  0
ARC
  5
325
100
AcDbEntity
  8
0
100
AcDbCircle
 62
7
  6
CONTINUOUS
 10
13.2327175197
 20
8.9130592802
 40
0.3134488192
100
AcDbArc
 50
74.9020321254
 51
75.3502967498
  0
ARC
  5
326
100
AcDbEntity
  8
0
100
AcDbCircle
 62
7
  6
CONTINUOUS
 10
12.8796500697
 20
8.8654366758
 40
0.0406394762
100
AcDbArc
 50
31.9164657835
 51
38.5259002591
  0
ARC
  5
327
100
AcDbEntity
  8
0
100
AcDbCircle
 62
7
  6
CONTINUOUS
 10
12.8799164518
 20
8.8653787099
 40
0.0405050347
100
AcDbArc
 50
53.1948665393
 51
60.4692193336
  0
ARC
  5
328
100
AcDbEntity
  8
0
100
AcDbCircle
 62
7
  6
CONTINUOUS
 10
12.8799268044
 20
8.8656145119
 40
0.0403083137
100
AcDbArc
 50
31.5163392053
 51
32.5258426779
  0
ARC
  5
329
100
AcDbEntity
  8
0
100
AcDbCircle
 62
7
  6
CONTINUOUS
 10
12.8800524402
 20
8.8655705193
 40
0.0402683465
100
AcDbArc
 50
53.1848820338
 51
55.9858158985
  0
ARC
  5
32A
100
AcDbEntity
  8
0
100
AcDbCircle
 62
7
  6
CONTINUOUS
 10
12.88013868
 20
8.8655595609
 40
0.0402624051
100
AcDbArc
 50
77.2943275387
 51
89.1869030061
  0
ARC
  5
32B
100
AcDbEntity
  8
0
100
AcDbCircle
 62
7
  6
CONTINUOUS
 10
12.8800242998
 20
8.8656129401
 40
0.0402480817
100
AcDbArc
 50
60.4384526192
 51
70.0254060293
  0
ARC
  5
32C
100
AcDbEntity
  8
0
100
AcDbCircle
 62
9
  6
CONTINUOUS
 10
12.8801603283
 20
8.8656306909
 40
0.0401849066
100
AcDbArc
 50
77.7748262817
 51
88.1854252452
  0
ARC
  5
32D
100
AcDbEntity
  8
0
100
AcDbCircle
 62
7
  6
CONTINUOUS
 10
12.8800484586
 20
8.8658008409
 40
0.0401167148
100
AcDbArc
 50
7.4045597917
 51
20.0661230781
  0
ARC
  5
32E
100
AcDbEntity
  8
0
100
AcDbCircle
 62
7
  6
CONTINUOUS
 10
12.8804447068
 20
8.8660931992
 40
0.039614835
100
AcDbArc
 50
50.6370517094
 51
53.0148542736
  0
ARC
  5
32F
100
AcDbEntity
  8
0
100
AcDbCircle
 62
7
  6
CONTINUOUS
 10
12.8803096467
 20
8.8662321933
 40
0.0395686452
100
AcDbArc
 50
70.1074250968
 51
77.3216073093
  0
ARC
  5
330
100
AcDbEntity
  8
0
100
AcDbCircle
 62
9
  6
CONTINUOUS
 10
12.8801968317
 20
8.8662780572
 40
0.0395367123
100
AcDbArc
 50
88.2085921186
 51
89.2221208351
  0
ARC
  5
331
100
AcDbEntity
  8
0
100
AcDbCircle
 62
7
  6
CONTINUOUS
 10
12.8807379735
 20
8.8660942129
 40
0.0393684174
100
AcDbArc
 50
20.0093810512
 51
31.9412434507
  0
ARC
  5
332
100
AcDbEntity
  8
0
100
AcDbCircle
 62
7
  6
CONTINUOUS
 10
12.8808708027
 20
8.8661668552
 40
0.0392148371
100
AcDbArc
 50
24.6032083981
 51
31.5493587784
  0
ARC
  5
333
100
AcDbEntity
  8
0
100
AcDbCircle
 62
9
  6
CONTINUOUS
 10
12.1666713825
 20
9.1681224158
 40
0.199229192
100
AcDbArc
 50
179.9894363305
 51
180.4137042247
  0
ARC
  5
334
100
AcDbEntity
  8
0
100
AcDbCircle
 62
9
  6
CONTINUOUS
 10
11.9380295915
 20
9.1680876838
 40
0.189363665
100
AcDbArc
 50
359.5752671694
 51
0.0216468358
  0
ARC
  5
335
100
AcDbEntity
  8
0
100
AcDbCircle
 62
9
  6
CONTINUOUS
 10
11.9994165692
 20
9.2176759161
 40
0.0607369037
100
AcDbArc
 50
358.7188368495
 51
359.9974728487
  0
ARC
  5
336
100
AcDbEntity
  8
0
100
AcDbCircle
 62
9
  6
CONTINUOUS
 10
12.0953944406
 20
9.2176756518
 40
0.0607124667
100
AcDbArc
 50
180.0022782122
 51
181.2814298396
  0
ARC
  5
337
100
AcDbEntity
  8
0
100
AcDbCircle
 62
7
  6
CONTINUOUS
 10
19.9724177255
 20
6.904891804
 40
0.04
100
AcDbArc
 50
90.0
 51
180.0
  0
ARC
  5
338
100
AcDbEntity
  8
0
100
AcDbCircle
 62
7
  6
CONTINUOUS
 10
22.1224177255
 20
6.904891804
 40
0.04
100
AcDbArc
 50
0.0
 51
90.0
  0
ARC
  5
339
100
AcDbEntity
  8
0
100
AcDbCircle
 62
9
  6
CONTINUOUS
 10
21.4388348745
 20
8.514497112
 40
9.2849216596
100
AcDbArc
 50
179.0336771821
 51
179.9911499802
  0
ARC
  5
33A
100
AcDbEntity
  8
0
100
AcDbCircle
 62
9
  6
CONTINUOUS
 10
18.4336724335
 20
9.2693996198
 40
6.3350955782
100
AcDbArc
 50
186.830676484
 51
187.5787141563
  0
ARC
  5
33B
100
AcDbEntity
  8
0
100
AcDbCircle
 62
7
  6
CONTINUOUS
 10
14.8674177255
 20
9.1048397201
 40
5.58
100
AcDbArc
 50
337.2266076183
 51
360.0
  0
ARC
  5
33C
100
AcDbEntity
  8
0
100
AcDbCircle
 62
7
  6
CONTINUOUS
 10
27.2274177255
 20
9.1048397201
 40
5.58
100
AcDbArc
 50
180.0
 51
202.7733923817
  0
ARC
  5
33D
100
AcDbEntity
  8
0
100
AcDbCircle
 62
9
  6
CONTINUOUS
 10
16.3526423798
 20
8.830872991
 40
4.2227380675
100
AcDbArc
 50
182.3349781891
 51
182.4843728735
  0
ARC
  5
33E
100
AcDbEntity
  8
0
100
AcDbCircle
 62
9
  6
CONTINUOUS
 10
15.3961868079
 20
8.8712100747
 40
3.07647781
100
AcDbArc
 50
208.3299068959
 51
210.8205581807
  0
ARC
  5
33F
100
AcDbEntity
  8
0
100
AcDbCircle
 62
9
  6
CONTINUOUS
 10
15.192834845
 20
8.6402960747
 40
2.9853373657
100
AcDbArc
 50
209.523876445
 51
218.5832884154
  0
ARC
  5
340
100
AcDbEntity
  8
0
100
AcDbCircle
 62
9
  6
CONTINUOUS
 10
15.1302323019
 20
8.7931076792
 40
2.8990013957
100
AcDbArc
 50
214.2686959115
 51
224.0639569915
  0
ARC
  5
341
100
AcDbEntity
  8
0
100
AcDbCircle
 62
7
  6
CONTINUOUS
 10
15.220071902
 20
8.5076111818
 40
2.8564318972
100
AcDbArc
 50
215.6862827946
 51
217.2912447042
  0
ARC
  5
342
100
AcDbEntity
  8
0
100
AcDbCircle
 62
9
  6
CONTINUOUS
 10
14.8932490228
 20
8.6696440692
 40
2.6139351682
100
AcDbArc
 50
186.8055590112
 51
191.2102242332
  0
ARC
  5
343
100
AcDbEntity
  8
0
100
AcDbCircle
 62
9
  6
CONTINUOUS
 10
14.5135886606
 20
8.3454098106
 40
2.1293601332
100
AcDbArc
 50
175.4067736687
 51
177.6190340083
  0
ARC
  5
344
100
AcDbEntity
  8
0
100
AcDbCircle
 62
9
  6
CONTINUOUS
 10
13.6388268902
 20
8.9115181358
 40
0.676152471
100
AcDbArc
 50
177.5792355019
 51
179.9972094081
  0
ARC
  5
345
100
AcDbEntity
  8
0
100
AcDbCircle
 62
7
  6
CONTINUOUS
 10
20.2374177255
 20
10.934891804
 40
0.2
100
AcDbArc
 50
90.0
 51
180.0
  0
ARC
  5
346
100
AcDbEntity
  8
0
100
AcDbCircle
 62
7
  6
CONTINUOUS
 10
21.8574177255
 20
10.934891804
 40
0.2
100
AcDbArc
 50
0.0
 51
90.0
  0
ARC
  5
347
100
AcDbEntity
  8
0
100
AcDbCircle
 62
7
  6
CONTINUOUS
 10
21.8574177255
 20
10.834891804
 40
0.2
100
AcDbArc
 50
270.0
 51
360.0
  0
ARC
  5
348
100
AcDbEntity
  8
0
100
AcDbCircle
 62
7
  6
CONTINUOUS
 10
20.2374177255
 20
10.834891804
 40
0.2
100
AcDbArc
 50
180.0
 51
270.0
  0
ARC
  5
349
100
AcDbEntity
  8
0
100
AcDbCircle
 62
7
  6
CONTINUOUS
 10
20.2774177255
 20
11.244891804
 40
0.04
100
AcDbArc
 50
90.0
 51
180.0
  0
ARC
  5
34A
100
AcDbEntity
  8
0
100
AcDbCircle
 62
7
  6
CONTINUOUS
 10
21.8174177255
 20
11.244891804
 40
0.04
100
AcDbArc
 50
0.0
 51
90.0
  0
ARC
  5
34B
100
AcDbEntity
  8
0
100
AcDbCircle
 62
7
  6
CONTINUOUS
 10
21.8174177255
 20
10.524891804
 40
0.04
100
AcDbArc
 50
270.0
 51
360.0
  0
ARC
  5
34C
100
AcDbEntity
  8
0
100
AcDbCircle
 62
7
  6
CONTINUOUS
 10
20.2774177255
 20
10.524891804
 40
0.04
100
AcDbArc
 50
180.0
 51
270.0
  0
SPLINE
  5
34D
100
AcDbEntity
  8
0
100
AcDbSpline
 62
7
  6
CONTINUOUS
 70
0
 71
3
 72
9
 73
5
 74
0
 42
0.0000001
 43
0.0000001
 44
0.0000000001
 40
0.0
 40
0.0
 40
0.0
 40
0.0
 40
0.2321872046
 40
1.0
 40
1.0
 40
1.0
 40
1.0
 10
13.1260872781
 20
6.7448918041
 30
0.0
 10
13.12667499
 20
6.7448918049
 30
0.0
 10
13.1292045873
 20
6.7450077471
 30
0.0
 10
13.1317144391
 20
6.7456057581
 30
0.0
 10
13.1335196411
 20
6.7463257487
 30
0.0
  0
SPLINE
  5
34E
100
AcDbEntity
  8
0
100
AcDbSpline
 62
7
  6
CONTINUOUS
 70
0
 71
3
 72
20
 73
16
 74
0
 42
0.0000001
 43
0.0000001
 44
0.0000000001
 40
0.0
 40
0.0
 40
0.0
 40
0.0
 40
0.1194232759
 40
0.1810030375
 40
0.2432055551
 40
0.3056087011
 40
0.3682559192
 40
0.4311205637
 40
0.4941176491
 40
0.5572131698
 40
0.6203837845
 40
0.6836054508
 40
0.7468601648
 40
0.8733900681
 40
1.0
 40
1.0
 40
1.0
 40
1.0
 10
11.693936968
 20
8.5053325874
 30
0.0
 10
11.6900262166
 20
8.521451055
 30
0.0
 10
11.6834828413
 20
8.5457438615
 30
0.0
 10
11.6729971632
 20
8.577860305
 30
0.0
 10
11.6639132538
 20
8.6020815877
 30
0.0
 10
11.6535444242
 20
8.6259440621
 30
0.0
 10
11.6419619416
 20
8.6493437149
 30
0.0
 10
11.6291609718
 20
8.6721955929
 30
0.0
 10
11.6151320623
 20
8.6943892514
 30
0.0
 10
11.5999094455
 20
8.7158342795
 30
0.0
 10
11.5835266804
 20
8.7364465809
 30
0.0
 10
11.5660297061
 20
8.7561526404
 30
0.0
 10
11.541278454
 20
8.7811160667
 30
0.0
 10
11.5077952606
 20
8.8097172587
 30
0.0
 10
11.4786254844
 20
8.8294927207
 30
0.0
 10
11.4635443882
 20
8.8385351525
 30
0.0
  0
SPLINE
  5
34F
100
AcDbEntity
  8
0
100
AcDbSpline
 62
7
  6
CONTINUOUS
 70
0
 71
3
 72
9
 73
5
 74
0
 42
0.0000001
 43
0.0000001
 44
0.0000000001
 40
0.0
 40
0.0
 40
0.0
 40
0.0
 40
0.4994577031
 40
1.0
 40
1.0
 40
1.0
 40
1.0
 10
11.1834054688
 20
8.8907599037
 30
0.0
 10
11.1844559128
 20
8.8920791216
 30
0.0
 10
11.1867241961
 20
8.894593747
 30
0.0
 10
11.1892994588
 20
8.8967938974
 30
0.0
 10
11.1906522033
 20
8.89780692
 30
0.0
  0
SPLINE
  5
350
100
AcDbEntity
  8
0
100
AcDbSpline
 62
7
  6
CONTINUOUS
 70
0
 71
3
 72
9
 73
5
 74
0
 42
0.0000001
 43
0.0000001
 44
0.0000000001
 40
0.0
 40
0.0
 40
0.0
 40
0.0
 40
0.4993116861
 40
1.0
 40
1.0
 40
1.0
 40
1.0
 10
12.9117715048
 20
8.8903320657
 30
0.0
 10
12.9107013164
 20
8.8917132468
 30
0.0
 10
12.9083790896
 20
8.894345987
 30
0.0
 10
12.9057252544
 20
8.8966452913
 30
0.0
 10
12.9043273279
 20
8.8977015221
 30
0.0
  0
LINE
  5
351
100
AcDbEntity
  8
0
100
AcDbLine
 62
7
  6
CONTINUOUS
 10
12.8731528955
 20
8.9058527916
 11
12.8743292987
 21
8.9058543413
  0
SPLINE
  5
352
100
AcDbEntity
  8
0
100
AcDbSpline
 62
7
  6
CONTINUOUS
 70
0
 71
3
 72
20
 73
16
 74
0
 42
0.0000001
 43
0.0000001
 44
0.0000000001
 40
0.0
 40
0.0
 40
0.0
 40
0.0
 40
0.0588227456
 40
0.1195237754
 40
0.1810725906
 40
0.2431565919
 40
0.3056124064
 40
0.368329178
 40
0.4312233915
 40
0.4942294578
 40
0.6204190733
 40
0.7468246696
 40
0.8101025184
 40
0.8734020733
 40
1.0
 40
1.0
 40
1.0
 40
1.0
 10
12.4008984829
 20
8.5053325823
 30
0.0
 10
12.4029281501
 20
8.5134060793
 30
0.0
 10
12.4071205672
 20
8.5297942403
 30
0.0
 10
12.414116941
 20
8.5544520464
 30
0.0
 10
12.4222939216
 20
8.5792338116
 30
0.0
 10
12.4316650169
 20
8.6038561574
 30
0.0
 10
12.4423122462
 20
8.6281367601
 30
0.0
 10
12.4542426632
 20
8.6519417604
 30
0.0
 10
12.4674422705
 20
8.675158601
 30
0.0
 10
12.4867371795
 20
8.7051844034
 30
0.0
 10
12.5139460062
 20
8.7407270591
 30
0.0
 10
12.544971975
 20
8.7730478732
 30
0.0
 10
12.5718640583
 20
8.7967100379
 30
0.0
 10
12.6000694569
 20
8.8188280073
 30
0.0
 10
12.6226089589
 20
8.8336030483
 30
0.0
 10
12.6381274259
 20
8.8425570738
 30
0.0
  0
LINE
  5
353
100
AcDbEntity
  8
0
100
AcDbLine
 62
7
  6
CONTINUOUS
 10
12.8733241797
 20
8.9058531926
 11
12.8743289448
 21
8.9058543349
  0
SPLINE
  5
354
100
AcDbEntity
  8
0
100
AcDbSpline
 62
7
  6
CONTINUOUS
 70
0
 71
3
 72
22
 73
18
 74
0
 42
0.0000001
 43
0.0000001
 44
0.0000000001
 40
0.0
 40
0.0
 40
0.0
 40
0.0
 40
0.1010836739
 40
0.1567286553
 40
0.2157937693
 40
0.2784913459
 40
0.3439926815
 40
0.4113269946
 40
0.4798781007
 40
0.5494396484
 40
0.619439286
 40
0.6888465649
 40
0.7564955395
 40
0.8215556256
 40
0.8840442629
 40
0.943735005
 40
1.0
 40
1.0
 40
1.0
 40
1.0
 10
12.9317959773
 20
6.744891804
 30
0.0
 10
12.9332889426
 20
6.7448918045
 30
0.0
 10
12.9356148049
 20
6.7451462363
 30
0.0
 10
12.9386798436
 20
6.746043149
 30
0.0
 10
12.9410835525
 20
6.7471081394
 30
0.0
 10
12.9434382333
 20
6.7485754899
 30
0.0
 10
12.9456695666
 20
6.7504228268
 30
0.0
 10
12.9476812811
 20
6.7526276871
 30
0.0
 10
12.9493703768
 20
6.7551649486
 30
0.0
 10
12.9506235226
 20
6.757986625
 30
0.0
 10
12.9514407064
 20
6.7609739896
 30
0.0
 10
12.9518209518
 20
6.7640186454
 30
0.0
 10
12.9517609726
 20
6.7670149575
 30
0.0
 10
12.9512470845
 20
6.7698635618
 30
0.0
 10
12.9503619826
 20
6.7724930235
 30
0.0
 10
12.9491931267
 20
6.7748629599
 30
0.0
 10
12.9482465973
 20
6.776296475
 30
0.0
 10
12.9477451917
 20
6.7769591759
 30
0.0
  0
SPLINE
  5
355
100
AcDbEntity
  8
0
100
AcDbSpline
 62
7
  6
CONTINUOUS
 70
0
 71
3
 72
22
 73
18
 74
0
 42
0.0000001
 43
0.0000001
 44
0.0000000001
 40
0.0
 40
0.0
 40
0.0
 40
0.0
 40
0.1010842759
 40
0.1567295526
 40
0.2157949397
 40
0.2784927613
 40
0.3439943059
 40
0.4113287754
 40
0.4798799628
 40
0.5494415005
 40
0.6194410513
 40
0.6888481791
 40
0.7564969384
 40
0.8215567395
 40
0.8840450356
 40
0.9437354003
 40
1.0
 40
1.0
 40
1.0
 40
1.0
 10
11.1630395538
 20
6.744891804
 30
0.0
 10
11.1615465777
 20
6.7448918045
 30
0.0
 10
11.159220699
 20
6.7451462403
 30
0.0
 10
11.1561556414
 20
6.7460431649
 30
0.0
 10
11.1537519213
 20
6.7471081684
 30
0.0
 10
11.1513972339
 20
6.7485755356
 30
0.0
 10
11.1491658991
 20
6.7504228905
 30
0.0
 10
11.147154188
 20
6.7526277681
 30
0.0
 10
11.145465101
 20
6.7551650443
 30
0.0
 10
11.144211969
 20
6.7579867309
 30
0.0
 10
11.1433948022
 20
6.7609741004
 30
0.0
 10
11.1430145746
 20
6.7640187557
 30
0.0
 10
11.1430745701
 20
6.7670150615
 30
0.0
 10
11.1435884705
 20
6.7698636546
 30
0.0
 10
11.1444735804
 20
6.7724931015
 30
0.0
 10
11.14564244
 20
6.7748630214
 30
0.0
 10
11.1465889691
 20
6.7762965256
 30
0.0
 10
11.1470903737
 20
6.7769592212
 30
0.0
  0
SPLINE
  5
356
100
AcDbEntity
  8
0
100
AcDbSpline
 62
7
  6
CONTINUOUS
 70
0
 71
3
 72
9
 73
5
 74
0
 42
0.0000001
 43
0.0000001
 44
0.0000000001
 40
0.0
 40
0.0
 40
0.0
 40
0.0
 40
0.2321872047
 40
1.0
 40
1.0
 40
1.0
 40
1.0
 10
10.9687481729
 20
6.7448918041
 30
0.0
 10
10.9681604609
 20
6.7448918049
 30
0.0
 10
10.9656308636
 20
6.7450077471
 30
0.0
 10
10.9631210119
 20
6.7456057581
 30
0.0
 10
10.9613158099
 20
6.7463257487
 30
0.0
  0
SPLINE
  5
357
100
AcDbEntity
  8
0
100
AcDbSpline
 62
9
  6
CONTINUOUS
 70
0
 71
3
 72
15
 73
11
 74
0
 42
0.0000001
 43
0.0000001
 44
0.0000000001
 40
0.0
 40
0.0
 40
0.0
 40
0.0
 40
0.2434123407
 40
0.3070215617
 40
0.3712822332
 40
0.5006585062
 40
0.6299342368
 40
0.6940746155
 40
0.7575224229
 40
1.0
 40
1.0
 40
1.0
 40
1.0
 10
12.154826805
 20
9.276324538
 30
0.0
 10
12.1618306566
 20
9.2743130549
 30
0.0
 10
12.1703556119
 20
9.2703487618
 30
0.0
 10
12.1793069409
 20
9.2637550615
 30
0.0
 10
12.1851230251
 20
9.2586944066
 30
0.0
 10
12.1916209384
 20
9.2514725574
 30
0.0
 10
12.1967948757
 20
9.2432541987
 30
0.0
 10
12.2000694956
 20
9.2362872028
 30
0.0
 10
12.203950875
 20
9.2259080135
 30
0.0
 10
12.2054177211
 20
9.2166523527
 30
0.0
 10
12.2054177255
 20
9.2093933617
 30
0.0
  0
SPLINE
  5
358
100
AcDbEntity
  8
0
100
AcDbSpline
 62
9
  6
CONTINUOUS
 70
0
 71
3
 72
12
 73
8
 74
0
 42
0.0000001
 43
0.0000001
 44
0.0000000001
 40
0.0
 40
0.0
 40
0.0
 40
0.0
 40
0.1232209655
 40
0.2491991549
 40
0.5037070657
 40
0.7562720773
 40
1.0
 40
1.0
 40
1.0
 40
1.0
 10
12.1548264732
 20
9.1413827591
 30
0.0
 10
12.1532465408
 20
9.1418240291
 30
0.0
 10
12.1501049818
 20
9.1429230964
 30
0.0
 10
12.1440781548
 20
9.1458864855
 30
0.0
 10
12.1372195817
 20
9.1509630769
 30
0.0
 10
12.1310015683
 20
9.1589244515
 30
0.0
 10
12.1282933209
 20
9.1650414588
 30
0.0
 10
12.1273933577
 20
9.1681588166
 30
0.0
  0
SPLINE
  5
359
100
AcDbEntity
  8
0
100
AcDbSpline
 62
9
  6
CONTINUOUS
 70
0
 71
3
 72
15
 73
11
 74
0
 42
0.0000001
 43
0.0000001
 44
0.0000000001
 40
0.0
 40
0.0
 40
0.0
 40
0.0
 40
0.122972417
 40
0.2465972418
 40
0.3707268106
 40
0.4955338574
 40
0.6209763768
 40
0.7469629746
 40
0.8734626735
 40
1.0
 40
1.0
 40
1.0
 40
1.0
 10
12.1273932163
 20
9.1681595887
 30
0.0
 10
12.1263762482
 20
9.171682059
 30
0.0
 10
12.1237385842
 20
9.1785874469
 30
0.0
 10
12.1181311017
 20
9.1881674463
 30
0.0
 10
12.1109950712
 20
9.1967451916
 30
0.0
 10
12.1025267176
 20
9.2040903632
 30
0.0
 10
12.0929507389
 20
9.2100227375
 30
0.0
 10
12.0825084367
 20
9.2143822432
 30
0.0
 10
12.0714817327
 20
9.2170491743
 30
0.0
 10
12.0639261562
 20
9.2176639093
 30
0.0
 10
12.0601535462
 20
9.2176732104
 30
0.0
  0
SPLINE
  5
35A
100
AcDbEntity
  8
0
100
AcDbSpline
 62
9
  6
CONTINUOUS
 70
0
 71
3
 72
32
 73
28
 74
0
 42
0.0000001
 43
0.0000001
 44
0.0000000001
 40
0.0
 40
0.0
 40
0.0
 40
0.0
 40
0.1934124074
 40
0.287786711
 40
0.37936434
 40
0.4672399086
 40
0.5506067164
 40
0.6286840833
 40
0.7006943314
 40
0.7659096205
 40
0.8237882813
 40
0.8498249248
 40
0.8738471331
 40
0.895798077
 40
0.9156239076
 40
0.9332825709
 40
0.9487675724
 40
0.9620902746
 40
0.9732810265
 40
0.9780976954
 40
0.9824119155
 40
0.9862448299
 40
0.9896279466
 40
0.9926085924
 40
0.9952574809
 40
0.9976765055
 40
1.0
 40
1.0
 40
1.0
 40
1.0
 10
12.5218857435
 20
9.3049151752
 30
0.0
 10
12.4962914792
 20
9.3073803329
 30
0.0
 10
12.458172967
 20
9.3106924474
 30
0.0
 10
12.4078700084
 20
9.3143280928
 30
0.0
 10
12.3715357756
 20
9.3165811574
 30
0.0
 10
12.3366402079
 20
9.3183561345
 30
0.0
 10
12.3035191103
 20
9.3196420999
 30
0.0
 10
12.2724920911
 20
9.3204301322
 30
0.0
 10
12.2438691658
 20
9.3207128811
 30
0.0
 10
12.2179309334
 20
9.3204810525
 30
0.0
 10
12.198112555
 20
9.3198505056
 30
0.0
 10
12.183784106
 20
9.3190632069
 30
0.0
 10
12.1742354835
 20
9.3183701883
 30
0.0
 10
12.1655252665
 20
9.3175556892
 30
0.0
 10
12.1576781349
 20
9.3166214612
 30
0.0
 10
12.1507140306
 20
9.3155683912
 30
0.0
 10
12.1446455525
 20
9.3144015774
 30
0.0
 10
12.1394807924
 20
9.3131254517
 30
0.0
 10
12.1357653783
 20
9.3119232479
 30
0.0
 10
12.1332702571
 20
9.3108834375
 30
0.0
 10
12.1317249974
 20
9.3101168334
 30
0.0
 10
12.1304104561
 20
9.3093242163
 30
0.0
 10
12.129326749
 20
9.3085046156
 30
0.0
 10
12.1284743057
 20
9.3076560218
 30
0.0
 10
12.1278555237
 20
9.3067744591
 30
0.0
 10
12.1274777269
 20
9.3058574397
 30
0.0
 10
12.1273937917
 20
9.3052239354
 30
0.0
 10
12.1273935671
 20
9.3049150446
 30
0.0
  0
SPLINE
  5
35B
100
AcDbEntity
  8
0
100
AcDbSpline
 62
9
  6
CONTINUOUS
 70
0
 71
3
 72
15
 73
11
 74
0
 42
0.0000001
 43
0.0000001
 44
0.0000000001
 40
0.0
 40
0.0
 40
0.0
 40
0.0
 40
0.2423698643
 40
0.3058373618
 40
0.3700099761
 40
0.4993680141
 40
0.6288226906
 40
0.6931108851
 40
0.7567334204
 40
1.0
 40
1.0
 40
1.0
 40
1.0
 10
12.1273935379
 20
9.3049151487
 30
0.0
 10
12.1254215303
 20
9.3119405776
 30
0.0
 10
12.1214814297
 20
9.3205000936
 30
0.0
 10
12.1148943053
 20
9.3294868923
 30
0.0
 10
12.1098204482
 20
9.3353397609
 30
0.0
 10
12.1025630655
 20
9.3418845039
 30
0.0
 10
12.0942937437
 20
9.3470985861
 30
0.0
 10
12.0872763884
 20
9.3504041642
 30
0.0
 10
12.076810773
 20
9.3543297352
 30
0.0
 10
12.0674774686
 20
9.3558241946
 30
0.0
 10
12.0601535461
 20
9.3558427569
 30
0.0
  0
LINE
  5
35C
100
AcDbEntity
  8
0
100
AcDbLine
 62
9
  6
CONTINUOUS
 10
12.5192316283
 20
9.2773596315
 11
12.5300131597
 21
9.2763245285
  0
SPLINE
  5
35D
100
AcDbEntity
  8
0
100
AcDbSpline
 62
9
  6
CONTINUOUS
 70
0
 71
3
 72
30
 73
26
 74
0
 42
0.0000001
 43
0.0000001
 44
0.0000000001
 40
0.0
 40
0.0
 40
0.0
 40
0.0
 40
0.0022905546
 40
0.0047358146
 40
0.0074545815
 40
0.0105335566
 40
0.0140322363
 40
0.0179907727
 40
0.0273838447
 40
0.0388494243
 40
0.0524376201
 40
0.0681629377
 40
0.0860230802
 40
0.1060030015
 40
0.1280675634
 40
0.1521739076
 40
0.1782766541
 40
0.2362545578
 40
0.301479263
 40
0.3733663594
 40
0.4512377971
 40
0.5343699914
 40
0.621959688
 40
0.8072010045
 40
1.0
 40
1.0
 40
1.0
 40
1.0
 10
12.1548799281
 20
9.277359656
 30
0.0
 10
12.154910733
 20
9.2776388796
 30
0.0
 10
12.1550525451
 20
9.2782098833
 30
0.0
 10
12.155485616
 20
9.2790232722
 30
0.0
 10
12.1561332493
 20
9.2798065923
 30
0.0
 10
12.1569914955
 20
9.2805625142
 30
0.0
 10
12.1580596346
 20
9.2812940569
 30
0.0
 10
12.1598698772
 20
9.2822957697
 30
0.0
 10
12.162693313
 20
9.283455526
 30
0.0
 10
12.1667374792
 20
9.2846881058
 30
0.0
 10
12.1716102607
 20
9.2858271796
 30
0.0
 10
12.177302681
 20
9.2868693882
 30
0.0
 10
12.1838054759
 20
9.2878107404
 30
0.0
 10
12.1911053126
 20
9.2886476404
 30
0.0
 10
12.1991858611
 20
9.2893780608
 30
0.0
 10
12.2080282916
 20
9.2899998736
 30
0.0
 10
12.2212782722
 20
9.2907056222
 30
0.0
 10
12.2395829884
 20
9.2912683733
 30
0.0
 10
12.2635096513
 20
9.2914746992
 30
0.0
 10
12.289875628
 20
9.2912241952
 30
0.0
 10
12.3184300043
 20
9.2905204025
 30
0.0
 10
12.3488969059
 20
9.2893670994
 30
0.0
 10
12.392500153
 20
9.2872058299
 30
0.0
 10
12.449486705
 20
9.2834570012
 30
0.0
 10
12.4956887641
 20
9.2795572247
 30
0.0
 10
12.5192316299
 20
9.2773596371
 30
0.0
  0
SPLINE
  5
35E
100
AcDbEntity
  8
0
100
AcDbSpline
 62
9
  6
CONTINUOUS
 70
0
 71
3
 72
15
 73
11
 74
0
 42
0.0000001
 43
0.0000001
 44
0.0000000001
 40
0.0
 40
0.0
 40
0.0
 40
0.0
 40
0.0248880301
 40
0.0561485791
 40
0.1379817858
 40
0.2451420377
 40
0.3743190979
 40
0.5209741791
 40
0.6786109078
 40
1.0
 40
1.0
 40
1.0
 40
1.0
 10
12.5192316299
 20
9.2773596371
 30
0.0
 10
12.5192353145
 20
9.2768026815
 30
0.0
 10
12.5192254125
 20
9.2755460577
 30
0.0
 10
12.5191510812
 20
9.2724590017
 30
0.0
 10
12.5189427332
 20
9.267534014
 30
0.0
 10
12.5185494756
 20
9.260424493
 30
0.0
 10
12.5179991276
 20
9.2518711066
 30
0.0
 10
12.5173077785
 20
9.2421951406
 30
0.0
 10
12.516233007
 20
9.2282343244
 30
0.0
 10
12.5153328855
 20
9.2175519015
 30
0.0
 10
12.5146999614
 20
9.2103874563
 30
0.0
  0
SPLINE
  5
35F
100
AcDbEntity
  8
0
100
AcDbSpline
 62
9
  6
CONTINUOUS
 70
0
 71
3
 72
13
 73
9
 74
0
 42
0.0000001
 43
0.0000001
 44
0.0000000001
 40
0.0
 40
0.0
 40
0.0
 40
0.0
 40
0.2474568027
 40
0.3744414463
 40
0.5019004879
 40
0.7547848752
 40
0.8790094887
 40
1.0
 40
1.0
 40
1.0
 40
1.0
 10
12.1548799297
 20
9.2773596579
 30
0.0
 10
12.1516618463
 20
9.2782793081
 30
0.0
 10
12.1469539933
 20
9.2803268474
 30
0.0
 10
12.1413089534
 20
9.2841180634
 30
0.0
 10
12.136131962
 20
9.2886494379
 30
0.0
 10
12.1319600529
 20
9.2941657525
 30
0.0
 10
12.1289450776
 20
9.3002019892
 30
0.0
 10
12.1278356777
 20
9.3033396304
 30
0.0
 10
12.127393433
 20
9.3049151643
 30
0.0
  0
SPLINE
  5
360
100
AcDbEntity
  8
0
100
AcDbSpline
 62
9
  6
CONTINUOUS
 70
0
 71
3
 72
15
 73
11
 74
0
 42
0.0000001
 43
0.0000001
 44
0.0000000001
 40
0.0
 40
0.0
 40
0.0
 40
0.0
 40
0.1250493891
 40
0.2500844736
 40
0.3751034918
 40
0.5001048739
 40
0.6250813455
 40
0.7500600409
 40
0.8750516277
 40
1.0
 40
1.0
 40
1.0
 40
1.0
 10
13.0543476906
 20
9.0199987599
 30
0.0
 10
13.0323818469
 20
9.0281060901
 30
0.0
 10
12.9873429362
 20
9.0414717467
 30
0.0
 10
12.9178180524
 20
9.0526673484
 30
0.0
 10
12.8474285915
 20
9.0547990138
 30
0.0
 10
12.7773573011
 20
9.0479395426
 30
0.0
 10
12.7087496659
 20
9.032165237
 30
0.0
 10
12.6426956027
 20
9.007820485
 30
0.0
 10
12.5802944576
 20
8.9752714332
 30
0.0
 10
12.5417411913
 20
8.9484821968
 30
0.0
 10
12.523417969
 20
8.9339356768
 30
0.0
  0
SPLINE
  5
361
100
AcDbEntity
  8
0
100
AcDbSpline
 62
9
  6
CONTINUOUS
 70
0
 71
3
 72
39
 73
35
 74
0
 42
0.0000001
 43
0.0000001
 44
0.0000000001
 40
0.0
 40
0.0
 40
0.0
 40
0.0
 40
0.0312583093
 40
0.0625235256
 40
0.0937828536
 40
0.1250336086
 40
0.1562766269
 40
0.1875130947
 40
0.2187457625
 40
0.2499722892
 40
0.2811933915
 40
0.3124112111
 40
0.3436243314
 40
0.3748355684
 40
0.4060462509
 40
0.4372558131
 40
0.4684680205
 40
0.4996828475
 40
0.5309004416
 40
0.5621241423
 40
0.5933529172
 40
0.6245881999
 40
0.6558321307
 40
0.6870829796
 40
0.7183429151
 40
0.7496121544
 40
0.78088889
 40
0.8121749963
 40
0.8434685444
 40
0.8747682681
 40
0.9060741965
 40
0.9373822923
 40
0.9686915441
 40
1.0
 40
1.0
 40
1.0
 40
1.0
 10
13.2699938281
 20
9.0762964354
 30
0.0
 10
13.2756495663
 20
9.0748232298
 30
0.0
 10
13.2868200048
 20
9.0712962912
 30
0.0
 10
13.3029475811
 20
9.064340877
 30
0.0
 10
13.3182838462
 20
9.0557782361
 30
0.0
 10
13.3326548163
 20
9.0456873906
 30
0.0
 10
13.3459201392
 20
9.0341881511
 30
0.0
 10
13.3579311461
 20
9.0213883194
 30
0.0
 10
13.3685615092
 20
9.0074251283
 30
0.0
 10
13.3777068903
 20
8.9924501357
 30
0.0
 10
13.3852520275
 20
8.9766112291
 30
0.0
 10
13.3911281006
 20
8.9600834988
 30
0.0
 10
13.3952726708
 20
8.9430402321
 30
0.0
 10
13.397626344
 20
8.9256604058
 30
0.0
 10
13.3981827887
 20
8.9081317183
 30
0.0
 10
13.396924726
 20
8.8906386238
 30
0.0
 10
13.3938624129
 20
8.8733694946
 30
0.0
 10
13.3890445313
 20
8.8565040533
 30
0.0
 10
13.3825055522
 20
8.8402257423
 30
0.0
 10
13.3743247756
 20
8.8247052616
 30
0.0
 10
13.3645946731
 20
8.8101016659
 30
0.0
 10
13.353404695
 20
8.7965792751
 30
0.0
 10
13.3408884059
 20
8.7842691615
 30
0.0
 10
13.3271735846
 20
8.7733019743
 30
0.0
 10
13.3124007606
 20
8.7637998432
 30
0.0
 10
13.2967352188
 20
8.7558449945
 30
0.0
 10
13.2803338644
 20
8.7495307794
 30
0.0
 10
13.2633707605
 20
8.7449193843
 30
0.0
 10
13.2460239933
 20
8.7420456207
 30
0.0
 10
13.2284707633
 20
8.7409554328
 30
0.0
 10
13.210895232
 20
8.7416455913
 30
0.0
 10
13.1934765875
 20
8.7441076436
 30
0.0
 10
13.1764000526
 20
8.7483279176
 30
0.0
 10
13.1653530847
 20
8.7522762654
 30
0.0
 10
13.1599475966
 20
8.7545230612
 30
0.0
  0
SPLINE
  5
362
100
AcDbEntity
  8
0
100
AcDbSpline
 62
9
  6
CONTINUOUS
 70
0
 71
3
 72
15
 73
11
 74
0
 42
0.0000001
 43
0.0000001
 44
0.0000000001
 40
0.0
 40
0.0
 40
0.0
 40
0.0
 40
0.1248819634
 40
0.2498067583
 40
0.3747719296
 40
0.4997630173
 40
0.6247982568
 40
0.7498828709
 40
0.8749684219
 40
1.0
 40
1.0
 40
1.0
 40
1.0
 10
12.9558966152
 20
8.9778202806
 30
0.0
 10
12.938935638
 20
8.9810719343
 30
0.0
 10
12.9046203957
 20
8.9857077775
 30
0.0
 10
12.8527164312
 20
8.9870648266
 30
0.0
 10
12.8009442548
 20
8.9828644084
 30
0.0
 10
12.7499046882
 20
8.9731328554
 30
0.0
 10
12.7002113815
 20
8.9579019676
 30
0.0
 10
12.6524164276
 20
8.9374533582
 30
0.0
 10
12.6070585643
 20
8.9120669194
 30
0.0
 10
12.5787795671
 20
8.8920138991
 30
0.0
 10
12.5652375978
 20
8.8812631722
 30
0.0
  0
SPLINE
  5
363
100
AcDbEntity
  8
0
100
AcDbSpline
 62
9
  6
CONTINUOUS
 70
0
 71
3
 72
13
 73
9
 74
0
 42
0.0000001
 43
0.0000001
 44
0.0000000001
 40
0.0
 40
0.0
 40
0.0
 40
0.0
 40
0.2411429745
 40
0.3694472688
 40
0.4999973012
 40
0.6305477577
 40
0.7588532123
 40
1.0
 40
1.0
 40
1.0
 40
1.0
 10
12.9870933153
 20
8.9400771407
 30
0.0
 10
12.9868276651
 20
8.9442592649
 30
0.0
 10
12.9853908361
 20
8.9506548813
 30
0.0
 10
12.9815678294
 20
8.9584843866
 30
0.0
 10
12.9776801466
 20
8.9640607741
 30
0.0
 10
12.9729352063
 20
8.9689286261
 30
0.0
 10
12.9659652019
 20
8.9741571249
 30
0.0
 10
12.9599543201
 20
8.9767722145
 30
0.0
 10
12.9558969113
 20
8.9778204143
 30
0.0
  0
SPLINE
  5
364
100
AcDbEntity
  8
0
100
AcDbSpline
 62
9
  6
CONTINUOUS
 70
0
 71
3
 72
20
 73
16
 74
0
 42
0.0000001
 43
0.0000001
 44
0.0000000001
 40
0.0
 40
0.0
 40
0.0
 40
0.0
 40
0.0375712125
 40
0.0818557112
 40
0.106252629
 40
0.1320073293
 40
0.1870645914
 40
0.2459336261
 40
0.3075649207
 40
0.3713861766
 40
0.4370644303
 40
0.5728198573
 40
0.712980467
 40
0.8559008036
 40
1.0
 40
1.0
 40
1.0
 40
1.0
 10
12.9558967839
 20
8.9778202768
 30
0.0
 10
12.9571419556
 20
8.9783193439
 30
0.0
 10
12.9598159746
 20
8.9795018766
 30
0.0
 10
12.9632537886
 20
8.9811053723
 30
0.0
 10
12.9663135735
 20
8.9825221079
 30
0.0
 10
12.9697330648
 20
8.9840770954
 30
0.0
 10
12.9742904041
 20
8.9861029264
 30
0.0
 10
12.9800319129
 20
8.9886179548
 30
0.0
 10
12.9860627021
 20
8.9912524684
 30
0.0
 10
12.9923190106
 20
8.9939780522
 30
0.0
 10
13.0010094462
 20
8.9977426888
 30
0.0
 10
13.0122210422
 20
9.00254435
 30
0.0
 10
13.0260127759
 20
9.0083259079
 30
0.0
 10
13.0401243915
 20
9.0141133482
 30
0.0
 10
13.0495998606
 20
9.0180166825
 30
0.0
 10
13.0543477118
 20
9.0199988172
 30
0.0
  0
SPLINE
  5
365
100
AcDbEntity
  8
0
100
AcDbSpline
 62
9
  6
CONTINUOUS
 70
0
 71
3
 72
10
 73
6
 74
0
 42
0.0000001
 43
0.0000001
 44
0.0000000001
 40
0.0
 40
0.0
 40
0.0
 40
0.0
 40
0.4227786704
 40
0.7041977423
 40
1.0
 40
1.0
 40
1.0
 40
1.0
 10
12.9870934177
 20
8.9400781132
 30
0.0
 10
12.9960758628
 20
8.951744745
 30
0.0
 10
13.0114199221
 20
8.9708861394
 30
0.0
 10
13.0340109118
 20
8.9973943904
 30
0.0
 10
13.047396928
 20
9.0123952487
 30
0.0
 10
13.0543473271
 20
9.0199991171
 30
0.0
  0
SPLINE
  5
366
100
AcDbEntity
  8
0
100
AcDbSpline
 62
9
  6
CONTINUOUS
 70
0
 71
3
 72
40
 73
36
 74
0
 42
0.0000001
 43
0.0000001
 44
0.0000000001
 40
0.0
 40
0.0
 40
0.0
 40
0.0
 40
0.0312958424
 40
0.0625890204
 40
0.0938736755
 40
0.1095183629
 40
0.1251612682
 40
0.1564288539
 40
0.1876831296
 40
0.2189264238
 40
0.2501576451
 40
0.2813766963
 40
0.3125869184
 40
0.3437880248
 40
0.3749836614
 40
0.4061768016
 40
0.4373702491
 40
0.4685679512
 40
0.4997698091
 40
0.5309788275
 40
0.5621960084
 40
0.5934207785
 40
0.6246560054
 40
0.6558997909
 40
0.6871521581
 40
0.7184143905
 40
0.7496832385
 40
0.7809596681
 40
0.8122428053
 40
0.843529624
 40
0.8748215173
 40
0.9061156853
 40
0.9374102857
 40
0.9687063306
 40
1.0
 40
1.0
 40
1.0
 40
1.0
 10
12.9870929919
 20
8.9115510678
 30
0.0
 10
12.9870941843
 20
8.9032383545
 30
0.0
 10
12.9879839083
 20
8.886600367
 30
0.0
 10
12.9919357186
 20
8.8619376342
 30
0.0
 10
12.9973830883
 20
8.8418426367
 30
0.0
 10
13.0029976048
 20
8.8261923625
 30
0.0
 10
13.0094253124
 20
8.8108631351
 30
0.0
 10
13.0189519943
 20
8.7923691074
 30
0.0
 10
13.0326483688
 20
8.7715138369
 30
0.0
 10
13.0484426024
 20
8.7522108314
 30
0.0
 10
13.0661473344
 20
8.7346570478
 30
0.0
 10
13.0855812445
 20
8.7190534992
 30
0.0
 10
13.106514377
 20
8.7055437714
 30
0.0
 10
13.1287269389
 20
8.6942729904
 30
0.0
 10
13.1519828971
 20
8.6853661062
 30
0.0
 10
13.1760285503
 20
8.6788948296
 30
0.0
 10
13.2006161521
 20
8.6749486363
 30
0.0
 10
13.2254812982
 20
8.6735602177
 30
0.0
 10
13.2503621027
 20
8.6747388658
 30
0.0
 10
13.2749906431
 20
8.6784991557
 30
0.0
 10
13.2991055661
 20
8.6847808112
 30
0.0
 10
13.3224460141
 20
8.6935333499
 30
0.0
 10
13.3447525847
 20
8.7046747687
 30
0.0
 10
13.3657923
 20
8.7180696744
 30
0.0
 10
13.3853193825
 20
8.7335996152
 30
0.0
 10
13.4031225648
 20
8.7510876175
 30
0.0
 10
13.4190104828
 20
8.7703416662
 30
0.0
 10
13.4327833291
 20
8.7911679246
 30
0.0
 10
13.4443079228
 20
8.8133224425
 30
0.0
 10
13.4534432313
 20
8.8365697667
 30
0.0
 10
13.4600758676
 20
8.8606533606
 30
0.0
 10
13.4641541891
 20
8.8853004723
 30
0.0
 10
13.4656041511
 20
8.9102430325
 30
0.0
 10
13.4644234095
 20
8.9351959636
 30
0.0
 10
13.461895576
 20
8.951664473
 30
0.0
 10
13.4602008051
 20
8.9598020008
 30
0.0
  0
SPLINE
  5
367
100
AcDbEntity
  8
0
100
AcDbSpline
 62
9
  6
CONTINUOUS
 70
0
 71
3
 72
39
 73
35
 74
0
 42
0.0000001
 43
0.0000001
 44
0.0000000001
 40
0.0
 40
0.0
 40
0.0
 40
0.0
 40
0.0312820025
 40
0.06254307
 40
0.0937834983
 40
0.1250076043
 40
0.156218203
 40
0.1874163447
 40
0.2186062046
 40
0.2497886143
 40
0.2809648614
 40
0.3121385704
 40
0.3433090478
 40
0.3744774314
 40
0.4056460527
 40
0.4368136917
 40
0.4679826546
 40
0.4991556206
 40
0.5303327827
 40
0.561517925
 40
0.592712519
 40
0.6239171152
 40
0.6551358452
 40
0.6863694715
 40
0.7176196009
 40
0.7488902415
 40
0.7801816551
 40
0.8114964581
 40
0.8428377051
 40
0.874205637
 40
0.9056040512
 40
0.9370348406
 40
0.9684987771
 40
1.0
 40
1.0
 40
1.0
 40
1.0
 10
13.2994084347
 20
9.1666841435
 30
0.0
 10
13.3078552466
 20
9.1643540599
 30
0.0
 10
13.3245234735
 20
9.1588531139
 30
0.0
 10
13.3485757622
 20
9.1481905448
 30
0.0
 10
13.3714482604
 20
9.1352145097
 30
0.0
 10
13.392906672
 20
9.1200398877
 30
0.0
 10
13.4127596404
 20
9.1028364053
 30
0.0
 10
13.4308069497
 20
9.0837595435
 30
0.0
 10
13.4468689745
 20
9.0629942214
 30
0.0
 10
13.4608068815
 20
9.0407544984
 30
0.0
 10
13.4724653729
 20
9.0172440057
 30
0.0
 10
13.481736524
 20
8.9926982595
 30
0.0
 10
13.4885435427
 20
8.9673601553
 30
0.0
 10
13.4927947634
 20
8.9414715153
 30
0.0
 10
13.4944664546
 20
8.9152910217
 30
0.0
 10
13.4935449747
 20
8.8890725162
 30
0.0
 10
13.4900161727
 20
8.8630750903
 30
0.0
 10
13.4839395034
 20
8.8375505717
 30
0.0
 10
13.4753653982
 20
8.8127475416
 30
0.0
 10
13.4643651598
 20
8.7889148715
 30
0.0
 10
13.4510676557
 20
8.7662748923
 30
0.0
 10
13.4355850138
 20
8.7450567017
 30
0.0
 10
13.4180672007
 20
8.7254712536
 30
0.0
 10
13.3986973339
 20
8.7076962648
 30
0.0
 10
13.3776459071
 20
8.691923818
 30
0.0
 10
13.3551248281
 20
8.6783023461
 30
0.0
 10
13.3313554737
 20
8.6669559098
 30
0.0
 10
13.3065575314
 20
8.6580206626
 30
0.0
 10
13.2809793143
 20
8.6515688916
 30
0.0
 10
13.2548655349
 20
8.6476674828
 30
0.0
 10
13.2284685057
 20
8.6463800807
 30
0.0
 10
13.2020458984
 20
8.6477009283
 30
0.0
 10
13.1758570857
 20
8.6516345552
 30
0.0
 10
13.1587296937
 20
8.6559849903
 30
0.0
 10
13.1502951931
 20
8.6585767059
 30
0.0
  0
SPLINE
  5
368
100
AcDbEntity
  8
0
100
AcDbSpline
 62
9
  6
CONTINUOUS
 70
0
 71
3
 72
9
 73
5
 74
0
 42
0.0000001
 43
0.0000001
 44
0.0000000001
 40
0.0
 40
0.0
 40
0.0
 40
0.0
 40
0.5012485156
 40
1.0
 40
1.0
 40
1.0
 40
1.0
 10
12.9632746906
 20
8.9400774524
 30
0.0
 10
12.9612780342
 20
8.9419979465
 30
0.0
 10
12.9571839142
 20
8.9457150497
 30
0.0
 10
12.9529143706
 20
8.949228671
 30
0.0
 10
12.9507404851
 20
8.950923628
 30
0.0
  0
SPLINE
  5
369
100
AcDbEntity
  8
0
100
AcDbSpline
 62
9
  6
CONTINUOUS
 70
0
 71
3
 72
23
 73
19
 74
0
 42
0.0000001
 43
0.0000001
 44
0.0000000001
 40
0.0
 40
0.0
 40
0.0
 40
0.0
 40
0.0637881552
 40
0.1276730076
 40
0.1915916223
 40
0.2554979478
 40
0.3829056793
 40
0.5096870365
 40
0.5728104684
 40
0.6356229065
 40
0.6980564733
 40
0.7600357227
 40
0.8214630984
 40
0.8821835737
 40
0.9122021447
 40
0.9419517984
 40
0.9713428518
 40
1.0
 40
1.0
 40
1.0
 40
1.0
 10
12.9507402564
 20
8.9509219518
 30
0.0
 10
12.9340467206
 20
8.9538516044
 30
0.0
 10
12.9002910414
 20
8.9579186647
 30
0.0
 10
12.8492972314
 20
8.9585883219
 30
0.0
 10
12.7984840926
 20
8.9537748431
 30
0.0
 10
12.7319272851
 20
8.9402202715
 30
0.0
 10
12.6522068175
 20
8.9101627304
 30
0.0
 10
12.5807657442
 20
8.8641506855
 30
0.0
 10
12.5306419707
 20
8.8193162674
 30
0.0
 10
12.496945201
 20
8.7821801421
 30
0.0
 10
12.4674977873
 20
8.7419760002
 30
0.0
 10
12.4425452968
 20
8.699263156
 30
0.0
 10
12.422340785
 20
8.6546134681
 30
0.0
 10
12.4094971111
 20
8.6161979497
 30
0.0
 10
12.4016403055
 20
8.5851521972
 30
0.0
 10
12.3969572089
 20
8.5619195332
 30
0.0
 10
12.3934523313
 20
8.5388485926
 30
0.0
 10
12.3917634702
 20
8.5235134423
 30
0.0
 10
12.3910683052
 20
8.5159309728
 30
0.0
  0
SPLINE
  5
36A
100
AcDbEntity
  8
0
100
AcDbSpline
 62
9
  6
CONTINUOUS
 70
0
 71
3
 72
9
 73
5
 74
0
 42
0.0000001
 43
0.0000001
 44
0.0000000001
 40
0.0
 40
0.0
 40
0.0
 40
0.0
 40
0.2479403901
 40
1.0
 40
1.0
 40
1.0
 40
1.0
 10
12.4909010615
 20
8.8091656092
 30
0.0
 10
12.49640128
 20
8.8157341554
 30
0.0
 10
12.5192990011
 20
8.8416234202
 30
0.0
 10
12.5448885192
 20
8.8651069758
 30
0.0
 10
12.5652403383
 20
8.8812656066
 30
0.0
  0
SPLINE
  5
36B
100
AcDbEntity
  8
0
100
AcDbSpline
 62
9
  6
CONTINUOUS
 70
0
 71
3
 72
14
 73
10
 74
0
 42
0.0000001
 43
0.0000001
 44
0.0000000001
 40
0.0
 40
0.0
 40
0.0
 40
0.0
 40
0.1170288271
 40
0.2392829309
 40
0.3657820659
 40
0.4948381034
 40
0.6247318544
 40
0.7535768788
 40
1.0
 40
1.0
 40
1.0
 40
1.0
 10
12.127388035
 20
9.1666839426
 30
0.0
 10
12.126422281
 20
9.1700370524
 30
0.0
 10
12.1238929253
 20
9.1767449566
 30
0.0
 10
12.1184584134
 20
9.1862551537
 30
0.0
 10
12.1112851669
 20
9.1950085087
 30
0.0
 10
12.1026196248
 20
9.2026374528
 30
0.0
 10
12.0927257208
 20
9.2087304445
 30
0.0
 10
12.0787693445
 20
9.2145151497
 30
0.0
 10
12.0674857652
 20
9.2162895899
 30
0.0
 10
12.0601382892
 20
9.2163178259
 30
0.0
  0
SPLINE
  5
36C
100
AcDbEntity
  8
0
100
AcDbSpline
 62
9
  6
CONTINUOUS
 70
0
 71
3
 72
39
 73
35
 74
0
 42
0.0000001
 43
0.0000001
 44
0.0000000001
 40
0.0
 40
0.0
 40
0.0
 40
0.0
 40
0.0316827612
 40
0.0633761293
 40
0.0950531096
 40
0.1266991315
 40
0.1583140879
 40
0.1898945029
 40
0.2214404425
 40
0.2529495513
 40
0.2844163514
 40
0.3158426046
 40
0.3472287173
 40
0.3785738442
 40
0.4098815881
 40
0.4411521173
 40
0.4723869376
 40
0.5035898002
 40
0.5347608579
 40
0.5659030354
 40
0.5970188967
 40
0.6281087255
 40
0.6591764895
 40
0.6902238405
 40
0.7212516226
 40
0.7522639886
 40
0.7832616544
 40
0.8142461875
 40
0.8452212158
 40
0.8761866614
 40
0.9071449444
 40
0.9380993683
 40
0.9690499988
 40
1.0
 40
1.0
 40
1.0
 40
1.0
 10
11.1321603955
 20
8.9115510678
 30
0.0
 10
11.132159313
 20
8.9026701965
 30
0.0
 10
11.131250188
 20
8.884892767
 30
0.0
 10
11.1272146519
 20
8.8585130246
 30
0.0
 10
11.1205444283
 20
8.8326801659
 30
0.0
 10
11.1112922998
 20
8.8076803641
 30
0.0
 10
11.0995947736
 20
8.7837579571
 30
0.0
 10
11.0855684648
 20
8.7611546643
 30
0.0
 10
11.0693621858
 20
8.7400981651
 30
0.0
 10
11.0511689136
 20
8.7207768116
 30
0.0
 10
11.0311630906
 20
8.7033895077
 30
0.0
 10
11.0095566427
 20
8.6880979396
 30
0.0
 10
10.9865780848
 20
8.6750268427
 30
0.0
 10
10.9624457202
 20
8.66431471
 30
0.0
 10
10.9374066736
 20
8.6560438329
 30
0.0
 10
10.9117063553
 20
8.6502776811
 30
0.0
 10
10.8855907566
 20
8.6470871751
 30
0.0
 10
10.8593168172
 20
8.6464735806
 30
0.0
 10
10.8331346697
 20
8.6484385516
 30
0.0
 10
10.8072987853
 20
8.652974737
 30
0.0
 10
10.7820527065
 20
8.6600094751
 30
0.0
 10
10.7576389514
 20
8.6694839495
 30
0.0
 10
10.7342960938
 20
8.6813108085
 30
0.0
 10
10.7122358542
 20
8.6953533648
 30
0.0
 10
10.6916782427
 20
8.7114919051
 30
0.0
 10
10.6728198696
 20
8.7295657777
 30
0.0
 10
10.6558274736
 20
8.7493885241
 30
0.0
 10
10.640881629
 20
8.770784308
 30
0.0
 10
10.6281158275
 20
8.7935368945
 30
0.0
 10
10.6176435121
 20
8.8174246509
 30
0.0
 10
10.6095881153
 20
8.8422258729
 30
0.0
 10
10.6040065202
 20
8.8676938426
 30
0.0
 10
10.6009523886
 20
8.8935825429
 30
0.0
 10
10.600633925
 20
8.9109641151
 30
0.0
 10
10.6009005077
 20
8.9196354926
 30
0.0
  0
SPLINE
  5
36D
100
AcDbEntity
  8
0
100
AcDbSpline
 62
9
  6
CONTINUOUS
 70
0
 71
3
 72
33
 73
29
 74
0
 42
0.0000001
 43
0.0000001
 44
0.0000000001
 40
0.0
 40
0.0
 40
0.0
 40
0.0
 40
0.0970751073
 40
0.1932506389
 40
0.2875914258
 40
0.3791628464
 40
0.4670551653
 40
0.5504548766
 40
0.6285738816
 40
0.7006270948
 40
0.7658802514
 40
0.823789099
 40
0.8498374379
 40
0.8738687941
 40
0.8958261223
 40
0.9156553535
 40
0.9333143653
 40
0.9487972073
 40
0.9621159327
 40
0.9733015679
 40
0.9781154552
 40
0.9824268489
 40
0.9862569642
 40
0.9896373724
 40
0.9926154497
 40
0.9952619342
 40
0.9976787011
 40
1.0
 40
1.0
 40
1.0
 40
1.0
 10
12.5267909981
 20
9.3558425713
 30
0.0
 10
12.5115958502
 20
9.3573060703
 30
0.0
 10
12.4813323261
 20
9.3600757734
 30
0.0
 10
12.4362580095
 20
9.3637717542
 30
0.0
 10
12.3920131868
 20
9.3669690309
 30
0.0
 10
12.3490380341
 20
9.369634073
 30
0.0
 10
12.3077541202
 20
9.3717339089
 30
0.0
 10
12.268561683
 20
9.373255588
 30
0.0
 10
12.2318421462
 20
9.3741882264
 30
0.0
 10
12.1979655637
 20
9.374522884
 30
0.0
 10
12.1672664371
 20
9.3742482544
 30
0.0
 10
12.1438112579
 20
9.3735017976
 30
0.0
 10
12.126854493
 20
9.3725700538
 30
0.0
 10
12.1155553982
 20
9.3717500518
 30
0.0
 10
12.1052493285
 20
9.370786475
 30
0.0
 10
12.095965549
 20
9.3696814431
 30
0.0
 10
12.0877276013
 20
9.3684360282
 30
0.0
 10
12.0805501963
 20
9.3670562799
 30
0.0
 10
12.0744425936
 20
9.3655474505
 30
0.0
 10
12.0700494522
 20
9.3641261288
 30
0.0
 10
12.0670995665
 20
9.3628968796
 30
0.0
 10
12.0652728928
 20
9.3619906923
 30
0.0
 10
12.0637190822
 20
9.3610537972
 30
0.0
 10
12.0624382313
 20
9.3600850475
 30
0.0
 10
12.0614308086
 20
9.3590820686
 30
0.0
 10
12.0606996108
 20
9.358040164
 30
0.0
 10
12.0602532575
 20
9.3569564013
 30
0.0
 10
12.0601541478
 20
9.3562077397
 30
0.0
 10
12.0601539162
 20
9.3558427059
 30
0.0
  0
SPLINE
  5
36E
100
AcDbEntity
  8
0
100
AcDbSpline
 62
9
  6
CONTINUOUS
 70
0
 71
3
 72
39
 73
35
 74
0
 42
0.0000001
 43
0.0000001
 44
0.0000000001
 40
0.0
 40
0.0
 40
0.0
 40
0.0
 40
0.0311340477
 40
0.0622881771
 40
0.0934563518
 40
0.1246406868
 40
0.155844366
 40
0.1870674425
 40
0.2183127097
 40
0.2495782399
 40
0.2808618424
 40
0.3121612212
 40
0.3434690285
 40
0.3747816515
 40
0.4060970073
 40
0.4374113867
 40
0.4687245796
 40
0.5000331806
 40
0.5313350676
 40
0.5626305969
 40
0.5939169521
 40
0.6251950563
 40
0.6564649355
 40
0.6877247885
 40
0.7189773066
 40
0.7502218587
 40
0.7814582375
 40
0.8126895492
 40
0.8439147351
 40
0.8751354887
 40
0.9063541569
 40
0.9375693822
 40
0.9687841707
 40
1.0
 40
1.0
 40
1.0
 40
1.0
 10
11.0404866123
 20
8.9115565763
 30
0.0
 10
11.0404855077
 20
8.9057301175
 30
0.0
 10
11.0398731366
 20
8.8940646728
 30
0.0
 10
11.0371523165
 20
8.876758038
 30
0.0
 10
11.0326487823
 20
8.859815186
 30
0.0
 10
11.0264011129
 20
8.8434261732
 30
0.0
 10
11.0184979733
 20
8.8277569152
 30
0.0
 10
11.0090131758
 20
8.8129774413
 30
0.0
 10
10.9980538296
 20
8.7992417791
 30
0.0
 10
10.9857453893
 20
8.786684693
 30
0.0
 10
10.9722065643
 20
8.7754492371
 30
0.0
 10
10.9575913385
 20
8.7656417803
 30
0.0
 10
10.9420526256
 20
8.7573625381
 30
0.0
 10
10.9257483089
 20
8.7507094095
 30
0.0
 10
10.9088552117
 20
8.7457343726
 30
0.0
 10
10.8915440283
 20
8.7424982942
 30
0.0
 10
10.8739953386
 20
8.7410377095
 30
0.0
 10
10.8563909995
 20
8.7413543602
 30
0.0
 10
10.8389135269
 20
8.7434633555
 30
0.0
 10
10.8217450613
 20
8.7473351312
 30
0.0
 10
10.8050614518
 20
8.7529267525
 30
0.0
 10
10.7890434681
 20
8.7601977286
 30
0.0
 10
10.7738528345
 20
8.7690578633
 30
0.0
 10
10.7596514967
 20
8.7794229438
 30
0.0
 10
10.7465963786
 20
8.7911915721
 30
0.0
 10
10.7348138938
 20
8.8042282708
 30
0.0
 10
10.7244407151
 20
8.8184078037
 30
0.0
 10
10.7155858601
 20
8.8335771372
 30
0.0
 10
10.7083343527
 20
8.8495722388
 30
0.0
 10
10.7027820329
 20
8.8662313147
 30
0.0
 10
10.6989749352
 20
8.8833710725
 30
0.0
 10
10.6969548724
 20
8.900811926
 30
0.0
 10
10.6967573151
 20
8.9183656752
 30
0.0
 10
10.6978306177
 20
8.9300241686
 30
0.0
 10
10.6986659957
 20
8.9358058938
 30
0.0
  0
LINE
  5
36F
100
AcDbEntity
  8
0
100
AcDbLine
 62
9
  6
CONTINUOUS
 10
13.3067953617
 20
9.2176732377
 11
13.3119914634
 21
9.2163179204
  0
SPLINE
  5
370
100
AcDbEntity
  8
0
100
AcDbSpline
 62
9
  6
CONTINUOUS
 70
0
 71
3
 72
31
 73
27
 74
0
 42
0.0000001
 43
0.0000001
 44
0.0000000001
 40
0.0
 40
0.0
 40
0.0
 40
0.0
 40
0.1976642973
 40
0.2947036237
 40
0.3891118195
 40
0.4798191696
 40
0.5657848041
 40
0.6459750727
 40
0.7193563434
 40
0.785002086
 40
0.8424140921
 40
0.8912012789
 40
0.912238387
 40
0.9309726943
 40
0.9473707289
 40
0.9614604779
 40
0.9732853395
 40
0.9828888124
 40
0.9868711866
 40
0.9903146411
 40
0.9932247304
 40
0.9956071051
 40
0.9974676176
 40
0.9988126252
 40
0.9996502019
 40
1.0
 40
1.0
 40
1.0
 40
1.0
 10
13.2994096011
 20
9.1666838925
 30
0.0
 10
13.3002577518
 20
9.1699495446
 30
0.0
 10
13.3015200571
 20
9.1748189824
 30
0.0
 10
13.3031816625
 20
9.1812496561
 30
0.0
 10
13.3043837912
 20
9.1859134092
 30
0.0
 10
13.3055357236
 20
9.1903949012
 30
0.0
 10
13.3066240759
 20
9.1946421554
 30
0.0
 10
13.3076356267
 20
9.1986037885
 30
0.0
 10
13.3085576524
 20
9.2022303041
 30
0.0
 10
13.3093796535
 20
9.2054810688
 30
0.0
 10
13.3100941784
 20
9.208325989
 30
0.0
 10
13.3106188978
 20
9.2104334893
 30
0.0
 10
13.3109807285
 20
9.2119011818
 30
0.0
 10
13.3112085056
 20
9.2128325074
 30
0.0
 10
13.3114061909
 20
9.2136491079
 30
0.0
 10
13.3115740187
 20
9.2143515899
 30
0.0
 10
13.3117125254
 20
9.2149418226
 30
0.0
 10
13.3118092974
 20
9.2153646494
 30
0.0
 10
13.3118721908
 20
9.2156484242
 30
0.0
 10
13.3119094197
 20
9.2158209248
 30
0.0
 10
13.3119396641
 20
9.2159668131
 30
0.0
 10
13.3119634811
 20
9.2160869263
 30
0.0
 10
13.3119797472
 20
9.216180004
 30
0.0
 10
13.3119916844
 20
9.2162500747
 30
0.0
 10
13.3119932745
 20
9.2162896866
 30
0.0
 10
13.311996114
 20
9.2163141097
 30
0.0
 10
13.3119914678
 20
9.2163178599
 30
0.0
  0
SPLINE
  5
371
100
AcDbEntity
  8
0
100
AcDbSpline
 62
9
  6
CONTINUOUS
 70
0
 71
3
 72
29
 73
25
 74
0
 42
0.0000001
 43
0.0000001
 44
0.0000000001
 40
0.0
 40
0.0
 40
0.0
 40
0.0
 40
0.0005700711
 40
0.0017559221
 40
0.0036363892
 40
0.0062272695
 40
0.0095339746
 40
0.0135589238
 40
0.0237678114
 40
0.0368605938
 40
0.0528311255
 40
0.071552746
 40
0.0928191627
 40
0.1164207
 40
0.1421465217
 40
0.199159397
 40
0.2626118263
 40
0.3315280441
 40
0.4049815038
 40
0.4823091422
 40
0.5629453994
 40
0.6463268173
 40
0.8196908578
 40
1.0
 40
1.0
 40
1.0
 40
1.0
 10
12.8807100335
 20
8.9058179118
 30
0.0
 10
12.880704228
 20
8.9058257521
 30
0.0
 10
12.8807147299
 20
8.9058605675
 30
0.0
 10
12.8807479599
 20
8.9059086417
 30
0.0
 10
12.8808100686
 20
8.9059856183
 30
0.0
 10
12.8809007279
 20
8.9060820101
 30
0.0
 10
12.8810215037
 20
8.9062018563
 30
0.0
 10
12.8812407981
 20
8.9064066644
 30
0.0
 10
12.8815935104
 20
8.9067140535
 30
0.0
 10
12.8821132342
 20
8.9071402065
 30
0.0
 10
12.8827585146
 20
8.9076426694
 30
0.0
 10
12.8835244067
 20
8.9082175686
 30
0.0
 10
12.8844026461
 20
8.9088601908
 30
0.0
 10
12.8853840226
 20
8.9095647427
 30
0.0
 10
12.8868696327
 20
8.9106158076
 30
0.0
 10
12.8889233002
 20
8.912044658
 30
0.0
 10
12.8915989379
 20
8.9138735167
 30
0.0
 10
12.8945231317
 20
8.9158371261
 30
0.0
 10
12.897661832
 20
8.9179069892
 30
0.0
 10
12.9009842203
 20
8.9200624113
 30
0.0
 10
12.9044642933
 20
8.9222867649
 30
0.0
 10
12.9093485105
 20
8.9253657306
 30
0.0
 10
12.9157129598
 20
8.9292948807
 30
0.0
 10
12.9209069063
 20
8.9324026857
 30
0.0
 10
12.9235669075
 20
8.9339665573
 30
0.0
  0
SPLINE
  5
372
100
AcDbEntity
  8
0
100
AcDbSpline
 62
9
  6
CONTINUOUS
 70
0
 71
3
 72
15
 73
11
 74
0
 42
0.0000001
 43
0.0000001
 44
0.0000000001
 40
0.0
 40
0.0
 40
0.0
 40
0.0
 40
0.1249489909
 40
0.2499418015
 40
0.374920772
 40
0.4998969069
 40
0.6248981069
 40
0.7499171464
 40
0.8749518544
 40
1.0
 40
1.0
 40
1.0
 40
1.0
 10
11.5714174332
 20
8.9339356154
 30
0.0
 10
11.5530940531
 20
8.9484821176
 30
0.0
 10
11.5145404209
 20
8.9752714019
 30
0.0
 10
11.4521390151
 20
9.0078207677
 30
0.0
 10
11.3860848297
 20
9.0321658068
 30
0.0
 10
11.3174772042
 20
9.0479400037
 30
0.0
 10
11.2474059516
 20
9.0547988908
 30
0.0
 10
11.1770166518
 20
9.052667033
 30
0.0
 10
11.1074919473
 20
9.0414724435
 30
0.0
 10
11.0624532138
 20
9.0281070742
 30
0.0
 10
11.0404876949
 20
9.0199995457
 30
0.0
  0
SPLINE
  5
373
100
AcDbEntity
  8
0
100
AcDbSpline
 62
9
  6
CONTINUOUS
 70
0
 71
3
 72
11
 73
7
 74
0
 42
0.0000001
 43
0.0000001
 44
0.0000000001
 40
0.0
 40
0.0
 40
0.0
 40
0.0
 40
0.2047987318
 40
0.4405824064
 40
0.7067299546
 40
1.0
 40
1.0
 40
1.0
 40
1.0
 10
12.4009019718
 20
8.5053358039
 30
0.0
 10
12.4005328562
 20
8.5062630037
 30
0.0
 10
12.3994591566
 20
8.5081465974
 30
0.0
 10
12.3972450606
 20
8.5107973396
 30
0.0
 10
12.3944014754
 20
8.5134415681
 30
0.0
 10
12.3922336894
 20
8.5151004137
 30
0.0
 10
12.3910673718
 20
8.5159262404
 30
0.0
  0
SPLINE
  5
374
100
AcDbEntity
  8
0
100
AcDbSpline
 62
9
  6
CONTINUOUS
 70
0
 71
3
 72
11
 73
7
 74
0
 42
0.0000001
 43
0.0000001
 44
0.0000000001
 40
0.0
 40
0.0
 40
0.0
 40
0.0
 40
0.2465537631
 40
0.4982010734
 40
0.7503439211
 40
1.0
 40
1.0
 40
1.0
 40
1.0
 10
12.9507446042
 20
8.9509135674
 30
0.0
 10
12.9486377455
 20
8.9493339305
 30
0.0
 10
12.944233483
 20
8.9463383889
 30
0.0
 10
12.9373959185
 20
8.9421582716
 30
0.0
 10
12.9304799817
 20
8.9380441008
 30
0.0
 10
12.9258620795
 20
8.9353242385
 30
0.0
 10
12.9235670649
 20
8.9339668102
 30
0.0
  0
SPLINE
  5
375
100
AcDbEntity
  8
0
100
AcDbSpline
 62
9
  6
CONTINUOUS
 70
0
 71
3
 72
45
 73
41
 74
0
 42
0.0000001
 43
0.0000001
 44
0.0000000001
 40
0.0
 40
0.0
 40
0.0
 40
0.0
 40
0.0000163907
 40
0.0000232464
 40
0.0000419338
 40
0.0000762167
 40
0.0001264691
 40
0.0001927955
 40
0.0003738184
 40
0.0009297327
 40
0.0017444022
 40
0.0028179316
 40
0.0041502327
 40
0.0057402344
 40
0.0075864374
 40
0.0096873361
 40
0.012041422
 40
0.0175031148
 40
0.0239594274
 40
0.0313982625
 40
0.0398074832
 40
0.0491712104
 40
0.0706699787
 40
0.095706331
 40
0.1240889383
 40
0.1555859293
 40
0.1899309499
 40
0.226855371
 40
0.2660624493
 40
0.3072267113
 40
0.3500209463
 40
0.4391117133
 40
0.5304588697
 40
0.6211233293
 40
0.7081788511
 40
0.788813694
 40
0.8604373481
 40
0.9207280252
 40
0.9677530325
 40
1.0
 40
1.0
 40
1.0
 40
1.0
 10
12.1275376419
 20
8.6468234039
 30
0.0
 10
12.1275368397
 20
8.6468206791
 30
0.0
 10
12.1275364834
 20
8.6468145515
 30
0.0
 10
12.1275278129
 20
8.6468165758
 30
0.0
 10
12.1275272001
 20
8.6468288991
 30
0.0
 10
12.1275225489
 20
8.6468450684
 30
0.0
 10
12.1275199243
 20
8.6468716845
 30
0.0
 10
12.1275145449
 20
8.6469226491
 30
0.0
 10
12.1275054778
 20
8.6470619281
 30
0.0
 10
12.1274938629
 20
8.647330271
 30
0.0
 10
12.1274812194
 20
8.6477537918
 30
0.0
 10
12.1274684598
 20
8.6483116785
 30
0.0
 10
12.1274558387
 20
8.6490040408
 30
0.0
 10
12.1274433564
 20
8.6498302914
 30
0.0
 10
12.1274310581
 20
8.650789761
 30
0.0
 10
12.127418952
 20
8.6518816496
 30
0.0
 10
12.1274022467
 20
8.6536000669
 30
0.0
 10
12.1273823844
 20
8.656073252
 30
0.0
 10
12.1273603344
 20
8.6594275989
 30
0.0
 10
12.1273391139
 20
8.6632927478
 30
0.0
 10
12.1273187385
 20
8.6676617438
 30
0.0
 10
12.1272914627
 20
8.6744672306
 30
0.0
 10
12.1272604432
 20
8.6841541006
 30
0.0
 10
12.1272279014
 20
8.6971368308
 30
0.0
 10
12.1271986289
 20
8.7118522016
 30
0.0
 10
12.1271725556
 20
8.7281807141
 30
0.0
 10
12.1271496207
 20
8.7459894751
 30
0.0
 10
12.1271297659
 20
8.76513435
 30
0.0
 10
12.1271129238
 20
8.7854609599
 30
0.0
 10
12.1270990314
 20
8.8068047739
 30
0.0
 10
12.1270841691
 20
8.8367931178
 30
0.0
 10
12.1270730947
 20
8.8754778437
 30
0.0
 10
12.1270707701
 20
8.9224581794
 30
0.0
 10
12.1270792399
 20
8.9690858195
 30
0.0
 10
12.1270986257
 20
9.0138570794
 30
0.0
 10
12.1271289631
 20
9.0553286819
 30
0.0
 10
12.1271707999
 20
9.0921620905
 30
0.0
 10
12.1272234943
 20
9.1231711144
 30
0.0
 10
12.1272893998
 20
9.1473563458
 30
0.0
 10
12.1273483624
 20
9.1610935857
 30
0.0
 10
12.1273880121
 20
9.1666816414
 30
0.0
  0
SPLINE
  5
376
100
AcDbEntity
  8
0
100
AcDbSpline
 62
9
  6
CONTINUOUS
 70
0
 71
3
 72
10
 73
6
 74
0
 42
0.0000001
 43
0.0000001
 44
0.0000000001
 40
0.0
 40
0.0
 40
0.0
 40
0.0
 40
0.2958063714
 40
0.5772330889
 40
1.0
 40
1.0
 40
1.0
 40
1.0
 10
11.0404880883
 20
9.0199999364
 30
0.0
 10
11.0474367273
 20
9.0123942293
 30
0.0
 10
11.0608255656
 20
8.9973953252
 30
0.0
 10
11.0834151915
 20
8.9708857272
 30
0.0
 10
11.0987597891
 20
8.9517449114
 30
0.0
 10
11.1077420909
 20
8.940078638
 30
0.0
  0
SPLINE
  5
377
100
AcDbEntity
  8
0
100
AcDbSpline
 62
9
  6
CONTINUOUS
 70
0
 71
3
 72
20
 73
16
 74
0
 42
0.0000001
 43
0.0000001
 44
0.0000000001
 40
0.0
 40
0.0
 40
0.0
 40
0.0
 40
0.0370171729
 40
0.0814852186
 40
0.1319377111
 40
0.1871219695
 40
0.3074058741
 40
0.3712384757
 40
0.4369657685
 40
0.5042573176
 40
0.5728077472
 40
0.7129111738
 40
0.7841213643
 40
0.8558457271
 40
1.0
 40
1.0
 40
1.0
 40
1.0
 10
11.1389382965
 20
8.9778208154
 30
0.0
 10
11.1377269431
 20
8.9783494571
 30
0.0
 10
11.1350766971
 20
8.9795501352
 30
0.0
 10
11.1307930914
 20
8.9815101323
 30
0.0
 10
11.1259036184
 20
8.9837049306
 30
0.0
 10
11.11852987
 20
8.9869751624
 30
0.0
 10
11.1107075252
 20
8.9904122325
 30
0.0
 10
11.1025309391
 20
8.9939787109
 30
0.0
 10
11.096081292
 20
8.9967718864
 30
0.0
 10
11.0894662559
 20
8.9996069448
 30
0.0
 10
11.0803911333
 20
9.0034428789
 30
0.0
 10
11.071173319
 20
9.0073003943
 30
0.0
 10
11.0618744198
 20
9.0112574268
 30
0.0
 10
11.0524381894
 20
9.0152601599
 30
0.0
 10
11.0452993597
 20
9.0181719033
 30
0.0
 10
11.0404878407
 20
9.0199995995
 30
0.0
  0
SPLINE
  5
378
100
AcDbEntity
  8
0
100
AcDbSpline
 62
9
  6
CONTINUOUS
 70
0
 71
3
 72
15
 73
11
 74
0
 42
0.0000001
 43
0.0000001
 44
0.0000000001
 40
0.0
 40
0.0
 40
0.0
 40
0.0
 40
0.1250306645
 40
0.2501156941
 40
0.3752001583
 40
0.5002355981
 40
0.6252271517
 40
0.7501927914
 40
0.8751178895
 40
1.0
 40
1.0
 40
1.0
 40
1.0
 10
11.5295971729
 20
8.8812636175
 30
0.0
 10
11.5160552338
 20
8.8920141577
 30
0.0
 10
11.4877763013
 20
8.9120668719
 30
0.0
 10
11.4424185888
 20
8.9374530369
 30
0.0
 10
11.3946237383
 20
8.9579016044
 30
0.0
 10
11.344930464
 20
8.973132678
 30
0.0
 10
11.2938908623
 20
8.9828646437
 30
0.0
 10
11.2421185858
 20
8.987065494
 30
0.0
 10
11.1902145182
 20
8.9857086615
 30
0.0
 10
11.1558992444
 20
8.981072659
 30
0.0
 10
11.1389382965
 20
8.9778208154
 30
0.0
  0
LINE
  5
379
100
AcDbEntity
  8
0
100
AcDbLine
 62
9
  6
CONTINUOUS
 10
11.8892981976
 20
9.2103875151
 11
11.8894177255
 21
9.2093933197
  0
SPLINE
  5
37A
100
AcDbEntity
  8
0
100
AcDbSpline
 62
9
  6
CONTINUOUS
 70
0
 71
3
 72
15
 73
11
 74
0
 42
0.0000001
 43
0.0000001
 44
0.0000000001
 40
0.0
 40
0.0
 40
0.0
 40
0.0
 40
0.1217090197
 40
0.2444993481
 40
0.3683432107
 40
0.4931755583
 40
0.6188454596
 40
0.7452251049
 40
0.8722767413
 40
1.0
 40
1.0
 40
1.0
 40
1.0
 10
11.1712685013
 20
8.9339668293
 30
0.0
 10
11.1701438633
 20
8.9346189376
 30
0.0
 10
11.1678911385
 20
8.9359402363
 30
0.0
 10
11.1645091547
 20
8.937950672
 30
0.0
 10
11.1611012433
 20
8.9399827676
 30
0.0
 10
11.1576647557
 20
8.942026991
 30
0.0
 10
11.154225052
 20
8.9441187172
 30
0.0
 10
11.150809113
 20
8.9462939458
 30
0.0
 10
11.1474296937
 20
8.9485649773
 30
0.0
 10
11.1452028926
 20
8.9501296413
 30
0.0
 10
11.1440940255
 20
8.9509243893
 30
0.0
  0
SPLINE
  5
37B
100
AcDbEntity
  8
0
100
AcDbSpline
 62
9
  6
CONTINUOUS
 70
0
 71
3
 72
9
 73
5
 74
0
 42
0.0000001
 43
0.0000001
 44
0.0000000001
 40
0.0
 40
0.0
 40
0.0
 40
0.0
 40
0.4864583374
 40
1.0
 40
1.0
 40
1.0
 40
1.0
 10
11.888493228
 20
8.9091510378
 30
0.0
 10
11.887842806
 20
8.8999418001
 30
0.0
 10
11.8858849429
 20
8.8810533866
 30
0.0
 10
11.8831055281
 20
8.8622764769
 30
0.0
 10
11.8815580716
 20
8.8526539356
 30
0.0
  0
SPLINE
  5
37C
100
AcDbEntity
  8
0
100
AcDbSpline
 62
9
  6
CONTINUOUS
 70
0
 71
3
 72
73
 73
69
 74
0
 42
0.0000001
 43
0.0000001
 44
0.0000000001
 40
0.0
 40
0.0
 40
0.0
 40
0.0
 40
0.0557801711
 40
0.1136177876
 40
0.1730587551
 40
0.2032647355
 40
0.2337427918
 40
0.2644598925
 40
0.2953866859
 40
0.3264967698
 40
0.357765615
 40
0.3734519653
 40
0.389168426
 40
0.4049107854
 40
0.4206731017
 40
0.4285588786
 40
0.4364451833
 40
0.4443287415
 40
0.4522038674
 40
0.4561351819
 40
0.4600594182
 40
0.4639727527
 40
0.4678685684
 40
0.4698064274
 40
0.4717342002
 40
0.4736476533
 40
0.4755406991
 40
0.4773998028
 40
0.4783091744
 40
0.4791988192
 40
0.4800624575
 40
0.4808895289
 40
0.4816701576
 40
0.4824135928
 40
0.4831576742
 40
0.4839433351
 40
0.4847754515
 40
0.4856451205
 40
0.486540929
 40
0.4874565443
 40
0.4893277345
 40
0.491232267
 40
0.4931582572
 40
0.4950987147
 40
0.4970496535
 40
0.5009732164
 40
0.5049164451
 40
0.5088729055
 40
0.5128388903
 40
0.5207910199
 40
0.528762106
 40
0.5367467754
 40
0.5447420008
 40
0.5607573173
 40
0.5767994038
 40
0.5928639103
 40
0.6089483252
 40
0.6250510623
 40
0.6411710591
 40
0.6734599363
 40
0.7058116775
 40
0.7382251158
 40
0.7707006903
 40
0.8032401193
 40
0.8358461881
 40
0.8685225034
 40
0.9340968731
 40
1.0
 40
1.0
 40
1.0
 40
1.0
 10
11.8815580716
 20
8.8526539356
 30
0.0
 10
11.8795044576
 20
8.8398868744
 30
0.0
 10
11.8747897405
 20
8.8139666708
 30
0.0
 10
11.8665148769
 20
8.7747071739
 30
0.0
 10
11.858784077
 20
8.7414001079
 30
0.0
 10
11.8521652048
 20
8.7143501297
 30
0.0
 10
11.8469774445
 20
8.6938058449
 30
0.0
 10
11.8416058226
 20
8.6731362136
 30
0.0
 10
11.8360579334
 20
8.6523614966
 30
0.0
 10
11.8303365445
 20
8.6315012328
 30
0.0
 10
11.8254272317
 20
8.6140822568
 30
0.0
 10
11.8214044751
 20
8.6001214581
 30
0.0
 10
11.8183336599
 20
8.5896323149
 30
0.0
 10
11.815207454
 20
8.5791411646
 30
0.0
 10
11.8125496562
 20
8.5704047803
 30
0.0
 10
11.8103822037
 20
8.5634230383
 30
0.0
 10
11.8087319103
 20
8.5581932748
 30
0.0
 10
11.8070511403
 20
8.5529758116
 30
0.0
 10
11.8056159515
 20
8.5486425966
 30
0.0
 10
11.804436549
 20
8.5451918038
 30
0.0
 10
11.8035326404
 20
8.542617535
 30
0.0
 10
11.8026023188
 20
8.5400614275
 30
0.0
 10
11.8017947744
 20
8.5379508676
 30
0.0
 10
11.8011193901
 20
8.5362830786
 30
0.0
 10
11.8005951718
 20
8.5350500733
 30
0.0
 10
11.8000458277
 20
8.5338393476
 30
0.0
 10
11.7994655681
 20
8.532660816
 30
0.0
 10
11.798939931
 20
8.531715469
 30
0.0
 10
11.7984781468
 20
8.5310037036
 30
0.0
 10
11.7981104303
 20
8.5305073299
 30
0.0
 10
11.7977155092
 20
8.5300566645
 30
0.0
 10
11.7972841495
 20
8.5296762853
 30
0.0
 10
11.7968058459
 20
8.529402232
 30
0.0
 10
11.7962777478
 20
8.5292983181
 30
0.0
 10
11.7957492755
 20
8.5294036827
 30
0.0
 10
11.7952667554
 20
8.529674977
 30
0.0
 10
11.7948308031
 20
8.5300559541
 30
0.0
 10
11.7944294132
 20
8.5305061182
 30
0.0
 10
11.7940554164
 20
8.5310031895
 30
0.0
 10
11.7935847311
 20
8.5317158757
 30
0.0
 10
11.7930452614
 20
8.5326612592
 30
0.0
 10
11.7924449366
 20
8.5338391009
 30
0.0
 10
11.7918762647
 20
8.5350502743
 30
0.0
 10
11.7913297319
 20
8.5362832488
 30
0.0
 10
11.7906224624
 20
8.5379512465
 30
0.0
 10
11.7897711026
 20
8.540062163
 30
0.0
 10
11.7887817724
 20
8.5426183432
 30
0.0
 10
11.7878124205
 20
8.5451926607
 30
0.0
 10
11.7865367047
 20
8.5486445904
 30
0.0
 10
11.7849651223
 20
8.5529793118
 30
0.0
 10
11.7830955835
 20
8.558196899
 30
0.0
 10
11.7812306772
 20
8.5634267525
 30
0.0
 10
11.7787407425
 20
8.5704135849
 30
0.0
 10
11.7756145699
 20
8.5791566548
 30
0.0
 10
11.7718229003
 20
8.5896483593
 30
0.0
 10
11.7679789187
 20
8.6001380881
 30
0.0
 10
11.7640755245
 20
8.6106208698
 30
0.0
 10
11.7601073115
 20
8.6210930628
 30
0.0
 10
11.7547211135
 20
8.6350448722
 30
0.0
 10
11.7478043581
 20
8.6524432963
 30
0.0
 10
11.7391831791
 20
8.6732264697
 30
0.0
 10
11.7302067469
 20
8.6939061046
 30
0.0
 10
11.7208445772
 20
8.7144620502
 30
0.0
 10
11.7110652959
 20
8.7348726184
 30
0.0
 10
11.7008364298
 20
8.7551142501
 30
0.0
 10
11.6865385282
 20
8.781871733
 30
0.0
 10
11.6673651626
 20
8.8147637517
 30
0.0
 10
11.6505261287
 20
8.8401966844
 30
0.0
 10
11.6416812702
 20
8.8526539356
 30
0.0
  0
SPLINE
  5
37D
100
AcDbEntity
  8
0
100
AcDbSpline
 62
9
  6
CONTINUOUS
 70
0
 71
3
 72
10
 73
6
 74
0
 42
0.0000001
 43
0.0000001
 44
0.0000000001
 40
0.0
 40
0.0
 40
0.0
 40
0.0
 40
0.4987592065
 40
0.7491922462
 40
1.0
 40
1.0
 40
1.0
 40
1.0
 10
11.6416812702
 20
8.8526539356
 30
0.0
 10
11.6313281917
 20
8.8672357578
 30
0.0
 10
11.614635082
 20
8.8883532262
 30
0.0
 10
11.5905274696
 20
8.9149027528
 30
0.0
 10
11.5778776281
 20
8.9276796278
 30
0.0
 10
11.5714177255
 20
8.9339359835
 30
0.0
  0
SPLINE
  5
37E
100
AcDbEntity
  8
0
100
AcDbSpline
 62
9
  6
CONTINUOUS
 70
0
 71
3
 72
29
 73
25
 74
0
 42
0.0000001
 43
0.0000001
 44
0.0000000001
 40
0.0
 40
0.0
 40
0.0
 40
0.0
 40
0.1916531338
 40
0.2848920984
 40
0.3752835446
 40
0.4620076574
 40
0.5443243313
 40
0.6215152133
 40
0.692865868
 40
0.7577090635
 40
0.815549274
 40
0.8659453376
 40
0.8882221977
 40
0.9084862246
 40
0.9267010182
 40
0.942862659
 40
0.9569839257
 40
0.969094905
 40
0.9792566711
 40
0.9875895299
 40
0.9911439292
 40
0.9943480304
 40
0.9972698034
 40
1.0
 40
1.0
 40
1.0
 40
1.0
 10
11.5801356551
 20
9.2103875165
 30
0.0
 10
11.5999971468
 20
9.2125301284
 30
0.0
 10
11.6295545718
 20
9.2154186786
 30
0.0
 10
11.6685430467
 20
9.2185966136
 30
0.0
 10
11.696654974
 20
9.2205653773
 30
0.0
 10
11.7236527406
 20
9.2221175502
 30
0.0
 10
11.7492945791
 20
9.2232429907
 30
0.0
 10
11.7733489579
 20
9.223933157
 30
0.0
 10
11.7955908141
 20
9.2241803891
 30
0.0
 10
11.8158166005
 20
9.2239765622
 30
0.0
 10
11.8338479007
 20
9.2233314222
 30
0.0
 10
11.8474241409
 20
9.2224062122
 30
0.0
 10
11.857061341
 20
9.2214145361
 30
0.0
 10
11.8633420427
 20
9.2205966354
 30
0.0
 10
11.8689636208
 20
9.2196750255
 30
0.0
 10
11.8739162791
 20
9.2186535152
 30
0.0
 10
11.8781940303
 20
9.2175361955
 30
0.0
 10
11.8817941495
 20
9.2163264667
 30
0.0
 10
11.8847133968
 20
9.215027464
 30
0.0
 10
11.8866789303
 20
9.2138104193
 30
0.0
 10
11.8878644365
 20
9.2127709931
 30
0.0
 10
11.8885304453
 20
9.2120080581
 30
0.0
 10
11.8890190415
 20
9.2112194387
 30
0.0
 10
11.8892280238
 20
9.2106632895
 30
0.0
 10
11.8892981758
 20
9.210387493
 30
0.0
  0
SPLINE
  5
37F
100
AcDbEntity
  8
0
100
AcDbSpline
 62
9
  6
CONTINUOUS
 70
0
 71
3
 72
15
 73
11
 74
0
 42
0.0000001
 43
0.0000001
 44
0.0000000001
 40
0.0
 40
0.0
 40
0.0
 40
0.0
 40
0.2434123998
 40
0.3070216388
 40
0.3712823264
 40
0.5006586229
 40
0.6299343626
 40
0.6940747374
 40
0.7575225335
 40
1.0
 40
1.0
 40
1.0
 40
1.0
 10
11.9400086346
 20
9.2763245347
 30
0.0
 10
11.933004769
 20
9.2743130463
 30
0.0
 10
11.9244797971
 20
9.2703487404
 30
0.0
 10
11.9155284557
 20
9.2637550183
 30
0.0
 10
11.909712365
 20
9.258694347
 30
0.0
 10
11.9032144484
 20
9.2514724747
 30
0.0
 10
11.8980405149
 20
9.2432540915
 30
0.0
 10
11.894765902
 20
9.236287077
 30
0.0
 10
11.8908845383
 20
9.2259078643
 30
0.0
 10
11.8894177111
 20
9.2166521864
 30
0.0
 10
11.8894177255
 20
9.2093931856
 30
0.0
  0
SPLINE
  5
380
100
AcDbEntity
  8
0
100
AcDbSpline
 62
9
  6
CONTINUOUS
 70
0
 71
3
 72
30
 73
26
 74
0
 42
0.0000001
 43
0.0000001
 44
0.0000000001
 40
0.0
 40
0.0
 40
0.0
 40
0.0
 40
0.1928011334
 40
0.3780442746
 40
0.4656344244
 40
0.5487671885
 40
0.6266386246
 40
0.6985252109
 40
0.7637490164
 40
0.8217262173
 40
0.8478289123
 40
0.8719350992
 40
0.8939994712
 40
0.913979241
 40
0.9318390608
 40
0.9475637985
 40
0.961151384
 40
0.9726165484
 40
0.9820094333
 40
0.9859679286
 40
0.9894666002
 40
0.9925455888
 40
0.9952643658
 40
0.9977095892
 40
1.0
 40
1.0
 40
1.0
 40
1.0
 10
11.5756038295
 20
9.277359656
 30
0.0
 10
11.5991469288
 20
9.279557513
 30
0.0
 10
11.6453494966
 20
9.2834569745
 30
0.0
 10
11.702336571
 20
9.2872058924
 30
0.0
 10
11.7459401625
 20
9.2893671078
 30
0.0
 10
11.7764071846
 20
9.2905203756
 30
0.0
 10
11.8049615622
 20
9.2912241716
 30
0.0
 10
11.8313273602
 20
9.2914746972
 30
0.0
 10
11.8552537598
 20
9.2912683974
 30
0.0
 10
11.8735582691
 20
9.2907056356
 30
0.0
 10
11.8868081354
 20
9.2899998927
 30
0.0
 10
11.8956505136
 20
9.2893780548
 30
0.0
 10
11.9037309965
 20
9.2886476064
 30
0.0
 10
11.9110307488
 20
9.2878107
 30
0.0
 10
11.9175334133
 20
9.2868693572
 30
0.0
 10
11.9232256435
 20
9.285827144
 30
0.0
 10
11.9280982179
 20
9.284688053
 30
0.0
 10
11.9321422219
 20
9.2834554525
 30
0.0
 10
11.9349655586
 20
9.2822956623
 30
0.0
 10
11.9367757497
 20
9.2812939175
 30
0.0
 10
11.9378438711
 20
9.280562358
 30
0.0
 10
11.9387021164
 20
9.2798064344
 30
0.0
 10
11.9393497699
 20
9.2790231363
 30
0.0
 10
11.93978289
 20
9.2782098015
 30
0.0
 10
11.9399247664
 20
9.2776388391
 30
0.0
 10
11.9399556057
 20
9.2773596371
 30
0.0
  0
SPLINE
  5
381
100
AcDbEntity
  8
0
100
AcDbSpline
 62
9
  6
CONTINUOUS
 70
0
 71
3
 72
15
 73
11
 74
0
 42
0.0000001
 43
0.0000001
 44
0.0000000001
 40
0.0
 40
0.0
 40
0.0
 40
0.0
 40
0.2433992302
 40
0.3070189222
 40
0.3712940623
 40
0.500706069
 40
0.6300116992
 40
0.6941595986
 40
0.757607996
 40
1.0
 40
1.0
 40
1.0
 40
1.0
 10
11.9399556057
 20
9.2773596371
 30
0.0
 10
11.932951874
 20
9.2753383166
 30
0.0
 10
11.9244290709
 20
9.2713619164
 30
0.0
 10
11.9154788031
 20
9.2647585849
 30
0.0
 10
11.9096616784
 20
9.2596915765
 30
0.0
 10
11.9031607944
 20
9.252464228
 30
0.0
 10
11.8979797457
 20
9.2442434585
 30
0.0
 10
11.8946967218
 20
9.2372757189
 30
0.0
 10
11.8908015928
 20
9.2268993508
 30
0.0
 10
11.8893157705
 20
9.2176468507
 30
0.0
 10
11.8892981852
 20
9.2103874563
 30
0.0
  0
SPLINE
  5
382
100
AcDbEntity
  8
0
100
AcDbSpline
 62
9
  6
CONTINUOUS
 70
0
 71
3
 72
15
 73
11
 74
0
 42
0.0000001
 43
0.0000001
 44
0.0000000001
 40
0.0
 40
0.0
 40
0.0
 40
0.0
 40
0.0248794265
 40
0.0561288045
 40
0.1379354033
 40
0.2450693083
 40
0.3742282157
 40
0.5208803546
 40
0.6785318552
 40
1.0
 40
1.0
 40
1.0
 40
1.0
 10
11.5756040641
 20
9.2773596406
 30
0.0
 10
11.5756003796
 20
9.2768028779
 30
0.0
 10
11.5756102698
 20
9.2755466976
 30
0.0
 10
11.5756845505
 20
9.2724606809
 30
0.0
 10
11.5758927973
 20
9.2675371289
 30
0.0
 10
11.5762859155
 20
9.2604291992
 30
0.0
 10
11.5768361461
 20
9.2518768753
 30
0.0
 10
11.5775274412
 20
9.2422010543
 30
0.0
 10
11.5786023213
 20
9.2282382169
 30
0.0
 10
11.5795026049
 20
9.2175537081
 30
0.0
 10
11.5801356823
 20
9.2103875058
 30
0.0
  0
SPLINE
  5
383
100
AcDbEntity
  8
0
100
AcDbSpline
 62
9
  6
CONTINUOUS
 70
0
 71
3
 72
33
 73
29
 74
0
 42
0.0000001
 43
0.0000001
 44
0.0000000001
 40
0.0
 40
0.0
 40
0.0
 40
0.0
 40
0.0023206677
 40
0.0047368338
 40
0.0073828212
 40
0.0103605352
 40
0.0137407146
 40
0.0175707218
 40
0.0218821094
 40
0.0266960726
 40
0.0378820306
 40
0.0512011893
 40
0.0666844462
 40
0.084343735
 40
0.1041730217
 40
0.1261302194
 40
0.1501613232
 40
0.1762093493
 40
0.234117631
 40
0.2993706933
 40
0.3714245454
 40
0.4495443898
 40
0.5329444099
 40
0.6208357745
 40
0.7124047493
 40
0.806743402
 40
0.9029194319
 40
1.0
 40
1.0
 40
1.0
 40
1.0
 10
12.0346818273
 20
9.355842562
 30
0.0
 10
12.0346817191
 20
9.356207496
 30
0.0
 10
12.0345828371
 20
9.3569559989
 30
0.0
 10
12.034136736
 20
9.3580395771
 30
0.0
 10
12.0334057275
 20
9.3590813352
 30
0.0
 10
12.0323984442
 20
9.360084209
 30
0.0
 10
12.0311176876
 20
9.3610528963
 30
0.0
 10
12.02956393
 20
9.3619897682
 30
0.0
 10
12.0277372728
 20
9.3628959667
 30
0.0
 10
12.0247873528
 20
9.3641252786
 30
0.0
 10
12.0203941261
 20
9.3655467327
 30
0.0
 10
12.0142863957
 20
9.3670557664
 30
0.0
 10
12.0071088656
 20
9.368435736
 30
0.0
 10
11.9988708433
 20
9.3696813504
 30
0.0
 10
11.9895870645
 20
9.3707865245
 30
0.0
 10
11.9792810726
 20
9.3717501908
 30
0.0
 10
11.9679821103
 20
9.3725702369
 30
0.0
 10
11.9510255534
 20
9.3735019906
 30
0.0
 10
11.9275705653
 20
9.3742483812
 30
0.0
 10
11.8968714945
 20
9.3745228799
 30
0.0
 10
11.8629947548
 20
9.3741881057
 30
0.0
 10
11.8262750028
 20
9.3732554139
 30
0.0
 10
11.7870826019
 20
9.3717337877
 30
0.0
 10
11.7457992372
 20
9.3696341545
 30
0.0
 10
11.7028250094
 20
9.3669694725
 30
0.0
 10
11.6585808866
 20
9.3637724813
 30
0.0
 10
11.6135060474
 20
9.3600764698
 30
0.0
 10
11.5832416622
 20
9.3573064622
 30
0.0
 10
11.5680457038
 20
9.3558426995
 30
0.0
  0
SPLINE
  5
384
100
AcDbEntity
  8
0
100
AcDbSpline
 62
9
  6
CONTINUOUS
 70
0
 71
3
 72
25
 73
21
 74
0
 42
0.0000001
 43
0.0000001
 44
0.0000000001
 40
0.0
 40
0.0
 40
0.0
 40
0.0
 40
0.0013322748
 40
0.0032560404
 40
0.0089453783
 40
0.0170957622
 40
0.0276669937
 40
0.0406054238
 40
0.0558526268
 40
0.0733480664
 40
0.0930298471
 40
0.1386255489
 40
0.1918776685
 40
0.2519954711
 40
0.3181878175
 40
0.3897318256
 40
0.466095028
 40
0.6312808762
 40
0.8100788971
 40
1.0
 40
1.0
 40
1.0
 40
1.0
 10
12.919817062
 20
8.8710047685
 30
0.0
 10
12.9198144864
 20
8.8710258552
 30
0.0
 10
12.9198188691
 20
8.8710782957
 30
0.0
 10
12.9198503664
 20
8.8712173043
 30
0.0
 10
12.9199362153
 20
8.8714544663
 30
0.0
 10
12.9200888906
 20
8.8718122912
 30
0.0
 10
12.9203042349
 20
8.8722691062
 30
0.0
 10
12.9205803135
 20
8.8728219815
 30
0.0
 10
12.9209164692
 20
8.8734682164
 30
0.0
 10
12.921311313
 20
8.8742050185
 30
0.0
 10
12.9219460884
 20
8.8753622
 30
0.0
 10
12.9228754956
 20
8.8770079485
 30
0.0
 10
12.9241477229
 20
8.8792003392
 30
0.0
 10
12.9256093116
 20
8.8816623916
 30
0.0
 10
12.9272439449
 20
8.8843607558
 30
0.0
 10
12.9290373643
 20
8.8872656486
 30
0.0
 10
12.9316933939
 20
8.891492868
 30
0.0
 10
12.9353250239
 20
8.8971266054
 30
0.0
 10
12.9400426348
 20
8.9042134747
 30
0.0
 10
12.9433634304
 20
8.9090653457
 30
0.0
 10
12.9450882467
 20
8.9115544872
 30
0.0
  0
SPLINE
  5
385
100
AcDbEntity
  8
0
100
AcDbSpline
 62
9
  6
CONTINUOUS
 70
0
 71
3
 72
22
 73
18
 74
0
 42
0.0000001
 43
0.0000001
 44
0.0000000001
 40
0.0
 40
0.0
 40
0.0
 40
0.0
 40
0.0358640058
 40
0.0735828123
 40
0.1140638242
 40
0.1581882692
 40
0.2066962376
 40
0.2599074354
 40
0.3179229108
 40
0.3807410311
 40
0.4482210908
 40
0.5198786443
 40
0.5950899375
 40
0.673180912
 40
0.7534512518
 40
0.8351849798
 40
1.0
 40
1.0
 40
1.0
 40
1.0
 10
12.8332580725
 20
7.1693827821
 30
0.0
 10
12.8325575829
 20
7.1704369834
 30
0.0
 10
12.8309108317
 20
7.1724675939
 30
0.0
 10
12.8278346671
 20
7.1750950261
 30
0.0
 10
12.8241070419
 20
7.1773108684
 30
0.0
 10
12.8197305032
 20
7.1790640465
 30
0.0
 10
12.8147225932
 20
7.1803100016
 30
0.0
 10
12.8091230681
 20
7.1810440695
 30
0.0
 10
12.8029757971
 20
7.1812498508
 30
0.0
 10
12.796331466
 20
7.1809097209
 30
0.0
 10
12.7892552074
 20
7.1800109083
 30
0.0
 10
12.7818216895
 20
7.1785846697
 30
0.0
 10
12.7741158332
 20
7.1766586038
 30
0.0
 10
12.7662254824
 20
7.1742616134
 30
0.0
 10
12.7582385063
 20
7.1714232348
 30
0.0
 10
12.7475378152
 20
7.1671126034
 30
0.0
 10
12.7396544968
 20
7.1634064343
 30
0.0
 10
12.7344772361
 20
7.1607551391
 30
0.0
  0
SPLINE
  5
386
100
AcDbEntity
  8
0
100
AcDbSpline
 62
9
  6
CONTINUOUS
 70
0
 71
3
 72
13
 73
9
 74
0
 42
0.0000001
 43
0.0000001
 44
0.0000000001
 40
0.0
 40
0.0
 40
0.0
 40
0.0
 40
0.2484507614
 40
0.3738661705
 40
0.4997570188
 40
0.6258593079
 40
0.7518453009
 40
1.0
 40
1.0
 40
1.0
 40
1.0
 10
11.9609575617
 20
8.6477008814
 30
0.0
 10
11.9604810638
 20
8.6367662638
 30
0.0
 10
11.9596942474
 20
8.6203148135
 30
0.0
 10
11.958461576
 20
8.5983334407
 30
0.0
 10
11.9574205293
 20
8.5817399959
 30
0.0
 10
11.9562395859
 20
8.5651303797
 30
0.0
 10
11.9544694693
 20
8.5431651233
 30
0.0
 10
11.9527694647
 20
8.5267628126
 30
0.0
 10
11.951294261
 20
8.5159308526
 30
0.0
  0
SPLINE
  5
387
100
AcDbEntity
  8
0
100
AcDbSpline
 62
9
  6
CONTINUOUS
 70
0
 71
3
 72
42
 73
38
 74
0
 42
0.0000001
 43
0.0000001
 44
0.0000000001
 40
0.0
 40
0.0
 40
0.0
 40
0.0
 40
0.0000282597
 40
0.0000890164
 40
0.0001860457
 40
0.0003200798
 40
0.0006999953
 40
0.0012295509
 40
0.0019089033
 40
0.0027380607
 40
0.0037169734
 40
0.0048455649
 40
0.0075514086
 40
0.0108547882
 40
0.014754817
 40
0.0192495139
 40
0.0243351926
 40
0.0300080088
 40
0.0362641125
 40
0.0430996506
 40
0.0584936049
 40
0.0761583078
 40
0.0960505747
 40
0.1181177052
 40
0.1423067133
 40
0.1685642149
 40
0.1968272342
 40
0.2270229133
 40
0.2929188271
 40
0.365628452
 40
0.444445886
 40
0.5286216279
 40
0.6173251182
 40
0.7097096339
 40
0.8049175825
 40
0.9020403675
 40
1.0
 40
1.0
 40
1.0
 40
1.0
 10
12.0343671621
 20
8.5964698014
 30
0.0
 10
12.0343701277
 20
8.5964699165
 30
0.0
 10
12.0343761335
 20
8.5964796936
 30
0.0
 10
12.0343810309
 20
8.5964971543
 30
0.0
 10
12.0343874997
 20
8.5965278913
 30
0.0
 10
12.0343965964
 20
8.5965909887
 30
0.0
 10
12.034407599
 20
8.5967003749
 30
0.0
 10
12.0344198816
 20
8.5968666299
 30
0.0
 10
12.034432356
 20
8.5970803677
 30
0.0
 10
12.0344448884
 20
8.5973412735
 30
0.0
 10
12.0344574619
 20
8.5976494307
 30
0.0
 10
12.0344753377
 20
8.5981546042
 30
0.0
 10
12.0344970362
 20
8.598903902
 30
0.0
 10
12.0345218358
 20
8.5999442639
 30
0.0
 10
12.0345465926
 20
8.6011725357
 30
0.0
 10
12.0345712769
 20
8.602588015
 30
0.0
 10
12.0345958479
 20
8.6041896965
 30
0.0
 10
12.0346202779
 20
8.6059763797
 30
0.0
 10
12.0346445441
 20
8.6079468481
 30
0.0
 10
12.0346779895
 20
8.6109381794
 30
0.0
 10
12.034718661
 20
8.6151276172
 30
0.0
 10
12.0347648703
 20
8.6206882589
 30
0.0
 10
12.0348100544
 20
8.6269497371
 30
0.0
 10
12.0348541008
 20
8.6338964119
 30
0.0
 10
12.0348968771
 20
8.6415115741
 30
0.0
 10
12.0349382546
 20
8.6497774364
 30
0.0
 10
12.0349781288
 20
8.6586741251
 30
0.0
 10
12.0350307096
 20
8.6717335683
 30
0.0
 10
12.0350911775
 20
8.6894607364
 30
0.0
 10
12.0351544369
 20
8.7122941087
 30
0.0
 10
12.035209718
 20
8.7370472288
 30
0.0
 10
12.0352564075
 20
8.7634800228
 30
0.0
 10
12.0352940509
 20
8.7913376286
 30
0.0
 10
12.0353221938
 20
8.8203538331
 30
0.0
 10
12.035340735
 20
8.850254228
 30
0.0
 10
12.0353495357
 20
8.8807401184
 30
0.0
 10
12.0353485803
 20
8.9012274034
 30
0.0
 10
12.0353462963
 20
8.9115149878
 30
0.0
  0
SPLINE
  5
388
100
AcDbEntity
  8
0
100
AcDbSpline
 62
9
  6
CONTINUOUS
 70
0
 71
3
 72
28
 73
24
 74
0
 42
0.0000001
 43
0.0000001
 44
0.0000000001
 40
0.0
 40
0.0
 40
0.0
 40
0.0
 40
0.1803101901
 40
0.3536741075
 40
0.4370408774
 40
0.5176817062
 40
0.5950188767
 40
0.6684657004
 40
0.7373830606
 40
0.8008275693
 40
0.8577468995
 40
0.9069721182
 40
0.928236575
 40
0.94701152
 40
0.9631052714
 40
0.9763486766
 40
0.9818765895
 40
0.9866675324
 40
0.9907164722
 40
0.9940196333
 40
0.9965760222
 40
0.9983921101
 40
1.0
 40
1.0
 40
1.0
 40
1.0
 10
11.1712685068
 20
8.9339667813
 30
0.0
 10
11.1739290917
 20
8.9324027325
 30
0.0
 10
11.1791242163
 20
8.9292946691
 30
0.0
 10
11.1854896903
 20
8.9253649604
 30
0.0
 10
11.1903741592
 20
8.922284702
 30
0.0
 10
11.1938545784
 20
8.9200594788
 30
0.0
 10
11.1971776201
 20
8.9179034761
 30
0.0
 10
11.2003174082
 20
8.9158338673
 30
0.0
 10
11.2032426278
 20
8.913871023
 30
0.0
 10
11.2059175033
 20
8.9120430019
 30
0.0
 10
11.2082989265
 20
8.9103831891
 30
0.0
 10
11.2100748054
 20
8.909117345
 30
0.0
 10
11.2113078842
 20
8.908215114
 30
0.0
 10
11.2120773349
 20
8.9076396988
 30
0.0
 10
11.2127298863
 20
8.9071372735
 30
0.0
 10
11.2131952777
 20
8.9067637167
 30
0.0
 10
11.2135038547
 20
8.9065038401
 30
0.0
 10
11.2136888615
 20
8.9063421886
 30
0.0
 10
11.2138422784
 20
8.9062007777
 30
0.0
 10
11.2139622973
 20
8.9060839661
 30
0.0
 10
11.2140536231
 20
8.9059817149
 30
0.0
 10
11.2141103904
 20
8.9059138739
 30
0.0
 10
11.2141488695
 20
8.9058328889
 30
0.0
 10
11.2141257696
 20
8.9058179285
 30
0.0
  0
SPLINE
  5
389
100
AcDbEntity
  8
0
100
AcDbSpline
 62
9
  6
CONTINUOUS
 70
0
 71
3
 72
11
 73
7
 74
0
 42
0.0000001
 43
0.0000001
 44
0.0000000001
 40
0.0
 40
0.0
 40
0.0
 40
0.0
 40
0.2297451069
 40
0.4803336227
 40
0.7416650901
 40
1.0
 40
1.0
 40
1.0
 40
1.0
 10
11.1497466342
 20
8.911553972
 30
0.0
 10
11.1510309
 20
8.9135733634
 30
0.0
 10
11.1539424574
 20
8.9176536145
 30
0.0
 10
11.1589981567
 20
8.9235100395
 30
0.0
 10
11.1648098966
 20
8.9290582944
 30
0.0
 10
11.1690666197
 20
8.9324201985
 30
0.0
 10
11.1712693893
 20
8.9339659017
 30
0.0
  0
SPLINE
  5
38A
100
AcDbEntity
  8
0
100
AcDbSpline
 62
9
  6
CONTINUOUS
 70
0
 71
3
 72
15
 73
11
 74
0
 42
0.0000001
 43
0.0000001
 44
0.0000000001
 40
0.0
 40
0.0
 40
0.0
 40
0.0
 40
0.1229722181
 40
0.2465970011
 40
0.3707266245
 40
0.4955337249
 40
0.6209762957
 40
0.746962941
 40
0.8734626629
 40
1.0
 40
1.0
 40
1.0
 40
1.0
 10
11.9674421938
 20
9.1681591479
 30
0.0
 10
11.9684591423
 20
9.1716816368
 30
0.0
 10
11.9710967762
 20
9.1785870686
 30
0.0
 10
11.9767042308
 20
9.1881671425
 30
0.0
 10
11.9838402517
 20
9.1967449718
 30
0.0
 10
11.9923086186
 20
9.2040902221
 30
0.0
 10
12.0018846273
 20
9.2100226648
 30
0.0
 10
12.0123269716
 20
9.2143822279
 30
0.0
 10
12.023353729
 20
9.2170491946
 30
0.0
 10
12.0309093447
 20
9.2176639368
 30
0.0
 10
12.0346819739
 20
9.2176732377
 30
0.0
  0
SPLINE
  5
38B
100
AcDbEntity
  8
0
100
AcDbSpline
 62
9
  6
CONTINUOUS
 70
0
 71
3
 72
14
 73
10
 74
0
 42
0.0000001
 43
0.0000001
 44
0.0000000001
 40
0.0
 40
0.0
 40
0.0
 40
0.0
 40
0.1170294778
 40
0.2392835112
 40
0.3657825274
 40
0.4948392224
 40
0.6247315122
 40
0.7535778588
 40
1.0
 40
1.0
 40
1.0
 40
1.0
 10
11.9674473934
 20
9.1666838925
 30
0.0
 10
11.9684131494
 20
9.1700370238
 30
0.0
 10
11.9709425683
 20
9.1767449195
 30
0.0
 10
11.9763769584
 20
9.186255219
 30
0.0
 10
11.9835504037
 20
9.1950084322
 30
0.0
 10
11.9922157799
 20
9.202637527
 30
0.0
 10
12.0021097807
 20
9.2087304064
 30
0.0
 10
12.0160661167
 20
9.2145152021
 30
0.0
 10
12.0273497085
 20
9.2162892839
 30
0.0
 10
12.0346971577
 20
9.2163178599
 30
0.0
  0
SPLINE
  5
38C
100
AcDbEntity
  8
0
100
AcDbSpline
 62
9
  6
CONTINUOUS
 70
0
 71
3
 72
11
 73
7
 74
0
 42
0.0000001
 43
0.0000001
 44
0.0000000001
 40
0.0
 40
0.0
 40
0.0
 40
0.0
 40
0.2550957352
 40
0.5075386407
 40
0.7562383519
 40
1.0
 40
1.0
 40
1.0
 40
1.0
 10
11.131557436
 20
8.940077132
 30
0.0
 10
11.1329731655
 20
8.9375723326
 30
0.0
 10
11.1359041469
 20
8.9326531196
 30
0.0
 10
11.1404902706
 20
8.9254606647
 30
0.0
 10
11.1451354219
 20
8.9184596239
 30
0.0
 10
11.1482293505
 20
8.9138466637
 30
0.0
 10
11.1497468891
 20
8.9115540438
 30
0.0
  0
SPLINE
  5
38D
100
AcDbEntity
  8
0
100
AcDbSpline
 62
9
  6
CONTINUOUS
 70
0
 71
3
 72
31
 73
27
 74
0
 42
0.0000001
 43
0.0000001
 44
0.0000000001
 40
0.0
 40
0.0
 40
0.0
 40
0.0
 40
0.1976635484
 40
0.2947025763
 40
0.389110896
 40
0.4798190227
 40
0.5657855031
 40
0.6459757485
 40
0.7193551888
 40
0.785000641
 40
0.8424152821
 40
0.8912043526
 40
0.9122409718
 40
0.930973225
 40
0.9473692814
 40
0.9614585757
 40
0.9732840155
 40
0.9828886091
 40
0.9868715937
 40
0.9903156104
 40
0.9932261522
 40
0.9956088087
 40
0.9974693712
 40
0.9988141369
 40
0.9996511243
 40
1.0
 40
1.0
 40
1.0
 40
1.0
 10
10.7954258482
 20
9.1666839426
 30
0.0
 10
10.7945777023
 20
9.1699495772
 30
0.0
 10
10.7933154034
 20
9.1748189898
 30
0.0
 10
10.7916538049
 20
9.1812496379
 30
0.0
 10
10.7904516761
 20
9.1859133937
 30
0.0
 10
10.7892997382
 20
9.1903949074
 30
0.0
 10
10.7882113803
 20
9.194642181
 30
0.0
 10
10.7871998348
 20
9.198603791
 30
0.0
 10
10.786277821
 20
9.2022302656
 30
0.0
 10
10.7854558203
 20
9.2054810339
 30
0.0
 10
10.7847412776
 20
9.2083260192
 30
0.0
 10
10.7842165408
 20
9.2104335825
 30
0.0
 10
10.7838547133
 20
9.2119012617
 30
0.0
 10
10.7836269565
 20
9.2128325113
 30
0.0
 10
10.7834292919
 20
9.2136490365
 30
0.0
 10
10.7832614725
 20
9.2143514868
 30
0.0
 10
10.7831229609
 20
9.2149417391
 30
0.0
 10
10.783026179
 20
9.2153646036
 30
0.0
 10
10.782963276
 20
9.2156484155
 30
0.0
 10
10.7829260399
 20
9.2158209434
 30
0.0
 10
10.7828957905
 20
9.215966851
 30
0.0
 10
10.7828719684
 20
9.216086982
 30
0.0
 10
10.7828557057
 20
9.2161800482
 30
0.0
 10
10.7828437622
 20
9.2162501346
 30
0.0
 10
10.7828421919
 20
9.2162896657
 30
0.0
 10
10.7828393448
 20
9.2163141185
 30
0.0
 10
10.7828440051
 20
9.2163178259
 30
0.0
  0
LINE
  5
38E
100
AcDbEntity
  8
0
100
AcDbLine
 62
9
  6
CONTINUOUS
 10
10.7828439875
 20
9.2163179208
 11
10.7880400909
 21
9.2176732371
  0
SPLINE
  5
38F
100
AcDbEntity
  8
0
100
AcDbSpline
 62
9
  6
CONTINUOUS
 70
0
 71
3
 72
45
 73
41
 74
0
 42
0.0000001
 43
0.0000001
 44
0.0000000001
 40
0.0
 40
0.0
 40
0.0
 40
0.0
 40
0.0322403206
 40
0.0792567783
 40
0.1395365237
 40
0.2111436462
 40
0.2917636861
 40
0.3788129036
 40
0.4694803302
 40
0.5608349913
 40
0.6499340104
 40
0.69273287
 40
0.7339020788
 40
0.7731141975
 40
0.8100435212
 40
0.8443930995
 40
0.8758940944
 40
0.9042799539
 40
0.9293189112
 40
0.9508200514
 40
0.9601850107
 40
0.9685955595
 40
0.976035786
 40
0.9824934665
 40
0.9879564161
 40
0.9903110615
 40
0.992412459
 40
0.9942590893
 40
0.9958494359
 40
0.9971819885
 40
0.9982556728
 40
0.9990704075
 40
0.9996263044
 40
0.9998072901
 40
0.9998735912
 40
0.9999238142
 40
0.9999580639
 40
0.9999767161
 40
0.9999835661
 40
1.0
 40
1.0
 40
1.0
 40
1.0
 10
11.9674473722
 20
9.1666841436
 30
0.0
 10
11.9674869748
 20
9.1610972104
 30
0.0
 10
11.9675461107
 20
9.1473625336
 30
0.0
 10
11.9676118528
 20
9.1231817037
 30
0.0
 10
11.9676642245
 20
9.0921787592
 30
0.0
 10
11.9677064742
 20
9.0553524843
 30
0.0
 10
11.967737114
 20
9.0138871891
 30
0.0
 10
11.9677564208
 20
8.9691188402
 30
0.0
 10
11.96776489
 20
8.9224902358
 30
0.0
 10
11.9677625721
 20
8.8755064113
 30
0.0
 10
11.9677514738
 20
8.8368179524
 30
0.0
 10
11.9677365912
 20
8.806826364
 30
0.0
 10
11.9677226835
 20
8.785479907
 30
0.0
 10
11.9677058253
 20
8.7651506113
 30
0.0
 10
11.9676859527
 20
8.746003124
 30
0.0
 10
11.9676629983
 20
8.7281919372
 30
0.0
 10
11.9676369044
 20
8.7118612927
 30
0.0
 10
11.9676076102
 20
8.6971441366
 30
0.0
 10
11.967575046
 20
8.684159913
 30
0.0
 10
11.9675440078
 20
8.6744719167
 30
0.0
 10
11.9675167178
 20
8.6676655399
 30
0.0
 10
11.9674963328
 20
8.6632958364
 30
0.0
 10
11.9674751033
 20
8.6594299592
 30
0.0
 10
11.9674530448
 20
8.656074899
 30
0.0
 10
11.9674331753
 20
8.6536011492
 30
0.0
 10
11.9674164642
 20
8.6518823218
 30
0.0
 10
11.9674043539
 20
8.6507901702
 30
0.0
 10
11.9673920514
 20
8.6498304753
 30
0.0
 10
11.967379565
 20
8.6490040432
 30
0.0
 10
11.9673669397
 20
8.6483115468
 30
0.0
 10
11.9673541761
 20
8.6477535765
 30
0.0
 10
11.9673415284
 20
8.6473300161
 30
0.0
 10
11.9673299103
 20
8.6470616747
 30
0.0
 10
11.9673208395
 20
8.6469224037
 30
0.0
 10
11.9673154588
 20
8.6468714601
 30
0.0
 10
11.9673128323
 20
8.6468448502
 30
0.0
 10
11.9673081836
 20
8.6468287167
 30
0.0
 10
11.9673075632
 20
8.6468163782
 30
0.0
 10
11.9672988818
 20
8.6468144172
 30
0.0
 10
11.967298538
 20
8.6468205432
 30
0.0
 10
11.967297735
 20
8.6468232755
 30
0.0
  0
SPLINE
  5
390
100
AcDbEntity
  8
0
100
AcDbSpline
 62
9
  6
CONTINUOUS
 70
0
 71
3
 72
12
 73
8
 74
0
 42
0.0000001
 43
0.0000001
 44
0.0000000001
 40
0.0
 40
0.0
 40
0.0
 40
0.0
 40
0.1232211305
 40
0.2491995408
 40
0.5037077939
 40
0.7562728645
 40
1.0
 40
1.0
 40
1.0
 40
1.0
 10
11.940008924
 20
9.141382744
 30
0.0
 10
11.9415888965
 20
9.1418240226
 30
0.0
 10
11.9447305347
 20
9.1429231185
 30
0.0
 10
11.9507575043
 20
9.1458866002
 30
0.0
 10
11.9576162093
 20
9.1509633762
 30
0.0
 10
11.9638342506
 20
9.1589250303
 30
0.0
 10
11.9665424396
 20
9.165042231
 30
0.0
 10
11.9674423412
 20
9.1681596754
 30
0.0
  0
SPLINE
  5
391
100
AcDbEntity
  8
0
100
AcDbSpline
 62
9
  6
CONTINUOUS
 70
0
 71
3
 72
15
 73
11
 74
0
 42
0.0000001
 43
0.0000001
 44
0.0000000001
 40
0.0
 40
0.0
 40
0.0
 40
0.0
 40
0.242369771
 40
0.3058372127
 40
0.3700097679
 40
0.4993676974
 40
0.628822308
 40
0.6931104995
 40
0.756733058
 40
1.0
 40
1.0
 40
1.0
 40
1.0
 10
11.9674422127
 20
9.3049152591
 30
0.0
 10
11.9694142126
 20
9.3119406496
 30
0.0
 10
11.9733542934
 20
9.3205001182
 30
0.0
 10
11.9799413841
 20
9.3294868654
 30
0.0
 10
11.985015214
 20
9.3353396979
 30
0.0
 10
11.9922725584
 20
9.3418844006
 30
0.0
 10
12.0005418377
 20
9.3470984496
 30
0.0
 10
12.0075591591
 20
9.3504040061
 30
0.0
 10
12.0180247357
 20
9.3543295561
 30
0.0
 10
12.0273580063
 20
9.3558240027
 30
0.0
 10
12.0346819035
 20
9.355842564
 30
0.0
  0
SPLINE
  5
392
100
AcDbEntity
  8
0
100
AcDbSpline
 62
9
  6
CONTINUOUS
 70
0
 71
3
 72
32
 73
28
 74
0
 42
0.0000001
 43
0.0000001
 44
0.0000000001
 40
0.0
 40
0.0
 40
0.0
 40
0.0
 40
0.002323475
 40
0.0047422761
 40
0.00739084
 40
0.0103711421
 40
0.0137539468
 40
0.0175866066
 40
0.02190064
 40
0.0267171913
 40
0.0379078966
 40
0.0512307503
 40
0.0667160212
 40
0.084374984
 40
0.1042010646
 40
0.1261521735
 40
0.1501744397
 40
0.176211013
 40
0.2340890712
 40
0.2993030159
 40
0.3713112248
 40
0.4493866739
 40
0.5327526944
 40
0.6206296157
 40
0.7122111076
 40
0.8065895947
 40
1.0
 40
1.0
 40
1.0
 40
1.0
 10
11.9674421906
 20
9.3049151801
 30
0.0
 10
11.9674420955
 20
9.3052240701
 30
0.0
 10
11.9673584186
 20
9.305857584
 30
0.0
 10
11.9669809197
 20
9.3067746589
 30
0.0
 10
11.9663623669
 20
9.3076562521
 30
0.0
 10
11.965510101
 20
9.3085048535
 30
0.0
 10
11.9644265277
 20
9.3093244459
 30
0.0
 10
11.9631120808
 20
9.3101170435
 30
0.0
 10
11.9615668794
 20
9.31088362
 30
0.0
 10
11.9590717758
 20
9.3119233906
 30
0.0
 10
11.9553563176
 20
9.3131255236
 30
0.0
 10
11.9501914549
 20
9.3144015586
 30
0.0
 10
11.9441228297
 20
9.3155682887
 30
0.0
 10
11.9371585676
 20
9.3166212936
 30
0.0
 10
11.9293112937
 20
9.3175554862
 30
0.0
 10
11.9206009655
 20
9.3183699738
 30
0.0
 10
11.9110522718
 20
9.3190630011
 30
0.0
 10
11.8967238294
 20
9.3198503333
 30
0.0
 10
11.8769056156
 20
9.3204809601
 30
0.0
 10
11.8509677747
 20
9.3207129062
 30
0.0
 10
11.8223453991
 20
9.3204302661
 30
0.0
 10
11.791318842
 20
9.3196423012
 30
0.0
 10
11.7581977458
 20
9.3183563344
 30
0.0
 10
11.7233014054
 20
9.3165812601
 30
0.0
 10
11.686965736
 20
9.3143280119
 30
0.0
 10
11.6366617114
 20
9.3106922111
 30
0.0
 10
11.5985427004
 20
9.3073801256
 30
0.0
 10
11.5729485565
 20
9.3049150519
 30
0.0
  0
SPLINE
  5
393
100
AcDbEntity
  8
0
100
AcDbSpline
 62
9
  6
CONTINUOUS
 70
0
 71
3
 72
13
 73
9
 74
0
 42
0.0000001
 43
0.0000001
 44
0.0000000001
 40
0.0
 40
0.0
 40
0.0
 40
0.0
 40
0.2474567234
 40
0.3744413659
 40
0.5019004192
 40
0.754784852
 40
0.8790094862
 40
1.0
 40
1.0
 40
1.0
 40
1.0
 10
11.9399556057
 20
9.277359638
 30
0.0
 10
11.943173705
 20
9.2782792793
 30
0.0
 10
11.9478815841
 20
9.280326811
 30
0.0
 10
11.9535266576
 20
9.2841180265
 30
0.0
 10
11.9587036817
 20
9.2886494087
 30
0.0
 10
11.962875617
 20
9.294165742
 30
0.0
 10
11.9658906093
 20
9.3002020029
 30
0.0
 10
11.9670000143
 20
9.3033396575
 30
0.0
 10
11.9674422605
 20
9.3049151981
 30
0.0
  0
SPLINE
  5
394
100
AcDbEntity
  8
0
100
AcDbSpline
 62
9
  6
CONTINUOUS
 70
0
 71
3
 72
15
 73
11
 74
0
 42
0.0000001
 43
0.0000001
 44
0.0000000001
 40
0.0
 40
0.0
 40
0.0
 40
0.0
 40
0.1268943699
 40
0.25344337
 40
0.3792749569
 40
0.5044558323
 40
0.6290012751
 40
0.7529899284
 40
0.8766781238
 40
1.0
 40
1.0
 40
1.0
 40
1.0
 10
11.9400085945
 20
9.1413842067
 30
0.0
 10
11.9364055388
 20
9.1403780365
 30
0.0
 10
11.9293551198
 20
9.1377972708
 30
0.0
 10
11.9195469347
 20
9.1323367014
 30
0.0
 10
11.9107680598
 20
9.1254152211
 30
0.0
 10
11.9032539419
 20
9.1172184791
 30
0.0
 10
11.8971901698
 20
9.1079615616
 30
0.0
 10
11.8927413351
 20
9.0978749294
 30
0.0
 10
11.8900298302
 20
9.0872297861
 30
0.0
 10
11.889417719
 20
9.0799337167
 30
0.0
 10
11.8894177259
 20
9.0762981281
 30
0.0
  0
SPLINE
  5
395
100
AcDbEntity
  8
0
100
AcDbSpline
 62
9
  6
CONTINUOUS
 70
0
 71
3
 72
11
 73
7
 74
0
 42
0.0000001
 43
0.0000001
 44
0.0000000001
 40
0.0
 40
0.0
 40
0.0
 40
0.0
 40
0.2500213963
 40
0.5000324164
 40
0.7500203694
 40
1.0
 40
1.0
 40
1.0
 40
1.0
 10
11.7087679254
 20
8.5159312794
 30
0.0
 10
11.7087669052
 20
8.5423615279
 30
0.0
 10
11.7041644331
 20
8.5953341116
 30
0.0
 10
11.6837066201
 20
8.6723257348
 30
0.0
 10
11.6504978494
 20
8.7447207364
 30
0.0
 10
11.6205715121
 20
8.7886344861
 30
0.0
 10
11.6039343217
 20
8.809165647
 30
0.0
  0
LINE
  5
396
100
AcDbEntity
  8
0
100
AcDbLine
 62
9
  6
CONTINUOUS
 10
11.9395523859
 20
8.6740629357
 11
11.9396018228
 21
8.6710795793
  0
SPLINE
  5
397
100
AcDbEntity
  8
0
100
AcDbSpline
 62
9
  6
CONTINUOUS
 70
0
 71
3
 72
72
 73
68
 74
0
 42
0.0000001
 43
0.0000001
 44
0.0000000001
 40
0.0
 40
0.0
 40
0.0
 40
0.0
 40
0.0669388086
 40
0.13302548
 40
0.1983210594
 40
0.2306997033
 40
0.2629144589
 40
0.294977824
 40
0.3269022092
 40
0.3586995366
 40
0.3903808906
 40
0.4219560493
 40
0.4377063417
 40
0.4534327583
 40
0.4691357133
 40
0.4848152284
 40
0.5004707409
 40
0.5161007644
 40
0.5317022383
 40
0.5472691604
 40
0.5550363033
 40
0.5627894795
 40
0.5705248578
 40
0.5782363875
 40
0.5859137862
 40
0.5935385045
 40
0.5973206553
 40
0.6010726179
 40
0.6047821371
 40
0.6084282482
 40
0.6102144781
 40
0.6119688041
 40
0.6136894471
 40
0.6153726046
 40
0.6169849856
 40
0.6185324812
 40
0.6200693707
 40
0.6216113587
 40
0.6223900666
 40
0.6231816521
 40
0.624820761
 40
0.6265228543
 40
0.6282594129
 40
0.6318177546
 40
0.6354638673
 40
0.6391703062
 40
0.6429130697
 40
0.6504687923
 40
0.6580826084
 40
0.6657296796
 40
0.6733971595
 40
0.6810774909
 40
0.6964593822
 40
0.7118531245
 40
0.7272472251
 40
0.7426347988
 40
0.7580111342
 40
0.7733726102
 40
0.7887161637
 40
0.8040390011
 40
0.8193384334
 40
0.8498562343
 40
0.8802470884
 40
0.9104862933
 40
0.9405462142
 40
0.9703957631
 40
1.0
 40
1.0
 40
1.0
 40
1.0
 10
11.6039343217
 20
8.809165647
 30
0.0
 10
11.61215785
 20
8.7999868433
 30
0.0
 10
11.6280338469
 20
8.7813236794
 30
0.0
 10
11.6504322692
 20
8.7524771716
 30
0.0
 10
11.6680228648
 20
8.727983692
 30
0.0
 10
11.6815245668
 20
8.7082459766
 30
0.0
 10
11.6913720363
 20
8.6934233093
 30
0.0
 10
11.7009960137
 20
8.6785543089
 30
0.0
 10
11.710422916
 20
8.6636505298
 30
0.0
 10
11.719677642
 20
8.6487220059
 30
0.0
 10
11.7287835624
 20
8.6337775606
 30
0.0
 10
11.7362719765
 20
8.6213075446
 30
0.0
 10
11.7422091805
 20
8.6113325434
 30
0.0
 10
11.7466347491
 20
8.6038584516
 30
0.0
 10
11.7510391771
 20
8.5963870079
 30
0.0
 10
11.7554253317
 20
8.5889199593
 30
0.0
 10
11.7597964502
 20
8.5814596591
 30
0.0
 10
11.7641564485
 20
8.5740094976
 30
0.0
 10
11.7685105696
 20
8.5665747961
 30
0.0
 10
11.7721430117
 20
8.5603950282
 30
0.0
 10
11.7750578599
 20
8.5554695426
 30
0.0
 10
11.7772493584
 20
8.5517913955
 30
0.0
 10
11.7794517565
 20
8.5481317017
 30
0.0
 10
11.7816708579
 20
8.5444984027
 30
0.0
 10
11.7839165282
 20
8.5409054497
 30
0.0
 10
11.7858274602
 20
8.5379565924
 30
0.0
 10
11.7873977543
 20
8.5356492881
 30
0.0
 10
11.7885985268
 20
8.5339628345
 30
0.0
 10
11.7898342995
 20
8.5323330851
 30
0.0
 10
11.7909131706
 20
8.5310395951
 30
0.0
 10
11.7918207408
 20
8.5300762196
 30
0.0
 10
11.7925206844
 20
8.5294058623
 30
0.0
 10
11.7932496135
 20
8.528795834
 30
0.0
 10
11.7940028387
 20
8.5282597918
 30
0.0
 10
11.7947995327
 20
8.527845238
 30
0.0
 10
11.7956504257
 20
8.5276473126
 30
0.0
 10
11.7965054228
 20
8.5276295669
 30
0.0
 10
11.7972139426
 20
8.5277166712
 30
0.0
 10
11.7977663826
 20
8.5278732234
 30
0.0
 10
11.7983133334
 20
8.5281002285
 30
0.0
 10
11.798964151
 20
8.5285021516
 30
0.0
 10
11.7996960283
 20
8.5290851044
 30
0.0
 10
11.8006442994
 20
8.5299582843
 30
0.0
 10
11.801763054
 20
8.5311687867
 30
0.0
 10
11.803028694
 20
8.532729799
 30
0.0
 10
11.8042344674
 20
8.5343793291
 30
0.0
 10
11.8058084149
 20
8.536649761
 30
0.0
 10
11.8077052446
 20
8.5395704168
 30
0.0
 10
11.8099154167
 20
8.5431427749
 30
0.0
 10
11.8120867
 20
8.5467629101
 30
0.0
 10
11.8142300567
 20
8.5504137751
 30
0.0
 10
11.8170612249
 20
8.5553119783
 30
0.0
 10
11.8205574709
 20
8.5614685645
 30
0.0
 10
11.8247066093
 20
8.5688872803
 30
0.0
 10
11.8288200044
 20
8.5763270607
 30
0.0
 10
11.8329023025
 20
8.5837802849
 30
0.0
 10
11.836955766
 20
8.5912423922
 30
0.0
 10
11.8409813499
 20
8.598710369
 30
0.0
 10
11.8449791471
 20
8.6061820879
 30
0.0
 10
11.8489486806
 20
8.6136559307
 30
0.0
 10
11.8541978482
 20
8.6236133268
 30
0.0
 10
11.8606818122
 20
8.6360556858
 30
0.0
 10
11.8683352964
 20
8.6509897487
 30
0.0
 10
11.8758386228
 20
8.6659055501
 30
0.0
 10
11.8831732184
 20
8.6807940796
 30
0.0
 10
11.8903179804
 20
8.6956450436
 30
0.0
 10
11.8949601198
 20
8.7055580094
 30
0.0
 10
11.8972423852
 20
8.710507475
 30
0.0
  0
SPLINE
  5
398
100
AcDbEntity
  8
0
100
AcDbSpline
 62
9
  6
CONTINUOUS
 70
0
 71
3
 72
18
 73
14
 74
0
 42
0.0000001
 43
0.0000001
 44
0.0000000001
 40
0.0
 40
0.0
 40
0.0
 40
0.0
 40
0.023315958
 40
0.0524133317
 40
0.0876206047
 40
0.1291674826
 40
0.1771541373
 40
0.2313295246
 40
0.3568050094
 40
0.5021528108
 40
0.6618474884
 40
0.8298168356
 40
1.0
 40
1.0
 40
1.0
 40
1.0
 10
11.6039342475
 20
8.8091656962
 30
0.0
 10
11.6040298718
 20
8.8096060446
 30
0.0
 10
11.604342582
 20
8.8105742257
 30
0.0
 10
11.6050426764
 20
8.8121180346
 30
0.0
 10
11.606035115
 20
8.8139089958
 30
0.0
 10
11.6073286878
 20
8.8159445461
 30
0.0
 10
11.6089269591
 20
8.8182169447
 30
0.0
 10
11.6115875065
 20
8.8217215836
 30
0.0
 10
11.6156124859
 20
8.8265476201
 30
0.0
 10
11.6212107875
 20
8.8327050282
 30
0.0
 10
11.6275767749
 20
8.8392676837
 30
0.0
 10
11.634465671
 20
8.8459860385
 30
0.0
 10
11.639249683
 20
8.8504392179
 30
0.0
 10
11.6416813141
 20
8.8526538911
 30
0.0
  0
SPLINE
  5
399
100
AcDbEntity
  8
0
100
AcDbSpline
 62
9
  6
CONTINUOUS
 70
0
 71
3
 72
9
 73
5
 74
0
 42
0.0000001
 43
0.0000001
 44
0.0000000001
 40
0.0
 40
0.0
 40
0.0
 40
0.0
 40
0.5262536454
 40
1.0
 40
1.0
 40
1.0
 40
1.0
 10
11.8891837162
 20
8.8373342348
 30
0.0
 10
11.8873537862
 20
8.8397333529
 30
0.0
 10
11.8842643401
 20
8.8446090119
 30
0.0
 10
11.8822133333
 20
8.8500175428
 30
0.0
 10
11.8815576045
 20
8.8526535001
 30
0.0
  0
SPLINE
  5
39A
100
AcDbEntity
  8
0
100
AcDbSpline
 62
9
  6
CONTINUOUS
 70
0
 71
3
 72
25
 73
21
 74
0
 42
0.0000001
 43
0.0000001
 44
0.0000000001
 40
0.0
 40
0.0
 40
0.0
 40
0.0
 40
0.1898651793
 40
0.368634214
 40
0.5337931943
 40
0.6101441666
 40
0.6816783538
 40
0.7478647391
 40
0.8079817724
 40
0.8612390901
 40
0.9068467248
 40
0.9265371827
 40
0.9440430499
 40
0.9593025592
 40
0.9722553151
 40
0.9828430174
 40
0.9910120999
 40
0.9967222883
 40
0.998657026
 40
1.0
 40
1.0
 40
1.0
 40
1.0
 10
11.1497474333
 20
8.9115548952
 30
0.0
 10
11.1514716177
 20
8.9090664378
 30
0.0
 10
11.1547914076
 20
8.9042155909
 30
0.0
 10
11.1595078258
 20
8.8971301731
 30
0.0
 10
11.1631389074
 20
8.8914974555
 30
0.0
 10
11.1657946334
 20
8.8872710258
 30
0.0
 10
11.1675879257
 20
8.88436662
 30
0.0
 10
11.169222544
 20
8.8816685923
 30
0.0
 10
11.1706842506
 20
8.879206672
 30
0.0
 10
11.1719567481
 20
8.877014166
 30
0.0
 10
11.1728864863
 20
8.8753681539
 30
0.0
 10
11.1735216152
 20
8.874210617
 30
0.0
 10
11.1739167843
 20
8.8734734305
 30
0.0
 10
11.1742533086
 20
8.8728267302
 30
0.0
 10
11.1745298042
 20
8.8722733004
 30
0.0
 10
11.1747456066
 20
8.8718158392
 30
0.0
 10
11.1748987994
 20
8.8714572594
 30
0.0
 10
11.1749850888
 20
8.8712194229
 30
0.0
 10
11.1750170124
 20
8.8710798088
 30
0.0
 10
11.1750216198
 20
8.8710270615
 30
0.0
 10
11.1750191878
 20
8.8710057862
 30
0.0
  0
SPLINE
  5
39B
100
AcDbEntity
  8
0
100
AcDbSpline
 62
9
  6
CONTINUOUS
 70
0
 71
3
 72
13
 73
9
 74
0
 42
0.0000001
 43
0.0000001
 44
0.0000000001
 40
0.0
 40
0.0
 40
0.0
 40
0.0
 40
0.0626820495
 40
0.1397654204
 40
0.2336413574
 40
0.3459241586
 40
0.6301888257
 40
1.0
 40
1.0
 40
1.0
 40
1.0
 10
13.1407467499
 20
6.7784970621
 30
0.0
 10
13.140680255
 20
6.7785686502
 30
0.0
 10
13.1405085036
 20
6.7787063196
 30
0.0
 10
13.1401872672
 20
6.7788799721
 30
0.0
 10
13.1397757971
 20
6.7790422379
 30
0.0
 10
13.1390428884
 20
6.7792616184
 30
0.0
 10
13.1378693972
 20
6.7794955937
 30
0.0
 10
13.1368587293
 20
6.7796313386
 30
0.0
 10
13.1362861276
 20
6.7796977819
 30
0.0
  0
SPLINE
  5
39C
100
AcDbEntity
  8
0
100
AcDbSpline
 62
9
  6
CONTINUOUS
 70
0
 71
3
 72
14
 73
10
 74
0
 42
0.0000001
 43
0.0000001
 44
0.0000000001
 40
0.0
 40
0.0
 40
0.0
 40
0.0
 40
0.0276670472
 40
0.0614515436
 40
0.1471698845
 40
0.2555135408
 40
0.3831947265
 40
0.6784127001
 40
1.0
 40
1.0
 40
1.0
 40
1.0
 10
13.1362861276
 20
6.7796977819
 30
0.0
 10
13.1354681983
 20
6.7797926924
 30
0.0
 10
13.1336461274
 20
6.7799570814
 30
0.0
 10
13.1292731541
 20
6.7802129787
 30
0.0
 10
13.1224913474
 20
6.7803498112
 30
0.0
 10
13.1129155837
 20
6.780275257
 30
0.0
 10
13.097109528
 20
6.7798587657
 30
0.0
 10
13.0749768697
 20
6.7787827042
 30
0.0
 10
13.0566532809
 20
6.7776589258
 30
0.0
 10
13.0471079184
 20
6.7769592083
 30
0.0
  0
SPLINE
  5
39D
100
AcDbEntity
  8
0
100
AcDbSpline
 62
9
  6
CONTINUOUS
 70
0
 71
3
 72
9
 73
5
 74
0
 42
0.0000001
 43
0.0000001
 44
0.0000000001
 40
0.0
 40
0.0
 40
0.0
 40
0.0
 40
0.5181650866
 40
1.0
 40
1.0
 40
1.0
 40
1.0
 10
11.9769126053
 20
8.5053316065
 30
0.0
 10
11.9724059837
 20
8.506955743
 30
0.0
 10
11.9637778179
 20
8.5102846383
 30
0.0
 10
11.9553110821
 20
8.5140095805
 30
0.0
 10
11.9512925808
 20
8.5159315784
 30
0.0
  0
SPLINE
  5
39E
100
AcDbEntity
  8
0
100
AcDbSpline
 62
9
  6
CONTINUOUS
 70
0
 71
3
 72
11
 73
7
 74
0
 42
0.0000001
 43
0.0000001
 44
0.0000000001
 40
0.0
 40
0.0
 40
0.0
 40
0.0
 40
0.2437544489
 40
0.4924568251
 40
0.744902006
 40
1.0
 40
1.0
 40
1.0
 40
1.0
 10
12.9450887387
 20
8.9115540458
 30
0.0
 10
12.9466071704
 20
8.913845755
 30
0.0
 10
12.9497010479
 20
8.9184582331
 30
0.0
 10
12.9543455748
 20
8.9254589771
 30
0.0
 10
12.9589305377
 20
8.9326516242
 30
0.0
 10
12.96186039
 20
8.9375710489
 30
0.0
 10
12.9632774833
 20
8.9400748838
 30
0.0
  0
SPLINE
  5
39F
100
AcDbEntity
  8
0
100
AcDbSpline
 62
9
  6
CONTINUOUS
 70
0
 71
3
 72
11
 73
7
 74
0
 42
0.0000001
 43
0.0000001
 44
0.0000000001
 40
0.0
 40
0.0
 40
0.0
 40
0.0
 40
0.2415299721
 40
0.4969367036
 40
0.7539464656
 40
1.0
 40
1.0
 40
1.0
 40
1.0
 10
12.9450878428
 20
8.9115535169
 30
0.0
 10
12.943737922
 20
8.9136765875
 30
0.0
 10
12.9407117227
 20
8.9178889202
 30
0.0
 10
12.9355444825
 20
8.923818025
 30
0.0
 10
12.9297949808
 20
8.9292531156
 30
0.0
 10
12.9256660311
 20
8.9324953768
 30
0.0
 10
12.923568235
 20
8.9339678856
 30
0.0
  0
SPLINE
  5
3A0
100
AcDbEntity
  8
0
100
AcDbSpline
 62
9
  6
CONTINUOUS
 70
0
 71
3
 72
14
 73
10
 74
0
 42
0.0000001
 43
0.0000001
 44
0.0000000001
 40
0.0
 40
0.0
 40
0.0
 40
0.0
 40
0.2415879456
 40
0.3647479349
 40
0.4894232989
 40
0.6155290434
 40
0.7428699804
 40
0.871199167
 40
1.0
 40
1.0
 40
1.0
 40
1.0
 10
12.6960344295
 20
7.1665740152
 30
0.0
 10
12.654931004
 20
7.2417277366
 30
0.0
 10
12.5974308044
 20
7.357757514
 30
0.0
 10
12.5290370954
 20
7.5172694615
 30
0.0
 10
12.4810898871
 20
7.6409155217
 30
0.0
 10
12.4368245277
 20
7.7674927812
 30
0.0
 10
12.3963899915
 20
7.896704964
 30
0.0
 10
12.3599885702
 20
8.0281015277
 30
0.0
 10
12.3388358553
 20
8.1168131057
 30
0.0
 10
12.3291897528
 20
8.1614515688
 30
0.0
  0
SPLINE
  5
3A1
100
AcDbEntity
  8
0
100
AcDbSpline
 62
9
  6
CONTINUOUS
 70
0
 71
3
 72
18
 73
14
 74
0
 42
0.0000001
 43
0.0000001
 44
0.0000000001
 40
0.0
 40
0.0
 40
0.0
 40
0.0
 40
0.0230100053
 40
0.0517108744
 40
0.0864541078
 40
0.1274970945
 40
0.1749707603
 40
0.2286606101
 40
0.3534019769
 40
0.4985580113
 40
0.6587434599
 40
0.827948846
 40
1.0
 40
1.0
 40
1.0
 40
1.0
 10
12.4909016516
 20
8.8091663139
 30
0.0
 10
12.4908072757
 20
8.8096008802
 30
0.0
 10
12.490499981
 20
8.8105563824
 30
0.0
 10
12.4898119218
 20
8.8120808712
 30
0.0
 10
12.488835562
 20
8.813850544
 30
0.0
 10
12.4875609072
 20
8.81586418
 30
0.0
 10
12.485983087
 20
8.8181154357
 30
0.0
 10
12.4833479908
 20
8.8215973238
 30
0.0
 10
12.4793460461
 20
8.8264070411
 30
0.0
 10
12.4737587193
 20
8.8325630264
 30
0.0
 10
12.467376092
 20
8.8391508434
 30
0.0
 10
12.4604397257
 20
8.8459199921
 30
0.0
 10
12.4556123179
 20
8.8504145747
 30
0.0
 10
12.4531539685
 20
8.8526535001
 30
0.0
  0
SPLINE
  5
3A2
100
AcDbEntity
  8
0
100
AcDbSpline
 62
9
  6
CONTINUOUS
 70
0
 71
3
 72
9
 73
5
 74
0
 42
0.0000001
 43
0.0000001
 44
0.0000000001
 40
0.0
 40
0.0
 40
0.0
 40
0.0
 40
0.5271378372
 40
1.0
 40
1.0
 40
1.0
 40
1.0
 10
12.2056517816
 20
8.8373350944
 30
0.0
 10
12.2074846611
 20
8.8397382072
 30
0.0
 10
12.2105739741
 20
8.8446140185
 30
0.0
 10
12.2126228867
 20
8.8500229356
 30
0.0
 10
12.2132773321
 20
8.8526538911
 30
0.0
  0
LINE
  5
3A3
100
AcDbEntity
  8
0
100
AcDbLine
 62
9
  6
CONTINUOUS
 10
12.1552337112
 20
8.6710846721
 11
12.1552830615
 21
8.6740627536
  0
SPLINE
  5
3A4
100
AcDbEntity
  8
0
100
AcDbSpline
 62
9
  6
CONTINUOUS
 70
0
 71
3
 72
11
 73
7
 74
0
 42
0.0000001
 43
0.0000001
 44
0.0000000001
 40
0.0
 40
0.0
 40
0.0
 40
0.0
 40
0.2499796556
 40
0.4999676266
 40
0.7499786305
 40
1.0
 40
1.0
 40
1.0
 40
1.0
 10
12.4909010741
 20
8.8091655834
 30
0.0
 10
12.4742638901
 20
8.788634423
 30
0.0
 10
12.44433757
 20
8.7447206732
 30
0.0
 10
12.411128813
 20
8.6723256856
 30
0.0
 10
12.3906710161
 20
8.5953340831
 30
0.0
 10
12.3860685423
 20
8.5423615181
 30
0.0
 10
12.3860675255
 20
8.5159312794
 30
0.0
  0
SPLINE
  5
3A5
100
AcDbEntity
  8
0
100
AcDbSpline
 62
9
  6
CONTINUOUS
 70
0
 71
3
 72
73
 73
69
 74
0
 42
0.0000001
 43
0.0000001
 44
0.0000000001
 40
0.0
 40
0.0
 40
0.0
 40
0.0
 40
0.0296042682
 40
0.0594538412
 40
0.0895137817
 40
0.1197530025
 40
0.1501438692
 40
0.1806616819
 40
0.195961119
 40
0.2112839612
 40
0.2266275187
 40
0.2419889982
 40
0.2573653366
 40
0.2727529126
 40
0.2881470124
 40
0.3035407572
 40
0.3189226508
 40
0.3266029906
 40
0.3342704668
 40
0.3419175518
 40
0.349531291
 40
0.3570875206
 40
0.3608298993
 40
0.3645349517
 40
0.3681847751
 40
0.3717414462
 40
0.3734726663
 40
0.3751706784
 40
0.3768170474
 40
0.3776121854
 40
0.3783910374
 40
0.3799293586
 40
0.3814686264
 40
0.3830179517
 40
0.3846212575
 40
0.3863024126
 40
0.3880296306
 40
0.3897885858
 40
0.3915755359
 40
0.3952168863
 40
0.3989270077
 40
0.4026801185
 40
0.4064616548
 40
0.4102656928
 40
0.4140865421
 40
0.4217638912
 40
0.4294754303
 40
0.4372108115
 40
0.444963984
 40
0.4527311237
 40
0.4682980491
 40
0.4838995272
 40
0.4995295575
 40
0.5151850754
 40
0.5308645946
 40
0.5465675531
 40
0.5622939727
 40
0.5780442685
 40
0.6096194334
 40
0.6413007918
 40
0.673098122
 40
0.7050225084
 40
0.7370858721
 40
0.7693006216
 40
0.8016792563
 40
0.8669748017
 40
0.9330613662
 40
1.0
 40
1.0
 40
1.0
 40
1.0
 10
12.1975934818
 20
8.7105065992
 30
0.0
 10
12.1998757472
 20
8.705557138
 30
0.0
 10
12.2045178905
 20
8.6956441843
 30
0.0
 10
12.2116626506
 20
8.6807932368
 30
0.0
 10
12.2189972432
 20
8.6659047266
 30
0.0
 10
12.2265005644
 20
8.6509889462
 30
0.0
 10
12.2341540406
 20
8.6360549045
 30
0.0
 10
12.2406380017
 20
8.6236125663
 30
0.0
 10
12.2458871625
 20
8.6136551849
 30
0.0
 10
12.2498566926
 20
8.6061813545
 30
0.0
 10
12.2538544865
 20
8.5987096485
 30
0.0
 10
12.2578800671
 20
8.5912416849
 30
0.0
 10
12.2619335279
 20
8.5837795916
 30
0.0
 10
12.2660158209
 20
8.576326381
 30
0.0
 10
12.2701292219
 20
8.5688866204
 30
0.0
 10
12.2742783481
 20
8.5614679142
 30
0.0
 10
12.2777746074
 20
8.5553113477
 30
0.0
 10
12.2806057328
 20
8.5504131296
 30
0.0
 10
12.2827491473
 20
8.5467623038
 30
0.0
 10
12.28492027
 20
8.543142096
 30
0.0
 10
12.2871308925
 20
8.5395699193
 30
0.0
 10
12.2890269746
 20
8.5366488294
 30
0.0
 10
12.2906004337
 20
8.5343782497
 30
0.0
 10
12.2918107074
 20
8.5327316943
 30
0.0
 10
12.2930689658
 20
8.5311647904
 30
0.0
 10
12.2941880217
 20
8.5299546556
 30
0.0
 10
12.295142759
 20
8.529091389
 30
0.0
 10
12.2958795302
 20
8.5285155497
 30
0.0
 10
12.2965271739
 20
8.5281079819
 30
0.0
 10
12.2970704668
 20
8.5278674747
 30
0.0
 10
12.2976205704
 20
8.5277017613
 30
0.0
 10
12.2983314801
 20
8.5276222867
 30
0.0
 10
12.2991847866
 20
8.5276639763
 30
0.0
 10
12.3000350028
 20
8.5278511492
 30
0.0
 10
12.3008399426
 20
8.5282471422
 30
0.0
 10
12.3015916318
 20
8.5287853449
 30
0.0
 10
12.3023156726
 20
8.5294036039
 30
0.0
 10
12.3030124273
 20
8.5300803382
 30
0.0
 10
12.3039189726
 20
8.5310446271
 30
0.0
 10
12.3050046721
 20
8.5323315456
 30
0.0
 10
12.3062374742
 20
8.5339630736
 30
0.0
 10
12.3074369742
 20
8.5356505864
 30
0.0
 10
12.3086128741
 20
8.5373755332
 30
0.0
 10
12.3097677442
 20
8.5391295263
 30
0.0
 10
12.3112904736
 20
8.5414998191
 30
0.0
 10
12.3131649133
 20
8.5444989888
 30
0.0
 10
12.3153840165
 20
8.548132246
 30
0.0
 10
12.3175864011
 20
8.5517919473
 30
0.0
 10
12.3197779059
 20
8.5554700791
 30
0.0
 10
12.322692756
 20
8.5603955515
 30
0.0
 10
12.3263251884
 20
8.566575311
 30
0.0
 10
12.330679305
 20
8.5740100004
 30
0.0
 10
12.3350392918
 20
8.5814601541
 30
0.0
 10
12.3394104033
 20
8.5889204441
 30
0.0
 10
12.3437965514
 20
8.5963874813
 30
0.0
 10
12.3482009735
 20
8.6038589127
 30
0.0
 10
12.3526265365
 20
8.6113329919
 30
0.0
 10
12.3585637319
 20
8.6213079768
 30
0.0
 10
12.3660521369
 20
8.6337779709
 30
0.0
 10
12.3751580456
 20
8.6487223896
 30
0.0
 10
12.3844127594
 20
8.6636508859
 30
0.0
 10
12.3938396491
 20
8.6785546362
 30
0.0
 10
12.4034636132
 20
8.6934236061
 30
0.0
 10
12.4133110677
 20
8.7082462415
 30
0.0
 10
12.4268127492
 20
8.727983908
 30
0.0
 10
12.444403293
 20
8.752477325
 30
0.0
 10
12.4668016591
 20
8.7813237187
 30
0.0
 10
12.4826775599
 20
8.79998684
 30
0.0
 10
12.4909010741
 20
8.8091655834
 30
0.0
  0
SPLINE
  5
3A6
100
AcDbEntity
  8
0
100
AcDbSpline
 62
9
  6
CONTINUOUS
 70
0
 71
3
 72
11
 73
7
 74
0
 42
0.0000001
 43
0.0000001
 44
0.0000000001
 40
0.0
 40
0.0
 40
0.0
 40
0.0
 40
0.1972699476
 40
0.4290561519
 40
0.6968109428
 40
1.0
 40
1.0
 40
1.0
 40
1.0
 10
11.6939369687
 20
8.5053320558
 30
0.0
 10
11.694291987
 20
8.5062257696
 30
0.0
 10
11.6953290935
 20
8.5080645264
 30
0.0
 10
11.6974946258
 20
8.5106944781
 30
0.0
 10
11.7003523378
 20
8.5133801248
 30
0.0
 10
11.7025629283
 20
8.5150779317
 30
0.0
 10
11.7037687449
 20
8.5159325791
 30
0.0
  0
SPLINE
  5
3A7
100
AcDbEntity
  8
0
100
AcDbSpline
 62
9
  6
CONTINUOUS
 70
0
 71
3
 72
9
 73
5
 74
0
 42
0.0000001
 43
0.0000001
 44
0.0000000001
 40
0.0
 40
0.0
 40
0.0
 40
0.0
 40
0.4988450686
 40
1.0
 40
1.0
 40
1.0
 40
1.0
 10
12.2604586541
 20
8.3598915335
 30
0.0
 10
12.2605788692
 20
8.3270215101
 30
0.0
 10
12.2612264057
 20
8.261121259
 30
0.0
 10
12.2649671547
 20
8.1952985156
 30
0.0
 10
12.2677198502
 20
8.1623909993
 30
0.0
  0
SPLINE
  5
3A8
100
AcDbEntity
  8
0
100
AcDbSpline
 62
9
  6
CONTINUOUS
 70
0
 71
3
 72
26
 73
22
 74
0
 42
0.0000001
 43
0.0000001
 44
0.0000000001
 40
0.0
 40
0.0
 40
0.0
 40
0.0
 40
0.0651264104
 40
0.0976880936
 40
0.1302142503
 40
0.1626920588
 40
0.1951061801
 40
0.2274437113
 40
0.2596985008
 40
0.2918641277
 40
0.3239335846
 40
0.3877645405
 40
0.4511602418
 40
0.5140961764
 40
0.5765571288
 40
0.6385314298
 40
0.7000116708
 40
0.760992121
 40
0.8214719957
 40
0.8814617448
 40
1.0
 40
1.0
 40
1.0
 40
1.0
 10
12.2677192591
 20
8.1623903333
 30
0.0
 10
12.2697010952
 20
8.1396238131
 30
0.0
 10
12.2735130656
 20
8.1055418472
 30
0.0
 10
12.2800653247
 20
8.0603205622
 30
0.0
 10
12.285654861
 20
8.0265420901
 30
0.0
 10
12.2918434218
 20
7.9929217105
 30
0.0
 10
12.2985557158
 20
7.9594697256
 30
0.0
 10
12.3057328723
 20
7.926194634
 30
0.0
 10
12.313350634
 20
7.8931071979
 30
0.0
 10
12.3213800806
 20
7.8602141522
 30
0.0
 10
12.3325783076
 20
7.8166929083
 30
0.0
 10
12.3474859168
 20
7.7628151608
 30
0.0
 10
12.3667647654
 20
7.6989276703
 30
0.0
 10
12.3873228509
 20
7.6359459215
 30
0.0
 10
12.409101041
 20
7.573903906
 30
0.0
 10
12.4321157567
 20
7.5128549664
 30
0.0
 10
12.4563636713
 20
7.4528452815
 30
0.0
 10
12.4817705194
 20
7.3938881747
 30
0.0
 10
12.5083044929
 20
7.3360033162
 30
0.0
 10
12.5450691386
 20
7.2606182665
 30
0.0
 10
12.574604147
 20
7.2053333721
 30
0.0
 10
12.5951423541
 20
7.1691629997
 30
0.0
  0
LINE
  5
3A9
100
AcDbEntity
  8
0
100
AcDbLine
 62
9
  6
CONTINUOUS
 10
12.8591899922
 20
6.7784857427
 11
12.8592145719
 21
6.744891804
  0
LINE
  5
3AA
100
AcDbEntity
  8
0
100
AcDbLine
 62
9
  6
CONTINUOUS
 10
12.0474177399
 20
6.744968644
 11
12.0474177016
 21
6.7786952869
  0
SPLINE
  5
3AB
100
AcDbEntity
  8
0
100
AcDbSpline
 62
9
  6
CONTINUOUS
 70
0
 71
3
 72
9
 73
5
 74
0
 42
0.0000001
 43
0.0000001
 44
0.0000000001
 40
0.0
 40
0.0
 40
0.0
 40
0.0
 40
0.248179536
 40
1.0
 40
1.0
 40
1.0
 40
1.0
 10
12.1179218065
 20
8.5053322239
 30
0.0
 10
12.1207851013
 20
8.4993626071
 30
0.0
 10
12.1324664976
 20
8.4753780477
 30
0.0
 10
12.1446347813
 20
8.4516336282
 30
0.0
 10
12.1539178193
 20
8.4338546253
 30
0.0
  0
SPLINE
  5
3AC
100
AcDbEntity
  8
0
100
AcDbSpline
 62
9
  6
CONTINUOUS
 70
0
 71
3
 72
14
 73
10
 74
0
 42
0.0000001
 43
0.0000001
 44
0.0000000001
 40
0.0
 40
0.0
 40
0.0
 40
0.0
 40
0.1250668677
 40
0.2501708629
 40
0.3752750524
 40
0.5003560902
 40
0.6253989054
 40
0.7503794072
 40
1.0
 40
1.0
 40
1.0
 40
1.0
 10
12.260460183
 20
8.3598947268
 30
0.0
 10
12.2638531247
 20
8.3518190849
 30
0.0
 10
12.2705088901
 20
8.3356099269
 30
0.0
 10
12.2800826366
 20
8.3111306375
 30
0.0
 10
12.2892226197
 20
8.286484867
 30
0.0
 10
12.2979284711
 20
8.2616871918
 30
0.0
 10
12.3062446202
 20
8.2367654944
 30
0.0
 10
12.3168580223
 20
8.2034187598
 30
0.0
 10
12.3243514621
 20
8.1782723728
 30
0.0
 10
12.3291875051
 20
8.1614715716
 30
0.0
  0
SPLINE
  5
3AD
100
AcDbEntity
  8
0
100
AcDbSpline
 62
9
  6
CONTINUOUS
 70
0
 71
3
 72
14
 73
10
 74
0
 42
0.0000001
 43
0.0000001
 44
0.0000000001
 40
0.0
 40
0.0
 40
0.0
 40
0.0
 40
0.0916625027
 40
0.194691217
 40
0.3083712898
 40
0.4319252272
 40
0.5644145083
 40
0.7043592967
 40
1.0
 40
1.0
 40
1.0
 40
1.0
 10
12.3291875051
 20
8.1614715716
 30
0.0
 10
12.3273483467
 20
8.1618852431
 30
0.0
 10
12.323406316
 20
8.1626073015
 30
0.0
 10
12.3171095709
 20
8.1633837274
 30
0.0
 10
12.3101287664
 20
8.1639040983
 30
0.0
 10
12.3025273358
 20
8.1641537839
 30
0.0
 10
12.2943819503
 20
8.1641200842
 30
0.0
 10
12.2827051958
 20
8.1637038942
 30
0.0
 10
12.2737687571
 20
8.1630070801
 30
0.0
 10
12.2677198673
 20
8.1623921258
 30
0.0
  0
SPLINE
  5
3AE
100
AcDbEntity
  8
0
100
AcDbSpline
 62
9
  6
CONTINUOUS
 70
0
 71
3
 72
24
 73
20
 74
0
 42
0.0000001
 43
0.0000001
 44
0.0000000001
 40
0.0
 40
0.0
 40
0.0
 40
0.0
 40
0.2059045843
 40
0.403405796
 40
0.5842912506
 40
0.6651363373
 40
0.7376421272
 40
0.800508273
 40
0.8281835248
 40
0.8533594762
 40
0.8962567293
 40
0.9294060989
 40
0.9533870701
 40
0.96252531
 40
0.9702962055
 40
0.9772928297
 40
0.9841993381
 40
0.9916286925
 40
1.0
 40
1.0
 40
1.0
 40
1.0
 10
12.9794883866
 20
6.7769972355
 30
0.0
 10
12.9772111318
 20
6.7773468194
 30
0.0
 10
12.9727432232
 20
6.7779917105
 30
0.0
 10
12.9662520236
 20
6.7787764627
 30
0.0
 10
12.961132651
 20
6.7792349431
 30
0.0
 10
12.9573982948
 20
6.7794443968
 30
0.0
 10
12.9549795676
 20
6.7795131648
 30
0.0
 10
12.9531546029
 20
6.7794960723
 30
0.0
 10
12.9518611308
 20
6.7794327447
 30
0.0
 10
12.9507931254
 20
6.7793484069
 30
0.0
 10
12.9496677934
 20
6.7792043025
 30
0.0
 10
12.9485765227
 20
6.7789519323
 30
0.0
 10
12.9478824932
 20
6.7786648787
 30
0.0
 10
12.9475184631
 20
6.7783827463
 30
0.0
 10
12.9473492106
 20
6.7781714107
 30
0.0
 10
12.9472596175
 20
6.7779414631
 30
0.0
 10
12.9472500777
 20
6.7776989446
 30
0.0
 10
12.9473134955
 20
6.7774501865
 30
0.0
 10
12.9473936722
 20
6.7772913251
 30
0.0
 10
12.9474419074
 20
6.7772110301
 30
0.0
  0
SPLINE
  5
3AF
100
AcDbEntity
  8
0
100
AcDbSpline
 62
9
  6
CONTINUOUS
 70
0
 71
3
 72
14
 73
10
 74
0
 42
0.0000001
 43
0.0000001
 44
0.0000000001
 40
0.0
 40
0.0
 40
0.0
 40
0.0
 40
0.1282879002
 40
0.2561491114
 40
0.3831890493
 40
0.5091937027
 40
0.633979343
 40
0.7574372944
 40
1.0
 40
1.0
 40
1.0
 40
1.0
 10
12.343815195
 20
8.1614702601
 30
0.0
 10
12.3542161964
 20
8.1165385435
 30
0.0
 10
12.3765072392
 20
8.0271668233
 30
0.0
 10
12.4148200476
 20
7.8948123766
 30
0.0
 10
12.4576959928
 20
7.7647288238
 30
0.0
 10
12.5049034459
 20
7.6373339384
 30
0.0
 10
12.5562496572
 20
7.5129374593
 30
0.0
 10
12.6295920678
 20
7.352427968
 30
0.0
 10
12.6910191982
 20
7.2358671905
 30
0.0
 10
12.7346895208
 20
7.1603881757
 30
0.0
  0
SPLINE
  5
3B0
100
AcDbEntity
  8
0
100
AcDbSpline
 62
9
  6
CONTINUOUS
 70
0
 71
3
 72
9
 73
5
 74
0
 42
0.0000001
 43
0.0000001
 44
0.0000000001
 40
0.0
 40
0.0
 40
0.0
 40
0.0
 40
0.2516063151
 40
1.0
 40
1.0
 40
1.0
 40
1.0
 10
11.9409176324
 20
8.4338546224
 30
0.0
 10
11.9440242974
 20
8.4398045505
 30
0.0
 10
11.9563102685
 20
8.4634839166
 30
0.0
 10
11.9682793456
 20
8.4873307676
 30
0.0
 10
11.9769136454
 20
8.5053322187
 30
0.0
  0
SPLINE
  5
3B1
100
AcDbEntity
  8
0
100
AcDbSpline
 62
9
  6
CONTINUOUS
 70
0
 71
3
 72
13
 73
9
 74
0
 42
0.0000001
 43
0.0000001
 44
0.0000000001
 40
0.0
 40
0.0
 40
0.0
 40
0.0
 40
0.2538929685
 40
0.380380109
 40
0.5062317069
 40
0.6311834654
 40
0.7551717137
 40
1.0
 40
1.0
 40
1.0
 40
1.0
 10
11.9769129185
 20
8.5053325819
 30
0.0
 10
11.9806573502
 20
8.5131395687
 30
0.0
 10
11.9855386831
 20
8.5251925327
 30
0.0
 10
11.9909699967
 20
8.5415804708
 30
0.0
 10
11.9946096382
 20
8.553924235
 30
0.0
 10
11.9979154082
 20
8.566271908
 30
0.0
 10
12.0018975425
 20
8.5826344779
 30
0.0
 10
12.004508628
 20
8.5949414992
 30
0.0
 10
12.0061253813
 20
8.6031328498
 30
0.0
  0
LINE
  5
3B2
100
AcDbEntity
  8
0
100
AcDbLine
 62
9
  6
CONTINUOUS
 10
12.9795190243
 20
6.7448918019
 11
12.9794893436
 21
6.7769970534
  0
SPLINE
  5
3B3
100
AcDbEntity
  8
0
100
AcDbSpline
 62
9
  6
CONTINUOUS
 70
0
 71
3
 72
12
 73
8
 74
0
 42
0.0000001
 43
0.0000001
 44
0.0000000001
 40
0.0
 40
0.0
 40
0.0
 40
0.0
 40
0.2449204334
 40
0.4933086802
 40
0.618769357
 40
0.7450541955
 40
1.0
 40
1.0
 40
1.0
 40
1.0
 10
12.9794893677
 20
6.7769970556
 30
0.0
 10
12.9572056572
 20
6.8067856252
 30
0.0
 10
12.9134875625
 20
6.8676640684
 30
0.0
 10
12.8615061618
 20
6.945990958
 30
0.0
 10
12.8212070736
 20
7.0103906153
 30
0.0
 10
12.7815455675
 20
7.0763490802
 30
0.0
 10
12.7530078821
 20
7.1267508784
 30
0.0
 10
12.7344877028
 20
7.1607588345
 30
0.0
  0
SPLINE
  5
3B4
100
AcDbEntity
  8
0
100
AcDbSpline
 62
9
  6
CONTINUOUS
 70
0
 71
3
 72
9
 73
5
 74
0
 42
0.0000001
 43
0.0000001
 44
0.0000000001
 40
0.0
 40
0.0
 40
0.0
 40
0.0
 40
0.2462312893
 40
1.0
 40
1.0
 40
1.0
 40
1.0
 10
12.6990938395
 20
7.1609958045
 30
0.0
 10
12.6988695131
 20
7.1614034186
 30
0.0
 10
12.6979191991
 20
7.1630369702
 30
0.0
 10
12.6968120319
 20
7.164578782
 30
0.0
 10
12.6959039917
 20
7.1656760678
 30
0.0
  0
SPLINE
  5
3B5
100
AcDbEntity
  8
0
100
AcDbSpline
 62
9
  6
CONTINUOUS
 70
0
 71
3
 72
21
 73
17
 74
0
 42
0.0000001
 43
0.0000001
 44
0.0000000001
 40
0.0
 40
0.0
 40
0.0
 40
0.0
 40
0.0417843508
 40
0.0857431751
 40
0.1324080174
 40
0.1822417573
 40
0.2354457852
 40
0.2920983378
 40
0.3522165009
 40
0.415759853
 40
0.4824787995
 40
0.5519693811
 40
0.697359958
 40
0.7723259507
 40
0.8481198764
 40
1.0
 40
1.0
 40
1.0
 40
1.0
 10
12.695663539
 20
7.1659631233
 30
0.0
 10
12.6947081212
 20
7.1670899895
 30
0.0
 10
12.6925816027
 20
7.1692662465
 30
0.0
 10
12.6888831038
 20
7.1721569273
 30
0.0
 10
12.6846032059
 20
7.1747011262
 30
0.0
 10
12.679756177
 20
7.1768546376
 30
0.0
 10
12.674378599
 20
7.1786045556
 30
0.0
 10
12.6685084889
 20
7.179928644
 30
0.0
 10
12.6621866211
 20
7.1808055305
 30
0.0
 10
12.6554613397
 20
7.1812089351
 30
0.0
 10
12.6483938944
 20
7.1811476022
 30
0.0
 10
12.638456597
 20
7.1804565602
 30
0.0
 10
12.6283068229
 20
7.1788874431
 30
0.0
 10
12.6180975673
 20
7.1765498244
 30
0.0
 10
12.6077793821
 20
7.173704803
 30
0.0
 10
12.6001538557
 20
7.1710922997
 30
0.0
 10
12.5951424044
 20
7.1691628086
 30
0.0
  0
LINE
  5
3B6
100
AcDbEntity
  8
0
100
AcDbLine
 62
9
  6
CONTINUOUS
 10
13.0471381622
 20
6.744891804
 11
13.0471078368
 21
6.7769592037
  0
SPLINE
  5
3B7
100
AcDbEntity
  8
0
100
AcDbSpline
 62
9
  6
CONTINUOUS
 70
0
 71
3
 72
21
 73
17
 74
0
 42
0.0000001
 43
0.0000001
 44
0.0000000001
 40
0.0
 40
0.0
 40
0.0
 40
0.0
 40
0.005075527
 40
0.011288043
 40
0.018890385
 40
0.0280581034
 40
0.0515890115
 40
0.0826880188
 40
0.1217591698
 40
0.1690613763
 40
0.224676654
 40
0.2883336685
 40
0.4380807742
 40
0.6120418731
 40
0.8020701336
 40
1.0
 40
1.0
 40
1.0
 40
1.0
 10
12.947730912
 20
6.7769783547
 30
0.0
 10
12.9476399035
 20
6.7770984184
 30
0.0
 10
12.9473947958
 20
6.7773330224
 30
0.0
 10
12.9469178647
 20
6.7776317584
 30
0.0
 10
12.9462947225
 20
6.7779131605
 30
0.0
 10
12.945161541
 20
6.7783001159
 30
0.0
 10
12.9433117049
 20
6.7787230132
 30
0.0
 10
12.9405640781
 20
6.7791586829
 30
0.0
 10
12.9370970442
 20
6.779542167
 30
0.0
 10
12.9328937838
 20
6.7798594918
 30
0.0
 10
12.9279546112
 20
6.7800986934
 30
0.0
 10
12.9199719084
 20
6.7803205978
 30
0.0
 10
12.9084719158
 20
6.780341356
 30
0.0
 10
12.8932249611
 20
6.780030435
 30
0.0
 10
12.8765564721
 20
6.7794037689
 30
0.0
 10
12.8650552792
 20
6.7788168417
 30
0.0
 10
12.8591894243
 20
6.7784856016
 30
0.0
  0
SPLINE
  5
3B8
100
AcDbEntity
  8
0
100
AcDbSpline
 62
9
  6
CONTINUOUS
 70
0
 71
3
 72
9
 73
5
 74
0
 42
0.0000001
 43
0.0000001
 44
0.0000000001
 40
0.0
 40
0.0
 40
0.0
 40
0.0
 40
0.5181659656
 40
1.0
 40
1.0
 40
1.0
 40
1.0
 10
12.1179218929
 20
8.5053320439
 30
0.0
 10
12.1224287648
 20
8.5069562571
 30
0.0
 10
12.1310573912
 20
8.5102853183
 30
0.0
 10
12.1395245709
 20
8.514010468
 30
0.0
 10
12.1435432709
 20
8.5159325776
 30
0.0
  0
SPLINE
  5
3B9
100
AcDbEntity
  8
0
100
AcDbSpline
 62
9
  6
CONTINUOUS
 70
0
 71
3
 72
10
 73
6
 74
0
 42
0.0000001
 43
0.0000001
 44
0.0000000001
 40
0.0
 40
0.0
 40
0.0
 40
0.0
 40
0.4978366115
 40
0.7482287112
 40
1.0
 40
1.0
 40
1.0
 40
1.0
 10
12.3949118585
 20
8.1623903389
 30
0.0
 10
12.3850079857
 20
8.1954372776
 30
0.0
 10
12.3699625844
 20
8.2450633832
 30
0.0
 10
12.3481354845
 20
8.3108390895
 30
0.0
 10
12.3363293353
 20
8.3435807352
 30
0.0
 10
12.3301363894
 20
8.3598918939
 30
0.0
  0
SPLINE
  5
3BA
100
AcDbEntity
  8
0
100
AcDbSpline
 62
9
  6
CONTINUOUS
 70
0
 71
3
 72
13
 73
9
 74
0
 42
0.0000001
 43
0.0000001
 44
0.0000000001
 40
0.0
 40
0.0
 40
0.0
 40
0.0
 40
0.2482528515
 40
0.3742321506
 40
0.5002603062
 40
0.6260663862
 40
0.751451355
 40
1.0
 40
1.0
 40
1.0
 40
1.0
 10
12.1435414109
 20
8.5159309042
 30
0.0
 10
12.1420654102
 20
8.526777912
 30
0.0
 10
12.1403706897
 20
8.543201086
 30
0.0
 10
12.1386010067
 20
8.5651887085
 30
0.0
 10
12.1374150485
 20
8.5818069634
 30
0.0
 10
12.1363680302
 20
8.598407959
 30
0.0
 10
12.1351314855
 20
8.6204099263
 30
0.0
 10
12.1343485861
 20
8.636880679
 30
0.0
 10
12.1338733425
 20
8.647830384
 30
0.0
  0
LINE
  5
3BB
100
AcDbEntity
  8
0
100
AcDbLine
 62
9
  6
CONTINUOUS
 10
11.0476972081
 20
6.744891804
 11
11.0477275241
 21
6.776959177
  0
SPLINE
  5
3BC
100
AcDbEntity
  8
0
100
AcDbSpline
 62
9
  6
CONTINUOUS
 70
0
 71
3
 72
17
 73
13
 74
0
 42
0.0000001
 43
0.0000001
 44
0.0000000001
 40
0.0
 40
0.0
 40
0.0
 40
0.0
 40
0.0643759277
 40
0.1285210945
 40
0.2560198027
 40
0.3193910364
 40
0.3825171864
 40
0.5080417567
 40
0.6325888388
 40
0.756139431
 40
0.8786336786
 40
1.0
 40
1.0
 40
1.0
 40
1.0
 10
12.3949116629
 20
8.162391285
 30
0.0
 10
12.399872643
 20
8.1457769317
 30
0.0
 10
12.4096884007
 20
8.1125813877
 30
0.0
 10
12.4293041876
 20
8.0464734837
 30
0.0
 10
12.4494849385
 20
7.9808130527
 30
0.0
 10
12.4708048069
 20
7.9158057007
 30
0.0
 10
12.4928169204
 20
7.8515917009
 30
0.0
 10
12.5219016811
 20
7.7723919635
 30
0.0
 10
12.5594900192
 20
7.6790256248
 30
0.0
 10
12.5996899471
 20
7.5876434164
 30
0.0
 10
12.6424203124
 20
7.4983668102
 30
0.0
 10
12.6726672538
 20
7.4400486965
 30
0.0
 10
12.6881794469
 20
7.4112745119
 30
0.0
  0
SPLINE
  5
3BD
100
AcDbEntity
  8
0
100
AcDbSpline
 62
9
  6
CONTINUOUS
 70
0
 71
3
 72
14
 73
10
 74
0
 42
0.0000001
 43
0.0000001
 44
0.0000000001
 40
0.0
 40
0.0
 40
0.0
 40
0.0
 40
0.0787283142
 40
0.1720603518
 40
0.2796593338
 40
0.4010312146
 40
0.5354153476
 40
0.6812488948
 40
1.0
 40
1.0
 40
1.0
 40
1.0
 10
12.39491087
 20
8.1623910041
 30
0.0
 10
12.3936087928
 20
8.1627381774
 30
0.0
 10
12.3907135744
 20
8.1633108383
 30
0.0
 10
12.3859542334
 20
8.1638513384
 30
0.0
 10
12.3804416317
 20
8.1641326698
 30
0.0
 10
12.3742202219
 20
8.1641420902
 30
0.0
 10
12.367350105
 20
8.163869925
 30
0.0
 10
12.3571235567
 20
8.16312564
 30
0.0
 10
12.3492196276
 20
8.1622111461
 30
0.0
 10
12.3438141964
 20
8.1614703617
 30
0.0
  0
SPLINE
  5
3BE
100
AcDbEntity
  8
0
100
AcDbSpline
 62
9
  6
CONTINUOUS
 70
0
 71
3
 72
15
 73
11
 74
0
 42
0.0000001
 43
0.0000001
 44
0.0000000001
 40
0.0
 40
0.0
 40
0.0
 40
0.0
 40
0.122351242
 40
0.245690329
 40
0.3698552012
 40
0.4947253421
 40
0.6202434731
 40
0.7463594688
 40
0.8729829838
 40
1.0
 40
1.0
 40
1.0
 40
1.0
 10
12.3301337023
 20
8.3598945169
 30
0.0
 10
12.3306296305
 20
8.3517972732
 30
0.0
 10
12.3315986414
 20
8.3355357656
 30
0.0
 10
12.3330120174
 20
8.3110535263
 30
0.0
 10
12.3344175182
 20
8.286403554
 30
0.0
 10
12.3358658451
 20
8.2616112984
 30
0.0
 10
12.3374510948
 20
8.236697612
 30
0.0
 10
12.339266864
 20
8.2116828749
 30
0.0
 10
12.3413608807
 20
8.186590093
 30
0.0
 10
12.3429585095
 20
8.1698481577
 30
0.0
 10
12.3438137897
 20
8.1614699222
 30
0.0
  0
SPLINE
  5
3BF
100
AcDbEntity
  8
0
100
AcDbSpline
 62
9
  6
CONTINUOUS
 70
0
 71
3
 72
13
 73
9
 74
0
 42
0.0000001
 43
0.0000001
 44
0.0000000001
 40
0.0
 40
0.0
 40
0.0
 40
0.0
 40
0.2489056748
 40
0.3736531432
 40
0.49858897
 40
0.6237016669
 40
0.7489806969
 40
1.0
 40
1.0
 40
1.0
 40
1.0
 10
12.3438137897
 20
8.1614699222
 30
0.0
 10
12.3394966891
 20
8.1778128637
 30
0.0
 10
12.3331950283
 20
8.2023944311
 30
0.0
 10
12.325137034
 20
8.2352816775
 30
0.0
 10
12.3192570926
 20
8.2600463546
 30
0.0
 10
12.3135618503
 20
8.2848912529
 30
0.0
 10
12.306232901
 20
8.318144996
 30
0.0
 10
12.301052763
 20
8.3431710084
 30
0.0
 10
12.297733526
 20
8.359891804
 30
0.0
  0
SPLINE
  5
3C0
100
AcDbEntity
  8
0
100
AcDbSpline
 62
9
  6
CONTINUOUS
 70
0
 71
3
 72
9
 73
5
 74
0
 42
0.0000001
 43
0.0000001
 44
0.0000000001
 40
0.0
 40
0.0
 40
0.0
 40
0.0
 40
0.5066762354
 40
1.0
 40
1.0
 40
1.0
 40
1.0
 10
11.3603662856
 20
7.1607517576
 30
0.0
 10
11.3235274988
 20
7.0931969203
 30
0.0
 10
11.246464153
 20
6.9621872856
 30
0.0
 10
11.1602462041
 20
6.8369720738
 30
0.0
 10
11.1153528489
 20
6.7769938205
 30
0.0
  0
SPLINE
  5
3C1
100
AcDbEntity
  8
0
100
AcDbSpline
 62
9
  6
CONTINUOUS
 70
0
 71
3
 72
22
 73
18
 74
0
 42
0.0000001
 43
0.0000001
 44
0.0000000001
 40
0.0
 40
0.0
 40
0.0
 40
0.0
 40
0.1648141622
 40
0.2465474976
 40
0.3268174902
 40
0.4049081787
 40
0.4801192621
 40
0.5517766952
 40
0.6192567359
 40
0.6820749368
 40
0.7400905826
 40
0.7933020374
 40
0.8418103397
 40
0.8859351613
 40
0.9264165494
 40
0.9641357037
 40
1.0
 40
1.0
 40
1.0
 40
1.0
 10
11.3603583089
 20
7.1607553549
 30
0.0
 10
11.3551810812
 20
7.1634066229
 30
0.0
 10
11.3472978122
 20
7.1671127527
 30
0.0
 10
11.3365971872
 20
7.1714233356
 30
0.0
 10
11.3286102561
 20
7.1742616824
 30
0.0
 10
11.3207199453
 20
7.1766586458
 30
0.0
 10
11.3130141223
 20
7.1785846896
 30
0.0
 10
11.3055806291
 20
7.1800109121
 30
0.0
 10
11.2985043859
 20
7.1809097153
 30
0.0
 10
11.2918600598
 20
7.1812498424
 30
0.0
 10
11.2857127831
 20
7.1810440631
 30
0.0
 10
11.2801132416
 20
7.1803100023
 30
0.0
 10
11.2751053043
 20
7.1790640601
 30
0.0
 10
11.2707287276
 20
7.1773109
 30
0.0
 10
11.267001056
 20
7.175095078
 30
0.0
 10
11.2639248365
 20
7.1724676682
 30
0.0
 10
11.262278041
 20
7.170437072
 30
0.0
 10
11.261577528
 20
7.169382877
 30
0.0
  0
SPLINE
  5
3C2
100
AcDbEntity
  8
0
100
AcDbSpline
 62
9
  6
CONTINUOUS
 70
0
 71
3
 72
23
 73
19
 74
0
 42
0.0000001
 43
0.0000001
 44
0.0000000001
 40
0.0
 40
0.0
 40
0.0
 40
0.0
 40
0.1816257205
 40
0.2709496594
 40
0.3584475424
 40
0.5250682167
 40
0.6026391629
 40
0.6752206791
 40
0.7418810554
 40
0.8017934296
 40
0.854397817
 40
0.8991970194
 40
0.9359942479
 40
0.9648712255
 40
0.9763897295
 40
0.9860293629
 40
0.9938661521
 40
1.0
 40
1.0
 40
1.0
 40
1.0
 10
11.047727526
 20
6.7769591804
 30
0.0
 10
11.0420878427
 20
6.7773801934
 30
0.0
 10
11.0336692783
 20
6.7779385137
 30
0.0
 10
11.0225268007
 20
6.7785843414
 30
0.0
 10
11.0118483631
 20
6.7791602029
 30
0.0
 10
11.0015317852
 20
6.7796518528
 30
0.0
 10
10.9916746138
 20
6.7800089952
 30
0.0
 10
10.9849260602
 20
6.7801949394
 30
0.0
 10
10.9787256804
 20
6.7803020119
 30
0.0
 10
10.9731464055
 20
6.7803267353
 30
0.0
 10
10.9682480675
 20
6.7802708616
 30
0.0
 10
10.9640710573
 20
6.7801359521
 30
0.0
 10
10.9606372775
 20
6.7799246955
 30
0.0
 10
10.9582447202
 20
6.7796792996
 30
0.0
 10
10.9567057397
 20
6.7794343712
 30
0.0
 10
10.9558214155
 20
6.7792496988
 30
0.0
 10
10.9551129709
 20
6.7790515485
 30
0.0
 10
10.9547061389
 20
6.7788930051
 30
0.0
 10
10.9545354364
 20
6.7788073376
 30
0.0
  0
LINE
  5
3C3
100
AcDbEntity
  8
0
100
AcDbLine
 62
9
  6
CONTINUOUS
 10
10.9545354364
 20
6.7788073376
 11
10.9540879716
 21
6.7784962751
  0
SPLINE
  5
3C4
100
AcDbEntity
  8
0
100
AcDbSpline
 62
9
  6
CONTINUOUS
 70
0
 71
3
 72
22
 73
18
 74
0
 42
0.0000001
 43
0.0000001
 44
0.0000000001
 40
0.0
 40
0.0
 40
0.0
 40
0.0
 40
0.0286329815
 40
0.0580227429
 40
0.1178906929
 40
0.1786022061
 40
0.2400399093
 40
0.3020355679
 40
0.3644732288
 40
0.4272792337
 40
0.4903920205
 40
0.6171540466
 40
0.7445420875
 40
0.8084384282
 40
0.8723470756
 40
0.9362219932
 40
1.0
 40
1.0
 40
1.0
 40
1.0
 10
11.7037673738
 20
8.5159310294
 30
0.0
 10
11.7030705904
 20
8.5235067822
 30
0.0
 10
11.7013734104
 20
8.5388344508
 30
0.0
 10
11.6966523144
 20
8.5698074106
 30
0.0
 10
11.6878657296
 20
8.6087451438
 30
0.0
 10
11.6724668429
 20
8.6546765417
 30
0.0
 10
11.6522504303
 20
8.6993262197
 30
0.0
 10
11.6272916569
 20
8.7420434749
 30
0.0
 10
11.597838793
 20
8.782247574
 30
0.0
 10
11.5641384761
 20
8.8193748933
 30
0.0
 10
11.5140135887
 20
8.8641918323
 30
0.0
 10
11.44258006
 20
8.9101877225
 30
0.0
 10
11.3628702001
 20
8.9402322254
 30
0.0
 10
11.2963239211
 20
8.9537799416
 30
0.0
 10
11.2455192981
 20
8.9585901341
 30
0.0
 10
11.19453434
 20
8.9579190126
 30
0.0
 10
11.1607845747
 20
8.9538522896
 30
0.0
 10
11.1440939583
 20
8.9509231408
 30
0.0
  0
SPLINE
  5
3C5
100
AcDbEntity
  8
0
100
AcDbSpline
 62
9
  6
CONTINUOUS
 70
0
 71
3
 72
14
 73
10
 74
0
 42
0.0000001
 43
0.0000001
 44
0.0000000001
 40
0.0
 40
0.0
 40
0.0
 40
0.0
 40
0.3337464258
 40
0.4893265372
 40
0.6317238454
 40
0.7570841222
 40
0.8620298529
 40
0.9437403624
 40
1.0
 40
1.0
 40
1.0
 40
1.0
 10
12.0353462963
 20
8.9115149878
 30
0.0
 10
12.0353611153
 20
8.9454241185
 30
0.0
 10
12.035356547
 20
8.9951404378
 30
0.0
 10
12.0352930963
 20
9.0593244925
 30
0.0
 10
12.0352209031
 20
9.1023361784
 30
0.0
 10
12.0351251668
 20
9.1402032696
 30
0.0
 10
12.0350102907
 20
9.1719044283
 30
0.0
 10
12.0348778768
 20
9.1965846698
 30
0.0
 10
12.0347676586
 20
9.2106022929
 30
0.0
 10
12.0346972381
 20
9.2163179221
 30
0.0
  0
SPLINE
  5
3C6
100
AcDbEntity
  8
0
100
AcDbSpline
 62
9
  6
CONTINUOUS
 70
0
 71
3
 72
15
 73
11
 74
0
 42
0.0000001
 43
0.0000001
 44
0.0000000001
 40
0.0
 40
0.0
 40
0.0
 40
0.0
 40
0.024830708
 40
0.0562603671
 40
0.1379709441
 40
0.24291641
 40
0.3682763014
 40
0.5106732702
 40
0.6662532116
 40
1.0
 40
1.0
 40
1.0
 40
1.0
 10
12.0602934727
 20
9.2163179221
 30
0.0
 10
12.060255985
 20
9.2137953584
 30
0.0
 10
12.060186349
 20
9.2080796167
 30
0.0
 10
12.0600530521
 20
9.1940621621
 30
0.0
 10
12.0599038525
 20
9.1719047509
 30
0.0
 10
12.0597485027
 20
9.1402037772
 30
0.0
 10
12.059612473
 20
9.1023368208
 30
0.0
 10
12.0594992992
 20
9.0593252258
 30
0.0
 10
12.0593814545
 20
8.9951411267
 30
0.0
 10
12.0593414908
 20
8.945424696
 30
0.0
 10
12.0593346019
 20
8.9115154552
 30
0.0
  0
SPLINE
  5
3C7
100
AcDbEntity
  8
0
100
AcDbSpline
 62
9
  6
CONTINUOUS
 70
0
 71
3
 72
41
 73
37
 74
0
 42
0.0000001
 43
0.0000001
 44
0.0000000001
 40
0.0
 40
0.0
 40
0.0
 40
0.0
 40
0.0979619294
 40
0.1950856415
 40
0.2902938432
 40
0.3826790229
 40
0.4713834979
 40
0.5555598133
 40
0.6343775293
 40
0.7070876761
 40
0.7729838258
 40
0.8031798101
 40
0.8314428237
 40
0.8576998566
 40
0.8818885767
 40
0.9039554166
 40
0.9238470734
 40
0.9415106466
 40
0.9569035223
 40
0.9637385324
 40
0.9699940781
 40
0.9756662791
 40
0.9807512596
 40
0.9852451505
 40
0.9891443079
 40
0.9924469091
 40
0.9951520722
 40
0.9962803641
 40
0.9972590098
 40
0.9980879423
 40
0.9987671303
 40
0.9992966186
 40
0.9996766477
 40
0.9999081597
 40
0.999969703
 40
1.0
 40
1.0
 40
1.0
 40
1.0
 10
12.0593346019
 20
8.9115154552
 30
0.0
 10
12.0593332221
 20
8.9012275036
 30
0.0
 10
12.0593345168
 20
8.880739629
 30
0.0
 10
12.059348081
 20
8.8502530018
 30
0.0
 10
12.0593728203
 20
8.8203520515
 30
0.0
 10
12.0594085131
 20
8.7913353002
 30
0.0
 10
12.0594549643
 20
8.7634771331
 30
0.0
 10
12.059511625
 20
8.7370438415
 30
0.0
 10
12.0595779595
 20
8.7122903005
 30
0.0
 10
12.0596532324
 20
8.6894565757
 30
0.0
 10
12.0597247103
 20
8.6717291193
 30
0.0
 10
12.0597865894
 20
8.6586695006
 30
0.0
 10
12.0598333983
 20
8.6497727545
 30
0.0
 10
12.0598818614
 20
8.6415069094
 30
0.0
 10
12.0599318537
 20
8.6338918078
 30
0.0
 10
12.0599832264
 20
8.6269452229
 30
0.0
 10
12.0600358252
 20
8.6206839388
 30
0.0
 10
12.0600895214
 20
8.6151235919
 30
0.0
 10
12.0601366995
 20
8.6109344577
 30
0.0
 10
12.0601754428
 20
8.6079433809
 30
0.0
 10
12.0602035294
 20
8.6059731177
 30
0.0
 10
12.0602317826
 20
8.6041866653
 30
0.0
 10
12.0602601761
 20
8.6025852498
 30
0.0
 10
12.0602886782
 20
8.6011700738
 30
0.0
 10
12.060317242
 20
8.5999421278
 30
0.0
 10
12.0603458337
 20
8.5989020916
 30
0.0
 10
12.060370828
 20
8.5981530772
 30
0.0
 10
12.0603914122
 20
8.5976481193
 30
0.0
 10
12.0604058728
 20
8.5973401513
 30
0.0
 10
12.0604203184
 20
8.5970793284
 30
0.0
 10
12.0604345865
 20
8.5968659716
 30
0.0
 10
12.0604489074
 20
8.5966993042
 30
0.0
 10
12.060462277
 20
8.5965811688
 30
0.0
 10
12.0604752038
 20
8.5965098562
 30
0.0
 10
12.0604849951
 20
8.5964790129
 30
0.0
 10
12.0604920287
 20
8.5964698246
 30
0.0
 10
12.0604952098
 20
8.5964697608
 30
0.0
  0
SPLINE
  5
3C8
100
AcDbEntity
  8
0
100
AcDbSpline
 62
9
  6
CONTINUOUS
 70
0
 71
3
 72
14
 73
10
 74
0
 42
0.0000001
 43
0.0000001
 44
0.0000000001
 40
0.0
 40
0.0
 40
0.0
 40
0.0
 40
0.2461677642
 40
0.3746206427
 40
0.504104134
 40
0.6329008664
 40
0.7594254687
 40
0.8821070359
 40
1.0
 40
1.0
 40
1.0
 40
1.0
 10
12.1548266479
 20
9.1413816014
 30
0.0
 10
12.1618108178
 20
9.1394311364
 30
0.0
 10
12.1720811092
 20
9.134799824
 30
0.0
 10
12.1838245694
 20
9.1256359004
 30
0.0
 10
12.191605092
 20
9.1172364098
 30
0.0
 10
12.1977972862
 20
9.1076784353
 30
0.0
 10
12.202257812
 20
9.0974182851
 30
0.0
 10
12.2048450575
 20
9.0868695029
 30
0.0
 10
12.2054176529
 20
9.0797713614
 30
0.0
 10
12.2054177255
 20
9.0762985664
 30
0.0
  0
SPLINE
  5
3C9
100
AcDbEntity
  8
0
100
AcDbSpline
 62
9
  6
CONTINUOUS
 70
0
 71
3
 72
9
 73
5
 74
0
 42
0.0000001
 43
0.0000001
 44
0.0000000001
 40
0.0
 40
0.0
 40
0.0
 40
0.0
 40
0.2520738994
 40
1.0
 40
1.0
 40
1.0
 40
1.0
 10
11.5295950529
 20
8.8812656791
 30
0.0
 10
11.5364163282
 20
8.8758498473
 30
0.0
 10
11.5629540359
 20
8.853718191
 30
0.0
 10
11.5873432459
 20
8.8289795013
 30
0.0
 10
11.6039343434
 20
8.8091656757
 30
0.0
  0
SPLINE
  5
3CA
100
AcDbEntity
  8
0
100
AcDbSpline
 62
9
  6
CONTINUOUS
 70
0
 71
3
 72
13
 73
9
 74
0
 42
0.0000001
 43
0.0000001
 44
0.0000000001
 40
0.0
 40
0.0
 40
0.0
 40
0.0
 40
0.2539082889
 40
0.3803847149
 40
0.5062283888
 40
0.6311802781
 40
0.7551707298
 40
1.0
 40
1.0
 40
1.0
 40
1.0
 10
12.1179225354
 20
8.5053325885
 30
0.0
 10
12.1142065883
 20
8.513153563
 30
0.0
 10
12.1093477728
 20
8.5252136207
 30
0.0
 10
12.1039191548
 20
8.5416019983
 30
0.0
 10
12.1002730408
 20
8.5539428116
 30
0.0
 10
12.0969540494
 20
8.5662864479
 30
0.0
 10
12.0929489105
 20
8.5826431344
 30
0.0
 10
12.0903193507
 20
8.5949461527
 30
0.0
 10
12.0886942172
 20
8.6031357113
 30
0.0
  0
SPLINE
  5
3CB
100
AcDbEntity
  8
0
100
AcDbSpline
 62
9
  6
CONTINUOUS
 70
0
 71
3
 72
13
 73
9
 74
0
 42
0.0000001
 43
0.0000001
 44
0.0000000001
 40
0.0
 40
0.0
 40
0.0
 40
0.0
 40
0.2411426531
 40
0.3694468111
 40
0.4999967448
 40
0.6305471971
 40
0.7588527404
 40
1.0
 40
1.0
 40
1.0
 40
1.0
 10
11.1077421173
 20
8.9400774853
 30
0.0
 10
11.1080077312
 20
8.9442595899
 30
0.0
 10
11.1094444974
 20
8.9506551858
 30
0.0
 10
11.1132674189
 20
8.9584846844
 30
0.0
 10
11.1171550363
 20
8.9640610802
 30
0.0
 10
11.121899916
 20
8.9689289538
 30
0.0
 10
11.1288698536
 20
8.9741575013
 30
0.0
 10
11.1348806957
 20
8.9767726412
 30
0.0
 10
11.1389380859
 20
8.9778208807
 30
0.0
  0
SPLINE
  5
3CC
100
AcDbEntity
  8
0
100
AcDbSpline
 62
9
  6
CONTINUOUS
 70
0
 71
3
 72
15
 73
11
 74
0
 42
0.0000001
 43
0.0000001
 44
0.0000000001
 40
0.0
 40
0.0
 40
0.0
 40
0.0
 40
0.1250778261
 40
0.2501772812
 40
0.3752804468
 40
0.5003623778
 40
0.6254017417
 40
0.7503743094
 40
0.8752524607
 40
1.0
 40
1.0
 40
1.0
 40
1.0
 10
11.8343752626
 20
8.3598945158
 30
0.0
 10
11.8309469731
 20
8.3518329056
 30
0.0
 10
11.8242687488
 20
8.3356316688
 30
0.0
 10
11.8147375428
 20
8.3111349733
 30
0.0
 10
11.8056358241
 20
8.2864753985
 30
0.0
 10
11.7969242351
 20
8.2616799751
 30
0.0
 10
11.7885922096
 20
8.236764117
 30
0.0
 10
11.7806292149
 20
8.2117430077
 30
0.0
 10
11.772991452
 20
8.1866423681
 30
0.0
 10
11.7680739049
 20
8.169864439
 30
0.0
 10
11.7656499285
 20
8.1614702565
 30
0.0
  0
SPLINE
  5
3CD
100
AcDbEntity
  8
0
100
AcDbSpline
 62
9
  6
CONTINUOUS
 70
0
 71
3
 72
14
 73
10
 74
0
 42
0.0000001
 43
0.0000001
 44
0.0000000001
 40
0.0
 40
0.0
 40
0.0
 40
0.0
 40
0.2956411522
 40
0.4355860274
 40
0.5680753122
 40
0.6916291792
 40
0.8053091252
 40
0.9083376764
 40
1.0
 40
1.0
 40
1.0
 40
1.0
 10
11.8271160201
 20
8.1623913319
 30
0.0
 10
11.8210672041
 20
8.1630062741
 30
0.0
 10
11.8121308769
 20
8.1637030712
 30
0.0
 10
11.8004542719
 20
8.1641192413
 30
0.0
 10
11.7923089983
 20
8.1641529284
 30
0.0
 10
11.7847076769
 20
8.1639032329
 30
0.0
 10
11.7777269771
 20
8.163382855
 30
0.0
 10
11.7714303304
 20
8.1626064251
 30
0.0
 10
11.7674883631
 20
8.1618843662
 30
0.0
 10
11.765649235
 20
8.1614706952
 30
0.0
  0
SPLINE
  5
3CE
100
AcDbEntity
  8
0
100
AcDbSpline
 62
9
  6
CONTINUOUS
 70
0
 71
3
 72
21
 73
17
 74
0
 42
0.0000001
 43
0.0000001
 44
0.0000000001
 40
0.0
 40
0.0
 40
0.0
 40
0.0
 40
0.1517062832
 40
0.2274184104
 40
0.3023113927
 40
0.44759742
 40
0.5170632376
 40
0.5837796642
 40
0.6473440878
 40
0.7075018076
 40
0.764209471
 40
0.8174823601
 40
0.8673952972
 40
0.9141394299
 40
0.9581650327
 40
1.0
 40
1.0
 40
1.0
 40
1.0
 10
11.4996931552
 20
7.1691630424
 30
0.0
 10
11.4946981924
 20
7.1710861618
 30
0.0
 10
11.4870979744
 20
7.1736909851
 30
0.0
 10
11.476814135
 20
7.1765302915
 30
0.0
 10
11.4666369824
 20
7.1788661543
 30
0.0
 10
11.4565175826
 20
7.1804390974
 30
0.0
 10
11.4466071841
 20
7.1811404321
 30
0.0
 10
11.4395553201
 20
7.1812126296
 30
0.0
 10
11.4328417156
 20
7.1808237226
 30
0.0
 10
11.4265272932
 20
7.1799639863
 30
0.0
 10
11.4206603004
 20
7.1786591905
 30
0.0
 10
11.4152812102
 20
7.1769305538
 30
0.0
 10
11.4104277795
 20
7.1748003353
 30
0.0
 10
11.4061365006
 20
7.1722811163
 30
0.0
 10
11.4024227734
 20
7.1694153714
 30
0.0
 10
11.400282975
 20
7.1672556884
 30
0.0
 10
11.3993203107
 20
7.1661368394
 30
0.0
  0
SPLINE
  5
3CF
100
AcDbEntity
  8
0
100
AcDbSpline
 62
9
  6
CONTINUOUS
 70
0
 71
3
 72
25
 73
21
 74
0
 42
0.0000001
 43
0.0000001
 44
0.0000000001
 40
0.0
 40
0.0
 40
0.0
 40
0.0
 40
0.0651268892
 40
0.1302122059
 40
0.162689991
 40
0.1951041033
 40
0.2274416771
 40
0.2596965359
 40
0.2918622673
 40
0.3239318516
 40
0.3877630798
 40
0.4511592032
 40
0.5140955104
 40
0.5765568252
 40
0.6385313608
 40
0.7000114096
 40
0.7609918235
 40
0.821471972
 40
0.8814623106
 40
1.0
 40
1.0
 40
1.0
 40
1.0
 10
11.8271157654
 20
8.1623916109
 30
0.0
 10
11.8251458766
 20
8.1396239342
 30
0.0
 10
11.8200577556
 20
8.0941970081
 30
0.0
 10
11.8112449353
 20
8.0377793938
 30
0.0
 10
11.802989834
 20
7.9929225568
 30
0.0
 10
11.7962791503
 20
7.9594702384
 30
0.0
 10
11.7891027153
 20
7.9261950461
 30
0.0
 10
11.7814853939
 20
7.8931074987
 30
0.0
 10
11.7734561522
 20
7.8602143693
 30
0.0
 10
11.7622582469
 20
7.8166929597
 30
0.0
 10
11.7473513198
 20
7.7628148479
 30
0.0
 10
11.7280727749
 20
7.6989270192
 30
0.0
 10
11.7075132399
 20
7.6359454267
 30
0.0
 10
11.6857290726
 20
7.5739052983
 30
0.0
 10
11.6627148418
 20
7.5128562578
 30
0.0
 10
11.6384745504
 20
7.4528436572
 30
0.0
 10
11.6130713313
 20
7.3938850531
 30
0.0
 10
11.5865357323
 20
7.3360007686
 30
0.0
 10
11.5497595459
 20
7.2606210593
 30
0.0
 10
11.5202092048
 20
7.2053456571
 30
0.0
 10
11.4996931552
 20
7.1691630424
 30
0.0
  0
SPLINE
  5
3D0
100
AcDbEntity
  8
0
100
AcDbSpline
 62
9
  6
CONTINUOUS
 70
0
 71
3
 72
9
 73
5
 74
0
 42
0.0000001
 43
0.0000001
 44
0.0000000001
 40
0.0
 40
0.0
 40
0.0
 40
0.0
 40
0.5011577281
 40
1.0
 40
1.0
 40
1.0
 40
1.0
 10
11.8271182317
 20
8.1623906667
 30
0.0
 10
11.8298718808
 20
8.195298353
 30
0.0
 10
11.8336109585
 20
8.2611214568
 30
0.0
 10
11.8342540877
 20
8.3270217866
 30
0.0
 10
11.8343774978
 20
8.3598916782
 30
0.0
  0
LINE
  5
3D1
100
AcDbEntity
  8
0
100
AcDbLine
 62
9
  6
CONTINUOUS
 10
11.2356214242
 20
6.744891804
 11
11.2356460823
 21
6.7784857355
  0
SPLINE
  5
3D2
100
AcDbEntity
  8
0
100
AcDbSpline
 62
9
  6
CONTINUOUS
 70
0
 71
3
 72
9
 73
5
 74
0
 42
0.0000001
 43
0.0000001
 44
0.0000000001
 40
0.0
 40
0.0
 40
0.0
 40
0.0
 40
0.513553802
 40
1.0
 40
1.0
 40
1.0
 40
1.0
 10
12.2132773794
 20
8.8526539356
 30
0.0
 10
12.2117293654
 20
8.8622807442
 30
0.0
 10
12.2089488224
 20
8.8810655023
 30
0.0
 10
12.2069907075
 20
8.8999618807
 30
0.0
 10
12.2063405062
 20
8.9091747691
 30
0.0
  0
SPLINE
  5
3D3
100
AcDbEntity
  8
0
100
AcDbSpline
 62
9
  6
CONTINUOUS
 70
0
 71
3
 72
39
 73
35
 74
0
 42
0.0000001
 43
0.0000001
 44
0.0000000001
 40
0.0
 40
0.0
 40
0.0
 40
0.0
 40
0.0311887585
 40
0.0624041203
 40
0.0936347458
 40
0.1248781969
 40
0.1561326641
 40
0.1873979592
 40
0.2186741175
 40
0.2499556413
 40
0.2812416582
 40
0.3125319803
 40
0.3438241195
 40
0.3751196868
 40
0.4064159883
 40
0.4377106834
 40
0.4690049927
 40
0.5002953213
 40
0.5315809527
 40
0.5628621935
 40
0.5941355774
 40
0.625402249
 40
0.656661068
 40
0.687909696
 40
0.7191504429
 40
0.750381435
 40
0.7816027182
 40
0.8128166843
 40
0.8440221263
 40
0.8752219252
 40
0.9064175467
 40
0.9376099383
 40
0.9688035429
 40
1.0
 40
1.0
 40
1.0
 40
1.0
 10
10.8078959802
 20
9.1413825034
 30
0.0
 10
10.7998848988
 20
9.1392958783
 30
0.0
 10
10.7840613277
 20
9.1342823158
 30
0.0
 10
10.7612303125
 20
9.1243561159
 30
0.0
 10
10.7395374
 20
9.1121038743
 30
0.0
 10
10.7192376526
 20
9.0976441326
 30
0.0
 10
10.7005403833
 20
9.0811501784
 30
0.0
 10
10.683670244
 20
9.0627789163
 30
0.0
 10
10.668810008
 20
9.042738944
 30
0.0
 10
10.6561184031
 20
9.0212525521
 30
0.0
 10
10.6457639992
 20
8.9985430651
 30
0.0
 10
10.6378400016
 20
8.9748733179
 30
0.0
 10
10.6324459103
 20
8.9504986652
 30
0.0
 10
10.629654106
 20
8.9256898795
 30
0.0
 10
10.6294711243
 20
8.9007244369
 30
0.0
 10
10.6319261508
 20
8.8758790521
 30
0.0
 10
10.6369790115
 20
8.8514319134
 30
0.0
 10
10.6445618747
 20
8.827649491
 30
0.0
 10
10.6546133472
 20
8.8048045075
 30
0.0
 10
10.6669934654
 20
8.7831389534
 30
0.0
 10
10.6815728733
 20
8.762893195
 30
0.0
 10
10.6981941127
 20
8.7442961387
 30
0.0
 10
10.7166526775
 20
8.7275312028
 30
0.0
 10
10.736760739
 20
8.7127960314
 30
0.0
 10
10.7582866606
 20
8.7002391571
 30
0.0
 10
10.7809908484
 20
8.6899814879
 30
0.0
 10
10.8046346545
 20
8.6821515908
 30
0.0
 10
10.828952802
 20
8.6768046421
 30
0.0
 10
10.8536884771
 20
8.6740018339
 30
0.0
 10
10.8785759641
 20
8.6737781945
 30
0.0
 10
10.9033512482
 20
8.6761100981
 30
0.0
 10
10.9277516054
 20
8.6809938574
 30
0.0
 10
10.9515156789
 20
8.6883653797
 30
0.0
 10
10.9667762037
 20
8.6948853907
 30
0.0
 10
10.9742114782
 20
8.6985298331
 30
0.0
  0
LINE
  5
3D4
100
AcDbEntity
  8
0
100
AcDbLine
 62
9
  6
CONTINUOUS
 10
12.2054177255
 20
9.2093933254
 11
12.2055372486
 21
9.2103875031
  0
SPLINE
  5
3D5
100
AcDbEntity
  8
0
100
AcDbSpline
 62
9
  6
CONTINUOUS
 70
0
 71
3
 72
29
 73
25
 74
0
 42
0.0000001
 43
0.0000001
 44
0.0000000001
 40
0.0
 40
0.0
 40
0.0
 40
0.0
 40
0.0027304107
 40
0.0056522649
 40
0.0088563181
 40
0.0124105453
 40
0.0207426957
 40
0.0309032531
 40
0.0430124697
 40
0.0571313424
 40
0.0732898672
 40
0.0915007247
 40
0.1117599604
 40
0.1340314062
 40
0.1844159934
 40
0.2422459296
 40
0.3070825513
 40
0.3784322235
 40
0.4556271343
 40
0.5379516516
 40
0.6246862319
 40
0.7150893663
 40
0.8083389494
 40
1.0
 40
1.0
 40
1.0
 40
1.0
 10
12.2055372835
 20
9.2103875165
 30
0.0
 10
12.2056074296
 20
9.2106633375
 30
0.0
 10
12.2058163916
 20
9.2112195267
 30
0.0
 10
12.2063049535
 20
9.2120081981
 30
0.0
 10
12.2069709116
 20
9.2127711586
 30
0.0
 10
12.2081563
 20
9.2138105731
 30
0.0
 10
12.2101216156
 20
9.2150275587
 30
0.0
 10
12.2130404951
 20
9.2163264453
 30
0.0
 10
12.2166400742
 20
9.217536024
 30
0.0
 10
12.2209170832
 20
9.2186531834
 30
0.0
 10
12.2258687658
 20
9.2196745464
 30
0.0
 10
12.23148911
 20
9.2205960467
 30
0.0
 10
12.2377683307
 20
9.2214139009
 30
0.0
 10
12.2474032576
 20
9.2224055846
 30
0.0
 10
12.2609766506
 20
9.2233309225
 30
0.0
 10
12.2790049883
 20
9.2239762974
 30
0.0
 10
12.2992289133
 20
9.2241804024
 30
0.0
 10
12.3214704047
 20
9.2239334491
 30
0.0
 10
12.3455259255
 20
9.2232435138
 30
0.0
 10
12.3711701001
 20
9.2221181929
 30
0.0
 10
12.3981709962
 20
9.2205659691
 30
0.0
 10
12.4262863294
 20
9.2185969393
 30
0.0
 10
12.4652779376
 20
9.2154186746
 30
0.0
 10
12.4948372902
 20
9.212530014
 30
0.0
 10
12.5146996213
 20
9.210387493
 30
0.0
  0
SPLINE
  5
3D6
100
AcDbEntity
  8
0
100
AcDbSpline
 62
9
  6
CONTINUOUS
 70
0
 71
3
 72
24
 73
20
 74
0
 42
0.0000001
 43
0.0000001
 44
0.0000000001
 40
0.0
 40
0.0
 40
0.0
 40
0.0
 40
0.1980079248
 40
0.2945719081
 40
0.3881448085
 40
0.5621056989
 40
0.6404694144
 40
0.7118457249
 40
0.775455834
 40
0.8309953228
 40
0.8782797142
 40
0.9173463598
 40
0.9484733003
 40
0.9611680199
 40
0.9720490604
 40
0.981220999
 40
0.9888113216
 40
0.9949890871
 40
1.0
 40
1.0
 40
1.0
 40
1.0
 10
11.2356461614
 20
6.7784855807
 30
0.0
 10
11.2297795492
 20
6.7788431778
 30
0.0
 10
11.2210460621
 20
6.7792811164
 30
0.0
 10
11.2095333879
 20
6.7797293331
 30
0.0
 10
11.1987316032
 20
6.7800831773
 30
0.0
 10
11.1884657206
 20
6.7803013465
 30
0.0
 10
11.1788570295
 20
6.7803252326
 30
0.0
 10
11.1725242843
 20
6.7802546451
 30
0.0
 10
11.166870723
 20
6.7800979512
 30
0.0
 10
11.1619357568
 20
6.7798601555
 30
0.0
 10
11.1577350435
 20
6.7795451854
 30
0.0
 10
11.1542685265
 20
6.7791599786
 30
0.0
 10
11.1518370273
 20
6.7787728249
 30
0.0
 10
11.1502503362
 20
6.7784257491
 30
0.0
 10
11.1493115444
 20
6.7781716183
 30
0.0
 10
11.1485346905
 20
6.7779050937
 30
0.0
 10
11.1479125953
 20
6.7776245287
 30
0.0
 10
11.1474379799
 20
6.7773284926
 30
0.0
 10
11.1471943342
 20
6.777096595
 30
0.0
 10
11.1471044824
 20
6.7769780617
 30
0.0
  0
SPLINE
  5
3D7
100
AcDbEntity
  8
0
100
AcDbSpline
 62
9
  6
CONTINUOUS
 70
0
 71
3
 72
10
 73
6
 74
0
 42
0.0000001
 43
0.0000001
 44
0.0000000001
 40
0.0
 40
0.0
 40
0.0
 40
0.0
 40
0.2508078388
 40
0.5012408462
 40
1.0
 40
1.0
 40
1.0
 40
1.0
 10
12.5234177256
 20
8.9339359834
 30
0.0
 10
12.5169577436
 20
8.927679703
 30
0.0
 10
12.5043075266
 20
8.9149031826
 30
0.0
 10
12.4802005679
 20
8.8883530343
 30
0.0
 10
12.4635074509
 20
8.8672356233
 30
0.0
 10
12.4531541808
 20
8.8526539356
 30
0.0
  0
SPLINE
  5
3D8
100
AcDbEntity
  8
0
100
AcDbSpline
 62
9
  6
CONTINUOUS
 70
0
 71
3
 72
73
 73
69
 74
0
 42
0.0000001
 43
0.0000001
 44
0.0000000001
 40
0.0
 40
0.0
 40
0.0
 40
0.0
 40
0.0659032045
 40
0.1314776094
 40
0.164153936
 40
0.1967600101
 40
0.2292994411
 40
0.2617750155
 40
0.2941884532
 40
0.3265401934
 40
0.3588290701
 40
0.3749490664
 40
0.3910518025
 40
0.4071362162
 40
0.4232007225
 40
0.4392428094
 40
0.4552581233
 40
0.4632533489
 40
0.4712380193
 40
0.4792091045
 40
0.4871612294
 40
0.4911272147
 40
0.4950836745
 40
0.4990268965
 40
0.5029504267
 40
0.5049013912
 40
0.50684184
 40
0.5087676002
 40
0.5106726094
 40
0.5125434871
 40
0.5134587141
 40
0.5143541532
 40
0.5152233962
 40
0.5160556252
 40
0.516840287
 40
0.5175853469
 40
0.5183278053
 40
0.5191094298
 40
0.5199363834
 40
0.5208004365
 40
0.5216904597
 40
0.5226002435
 40
0.5244596629
 40
0.5263522011
 40
0.5282658971
 40
0.5301936797
 40
0.5321315102
 40
0.5360273599
 40
0.5399407014
 40
0.5438649383
 40
0.547796252
 40
0.5556713828
 40
0.5635549421
 40
0.5714412451
 40
0.5793270216
 40
0.5950893408
 40
0.6108316991
 40
0.6265481596
 40
0.6422345111
 40
0.6735033572
 40
0.7046134396
 40
0.7355402328
 40
0.7662573336
 40
0.796735391
 40
0.8269413713
 40
0.8863823295
 40
0.944219897
 40
1.0
 40
1.0
 40
1.0
 40
1.0
 10
12.4531541808
 20
8.8526539356
 30
0.0
 10
12.4443093354
 20
8.8401966532
 30
0.0
 10
12.4274702464
 20
8.8147637263
 30
0.0
 10
12.4082969188
 20
8.781871651
 30
0.0
 10
12.3939989953
 20
8.7551141668
 30
0.0
 10
12.3837701242
 20
8.7348725326
 30
0.0
 10
12.3739908376
 20
8.7144619652
 30
0.0
 10
12.3646286653
 20
8.6939060205
 30
0.0
 10
12.3556522323
 20
8.6732263864
 30
0.0
 10
12.3470310553
 20
8.6524432128
 30
0.0
 10
12.3401143057
 20
8.6350447869
 30
0.0
 10
12.3347281091
 20
8.6210929775
 30
0.0
 10
12.3307598956
 20
8.6106207853
 30
0.0
 10
12.3268564991
 20
8.6001380051
 30
0.0
 10
12.3230125181
 20
8.5896482763
 30
0.0
 10
12.3192208567
 20
8.5791565695
 30
0.0
 10
12.3160946736
 20
8.5704135038
 30
0.0
 10
12.3136047411
 20
8.563426671
 30
0.0
 10
12.3117398409
 20
8.5581968153
 30
0.0
 10
12.3098703037
 20
8.5529792286
 30
0.0
 10
12.3082987049
 20
8.5486445145
 30
0.0
 10
12.3070230005
 20
8.5451925818
 30
0.0
 10
12.3060536444
 20
8.5426182675
 30
0.0
 10
12.3050643351
 20
8.5400620893
 30
0.0
 10
12.3042128851
 20
8.5379512109
 30
0.0
 10
12.3035056809
 20
8.5362831946
 30
0.0
 10
12.3029593834
 20
8.5350501586
 30
0.0
 10
12.3023896854
 20
8.5338394194
 30
0.0
 10
12.3017909452
 20
8.5326608084
 30
0.0
 10
12.3012514772
 20
8.5317154227
 30
0.0
 10
12.3007797721
 20
8.5310036831
 30
0.0
 10
12.3004053634
 20
8.5305073352
 30
0.0
 10
12.3000046338
 20
8.5300567126
 30
0.0
 10
12.2995686609
 20
8.5296764608
 30
0.0
 10
12.2990875328
 20
8.5294025724
 30
0.0
 10
12.298558644
 20
8.5292983157
 30
0.0
 10
12.298030965
 20
8.529403345
 30
0.0
 10
12.2975512612
 20
8.5296748004
 30
0.0
 10
12.2971199288
 20
8.5300559048
 30
0.0
 10
12.2967243507
 20
8.5305061189
 30
0.0
 10
12.2963570467
 20
8.5310032149
 30
0.0
 10
12.2958962641
 20
8.5317159089
 30
0.0
 10
12.2953706253
 20
8.5326612526
 30
0.0
 10
12.2947888091
 20
8.5338390496
 30
0.0
 10
12.2942404751
 20
8.5350501814
 30
0.0
 10
12.2937160234
 20
8.5362831324
 30
0.0
 10
12.2930405766
 20
8.5379509052
 30
0.0
 10
12.2922331208
 20
8.5400615003
 30
0.0
 10
12.2913027788
 20
8.5426176107
 30
0.0
 10
12.2903988741
 20
8.5451918826
 30
0.0
 10
12.2892194612
 20
8.5486426729
 30
0.0
 10
12.2877842886
 20
8.5529758946
 30
0.0
 10
12.2861035168
 20
8.5581933582
 30
0.0
 10
12.2844532187
 20
8.56342312
 30
0.0
 10
12.2822857645
 20
8.5704048617
 30
0.0
 10
12.2796279768
 20
8.5791412493
 30
0.0
 10
12.2765017644
 20
8.5896323981
 30
0.0
 10
12.2734309498
 20
8.6001215413
 30
0.0
 10
12.2694081966
 20
8.6140823415
 30
0.0
 10
12.2644988847
 20
8.6315013179
 30
0.0
 10
12.2587774925
 20
8.6523615805
 30
0.0
 10
12.2532296031
 20
8.6731362971
 30
0.0
 10
12.2478579848
 20
8.6938059295
 30
0.0
 10
12.2426702264
 20
8.714350215
 30
0.0
 10
12.2360513594
 20
8.7414001924
 30
0.0
 10
12.228320571
 20
8.7747072472
 30
0.0
 10
12.2200457119
 20
8.8139667145
 30
0.0
 10
12.2153309756
 20
8.8398868875
 30
0.0
 10
12.2132773794
 20
8.8526539356
 30
0.0
  0
LINE
  5
3D9
100
AcDbEntity
  8
0
100
AcDbLine
 62
9
  6
CONTINUOUS
 10
11.1153165776
 20
6.744891802
 11
11.1153462213
 21
6.7769970322
  0
SPLINE
  5
3DA
100
AcDbEntity
  8
0
100
AcDbSpline
 62
9
  6
CONTINUOUS
 70
0
 71
3
 72
15
 73
11
 74
0
 42
0.0000001
 43
0.0000001
 44
0.0000000001
 40
0.0
 40
0.0
 40
0.0
 40
0.0
 40
0.2433377416
 40
0.3069476376
 40
0.3712156135
 40
0.5006216546
 40
0.6299333496
 40
0.6940884458
 40
0.7575466534
 40
1.0
 40
1.0
 40
1.0
 40
1.0
 10
12.1548799096
 20
9.2773596406
 30
0.0
 10
12.1618818609
 20
9.2753388241
 30
0.0
 10
12.1704027308
 20
9.2713637278
 30
0.0
 10
12.1793516604
 20
9.2647625633
 30
0.0
 10
12.1851687516
 20
9.2596965807
 30
0.0
 10
12.1916702328
 20
9.2524700761
 30
0.0
 10
12.1968522501
 20
9.2442496677
 30
0.0
 10
12.200136251
 20
9.2372816316
 30
0.0
 10
12.2040330983
 20
9.2269034162
 30
0.0
 10
12.2055196562
 20
9.2176487285
 30
0.0
 10
12.2055372493
 20
9.2103875058
 30
0.0
  0
SPLINE
  5
3DB
100
AcDbEntity
  8
0
100
AcDbSpline
 62
9
  6
CONTINUOUS
 70
0
 71
3
 72
10
 73
6
 74
0
 42
0.0000001
 43
0.0000001
 44
0.0000000001
 40
0.0
 40
0.0
 40
0.0
 40
0.0
 40
0.2517748165
 40
0.5021660505
 40
1.0
 40
1.0
 40
1.0
 40
1.0
 10
11.7646995238
 20
8.3598917216
 30
0.0
 10
11.758504572
 20
8.3435810733
 30
0.0
 10
11.7466980269
 20
8.3108393238
 30
0.0
 10
11.7248746481
 20
8.2450624662
 30
0.0
 10
11.7098252607
 20
8.1954378766
 30
0.0
 10
11.6999229856
 20
8.1623906715
 30
0.0
  0
SPLINE
  5
3DC
100
AcDbEntity
  8
0
100
AcDbSpline
 62
9
  6
CONTINUOUS
 70
0
 71
3
 72
17
 73
13
 74
0
 42
0.0000001
 43
0.0000001
 44
0.0000000001
 40
0.0
 40
0.0
 40
0.0
 40
0.0
 40
0.0643670646
 40
0.1285060127
 40
0.2559940428
 40
0.3193611865
 40
0.3824841689
 40
0.5080052418
 40
0.6325534615
 40
0.7561120823
 40
0.8786185999
 40
1.0
 40
1.0
 40
1.0
 40
1.0
 10
11.6999250439
 20
8.1623900054
 30
0.0
 10
11.6949831257
 20
8.1458431882
 30
0.0
 10
11.6852060873
 20
8.1127815412
 30
0.0
 10
11.6656707571
 20
8.0469381792
 30
0.0
 10
11.6455773311
 20
7.9815378306
 30
0.0
 10
11.6243573517
 20
7.9167842991
 30
0.0
 10
11.6024522092
 20
7.8528172552
 30
0.0
 10
11.5735155149
 20
7.7739162655
 30
0.0
 10
11.5361260917
 20
7.6808925595
 30
0.0
 10
11.4961455879
 20
7.5898341404
 30
0.0
 10
11.4536533777
 20
7.5008621893
 30
0.0
 10
11.4235772215
 20
7.4427367057
 30
0.0
 10
11.4081531719
 20
7.4140556155
 30
0.0
  0
LINE
  5
3DD
100
AcDbEntity
  8
0
100
AcDbLine
 62
9
  6
CONTINUOUS
 10
11.4081531719
 20
7.4140556155
 11
11.4066152298
 21
7.4111994266
  0
SPLINE
  5
3DE
100
AcDbEntity
  8
0
100
AcDbSpline
 62
9
  6
CONTINUOUS
 70
0
 71
3
 72
14
 73
10
 74
0
 42
0.0000001
 43
0.0000001
 44
0.0000000001
 40
0.0
 40
0.0
 40
0.0
 40
0.0
 40
0.1287987013
 40
0.2571279984
 40
0.3844679556
 40
0.510571422
 40
0.6352463112
 40
0.7584077314
 40
1.0
 40
1.0
 40
1.0
 40
1.0
 10
11.7656498693
 20
8.1614705943
 30
0.0
 10
11.7560055223
 20
8.1168425392
 30
0.0
 10
11.7348595781
 20
8.0281502273
 30
0.0
 10
11.6984693815
 20
7.8967819599
 30
0.0
 10
11.6580464077
 20
7.7675977343
 30
0.0
 10
11.6137937404
 20
7.6410479006
 30
0.0
 10
11.5658616426
 20
7.5174269987
 30
0.0
 10
11.4974902672
 20
7.3579439441
 30
0.0
 10
11.4400097729
 20
7.2419331652
 30
0.0
 10
11.3989198384
 20
7.1667912452
 30
0.0
  0
SPLINE
  5
3DF
100
AcDbEntity
  8
0
100
AcDbSpline
 62
9
  6
CONTINUOUS
 70
0
 71
3
 72
14
 73
10
 74
0
 42
0.0000001
 43
0.0000001
 44
0.0000000001
 40
0.0
 40
0.0
 40
0.0
 40
0.0
 40
0.2425692399
 40
0.3660281749
 40
0.4908149774
 40
0.616820773
 40
0.7438588781
 40
0.8717154453
 40
1.0
 40
1.0
 40
1.0
 40
1.0
 10
11.3605391525
 20
7.1610680543
 30
0.0
 10
11.404160106
 20
7.2365031758
 30
0.0
 10
11.4655189195
 20
7.3529915469
 30
0.0
 10
11.53878346
 20
7.5133952375
 30
0.0
 10
11.5900765289
 20
7.6377062538
 30
0.0
 10
11.6372360696
 20
7.7650109318
 30
0.0
 10
11.6800708471
 20
7.8949983514
 30
0.0
 10
11.7183504034
 20
8.0272517251
 30
0.0
 10
11.7406214336
 20
8.1165545802
 30
0.0
 10
11.7510159904
 20
8.1614512352
 30
0.0
  0
SPLINE
  5
3E0
100
AcDbEntity
  8
0
100
AcDbSpline
 62
9
  6
CONTINUOUS
 70
0
 71
3
 72
24
 73
20
 74
0
 42
0.0000001
 43
0.0000001
 44
0.0000000001
 40
0.0
 40
0.0
 40
0.0
 40
0.0
 40
0.0086000976
 40
0.0161968202
 40
0.0231794032
 40
0.030142339
 40
0.0377807298
 40
0.0467180486
 40
0.0574269616
 40
0.0702484693
 40
0.1029059163
 40
0.1453834856
 40
0.1978957077
 40
0.2605214509
 40
0.3329188506
 40
0.4137936765
 40
0.5950760657
 40
0.7932686276
 40
1.0
 40
1.0
 40
1.0
 40
1.0
 10
11.1473649263
 20
6.7771648514
 30
0.0
 10
11.1474168522
 20
6.7772460279
 30
0.0
 10
11.147504257
 20
6.7774062893
 30
0.0
 10
11.1475797662
 20
6.7776573578
 30
0.0
 10
11.147583024
 20
6.7779026097
 30
0.0
 10
11.147505985
 20
6.7781365036
 30
0.0
 10
11.1473478916
 20
6.7783520032
 30
0.0
 10
11.1471106238
 20
6.7785482774
 30
0.0
 10
11.1467922524
 20
6.7787271664
 30
0.0
 10
11.1462065295
 20
6.7789614636
 30
0.0
 10
11.1452437963
 20
6.779190568
 30
0.0
 10
11.1438251754
 20
6.7793795989
 30
0.0
 10
11.1420612821
 20
6.77948997
 30
0.0
 10
11.1399595222
 20
6.7795144755
 30
0.0
 10
11.1375408191
 20
6.7794489272
 30
0.0
 10
11.1337975204
 20
6.7792424368
 30
0.0
 10
11.1286582533
 20
6.778784721
 30
0.0
 10
11.1221365
 20
6.7779978919
 30
0.0
 10
11.1176454663
 20
6.7773500036
 30
0.0
 10
11.1153558688
 20
6.7769985869
 30
0.0
  0
SPLINE
  5
3E1
100
AcDbEntity
  8
0
100
AcDbSpline
 62
9
  6
CONTINUOUS
 70
0
 71
3
 72
9
 73
5
 74
0
 42
0.0000001
 43
0.0000001
 44
0.0000000001
 40
0.0
 40
0.0
 40
0.0
 40
0.0
 40
0.2511606337
 40
1.0
 40
1.0
 40
1.0
 40
1.0
 10
11.797100045
 20
8.3598919459
 30
0.0
 10
11.7937937308
 20
8.3431598728
 30
0.0
 10
11.780015053
 20
8.2766624314
 30
0.0
 10
11.7639762856
 20
8.2106439852
 30
0.0
 10
11.7510217481
 20
8.161470178
 30
0.0
  0
SPLINE
  5
3E2
100
AcDbEntity
  8
0
100
AcDbSpline
 62
9
  6
CONTINUOUS
 70
0
 71
3
 72
14
 73
10
 74
0
 42
0.0000001
 43
0.0000001
 44
0.0000000001
 40
0.0
 40
0.0
 40
0.0
 40
0.0
 40
0.3187517415
 40
0.4645854284
 40
0.5989695854
 40
0.7203413804
 40
0.8279401853
 40
0.9212719769
 40
1.0
 40
1.0
 40
1.0
 40
1.0
 10
11.7510205173
 20
8.1614712381
 30
0.0
 10
11.7456150233
 20
8.162212023
 30
0.0
 10
11.7377110049
 20
8.163126515
 30
0.0
 10
11.7274843453
 20
8.163870791
 30
0.0
 10
11.7206141618
 20
8.1641429465
 30
0.0
 10
11.7143926974
 20
8.1641335138
 30
0.0
 10
11.708880053
 20
8.1638521679
 30
0.0
 10
11.7041206806
 20
8.1633116517
 30
0.0
 10
11.7012254456
 20
8.162738978
 30
0.0
 10
11.6999233623
 20
8.1623917979
 30
0.0
  0
SPLINE
  5
3E3
100
AcDbEntity
  8
0
100
AcDbSpline
 62
9
  6
CONTINUOUS
 70
0
 71
3
 72
12
 73
8
 74
0
 42
0.0000001
 43
0.0000001
 44
0.0000000001
 40
0.0
 40
0.0
 40
0.0
 40
0.0
 40
0.2457275453
 40
0.36982619
 40
0.4946955623
 40
0.7463612062
 40
1.0
 40
1.0
 40
1.0
 40
1.0
 10
11.7647018278
 20
8.359894728
 30
0.0
 10
11.7636292292
 20
8.3436374556
 30
0.0
 10
11.7622466527
 20
8.3191550282
 30
0.0
 10
11.7604279769
 20
8.2864055162
 30
0.0
 10
11.7584876857
 20
8.253268401
 30
0.0
 10
11.7556946375
 20
8.211577655
 30
0.0
 10
11.7527483019
 20
8.1781994082
 30
0.0
 10
11.7510205173
 20
8.1614712381
 30
0.0
  0
SPLINE
  5
3E4
100
AcDbEntity
  8
0
100
AcDbSpline
 62
9
  6
CONTINUOUS
 70
0
 71
3
 72
15
 73
11
 74
0
 42
0.0000001
 43
0.0000001
 44
0.0000000001
 40
0.0
 40
0.0
 40
0.0
 40
0.0
 40
0.1248106742
 40
0.2496698203
 40
0.3745942728
 40
0.4995757942
 40
0.6246160591
 40
0.7497010789
 40
0.8748325873
 40
1.0
 40
1.0
 40
1.0
 40
1.0
 10
10.9742114782
 20
8.6985298331
 30
0.0
 10
10.9841004636
 20
8.703376976
 30
0.0
 10
11.0032374464
 20
8.714455391
 30
0.0
 10
11.0293862797
 20
8.7348369933
 30
0.0
 10
11.0524776048
 20
8.7586573514
 30
0.0
 10
11.0720774381
 20
8.7854435243
 30
0.0
 10
11.0877524213
 20
8.814717158
 30
0.0
 10
11.0992148094
 20
8.8458992856
 30
0.0
 10
11.1061717925
 20
8.8783903757
 30
0.0
 10
11.1077412031
 20
8.9005065601
 30
0.0
 10
11.1077424959
 20
8.9115510678
 30
0.0
  0
SPLINE
  5
3E5
100
AcDbEntity
  8
0
100
AcDbSpline
 62
9
  6
CONTINUOUS
 70
0
 71
3
 72
20
 73
16
 74
0
 42
0.0000001
 43
0.0000001
 44
0.0000000001
 40
0.0
 40
0.0
 40
0.0
 40
0.0
 40
0.1247797105
 40
0.2495771633
 40
0.3120362
 40
0.3745017511
 40
0.4369787012
 40
0.4994681937
 40
0.5619690407
 40
0.6244848404
 40
0.6870210194
 40
0.7495786583
 40
0.8121606024
 40
0.8747737298
 40
1.0
 40
1.0
 40
1.0
 40
1.0
 10
10.6009005077
 20
8.9196354926
 30
0.0
 10
10.6013305364
 20
8.9336234253
 30
0.0
 10
10.604411485
 20
8.9615821173
 30
0.0
 10
10.6137793282
 20
8.995460998
 30
0.0
 10
10.6243954683
 20
9.0214051347
 30
0.0
 10
10.6338881861
 20
9.0401832147
 30
0.0
 10
10.6448482436
 20
9.0581468115
 30
0.0
 10
10.6571966549
 20
9.0751908661
 30
0.0
 10
10.6708589837
 20
9.0912070951
 30
0.0
 10
10.6857593556
 20
9.1060858773
 30
0.0
 10
10.7017962316
 20
9.1197415507
 30
0.0
 10
10.7188672474
 20
9.1320919298
 30
0.0
 10
10.7368762228
 20
9.1430512096
 30
0.0
 10
10.761970086
 20
9.155708587
 30
0.0
 10
10.7818786044
 20
9.1629464026
 30
0.0
 10
10.7954174183
 20
9.1666816408
 30
0.0
  0
SPLINE
  5
3E6
100
AcDbEntity
  8
0
100
AcDbSpline
 62
9
  6
CONTINUOUS
 70
0
 71
3
 72
18
 73
14
 74
0
 42
0.0000001
 43
0.0000001
 44
0.0000000001
 40
0.0
 40
0.0
 40
0.0
 40
0.0
 40
0.0624696167
 40
0.1249438514
 40
0.1874251746
 40
0.2499121859
 40
0.3124049229
 40
0.3749075972
 40
0.499856149
 40
0.6248313257
 40
0.7498547823
 40
0.8749346978
 40
1.0
 40
1.0
 40
1.0
 40
1.0
 10
10.6986659957
 20
8.9358058938
 30
0.0
 10
10.6992614828
 20
8.9399273128
 30
0.0
 10
10.7007574993
 20
8.9481297532
 30
0.0
 10
10.7039058471
 20
8.9602314578
 30
0.0
 10
10.7079346705
 20
8.9720710309
 30
0.0
 10
10.7128209501
 20
8.9835842748
 30
0.0
 10
10.7185440032
 20
8.9947079025
 30
0.0
 10
10.7272451455
 20
9.0089308717
 30
0.0
 10
10.7400417376
 20
9.0254655716
 30
0.0
 10
10.7581364784
 20
9.0428333891
 30
0.0
 10
10.7785736327
 20
9.057394368
 30
0.0
 10
10.8009203936
 20
9.0688090104
 30
0.0
 10
10.816774016
 20
9.0741948801
 30
0.0
 10
10.8248416077
 20
9.0762965012
 30
0.0
  0
SPLINE
  5
3E7
100
AcDbEntity
  8
0
100
AcDbSpline
 62
9
  6
CONTINUOUS
 70
0
 71
3
 72
18
 73
14
 74
0
 42
0.0000001
 43
0.0000001
 44
0.0000000001
 40
0.0
 40
0.0
 40
0.0
 40
0.0
 40
0.0626880204
 40
0.125369308
 40
0.1880393626
 40
0.2506907133
 40
0.3133186576
 40
0.3759229784
 40
0.5009618937
 40
0.6258751977
 40
0.750678057
 40
0.8753937495
 40
1.0
 40
1.0
 40
1.0
 40
1.0
 10
13.1599475966
 20
8.7545230612
 30
0.0
 10
13.1560791764
 20
8.7561309735
 30
0.0
 10
13.1484565884
 20
8.7596289795
 30
0.0
 10
13.1374390489
 20
8.765694315
 30
0.0
 10
13.1268914441
 20
8.7725409268
 30
0.0
 10
13.1168708022
 20
8.7801316172
 30
0.0
 10
13.1074337871
 20
8.7884314985
 30
0.0
 10
13.095709912
 20
8.8003763162
 30
0.0
 10
13.08273978
 20
8.8168531433
 30
0.0
 10
13.0702701694
 20
8.8386738967
 30
0.0
 10
13.0611428265
 20
8.8620726258
 30
0.0
 10
13.0556007265
 20
8.8865424577
 30
0.0
 10
13.0543504407
 20
8.9032294633
 30
0.0
 10
13.0543488256
 20
8.9115565776
 30
0.0
  0
SPLINE
  5
3E8
100
AcDbEntity
  8
0
100
AcDbSpline
 62
9
  6
CONTINUOUS
 70
0
 71
3
 72
15
 73
11
 74
0
 42
0.0000001
 43
0.0000001
 44
0.0000000001
 40
0.0
 40
0.0
 40
0.0
 40
0.0
 40
0.1251500751
 40
0.2502804264
 40
0.3753832643
 40
0.5004457992
 40
0.6254494887
 40
0.7503862026
 40
0.8752422512
 40
1.0
 40
1.0
 40
1.0
 40
1.0
 10
13.4602008051
 20
8.9598020008
 30
0.0
 10
13.4579539835
 20
8.9705902284
 30
0.0
 10
13.4519365853
 20
8.9918782582
 30
0.0
 10
13.4385831314
 20
9.0222261046
 30
0.0
 10
13.4211226282
 20
9.0504096742
 30
0.0
 10
13.3999460309
 20
9.0759021063
 30
0.0
 10
13.3754387366
 20
9.0981890335
 30
0.0
 10
13.3481125429
 20
9.1168828031
 30
0.0
 10
13.3184846697
 20
9.1315962926
 30
0.0
 10
13.2975700476
 20
9.1386139525
 30
0.0
 10
13.2869394638
 20
9.1413824518
 30
0.0
  0
SPLINE
  5
3E9
100
AcDbEntity
  8
0
100
AcDbSpline
 62
9
  6
CONTINUOUS
 70
0
 71
3
 72
21
 73
17
 74
0
 42
0.0000001
 43
0.0000001
 44
0.0000000001
 40
0.0
 40
0.0
 40
0.0
 40
0.0
 40
0.1241152281
 40
0.186314544
 40
0.2485780512
 40
0.3109036845
 40
0.3732949559
 40
0.4357532448
 40
0.4982707974
 40
0.5608419289
 40
0.6234679739
 40
0.6861471886
 40
0.7488760439
 40
0.811656707
 40
0.8744784245
 40
1.0
 40
1.0
 40
1.0
 40
1.0
 10
13.1502951931
 20
8.6585767059
 30
0.0
 10
13.1369638276
 20
8.6626731084
 30
0.0
 10
13.1173868136
 20
8.6704080486
 30
0.0
 10
13.0927870938
 20
8.6836802777
 30
0.0
 10
13.0751334703
 20
8.6950762565
 30
0.0
 10
13.0584142571
 20
8.7078359782
 30
0.0
 10
13.0427425829
 20
8.7218965866
 30
0.0
 10
13.0282203781
 20
8.7371707941
 30
0.0
 10
13.0149363777
 20
8.7535593374
 30
0.0
 10
13.0029836014
 20
8.7709661419
 30
0.0
 10
12.9924542305
 20
8.7892901094
 30
0.0
 10
12.9834101926
 20
8.8084104371
 30
0.0
 10
12.975913047
 20
8.8282068654
 30
0.0
 10
12.9700311293
 20
8.8485614747
 30
0.0
 10
12.964399459
 20
8.876232443
 30
0.0
 10
12.9626769113
 20
8.8974465058
 30
0.0
 10
12.9626750863
 20
8.9115510679
 30
0.0
  0
ENDSEC
  0
SECTION
  2
OBJECTS
  0
DICTIONARY
  5
C
100
AcDbDictionary
280
0
281
1
  3
ACAD_GROUP
350
D
  3
ACAD_MLINESTYLE
350
17
  3
ACAD_LAYOUT
350
1A
  3
ACAD_PLOTSETTINGS
350
19
  3
ACAD_PLOTSTYLENAME
350
E
  0
DICTIONARY
  5
D
102
{ACAD_REACTORS
330
C
102
}
100
AcDbDictionary
280
0
281
1
  0
ACDBDICTIONARYWDFLT
  5
E
102
{ACAD_REACTORS
330
C
102
}
100
AcDbDictionary
281
1
  3
Normal
350
F
100
AcDbDictionaryWithDefault
340
F
  0
DICTIONARY
  5
17
102
{ACAD_REACTORS
330
C
102
}
100
AcDbDictionary
280
0
281
1
  3
Standard
350
18
  0
DICTIONARY
  5
19
102
{ACAD_REACTORS
330
C
102
}
100
AcDbDictionary
281
1
  0
DICTIONARY
  5
1A
102
{ACAD_REACTORS
330
C
102
}
100
AcDbDictionary
281
1
  3
Model
350
3EA
  3
Layout1
350
3EB
  0
ACDBPLACEHOLDER
  5
F
102
{ACAD_REACTORS
330
E
102
}
  0
MLINESTYLE
  5
18
102
{ACAD_REACTORS
330
17
102
}
100
AcDbMlineStyle
  2
STANDARD
 70
0
  3

 62
256
 51
90.0
 52
90.0
 71
2
 49
0.5
 62
256
  6
BYLAYER
 49
-0.5
 62
256
  6
BYLAYER
  0
LAYOUT
  5
3EA
102
{ACAD_REACTORS
330
1A
102
}
100
AcDbPlotSettings
  1

  2
none_device
  4
ANSI_C_(22.00_x_17.00_Inches)
  6

 40
0.0
 41
0.0
 42
0.0
 43
0.0
 44
558.8
 45
431.8
 46
0.0
 47
0.0
 48
0.0
 49
0.0
140
0.0
141
0.0
142
1.0
143
1.0
 70
1024
 72
0
 73
0
 74
0
  7

 75
0
147
1.0
148
0.0
149
0.0
100
AcDbLayout
  1
Model
 70
0
 71
0
 10
0.0
 20
0.0
 11
22.0
 21
17.0
 12
0.0
 22
0.0
 32
0.0
 14
0.0
 24
0.0
 34
0.0
 15
0.0
 25
0.0
 35
0.0
146
0.0
 13
0.0
 23
0.0
 33
0.0
 16
1.0
 26
0.0
 36
0.0
 17
0.0
 27
1.0
 37
0.0
 76
0
330
202
345
0
346
0
  0
LAYOUT
  5
3EB
102
{ACAD_REACTORS
330
1A
102
}
100
AcDbPlotSettings
  1

  2
none_device
  4
ANSI_C_(22.00_x_17.00_Inches)
  6

 40
0.0
 41
0.0
 42
0.0
 43
0.0
 44
558.8
 45
431.8
 46
0.0
 47
0.0
 48
0.0
 49
0.0
140
0.0
141
0.0
142
1.0
143
1.0
 70
0
 72
0
 73
0
 74
0
  7

 75
0
147
1.0
148
0.0
149
0.0
100
AcDbLayout
  1
Layout1
 70
0
 71
1
 10
0.0
 20
0.0
 11
22.0
 21
17.0
 12
0.0
 22
0.0
 32
0.0
 14
0.0
 24
0.0
 34
0.0
 15
0.0
 25
0.0
 35
0.0
146
0.0
 13
0.0
 23
0.0
 33
0.0
 16
1.0
 26
0.0
 36
0.0
 17
0.0
 27
1.0
 37
0.0
 76
0
330
203
345
0
346
0
  0
ENDSEC
  0
EOF
