999
DXF file: E:\BT Custom\CADOUTPUT\_RIGHT.dxf
999
Pro/ENGINEER 2018400 by Parametric Technology Corporation
  0
SECTION
  2
HEADER
  9
$ACADVER
  1
AC1018
  9
$DWGCODEPAGE
  3
ANSI_1252
  9
$EXTMAX
 10
22.0
 20
17.0
 30
0.0
  9
$EXTMIN
 10
0.0
 20
0.0
 30
0.0
  9
$LIMMIN
 10
0.0
 20
0.0
  9
$LIMMAX
 10
22.0
 20
17.0
  9
$VIEWCTR
 10
11.0
 20
8.5
  9
$VIEWSIZE
 40
17.0
  9
$CLAYER
  8
0
  9
$LTSCALE
 40
1.21
  9
$CELTYPE
  6
BYLAYER
  9
$DIMSCALE
 40
1.0
  9
$DIMASZ
 40
0.1
  9
$DIMEXO
 40
0.0625
  9
$DIMDLI
 40
0.836
  9
$DIMEXE
 40
0.125
  9
$DIMCEN
 40
0.198
  9
$DIMLFAC
 40
1.0
  9
$DIMBLK
  1
_FILLED
  9
$DIMALT
 70
1
  9
$DIMALTD
 70
2
  9
$DIMALTTD
 70
2
  9
$DIMALTF
 40
25.4
  9
$DIMTXT
 40
0.08
  9
$DIMTOL
 70
1
  9
$DIMLIM
 70
0
  9
$DIMTFAC
 40
1.0
  9
$DIMTP
 40
0.001
  9
$DIMTM
 40
0.001
  9
$DIMGAP
 40
0.09
  9
$DIMDSEP
 70
46
  9
$AUNITS
 70
0
  9
$PDMODE
 70
3
  9
$PDSIZE
 40
0.06
  9
$HANDSEED
  5
484
  9
$TILEMODE
 70
1
  9
$MEASUREMENT
 70
0
  9
$INSUNITS
 70
1
  0
ENDSEC
  0
SECTION
  2
CLASSES
  0
CLASS
  1
ACDBDICTIONARYWDFLT
  2
AcDbDictionaryWithDefault
  3
AutoCAD 2000
 90
0
 91
1
280
0
281
0
  0
CLASS
  1
ACDBPLACEHOLDER
  2
AcDbPlaceHolder
  3
AutoCAD 2000
 90
0
 91
1
280
0
281
0
  0
CLASS
  1
LAYOUT
  2
AcDbLayout
  3
AutoCAD 2000
 90
0
 91
0
280
0
281
0
  0
ENDSEC
  0
SECTION
  2
TABLES
  0
TABLE
  2
VPORT
  5
8
100
AcDbSymbolTable
 70
2
  0
VPORT
  5
1F4
100
AcDbSymbolTableRecord
100
AcDbViewportTableRecord
  2
*ACTIVE
 70
0
 10
0.0
 20
0.0
 11
1.0
 21
1.0
 12
11.0
 22
8.5
 13
0.0
 23
0.0
 14
1.0
 24
1.0
 15
0.0
 25
0.0
 16
0.0
 26
0.0
 36
1.0
 17
0.0
 27
0.0
 37
0.0
 40
17.0
 41
1.2941176471
 42
50.0
 43
0.0
 44
0.0
 50
0.0
 51
0.0
 71
0
 72
100
 73
1
 74
1
 75
0
 76
0
 77
0
 78
0
  0
ENDTAB
  0
TABLE
  2
LTYPE
  5
5
100
AcDbSymbolTable
 70
6
  0
LTYPE
  5
14
100
AcDbSymbolTableRecord
100
AcDbLinetypeTableRecord
  2
BYBLOCK
 70
0
  3

 72
65
 73
0
 40
0.0
  0
LTYPE
  5
15
100
AcDbSymbolTableRecord
100
AcDbLinetypeTableRecord
  2
BYLAYER
 70
0
  3

 72
65
 73
0
 40
0.0
  0
LTYPE
  5
16
100
AcDbSymbolTableRecord
100
AcDbLinetypeTableRecord
  2
CONTINUOUS
 70
64
  3
Solid line
 72
65
 73
0
 40
0.0
  0
LTYPE
  5
1F5
100
AcDbSymbolTableRecord
100
AcDbLinetypeTableRecord
  2
CENTER
 70
64
  3
____ _ ____ _ ____ _ ____ _ ____ _ ____ _ ____
 72
65
 73
4
 40
0.6
 49
0.375
 74
0
 49
-0.075
 74
0
 49
0.075
 74
0
 49
-0.075
 74
0
  0
LTYPE
  5
1F6
100
AcDbSymbolTableRecord
100
AcDbLinetypeTableRecord
  2
HIDDEN
 70
64
  3
- - - - - - - - - - - - - - - - - - - -
 72
65
 73
2
 40
0.2
 49
0.1
 74
0
 49
-0.1
 74
0
  0
LTYPE
  5
1F7
100
AcDbSymbolTableRecord
100
AcDbLinetypeTableRecord
  2
PHANTOM
 70
64
  3
_____ _ _ _____ _ _ _____ _ _ _____
 72
65
 73
6
 40
0.8
 49
0.45
 74
0
 49
-0.05
 74
0
 49
0.1
 74
0
 49
-0.05
 74
0
 49
0.1
 74
0
 49
-0.05
 74
0
  0
LTYPE
  5
1F8
100
AcDbSymbolTableRecord
100
AcDbLinetypeTableRecord
  2
DOT
 70
64
  3
. . . . . . . . . . . . . . . . . . . .
 72
65
 73
2
 40
0.2
 49
0.1
 74
0
 49
-0.1
 74
0
  0
LTYPE
  5
1F9
100
AcDbSymbolTableRecord
100
AcDbLinetypeTableRecord
  2
DASHED
 70
64
  3
- - - - - - - - - - - - - - - - - - - -
 72
65
 73
2
 40
0.2
 49
0.1
 74
0
 49
-0.1
 74
0
  0
ENDTAB
  0
TABLE
  2
LAYER
  5
2
100
AcDbSymbolTable
 70
36
  0
LAYER
  5
10
100
AcDbSymbolTableRecord
100
AcDbLayerTableRecord
  2
0
 70
0
 62
7
  6
CONTINUOUS
370
-3
390
F
  0
LAYER
  5
1FA
100
AcDbSymbolTableRecord
100
AcDbLayerTableRecord
  2
DEFAULT_1
 70
0
 62
7
  6
CENTER
370
-3
390
F
  0
LAYER
  5
1FB
100
AcDbSymbolTableRecord
100
AcDbLayerTableRecord
  2
DEFAULT_2
 70
0
 62
8
  6
HIDDEN
370
-3
390
F
  0
LAYER
  5
1FC
100
AcDbSymbolTableRecord
100
AcDbLayerTableRecord
  2
DEFAULT_3
 70
0
 62
7
  6
PHANTOM
370
-3
390
F
  0
LAYER
  5
1FD
100
AcDbSymbolTableRecord
100
AcDbLayerTableRecord
  2
ALL_FEATURES
 70
0
 62
7
  6
CONTINUOUS
370
-3
390
F
  0
LAYER
  5
1FE
100
AcDbSymbolTableRecord
100
AcDbLayerTableRecord
  2
AXES_FEATURES
 70
0
 62
7
  6
CONTINUOUS
370
-3
390
F
  0
LAYER
  5
1FF
100
AcDbSymbolTableRecord
100
AcDbLayerTableRecord
  2
DIMENSIONS
 70
0
 62
7
  6
CONTINUOUS
370
-3
390
F
  0
ENDTAB
  0
TABLE
  2
STYLE
  5
3
100
AcDbSymbolTable
 70
1
  0
STYLE
  5
11
100
AcDbSymbolTableRecord
100
AcDbTextStyleTableRecord
  2
STANDARD
 70
0
 40
0.0
 41
0.8
 50
0.0
 71
0
 42
0.2
  3
txt
  4

  0
STYLE
  5
200
100
AcDbSymbolTableRecord
100
AcDbTextStyleTableRecord
  2
TEXTSTYLE_1
 70
0
 40
0.0
 41
0.8
 50
0.0
 71
0
 42
0.2
  3
gdt
  4

  0
ENDTAB
  0
TABLE
  2
VIEW
  5
6
100
AcDbSymbolTable
 70
0
  0
ENDTAB
  0
TABLE
  2
UCS
  5
7
100
AcDbSymbolTable
 70
0
  0
ENDTAB
  0
TABLE
  2
APPID
  5
9
100
AcDbSymbolTable
 70
1
  0
APPID
  5
201
100
AcDbSymbolTableRecord
100
AcDbRegAppTableRecord
  2
ACAD
 70
0
  0
ENDTAB
  0
TABLE
  2
BLOCK_RECORD
  5
1
100
AcDbSymbolTable
 70
0
  0
BLOCK_RECORD
  5
202
100
AcDbSymbolTableRecord
100
AcDbBlockTableRecord
  2
*Model_Space
  0
BLOCK_RECORD
  5
203
100
AcDbSymbolTableRecord
100
AcDbBlockTableRecord
  2
*Paper_Space
  0
BLOCK_RECORD
  5
204
100
AcDbSymbolTableRecord
100
AcDbBlockTableRecord
  2
_FILLED
  0
ENDTAB
  0
TABLE
  2
DIMSTYLE
  5
A
100
AcDbSymbolTable
 70
1
100
AcDbDimStyleTable
 71
0
  0
DIMSTYLE
105
205
100
AcDbSymbolTableRecord
100
AcDbDimStyleTableRecord
  2
STANDARD
 70
0
  3

  4

 40
1.0
 41
0.1
 42
0.0625
 43
0.38
 44
0.125
 45
0.0
 46
0.0
 47
0.001
 48
0.001
140
0.08
141
0.09
142
0.0
143
25.4
144
1.0
145
0.0
146
1.0
147
0.09
 71
1.0
 72
0.0
 73
1
 74
1
 75
0
 76
0
 77
0
 78
4
 79
1
170
1
171
2
172
0
173
0
174
0
175
0
176
0
177
0
178
0
270
2
179
3
271
3
272
3
273
2
274
2
275
0
280
0
281
0
282
0
283
1
284
4
285
0
286
0
287
3
288
0
340
11
278
46
341
204
342
204
343
204
344
204
  0
ENDTAB
  0
ENDSEC
  0
SECTION
  2
BLOCKS
  0
BLOCK
  5
20
100
AcDbEntity
  8
0
100
AcDbBlockBegin
  2
*Model_Space
 70
0
 10
0.0
 20
0.0
 30
0.0
  3
*Model_Space
  1

  0
ENDBLK
  5
21
100
AcDbEntity
  8
0
100
AcDbBlockEnd
  0
BLOCK
  5
1C
100
AcDbEntity
  8
0
100
AcDbBlockBegin
  2
*Paper_Space
 70
0
 10
0.0
 20
0.0
 30
0.0
  3
*Paper_Space
  1

  0
ENDBLK
  5
1D
100
AcDbEntity
  8
0
100
AcDbBlockEnd
  0
BLOCK
  5
206
100
AcDbEntity
  8
0
100
AcDbBlockBegin
  2
_FILLED
 70
64
 10
0.0
 20
0.0
  3
_FILLED
  1

  0
SOLID
  5
207
100
AcDbEntity
  8
0
  6
BYBLOCK
 62
0
100
AcDbTrace
 10
0.0
 20
0.0
 11
-1.0
 21
0.2
 12
-1.0
 22
-0.2
 13
-1.0
 23
-0.2
  0
ENDBLK
  5
208
100
AcDbEntity
  8
0
  6
BYBLOCK
 62
0
100
AcDbBlockEnd
  0
ENDSEC
  0
SECTION
  2
ENTITIES
  0
LINE
  5
209
100
AcDbEntity
  8
0
100
AcDbLine
 62
7
  6
CONTINUOUS
 10
6.8519073452
 20
9.135108686
 11
6.8540962373
 21
9.1425378128
  0
LINE
  5
20A
100
AcDbEntity
  8
0
100
AcDbLine
 62
7
  6
CONTINUOUS
 10
7.0149290225
 20
8.9700332751
 11
7.0472814022
 21
9.0907740025
  0
LINE
  5
20B
100
AcDbEntity
  8
0
100
AcDbLine
 62
7
  6
CONTINUOUS
 10
7.7452001789
 20
8.79792445
 11
7.7393715103
 21
8.7759201313
  0
LINE
  5
20C
100
AcDbEntity
  8
0
100
AcDbLine
 62
7
  6
CONTINUOUS
 10
7.7454387044
 20
8.7978585078
 11
7.7866221259
 21
8.9468266771
  0
LINE
  5
20D
100
AcDbEntity
  8
0
100
AcDbLine
 62
7
  6
CONTINUOUS
 10
7.7452001789
 20
8.79792445
 11
7.8034153691
 21
9.0076308957
  0
LINE
  5
20E
100
AcDbEntity
  8
0
100
AcDbLine
 62
7
  6
CONTINUOUS
 10
7.9325585639
 20
8.7241551802
 11
7.9651530677
 21
8.8448305121
  0
LINE
  5
20F
100
AcDbEntity
  8
0
100
AcDbLine
 62
7
  6
CONTINUOUS
 10
7.8034153691
 20
9.0076308957
 11
7.8807456009
 21
9.2332656119
  0
LWPOLYLINE
  5
210
100
AcDbEntity
  8
0
100
AcDbPolyline
 62
7
  6
CONTINUOUS
 90
4
 70
0
 10
8.0380644596
 20
9.0884819806
 10
8.0422367239
 20
9.1003199671
 10
8.0478978137
 20
9.1159920342
 10
8.0520417586
 20
9.1271877282
  0
LINE
  5
211
100
AcDbEntity
  8
0
100
AcDbLine
 62
7
  6
CONTINUOUS
 10
8.0537409184
 20
9.1265200342
 11
8.0932624997
 21
9.2270952715
  0
LINE
  5
212
100
AcDbEntity
  8
0
100
AcDbLine
 62
7
  6
CONTINUOUS
 10
7.8807456009
 20
9.2332656119
 11
7.9782339167
 21
9.4355753429
  0
LINE
  5
213
100
AcDbEntity
  8
0
100
AcDbLine
 62
7
  6
CONTINUOUS
 10
7.6748737314
 20
10.0645376377
 11
7.6812452555
 21
10.0697109462
  0
LINE
  5
214
100
AcDbEntity
  8
0
100
AcDbLine
 62
7
  6
CONTINUOUS
 10
7.8380087105
 20
10.1818646642
 11
7.674865378
 21
10.0645194687
  0
LINE
  5
215
100
AcDbEntity
  8
0
100
AcDbLine
 62
7
  6
CONTINUOUS
 10
8.0932624997
 20
9.2270952715
 11
8.168416926
 21
9.3656333669
  0
LINE
  5
216
100
AcDbEntity
  8
0
100
AcDbLine
 62
7
  6
CONTINUOUS
 10
7.9782339167
 20
9.4355753429
 11
8.1038161331
 21
9.6081904648
  0
LINE
  5
217
100
AcDbEntity
  8
0
100
AcDbLine
 62
7
  6
CONTINUOUS
 10
8.168416926
 20
9.3656333669
 11
8.2601137433
 21
9.4827044015
  0
LINE
  5
218
100
AcDbEntity
  8
0
100
AcDbLine
 62
7
  6
CONTINUOUS
 10
8.1038161331
 20
9.6081904648
 11
8.2583283829
 21
9.7437368946
  0
LWPOLYLINE
  5
219
100
AcDbEntity
  8
0
100
AcDbPolyline
 62
7
  6
CONTINUOUS
 90
3
 70
0
 10
8.365260715
 20
10.4064004335
 10
8.0953500525
 20
10.3159902272
 10
7.8380087105
 20
10.1818646642
  0
LINE
  5
21A
100
AcDbEntity
  8
0
100
AcDbLine
 62
7
  6
CONTINUOUS
 10
8.2583283829
 20
9.7437368946
 11
8.4319410842
 21
9.8435798639
  0
LINE
  5
21B
100
AcDbEntity
  8
0
100
AcDbLine
 62
7
  6
CONTINUOUS
 10
8.4319410842
 20
9.8435798639
 11
8.617895866
 21
9.9117268356
  0
LINE
  5
21C
100
AcDbEntity
  8
0
100
AcDbLine
 62
9
  6
CONTINUOUS
 10
12.441150522
 20
7.4005436025
 11
12.3735319411
 21
7.4004875092
  0
LINE
  5
21D
100
AcDbEntity
  8
0
100
AcDbLine
 62
9
  6
CONTINUOUS
 10
13.3732221565
 20
7.402201986
 11
12.5614505438
 21
7.4020230949
  0
LINE
  5
21E
100
AcDbEntity
  8
0
100
AcDbLine
 62
7
  6
CONTINUOUS
 10
12.3482227235
 20
7.3584292459
 11
14.3982215895
 21
7.3584292459
  0
LINE
  5
21F
100
AcDbEntity
  8
0
100
AcDbLine
 62
7
  6
CONTINUOUS
 10
12.1482221262
 20
7.3684292459
 11
12.4887434134
 21
7.3684292459
  0
LINE
  5
220
100
AcDbEntity
  8
0
100
AcDbLine
 62
7
  6
CONTINUOUS
 10
12.4888439902
 20
7.3684292459
 11
14.2576004027
 21
7.3684292459
  0
LINE
  5
221
100
AcDbEntity
  8
0
100
AcDbLine
 62
7
  6
CONTINUOUS
 10
14.2576827061
 20
7.3684292459
 11
14.598222958
 21
7.3684292459
  0
LINE
  5
222
100
AcDbEntity
  8
0
100
AcDbLine
 62
9
  6
CONTINUOUS
 10
14.1849939308
 20
7.4020230508
 11
13.3732221565
 21
7.402201986
  0
LINE
  5
223
100
AcDbEntity
  8
0
100
AcDbLine
 62
9
  6
CONTINUOUS
 10
14.3729123653
 20
7.400487535
 11
14.3052937828
 21
7.4005436236
  0
LINE
  5
224
100
AcDbEntity
  8
0
100
AcDbLine
 62
7
  6
CONTINUOUS
 10
14.1723207426
 20
7.8684292459
 11
14.1674669384
 21
7.8684292459
  0
LINE
  5
225
100
AcDbEntity
  8
0
100
AcDbLine
 62
9
  6
CONTINUOUS
 10
14.1723207426
 20
7.8939856995
 11
14.1577970335
 21
7.8939856995
  0
LINE
  5
226
100
AcDbEntity
  8
0
100
AcDbLine
 62
7
  6
CONTINUOUS
 10
6.8217438786
 20
9.021797078
 11
7.7392448046
 21
8.7759534459
  0
LINE
  5
227
100
AcDbEntity
  8
0
100
AcDbLine
 62
7
  6
CONTINUOUS
 10
7.7393165124
 20
8.7759342318
 11
7.9325587347
 21
8.7241551344
  0
LINE
  5
228
100
AcDbEntity
  8
0
100
AcDbLine
 62
7
  6
CONTINUOUS
 10
7.8471590345
 20
9.1352664827
 11
7.8448068518
 21
9.1358967482
  0
LWPOLYLINE
  5
229
100
AcDbEntity
  8
0
100
AcDbPolyline
 62
7
  6
CONTINUOUS
 90
5
 70
0
 10
13.2257112589
 20
9.0477791975
 10
13.2384117993
 20
9.0487827224
 10
13.2570493184
 20
9.0540745534
 10
13.2745158305
 20
9.0639064086
 10
13.2857529856
 20
9.0735478947
  0
LINE
  5
22A
100
AcDbEntity
  8
0
100
AcDbLine
 62
7
  6
CONTINUOUS
 10
13.2186979853
 20
9.0477790945
 11
13.2186766829
 21
9.0477790629
  0
LINE
  5
22B
100
AcDbEntity
  8
0
100
AcDbLine
 62
7
  6
CONTINUOUS
 10
13.7272137035
 20
8.9834292459
 11
13.0192306094
 21
8.9834292459
  0
LINE
  5
22C
100
AcDbEntity
  8
0
100
AcDbLine
 62
7
  6
CONTINUOUS
 10
13.7077221565
 20
9.0144292459
 11
13.0387221565
 21
9.0144292459
  0
LINE
  5
22D
100
AcDbEntity
  8
0
100
AcDbLine
 62
7
  6
CONTINUOUS
 10
10.4917392949
 20
8.9926620043
 11
10.858884621
 21
8.8104417168
  0
LINE
  5
22E
100
AcDbEntity
  8
0
100
AcDbLine
 62
7
  6
CONTINUOUS
 10
10.1343823673
 20
9.1945793903
 11
10.4917392949
 21
8.9926620043
  0
LINE
  5
22F
100
AcDbEntity
  8
0
100
AcDbLine
 62
7
  6
CONTINUOUS
 10
9.7901336236
 20
9.4144870471
 11
10.1343823673
 21
9.1945793903
  0
LINE
  5
230
100
AcDbEntity
  8
0
100
AcDbLine
 62
7
  6
CONTINUOUS
 10
13.1203671809
 20
9.8235398084
 11
13.1203458778
 21
9.8235298703
  0
LINE
  5
231
100
AcDbEntity
  8
0
100
AcDbLine
 62
9
  6
CONTINUOUS
 10
12.8732021201
 20
9.3064969475
 11
12.8801776445
 21
9.3065307981
  0
LINE
  5
232
100
AcDbEntity
  8
0
100
AcDbLine
 62
7
  6
CONTINUOUS
 10
13.2257234235
 20
9.0477790629
 11
13.2186822772
 21
9.0477790629
  0
LINE
  5
233
100
AcDbEntity
  8
0
100
AcDbLine
 62
7
  6
CONTINUOUS
 10
13.7077141692
 20
9.0944292459
 11
13.3042011743
 21
9.0944292459
  0
LINE
  5
234
100
AcDbEntity
  8
0
100
AcDbLine
 62
7
  6
CONTINUOUS
 10
13.1436093045
 20
9.0944292459
 11
13.0387301438
 21
9.0944292459
  0
LINE
  5
235
100
AcDbEntity
  8
0
100
AcDbLine
 62
9
  6
CONTINUOUS
 10
13.183863749
 20
9.2130663237
 11
13.1754545053
 21
9.213066309
  0
LINE
  5
236
100
AcDbEntity
  8
0
100
AcDbLine
 62
7
  6
CONTINUOUS
 10
13.0695148427
 20
9.2904292459
 11
13.0491727407
 21
9.2904292459
  0
LINE
  5
237
100
AcDbEntity
  8
0
100
AcDbLine
 62
7
  6
CONTINUOUS
 10
13.4632354318
 20
9.2904292459
 11
13.6972649621
 21
9.2904292459
  0
LINE
  5
238
100
AcDbEntity
  8
0
100
AcDbLine
 62
9
  6
CONTINUOUS
 10
12.8801776445
 20
9.3065307981
 11
13.0050300175
 21
9.3065356299
  0
LINE
  5
239
100
AcDbEntity
  8
0
100
AcDbLine
 62
9
  6
CONTINUOUS
 10
13.7414548337
 20
9.3065641298
 11
13.7548621421
 21
9.3065646486
  0
LINE
  5
23A
100
AcDbEntity
  8
0
100
AcDbLine
 62
7
  6
CONTINUOUS
 10
9.1908879459
 20
9.7312899954
 11
9.3119151616
 21
9.694583835
  0
LINE
  5
23B
100
AcDbEntity
  8
0
100
AcDbLine
 62
7
  6
CONTINUOUS
 10
11.1607145835
 20
8.8924392773
 11
11.1926393154
 21
8.8791821909
  0
LWPOLYLINE
  5
23C
100
AcDbEntity
  8
0
100
AcDbPolyline
 62
7
  6
CONTINUOUS
 90
3
 70
0
 10
10.5803752626
 20
9.1694719768
 10
10.8644775716
 20
9.0255291283
 10
11.1512478282
 20
8.8964108021
  0
LWPOLYLINE
  5
23D
100
AcDbEntity
  8
0
100
AcDbPolyline
 62
7
  6
CONTINUOUS
 90
4
 70
0
 10
13.1203671809
 20
9.8235398084
 10
13.1087299974
 20
9.816747779
 10
13.095577727
 20
9.8048120581
 10
13.0860596133
 20
9.7913545097
  0
LINE
  5
23E
100
AcDbEntity
  8
0
100
AcDbLine
 62
7
  6
CONTINUOUS
 10
13.1233054441
 20
9.8251524655
 11
13.1203478524
 21
9.823531083
  0
LINE
  5
23F
100
AcDbEntity
  8
0
100
AcDbLine
 62
7
  6
CONTINUOUS
 10
12.8792942408
 20
9.4184291025
 11
12.8706576461
 21
9.4183042134
  0
LINE
  5
240
100
AcDbEntity
  8
0
100
AcDbLine
 62
9
  6
CONTINUOUS
 10
12.979521654
 20
9.3534292459
 11
13.0675955902
 21
9.3534292459
  0
LINE
  5
241
100
AcDbEntity
  8
0
100
AcDbLine
 62
9
  6
CONTINUOUS
 10
13.5030410845
 20
9.3534292459
 11
13.766922659
 21
9.3534292459
  0
LINE
  5
242
100
AcDbEntity
  8
0
100
AcDbLine
 62
9
  6
CONTINUOUS
 10
13.8027221565
 20
9.3892287434
 11
13.5174605763
 21
9.3892287434
  0
LINE
  5
243
100
AcDbEntity
  8
0
100
AcDbLine
 62
7
  6
CONTINUOUS
 10
12.8792942392
 20
9.4184292459
 11
12.8942328261
 21
9.4184292459
  0
LINE
  5
244
100
AcDbEntity
  8
0
100
AcDbLine
 62
9
  6
CONTINUOUS
 10
13.524560717
 20
9.458877864
 11
13.8657221565
 21
9.458877864
  0
LINE
  5
245
100
AcDbEntity
  8
0
100
AcDbLine
 62
9
  6
CONTINUOUS
 10
13.8657221565
 20
9.5026641078
 11
13.9467254092
 21
9.502671757
  0
LINE
  5
246
100
AcDbEntity
  8
0
100
AcDbLine
 62
9
  6
CONTINUOUS
 10
12.9159834333
 20
9.5159815095
 11
12.8807221565
 21
9.5159806278
  0
LINE
  5
247
100
AcDbEntity
  8
0
100
AcDbLine
 62
9
  6
CONTINUOUS
 10
13.8657221565
 20
9.5159806278
 11
13.524560717
 21
9.5159806278
  0
LINE
  5
248
100
AcDbEntity
  8
0
100
AcDbLine
 62
9
  6
CONTINUOUS
 10
12.9437221565
 20
9.5856297484
 11
12.9744174957
 21
9.5856305059
  0
LINE
  5
249
100
AcDbEntity
  8
0
100
AcDbLine
 62
9
  6
CONTINUOUS
 10
13.5163429536
 20
9.5856297484
 11
13.8027221565
 21
9.5856297484
  0
LINE
  5
24A
100
AcDbEntity
  8
0
100
AcDbLine
 62
9
  6
CONTINUOUS
 10
12.9159834333
 20
9.4588769822
 11
12.8807221565
 21
9.458877864
  0
LINE
  5
24B
100
AcDbEntity
  8
0
100
AcDbLine
 62
7
  6
CONTINUOUS
 10
12.8807221565
 20
9.5026290745
 11
12.6817792091
 21
9.5026504673
  0
LINE
  5
24C
100
AcDbEntity
  8
0
100
AcDbLine
 62
9
  6
CONTINUOUS
 10
12.9744174821
 20
9.3892279873
 11
12.9437221565
 21
9.3892287434
  0
LINE
  5
24D
100
AcDbEntity
  8
0
100
AcDbLine
 62
7
  6
CONTINUOUS
 10
9.0667965941
 20
9.7524621175
 11
9.1908879459
 21
9.7312899954
  0
LINE
  5
24E
100
AcDbEntity
  8
0
100
AcDbLine
 62
7
  6
CONTINUOUS
 10
10.1059339666
 20
9.9766060088
 11
10.2364570284
 21
9.9111949333
  0
LINE
  5
24F
100
AcDbEntity
  8
0
100
AcDbLine
 62
7
  6
CONTINUOUS
 10
10.1059773659
 20
9.9766871571
 11
10.060568685
 21
10.0014874396
  0
LINE
  5
250
100
AcDbEntity
  8
0
100
AcDbLine
 62
7
  6
CONTINUOUS
 10
9.7770387613
 20
10.172096929
 11
9.6155382506
 21
10.2643054401
  0
LINE
  5
251
100
AcDbEntity
  8
0
100
AcDbLine
 62
7
  6
CONTINUOUS
 10
9.9542583711
 20
10.0634592091
 11
9.7770387613
 21
10.172096929
  0
LINE
  5
252
100
AcDbEntity
  8
0
100
AcDbLine
 62
7
  6
CONTINUOUS
 10
13.328242485
 20
9.1450500891
 11
13.3282238822
 21
9.1450434233
  0
LWPOLYLINE
  5
253
100
AcDbEntity
  8
0
100
AcDbPolyline
 62
7
  6
CONTINUOUS
 90
6
 70
0
 10
13.218473047
 20
9.9197781671
 10
13.2021530586
 20
9.9180812738
 10
13.1805204757
 20
9.9101864498
 10
13.1611717533
 20
9.8961210929
 10
13.1452078607
 20
9.8766940127
 10
13.1322848642
 20
9.8518682006
  0
LINE
  5
254
100
AcDbEntity
  8
0
100
AcDbLine
 62
7
  6
CONTINUOUS
 10
13.9839948917
 20
9.6184292459
 11
13.766922659
 21
9.6184292459
  0
LINE
  5
255
100
AcDbEntity
  8
0
100
AcDbLine
 62
7
  6
CONTINUOUS
 10
12.979521654
 20
9.6184292459
 11
12.6830793956
 21
9.6184292459
  0
LINE
  5
256
100
AcDbEntity
  8
0
100
AcDbLine
 62
9
  6
CONTINUOUS
 10
13.766922659
 20
9.6214292459
 11
13.5008230569
 21
9.6214292459
  0
LINE
  5
257
100
AcDbEntity
  8
0
100
AcDbLine
 62
9
  6
CONTINUOUS
 10
13.0676916245
 20
9.6214292459
 11
12.979521654
 21
9.6214292459
  0
LINE
  5
258
100
AcDbEntity
  8
0
100
AcDbLine
 62
7
  6
CONTINUOUS
 10
13.6972542127
 20
9.6844292459
 11
13.4594089513
 21
9.6844292459
  0
LINE
  5
259
100
AcDbEntity
  8
0
100
AcDbLine
 62
7
  6
CONTINUOUS
 10
13.0695452944
 20
9.6844292459
 11
13.04917156
 21
9.6844292459
  0
LINE
  5
25A
100
AcDbEntity
  8
0
100
AcDbLine
 62
9
  6
CONTINUOUS
 10
13.1751482966
 20
9.7537198193
 11
13.1835462622
 21
9.7537198384
  0
LINE
  5
25B
100
AcDbEntity
  8
0
100
AcDbLine
 62
7
  6
CONTINUOUS
 10
8.9407627917
 20
9.7581057919
 11
9.0667965941
 21
9.7524621175
  0
LINE
  5
25C
100
AcDbEntity
  8
0
100
AcDbLine
 62
7
  6
CONTINUOUS
 10
11.9246801354
 20
9.4721985592
 11
11.4878254709
 21
9.541154588
  0
LINE
  5
25D
100
AcDbEntity
  8
0
100
AcDbLine
 62
7
  6
CONTINUOUS
 10
11.3649423438
 20
9.5653162516
 11
11.3221021758
 21
9.5742194611
  0
LINE
  5
25E
100
AcDbEntity
  8
0
100
AcDbLine
 62
7
  6
CONTINUOUS
 10
11.4878254709
 20
9.541154588
 11
11.0874625383
 21
9.6273325938
  0
LINE
  5
25F
100
AcDbEntity
  8
0
100
AcDbLine
 62
7
  6
CONTINUOUS
 10
11.0487900848
 20
9.636752056
 11
11.0904207155
 21
9.6266083373
  0
LINE
  5
260
100
AcDbEntity
  8
0
100
AcDbLine
 62
7
  6
CONTINUOUS
 10
11.0874625383
 20
9.6273325938
 11
10.7149103279
 21
9.7288187836
  0
LINE
  5
261
100
AcDbEntity
  8
0
100
AcDbLine
 62
7
  6
CONTINUOUS
 10
10.6437412375
 20
9.7514600249
 11
10.7186556292
 21
9.7276401022
  0
LINE
  5
262
100
AcDbEntity
  8
0
100
AcDbLine
 62
7
  6
CONTINUOUS
 10
10.506387927
 20
9.7990523079
 11
10.3707734057
 21
9.8519662818
  0
LINE
  5
263
100
AcDbEntity
  8
0
100
AcDbLine
 62
7
  6
CONTINUOUS
 10
10.3507104477
 20
9.8603342239
 11
10.506387927
 21
9.7990523079
  0
LINE
  5
264
100
AcDbEntity
  8
0
100
AcDbLine
 62
7
  6
CONTINUOUS
 10
10.2364570284
 20
9.9111949333
 11
10.3507104477
 21
9.8603342239
  0
LINE
  5
265
100
AcDbEntity
  8
0
100
AcDbLine
 62
7
  6
CONTINUOUS
 10
10.3707734057
 20
9.8519662818
 11
10.0604991719
 21
10.0014995238
  0
LINE
  5
266
100
AcDbEntity
  8
0
100
AcDbLine
 62
7
  6
CONTINUOUS
 10
9.6155964554
 20
10.26435038
 11
9.5849265586
 21
10.2800586655
  0
LWPOLYLINE
  5
267
100
AcDbEntity
  8
0
100
AcDbPolyline
 62
7
  6
CONTINUOUS
 90
4
 70
0
 10
13.1065794969
 20
9.8147515397
 10
13.0957417918
 20
9.804999281
 10
13.0861207168
 20
9.7914618638
 10
13.0795750642
 20
9.7773273311
  0
LWPOLYLINE
  5
268
100
AcDbEntity
  8
0
100
AcDbPolyline
 62
7
  6
CONTINUOUS
 90
4
 70
0
 10
13.3282238822
 20
9.1450434233
 10
13.3383585447
 20
9.1495677903
 10
13.3520997773
 20
9.1591005388
 10
13.3580912037
 20
9.1649260773
  0
LWPOLYLINE
  5
269
100
AcDbEntity
  8
0
100
AcDbPolyline
 62
7
  6
CONTINUOUS
 90
9
 70
0
 10
8.8137826502
 20
9.95002193
 10
9.0187457767
 20
9.9566044543
 10
9.2305438816
 20
9.9271724528
 10
9.4425288444
 20
9.8565401346
 10
9.6501690915
 20
9.7444855695
 10
9.8587548721
 20
9.6065536115
 10
10.0806283811
 20
9.4612105176
 10
10.3200835231
 20
9.315285051
 10
10.5803752626
 20
9.1694719768
  0
LINE
  5
26A
100
AcDbEntity
  8
0
100
AcDbLine
 62
9
  6
CONTINUOUS
 10
13.7907221565
 20
9.9189200943
 11
13.2365164605
 21
9.9189200943
  0
LINE
  5
26B
100
AcDbEntity
  8
0
100
AcDbLine
 62
9
  6
CONTINUOUS
 10
13.2102204731
 20
9.9189200943
 11
12.9557221565
 21
9.9189200943
  0
LINE
  5
26C
100
AcDbEntity
  8
0
100
AcDbLine
 62
7
  6
CONTINUOUS
 10
13.225476833
 20
9.9197781592
 11
13.2184519992
 21
9.9197781592
  0
LINE
  5
26D
100
AcDbEntity
  8
0
100
AcDbLine
 62
9
  6
CONTINUOUS
 10
12.9207221565
 20
9.9666170544
 11
13.8257221565
 21
9.9666170544
  0
LINE
  5
26E
100
AcDbEntity
  8
0
100
AcDbLine
 62
7
  6
CONTINUOUS
 10
12.9022221565
 20
10.0154292459
 11
13.8442221565
 21
10.0154292459
  0
LINE
  5
26F
100
AcDbEntity
  8
0
100
AcDbLine
 62
9
  6
CONTINUOUS
 10
12.8222221565
 20
10.0954292459
 11
13.9242221565
 21
10.0954292459
  0
LINE
  5
270
100
AcDbEntity
  8
0
100
AcDbLine
 62
9
  6
CONTINUOUS
 10
13.9242221565
 20
10.1324292459
 11
12.8222221565
 21
10.1324292459
  0
LINE
  5
271
100
AcDbEntity
  8
0
100
AcDbLine
 62
7
  6
CONTINUOUS
 10
13.1205830029
 20
9.1440274465
 11
13.12060638
 21
9.1440165503
  0
LINE
  5
272
100
AcDbEntity
  8
0
100
AcDbLine
 62
7
  6
CONTINUOUS
 10
8.617895866
 20
9.9117268356
 11
8.8137826502
 21
9.95002193
  0
LINE
  5
273
100
AcDbEntity
  8
0
100
AcDbLine
 62
7
  6
CONTINUOUS
 10
13.8442221565
 20
10.2124292459
 11
12.9022221565
 21
10.2124292459
  0
LINE
  5
274
100
AcDbEntity
  8
0
100
AcDbLine
 62
9
  6
CONTINUOUS
 10
13.8257221565
 20
10.2604292459
 11
12.9207221565
 21
10.2604292459
  0
LINE
  5
275
100
AcDbEntity
  8
0
100
AcDbLine
 62
7
  6
CONTINUOUS
 10
13.7757221565
 20
10.3104292459
 11
12.9707221565
 21
10.3104292459
  0
LINE
  5
276
100
AcDbEntity
  8
0
100
AcDbLine
 62
7
  6
CONTINUOUS
 10
8.9417857969
 20
10.4580348306
 11
8.9371669509
 21
10.4583650895
  0
LINE
  5
277
100
AcDbEntity
  8
0
100
AcDbLine
 62
7
  6
CONTINUOUS
 10
13.1205851787
 20
9.1440261295
 11
13.1235431933
 21
9.1424051046
  0
LINE
  5
278
100
AcDbEntity
  8
0
100
AcDbLine
 62
7
  6
CONTINUOUS
 10
12.3482221565
 20
7.3684292459
 11
12.3482221565
 21
7.3584292459
  0
LINE
  5
279
100
AcDbEntity
  8
0
100
AcDbLine
 62
7
  6
CONTINUOUS
 10
8.9371962151
 20
10.4583467326
 11
8.6418592941
 21
10.4543588874
  0
LINE
  5
27A
100
AcDbEntity
  8
0
100
AcDbLine
 62
7
  6
CONTINUOUS
 10
13.327979522
 20
9.8225141877
 11
13.3279951575
 21
9.8225085867
  0
LINE
  5
27B
100
AcDbEntity
  8
0
100
AcDbLine
 62
7
  6
CONTINUOUS
 10
14.4665616664
 20
7.4020230309
 11
14.466551152
 21
7.4020345361
  0
LINE
  5
27C
100
AcDbEntity
  8
0
100
AcDbLine
 62
7
  6
CONTINUOUS
 10
13.2945935208
 20
9.0829263829
 11
13.3602116715
 21
9.1614883958
  0
LINE
  5
27D
100
AcDbEntity
  8
0
100
AcDbLine
 62
7
  6
CONTINUOUS
 10
13.3185351719
 20
9.1388301545
 11
13.3185561726
 21
9.1388539744
  0
LINE
  5
27E
100
AcDbEntity
  8
0
100
AcDbLine
 62
7
  6
CONTINUOUS
 10
13.2945936032
 20
9.0829264303
 11
13.294590951
 21
9.0829234369
  0
LWPOLYLINE
  5
27F
100
AcDbEntity
  8
0
100
AcDbPolyline
 62
7
  6
CONTINUOUS
 90
7
 70
0
 10
13.3581841623
 20
9.1650266364
 10
13.4124900452
 20
9.2261496418
 10
13.4551562139
 20
9.2789071451
 10
13.48650071
 20
9.3236088038
 10
13.5082971427
 20
9.36290533
 10
13.5215242055
 20
9.4009021615
 10
13.5245601788
 20
9.4275910208
  0
LINE
  5
280
100
AcDbEntity
  8
0
100
AcDbLine
 62
7
  6
CONTINUOUS
 10
13.3580914262
 20
9.1649261053
 11
13.3581841623
 21
9.1650266364
  0
LWPOLYLINE
  5
281
100
AcDbEntity
  8
0
100
AcDbPolyline
 62
7
  6
CONTINUOUS
 90
4
 70
0
 10
13.3185351543
 20
9.1388303771
 10
13.319536
 20
9.1398627874
 10
13.3236080362
 20
9.1428856225
 10
13.3282466639
 20
9.1450516667
  0
LWPOLYLINE
  5
282
100
AcDbEntity
  8
0
100
AcDbPolyline
 62
7
  6
CONTINUOUS
 90
4
 70
0
 10
13.2858051996
 20
9.0736002363
 10
13.2877820914
 20
9.0756085767
 10
13.2920186785
 20
9.0800766476
 10
13.294590951
 20
9.0829234369
  0
LINE
  5
283
100
AcDbEntity
  8
0
100
AcDbLine
 62
7
  6
CONTINUOUS
 10
13.2858051251
 20
9.073600281
 11
13.2857529856
 21
9.0735478947
  0
LINE
  5
284
100
AcDbEntity
  8
0
100
AcDbLine
 62
7
  6
CONTINUOUS
 10
8.6418592941
 20
10.4543588874
 11
8.365260715
 21
10.4064004335
  0
LWPOLYLINE
  5
285
100
AcDbEntity
  8
0
100
AcDbPolyline
 62
7
  6
CONTINUOUS
 90
3
 70
0
 10
13.3279993228
 20
9.8225070212
 10
13.3205497293
 20
9.8266063662
 10
13.3183713284
 20
9.8286440372
  0
LINE
  5
286
100
AcDbEntity
  8
0
100
AcDbLine
 62
7
  6
CONTINUOUS
 10
14.466551152
 20
7.4020345361
 11
14.3629577706
 21
7.519650659
  0
LINE
  5
287
100
AcDbEntity
  8
0
100
AcDbLine
 62
7
  6
CONTINUOUS
 10
14.3629538977
 20
7.5196555659
 11
14.2557049895
 21
7.6555376766
  0
LINE
  5
288
100
AcDbEntity
  8
0
100
AcDbLine
 62
7
  6
CONTINUOUS
 10
14.2735496192
 20
7.4004966222
 11
14.2735393764
 21
7.4005104776
  0
LWPOLYLINE
  5
289
100
AcDbEntity
  8
0
100
AcDbPolyline
 62
7
  6
CONTINUOUS
 90
4
 70
0
 10
14.2735393764
 20
7.4005104776
 10
14.1937827797
 20
7.5107980121
 10
14.105131368
 20
7.6467802071
 10
14.0248986535
 20
7.7845324617
  0
LINE
  5
28A
100
AcDbEntity
  8
0
100
AcDbLine
 62
7
  6
CONTINUOUS
 10
12.8222221565
 20
10.1324292459
 11
12.8222221565
 21
10.0954292459
  0
LINE
  5
28B
100
AcDbEntity
  8
0
100
AcDbLine
 62
7
  6
CONTINUOUS
 10
12.8807221565
 20
9.458877864
 11
12.8807221565
 21
9.5159806278
  0
LINE
  5
28C
100
AcDbEntity
  8
0
100
AcDbLine
 62
7
  6
CONTINUOUS
 10
12.8819127511
 20
9.6184292459
 11
12.8819127511
 21
9.5256469254
  0
LINE
  5
28D
100
AcDbEntity
  8
0
100
AcDbLine
 62
9
  6
CONTINUOUS
 10
12.9159834333
 20
9.5159815095
 11
12.9159834333
 21
9.4588769822
  0
LINE
  5
28E
100
AcDbEntity
  8
0
100
AcDbLine
 62
7
  6
CONTINUOUS
 10
12.9207221565
 20
10.2604292459
 11
12.9207221565
 21
10.2124292459
  0
LINE
  5
28F
100
AcDbEntity
  8
0
100
AcDbLine
 62
7
  6
CONTINUOUS
 10
12.9207221565
 20
10.0154292459
 11
12.9207221565
 21
9.9666170544
  0
LWPOLYLINE
  5
290
100
AcDbEntity
  8
0
100
AcDbPolyline
 62
7
  6
CONTINUOUS
 90
5
 70
0
 10
13.0192221565
 20
8.9834292459
 10
12.9805266859
 20
8.74170598
 10
12.9189551809
 20
8.4992277658
 10
12.8356272154
 20
8.2631765947
 10
12.7310790383
 20
8.0355618627
  0
LINE
  5
291
100
AcDbEntity
  8
0
100
AcDbLine
 62
7
  6
CONTINUOUS
 10
13.0751785971
 20
9.7625189411
 11
13.0721998084
 21
9.7455048937
  0
LWPOLYLINE
  5
292
100
AcDbEntity
  8
0
100
AcDbPolyline
 62
7
  6
CONTINUOUS
 90
3
 70
0
 10
13.1219150348
 20
9.8210156941
 10
13.1143546632
 20
9.78470094
 10
13.1102470567
 20
9.7460177349
  0
LINE
  5
293
100
AcDbEntity
  8
0
100
AcDbLine
 62
7
  6
CONTINUOUS
 10
13.0795997496
 20
9.7773939061
 11
13.0751644472
 21
9.7624580247
  0
LINE
  5
294
100
AcDbEntity
  8
0
100
AcDbLine
 62
7
  6
CONTINUOUS
 10
13.1322848642
 20
9.8518682006
 11
13.1219150348
 21
9.8210156941
  0
LWPOLYLINE
  5
295
100
AcDbEntity
  8
0
100
AcDbPolyline
 62
7
  6
CONTINUOUS
 90
13
 70
0
 10
12.7310790383
 20
8.0355618627
 10
12.7240397371
 20
8.0220173946
 10
12.7200019937
 20
8.0143360793
 10
12.7157703672
 20
8.0063558194
 10
12.7113103595
 20
7.9980227724
 10
12.7066097123
 20
7.9893266901
 10
12.7016691659
 20
7.9802820713
 10
12.6964880046
 20
7.9709007637
 10
12.6910567752
 20
7.9611790141
 10
12.685406283
 20
7.9511844566
 10
12.6799360123
 20
7.9416235774
 10
12.6746694346
 20
7.9325256894
 10
12.6695192009
 20
7.9237302114
  0
LINE
  5
296
100
AcDbEntity
  8
0
100
AcDbLine
 62
7
  6
CONTINUOUS
 10
12.6695192009
 20
7.9237302114
 11
12.6644195669
 21
7.9151194621
  0
LINE
  5
297
100
AcDbEntity
  8
0
100
AcDbLine
 62
7
  6
CONTINUOUS
 10
12.6659632826
 20
7.917680745
 11
12.658678748
 21
7.9055418795
  0
LINE
  5
298
100
AcDbEntity
  8
0
100
AcDbLine
 62
7
  6
CONTINUOUS
 10
12.665971037
 20
7.9176937596
 11
12.5873809507
 21
7.7929188617
  0
LINE
  5
299
100
AcDbEntity
  8
0
100
AcDbLine
 62
7
  6
CONTINUOUS
 10
12.5873809507
 20
7.7929188617
 11
12.5873780119
 21
7.7929144346
  0
LINE
  5
29A
100
AcDbEntity
  8
0
100
AcDbLine
 62
7
  6
CONTINUOUS
 10
13.3602116715
 20
9.1614883958
 11
13.3794958777
 21
9.1890136527
  0
LINE
  5
29B
100
AcDbEntity
  8
0
100
AcDbLine
 62
7
  6
CONTINUOUS
 10
12.5873779018
 20
7.7929145711
 11
12.4907447345
 21
7.6555452737
  0
LINE
  5
29C
100
AcDbEntity
  8
0
100
AcDbLine
 62
7
  6
CONTINUOUS
 10
12.4907495416
 20
7.6555513643
 11
12.3834946749
 21
7.5196603844
  0
LINE
  5
29D
100
AcDbEntity
  8
0
100
AcDbLine
 62
7
  6
CONTINUOUS
 10
12.3834946749
 20
7.5196603844
 11
12.2798930209
 21
7.4020343848
  0
LINE
  5
29E
100
AcDbEntity
  8
0
100
AcDbLine
 62
7
  6
CONTINUOUS
 10
12.2798930209
 20
7.4020343848
 11
12.279882678
 21
7.4020230648
  0
LINE
  5
29F
100
AcDbEntity
  8
0
100
AcDbLine
 62
7
  6
CONTINUOUS
 10
14.2557000471
 20
7.6555447026
 11
14.1590663571
 21
7.792914557
  0
LINE
  5
2A0
100
AcDbEntity
  8
0
100
AcDbLine
 62
7
  6
CONTINUOUS
 10
14.159066196
 20
7.7929147227
 11
14.15906351
 21
7.7929187691
  0
LINE
  5
2A1
100
AcDbEntity
  8
0
100
AcDbLine
 62
7
  6
CONTINUOUS
 10
14.15906351
 20
7.7929187691
 11
14.0805179216
 21
7.9176189821
  0
LWPOLYLINE
  5
2A2
100
AcDbEntity
  8
0
100
AcDbPolyline
 62
7
  6
CONTINUOUS
 90
3
 70
0
 10
13.1105496541
 20
9.2209463033
 10
13.1146931449
 20
9.1823733643
 10
13.1222689529
 20
9.1461828316
  0
LWPOLYLINE
  5
2A3
100
AcDbEntity
  8
0
100
AcDbPolyline
 62
7
  6
CONTINUOUS
 90
8
 70
0
 10
13.0711151725
 20
9.2378986692
 10
13.0724937546
 20
9.2215809771
 10
13.0754637252
 20
9.2048172639
 10
13.079852715
 20
9.1901075079
 10
13.0863338792
 20
9.1761274604
 10
13.0959443988
 20
9.1625910791
 10
13.1091920667
 20
9.1506472306
 10
13.12060638
 20
9.1440165503
  0
LINE
  5
2A4
100
AcDbEntity
  8
0
100
AcDbLine
 62
7
  6
CONTINUOUS
 10
13.1105482543
 20
9.2209718495
 11
13.1105496541
 21
9.2209463033
  0
LINE
  5
2A5
100
AcDbEntity
  8
0
100
AcDbLine
 62
7
  6
CONTINUOUS
 10
13.0582221565
 20
9.2904292459
 11
13.0582221565
 21
9.0944292459
  0
LINE
  5
2A6
100
AcDbEntity
  8
0
100
AcDbLine
 62
7
  6
CONTINUOUS
 10
13.1202221565
 20
9.0144292459
 11
13.1202221565
 21
8.9834292459
  0
LWPOLYLINE
  5
2A7
100
AcDbEntity
  8
0
100
AcDbPolyline
 62
7
  6
CONTINUOUS
 90
4
 70
0
 10
13.070869656
 20
9.7294401477
 10
13.0661048395
 20
9.5674997618
 10
13.0661971507
 20
9.3993334132
 10
13.0711151077
 20
9.2379000991
  0
LINE
  5
2A8
100
AcDbEntity
  8
0
100
AcDbLine
 62
7
  6
CONTINUOUS
 10
13.1102458206
 20
9.7459968504
 11
13.11024696
 21
9.7460177999
  0
LINE
  5
2A9
100
AcDbEntity
  8
0
100
AcDbLine
 62
7
  6
CONTINUOUS
 10
13.0722063625
 20
9.7455577842
 11
13.0708697193
 21
9.7294415739
  0
LINE
  5
2AA
100
AcDbEntity
  8
0
100
AcDbLine
 62
7
  6
CONTINUOUS
 10
13.0721998084
 20
9.7455048937
 11
13.0708697147
 21
9.729441471
  0
LINE
  5
2AB
100
AcDbEntity
  8
0
100
AcDbLine
 62
7
  6
CONTINUOUS
 10
12.7245049648
 20
7.7899276473
 11
12.7215451566
 21
7.7845317416
  0
LWPOLYLINE
  5
2AC
100
AcDbEntity
  8
0
100
AcDbPolyline
 62
7
  6
CONTINUOUS
 90
4
 70
0
 10
12.7215457357
 20
7.7845324314
 10
12.6413218143
 20
7.6467946275
 10
12.5526742565
 20
7.5108162968
 10
12.4729085938
 20
7.4005150818
  0
LINE
  5
2AD
100
AcDbEntity
  8
0
100
AcDbLine
 62
7
  6
CONTINUOUS
 10
12.4729085938
 20
7.4005150818
 11
12.4728948626
 21
7.4004966263
  0
LWPOLYLINE
  5
2AE
100
AcDbEntity
  8
0
100
AcDbPolyline
 62
7
  6
CONTINUOUS
 90
5
 70
0
 10
13.2849384901
 20
9.89458039
 10
13.2735781285
 20
9.9041497643
 10
13.2563245983
 20
9.9136800807
 10
13.2379402046
 20
9.9188095915
 10
13.2254609807
 20
9.9197781572
  0
LWPOLYLINE
  5
2AF
100
AcDbEntity
  8
0
100
AcDbPolyline
 62
7
  6
CONTINUOUS
 90
4
 70
0
 10
13.3573891527
 20
9.8031193862
 10
13.3519185631
 20
9.8083991847
 10
13.3381514348
 20
9.8179685497
 10
13.327979522
 20
9.8225141877
  0
LINE
  5
2B0
100
AcDbEntity
  8
0
100
AcDbLine
 62
7
  6
CONTINUOUS
 10
13.2849868133
 20
9.8945327864
 11
13.2849385693
 21
9.8945804466
  0
LINE
  5
2B1
100
AcDbEntity
  8
0
100
AcDbLine
 62
7
  6
CONTINUOUS
 10
13.3573891527
 20
9.8031193862
 11
13.3574819656
 21
9.8030204709
  0
LWPOLYLINE
  5
2B2
100
AcDbEntity
  8
0
100
AcDbPolyline
 62
7
  6
CONTINUOUS
 90
4
 70
0
 10
13.2938000441
 20
9.8853424462
 10
13.2910498677
 20
9.8883286086
 10
13.286807086
 20
9.8927164506
 10
13.2849868133
 20
9.8945327864
  0
LINE
  5
2B3
100
AcDbEntity
  8
0
100
AcDbLine
 62
7
  6
CONTINUOUS
 10
13.2938081797
 20
9.8853334481
 11
13.2937999955
 21
9.8853425193
  0
LINE
  5
2B4
100
AcDbEntity
  8
0
100
AcDbLine
 62
7
  6
CONTINUOUS
 10
13.3183713284
 20
9.8286440372
 11
13.3184035463
 21
9.8286081208
  0
LINE
  5
2B5
100
AcDbEntity
  8
0
100
AcDbLine
 62
7
  6
CONTINUOUS
 10
13.360229696
 20
9.8072797637
 11
13.2938081797
 21
9.8853334481
  0
LINE
  5
2B6
100
AcDbEntity
  8
0
100
AcDbLine
 62
7
  6
CONTINUOUS
 10
14.0805179216
 20
7.9176189821
 11
14.0877666781
 21
7.905540032
  0
LINE
  5
2B7
100
AcDbEntity
  8
0
100
AcDbLine
 62
7
  6
CONTINUOUS
 10
14.0820836153
 20
7.9150206289
 11
14.0769799979
 21
7.923637017
  0
LWPOLYLINE
  5
2B8
100
AcDbEntity
  8
0
100
AcDbPolyline
 62
7
  6
CONTINUOUS
 90
12
 70
0
 10
14.0769799979
 20
7.923637017
 10
14.0718264538
 20
7.9324371131
 10
14.0665572082
 20
7.9415386078
 10
14.061084854
 20
7.9511021384
 10
14.0554297356
 20
7.9611039256
 10
14.0499925339
 20
7.9708355422
 10
14.0448058474
 20
7.980226172
 10
14.0398602307
 20
7.9892795179
 10
14.0351549313
 20
7.9979837667
 10
14.0306905562
 20
8.006324636
 10
14.0264544514
 20
8.0143130971
 10
14.0224123912
 20
8.0220024645
  0
LINE
  5
2B9
100
AcDbEntity
  8
0
100
AcDbLine
 62
7
  6
CONTINUOUS
 10
14.0248991563
 20
7.7845317416
 11
14.0219959165
 21
7.7898243308
  0
LINE
  5
2BA
100
AcDbEntity
  8
0
100
AcDbLine
 62
7
  6
CONTINUOUS
 10
14.0218681224
 20
7.7900578538
 11
14.0217844442
 21
7.7902108545
  0
LINE
  5
2BB
100
AcDbEntity
  8
0
100
AcDbLine
 62
7
  6
CONTINUOUS
 10
14.0224123912
 20
8.0220024645
 11
14.0153652747
 21
8.0355618627
  0
LWPOLYLINE
  5
2BC
100
AcDbEntity
  8
0
100
AcDbPolyline
 62
7
  6
CONTINUOUS
 90
7
 70
0
 10
13.1222689529
 20
9.1461828316
 10
13.1326334065
 20
9.1154554461
 10
13.1455471473
 20
9.0907169783
 10
13.1615085771
 20
9.0713428415
 10
13.1808454316
 20
9.0573228833
 10
13.2024434777
 20
9.0494637203
 10
13.2187042123
 20
9.0477791287
  0
LINE
  5
2BD
100
AcDbEntity
  8
0
100
AcDbLine
 62
9
  6
CONTINUOUS
 10
13.3732221565
 20
8.9834285491
 11
13.3732221565
 21
7.402201986
  0
LINE
  5
2BE
100
AcDbEntity
  8
0
100
AcDbLine
 62
7
  6
CONTINUOUS
 10
13.5245604271
 20
9.5447516711
 11
13.5245604314
 21
9.4275918897
  0
LINE
  5
2BF
100
AcDbEntity
  8
0
100
AcDbLine
 62
7
  6
CONTINUOUS
 10
13.3851621514
 20
9.7724253011
 11
13.360229696
 21
9.8072797637
  0
LWPOLYLINE
  5
2C0
100
AcDbEntity
  8
0
100
AcDbPolyline
 62
7
  6
CONTINUOUS
 90
5
 70
0
 10
14.0153652747
 20
8.0355618627
 10
13.9108170976
 20
8.2631765947
 10
13.827489132
 20
8.4992277658
 10
13.765917627
 20
8.74170598
 10
13.7272221565
 20
8.9834292459
  0
LINE
  5
2C1
100
AcDbEntity
  8
0
100
AcDbLine
 62
7
  6
CONTINUOUS
 10
13.6262221565
 20
9.0144292459
 11
13.6262221565
 21
8.9834292459
  0
LINE
  5
2C2
100
AcDbEntity
  8
0
100
AcDbLine
 62
7
  6
CONTINUOUS
 10
13.6882221565
 20
9.2904292459
 11
13.6882221565
 21
9.0944292459
  0
LINE
  5
2C3
100
AcDbEntity
  8
0
100
AcDbLine
 62
9
  6
CONTINUOUS
 10
13.7548725351
 20
9.3065626228
 11
13.7548725351
 21
9.3208234382
  0
LINE
  5
2C4
100
AcDbEntity
  8
0
100
AcDbLine
 62
7
  6
CONTINUOUS
 10
13.8257221565
 20
10.2604292459
 11
13.8257221565
 21
10.2124292459
  0
LINE
  5
2C5
100
AcDbEntity
  8
0
100
AcDbLine
 62
7
  6
CONTINUOUS
 10
13.8257221565
 20
10.0154292459
 11
13.8257221565
 21
9.9666170544
  0
LWPOLYLINE
  5
2C6
100
AcDbEntity
  8
0
100
AcDbPolyline
 62
7
  6
CONTINUOUS
 90
7
 70
0
 10
13.5245600535
 20
9.5447480427
 10
13.5213345662
 20
9.5718086199
 10
13.5078743593
 20
9.6090781883
 10
13.4859442959
 20
9.6474908757
 10
13.4544909885
 20
9.6912752671
 10
13.4117677206
 20
9.7430176958
 10
13.3574822748
 20
9.8030203574
  0
LINE
  5
2C7
100
AcDbEntity
  8
0
100
AcDbLine
 62
7
  6
CONTINUOUS
 10
13.8657221565
 20
9.458877864
 11
13.8657221565
 21
9.5159806278
  0
LINE
  5
2C8
100
AcDbEntity
  8
0
100
AcDbLine
 62
7
  6
CONTINUOUS
 10
13.9242221565
 20
10.1324292459
 11
13.9242221565
 21
10.0954292459
  0
LINE
  5
2C9
100
AcDbEntity
  8
0
100
AcDbLine
 62
9
  6
CONTINUOUS
 10
13.9467254092
 20
9.502671757
 11
13.9467254092
 21
9.6184292459
  0
LINE
  5
2CA
100
AcDbEntity
  8
0
100
AcDbLine
 62
7
  6
CONTINUOUS
 10
14.3982221565
 20
7.3684292459
 11
14.3982221565
 21
7.3584292459
  0
ARC
  5
2CB
100
AcDbEntity
  8
0
100
AcDbCircle
 62
7
  6
CONTINUOUS
 10
8.6099319424
 20
8.3412073938
 40
2.1701153384
100
AcDbArc
 50
61.8275611044
 51
62.2189612982
  0
ARC
  5
2CC
100
AcDbEntity
  8
0
100
AcDbCircle
 62
7
  6
CONTINUOUS
 10
8.8235112339
 20
8.5963040703
 40
2.065647846
100
AcDbArc
 50
109.1538658319
 51
117.2947052007
  0
ARC
  5
2CD
100
AcDbEntity
  8
0
100
AcDbCircle
 62
7
  6
CONTINUOUS
 10
8.676847709
 20
8.4692218444
 40
2.0256663197
100
AcDbArc
 50
62.3930179496
 51
63.3724538168
  0
ARC
  5
2CE
100
AcDbEntity
  8
0
100
AcDbCircle
 62
7
  6
CONTINUOUS
 10
8.6901336605
 20
8.4960066726
 40
1.9958747439
100
AcDbArc
 50
61.7594771426
 51
62.1847156333
  0
ARC
  5
2CF
100
AcDbEntity
  8
0
100
AcDbCircle
 62
7
  6
CONTINUOUS
 10
8.9034777666
 20
8.5270209819
 40
1.9398135714
100
AcDbArc
 50
166.0303468709
 51
166.7983547554
  0
ARC
  5
2D0
100
AcDbEntity
  8
0
100
AcDbCircle
 62
7
  6
CONTINUOUS
 10
8.725452673
 20
8.5628067773
 40
1.920312307
100
AcDbArc
 50
62.1867353649
 51
62.3841802579
  0
ARC
  5
2D1
100
AcDbEntity
  8
0
100
AcDbCircle
 62
7
  6
CONTINUOUS
 10
8.8142725157
 20
8.6791789079
 40
1.9933729351
100
AcDbArc
 50
135.1592846948
 51
142.131061493
  0
ARC
  5
2D2
100
AcDbEntity
  8
0
100
AcDbCircle
 62
7
  6
CONTINUOUS
 10
8.8173616956
 20
8.7386570038
 40
1.9234113843
100
AcDbArc
 50
84.0023703354
 51
86.2262776729
  0
ARC
  5
2D3
100
AcDbEntity
  8
0
100
AcDbCircle
 62
7
  6
CONTINUOUS
 10
8.7597506839
 20
8.7315946953
 40
1.9177531981
100
AcDbArc
 50
133.2934747671
 51
135.1210733418
  0
ARC
  5
2D4
100
AcDbEntity
  8
0
100
AcDbCircle
 62
7
  6
CONTINUOUS
 10
8.8267230695
 20
8.7829839492
 40
1.8779383711
100
AcDbArc
 50
74.6731847229
 51
75.1933580658
  0
ARC
  5
2D5
100
AcDbEntity
  8
0
100
AcDbCircle
 62
7
  6
CONTINUOUS
 10
8.7320572596
 20
8.7610416035
 40
1.8773298779
100
AcDbArc
 50
129.602886256
 51
133.2945767317
  0
ARC
  5
2D6
100
AcDbEntity
  8
0
100
AcDbCircle
 62
7
  6
CONTINUOUS
 10
8.8174876442
 20
8.6292854217
 40
1.833476204
100
AcDbArc
 50
94.1576579642
 51
96.7465673031
  0
ARC
  5
2D7
100
AcDbEntity
  8
0
100
AcDbCircle
 62
7
  6
CONTINUOUS
 10
8.7731013505
 20
8.6626467368
 40
1.8096149595
100
AcDbArc
 50
63.4887755155
 51
66.0837541828
  0
ARC
  5
2D8
100
AcDbEntity
  8
0
100
AcDbCircle
 62
7
  6
CONTINUOUS
 10
8.7826132987
 20
8.6770493784
 40
1.7925621024
100
AcDbArc
 50
63.5553631974
 51
66.1750694982
  0
ARC
  5
2D9
100
AcDbEntity
  8
0
100
AcDbCircle
 62
7
  6
CONTINUOUS
 10
8.8138491247
 20
8.6922675723
 40
1.770396253
100
AcDbArc
 50
86.1547135848
 51
94.1879931591
  0
ARC
  5
2DA
100
AcDbEntity
  8
0
100
AcDbCircle
 62
7
  6
CONTINUOUS
 10
8.811806269
 20
8.7403305531
 40
1.7229937711
100
AcDbArc
 50
71.9764497897
 51
73.5218475369
  0
ARC
  5
2DB
100
AcDbEntity
  8
0
100
AcDbCircle
 62
7
  6
CONTINUOUS
 10
8.8117317029
 20
8.7419711578
 40
1.7214105608
100
AcDbArc
 50
66.1887934833
 51
71.9571370299
  0
ARC
  5
2DC
100
AcDbEntity
  8
0
100
AcDbCircle
 62
7
  6
CONTINUOUS
 10
8.8156897805
 20
8.7476207066
 40
1.7150513353
100
AcDbArc
 50
84.8321929517
 51
85.8179031636
  0
ARC
  5
2DD
100
AcDbEntity
  8
0
100
AcDbCircle
 62
7
  6
CONTINUOUS
 10
8.8137214277
 20
8.7480649364
 40
1.7150001691
100
AcDbArc
 50
71.9572861667
 51
73.5098389242
  0
ARC
  5
2DE
100
AcDbEntity
  8
0
100
AcDbCircle
 62
7
  6
CONTINUOUS
 10
8.8145996971
 20
8.749964408
 40
1.712963244
100
AcDbArc
 50
73.5200432038
 51
77.670809378
  0
ARC
  5
2DF
100
AcDbEntity
  8
0
100
AcDbCircle
 62
7
  6
CONTINUOUS
 10
8.8169415182
 20
8.7547775986
 40
1.7078197169
100
AcDbArc
 50
84.8523939656
 51
85.8078734141
  0
ARC
  5
2E0
100
AcDbEntity
  8
0
100
AcDbCircle
 62
7
  6
CONTINUOUS
 10
8.8167207329
 20
8.7575063162
 40
1.7051130535
100
AcDbArc
 50
79.2209564354
 51
84.8367741332
  0
ARC
  5
2E1
100
AcDbEntity
  8
0
100
AcDbCircle
 62
7
  6
CONTINUOUS
 10
8.8166893923
 20
8.7582127237
 40
1.7044273172
100
AcDbArc
 50
73.5086768669
 51
77.6801359978
  0
ARC
  5
2E2
100
AcDbEntity
  8
0
100
AcDbCircle
 62
7
  6
CONTINUOUS
 10
8.8172040987
 20
8.7602957232
 40
1.7022824642
100
AcDbArc
 50
77.6821018359
 51
79.2193797726
  0
ARC
  5
2E3
100
AcDbEntity
  8
0
100
AcDbCircle
 62
7
  6
CONTINUOUS
 10
8.8176979651
 20
8.7626481834
 40
1.6999130061
100
AcDbArc
 50
79.2209346389
 51
84.8539859453
  0
ARC
  5
2E4
100
AcDbEntity
  8
0
100
AcDbCircle
 62
7
  6
CONTINUOUS
 10
8.8182642776
 20
8.7658924458
 40
1.6966200743
100
AcDbArc
 50
77.6768536212
 51
79.2192316099
  0
ARC
  5
2E5
100
AcDbEntity
  8
0
100
AcDbCircle
 62
7
  6
CONTINUOUS
 10
8.820692524
 20
8.7657690391
 40
1.6960541879
100
AcDbArc
 50
66.1411523876
 51
71.996020717
  0
ARC
  5
2E6
100
AcDbEntity
  8
0
100
AcDbCircle
 62
7
  6
CONTINUOUS
 10
8.8782875306
 20
8.8637259225
 40
1.0764847019
100
AcDbArc
 50
123.2193628218
 51
124.2376833761
  0
ARC
  5
2E7
100
AcDbEntity
  8
0
100
AcDbCircle
 62
7
  6
CONTINUOUS
 10
8.853977298
 20
8.8991629422
 40
1.0335109517
100
AcDbArc
 50
124.2288300623
 51
127.7764361217
  0
ARC
  5
2E8
100
AcDbEntity
  8
0
100
AcDbCircle
 62
7
  6
CONTINUOUS
 10
9.214829605
 20
8.4416163211
 40
2.4625912394
100
AcDbArc
 50
159.4733540181
 51
163.4600313319
  0
ARC
  5
2E9
100
AcDbEntity
  8
0
100
AcDbCircle
 62
7
  6
CONTINUOUS
 10
9.1200008436
 20
8.4750995026
 40
2.3620476516
100
AcDbArc
 50
151.5110516718
 51
158.8661170879
  0
ARC
  5
2EA
100
AcDbEntity
  8
0
100
AcDbCircle
 62
7
  6
CONTINUOUS
 10
9.1055034057
 20
8.4810957359
 40
2.3463634002
100
AcDbArc
 50
158.8750520043
 51
159.4401045284
  0
ARC
  5
2EB
100
AcDbEntity
  8
0
100
AcDbCircle
 62
7
  6
CONTINUOUS
 10
9.0541271327
 20
8.4902913324
 40
2.2946811129
100
AcDbArc
 50
163.4827895886
 51
163.7008783475
  0
ARC
  5
2EC
100
AcDbEntity
  8
0
100
AcDbCircle
 62
7
  6
CONTINUOUS
 10
9.0518962714
 20
8.5111531038
 40
2.2849928803
100
AcDbArc
 50
150.2073869824
 51
151.4910593059
  0
ARC
  5
2ED
100
AcDbEntity
  8
0
100
AcDbCircle
 62
7
  6
CONTINUOUS
 10
9.0386710124
 20
8.4923452452
 40
2.2792729436
100
AcDbArc
 50
163.4204016548
 51
166.5680811917
  0
ARC
  5
2EE
100
AcDbEntity
  8
0
100
AcDbCircle
 62
7
  6
CONTINUOUS
 10
8.9684150092
 20
8.5598218854
 40
2.1883616003
100
AcDbArc
 50
143.563713584
 51
150.227220695
  0
ARC
  5
2EF
100
AcDbEntity
  8
0
100
AcDbCircle
 62
7
  6
CONTINUOUS
 10
8.9162483384
 20
8.5974761232
 40
2.1240290839
100
AcDbArc
 50
142.0798369464
 51
143.5451070459
  0
ARC
  5
2F0
100
AcDbEntity
  8
0
100
AcDbCircle
 62
7
  6
CONTINUOUS
 10
9.0121141785
 20
8.4992809067
 40
2.0519337147
100
AcDbArc
 50
163.2461632301
 51
166.010970264
  0
ARC
  5
2F1
100
AcDbEntity
  8
0
100
AcDbCircle
 62
7
  6
CONTINUOUS
 10
8.9922625113
 20
8.5050013181
 40
2.0312809868
100
AcDbArc
 50
163.2391992843
 51
166.7656024905
  0
ARC
  5
2F2
100
AcDbEntity
  8
0
100
AcDbCircle
 62
7
  6
CONTINUOUS
 10
8.959040072
 20
8.6869080608
 40
1.2714488612
100
AcDbArc
 50
96.9629460348
 51
105.3399689494
  0
ARC
  5
2F3
100
AcDbEntity
  8
0
100
AcDbCircle
 62
7
  6
CONTINUOUS
 10
8.9584716208
 20
8.6890244246
 40
1.2692575156
100
AcDbArc
 50
105.3404960288
 51
105.6413188126
  0
ARC
  5
2F4
100
AcDbEntity
  8
0
100
AcDbCircle
 62
7
  6
CONTINUOUS
 10
8.9578385306
 20
8.6952964509
 40
1.26297669
100
AcDbArc
 50
96.3934340134
 51
96.9549718019
  0
ARC
  5
2F5
100
AcDbEntity
  8
0
100
AcDbCircle
 62
7
  6
CONTINUOUS
 10
8.9567833189
 20
8.7053497596
 40
1.2528684048
100
AcDbArc
 50
92.2860319072
 51
96.3966735399
  0
ARC
  5
2F6
100
AcDbEntity
  8
0
100
AcDbCircle
 62
7
  6
CONTINUOUS
 10
8.9557388589
 20
8.7261487468
 40
1.2320443275
100
AcDbArc
 50
87.6559485026
 51
92.2760801632
  0
ARC
  5
2F7
100
AcDbEntity
  8
0
100
AcDbCircle
 62
7
  6
CONTINUOUS
 10
8.794486894
 20
8.97944189
 40
0.9339224104
100
AcDbArc
 50
137.3439962777
 51
138.6367984879
  0
ARC
  5
2F8
100
AcDbEntity
  8
0
100
AcDbCircle
 62
7
  6
CONTINUOUS
 10
8.7868604348
 20
8.9864411571
 40
0.9235709753
100
AcDbArc
 50
136.7139216484
 51
137.342746549
  0
ARC
  5
2F9
100
AcDbEntity
  8
0
100
AcDbCircle
 62
7
  6
CONTINUOUS
 10
9.6242075453
 20
8.5357429591
 40
1.8779023207
100
AcDbArc
 50
156.6029944058
 51
159.4097816683
  0
ARC
  5
2FA
100
AcDbEntity
  8
0
100
AcDbCircle
 62
9
  6
CONTINUOUS
 10
10.0229050843
 20
9.4956118976
 40
3.0782500298
100
AcDbArc
 50
329.1624147025
 51
331.6671061341
  0
ARC
  5
2FB
100
AcDbEntity
  8
0
100
AcDbCircle
 62
9
  6
CONTINUOUS
 10
10.2277398961
 20
9.2638775298
 40
2.9854160018
100
AcDbArc
 50
321.4168331984
 51
330.4760047662
  0
ARC
  5
2FC
100
AcDbEntity
  8
0
100
AcDbCircle
 62
7
  6
CONTINUOUS
 10
10.2097515224
 20
9.1244378975
 40
2.845060006
100
AcDbArc
 50
322.7043029425
 51
324.4558715258
  0
ARC
  5
2FD
100
AcDbEntity
  8
0
100
AcDbCircle
 62
9
  6
CONTINUOUS
 10
10.5405296554
 20
9.2911004346
 40
2.6006415672
100
AcDbArc
 50
348.7784737086
 51
353.2056880021
  0
ARC
  5
2FE
100
AcDbEntity
  8
0
100
AcDbCircle
 62
9
  6
CONTINUOUS
 10
12.8239338013
 20
-20.2256753915
 40
29.6846931222
100
AcDbArc
 50
89.5309530345
 51
89.8223305239
  0
ARC
  5
2FF
100
AcDbEntity
  8
0
100
AcDbCircle
 62
7
  6
CONTINUOUS
 10
12.4664459222
 20
7.6201148852
 40
4.8651393653
100
AcDbArc
 50
163.7461030343
 51
164.1722420999
  0
ARC
  5
300
100
AcDbEntity
  8
0
100
AcDbCircle
 62
7
  6
CONTINUOUS
 10
11.6970412128
 20
7.8446336788
 40
4.0636456031
100
AcDbArc
 50
163.1406450722
 51
163.7488236981
  0
ARC
  5
301
100
AcDbEntity
  8
0
100
AcDbCircle
 62
7
  6
CONTINUOUS
 10
10.9416288499
 20
8.0747116428
 40
3.2739733922
100
AcDbArc
 50
162.074301334
 51
163.1599283321
  0
ARC
  5
302
100
AcDbEntity
  8
0
100
AcDbCircle
 62
9
  6
CONTINUOUS
 10
11.6812228474
 20
8.3854485929
 40
2.189481195
100
AcDbArc
 50
41.396046764
 51
41.9541950465
  0
ARC
  5
303
100
AcDbEntity
  8
0
100
AcDbCircle
 62
9
  6
CONTINUOUS
 10
11.8918415668
 20
8.5713494489
 40
1.908555199
100
AcDbArc
 50
41.0544268487
 51
41.2953939241
  0
ARC
  5
304
100
AcDbEntity
  8
0
100
AcDbCircle
 62
9
  6
CONTINUOUS
 10
11.9971841431
 20
8.6631568974
 40
1.7688209374
100
AcDbArc
 50
40.7892163467
 51
41.0529926845
  0
ARC
  5
305
100
AcDbEntity
  8
0
100
AcDbCircle
 62
9
  6
CONTINUOUS
 10
12.8471706313
 20
8.3441585795
 40
1.4080797915
100
AcDbArc
 50
47.5658997185
 51
47.7964833552
  0
ARC
  5
306
100
AcDbEntity
  8
0
100
AcDbCircle
 62
9
  6
CONTINUOUS
 10
12.6798632075
 20
8.4934626555
 40
0.1912901428
100
AcDbArc
 50
346.8803639437
 51
1.7581466664
  0
ARC
  5
307
100
AcDbEntity
  8
0
100
AcDbCircle
 62
7
  6
CONTINUOUS
 10
12.6731569706
 20
8.4712673356
 40
0.08
100
AcDbArc
 50
347.0950417784
 51
1.9070863801
  0
ARC
  5
308
100
AcDbEntity
  8
0
100
AcDbCircle
 62
7
  6
CONTINUOUS
 10
12.4171123223
 20
8.2785292062
 40
0.0799913925
100
AcDbArc
 50
344.1837848774
 51
85.9985013652
  0
ARC
  5
309
100
AcDbEntity
  8
0
100
AcDbCircle
 62
7
  6
CONTINUOUS
 10
12.9507221565
 20
9.5159806278
 40
0.07
100
AcDbArc
 50
95.7391704773
 51
180.0
  0
ARC
  5
30A
100
AcDbEntity
  8
0
100
AcDbCircle
 62
7
  6
CONTINUOUS
 10
12.9507221565
 20
9.458877864
 40
0.07
100
AcDbArc
 50
180.0
 51
264.2608295227
  0
ARC
  5
30B
100
AcDbEntity
  8
0
100
AcDbCircle
 62
7
  6
CONTINUOUS
 10
13.0491707746
 20
9.3604292459
 40
0.07
100
AcDbArc
 50
185.7391704773
 51
270.0
  0
ARC
  5
30C
100
AcDbEntity
  8
0
100
AcDbCircle
 62
9
  6
CONTINUOUS
 10
13.0711698879
 20
9.3522548972
 40
0.0618439392
100
AcDbArc
 50
250.6255568225
 51
254.9886420825
  0
ARC
  5
30D
100
AcDbEntity
  8
0
100
AcDbCircle
 62
9
  6
CONTINUOUS
 10
13.0710412011
 20
9.3517883779
 40
0.061360009
100
AcDbArc
 50
254.9918747437
 51
268.565455177
  0
ARC
  5
30E
100
AcDbEntity
  8
0
100
AcDbCircle
 62
7
  6
CONTINUOUS
 10
12.9397221565
 20
9.3494292459
 40
0.04
100
AcDbArc
 50
5.7391704773
 51
84.2608295227
  0
ARC
  5
30F
100
AcDbEntity
  8
0
100
AcDbCircle
 62
7
  6
CONTINUOUS
 10
13.0387221565
 20
9.0544292459
 40
0.04
100
AcDbArc
 50
90.0
 51
270.0
  0
ARC
  5
310
100
AcDbEntity
  8
0
100
AcDbCircle
 62
7
  6
CONTINUOUS
 10
12.5741235704
 20
7.9084292459
 40
0.04
100
AcDbArc
 50
238.66208659
 51
270.0000870449
  0
ARC
  5
311
100
AcDbEntity
  8
0
100
AcDbCircle
 62
7
  6
CONTINUOUS
 10
12.2945786361
 20
7.3885284263
 40
0.0200991967
100
AcDbArc
 50
251.7707421647
 51
269.926688294
  0
ARC
  5
312
100
AcDbEntity
  8
0
100
AcDbCircle
 62
7
  6
CONTINUOUS
 10
12.2945518704
 20
7.3884271909
 40
0.0199974166
100
AcDbArc
 50
137.1746165058
 51
270.0021735441
  0
ARC
  5
313
100
AcDbEntity
  8
0
100
AcDbCircle
 62
7
  6
CONTINUOUS
 10
12.4888424412
 20
7.3884258423
 40
0.0199961987
100
AcDbArc
 50
142.8777961113
 51
269.9513677969
  0
ARC
  5
314
100
AcDbEntity
  8
0
100
AcDbCircle
 62
9
  6
CONTINUOUS
 10
13.1245101149
 20
9.1524191075
 40
0.0092655426
100
AcDbArc
 50
244.2118671038
 51
244.9260023287
  0
ARC
  5
315
100
AcDbEntity
  8
0
100
AcDbCircle
 62
9
  6
CONTINUOUS
 10
13.2186788535
 20
9.0552134854
 40
0.0074334213
100
AcDbArc
 50
261.5120760822
 51
270.0248416485
  0
ARC
  5
316
100
AcDbEntity
  8
0
100
AcDbCircle
 62
9
  6
CONTINUOUS
 10
7.591900091
 20
9.6042472296
 40
5.210247665
100
AcDbArc
 50
335.8643042875
 51
346.0851118094
  0
ARC
  5
317
100
AcDbEntity
  8
0
100
AcDbCircle
 62
7
  6
CONTINUOUS
 10
7.6858080804
 20
9.6139924868
 40
5.1965883608
100
AcDbArc
 50
343.9719164341
 51
345.892685457
  0
ARC
  5
318
100
AcDbEntity
  8
0
100
AcDbCircle
 62
7
  6
CONTINUOUS
 10
7.6876933968
 20
9.6134432969
 40
5.1946246973
100
AcDbArc
 50
342.5764890054
 51
343.9719968314
  0
ARC
  5
319
100
AcDbEntity
  8
0
100
AcDbCircle
 62
7
  6
CONTINUOUS
 10
7.6888718889
 20
9.6132243669
 40
5.1934297334
100
AcDbArc
 50
345.892665433
 51
347.0953415101
  0
ARC
  5
31A
100
AcDbEntity
  8
0
100
AcDbCircle
 62
7
  6
CONTINUOUS
 10
7.6924655889
 20
9.6119383458
 40
5.1896346184
100
AcDbArc
 50
342.5765657734
 51
343.9734197262
  0
ARC
  5
31B
100
AcDbEntity
  8
0
100
AcDbCircle
 62
7
  6
CONTINUOUS
 10
7.6984930195
 20
9.6099798601
 40
5.1832835234
100
AcDbArc
 50
339.6977835461
 51
342.5772712887
  0
ARC
  5
31C
100
AcDbEntity
  8
0
100
AcDbCircle
 62
7
  6
CONTINUOUS
 10
7.7011852348
 20
9.6091376199
 40
5.1804764238
100
AcDbArc
 50
339.6961878863
 51
342.5772436381
  0
ARC
  5
31D
100
AcDbEntity
  8
0
100
AcDbCircle
 62
7
  6
CONTINUOUS
 10
7.7070796655
 20
9.6069006907
 40
5.1741619368
100
AcDbArc
 50
339.7144570761
 51
340.3438672515
  0
ARC
  5
31E
100
AcDbEntity
  8
0
100
AcDbCircle
 62
7
  6
CONTINUOUS
 10
7.7090565956
 20
9.6063119669
 40
5.1721136496
100
AcDbArc
 50
339.7080607775
 51
340.2586175734
  0
ARC
  5
31F
100
AcDbEntity
  8
0
100
AcDbCircle
 62
7
  6
CONTINUOUS
 10
7.7155598061
 20
9.6037516263
 40
5.1651159831
100
AcDbArc
 50
338.6455959307
 51
339.7019808847
  0
ARC
  5
320
100
AcDbEntity
  8
0
100
AcDbCircle
 62
7
  6
CONTINUOUS
 10
7.7163218184
 20
9.6034639021
 40
5.1643014755
100
AcDbArc
 50
338.5107123437
 51
339.6969521687
  0
ARC
  5
321
100
AcDbEntity
  8
0
100
AcDbCircle
 62
7
  6
CONTINUOUS
 10
7.71701191
 20
9.6033517119
 40
5.1636254327
100
AcDbArc
 50
338.5038897552
 51
339.7082560944
  0
ARC
  5
322
100
AcDbEntity
  8
0
100
AcDbCircle
 62
7
  6
CONTINUOUS
 10
7.7170472505
 20
9.6033378767
 40
5.1635874818
100
AcDbArc
 50
338.5090646526
 51
339.6954698843
  0
ARC
  5
323
100
AcDbEntity
  8
0
100
AcDbCircle
 62
7
  6
CONTINUOUS
 10
7.7221730855
 20
9.6011859441
 40
5.158022476
100
AcDbArc
 50
338.5115833527
 51
338.6453893888
  0
ARC
  5
324
100
AcDbEntity
  8
0
100
AcDbCircle
 62
7
  6
CONTINUOUS
 10
7.7240180053
 20
9.600616551
 40
5.1561043972
100
AcDbArc
 50
338.3525279195
 51
338.5036409507
  0
ARC
  5
325
100
AcDbEntity
  8
0
100
AcDbCircle
 62
7
  6
CONTINUOUS
 10
7.7254336951
 20
9.599899238
 40
5.1545171687
100
AcDbArc
 50
338.100862971
 51
338.5116152019
  0
ARC
  5
326
100
AcDbEntity
  8
0
100
AcDbCircle
 62
7
  6
CONTINUOUS
 10
7.7260117258
 20
9.5998248928
 40
5.1539592529
100
AcDbArc
 50
338.1472181314
 51
338.3525318146
  0
ARC
  5
327
100
AcDbEntity
  8
0
100
AcDbCircle
 62
9
  6
CONTINUOUS
 10
7.858880427
 20
9.6199070182
 40
5.1421235666
100
AcDbArc
 50
343.4125467191
 51
346.8497114501
  0
ARC
  5
328
100
AcDbEntity
  8
0
100
AcDbCircle
 62
7
  6
CONTINUOUS
 10
7.6830793816
 20
9.6184292459
 40
5.0
100
AcDbArc
 50
333.2563162197
 51
344.1963914529
  0
ARC
  5
329
100
AcDbEntity
  8
0
100
AcDbCircle
 62
9
  6
CONTINUOUS
 10
7.8997545382
 20
9.596655489
 40
4.8954788255
100
AcDbArc
 50
332.9247746869
 51
333.3833757882
  0
ARC
  5
32A
100
AcDbEntity
  8
0
100
AcDbCircle
 62
7
  6
CONTINUOUS
 10
11.8105283065
 20
13.3494052596
 40
3.5816708002
100
AcDbArc
 50
249.2257170534
 51
249.5023753176
  0
ARC
  5
32B
100
AcDbEntity
  8
0
100
AcDbCircle
 62
7
  6
CONTINUOUS
 10
11.4582402057
 20
12.5419803793
 40
2.7001642258
100
AcDbArc
 50
242.2417052404
 51
242.9701193681
  0
ARC
  5
32C
100
AcDbEntity
  8
0
100
AcDbCircle
 62
7
  6
CONTINUOUS
 10
11.4060763196
 20
12.4435734944
 40
2.5887870585
100
AcDbArc
 50
240.9743107625
 51
242.2489778123
  0
ARC
  5
32D
100
AcDbEntity
  8
0
100
AcDbCircle
 62
9
  6
CONTINUOUS
 10
11.7480354
 20
10.4983611188
 40
2.0840373855
100
AcDbArc
 50
318.5410446811
 51
319.1196925677
  0
ARC
  5
32E
100
AcDbEntity
  8
0
100
AcDbCircle
 62
9
  6
CONTINUOUS
 10
11.9239350677
 20
10.3462842833
 40
1.8515117548
100
AcDbArc
 50
319.2278340977
 51
319.4636847998
  0
ARC
  5
32F
100
AcDbEntity
  8
0
100
AcDbCircle
 62
9
  6
CONTINUOUS
 10
12.0140726421
 20
10.2692523655
 40
1.7329423784
100
AcDbArc
 50
319.4623856479
 51
319.7039227632
  0
ARC
  5
330
100
AcDbEntity
  8
0
100
AcDbCircle
 62
7
  6
CONTINUOUS
 10
11.9123757365
 20
13.6308649408
 40
4.081593902
100
AcDbArc
 50
249.8503319917
 51
251.8913777464
  0
ARC
  5
331
100
AcDbEntity
  8
0
100
AcDbCircle
 62
9
  6
CONTINUOUS
 10
12.6242164976
 20
11.1398233286
 40
2.7884406771
100
AcDbArc
 50
269.6843701997
 51
270.5117689605
  0
ARC
  5
332
100
AcDbEntity
  8
0
100
AcDbCircle
 62
7
  6
CONTINUOUS
 10
12.8612221565
 20
9.6184292459
 40
0.315
100
AcDbArc
 50
38.674491865
 51
72.5423968763
  0
ARC
  5
333
100
AcDbEntity
  8
0
100
AcDbCircle
 62
7
  6
CONTINUOUS
 10
12.9022221565
 20
10.1324292459
 40
0.08
100
AcDbArc
 50
90.0
 51
180.0
  0
ARC
  5
334
100
AcDbEntity
  8
0
100
AcDbCircle
 62
7
  6
CONTINUOUS
 10
12.9022221565
 20
10.0954292459
 40
0.08
100
AcDbArc
 50
180.0
 51
270.0
  0
ARC
  5
335
100
AcDbEntity
  8
0
100
AcDbCircle
 62
7
  6
CONTINUOUS
 10
13.0491707746
 20
9.6144292459
 40
0.07
100
AcDbArc
 50
90.0
 51
174.2608295227
  0
ARC
  5
336
100
AcDbEntity
  8
0
100
AcDbCircle
 62
9
  6
CONTINUOUS
 10
13.0711698623
 20
9.6226036792
 40
0.0618438509
100
AcDbArc
 50
105.0113552465
 51
109.3736733335
  0
ARC
  5
337
100
AcDbEntity
  8
0
100
AcDbCircle
 62
9
  6
CONTINUOUS
 10
13.071040984
 20
9.6230712494
 40
0.061358856
100
AcDbArc
 50
91.4054839671
 51
105.0082040158
  0
ARC
  5
338
100
AcDbEntity
  8
0
100
AcDbCircle
 62
7
  6
CONTINUOUS
 10
12.9707221565
 20
10.2604292459
 40
0.05
100
AcDbArc
 50
90.0
 51
180.0
  0
ARC
  5
339
100
AcDbEntity
  8
0
100
AcDbCircle
 62
7
  6
CONTINUOUS
 10
12.9707221565
 20
9.9666170544
 40
0.05
100
AcDbArc
 50
180.0
 51
252.5423968763
  0
ARC
  5
33A
100
AcDbEntity
  8
0
100
AcDbCircle
 62
7
  6
CONTINUOUS
 10
12.9397221565
 20
9.6254292459
 40
0.04
100
AcDbArc
 50
275.7391704773
 51
354.2608295227
  0
ARC
  5
33B
100
AcDbEntity
  8
0
100
AcDbCircle
 62
9
  6
CONTINUOUS
 10
13.2184469844
 20
9.9124220632
 40
0.0073548396
100
AcDbArc
 50
89.9626449863
 51
91.0108189366
  0
ARC
  5
33C
100
AcDbEntity
  8
0
100
AcDbCircle
 62
7
  6
CONTINUOUS
 10
13.0149158545
 20
17.5990307162
 40
8.2014145199
100
AcDbArc
 50
256.4287688657
 51
258.0882769902
  0
ARC
  5
33D
100
AcDbEntity
  8
0
100
AcDbCircle
 62
7
  6
CONTINUOUS
 10
12.9571929695
 20
17.3323063413
 40
7.9285194528
100
AcDbArc
 50
258.0985881341
 51
258.4149245609
  0
ARC
  5
33E
100
AcDbEntity
  8
0
100
AcDbCircle
 62
7
  6
CONTINUOUS
 10
12.9341023204
 20
17.2212462829
 40
7.8150833227
100
AcDbArc
 50
258.4170843823
 51
259.0796779634
  0
ARC
  5
33F
100
AcDbEntity
  8
0
100
AcDbCircle
 62
7
  6
CONTINUOUS
 10
12.9332417544
 20
17.2147189748
 40
7.8085176765
100
AcDbArc
 50
258.4138169706
 51
259.1755366969
  0
ARC
  5
340
100
AcDbEntity
  8
0
100
AcDbCircle
 62
7
  6
CONTINUOUS
 10
12.9117856122
 20
17.1056471212
 40
7.6973495941
100
AcDbArc
 50
259.1799752482
 51
259.5484401251
  0
ARC
  5
341
100
AcDbEntity
  8
0
100
AcDbCircle
 62
7
  6
CONTINUOUS
 10
12.8798549332
 20
16.9318723365
 40
7.5206776328
100
AcDbArc
 50
259.170341848
 51
261.6336119388
  0
ARC
  5
342
100
AcDbEntity
  8
0
100
AcDbCircle
 62
7
  6
CONTINUOUS
 10
12.9005201637
 20
17.0727558727
 40
7.462918292
100
AcDbArc
 50
258.8637492538
 51
259.6083161513
  0
ARC
  5
343
100
AcDbEntity
  8
0
100
AcDbCircle
 62
7
  6
CONTINUOUS
 10
12.8649115184
 20
16.8412962184
 40
7.428881712
100
AcDbArc
 50
259.5341103991
 51
261.6459942758
  0
ARC
  5
344
100
AcDbEntity
  8
0
100
AcDbCircle
 62
7
  6
CONTINUOUS
 10
12.8286724304
 20
16.5999063721
 40
7.184797686
100
AcDbArc
 50
261.6522396236
 51
262.7718793811
  0
ARC
  5
345
100
AcDbEntity
  8
0
100
AcDbCircle
 62
7
  6
CONTINUOUS
 10
12.8267261177
 20
16.5838104733
 40
7.1685801723
100
AcDbArc
 50
261.6489549087
 51
262.5466421188
  0
ARC
  5
346
100
AcDbEntity
  8
0
100
AcDbCircle
 62
7
  6
CONTINUOUS
 10
12.845884378
 20
16.7579886608
 40
7.1434596385
100
AcDbArc
 50
259.5839576652
 51
263.6845587673
  0
ARC
  5
347
100
AcDbEntity
  8
0
100
AcDbCircle
 62
7
  6
CONTINUOUS
 10
12.8168166327
 20
16.5086799025
 40
7.0927989471
100
AcDbArc
 50
262.5472874795
 51
262.7741295444
  0
ARC
  5
348
100
AcDbEntity
  8
0
100
AcDbCircle
 62
7
  6
CONTINUOUS
 10
12.8146334202
 20
16.4920909358
 40
7.0760726705
100
AcDbArc
 50
262.7748112598
 51
263.0483337117
  0
ARC
  5
349
100
AcDbEntity
  8
0
100
AcDbCircle
 62
7
  6
CONTINUOUS
 10
12.8120461512
 20
16.4710140427
 40
7.0548321924
100
AcDbArc
 50
262.7740884332
 51
263.0485084373
  0
ARC
  5
34A
100
AcDbEntity
  8
0
100
AcDbCircle
 62
7
  6
CONTINUOUS
 10
12.8051545637
 20
16.4135062586
 40
6.996918456
100
AcDbArc
 50
263.0474977471
 51
264.1554615232
  0
ARC
  5
34B
100
AcDbEntity
  8
0
100
AcDbCircle
 62
7
  6
CONTINUOUS
 10
12.8002049017
 20
16.3715056539
 40
6.9546221639
100
AcDbArc
 50
263.0461259033
 51
264.160816776
  0
ARC
  5
34C
100
AcDbEntity
  8
0
100
AcDbCircle
 62
7
  6
CONTINUOUS
 10
12.7934722869
 20
16.3024156496
 40
6.8852157174
100
AcDbArc
 50
264.1580348425
 51
264.6122838654
  0
ARC
  5
34D
100
AcDbEntity
  8
0
100
AcDbCircle
 62
7
  6
CONTINUOUS
 10
12.792773964
 20
16.2994728692
 40
6.8822071325
100
AcDbArc
 50
264.1613496483
 51
264.6157874191
  0
ARC
  5
34E
100
AcDbEntity
  8
0
100
AcDbCircle
 62
7
  6
CONTINUOUS
 10
12.7890452288
 20
16.2596538083
 40
6.842213877
100
AcDbArc
 50
264.6155856271
 51
267.2623014522
  0
ARC
  5
34F
100
AcDbEntity
  8
0
100
AcDbCircle
 62
7
  6
CONTINUOUS
 10
12.7866258155
 20
16.227621288
 40
6.810108943
100
AcDbArc
 50
264.6105458181
 51
267.2697492281
  0
ARC
  5
350
100
AcDbEntity
  8
0
100
AcDbCircle
 62
7
  6
CONTINUOUS
 10
12.7816769561
 20
16.1391402331
 40
6.7214926324
100
AcDbArc
 50
267.27595958
 51
267.8086895537
  0
ARC
  5
351
100
AcDbEntity
  8
0
100
AcDbCircle
 62
7
  6
CONTINUOUS
 10
12.7817008621
 20
16.1169823457
 40
6.6993544768
100
AcDbArc
 50
267.2667612989
 51
267.8012453174
  0
ARC
  5
352
100
AcDbEntity
  8
0
100
AcDbCircle
 62
7
  6
CONTINUOUS
 10
12.7805162449
 20
16.1079901063
 40
6.6903209037
100
AcDbArc
 50
267.8084223408
 51
269.1355060006
  0
ARC
  5
353
100
AcDbEntity
  8
0
100
AcDbCircle
 62
7
  6
CONTINUOUS
 10
12.7793202021
 20
16.0557967786
 40
6.638122621
100
AcDbArc
 50
267.8015168263
 51
269.1334476264
  0
ARC
  5
354
100
AcDbEntity
  8
0
100
AcDbCircle
 62
7
  6
CONTINUOUS
 10
12.7795365715
 20
16.0485324144
 40
6.6308551991
100
AcDbArc
 50
269.1362187132
 51
270.593338304
  0
ARC
  5
355
100
AcDbEntity
  8
0
100
AcDbCircle
 62
7
  6
CONTINUOUS
 10
12.7798004564
 20
16.0019024899
 40
6.5842250459
100
AcDbArc
 50
270.5952440933
 51
270.7906621868
  0
ARC
  5
356
100
AcDbEntity
  8
0
100
AcDbCircle
 62
7
  6
CONTINUOUS
 10
12.5611684699
 20
15.7791463165
 40
6.1257734066
100
AcDbArc
 50
254.7765169313
 51
255.4064800006
  0
ARC
  5
357
100
AcDbEntity
  8
0
100
AcDbCircle
 62
9
  6
CONTINUOUS
 10
12.8235542641
 20
39.2765816379
 40
29.7607410012
100
AcDbArc
 50
270.1779461681
 51
270.4676215985
  0
ARC
  5
358
100
AcDbEntity
  8
0
100
AcDbCircle
 62
9
  6
CONTINUOUS
 10
14.17578774
 20
8.0284855411
 40
0.1601323032
100
AcDbArc
 50
266.4095918229
 51
267.0065368773
  0
ARC
  5
359
100
AcDbEntity
  8
0
100
AcDbCircle
 62
7
  6
CONTINUOUS
 10
14.1723207426
 20
7.9084292459
 40
0.04
100
AcDbArc
 50
270.0278634633
 51
281.5795840179
  0
ARC
  5
35A
100
AcDbEntity
  8
0
100
AcDbCircle
 62
9
  6
CONTINUOUS
 10
13.9975077292
 20
7.7691857927
 40
0.031413104
100
AcDbArc
 50
39.9175648808
 51
40.3939909262
  0
ARC
  5
35B
100
AcDbEntity
  8
0
100
AcDbCircle
 62
7
  6
CONTINUOUS
 10
14.1863717628
 20
7.8398539673
 40
0.03
100
AcDbArc
 50
101.5795840173
 51
128.5396305209
  0
ARC
  5
35C
100
AcDbEntity
  8
0
100
AcDbCircle
 62
7
  6
CONTINUOUS
 10
14.4518751916
 20
7.3885243328
 40
0.0200950937
100
AcDbArc
 50
270.0470235142
 51
288.2071343707
  0
ARC
  5
35D
100
AcDbEntity
  8
0
100
AcDbCircle
 62
7
  6
CONTINUOUS
 10
14.4518933681
 20
7.3884286408
 40
0.0199972247
100
AcDbArc
 50
269.9943453988
 51
42.831502628
  0
ARC
  5
35E
100
AcDbEntity
  8
0
100
AcDbCircle
 62
7
  6
CONTINUOUS
 10
14.257601954
 20
7.3884258386
 40
0.0199961957
100
AcDbArc
 50
269.9955711917
 51
37.1220532453
  0
ARC
  5
35F
100
AcDbEntity
  8
0
100
AcDbCircle
 62
7
  6
CONTINUOUS
 10
13.5376243975
 20
9.247090271
 40
0.4278741435
100
AcDbArc
 50
182.9133882217
 51
183.4996521062
  0
ARC
  5
360
100
AcDbEntity
  8
0
100
AcDbCircle
 62
9
  6
CONTINUOUS
 10
13.5623816226
 20
9.2363428991
 40
0.3876266087
100
AcDbArc
 50
182.8709959986
 51
183.4426252703
  0
ARC
  5
361
100
AcDbEntity
  8
0
100
AcDbCircle
 62
9
  6
CONTINUOUS
 10
13.7893253398
 20
9.3361639584
 40
0.1600777114
100
AcDbArc
 50
34.9599382766
 51
57.7632967579
  0
ARC
  5
362
100
AcDbEntity
  8
0
100
AcDbCircle
 62
9
  6
CONTINUOUS
 10
13.7898074598
 20
9.3364703723
 40
0.1595070142
100
AcDbArc
 50
32.3467550191
 51
34.9689665504
  0
ARC
  5
363
100
AcDbEntity
  8
0
100
AcDbCircle
 62
9
  6
CONTINUOUS
 10
13.7906907258
 20
9.3382656759
 40
0.1575716519
100
AcDbArc
 50
57.7755941234
 51
61.7861050169
  0
ARC
  5
364
100
AcDbEntity
  8
0
100
AcDbCircle
 62
7
  6
CONTINUOUS
 10
13.7907711494
 20
9.3384292459
 40
0.08
100
AcDbArc
 50
3.0650470703
 51
54.2604451651
  0
ARC
  5
365
100
AcDbEntity
  8
0
100
AcDbCircle
 62
7
  6
CONTINUOUS
 10
13.7957221565
 20
9.5159806278
 40
0.07
100
AcDbArc
 50
0.0
 51
84.2608295227
  0
ARC
  5
366
100
AcDbEntity
  8
0
100
AcDbCircle
 62
7
  6
CONTINUOUS
 10
13.7957221565
 20
9.458877864
 40
0.07
100
AcDbArc
 50
275.7391704773
 51
360.0
  0
ARC
  5
367
100
AcDbEntity
  8
0
100
AcDbCircle
 62
7
  6
CONTINUOUS
 10
13.6972735384
 20
9.3604292459
 40
0.07
100
AcDbArc
 50
270.0
 51
354.2608295227
  0
ARC
  5
368
100
AcDbEntity
  8
0
100
AcDbCircle
 62
7
  6
CONTINUOUS
 10
13.8067221565
 20
9.3494292459
 40
0.04
100
AcDbArc
 50
95.7391704773
 51
174.2608295227
  0
ARC
  5
369
100
AcDbEntity
  8
0
100
AcDbCircle
 62
7
  6
CONTINUOUS
 10
13.7077221565
 20
9.0544292459
 40
0.04
100
AcDbArc
 50
270.0
 51
90.0
  0
ARC
  5
36A
100
AcDbEntity
  8
0
100
AcDbCircle
 62
9
  6
CONTINUOUS
 10
18.5213748757
 20
9.4864215136
 40
5.352914978
100
AcDbArc
 50
177.1782730335
 51
182.8857867167
  0
ARC
  5
36B
100
AcDbEntity
  8
0
100
AcDbCircle
 62
9
  6
CONTINUOUS
 10
18.3312594228
 20
9.4864236612
 40
5.2414860361
100
AcDbArc
 50
177.2554736485
 51
182.8068038073
  0
ARC
  5
36C
100
AcDbEntity
  8
0
100
AcDbCircle
 62
9
  6
CONTINUOUS
 10
18.3558804475
 20
9.4864242535
 40
5.179237012
100
AcDbArc
 50
177.0417036551
 51
183.0254535101
  0
ARC
  5
36D
100
AcDbEntity
  8
0
100
AcDbCircle
 62
7
  6
CONTINUOUS
 10
18.2194580533
 20
9.4864218145
 40
5.1158167978
100
AcDbArc
 50
177.1396089786
 51
182.9252841838
  0
ARC
  5
36E
100
AcDbEntity
  8
0
100
AcDbCircle
 62
9
  6
CONTINUOUS
 10
18.2273719445
 20
9.4864238981
 40
4.9738697271
100
AcDbArc
 50
177.0348522635
 51
183.0324661094
  0
ARC
  5
36F
100
AcDbEntity
  8
0
100
AcDbCircle
 62
9
  6
CONTINUOUS
 10
18.1794772474
 20
9.48642064
 40
4.8897838195
100
AcDbArc
 50
177.0614167061
 51
183.0052556317
  0
ARC
  5
370
100
AcDbEntity
  8
0
100
AcDbCircle
 62
9
  6
CONTINUOUS
 10
18.0368876619
 20
9.4864237702
 40
4.788528032
100
AcDbArc
 50
176.9423073924
 51
183.1271158922
  0
ARC
  5
371
100
AcDbEntity
  8
0
100
AcDbCircle
 62
9
  6
CONTINUOUS
 10
18.1102102649
 20
9.4864246059
 40
4.7568724674
100
AcDbArc
 50
177.1186526863
 51
182.9467800897
  0
ARC
  5
372
100
AcDbEntity
  8
0
100
AcDbCircle
 62
9
  6
CONTINUOUS
 10
16.7212864299
 20
9.4943295561
 40
3.0756585067
100
AcDbArc
 50
208.33150088
 51
210.8399421806
  0
ARC
  5
373
100
AcDbEntity
  8
0
100
AcDbCircle
 62
9
  6
CONTINUOUS
 10
16.526990054
 20
9.269477543
 40
2.9953851717
100
AcDbArc
 50
209.5391025
 51
218.5680621466
  0
ARC
  5
374
100
AcDbEntity
  8
0
100
AcDbCircle
 62
7
  6
CONTINUOUS
 10
16.5500683792
 20
9.1342588394
 40
2.8616513245
100
AcDbArc
 50
215.5513265702
 51
217.2897502711
  0
ARC
  5
375
100
AcDbEntity
  8
0
100
AcDbCircle
 62
9
  6
CONTINUOUS
 10
16.2190508171
 20
9.2931814281
 40
2.6139326221
100
AcDbArc
 50
186.8055637063
 51
191.210233128
  0
ARC
  5
376
100
AcDbEntity
  8
0
100
AcDbCircle
 62
7
  6
CONTINUOUS
 10
13.5383251473
 20
9.7203913935
 40
0.4288444349
100
AcDbArc
 50
176.5769458642
 51
177.1500113242
  0
ARC
  5
377
100
AcDbEntity
  8
0
100
AcDbCircle
 62
9
  6
CONTINUOUS
 10
13.5619502792
 20
9.7309558689
 40
0.3874712443
100
AcDbArc
 50
176.631931388
 51
177.1919887135
  0
ARC
  5
378
100
AcDbEntity
  8
0
100
AcDbCircle
 62
7
  6
CONTINUOUS
 10
13.8852221565
 20
9.6184292459
 40
0.315
100
AcDbArc
 50
107.4576031237
 51
167.8683274004
  0
ARC
  5
379
100
AcDbEntity
  8
0
100
AcDbCircle
 62
7
  6
CONTINUOUS
 10
13.8442221565
 20
10.1324292459
 40
0.08
100
AcDbArc
 50
0.0
 51
90.0
  0
ARC
  5
37A
100
AcDbEntity
  8
0
100
AcDbCircle
 62
7
  6
CONTINUOUS
 10
13.8442221565
 20
10.0954292459
 40
0.08
100
AcDbArc
 50
270.0
 51
360.0
  0
ARC
  5
37B
100
AcDbEntity
  8
0
100
AcDbCircle
 62
7
  6
CONTINUOUS
 10
13.9839948917
 20
9.5384292459
 40
0.08
100
AcDbArc
 50
0.9023330395
 51
90.0
  0
ARC
  5
37C
100
AcDbEntity
  8
0
100
AcDbCircle
 62
7
  6
CONTINUOUS
 10
13.6972735384
 20
9.6144292459
 40
0.07
100
AcDbArc
 50
5.7391704773
 51
90.0
  0
ARC
  5
37D
100
AcDbEntity
  8
0
100
AcDbCircle
 62
7
  6
CONTINUOUS
 10
13.7757221565
 20
10.2604292459
 40
0.05
100
AcDbArc
 50
0.0
 51
90.0
  0
ARC
  5
37E
100
AcDbEntity
  8
0
100
AcDbCircle
 62
7
  6
CONTINUOUS
 10
13.7757221565
 20
9.9666170544
 40
0.05
100
AcDbArc
 50
287.4576031237
 51
360.0
  0
ARC
  5
37F
100
AcDbEntity
  8
0
100
AcDbCircle
 62
7
  6
CONTINUOUS
 10
13.8067221565
 20
9.6254292459
 40
0.04
100
AcDbArc
 50
185.7391704773
 51
264.2608295227
  0
ARC
  5
380
100
AcDbEntity
  8
0
100
AcDbCircle
 62
7
  6
CONTINUOUS
 10
13.9957291245
 20
15.559639884
 40
7.2456613238
100
AcDbArc
 50
242.0257755527
 51
244.0750106966
  0
ARC
  5
381
100
AcDbEntity
  8
0
100
AcDbCircle
 62
7
  6
CONTINUOUS
 10
13.7058270708
 20
14.9547069211
 40
6.5748620716
100
AcDbArc
 50
244.0423778248
 51
247.1369546049
  0
ARC
  5
382
100
AcDbEntity
  8
0
100
AcDbCircle
 62
7
  6
CONTINUOUS
 10
19.0209636834
 20
9.600349775
 40
5.1546647979
100
AcDbArc
 50
200.0350598192
 51
201.8395152491
  0
ARC
  5
383
100
AcDbEntity
  8
0
100
AcDbCircle
 62
9
  6
CONTINUOUS
 10
18.9226345182
 20
9.6324301266
 40
4.9794405139
100
AcDbArc
 50
206.0920592353
 51
206.5944907995
  0
ARC
  5
384
100
AcDbEntity
  8
0
100
AcDbCircle
 62
9
  6
CONTINUOUS
 10
18.9200484221
 20
9.6311341319
 40
4.9765478518
100
AcDbArc
 50
206.5944775676
 51
206.9750121942
  0
ARC
  5
385
100
AcDbEntity
  8
0
100
AcDbCircle
 62
7
  6
CONTINUOUS
 10
19.0531604843
 20
9.6116273725
 40
5.1887654036
100
AcDbArc
 50
193.8439450445
 51
194.8347237702
  0
ARC
  5
386
100
AcDbEntity
  8
0
100
AcDbCircle
 62
7
  6
CONTINUOUS
 10
19.0507465879
 20
9.6109684936
 40
5.1862631193
100
AcDbArc
 50
194.8345152243
 51
199.5958814542
  0
ARC
  5
387
100
AcDbEntity
  8
0
100
AcDbCircle
 62
7
  6
CONTINUOUS
 10
19.0504285446
 20
9.6108632958
 40
5.1859288961
100
AcDbArc
 50
194.8342912746
 51
199.595965013
  0
ARC
  5
388
100
AcDbEntity
  8
0
100
AcDbCircle
 62
9
  6
CONTINUOUS
 10
19.1240244476
 20
9.5922299487
 40
5.1774840258
100
AcDbArc
 50
198.7679706712
 51
204.1259566802
  0
ARC
  5
389
100
AcDbEntity
  8
0
100
AcDbCircle
 62
7
  6
CONTINUOUS
 10
19.0387420669
 20
9.606829342
 40
5.1735658142
100
AcDbArc
 50
199.6941567374
 51
199.8747535923
  0
ARC
  5
38A
100
AcDbEntity
  8
0
100
AcDbCircle
 62
7
  6
CONTINUOUS
 10
19.0363715802
 20
9.6059721191
 40
5.171044971
100
AcDbArc
 50
199.6859488395
 51
200.492370224
  0
ARC
  5
38B
100
AcDbEntity
  8
0
100
AcDbCircle
 62
7
  6
CONTINUOUS
 10
19.0363049904
 20
9.6059548458
 40
5.1709771292
100
AcDbArc
 50
199.6707779631
 51
200.4924492809
  0
ARC
  5
38C
100
AcDbEntity
  8
0
100
AcDbCircle
 62
7
  6
CONTINUOUS
 10
19.0358651821
 20
9.6057854986
 40
5.1705054108
100
AcDbArc
 50
199.8915188166
 51
200.4093639536
  0
ARC
  5
38D
100
AcDbEntity
  8
0
100
AcDbCircle
 62
7
  6
CONTINUOUS
 10
19.0303407531
 20
9.6037252879
 40
5.1646093304
100
AcDbArc
 50
200.4093154372
 51
201.1499777904
  0
ARC
  5
38E
100
AcDbEntity
  8
0
100
AcDbCircle
 62
7
  6
CONTINUOUS
 10
19.0263186555
 20
9.6021923381
 40
5.1603049716
100
AcDbArc
 50
200.4921344198
 51
201.885094471
  0
ARC
  5
38F
100
AcDbEntity
  8
0
100
AcDbCircle
 62
7
  6
CONTINUOUS
 10
19.0261955936
 20
9.6022827753
 40
5.1602423287
100
AcDbArc
 50
199.6974785228
 51
199.8620730937
  0
ARC
  5
390
100
AcDbEntity
  8
0
100
AcDbCircle
 62
7
  6
CONTINUOUS
 10
19.0256059668
 20
9.6020697466
 40
5.1596153989
100
AcDbArc
 50
199.8620728009
 51
200.0353425541
  0
ARC
  5
391
100
AcDbEntity
  8
0
100
AcDbCircle
 62
7
  6
CONTINUOUS
 10
19.0250706591
 20
9.6017220646
 40
5.1589718966
100
AcDbArc
 50
200.4920942786
 51
202.1152989893
  0
ARC
  5
392
100
AcDbEntity
  8
0
100
AcDbCircle
 62
7
  6
CONTINUOUS
 10
19.0228875579
 20
9.6008407285
 40
5.1566174095
100
AcDbArc
 50
201.1499659876
 51
201.897248945
  0
ARC
  5
393
100
AcDbEntity
  8
0
100
AcDbCircle
 62
7
  6
CONTINUOUS
 10
19.1143918486
 20
9.623490338
 40
5.2512472455
100
AcDbArc
 50
183.0650788293
 51
183.284872947
  0
ARC
  5
394
100
AcDbEntity
  8
0
100
AcDbCircle
 62
7
  6
CONTINUOUS
 10
19.1128533722
 20
9.6234056034
 40
5.2497064356
100
AcDbArc
 50
183.2849278816
 51
183.449556046
  0
ARC
  5
395
100
AcDbEntity
  8
0
100
AcDbCircle
 62
7
  6
CONTINUOUS
 10
19.1080565823
 20
9.6233191195
 40
5.2449133478
100
AcDbArc
 50
183.5673002465
 51
188.7707682166
  0
ARC
  5
396
100
AcDbEntity
  8
0
100
AcDbCircle
 62
7
  6
CONTINUOUS
 10
19.107328775
 20
9.6232348273
 40
5.2441818768
100
AcDbArc
 50
183.5668758046
 51
188.7710705452
  0
ARC
  5
397
100
AcDbEntity
  8
0
100
AcDbCircle
 62
7
  6
CONTINUOUS
 10
19.1061149577
 20
9.6230028431
 40
5.2429462016
100
AcDbArc
 50
188.7705877287
 51
189.0282240612
  0
ARC
  5
398
100
AcDbEntity
  8
0
100
AcDbCircle
 62
7
  6
CONTINUOUS
 10
19.1059742932
 20
9.6230005415
 40
5.2428075096
100
AcDbArc
 50
188.7707972768
 51
189.0284404806
  0
ARC
  5
399
100
AcDbEntity
  8
0
100
AcDbCircle
 62
7
  6
CONTINUOUS
 10
19.0955698091
 20
9.6224139778
 40
5.2323944492
100
AcDbArc
 50
183.2849287243
 51
183.4500438782
  0
ARC
  5
39A
100
AcDbEntity
  8
0
100
AcDbCircle
 62
7
  6
CONTINUOUS
 10
19.0953760903
 20
9.6223523087
 40
5.2321974433
100
AcDbArc
 50
183.4495584258
 51
183.5653734857
  0
ARC
  5
39B
100
AcDbEntity
  8
0
100
AcDbCircle
 62
7
  6
CONTINUOUS
 10
19.088015879
 20
9.6198670866
 40
5.2245798807
100
AcDbArc
 50
189.025408065
 51
193.8402188378
  0
ARC
  5
39C
100
AcDbEntity
  8
0
100
AcDbCircle
 62
7
  6
CONTINUOUS
 10
19.0876121316
 20
9.6197755743
 40
5.2241661855
100
AcDbArc
 50
189.0251114444
 51
193.8403036618
  0
ARC
  5
39D
100
AcDbEntity
  8
0
100
AcDbCircle
 62
7
  6
CONTINUOUS
 10
19.0633649313
 20
9.6184292459
 40
5.0
100
AcDbArc
 50
180.9023330395
 51
206.7436993574
  0
SPLINE
  5
39E
100
AcDbEntity
  8
0
100
AcDbSpline
 62
9
  6
CONTINUOUS
 70
0
 71
3
 72
22
 73
18
 74
0
 42
0.0000001
 43
0.0000001
 44
0.0000000001
 40
0.0
 40
0.0
 40
0.0
 40
0.0
 40
0.1934553556
 40
0.2829429379
 40
0.367533521
 40
0.4471819964
 40
0.521859908
 40
0.5915488327
 40
0.6562385422
 40
0.7159305419
 40
0.7706450779
 40
0.8204242078
 40
0.8653394314
 40
0.9055076026
 40
0.9411198222
 40
0.9724688819
 40
1.0
 40
1.0
 40
1.0
 40
1.0
 10
13.3738667014
 20
9.7551799224
 30
0.0
 10
13.3855183754
 20
9.7429404649
 30
0.0
 10
13.4024016218
 20
9.7248865054
 30
0.0
 10
13.4238931641
 20
9.7010353734
 30
0.0
 10
13.4385016312
 20
9.6843665346
 30
0.0
 10
13.4520082233
 20
9.6684554158
 30
0.0
 10
13.4643998107
 20
9.6533091301
 30
0.0
 10
13.4756645297
 20
9.6389339818
 30
0.0
 10
13.4857909381
 20
9.6253358606
 30
0.0
 10
13.4947678265
 20
9.6125200947
 30
0.0
 10
13.502586239
 20
9.6004925603
 30
0.0
 10
13.509238138
 20
9.5892585034
 30
0.0
 10
13.5147160983
 20
9.5788218896
 30
0.0
 10
13.5190131772
 20
9.5691848046
 30
0.0
 10
13.5221246125
 20
9.560344802
 30
0.0
 10
13.5240449249
 20
9.5522999691
 30
0.0
 10
13.5245508889
 20
9.547155773
 30
0.0
 10
13.5245604076
 20
9.5447508964
 30
0.0
  0
SPLINE
  5
39F
100
AcDbEntity
  8
0
100
AcDbSpline
 62
9
  6
CONTINUOUS
 70
0
 71
3
 72
23
 73
19
 74
0
 42
0.0000001
 43
0.0000001
 44
0.0000000001
 40
0.0
 40
0.0
 40
0.0
 40
0.0
 40
0.0076257287
 40
0.0158466103
 40
0.0250710447
 40
0.035626092
 40
0.0477628472
 40
0.0616751824
 40
0.0953989958
 40
0.137626346
 40
0.1883001721
 40
0.2470843095
 40
0.3135808517
 40
0.3872219709
 40
0.466875965
 40
0.6390605029
 40
0.8199433563
 40
1.0
 40
1.0
 40
1.0
 40
1.0
 10
13.1105496579
 20
9.2209463035
 30
0.0
 10
13.1105601061
 20
9.2207763476
 30
0.0
 10
13.1106290061
 20
9.2204246999
 30
0.0
 10
13.1108685336
 20
9.2199137351
 30
0.0
 10
13.11124569
 20
9.2194106331
 30
0.0
 10
13.111762059
 20
9.2189159353
 30
0.0
 10
13.1124210763
 20
9.2184295055
 30
0.0
 10
13.1135713649
 20
9.2177490849
 30
0.0
 10
13.1154198096
 20
9.216950656
 30
0.0
 10
13.1181199449
 20
9.2161032216
 30
0.0
 10
13.1214173712
 20
9.2153194882
 30
0.0
 10
13.1252839827
 20
9.2146148666
 30
0.0
 10
13.1296848011
 20
9.2140047476
 30
0.0
 10
13.1345678233
 20
9.2135041277
 30
0.0
 10
13.1418164516
 20
9.212967954
 30
0.0
 10
13.1514753957
 20
9.2126045163
 30
0.0
 10
13.1633817664
 20
9.212615525
 30
0.0
 10
13.1714384938
 20
9.2128761785
 30
0.0
 10
13.1754545475
 20
9.2130658224
 30
0.0
  0
SPLINE
  5
3A0
100
AcDbEntity
  8
0
100
AcDbSpline
 62
9
  6
CONTINUOUS
 70
0
 71
3
 72
9
 73
5
 74
0
 42
0.0000001
 43
0.0000001
 44
0.0000000001
 40
0.0
 40
0.0
 40
0.0
 40
0.0
 40
0.5225728409
 40
1.0
 40
1.0
 40
1.0
 40
1.0
 10
13.3094951075
 20
9.8491960636
 30
0.0
 10
13.3085077386
 20
9.8502942773
 30
0.0
 10
13.3064805762
 20
9.8522789365
 30
0.0
 10
13.3041566331
 20
9.8539159132
 30
0.0
 10
13.3029840755
 20
9.8545833889
 30
0.0
  0
SPLINE
  5
3A1
100
AcDbEntity
  8
0
100
AcDbSpline
 62
9
  6
CONTINUOUS
 70
0
 71
3
 72
12
 73
8
 74
0
 42
0.0000001
 43
0.0000001
 44
0.0000000001
 40
0.0
 40
0.0
 40
0.0
 40
0.0
 40
0.2388783748
 40
0.4865522333
 40
0.6132288777
 40
0.7413849019
 40
1.0
 40
1.0
 40
1.0
 40
1.0
 10
13.3029840755
 20
9.8545833889
 30
0.0
 10
13.3027417858
 20
9.8581374172
 30
0.0
 10
13.3016500182
 20
9.8653477372
 30
0.0
 10
13.2987683564
 20
9.8740799016
 30
0.0
 10
13.2954497947
 20
9.8808107589
 30
0.0
 10
13.2914307418
 20
9.8873367246
 30
0.0
 10
13.2877215468
 20
9.8918134791
 30
0.0
 10
13.2849840711
 20
9.8945300217
 30
0.0
  0
SPLINE
  5
3A2
100
AcDbEntity
  8
0
100
AcDbSpline
 62
9
  6
CONTINUOUS
 70
0
 71
3
 72
13
 73
9
 74
0
 42
0.0000001
 43
0.0000001
 44
0.0000000001
 40
0.0
 40
0.0
 40
0.0
 40
0.0
 40
0.2389560791
 40
0.3618082308
 40
0.4864975387
 40
0.6129010025
 40
0.740895826
 40
1.0
 40
1.0
 40
1.0
 40
1.0
 10
13.3094951101
 20
9.8491962963
 30
0.0
 10
13.3091989423
 20
9.8523726418
 30
0.0
 10
13.3083903519
 20
9.8571583894
 30
0.0
 10
13.3065969346
 20
9.863405314
 30
0.0
 10
13.3048465772
 20
9.8680866549
 30
0.0
 10
13.3026891305
 20
9.8726716941
 30
0.0
 10
13.2992545439
 20
9.878610905
 30
0.0
 10
13.296113186
 20
9.8827542067
 30
0.0
 10
13.2938001297
 20
9.8853262059
 30
0.0
  0
SPLINE
  5
3A3
100
AcDbEntity
  8
0
100
AcDbSpline
 62
9
  6
CONTINUOUS
 70
0
 71
3
 72
17
 73
13
 74
0
 42
0.0000001
 43
0.0000001
 44
0.0000000001
 40
0.0
 40
0.0
 40
0.0
 40
0.0
 40
0.1707121051
 40
0.3235257079
 40
0.4592570361
 40
0.5796829543
 40
0.6880694683
 40
0.7394052189
 40
0.7898191165
 40
0.8401978529
 40
0.8914619078
 40
1.0
 40
1.0
 40
1.0
 40
1.0
 10
13.2801064581
 20
9.8419178512
 30
0.0
 10
13.2809358655
 20
9.8433652251
 30
0.0
 10
13.2826117972
 20
9.8460514356
 30
0.0
 10
13.2853540981
 20
9.8496148787
 30
0.0
 10
13.2881770037
 20
9.8524628007
 30
0.0
 10
13.2910758052
 20
9.8545662625
 30
0.0
 10
13.2936072882
 20
9.8556815046
 30
0.0
 10
13.2956180256
 20
9.8561253099
 30
0.0
 10
13.2971046791
 20
9.8562448093
 30
0.0
 10
13.2985929117
 20
9.856153132
 30
0.0
 10
13.3006103058
 20
9.8557401848
 30
0.0
 10
13.302062938
 20
9.8551096098
 30
0.0
 10
13.3029840829
 20
9.8545838673
 30
0.0
  0
SPLINE
  5
3A4
100
AcDbEntity
  8
0
100
AcDbSpline
 62
9
  6
CONTINUOUS
 70
0
 71
3
 72
13
 73
9
 74
0
 42
0.0000001
 43
0.0000001
 44
0.0000000001
 40
0.0
 40
0.0
 40
0.0
 40
0.0
 40
0.2398408643
 40
0.4876157031
 40
0.6140879736
 40
0.7418147004
 40
0.8705220991
 40
1.0
 40
1.0
 40
1.0
 40
1.0
 10
13.3094952799
 20
9.8491960095
 30
0.0
 10
13.3096636539
 20
9.8473844075
 30
0.0
 10
13.3102774023
 20
9.8437211293
 30
0.0
 10
13.3117414626
 20
9.8392773033
 30
0.0
 10
13.3133619366
 20
9.8358273984
 30
0.0
 10
13.3148071151
 20
9.8333038416
 30
0.0
 10
13.3164696641
 20
9.8308902158
 30
0.0
 10
13.3177166775
 20
9.8293762701
 30
0.0
 10
13.3183724556
 20
9.8286450482
 30
0.0
  0
SPLINE
  5
3A5
100
AcDbEntity
  8
0
100
AcDbSpline
 62
9
  6
CONTINUOUS
 70
0
 71
3
 72
17
 73
13
 74
0
 42
0.0000001
 43
0.0000001
 44
0.0000000001
 40
0.0
 40
0.0
 40
0.0
 40
0.0
 40
0.0289232954
 40
0.0633142465
 40
0.1033007338
 40
0.1489707481
 40
0.2570002293
 40
0.3847930328
 40
0.5285740603
 40
0.6828788137
 40
0.8418672832
 40
1.0
 40
1.0
 40
1.0
 40
1.0
 10
13.2601598083
 20
9.7437068024
 30
0.0
 10
13.2604622273
 20
9.7435218668
 30
0.0
 10
13.2611475073
 20
9.743155049
 30
0.0
 10
13.2623061499
 20
9.7426429144
 30
0.0
 10
13.2636846712
 20
9.7421267008
 30
0.0
 10
13.2659448573
 20
9.7413989009
 30
0.0
 10
13.269288238
 20
9.7405370673
 30
0.0
 10
13.2738478565
 20
9.7396059733
 30
0.0
 10
13.2790021694
 20
9.7387751973
 30
0.0
 10
13.2845595579
 20
9.7380638824
 30
0.0
 10
13.2903102896
 20
9.7374981417
 30
0.0
 10
13.2941871176
 20
9.737215927
 30
0.0
 10
13.2961216655
 20
9.7370991193
 30
0.0
  0
SPLINE
  5
3A6
100
AcDbEntity
  8
0
100
AcDbSpline
 62
9
  6
CONTINUOUS
 70
0
 71
3
 72
18
 73
14
 74
0
 42
0.0000001
 43
0.0000001
 44
0.0000000001
 40
0.0
 40
0.0
 40
0.0
 40
0.0
 40
0.113876207
 40
0.2357802096
 40
0.2994347163
 40
0.3644375879
 40
0.4966298126
 40
0.563177805
 40
0.6294879795
 40
0.6951241326
 40
0.7596186517
 40
0.8836728595
 40
1.0
 40
1.0
 40
1.0
 40
1.0
 10
13.2801064585
 20
9.841917852
 30
0.0
 10
13.2797247008
 20
9.845808964
 30
0.0
 10
13.2782005082
 20
9.853806783
 30
0.0
 10
13.2745413542
 20
9.8634747147
 30
0.0
 10
13.270431668
 20
9.8710446515
 30
0.0
 10
13.2654782506
 20
9.8785161931
 30
0.0
 10
13.2594941808
 20
9.8853897498
 30
0.0
 10
13.2526261027
 20
9.8913747534
 30
0.0
 10
13.2471069922
 20
9.8953880756
 30
0.0
 10
13.2413247387
 20
9.8988762867
 30
0.0
 10
13.2334834133
 20
9.9027295233
 30
0.0
 10
13.2235125941
 20
9.9060892491
 30
0.0
 10
13.2153199284
 20
9.9073979436
 30
0.0
 10
13.2113363186
 20
9.907685071
 30
0.0
  0
SPLINE
  5
3A7
100
AcDbEntity
  8
0
100
AcDbSpline
 62
9
  6
CONTINUOUS
 70
0
 71
3
 72
19
 73
15
 74
0
 42
0.0000001
 43
0.0000001
 44
0.0000000001
 40
0.0
 40
0.0
 40
0.0
 40
0.0
 40
0.0348250827
 40
0.0740541111
 40
0.1176298063
 40
0.1654590259
 40
0.2174102196
 40
0.2733282799
 40
0.3330456177
 40
0.3963516716
 40
0.5327288158
 40
0.6803939881
 40
0.8370858385
 40
1.0
 40
1.0
 40
1.0
 40
1.0
 10
13.2113363574
 20
9.9076851948
 30
0.0
 10
13.2104354724
 20
9.9060948464
 30
0.0
 10
13.2086679232
 20
9.9026285432
 30
0.0
 10
13.2062190159
 20
9.8969580777
 30
0.0
 10
13.2038282769
 20
9.8905292943
 30
0.0
 10
13.2015110274
 20
9.8833690025
 30
0.0
 10
13.1992791895
 20
9.8755062691
 30
0.0
 10
13.1971444249
 20
9.8669722151
 30
0.0
 10
13.1951192893
 20
9.85780033
 30
0.0
 10
13.1925152272
 20
9.8444359442
 30
0.0
 10
13.1896441299
 20
9.8264269949
 30
0.0
 10
13.1868775438
 20
9.8034563985
 30
0.0
 10
13.1847827651
 20
9.7790170842
 30
0.0
 10
13.183879082
 20
9.7622638691
 30
0.0
 10
13.1835467496
 20
9.7537198193
 30
0.0
  0
SPLINE
  5
3A8
100
AcDbEntity
  8
0
100
AcDbSpline
 62
9
  6
CONTINUOUS
 70
0
 71
3
 72
28
 73
24
 74
0
 42
0.0000001
 43
0.0000001
 44
0.0000000001
 40
0.0
 40
0.0
 40
0.0
 40
0.0
 40
0.0971441827
 40
0.1922466084
 40
0.2844844325
 40
0.3731901744
 40
0.4577646326
 40
0.5376363288
 40
0.6122586247
 40
0.6811397569
 40
0.7438660673
 40
0.800078797
 40
0.8495238594
 40
0.8716559886
 40
0.8920526395
 40
0.9107266261
 40
0.9277051292
 40
0.9430364702
 40
0.9568059262
 40
0.9691486862
 40
0.9802611948
 40
0.990421123
 40
1.0
 40
1.0
 40
1.0
 40
1.0
 10
13.1751482966
 20
9.7537198193
 30
0.0
 10
13.1753998509
 20
9.7594359679
 30
0.0
 10
13.1760262648
 20
9.7707428993
 30
0.0
 10
13.1773365277
 20
9.7874488471
 30
0.0
 10
13.1789922913
 20
9.8036247129
 30
0.0
 10
13.1809655028
 20
9.8191400786
 30
0.0
 10
13.1832271042
 20
9.8338796948
 30
0.0
 10
13.1857453641
 20
9.8477354885
 30
0.0
 10
13.1884866698
 20
9.8606055455
 30
0.0
 10
13.1914180955
 20
9.8723958659
 30
0.0
 10
13.1945040741
 20
9.8830226957
 30
0.0
 10
13.1977123874
 20
9.8924111566
 30
0.0
 10
13.2005543094
 20
9.8993876407
 30
0.0
 10
13.2028907804
 20
9.9042766411
 30
0.0
 10
13.2045896848
 20
9.9074575659
 30
0.0
 10
13.2062966987
 20
9.910285299
 30
0.0
 10
13.2080086889
 20
9.9127552726
 30
0.0
 10
13.2097231539
 20
9.914863371
 30
0.0
 10
13.2114385083
 20
9.9166063084
 30
0.0
 10
13.2131540105
 20
9.9179815425
 30
0.0
 10
13.2148710695
 20
9.9189850369
 30
0.0
 10
13.2165896258
 20
9.9196089698
 30
0.0
 10
13.2177531391
 20
9.9197658076
 30
0.0
 10
13.2183172362
 20
9.9197757582
 30
0.0
  0
SPLINE
  5
3A9
100
AcDbEntity
  8
0
100
AcDbSpline
 62
9
  6
CONTINUOUS
 70
0
 71
3
 72
18
 73
14
 74
0
 42
0.0000001
 43
0.0000001
 44
0.0000000001
 40
0.0
 40
0.0
 40
0.0
 40
0.0
 40
0.0273679832
 40
0.0603829891
 40
0.0992569245
 40
0.1441652887
 40
0.1951688444
 40
0.2519325097
 40
0.3809498782
 40
0.527029216
 40
0.68356443
 40
0.843438274
 40
1.0
 40
1.0
 40
1.0
 40
1.0
 10
13.2551733155
 20
9.7418402444
 30
0.0
 10
13.2546015832
 20
9.7421819912
 30
0.0
 10
13.2532953524
 20
9.7428610422
 30
0.0
 10
13.2510717408
 20
9.743808739
 30
0.0
 10
13.2483945528
 20
9.7447684649
 30
0.0
 10
13.2452571085
 20
9.7457296434
 30
0.0
 10
13.2416640828
 20
9.7466800585
 30
0.0
 10
13.2360487061
 20
9.7479787988
 30
0.0
 10
13.2281079977
 20
9.7494746448
 30
0.0
 10
13.2177099352
 20
9.7509856171
 30
0.0
 10
13.206521304
 20
9.7522338105
 30
0.0
 10
13.1950457792
 20
9.7531587026
 30
0.0
 10
13.1873542093
 20
9.7535693184
 30
0.0
 10
13.1835467664
 20
9.7537197747
 30
0.0
  0
SPLINE
  5
3AA
100
AcDbEntity
  8
0
100
AcDbSpline
 62
9
  6
CONTINUOUS
 70
0
 71
3
 72
11
 73
7
 74
0
 42
0.0000001
 43
0.0000001
 44
0.0000000001
 40
0.0
 40
0.0
 40
0.0
 40
0.0
 40
0.1908600588
 40
0.4099221729
 40
0.6754532454
 40
1.0
 40
1.0
 40
1.0
 40
1.0
 10
13.1100112513
 20
9.7417140858
 30
0.0
 10
13.1100237053
 20
9.7419478033
 30
0.0
 10
13.1101515297
 20
9.7424473034
 30
0.0
 10
13.1106154593
 20
9.743146298
 30
0.0
 10
13.1113481951
 20
9.7438246603
 30
0.0
 10
13.1119559847
 20
9.7442223312
 30
0.0
 10
13.1123002606
 20
9.7444220007
 30
0.0
  0
SPLINE
  5
3AB
100
AcDbEntity
  8
0
100
AcDbSpline
 62
9
  6
CONTINUOUS
 70
0
 71
3
 72
11
 73
7
 74
0
 42
0.0000001
 43
0.0000001
 44
0.0000000001
 40
0.0
 40
0.0
 40
0.0
 40
0.0
 40
0.1976298652
 40
0.4293743179
 40
0.6969233846
 40
1.0
 40
1.0
 40
1.0
 40
1.0
 10
13.1123002606
 20
9.7444220007
 30
0.0
 10
13.1126763832
 20
9.7446401404
 30
0.0
 10
13.1135220018
 20
9.7450652834
 30
0.0
 10
13.1149456938
 20
9.7456377229
 30
0.0
 10
13.1166237105
 20
9.7461890237
 30
0.0
 10
13.1178348648
 20
9.7465212034
 30
0.0
 10
13.1184811436
 20
9.7466853316
 30
0.0
  0
SPLINE
  5
3AC
100
AcDbEntity
  8
0
100
AcDbSpline
 62
9
  6
CONTINUOUS
 70
0
 71
3
 72
15
 73
11
 74
0
 42
0.0000001
 43
0.0000001
 44
0.0000000001
 40
0.0
 40
0.0
 40
0.0
 40
0.0
 40
0.0863966068
 40
0.1892689959
 40
0.3070136517
 40
0.4364384245
 40
0.5739211921
 40
0.7158808079
 40
0.8589982331
 40
1.0
 40
1.0
 40
1.0
 40
1.0
 10
13.1184811436
 20
9.7466853316
 30
0.0
 10
13.1200638584
 20
9.7470872758
 30
0.0
 10
13.1235706562
 20
9.7478119427
 30
0.0
 10
13.1293131758
 20
9.7486596087
 30
0.0
 10
13.1358970933
 20
9.7493292164
 30
0.0
 10
13.14315165
 20
9.7498211646
 30
0.0
 10
13.1508744106
 20
9.7501270345
 30
0.0
 10
13.1588610134
 20
9.7502408801
 30
0.0
 10
13.1669145097
 20
9.7501808849
 30
0.0
 10
13.1722829799
 20
9.7500354622
 30
0.0
 10
13.1749462176
 20
9.7499376962
 30
0.0
  0
SPLINE
  5
3AD
100
AcDbEntity
  8
0
100
AcDbSpline
 62
9
  6
CONTINUOUS
 70
0
 71
3
 72
18
 73
14
 74
0
 42
0.0000001
 43
0.0000001
 44
0.0000000001
 40
0.0
 40
0.0
 40
0.0
 40
0.0
 40
0.0232931936
 40
0.0490263797
 40
0.0788083396
 40
0.1136838216
 40
0.1543002038
 40
0.2010623684
 40
0.3139332633
 40
0.4530274722
 40
0.615989401
 40
0.7994863352
 40
1.0
 40
1.0
 40
1.0
 40
1.0
 10
13.1103033703
 20
9.2253433768
 30
0.0
 10
13.110296979
 20
9.225463154
 30
0.0
 10
13.1102399066
 20
9.2257142068
 30
0.0
 10
13.1100363731
 20
9.2260702005
 30
0.0
 10
13.1097200789
 20
9.2264155028
 30
0.0
 10
13.1092924787
 20
9.2267514984
 30
0.0
 10
13.1087532888
 20
9.2270786706
 30
0.0
 10
13.1078251224
 20
9.2275304545
 30
0.0
 10
13.1063714094
 20
9.2280460928
 30
0.0
 10
13.1042996975
 20
9.2285747269
 30
0.0
 10
13.101842677
 20
9.2290447375
 30
0.0
 10
13.0990544742
 20
9.2294485823
 30
0.0
 10
13.0970880299
 20
9.2296610441
 30
0.0
 10
13.0960599148
 20
9.2297565245
 30
0.0
  0
SPLINE
  5
3AE
100
AcDbEntity
  8
0
100
AcDbSpline
 62
9
  6
CONTINUOUS
 70
0
 71
3
 72
18
 73
14
 74
0
 42
0.0000001
 43
0.0000001
 44
0.0000000001
 40
0.0
 40
0.0
 40
0.0
 40
0.0
 40
0.0224109714
 40
0.0472463023
 40
0.0760935041
 40
0.1100139359
 40
0.1496929011
 40
0.1955844933
 40
0.3071400243
 40
0.4458440587
 40
0.6096302924
 40
0.7954300533
 40
1.0
 40
1.0
 40
1.0
 40
1.0
 10
13.1100111219
 20
9.7417138056
 30
0.0
 10
13.1100050142
 20
9.7415990065
 30
0.0
 10
13.1099502937
 20
9.7413579892
 30
0.0
 10
13.1097544928
 20
9.7410155702
 30
0.0
 10
13.1094488221
 20
9.7406824536
 30
0.0
 10
13.1090337674
 20
9.740357396
 30
0.0
 10
13.1085081003
 20
9.7400399642
 30
0.0
 10
13.1075968164
 20
9.7395991889
 30
0.0
 10
13.1061596989
 20
9.7390941221
 30
0.0
 10
13.1040990444
 20
9.7385738166
 30
0.0
 10
13.1016366481
 20
9.7381083344
 30
0.0
 10
13.0988218582
 20
9.7377064651
 30
0.0
 10
13.0968300966
 20
9.7374953158
 30
0.0
 10
13.0957850218
 20
9.737400338
 30
0.0
  0
SPLINE
  5
3AF
100
AcDbEntity
  8
0
100
AcDbSpline
 62
9
  6
CONTINUOUS
 70
0
 71
3
 72
25
 73
21
 74
0
 42
0.0000001
 43
0.0000001
 44
0.0000000001
 40
0.0
 40
0.0
 40
0.0
 40
0.0
 40
0.013553564
 40
0.0267932189
 40
0.0400745262
 40
0.0537475896
 40
0.083420733
 40
0.0999739877
 40
0.117884859
 40
0.1581886795
 40
0.2049662829
 40
0.258472939
 40
0.3186935316
 40
0.3854883883
 40
0.4585669519
 40
0.5375062776
 40
0.6218353185
 40
0.8042474925
 40
0.9009345806
 40
1.0
 40
1.0
 40
1.0
 40
1.0
 10
13.3282237654
 20
9.1450446268
 30
0.0
 10
13.3278105504
 20
9.1448967958
 30
0.0
 10
13.3269693558
 20
9.1446667024
 30
0.0
 10
13.3256717459
 20
9.1445400172
 30
0.0
 10
13.3243675345
 20
9.1446385749
 30
0.0
 10
13.3225800499
 20
9.1450787539
 30
0.0
 10
13.3208312865
 20
9.1459812668
 30
0.0
 10
13.3191719423
 20
9.147232528
 30
0.0
 10
13.3173909745
 20
9.1488784149
 30
0.0
 10
13.3152101532
 20
9.1515041817
 30
0.0
 10
13.3127526072
 20
9.1553453686
 30
0.0
 10
13.310377597
 20
9.1599752055
 30
0.0
 10
13.3081047497
 20
9.1653651929
 30
0.0
 10
13.3059590325
 20
9.1714822595
 30
0.0
 10
13.303963368
 20
9.1782833255
 30
0.0
 10
13.3021396141
 20
9.1857181545
 30
0.0
 10
13.2999119251
 20
9.1966896989
 30
0.0
 10
13.2982138155
 20
9.2083455223
 30
0.0
 10
13.2970167653
 20
9.2205328195
 30
0.0
 10
13.2965869937
 20
9.2268579226
 30
0.0
 10
13.2964161263
 20
9.2300610963
 30
0.0
  0
SPLINE
  5
3B0
100
AcDbEntity
  8
0
100
AcDbSpline
 62
9
  6
CONTINUOUS
 70
0
 71
3
 72
15
 73
11
 74
0
 42
0.0000001
 43
0.0000001
 44
0.0000000001
 40
0.0
 40
0.0
 40
0.0
 40
0.0
 40
0.1260484753
 40
0.2526824712
 40
0.3795476738
 40
0.5061854595
 40
0.6320165204
 40
0.7565324792
 40
0.8793710694
 40
1.0
 40
1.0
 40
1.0
 40
1.0
 10
13.357476892
 20
9.8030157213
 30
0.0
 10
13.3589707353
 20
9.8014199689
 30
0.0
 10
13.3617968433
 20
9.7980581169
 30
0.0
 10
13.3654632374
 20
9.7925763747
 30
0.0
 10
13.36850708
 20
9.7867143551
 30
0.0
 10
13.3709122052
 20
9.7805788961
 30
0.0
 10
13.372654364
 20
9.774265343
 30
0.0
 10
13.3737179857
 20
9.7678703054
 30
0.0
 10
13.3741428207
 20
9.7614937467
 30
0.0
 10
13.3740237582
 20
9.757266035
 30
0.0
 10
13.3738665605
 20
9.7551800704
 30
0.0
  0
SPLINE
  5
3B1
100
AcDbEntity
  8
0
100
AcDbSpline
 62
9
  6
CONTINUOUS
 70
0
 71
3
 72
9
 73
5
 74
0
 42
0.0000001
 43
0.0000001
 44
0.0000000001
 40
0.0
 40
0.0
 40
0.0
 40
0.0
 40
0.4921566826
 40
1.0
 40
1.0
 40
1.0
 40
1.0
 10
13.3098759677
 20
9.1185546594
 30
0.0
 10
13.3102150769
 20
9.1222011971
 30
0.0
 10
13.3120145332
 20
9.1295531432
 30
0.0
 10
13.3160363328
 20
9.1359952568
 30
0.0
 10
13.3185359335
 20
9.1388294827
 30
0.0
  0
SPLINE
  5
3B2
100
AcDbEntity
  8
0
100
AcDbSpline
 62
9
  6
CONTINUOUS
 70
0
 71
3
 72
9
 73
5
 74
0
 42
0.0000001
 43
0.0000001
 44
0.0000000001
 40
0.0
 40
0.0
 40
0.0
 40
0.0
 40
0.4773885896
 40
1.0
 40
1.0
 40
1.0
 40
1.0
 10
13.3033914564
 20
9.1130679264
 30
0.0
 10
13.3045603
 20
9.1137550416
 30
0.0
 10
13.3068748446
 20
9.1154286121
 30
0.0
 10
13.3088928891
 20
9.1174420617
 30
0.0
 10
13.3098760043
 20
9.1185540829
 30
0.0
  0
SPLINE
  5
3B3
100
AcDbEntity
  8
0
100
AcDbSpline
 62
9
  6
CONTINUOUS
 70
0
 71
3
 72
13
 73
9
 74
0
 42
0.0000001
 43
0.0000001
 44
0.0000000001
 40
0.0
 40
0.0
 40
0.0
 40
0.0
 40
0.2392807881
 40
0.3621989551
 40
0.4868955086
 40
0.6132424794
 40
0.7411356982
 40
1.0
 40
1.0
 40
1.0
 40
1.0
 10
13.3098760043
 20
9.1185540829
 30
0.0
 10
13.3095841504
 20
9.1154255924
 30
0.0
 10
13.3087918973
 20
9.1107131361
 30
0.0
 10
13.3070403598
 20
9.1045597717
 30
0.0
 10
13.3053341539
 20
9.099949399
 30
0.0
 10
13.3032342971
 20
9.0954315524
 30
0.0
 10
13.2998921971
 20
9.0895750913
 30
0.0
 10
13.2968353885
 20
9.0854816861
 30
0.0
 10
13.294584645
 20
9.082934348
 30
0.0
  0
SPLINE
  5
3B4
100
AcDbEntity
  8
0
100
AcDbSpline
 62
9
  6
CONTINUOUS
 70
0
 71
3
 72
12
 73
8
 74
0
 42
0.0000001
 43
0.0000001
 44
0.0000000001
 40
0.0
 40
0.0
 40
0.0
 40
0.0
 40
0.2387788451
 40
0.4863556134
 40
0.6130015074
 40
0.741170458
 40
1.0
 40
1.0
 40
1.0
 40
1.0
 10
13.3033915206
 20
9.1130682942
 30
0.0
 10
13.3031525563
 20
9.1095667339
 30
0.0
 10
13.302083448
 20
9.1024625887
 30
0.0
 10
13.2992696239
 20
9.0938518919
 30
0.0
 10
13.2960311923
 20
9.0872038345
 30
0.0
 10
13.2921047591
 20
9.0807468381
 30
0.0
 10
13.2884791058
 20
9.0763064738
 30
0.0
 10
13.2858017532
 20
9.0736036229
 30
0.0
  0
SPLINE
  5
3B5
100
AcDbEntity
  8
0
100
AcDbSpline
 62
9
  6
CONTINUOUS
 70
0
 71
3
 72
11
 73
7
 74
0
 42
0.0000001
 43
0.0000001
 44
0.0000000001
 40
0.0
 40
0.0
 40
0.0
 40
0.0
 40
0.2951263956
 40
0.5588232897
 40
0.7928353118
 40
1.0
 40
1.0
 40
1.0
 40
1.0
 10
13.2115855476
 20
9.0598949401
 30
0.0
 10
13.2122306024
 20
9.0587540831
 30
0.0
 10
13.2135240315
 20
9.056632934
 30
0.0
 10
13.2156119835
 20
9.0537912328
 30
0.0
 10
13.2177313208
 20
9.0514783943
 30
0.0
 10
13.2192494674
 20
9.050224378
 30
0.0
 10
13.2200105198
 20
9.0497075131
 30
0.0
  0
SPLINE
  5
3B6
100
AcDbEntity
  8
0
100
AcDbSpline
 62
9
  6
CONTINUOUS
 70
0
 71
3
 72
10
 73
6
 74
0
 42
0.0000001
 43
0.0000001
 44
0.0000000001
 40
0.0
 40
0.0
 40
0.0
 40
0.0
 40
0.5232606966
 40
0.7647998654
 40
1.0
 40
1.0
 40
1.0
 40
1.0
 10
13.2200105198
 20
9.0497075131
 30
0.0
 10
13.2208899896
 20
9.0491102258
 30
0.0
 10
13.2222862569
 20
9.0483708013
 30
0.0
 10
13.22426077
 20
9.047863009
 30
0.0
 10
13.2252312733
 20
9.0477787397
 30
0.0
 10
13.2257091329
 20
9.0477780374
 30
0.0
  0
SPLINE
  5
3B7
100
AcDbEntity
  8
0
100
AcDbSpline
 62
9
  6
CONTINUOUS
 70
0
 71
3
 72
19
 73
15
 74
0
 42
0.0000001
 43
0.0000001
 44
0.0000000001
 40
0.0
 40
0.0
 40
0.0
 40
0.0
 40
0.1629507014
 40
0.3196285978
 40
0.4672529834
 40
0.6035825839
 40
0.666868152
 40
0.7265701968
 40
0.7824800365
 40
0.8344315539
 40
0.8822709972
 40
0.9258679157
 40
0.965129881
 40
1.0
 40
1.0
 40
1.0
 40
1.0
 10
13.1838633826
 20
9.213066309
 30
0.0
 10
13.1842015059
 20
9.2045642685
 30
0.0
 10
13.1851141626
 20
9.1878961712
 30
0.0
 10
13.187215441
 20
9.1635840986
 30
0.0
 10
13.1899812973
 20
9.14073781
 30
0.0
 10
13.1928461061
 20
9.1228279322
 30
0.0
 10
13.1954418509
 20
9.1095371921
 30
0.0
 10
13.197459608
 20
9.1004151498
 30
0.0
 10
13.1995858054
 20
9.0919265081
 30
0.0
 10
13.2018080116
 20
9.0841043045
 30
0.0
 10
13.2041146744
 20
9.0769792442
 30
0.0
 10
13.2064940044
 20
9.0705800156
 30
0.0
 10
13.2089309536
 20
9.0649331184
 30
0.0
 10
13.2106893837
 20
9.0614799393
 30
0.0
 10
13.2115855476
 20
9.0598949401
 30
0.0
  0
LINE
  5
3B8
100
AcDbEntity
  8
0
100
AcDbLine
 62
9
  6
CONTINUOUS
 10
13.0676605179
 20
9.3890686505
 11
12.9744174821
 21
9.3892279873
  0
SPLINE
  5
3B9
100
AcDbEntity
  8
0
100
AcDbSpline
 62
9
  6
CONTINUOUS
 70
0
 71
3
 72
17
 73
13
 74
0
 42
0.0000001
 43
0.0000001
 44
0.0000000001
 40
0.0
 40
0.0
 40
0.0
 40
0.0
 40
0.1132628364
 40
0.2331200842
 40
0.2954214954
 40
0.3590063208
 40
0.4886932151
 40
0.6202275936
 40
0.685992611
 40
0.7511803255
 40
0.8783964765
 40
1.0
 40
1.0
 40
1.0
 40
1.0
 10
12.9744211798
 20
9.3892275881
 30
0.0
 10
12.970690623
 20
9.389632595
 30
0.0
 10
12.9630760864
 20
9.3911959777
 30
0.0
 10
12.9539617514
 20
9.3949338722
 30
0.0
 10
12.9469547522
 20
9.3991031867
 30
0.0
 10
12.9401174153
 20
9.4041157807
 30
0.0
 10
12.9323793269
 20
9.4116985166
 30
0.0
 10
12.9262292792
 20
9.4206999287
 30
0.0
 10
12.9223207437
 20
9.4284784942
 30
0.0
 10
12.9191680152
 20
9.4364412182
 30
0.0
 10
12.9166486229
 20
9.4465899206
 30
0.0
 10
12.9159814745
 20
9.4548462019
 30
0.0
 10
12.9159834334
 20
9.4588750114
 30
0.0
  0
SPLINE
  5
3BA
100
AcDbEntity
  8
0
100
AcDbSpline
 62
9
  6
CONTINUOUS
 70
0
 71
3
 72
16
 73
12
 74
0
 42
0.0000001
 43
0.0000001
 44
0.0000000001
 40
0.0
 40
0.0
 40
0.0
 40
0.0
 40
0.1289286578
 40
0.2572952607
 40
0.3210779923
 40
0.3845277324
 40
0.5102788113
 40
0.6345494747
 40
0.7573961139
 40
0.8791778052
 40
1.0
 40
1.0
 40
1.0
 40
1.0
 10
13.0060351567
 20
9.3534292459
 30
0.0
 10
13.0058228717
 20
9.3556939706
 30
0.0
 10
13.0050349223
 20
9.3601870989
 30
0.0
 10
13.0031703716
 20
9.3655635487
 30
0.0
 10
13.0011768093
 20
9.369613608
 30
0.0
 10
12.9988813184
 20
9.3734464088
 30
0.0
 10
12.995451272
 20
9.3778209843
 30
0.0
 10
12.990550646
 20
9.3822572098
 30
0.0
 10
12.9850080239
 20
9.3857350132
 30
0.0
 10
12.9789918566
 20
9.3881446772
 30
0.0
 10
12.9747692178
 20
9.3889999006
 30
0.0
 10
12.9726498664
 20
9.3892283862
 30
0.0
  0
SPLINE
  5
3BB
100
AcDbEntity
  8
0
100
AcDbSpline
 62
9
  6
CONTINUOUS
 70
0
 71
3
 72
17
 73
13
 74
0
 42
0.0000001
 43
0.0000001
 44
0.0000000001
 40
0.0
 40
0.0
 40
0.0
 40
0.0
 40
0.1135226769
 40
0.2336086437
 40
0.2959992116
 40
0.3596508452
 40
0.4893923742
 40
0.6208674233
 40
0.6865646629
 40
0.7516632465
 40
0.8786531344
 40
1.0
 40
1.0
 40
1.0
 40
1.0
 10
12.9726465529
 20
9.3892287434
 30
0.0
 10
12.9688983329
 20
9.3896326548
 30
0.0
 10
12.9612484337
 20
9.3911935525
 30
0.0
 10
12.9520878199
 20
9.3949293194
 30
0.0
 10
12.9450435191
 20
9.3990982877
 30
0.0
 10
12.9381716767
 20
9.4041091984
 30
0.0
 10
12.9303929462
 20
9.4116896163
 30
0.0
 10
12.9242057464
 20
9.4206939507
 30
0.0
 10
12.9202731198
 20
9.4284752939
 30
0.0
 10
12.9171011399
 20
9.4364383721
 30
0.0
 10
12.9145639655
 20
9.4465887134
 30
0.0
 10
12.9138892456
 20
9.4548481141
 30
0.0
 10
12.9138892467
 20
9.458877864
 30
0.0
  0
SPLINE
  5
3BC
100
AcDbEntity
  8
0
100
AcDbSpline
 62
9
  6
CONTINUOUS
 70
0
 71
3
 72
28
 73
24
 74
0
 42
0.0000001
 43
0.0000001
 44
0.0000000001
 40
0.0
 40
0.0
 40
0.0
 40
0.0
 40
0.0097393492
 40
0.0202535451
 40
0.0318458762
 40
0.0447371735
 40
0.0590825634
 40
0.0749858343
 40
0.0925084069
 40
0.1116867197
 40
0.132540812
 40
0.1550785925
 40
0.2051537383
 40
0.2617494169
 40
0.3246117469
 40
0.3933878782
 40
0.4676822884
 40
0.5470174158
 40
0.6308760508
 40
0.7187144611
 40
0.8099646055
 40
0.9039871788
 40
1.0
 40
1.0
 40
1.0
 40
1.0
 10
13.2175816734
 20
9.0478614824
 30
0.0
 10
13.2170198749
 20
9.0479447556
 30
0.0
 10
13.2158685361
 20
9.0482496263
 30
0.0
 10
13.2141895581
 20
9.0490636078
 30
0.0
 10
13.2125110729
 20
9.0502368944
 30
0.0
 10
13.2108331072
 20
9.0517644801
 30
0.0
 10
13.2091552206
 20
9.05364366
 30
0.0
 10
13.2074787938
 20
9.0558717627
 30
0.0
 10
13.2058055922
 20
9.0584451426
 30
0.0
 10
13.2041385016
 20
9.0613598093
 30
0.0
 10
13.2024805309
 20
9.0646114081
 30
0.0
 10
13.2002064919
 20
9.0695661312
 30
0.0
 10
13.1974402611
 20
9.0765806196
 30
0.0
 10
13.1943166372
 20
9.0859639746
 30
0.0
 10
13.1913148957
 20
9.0965254116
 30
0.0
 10
13.1884652675
 20
9.1081935442
 30
0.0
 10
13.1858013884
 20
9.1208883974
 30
0.0
 10
13.1833535787
 20
9.1345209618
 30
0.0
 10
13.1811539232
 20
9.1489950069
 30
0.0
 10
13.1792315171
 20
9.1642089573
 30
0.0
 10
13.1776140014
 20
9.1800542029
 30
0.0
 10
13.1763272737
 20
9.1964077887
 30
0.0
 10
13.1757061043
 20
9.2074731106
 30
0.0
 10
13.1754545053
 20
9.213066309
 30
0.0
  0
LINE
  5
3BD
100
AcDbEntity
  8
0
100
AcDbLine
 62
9
  6
CONTINUOUS
 10
13.3261078707
 20
9.1371493823
 11
13.323731175
 21
9.1343982714
  0
SPLINE
  5
3BE
100
AcDbEntity
  8
0
100
AcDbSpline
 62
9
  6
CONTINUOUS
 70
0
 71
3
 72
22
 73
18
 74
0
 42
0.0000001
 43
0.0000001
 44
0.0000000001
 40
0.0
 40
0.0
 40
0.0
 40
0.0
 40
0.02828045
 40
0.0602975602
 40
0.0964798145
 40
0.1371102585
 40
0.1823754316
 40
0.2323960804
 40
0.2872485131
 40
0.3469766689
 40
0.4116019018
 40
0.4811275847
 40
0.555544204
 40
0.6348306817
 40
0.7189585257
 40
0.8078927662
 40
1.0
 40
1.0
 40
1.0
 40
1.0
 10
13.5245604162
 20
9.4275918238
 30
0.0
 10
13.5245510766
 20
9.4250858929
 30
0.0
 10
13.524050236
 20
9.4197416409
 30
0.0
 10
13.5221357506
 20
9.4113925727
 30
0.0
 10
13.5190300119
 20
9.4022485592
 30
0.0
 10
13.5147398672
 20
9.3923086715
 30
0.0
 10
13.5092710672
 20
9.3815709654
 30
0.0
 10
13.5026301358
 20
9.370037721
 30
0.0
 10
13.4948244122
 20
9.357712603
 30
0.0
 10
13.4858627117
 20
9.3446002719
 30
0.0
 10
13.4757546581
 20
9.3307062948
 30
0.0
 10
13.4645111668
 20
9.3160365034
 30
0.0
 10
13.4521438461
 20
9.300597374
 30
0.0
 10
13.4386654443
 20
9.2843953858
 30
0.0
 10
13.4240892171
 20
9.2674373105
 30
0.0
 10
13.4026517636
 20
9.2431985133
 30
0.0
 10
13.3858000843
 20
9.2248591893
 30
0.0
 10
13.3741682846
 20
9.2124303934
 30
0.0
  0
SPLINE
  5
3BF
100
AcDbEntity
  8
0
100
AcDbSpline
 62
9
  6
CONTINUOUS
 70
0
 71
3
 72
15
 73
11
 74
0
 42
0.0000001
 43
0.0000001
 44
0.0000000001
 40
0.0
 40
0.0
 40
0.0
 40
0.0
 40
0.1243812025
 40
0.2497993287
 40
0.375932817
 40
0.502299797
 40
0.6283458441
 40
0.7536044275
 40
0.8776763292
 40
1.0
 40
1.0
 40
1.0
 40
1.0
 10
13.3581795086
 20
9.1650309212
 30
0.0
 10
13.3596241903
 20
9.1665998318
 30
0.0
 10
13.3623631376
 20
9.1699052752
 30
0.0
 10
13.3659232109
 20
9.1752937247
 30
0.0
 10
13.3688964484
 20
9.181065298
 30
0.0
 10
13.37125914
 20
9.1871232076
 30
0.0
 10
13.3729772021
 20
9.1933792979
 30
0.0
 10
13.374029982
 20
9.1997404365
 30
0.0
 10
13.3744510003
 20
9.206108523
 30
0.0
 10
13.3743284585
 20
9.2103390639
 30
0.0
 10
13.3741684416
 20
9.2124304123
 30
0.0
  0
SPLINE
  5
3C0
100
AcDbEntity
  8
0
100
AcDbSpline
 62
9
  6
CONTINUOUS
 70
0
 71
3
 72
21
 73
17
 74
0
 42
0.0000001
 43
0.0000001
 44
0.0000000001
 40
0.0
 40
0.0
 40
0.0
 40
0.0
 40
0.0271281213
 40
0.0584738701
 40
0.0947230575
 40
0.1362333265
 40
0.18316486
 40
0.2354976574
 40
0.293116306
 40
0.355849798
 40
0.4234225742
 40
0.4955071835
 40
0.5717565825
 40
0.6517700335
 40
0.8213390014
 40
1.0
 40
1.0
 40
1.0
 40
1.0
 10
13.1203464866
 20
9.8235305999
 30
0.0
 10
13.1195947955
 20
9.8231787666
 30
0.0
 10
13.1180755122
 20
9.8222005867
 30
0.0
 10
13.1159757393
 20
9.8201870171
 30
0.0
 10
13.113910051
 20
9.8175539976
 30
0.0
 10
13.1118882627
 20
9.8143125651
 30
0.0
 10
13.1099221081
 20
9.8104761764
 30
0.0
 10
13.1080236414
 20
9.8060647628
 30
0.0
 10
13.1062068299
 20
9.8011014354
 30
0.0
 10
13.1044873096
 20
9.7956133181
 30
0.0
 10
13.102877838
 20
9.7896326702
 30
0.0
 10
13.1013919338
 20
9.783195214
 30
0.0
 10
13.1000440316
 20
9.7763392589
 30
0.0
 10
13.0984140834
 20
9.7665036661
 30
0.0
 10
13.0968234846
 20
9.7534923487
 30
0.0
 10
13.096054689
 20
9.7428618689
 30
0.0
 10
13.0957850611
 20
9.737402583
 30
0.0
  0
SPLINE
  5
3C1
100
AcDbEntity
  8
0
100
AcDbSpline
 62
9
  6
CONTINUOUS
 70
0
 71
3
 72
24
 73
20
 74
0
 42
0.0000001
 43
0.0000001
 44
0.0000000001
 40
0.0
 40
0.0
 40
0.0
 40
0.0
 40
0.0074726819
 40
0.0155499993
 40
0.0246481889
 40
0.0350970611
 40
0.0471473911
 40
0.0609914936
 40
0.0946267471
 40
0.1368187273
 40
0.1874988789
 40
0.2463209866
 40
0.3128790217
 40
0.3865988224
 40
0.4663429988
 40
0.5508212146
 40
0.6387303033
 40
0.8197933393
 40
1.0
 40
1.0
 40
1.0
 40
1.0
 10
13.1102469627
 20
9.7460177997
 30
0.0
 10
13.1102569656
 20
9.7461841733
 30
0.0
 10
13.1103252158
 20
9.746528925
 30
0.0
 10
13.1105641022
 20
9.747029151
 30
0.0
 10
13.110940652
 20
9.7475213287
 30
0.0
 10
13.1114564154
 20
9.7480051411
 30
0.0
 10
13.1121148955
 20
9.7484808474
 30
0.0
 10
13.1132655818
 20
9.7491468288
 30
0.0
 10
13.1151142643
 20
9.7499276083
 30
0.0
 10
13.1178141486
 20
9.7507560211
 30
0.0
 10
13.1211119789
 20
9.7515221092
 30
0.0
 10
13.1249793686
 20
9.7522107699
 30
0.0
 10
13.1293810864
 20
9.7528069457
 30
0.0
 10
13.1342649338
 20
9.7532958237
 30
0.0
 10
13.13955885
 20
9.7536783793
 30
0.0
 10
13.1451762851
 20
9.7539523498
 30
0.0
 10
13.1530572294
 20
9.7541721791
 30
0.0
 10
13.1630780772
 20
9.7541610092
 30
0.0
 10
13.17113319
 20
9.7539055994
 30
0.0
 10
13.1751483044
 20
9.7537198191
 30
0.0
  0
SPLINE
  5
3C2
100
AcDbEntity
  8
0
100
AcDbSpline
 62
9
  6
CONTINUOUS
 70
0
 71
3
 72
16
 73
12
 74
0
 42
0.0000001
 43
0.0000001
 44
0.0000000001
 40
0.0
 40
0.0
 40
0.0
 40
0.0
 40
0.1289289153
 40
0.2572957233
 40
0.3210785271
 40
0.3845282706
 40
0.5102791278
 40
0.6345498335
 40
0.7573965065
 40
0.8791773999
 40
1.0
 40
1.0
 40
1.0
 40
1.0
 10
13.0060351567
 20
9.6214292459
 30
0.0
 10
13.0058228581
 20
9.6191643752
 30
0.0
 10
13.0050348342
 20
9.6146709594
 30
0.0
 10
13.0031700789
 20
9.6092941908
 30
0.0
 10
13.0011762943
 20
9.6052439206
 30
0.0
 10
12.9988805478
 20
9.6014109498
 30
0.0
 10
12.9954501077
 20
9.5970362387
 30
0.0
 10
12.9905489602
 20
9.592599983
 30
0.0
 10
12.9850058283
 20
9.5891222216
 30
0.0
 10
12.9789889914
 20
9.5867130904
 30
0.0
 10
12.9747660437
 20
9.585858249
 30
0.0
 10
12.9726465529
 20
9.5856297484
 30
0.0
  0
SPLINE
  5
3C3
100
AcDbEntity
  8
0
100
AcDbSpline
 62
9
  6
CONTINUOUS
 70
0
 71
3
 72
16
 73
12
 74
0
 42
0.0000001
 43
0.0000001
 44
0.0000000001
 40
0.0
 40
0.0
 40
0.0
 40
0.0
 40
0.1282121654
 40
0.2560222785
 40
0.3196211925
 40
0.3829609424
 40
0.50874052
 40
0.6333395535
 40
0.7566946636
 40
0.8788553766
 40
1.0
 40
1.0
 40
1.0
 40
1.0
 10
13.0060351566
 20
9.3534292459
 30
0.0
 10
13.0063481743
 20
9.3500898715
 30
0.0
 10
13.0074253935
 20
9.3434559293
 30
0.0
 10
13.009869819
 20
9.3354318761
 30
0.0
 10
13.0124617255
 20
9.3292871602
 30
0.0
 10
13.0154455279
 20
9.3233827493
 30
0.0
 10
13.0199058851
 20
9.3164590609
 30
0.0
 10
13.0263268912
 20
9.309043103
 30
0.0
 10
13.0336825291
 20
9.3026932804
 30
0.0
 10
13.0418115176
 20
9.2975388256
 30
0.0
 10
13.0476640491
 20
9.2949643321
 30
0.0
 10
13.0506537564
 20
9.2939131354
 30
0.0
  0
LINE
  5
3C4
100
AcDbEntity
  8
0
100
AcDbLine
 62
9
  6
CONTINUOUS
 10
13.3236768274
 20
9.8332651651
 11
13.3257718947
 21
9.8308837923
  0
SPLINE
  5
3C5
100
AcDbEntity
  8
0
100
AcDbSpline
 62
9
  6
CONTINUOUS
 70
0
 71
3
 72
10
 73
6
 74
0
 42
0.0000001
 43
0.0000001
 44
0.0000000001
 40
0.0
 40
0.0
 40
0.0
 40
0.0
 40
0.2349954845
 40
0.4764191824
 40
1.0
 40
1.0
 40
1.0
 40
1.0
 10
13.2254604422
 20
9.9197791309
 30
0.0
 10
13.2249778729
 20
9.919778464
 30
0.0
 10
13.2239975747
 20
9.9196927392
 30
0.0
 10
13.2220027298
 20
9.919175679
 30
0.0
 10
13.2205934496
 20
9.9184231107
 30
0.0
 10
13.2197062077
 20
9.9178157967
 30
0.0
  0
SPLINE
  5
3C6
100
AcDbEntity
  8
0
100
AcDbSpline
 62
9
  6
CONTINUOUS
 70
0
 71
3
 72
11
 73
7
 74
0
 42
0.0000001
 43
0.0000001
 44
0.0000000001
 40
0.0
 40
0.0
 40
0.0
 40
0.0
 40
0.207496203
 40
0.4416535779
 40
0.70524962
 40
1.0
 40
1.0
 40
1.0
 40
1.0
 10
13.2197062077
 20
9.9178157967
 30
0.0
 10
13.2189504786
 20
9.9172985027
 30
0.0
 10
13.2174431509
 20
9.916047342
 30
0.0
 10
13.2153377035
 20
9.9137456805
 30
0.0
 10
13.2132632427
 20
9.9109227192
 30
0.0
 10
13.2119775157
 20
9.908817151
 30
0.0
 10
13.2113363574
 20
9.9076851948
 30
0.0
  0
SPLINE
  5
3C7
100
AcDbEntity
  8
0
100
AcDbSpline
 62
9
  6
CONTINUOUS
 70
0
 71
3
 72
25
 73
21
 74
0
 42
0.0000001
 43
0.0000001
 44
0.0000000001
 40
0.0
 40
0.0
 40
0.0
 40
0.0
 40
0.0989959184
 40
0.1956568543
 40
0.3780732999
 40
0.462410689
 40
0.5413637479
 40
0.6144599996
 40
0.6812804971
 40
0.741527408
 40
0.7950591522
 40
0.8418580333
 40
0.8821745981
 40
0.9000881002
 40
0.9166409225
 40
0.9463013276
 40
0.9599633696
 40
0.9732319926
 40
0.986458648
 40
1.0
 40
1.0
 40
1.0
 40
1.0
 10
13.2961210642
 20
9.7370978266
 30
0.0
 10
13.2962892522
 20
9.7403126706
 30
0.0
 10
13.2967142954
 20
9.7466622579
 30
0.0
 10
13.2979035765
 20
9.7589001461
 30
0.0
 10
13.2995960138
 20
9.7706074667
 30
0.0
 10
13.3018226355
 20
9.7816291599
 30
0.0
 10
13.3036476793
 20
9.7890988536
 30
0.0
 10
13.3056466516
 20
9.7959325967
 30
0.0
 10
13.3077967445
 20
9.8020800145
 30
0.0
 10
13.3100751647
 20
9.8074976225
 30
0.0
 10
13.3124568202
 20
9.8121518099
 30
0.0
 10
13.3149220204
 20
9.8160136276
 30
0.0
 10
13.3171102254
 20
9.8186538496
 30
0.0
 10
13.3188973477
 20
9.8203091279
 30
0.0
 10
13.3205620251
 20
9.8215675437
 30
0.0
 10
13.3223165142
 20
9.8224757383
 30
0.0
 10
13.3241101387
 20
9.8229191675
 30
0.0
 10
13.3254187127
 20
9.8230188927
 30
0.0
 10
13.3267207245
 20
9.8228922073
 30
0.0
 10
13.3275647626
 20
9.8226613903
 30
0.0
 10
13.3279793711
 20
9.8225130392
 30
0.0
  0
SPLINE
  5
3C8
100
AcDbEntity
  8
0
100
AcDbSpline
 62
9
  6
CONTINUOUS
 70
0
 71
3
 72
18
 73
14
 74
0
 42
0.0000001
 43
0.0000001
 44
0.0000000001
 40
0.0
 40
0.0
 40
0.0
 40
0.0
 40
0.1589540644
 40
0.3188235621
 40
0.4739085023
 40
0.6181819557
 40
0.7460101713
 40
0.8025282002
 40
0.853552764
 40
0.8987601354
 40
0.9381565436
 40
0.97185128
 40
1.0
 40
1.0
 40
1.0
 40
1.0
 10
13.2961215901
 20
9.7370977963
 30
0.0
 10
13.2995417182
 20
9.7369005835
 30
0.0
 10
13.3063970323
 20
9.7364194213
 30
0.0
 10
13.3165652603
 20
9.7354429403
 30
0.0
 10
13.3263866241
 20
9.734205393
 30
0.0
 10
13.3354799187
 20
9.7327520229
 30
0.0
 10
13.3424234234
 20
9.7313397631
 30
0.0
 10
13.3473480702
 20
9.73012008
 30
0.0
 10
13.3505169944
 20
9.7292252996
 30
0.0
 10
13.3532968147
 20
9.7283184637
 30
0.0
 10
13.3556804316
 20
9.7274097702
 30
0.0
 10
13.3576689605
 20
9.7265082287
 30
0.0
 10
13.3588369073
 20
9.7258606209
 30
0.0
 10
13.359348048
 20
9.7255338492
 30
0.0
  0
SPLINE
  5
3C9
100
AcDbEntity
  8
0
100
AcDbSpline
 62
9
  6
CONTINUOUS
 70
0
 71
3
 72
18
 73
14
 74
0
 42
0.0000001
 43
0.0000001
 44
0.0000000001
 40
0.0
 40
0.0
 40
0.0
 40
0.0
 40
0.1589944004
 40
0.3188691548
 40
0.4739221072
 40
0.6181375902
 40
0.7459008112
 40
0.80239347
 40
0.8534033117
 40
0.8986116037
 40
0.9380294582
 40
0.9717715567
 40
1.0
 40
1.0
 40
1.0
 40
1.0
 10
13.2964161263
 20
9.2300610963
 30
0.0
 10
13.2998393702
 20
9.2302629747
 30
0.0
 10
13.3066999498
 20
9.2307555826
 30
0.0
 10
13.3168737944
 20
9.2317553657
 30
0.0
 10
13.3266969703
 20
9.2330222687
 30
0.0
 10
13.3357882954
 20
9.2345097372
 30
0.0
 10
13.3427272463
 20
9.2359547361
 30
0.0
 10
13.3476464416
 20
9.2372022721
 30
0.0
 10
13.3508112216
 20
9.2381173792
 30
0.0
 10
13.3535867552
 20
9.2390446847
 30
0.0
 10
13.3559661618
 20
9.2399738025
 30
0.0
 10
13.3579507619
 20
9.2408955619
 30
0.0
 10
13.3591151915
 20
9.2415571853
 30
0.0
 10
13.3596244881
 20
9.2418907903
 30
0.0
  0
SPLINE
  5
3CA
100
AcDbEntity
  8
0
100
AcDbSpline
 62
9
  6
CONTINUOUS
 70
0
 71
3
 72
17
 73
13
 74
0
 42
0.0000001
 43
0.0000001
 44
0.0000000001
 40
0.0
 40
0.0
 40
0.0
 40
0.0
 40
0.109131626
 40
0.1605323326
 40
0.2109542568
 40
0.2613344183
 40
0.3125795496
 40
0.4206926497
 40
0.5408481197
 40
0.6764027035
 40
0.8291762732
 40
1.0
 40
1.0
 40
1.0
 40
1.0
 10
13.3033915242
 20
9.1130682963
 30
0.0
 10
13.3024663929
 20
9.1125239553
 30
0.0
 10
13.3010066273
 20
9.1118659375
 30
0.0
 10
13.2989742395
 20
9.1114215969
 30
0.0
 10
13.2974760239
 20
9.1113105542
 30
0.0
 10
13.2959790928
 20
9.1114141646
 30
0.0
 10
13.2939547645
 20
9.1118409562
 30
0.0
 10
13.2914042909
 20
9.1129442301
 30
0.0
 10
13.2884843344
 20
9.1150471806
 30
0.0
 10
13.2856415994
 20
9.1179060049
 30
0.0
 10
13.2828806154
 20
9.1214910674
 30
0.0
 10
13.2811943885
 20
9.1241961689
 30
0.0
 10
13.2803598972
 20
9.12565447
 30
0.0
  0
SPLINE
  5
3CB
100
AcDbEntity
  8
0
100
AcDbSpline
 62
9
  6
CONTINUOUS
 70
0
 71
3
 72
18
 73
14
 74
0
 42
0.0000001
 43
0.0000001
 44
0.0000000001
 40
0.0
 40
0.0
 40
0.0
 40
0.0
 40
0.0298567879
 40
0.0653184195
 40
0.1064572641
 40
0.1532989106
 40
0.205768862
 40
0.2634750599
 40
0.3926448976
 40
0.5365431518
 40
0.6895325986
 40
0.845760733
 40
1.0
 40
1.0
 40
1.0
 40
1.0
 10
13.2604650413
 20
9.2233065757
 30
0.0
 10
13.2607753643
 20
9.2235009731
 30
0.0
 10
13.2614797373
 20
9.2238856253
 30
0.0
 10
13.2626714461
 20
9.2244210219
 30
0.0
 10
13.2640875401
 20
9.2249586986
 30
0.0
 10
13.2657256313
 20
9.2254932
 30
0.0
 10
13.267578823
 20
9.2260184244
 30
0.0
 10
13.2704274468
 20
9.2267288671
 30
0.0
 10
13.27440256
 20
9.2275478759
 30
0.0
 10
13.2795610182
 20
9.2283886061
 30
0.0
 10
13.2850732805
 20
9.2291019766
 30
0.0
 10
13.2907300268
 20
9.2296663087
 30
0.0
 10
13.2945278486
 20
9.2299477293
 30
0.0
 10
13.2964159495
 20
9.230064291
 30
0.0
  0
SPLINE
  5
3CC
100
AcDbEntity
  8
0
100
AcDbSpline
 62
9
  6
CONTINUOUS
 70
0
 71
3
 72
19
 73
15
 74
0
 42
0.0000001
 43
0.0000001
 44
0.0000000001
 40
0.0
 40
0.0
 40
0.0
 40
0.0
 40
0.0373021936
 40
0.0784507693
 40
0.1234446498
 40
0.1722332673
 40
0.2247332663
 40
0.2808392159
 40
0.4033595865
 40
0.4695041441
 40
0.5386093823
 40
0.6846368355
 40
0.8392566954
 40
1.0
 40
1.0
 40
1.0
 40
1.0
 10
13.2803598821
 20
9.1256549101
 30
0.0
 10
13.2795622363
 20
9.126669119
 30
0.0
 10
13.277991271
 20
9.1288867806
 30
0.0
 10
13.2757965203
 20
9.1325531259
 30
0.0
 10
13.2736577152
 20
9.136704625
 30
0.0
 10
13.2715852377
 20
9.1413229285
 30
0.0
 10
13.2695890943
 20
9.1463900155
 30
0.0
 10
13.2669661088
 20
9.1539440679
 30
0.0
 10
13.2646406769
 20
9.1620931733
 30
0.0
 10
13.2625786901
 20
9.1707685103
 30
0.0
 10
13.2605972202
 20
9.1802953229
 30
0.0
 10
13.2584924982
 20
9.1929167109
 30
0.0
 10
13.2566085814
 20
9.2087697075
 30
0.0
 10
13.2557894977
 20
9.2196513167
 30
0.0
 10
13.255486785
 20
9.2252032289
 30
0.0
  0
SPLINE
  5
3CD
100
AcDbEntity
  8
0
100
AcDbSpline
 62
9
  6
CONTINUOUS
 70
0
 71
3
 72
19
 73
15
 74
0
 42
0.0000001
 43
0.0000001
 44
0.0000000001
 40
0.0
 40
0.0
 40
0.0
 40
0.0
 40
0.1607112321
 40
0.3153449683
 40
0.461412299
 40
0.5305406556
 40
0.5967068623
 40
0.7192573432
 40
0.775369203
 40
0.8278674503
 40
0.8766456193
 40
0.9216195001
 40
0.9627379845
 40
1.0
 40
1.0
 40
1.0
 40
1.0
 10
13.2551740657
 20
9.7418506588
 30
0.0
 10
13.2554715566
 20
9.7474301528
 30
0.0
 10
13.2562825559
 20
9.7583676051
 30
0.0
 10
13.2581605869
 20
9.7743041298
 30
0.0
 10
13.2602657841
 20
9.7869943798
 30
0.0
 10
13.2622508316
 20
9.7965741804
 30
0.0
 10
13.2643180676
 20
9.8052977221
 30
0.0
 10
13.2666513417
 20
9.8134916921
 30
0.0
 10
13.2692849809
 20
9.8210865155
 30
0.0
 10
13.2712897142
 20
9.8261798668
 30
0.0
 10
13.2733715754
 20
9.8308210611
 30
0.0
 10
13.2755204316
 20
9.834991846
 30
0.0
 10
13.2777257704
 20
9.8386736369
 30
0.0
 10
13.2793047375
 20
9.840899679
 30
0.0
 10
13.2801065027
 20
9.8419172477
 30
0.0
  0
SPLINE
  5
3CE
100
AcDbEntity
  8
0
100
AcDbSpline
 62
9
  6
CONTINUOUS
 70
0
 71
3
 72
15
 73
11
 74
0
 42
0.0000001
 43
0.0000001
 44
0.0000000001
 40
0.0
 40
0.0
 40
0.0
 40
0.0
 40
0.0905093491
 40
0.192890348
 40
0.3063361581
 40
0.429884041
 40
0.5624500592
 40
0.7027149783
 40
0.8491976195
 40
1.0
 40
1.0
 40
1.0
 40
1.0
 10
13.2801064606
 20
9.841917851
 30
0.0
 10
13.2787697273
 20
9.8391872396
 30
0.0
 10
13.2762096347
 20
9.833225471
 30
0.0
 10
13.2728351128
 20
9.8234979895
 30
0.0
 10
13.2697420829
 20
9.8125197809
 30
0.0
 10
13.2669779566
 20
9.8004132077
 30
0.0
 10
13.2645915652
 20
9.7873103192
 30
0.0
 10
13.2626203636
 20
9.773360519
 30
0.0
 10
13.2611052239
 20
9.758738312
 30
0.0
 10
13.2604215592
 20
9.7487735096
 30
0.0
 10
13.2601600693
 20
9.74371475
 30
0.0
  0
SPLINE
  5
3CF
100
AcDbEntity
  8
0
100
AcDbSpline
 62
9
  6
CONTINUOUS
 70
0
 71
3
 72
15
 73
11
 74
0
 42
0.0000001
 43
0.0000001
 44
0.0000000001
 40
0.0
 40
0.0
 40
0.0
 40
0.0
 40
0.1508218972
 40
0.2972868814
 40
0.437516071
 40
0.5700439764
 40
0.6935656181
 40
0.8070085201
 40
0.9094198663
 40
1.0
 40
1.0
 40
1.0
 40
1.0
 10
13.2604655639
 20
9.2232971003
 30
0.0
 10
13.2607314404
 20
9.2182664442
 30
0.0
 10
13.2614219766
 20
9.2083583806
 30
0.0
 10
13.2629422343
 20
9.1938209883
 30
0.0
 10
13.2649130993
 20
9.1799542768
 30
0.0
 10
13.2672941758
 20
9.1669299836
 30
0.0
 10
13.2700484415
 20
9.1548951326
 30
0.0
 10
13.2731277441
 20
9.1439797042
 30
0.0
 10
13.2764853122
 20
9.1343042071
 30
0.0
 10
13.279030984
 20
9.1283723763
 30
0.0
 10
13.2803598405
 20
9.1256543138
 30
0.0
  0
SPLINE
  5
3D0
100
AcDbEntity
  8
0
100
AcDbSpline
 62
9
  6
CONTINUOUS
 70
0
 71
3
 72
18
 73
14
 74
0
 42
0.0000001
 43
0.0000001
 44
0.0000000001
 40
0.0
 40
0.0
 40
0.0
 40
0.0
 40
0.1138660341
 40
0.2357612047
 40
0.2994122893
 40
0.3644126032
 40
0.4966027559
 40
0.5631513692
 40
0.6294632173
 40
0.6951019926
 40
0.7595999626
 40
0.883662943
 40
1.0
 40
1.0
 40
1.0
 40
1.0
 10
13.2803598124
 20
9.1256543293
 30
0.0
 10
13.2799779916
 20
9.12176371
 30
0.0
 10
13.2784536193
 20
9.1137668638
 30
0.0
 10
13.2747941941
 20
9.1041002306
 30
0.0
 10
13.2706842809
 20
9.0965313335
 30
0.0
 10
13.2657305418
 20
9.0890607063
 30
0.0
 10
13.2597461385
 20
9.082188041
 30
0.0
 10
13.2528777783
 20
9.0762038307
 30
0.0
 10
13.2473584016
 20
9.07219099
 30
0.0
 10
13.2415758713
 20
9.0687031773
 30
0.0
 10
13.2337341254
 20
9.0648503289
 30
0.0
 10
13.2237628023
 20
9.0614908987
 30
0.0
 10
13.2155697857
 20
9.0601822367
 30
0.0
 10
13.2115859759
 20
9.0598950668
 30
0.0
  0
SPLINE
  5
3D1
100
AcDbEntity
  8
0
100
AcDbSpline
 62
9
  6
CONTINUOUS
 70
0
 71
3
 72
18
 73
14
 74
0
 42
0.0000001
 43
0.0000001
 44
0.0000000001
 40
0.0
 40
0.0
 40
0.0
 40
0.0
 40
0.0282385328
 40
0.0622758028
 40
0.1022701116
 40
0.1483370148
 40
0.2004721325
 40
0.2582643148
 40
0.3887066611
 40
0.5349202106
 40
0.6901291015
 40
0.8472360245
 40
1.0
 40
1.0
 40
1.0
 40
1.0
 10
13.255485353
 20
9.2252154317
 30
0.0
 10
13.254898728
 20
9.2248563184
 30
0.0
 10
13.2535559936
 20
9.2241444893
 30
0.0
 10
13.2512686729
 20
9.2231540423
 30
0.0
 10
13.2485179045
 20
9.2221543828
 30
0.0
 10
13.2453018528
 20
9.2211571842
 30
0.0
 10
13.2416303384
 20
9.2201757581
 30
0.0
 10
13.2359282366
 20
9.2188441579
 30
0.0
 10
13.2279218638
 20
9.2173213658
 30
0.0
 10
13.217511885
 20
9.2157948307
 30
0.0
 10
13.2064114822
 20
9.2145451586
 30
0.0
 10
13.1951192982
 20
9.2136247393
 30
0.0
 10
13.1875816535
 20
9.2132163781
 30
0.0
 10
13.1838637521
 20
9.2130663316
 30
0.0
  0
SPLINE
  5
3D2
100
AcDbEntity
  8
0
100
AcDbSpline
 62
9
  6
CONTINUOUS
 70
0
 71
3
 72
11
 73
7
 74
0
 42
0.0000001
 43
0.0000001
 44
0.0000000001
 40
0.0
 40
0.0
 40
0.0
 40
0.0
 40
0.1924543179
 40
0.4122660575
 40
0.677303868
 40
1.0
 40
1.0
 40
1.0
 40
1.0
 10
13.1103032779
 20
9.225343008
 30
0.0
 10
13.1103158961
 20
9.2251042068
 30
0.0
 10
13.1104433411
 20
9.22459501
 30
0.0
 10
13.1109069582
 20
9.2238799551
 30
0.0
 10
13.1116401512
 20
9.223185549
 30
0.0
 10
13.1122493841
 20
9.2227778145
 30
0.0
 10
13.1125942704
 20
9.2225732964
 30
0.0
  0
SPLINE
  5
3D3
100
AcDbEntity
  8
0
100
AcDbSpline
 62
9
  6
CONTINUOUS
 70
0
 71
3
 72
11
 73
7
 74
0
 42
0.0000001
 43
0.0000001
 44
0.0000000001
 40
0.0
 40
0.0
 40
0.0
 40
0.0
 40
0.1980324207
 40
0.4298921485
 40
0.6972975249
 40
1.0
 40
1.0
 40
1.0
 40
1.0
 10
13.1125942704
 20
9.2225732964
 30
0.0
 10
13.1129701725
 20
9.2223503858
 30
0.0
 10
13.1138155318
 20
9.2219156956
 30
0.0
 10
13.1152398418
 20
9.2213299639
 30
0.0
 10
13.1169184287
 20
9.2207658916
 30
0.0
 10
13.1181302576
 20
9.220425927
 30
0.0
 10
13.1187768156
 20
9.2202579752
 30
0.0
  0
SPLINE
  5
3D4
100
AcDbEntity
  8
0
100
AcDbSpline
 62
9
  6
CONTINUOUS
 70
0
 71
3
 72
15
 73
11
 74
0
 42
0.0000001
 43
0.0000001
 44
0.0000000001
 40
0.0
 40
0.0
 40
0.0
 40
0.0
 40
0.0864861036
 40
0.1894077924
 40
0.3071698699
 40
0.4365885161
 40
0.5740475509
 40
0.7159707266
 40
0.8590444501
 40
1.0
 40
1.0
 40
1.0
 40
1.0
 10
13.1187768156
 20
9.2202579752
 30
0.0
 10
13.120359254
 20
9.2198469165
 30
0.0
 10
13.1238660803
 20
9.2191055297
 30
0.0
 10
13.1296098248
 20
9.2182380404
 30
0.0
 10
13.1361946103
 20
9.2175526809
 30
0.0
 10
13.143449551
 20
9.217049041
 30
0.0
 10
13.1511722591
 20
9.2167356933
 30
0.0
 10
13.1591583933
 20
9.2166187133
 30
0.0
 10
13.1672110383
 20
9.2166795082
 30
0.0
 10
13.1725787594
 20
9.2168278441
 30
0.0
 10
13.1752415509
 20
9.2169276303
 30
0.0
  0
SPLINE
  5
3D5
100
AcDbEntity
  8
0
100
AcDbSpline
 62
9
  6
CONTINUOUS
 70
0
 71
3
 72
21
 73
17
 74
0
 42
0.0000001
 43
0.0000001
 44
0.0000000001
 40
0.0
 40
0.0
 40
0.0
 40
0.0
 40
0.1784648649
 40
0.3478389823
 40
0.4277538214
 40
0.5039151115
 40
0.5759259367
 40
0.6434473744
 40
0.7061653607
 40
0.7638049298
 40
0.816192412
 40
0.8632145401
 40
0.9048422745
 40
0.9412284676
 40
0.9727270241
 40
1.0
 40
1.0
 40
1.0
 40
1.0
 10
13.0960603647
 20
9.2297574677
 30
0.0
 10
13.0963343727
 20
9.2243353349
 30
0.0
 10
13.0971075162
 20
9.2137776404
 30
0.0
 10
13.09869517
 20
9.2008557177
 30
0.0
 10
13.1003193957
 20
9.1910881228
 30
0.0
 10
13.1016605522
 20
9.1842792228
 30
0.0
 10
13.1031373389
 20
9.1778846944
 30
0.0
 10
13.1047360707
 20
9.1719418914
 30
0.0
 10
13.106443364
 20
9.1664855295
 30
0.0
 10
13.1082471556
 20
9.1615473603
 30
0.0
 10
13.1101320812
 20
9.1571542493
 30
0.0
 10
13.1120837056
 20
9.1533289476
 30
0.0
 10
13.1140901189
 20
9.1500911869
 30
0.0
 10
13.1161403054
 20
9.147454622
 30
0.0
 10
13.1182242395
 20
9.1454298172
 30
0.0
 10
13.1197321444
 20
9.1444372589
 30
0.0
 10
13.1204791905
 20
9.1440763305
 30
0.0
  0
SPLINE
  5
3D6
100
AcDbEntity
  8
0
100
AcDbSpline
 62
9
  6
CONTINUOUS
 70
0
 71
3
 72
19
 73
15
 74
0
 42
0.0000001
 43
0.0000001
 44
0.0000000001
 40
0.0
 40
0.0
 40
0.0
 40
0.0
 40
0.1952508436
 40
0.3756677738
 40
0.5372593783
 40
0.6767756835
 40
0.7375593472
 40
0.7920533258
 40
0.8401304854
 40
0.8819404536
 40
0.9179190858
 40
0.9487602175
 40
0.9755659567
 40
1.0
 40
1.0
 40
1.0
 40
1.0
 10
13.0960599441
 20
9.2297575109
 30
0.0
 10
13.0942975582
 20
9.2299385475
 30
0.0
 10
13.090911461
 20
9.2303363923
 30
0.0
 10
13.0860919573
 20
9.2310788097
 30
0.0
 10
13.0818075901
 20
9.2319447084
 30
0.0
 10
13.0786321774
 20
9.2327954521
 30
0.0
 10
13.0764452374
 20
9.2335482174
 30
0.0
 10
13.075072226
 20
9.2341093202
 30
0.0
 10
13.0738973032
 20
9.2346921853
 30
0.0
 10
13.0729247894
 20
9.2352951025
 30
0.0
 10
13.0721547099
 20
9.2359155419
 30
0.0
 10
13.0715867214
 20
9.2365542978
 30
0.0
 10
13.0712237255
 20
9.2372136099
 30
0.0
 10
13.0711251097
 20
9.2376770199
 30
0.0
 10
13.0711150897
 20
9.2378985021
 30
0.0
  0
SPLINE
  5
3D7
100
AcDbEntity
  8
0
100
AcDbSpline
 62
9
  6
CONTINUOUS
 70
0
 71
3
 72
19
 73
15
 74
0
 42
0.0000001
 43
0.0000001
 44
0.0000000001
 40
0.0
 40
0.0
 40
0.0
 40
0.0
 40
0.1964942396
 40
0.3777627104
 40
0.539807452
 40
0.6793969875
 40
0.7400921768
 40
0.7944225292
 40
0.8422639872
 40
0.8837673807
 40
0.9193730959
 40
0.9497790155
 40
0.9760942579
 40
1.0
 40
1.0
 40
1.0
 40
1.0
 10
13.0957850611
 20
9.737402583
 30
0.0
 10
13.0940180446
 20
9.7372249123
 30
0.0
 10
13.0906255366
 20
9.7368345849
 30
0.0
 10
13.0858000574
 20
9.7361061291
 30
0.0
 10
13.081517149
 20
9.7352573979
 30
0.0
 10
13.0783465212
 20
9.7344240075
 30
0.0
 10
13.0761655344
 20
9.7336870643
 30
0.0
 10
13.074798514
 20
9.7331385349
 30
0.0
 10
13.0736298478
 20
9.7325691819
 30
0.0
 10
13.0726635444
 20
9.7319806389
 30
0.0
 10
13.0718992508
 20
9.731375411
 30
0.0
 10
13.0713361248
 20
9.730752632
 30
0.0
 10
13.0709765563
 20
9.7301097981
 30
0.0
 10
13.0708791684
 20
9.7296573256
 30
0.0
 10
13.0708696039
 20
9.7294414759
 30
0.0
  0
LINE
  5
3D8
100
AcDbEntity
  8
0
100
AcDbLine
 62
9
  6
CONTINUOUS
 10
12.9744174957
 20
9.5856305059
 11
13.0676937839
 21
9.5857899162
  0
SPLINE
  5
3D9
100
AcDbEntity
  8
0
100
AcDbSpline
 62
9
  6
CONTINUOUS
 70
0
 71
3
 72
17
 73
13
 74
0
 42
0.0000001
 43
0.0000001
 44
0.0000000001
 40
0.0
 40
0.0
 40
0.0
 40
0.0
 40
0.1213468656
 40
0.2483367535
 40
0.3134353371
 40
0.3791325767
 40
0.5106076258
 40
0.6403491548
 40
0.7040007884
 40
0.7663913563
 40
0.8864773231
 40
1.0
 40
1.0
 40
1.0
 40
1.0
 10
12.9138892467
 20
9.5159806278
 30
0.0
 10
12.9138892455
 20
9.5200103777
 30
0.0
 10
12.9145639655
 20
9.5282697784
 30
0.0
 10
12.9171011399
 20
9.5384201197
 30
0.0
 10
12.9202731198
 20
9.5463831979
 30
0.0
 10
12.9242057464
 20
9.5541645411
 30
0.0
 10
12.9303929462
 20
9.5631688755
 30
0.0
 10
12.9381716767
 20
9.5707492934
 30
0.0
 10
12.9450435191
 20
9.5757602041
 30
0.0
 10
12.9520878199
 20
9.5799291724
 30
0.0
 10
12.9612484337
 20
9.5836649393
 30
0.0
 10
12.9688983328
 20
9.585225837
 30
0.0
 10
12.9726465529
 20
9.5856297484
 30
0.0
  0
SPLINE
  5
3DA
100
AcDbEntity
  8
0
100
AcDbSpline
 62
9
  6
CONTINUOUS
 70
0
 71
3
 72
17
 73
13
 74
0
 42
0.0000001
 43
0.0000001
 44
0.0000000001
 40
0.0
 40
0.0
 40
0.0
 40
0.0
 40
0.1132575552
 40
0.2331107064
 40
0.2954106432
 40
0.3589943978
 40
0.4886804352
 40
0.6202158671
 40
0.685982051
 40
0.7511713057
 40
0.8783915218
 40
1.0
 40
1.0
 40
1.0
 40
1.0
 10
12.9744211799
 20
9.5856309037
 30
0.0
 10
12.9706907232
 20
9.5852259077
 30
0.0
 10
12.9630763403
 20
9.5836625809
 30
0.0
 10
12.9539621393
 20
9.5799248037
 30
0.0
 10
12.9469551592
 20
9.5757555732
 30
0.0
 10
12.9401177389
 20
9.5707430002
 30
0.0
 10
12.9323794725
 20
9.5631601781
 30
0.0
 10
12.9262292638
 20
9.5541585556
 30
0.0
 10
12.9223206112
 20
9.546379716
 30
0.0
 10
12.9191677832
 20
9.5384166067
 30
0.0
 10
12.9166483846
 20
9.5282673251
 30
0.0
 10
12.9159813701
 20
9.5200105628
 30
0.0
 10
12.9159834344
 20
9.5159815095
 30
0.0
  0
SPLINE
  5
3DB
100
AcDbEntity
  8
0
100
AcDbSpline
 62
9
  6
CONTINUOUS
 70
0
 71
3
 72
16
 73
12
 74
0
 42
0.0000001
 43
0.0000001
 44
0.0000000001
 40
0.0
 40
0.0
 40
0.0
 40
0.0
 40
0.1282122126
 40
0.2560223601
 40
0.3196212861
 40
0.3829610445
 40
0.5087406254
 40
0.6333396441
 40
0.7566947255
 40
0.8788554022
 40
1.0
 40
1.0
 40
1.0
 40
1.0
 10
13.0060351567
 20
9.6214292459
 30
0.0
 10
13.0063481778
 20
9.6247686569
 30
0.0
 10
13.0074254136
 20
9.6314026714
 30
0.0
 10
13.009869884
 20
9.6394268072
 30
0.0
 10
13.0124618395
 20
9.6455715809
 30
0.0
 10
13.0154456986
 20
9.6514760426
 30
0.0
 10
13.0199061408
 20
9.6583997808
 30
0.0
 10
13.0263272672
 20
9.6658157719
 30
0.0
 10
13.0336830383
 20
9.6721655962
 30
0.0
 10
13.0418121666
 20
9.6773200184
 30
0.0
 10
13.0476647915
 20
9.6798944658
 30
0.0
 10
13.050654544
 20
9.6809456333
 30
0.0
  0
SPLINE
  5
3DC
100
AcDbEntity
  8
0
100
AcDbSpline
 62
9
  6
CONTINUOUS
 70
0
 71
3
 72
23
 73
19
 74
0
 42
0.0000001
 43
0.0000001
 44
0.0000000001
 40
0.0
 40
0.0
 40
0.0
 40
0.0
 40
0.0393147122
 40
0.0732434111
 40
0.0890578076
 40
0.1046309617
 40
0.120425032
 40
0.1368930387
 40
0.1732848983
 40
0.2160387898
 40
0.2661542999
 40
0.324011012
 40
0.3895745141
 40
0.4622662947
 40
0.5412803822
 40
0.6257317114
 40
0.8073109091
 40
1.0
 40
1.0
 40
1.0
 40
1.0
 10
13.3741682891
 20
9.2124303336
 30
0.0
 10
13.3738225865
 20
9.2120610421
 30
0.0
 10
13.3731154933
 20
9.2114252612
 30
0.0
 10
13.3720743559
 20
9.2109014044
 30
0.0
 10
13.371247209
 20
9.2107302635
 30
0.0
 10
13.3706368843
 20
9.2107162004
 30
0.0
 10
13.3700259792
 20
9.2108147148
 30
0.0
 10
13.3691875975
 20
9.2111054602
 30
0.0
 10
13.3681417485
 20
9.2117850433
 30
0.0
 10
13.3669768678
 20
9.2129837964
 30
0.0
 10
13.3658569652
 20
9.2145746167
 30
0.0
 10
13.3647939234
 20
9.2165425501
 30
0.0
 10
13.3638019577
 20
9.2188656857
 30
0.0
 10
13.3628884695
 20
9.2215097258
 30
0.0
 10
13.3620644547
 20
9.2244359718
 30
0.0
 10
13.3610766818
 20
9.2287658926
 30
0.0
 10
13.3601582381
 20
9.234603279
 30
0.0
 10
13.3597523016
 20
9.2394058431
 30
0.0
 10
13.3596249301
 20
9.2418818501
 30
0.0
  0
SPLINE
  5
3DD
100
AcDbEntity
  8
0
100
AcDbSpline
 62
9
  6
CONTINUOUS
 70
0
 71
3
 72
23
 73
19
 74
0
 42
0.0000001
 43
0.0000001
 44
0.0000000001
 40
0.0
 40
0.0
 40
0.0
 40
0.0
 40
0.1923893634
 40
0.3738534298
 40
0.4583057944
 40
0.5373612854
 40
0.6101380579
 40
0.675831879
 40
0.7338611634
 40
0.7841762202
 40
0.8271309427
 40
0.8636838648
 40
0.8801982845
 40
0.8960068401
 40
0.9115577162
 40
0.9273116725
 40
0.9610147978
 40
1.0
 40
1.0
 40
1.0
 40
1.0
 10
13.3593489477
 20
9.7255419829
 30
0.0
 10
13.3594735535
 20
9.7280192219
 30
0.0
 10
13.359874452
 20
9.7328264972
 30
0.0
 10
13.3607864256
 20
9.7386713945
 30
0.0
 10
13.3617692277
 20
9.7430105703
 30
0.0
 10
13.3625900908
 20
9.7459457018
 30
0.0
 10
13.3635008503
 20
9.748600071
 30
0.0
 10
13.3644906058
 20
9.7509350261
 30
0.0
 10
13.3655519479
 20
9.7529162251
 30
0.0
 10
13.3666705738
 20
9.7545215641
 30
0.0
 10
13.3678343879
 20
9.7557357409
 30
0.0
 10
13.3688794588
 20
9.7564299726
 30
0.0
 10
13.3697182982
 20
9.7567331047
 30
0.0
 10
13.3703293941
 20
9.7568406885
 30
0.0
 10
13.3709401889
 20
9.7568358178
 30
0.0
 10
13.3717675461
 20
9.7566773994
 30
0.0
 10
13.3728106797
 20
9.7561697243
 30
0.0
 10
13.3735201222
 20
9.7555441691
 30
0.0
 10
13.3738667202
 20
9.7551801752
 30
0.0
  0
SPLINE
  5
3DE
100
AcDbEntity
  8
0
100
AcDbSpline
 62
9
  6
CONTINUOUS
 70
0
 71
3
 72
25
 73
21
 74
0
 42
0.0000001
 43
0.0000001
 44
0.0000000001
 40
0.0
 40
0.0
 40
0.0
 40
0.0
 40
0.0325631025
 40
0.0651360763
 40
0.0976953061
 40
0.130221565
 40
0.1627011916
 40
0.1951173079
 40
0.2274554044
 40
0.259709325
 40
0.3239400215
 40
0.3559079727
 40
0.3877708291
 40
0.4511672204
 40
0.5141070901
 40
0.5765714237
 40
0.6385460282
 40
0.7609969649
 40
0.8814611366
 40
1.0
 40
1.0
 40
1.0
 40
1.0
 10
13.1529201969
 20
8.7859290526
 30
0.0
 10
13.1519003972
 20
8.7745485259
 30
0.0
 10
13.1496162162
 20
8.7518051658
 30
0.0
 10
13.1454632786
 20
8.7177746577
 30
0.0
 10
13.1405820146
 20
8.6838538337
 30
0.0
 10
13.1349964609
 20
8.6500754906
 30
0.0
 10
13.1287997844
 20
8.6164555375
 30
0.0
 10
13.1220783179
 20
8.583004334
 30
0.0
 10
13.1149009364
 20
8.5497291017
 30
0.0
 10
13.1047631654
 20
8.5056766232
 30
0.0
 10
13.0937946618
 20
8.4619527311
 30
0.0
 10
13.0820671925
 20
8.4185735135
 30
0.0
 10
13.0699126617
 20
8.3756160403
 30
0.0
 10
13.05387865
 20
8.322465912
 30
0.0
 10
13.033321588
 20
8.2594818766
 30
0.0
 10
13.011520064
 20
8.1974456607
 30
0.0
 10
12.9809584091
 20
8.1163775371
 30
0.0
 10
12.93980222
 20
8.0175816943
 30
0.0
 10
12.8855513189
 20
7.9028883826
 30
0.0
 10
12.8460027602
 20
7.8288892302
 30
0.0
 10
12.8254975861
 20
7.7927004843
 30
0.0
  0
SPLINE
  5
3DF
100
AcDbEntity
  8
0
100
AcDbSpline
 62
9
  6
CONTINUOUS
 70
0
 71
3
 72
22
 73
18
 74
0
 42
0.0000001
 43
0.0000001
 44
0.0000000001
 40
0.0
 40
0.0
 40
0.0
 40
0.0
 40
0.1520349068
 40
0.2279014352
 40
0.3029318274
 40
0.376618111
 40
0.4484620183
 40
0.5179719874
 40
0.5846895982
 40
0.6482097257
 40
0.7082876872
 40
0.7648856872
 40
0.8180225503
 40
0.8677797855
 40
0.9143688593
 40
0.9582639763
 40
1.0
 40
1.0
 40
1.0
 40
1.0
 10
12.8254975861
 20
7.7927004843
 30
0.0
 10
12.8204706726
 20
7.7946359051
 30
0.0
 10
12.8128212679
 20
7.7972555846
 30
0.0
 10
12.8024712685
 20
7.8001057291
 30
0.0
 10
12.7947111607
 20
7.8018786105
 30
0.0
 10
12.787014044
 20
7.8032469031
 30
0.0
 10
12.7794498439
 20
7.8041884939
 30
0.0
 10
12.7720908876
 20
7.8046915773
 30
0.0
 10
12.7650090601
 20
7.8047426306
 30
0.0
 10
12.7582728794
 20
7.8043255033
 30
0.0
 10
12.7519441399
 20
7.8034324512
 30
0.0
 10
12.7460712211
 20
7.8020901802
 30
0.0
 10
12.7406951946
 20
7.800320231
 30
0.0
 10
12.7358543275
 20
7.7981447722
 30
0.0
 10
12.7315852321
 20
7.7955771331
 30
0.0
 10
12.7279011325
 20
7.7926630623
 30
0.0
 10
12.7257871534
 20
7.7904712858
 30
0.0
 10
12.724838572
 20
7.789336918
 30
0.0
  0
SPLINE
  5
3E0
100
AcDbEntity
  8
0
100
AcDbSpline
 62
9
  6
CONTINUOUS
 70
0
 71
3
 72
9
 73
5
 74
0
 42
0.0000001
 43
0.0000001
 44
0.0000000001
 40
0.0
 40
0.0
 40
0.0
 40
0.0
 40
0.2545400672
 40
1.0
 40
1.0
 40
1.0
 40
1.0
 10
12.724838572
 20
7.789336918
 30
0.0
 10
12.7245212602
 20
7.7889574584
 30
0.0
 10
12.7233100429
 20
7.7874375006
 30
0.0
 10
12.7222439487
 20
7.7858015167
 30
0.0
 10
12.7215455189
 20
7.784532348
 30
0.0
  0
SPLINE
  5
3E1
100
AcDbEntity
  8
0
100
AcDbSpline
 62
9
  6
CONTINUOUS
 70
0
 71
3
 72
14
 73
10
 74
0
 42
0.0000001
 43
0.0000001
 44
0.0000000001
 40
0.0
 40
0.0
 40
0.0
 40
0.0
 40
0.2956402022
 40
0.4355848895
 40
0.5680741636
 40
0.6916281807
 40
0.8053083979
 40
0.9083372961
 40
1.0
 40
1.0
 40
1.0
 40
1.0
 10
13.1529204511
 20
8.7859287737
 30
0.0
 10
13.1468716545
 20
8.7865437139
 30
0.0
 10
13.1379353507
 20
8.78724051
 30
0.0
 10
13.1262587694
 20
8.7876566818
 30
0.0
 10
13.1181134968
 20
8.7876903712
 30
0.0
 10
13.1105121669
 20
8.7874406777
 30
0.0
 10
13.1035314511
 20
8.786920301
 30
0.0
 10
13.0972347838
 20
8.7861438706
 30
0.0
 10
13.0932928016
 20
8.7854218097
 30
0.0
 10
13.0914536658
 20
8.785008137
 30
0.0
  0
SPLINE
  5
3E2
100
AcDbEntity
  8
0
100
AcDbSpline
 62
9
  6
CONTINUOUS
 70
0
 71
3
 72
13
 73
9
 74
0
 42
0.0000001
 43
0.0000001
 44
0.0000000001
 40
0.0
 40
0.0
 40
0.0
 40
0.0
 40
0.2501691645
 40
0.3752740937
 40
0.5003564697
 40
0.6253989167
 40
0.7503795029
 40
1.0
 40
1.0
 40
1.0
 40
1.0
 10
13.1601791586
 20
8.983430642
 30
0.0
 10
13.1533398659
 20
8.9672994961
 30
0.0
 10
13.1435826597
 20
8.9428854632
 30
0.0
 10
13.1314387535
 20
8.9100125255
 30
0.0
 10
13.1227298474
 20
8.8852161994
 30
0.0
 10
13.1144000684
 20
8.8602994377
 30
0.0
 10
13.1037775967
 20
8.8269560843
 30
0.0
 10
13.0962905038
 20
8.8018081867
 30
0.0
 10
13.0914543595
 20
8.7850076983
 30
0.0
  0
LINE
  5
3E3
100
AcDbEntity
  8
0
100
AcDbLine
 62
9
  6
CONTINUOUS
 10
14.3053234553
 20
7.3684292438
 11
14.3052937746
 21
7.4005344952
  0
LINE
  5
3E4
100
AcDbEntity
  8
0
100
AcDbLine
 62
9
  6
CONTINUOUS
 10
12.373501639
 20
7.3684292459
 11
12.373531955
 21
7.4004966189
  0
SPLINE
  5
3E5
100
AcDbEntity
  8
0
100
AcDbSpline
 62
9
  6
CONTINUOUS
 70
0
 71
3
 72
10
 73
6
 74
0
 42
0.0000001
 43
0.0000001
 44
0.0000000001
 40
0.0
 40
0.0
 40
0.0
 40
0.0
 40
0.254968917
 40
0.5067128015
 40
1.0
 40
1.0
 40
1.0
 40
1.0
 10
12.6861699917
 20
7.7842894947
 30
0.0
 10
12.6676310087
 20
7.7502927648
 30
0.0
 10
12.6296765526
 20
7.6833249019
 30
0.0
 10
12.5503025876
 20
7.5538250818
 30
0.0
 10
12.4860541444
 20
7.4605158398
 30
0.0
 10
12.4411618283
 20
7.4005385815
 30
0.0
  0
SPLINE
  5
3E6
100
AcDbEntity
  8
0
100
AcDbSpline
 62
9
  6
CONTINUOUS
 70
0
 71
3
 72
21
 73
17
 74
0
 42
0.0000001
 43
0.0000001
 44
0.0000000001
 40
0.0
 40
0.0
 40
0.0
 40
0.0
 40
0.0815872579
 40
0.1627211994
 40
0.2430726824
 40
0.3223005542
 40
0.3999523492
 40
0.4755025481
 40
0.5484218968
 40
0.6181646219
 40
0.7457912072
 40
0.8539540075
 40
0.8996320628
 40
0.9392342456
 40
0.9726899316
 40
1.0
 40
1.0
 40
1.0
 40
1.0
 10
12.373531957
 20
7.4004966222
 30
0.0
 10
12.3711030302
 20
7.4006241895
 30
0.0
 10
12.3662606426
 20
7.4009160959
 30
0.0
 10
12.3590310446
 20
7.4014101731
 30
0.0
 10
12.3518720499
 20
7.4019060795
 30
0.0
 10
12.3448129884
 20
7.4023405403
 30
0.0
 10
12.3378933268
 20
7.4027050917
 30
0.0
 10
12.3311592804
 20
7.4030145357
 30
0.0
 10
12.324659293
 20
7.4032788315
 30
0.0
 10
12.3166068203
 20
7.4035726746
 30
0.0
 10
12.3075015179
 20
7.4038274267
 30
0.0
 10
12.2991094816
 20
7.4038804672
 30
0.0
 10
12.2933431615
 20
7.403782867
 30
0.0
 10
12.2898053556
 20
7.4036571544
 30
0.0
 10
12.2868181957
 20
7.4034795755
 30
0.0
 10
12.2850136133
 20
7.4033139238
 30
0.0
 10
12.2842051793
 20
7.4032174824
 30
0.0
  0
SPLINE
  5
3E7
100
AcDbEntity
  8
0
100
AcDbSpline
 62
9
  6
CONTINUOUS
 70
0
 71
3
 72
13
 73
9
 74
0
 42
0.0000001
 43
0.0000001
 44
0.0000000001
 40
0.0
 40
0.0
 40
0.0
 40
0.0
 40
0.3687455804
 40
0.6529589926
 40
0.7654695713
 40
0.8596622533
 40
0.9370754347
 40
1.0
 40
1.0
 40
1.0
 40
1.0
 10
12.2842051793
 20
7.4032174824
 30
0.0
 10
12.2836527403
 20
7.4031515796
 30
0.0
 10
12.2826766416
 20
7.4030164992
 30
0.0
 10
12.2815432998
 20
7.402784145
 30
0.0
 10
12.2808343865
 20
7.4025675785
 30
0.0
 10
12.2804357169
 20
7.4024079462
 30
0.0
 10
12.2801243047
 20
7.4022379722
 30
0.0
 10
12.2799576269
 20
7.4021039441
 30
0.0
 10
12.2798930176
 20
7.4020343803
 30
0.0
  0
SPLINE
  5
3E8
100
AcDbEntity
  8
0
100
AcDbSpline
 62
9
  6
CONTINUOUS
 70
0
 71
3
 72
17
 73
13
 74
0
 42
0.0000001
 43
0.0000001
 44
0.0000000001
 40
0.0
 40
0.0
 40
0.0
 40
0.0
 40
0.1270155199
 40
0.1902977558
 40
0.2534320833
 40
0.3792620421
 40
0.5045164705
 40
0.629206713
 40
0.7533446882
 40
0.8769385261
 40
0.9385329782
 40
1.0
 40
1.0
 40
1.0
 40
1.0
 10
12.6861636238
 20
7.7842921909
 30
0.0
 10
12.6743467141
 20
7.7669526601
 30
0.0
 10
12.6563719586
 20
7.7411566848
 30
0.0
 10
12.6318798566
 20
7.7071995206
 30
0.0
 10
12.6071284565
 20
7.6736738463
 30
0.0
 10
12.5756055982
 20
7.6324258904
 30
0.0
 10
12.536860865
 20
7.5839160365
 30
0.0
 10
12.4972744831
 20
7.5364537863
 30
0.0
 10
12.4568735556
 20
7.4900462787
 30
0.0
 10
12.4225101618
 20
7.4522186318
 30
0.0
 10
12.3946535962
 20
7.42247871
 30
0.0
 10
12.3805963134
 20
7.4077910715
 30
0.0
 10
12.373531957
 20
7.4004966222
 30
0.0
  0
SPLINE
  5
3E9
100
AcDbEntity
  8
0
100
AcDbSpline
 62
9
  6
CONTINUOUS
 70
0
 71
3
 72
23
 73
19
 74
0
 42
0.0000001
 43
0.0000001
 44
0.0000000001
 40
0.0
 40
0.0
 40
0.0
 40
0.0
 40
0.1648119157
 40
0.24654418
 40
0.3268130809
 40
0.4049026165
 40
0.480112438
 40
0.5517684565
 40
0.6192468948
 40
0.6820633305
 40
0.7400770949
 40
0.7932865633
 40
0.8181269004
 40
0.8418166836
 40
0.8859395174
 40
0.9264191417
 40
0.9641368249
 40
1.0
 40
1.0
 40
1.0
 40
1.0
 10
12.6861637397
 20
7.7842922847
 30
0.0
 10
12.6809863292
 20
7.7869436747
 30
0.0
 10
12.6731027747
 20
7.7906499705
 30
0.0
 10
12.6624017526
 20
7.7949607316
 30
0.0
 10
12.6544145229
 20
7.7977991833
 30
0.0
 10
12.6465239209
 20
7.8001962182
 30
0.0
 10
12.6388178307
 20
7.802122297
 30
0.0
 10
12.6313840828
 20
7.8035485174
 30
0.0
 10
12.6243076793
 20
7.8044472641
 30
0.0
 10
12.6176630435
 20
7.8047873226
 30
0.0
 10
12.6115161481
 20
7.8045813317
 30
0.0
 10
12.6067448174
 20
7.8039561235
 30
0.0
 10
12.603236776
 20
7.8031798132
 30
0.0
 10
12.6000927347
 20
7.8022745942
 30
0.0
 10
12.5965315613
 20
7.8008474929
 30
0.0
 10
12.592804165
 20
7.7986315964
 30
0.0
 10
12.5897280551
 20
7.7960038811
 30
0.0
 10
12.5880814126
 20
7.793973121
 30
0.0
 10
12.5873809785
 20
7.7929188433
 30
0.0
  0
SPLINE
  5
3EA
100
AcDbEntity
  8
0
100
AcDbSpline
 62
9
  6
CONTINUOUS
 70
0
 71
3
 72
11
 73
7
 74
0
 42
0.0000001
 43
0.0000001
 44
0.0000000001
 40
0.0
 40
0.0
 40
0.0
 40
0.0
 40
0.244919698
 40
0.4933074749
 40
0.7450443184
 40
1.0
 40
1.0
 40
1.0
 40
1.0
 10
14.3052738488
 20
7.4005345059
 30
0.0
 10
14.2829945175
 20
7.4303246814
 30
0.0
 10
14.2392846689
 20
7.4912061721
 30
0.0
 10
14.1767054535
 20
7.585517943
 30
0.0
 10
14.1167408851
 20
7.6833054871
 30
0.0
 10
14.0788073055
 20
7.7502866363
 30
0.0
 10
14.0602872936
 20
7.7842949397
 30
0.0
  0
SPLINE
  5
3EB
100
AcDbEntity
  8
0
100
AcDbSpline
 62
9
  6
CONTINUOUS
 70
0
 71
3
 72
15
 73
11
 74
0
 42
0.0000001
 43
0.0000001
 44
0.0000000001
 40
0.0
 40
0.0
 40
0.0
 40
0.0
 40
0.253420322
 40
0.3792526074
 40
0.5045080437
 40
0.6292007636
 40
0.7533383784
 40
0.8152050794
 40
0.8769403697
 40
1.0
 40
1.0
 40
1.0
 40
1.0
 10
14.0602872936
 20
7.7842949397
 30
0.0
 10
14.0838211572
 20
7.7496709196
 30
0.0
 10
14.1202377314
 20
7.6986554122
 30
0.0
 10
14.1708390237
 20
7.6324251493
 30
0.0
 10
14.2095829533
 20
7.5839140793
 30
0.0
 10
14.2491724271
 20
7.5364558097
 30
0.0
 10
14.2828712309
 20
7.4977354438
 30
0.0
 10
14.310227847
 20
7.4672946395
 30
0.0
 10
14.3377915871
 20
7.4372826844
 30
0.0
 10
14.3587944855
 20
7.415124321
 30
0.0
 10
14.3729123494
 20
7.4004966499
 30
0.0
  0
SPLINE
  5
3EC
100
AcDbEntity
  8
0
100
AcDbSpline
 62
9
  6
CONTINUOUS
 70
0
 71
3
 72
25
 73
21
 74
0
 42
0.0000001
 43
0.0000001
 44
0.0000000001
 40
0.0
 40
0.0
 40
0.0
 40
0.0
 40
0.2059562063
 40
0.4034877282
 40
0.5843780794
 40
0.6652141281
 40
0.7377034047
 40
0.8005476585
 40
0.8282114557
 40
0.8533756875
 40
0.8962488778
 40
0.9293739921
 40
0.9424422636
 40
0.9533816741
 40
0.9625120248
 40
0.970278186
 40
0.9772741138
 40
0.9841840698
 40
0.9916200765
 40
1.0
 40
1.0
 40
1.0
 40
1.0
 10
14.3052728832
 20
7.4005380986
 30
0.0
 10
14.3029961655
 20
7.4008874681
 30
0.0
 10
14.2985295233
 20
7.4015319039
 30
0.0
 10
14.2920405134
 20
7.4023159033
 30
0.0
 10
14.2869233445
 20
7.4027737244
 30
0.0
 10
14.2831910379
 20
7.402982642
 30
0.0
 10
14.2807740427
 20
7.4030510176
 30
0.0
 10
14.2789505029
 20
7.4030336098
 30
0.0
 10
14.2776582552
 20
7.4029700374
 30
0.0
 10
14.2765911101
 20
7.4028855702
 30
0.0
 10
14.2754682985
 20
7.4027409545
 30
0.0
 10
14.2744938712
 20
7.4025167662
 30
0.0
 10
14.2738962509
 20
7.4022873847
 30
0.0
 10
14.2735684258
 20
7.4021117869
 30
0.0
 10
14.2733213018
 20
7.4019191526
 30
0.0
 10
14.2731525198
 20
7.4017078094
 30
0.0
 10
14.2730634655
 20
7.4014777944
 30
0.0
 10
14.2730543923
 20
7.4012352832
 30
0.0
 10
14.2731182003
 20
7.4009865467
 30
0.0
 10
14.2731985804
 20
7.4008276999
 30
0.0
 10
14.2732469147
 20
7.4007474061
 30
0.0
  0
SPLINE
  5
3ED
100
AcDbEntity
  8
0
100
AcDbSpline
 62
9
  6
CONTINUOUS
 70
0
 71
3
 72
15
 73
11
 74
0
 42
0.0000001
 43
0.0000001
 44
0.0000000001
 40
0.0
 40
0.0
 40
0.0
 40
0.0
 40
0.1282815929
 40
0.2561366338
 40
0.3831705806
 40
0.5091694662
 40
0.6339495852
 40
0.7574022651
 40
0.8794430809
 40
1.0
 40
1.0
 40
1.0
 40
1.0
 10
13.6696186652
 20
8.7850076036
 30
0.0
 10
13.6800186017
 20
8.7400804543
 30
0.0
 10
13.7023072111
 20
8.6507177576
 30
0.0
 10
13.7406154191
 20
8.5183763645
 30
0.0
 10
13.7834857619
 20
8.388305589
 30
0.0
 10
13.8306872863
 20
8.2609217965
 30
0.0
 10
13.8820249818
 20
8.1365394648
 30
0.0
 10
13.937355661
 20
8.0154423113
 30
0.0
 10
13.996545772
 20
7.8978829422
 30
0.0
 10
14.0387378441
 20
7.8215290853
 30
0.0
 10
14.0604402401
 20
7.7840162783
 30
0.0
  0
SPLINE
  5
3EE
100
AcDbEntity
  8
0
100
AcDbSpline
 62
9
  6
CONTINUOUS
 70
0
 71
3
 72
14
 73
10
 74
0
 42
0.0000001
 43
0.0000001
 44
0.0000000001
 40
0.0
 40
0.0
 40
0.0
 40
0.0
 40
0.0916627327
 40
0.1946916569
 40
0.3083718936
 40
0.4319259218
 40
0.5644151964
 40
0.704359871
 40
1.0
 40
1.0
 40
1.0
 40
1.0
 10
13.654991936
 20
8.7850090136
 30
0.0
 10
13.6531527729
 20
8.7854226861
 30
0.0
 10
13.6492107333
 20
8.7861447457
 30
0.0
 10
13.6429139757
 20
8.786921172
 30
0.0
 10
13.6359331615
 20
8.7874415421
 30
0.0
 10
13.6283317258
 20
8.7876912264
 30
0.0
 10
13.620186341
 20
8.7876575254
 30
0.0
 10
13.6085096009
 20
8.7872413343
 30
0.0
 10
13.5995731763
 20
8.7865445208
 30
0.0
 10
13.5935242983
 20
8.7859295677
 30
0.0
  0
SPLINE
  5
3EF
100
AcDbEntity
  8
0
100
AcDbSpline
 62
9
  6
CONTINUOUS
 70
0
 71
3
 72
14
 73
10
 74
0
 42
0.0000001
 43
0.0000001
 44
0.0000000001
 40
0.0
 40
0.0
 40
0.0
 40
0.0
 40
0.1223773684
 40
0.2457054485
 40
0.3698587733
 40
0.4947303629
 40
0.6202509765
 40
0.746359429
 40
1.0
 40
1.0
 40
1.0
 40
1.0
 10
13.6559382323
 20
8.9834306426
 30
0.0
 10
13.6564420374
 20
8.9753322357
 30
0.0
 10
13.6574159509
 20
8.9590701681
 30
0.0
 10
13.6588209948
 20
8.9345874754
 30
0.0
 10
13.6602224598
 20
8.9099389299
 30
0.0
 10
13.6616756902
 20
8.8851477458
 30
0.0
 10
13.6632621942
 20
8.8602345871
 30
0.0
 10
13.6656672689
 20
8.8268197335
 30
0.0
 10
13.6678834756
 20
8.8017349416
 30
0.0
 10
13.6696182207
 20
8.7850073641
 30
0.0
  0
SPLINE
  5
3F0
100
AcDbEntity
  8
0
100
AcDbSpline
 62
9
  6
CONTINUOUS
 70
0
 71
3
 72
13
 73
9
 74
0
 42
0.0000001
 43
0.0000001
 44
0.0000000001
 40
0.0
 40
0.0
 40
0.0
 40
0.0
 40
0.2489083066
 40
0.3736561696
 40
0.4985919024
 40
0.6237041694
 40
0.7489825377
 40
1.0
 40
1.0
 40
1.0
 40
1.0
 10
13.6696182207
 20
8.7850073641
 30
0.0
 10
13.6653125352
 20
8.8013062204
 30
0.0
 10
13.6590272747
 20
8.8258213484
 30
0.0
 10
13.6509896786
 20
8.8586195107
 30
0.0
 10
13.645124153
 20
8.8833168463
 30
0.0
 10
13.6394421337
 20
8.908093965
 30
0.0
 10
13.632128864
 20
8.9412566519
 30
0.0
 10
13.6269586425
 20
8.9662139501
 30
0.0
 10
13.6236453011
 20
8.982888784
 30
0.0
  0
LINE
  5
3F1
100
AcDbEntity
  8
0
100
AcDbLine
 62
9
  6
CONTINUOUS
 10
13.6236453011
 20
8.982888784
 11
13.6235376818
 21
8.9834306426
  0
SPLINE
  5
3F2
100
AcDbEntity
  8
0
100
AcDbSpline
 62
9
  6
CONTINUOUS
 70
0
 71
3
 72
15
 73
11
 74
0
 42
0.0000001
 43
0.0000001
 44
0.0000000001
 40
0.0
 40
0.0
 40
0.0
 40
0.0
 40
0.0787260331
 40
0.1720554259
 40
0.2796514612
 40
0.4010201626
 40
0.5354009556
 40
0.6812310696
 40
0.8367087261
 40
1.0
 40
1.0
 40
1.0
 40
1.0
 10
13.7207153009
 20
8.7859284459
 30
0.0
 10
13.7194132294
 20
8.7862756178
 30
0.0
 10
13.7165180226
 20
8.7868482769
 30
0.0
 10
13.7117586976
 20
8.7873887785
 30
0.0
 10
13.7062461128
 20
8.7876701055
 30
0.0
 10
13.7000246985
 20
8.7876795551
 30
0.0
 10
13.693154638
 20
8.7874072755
 30
0.0
 10
13.6857154502
 20
8.786866363
 30
0.0
 10
13.6778021358
 20
8.7860683158
 30
0.0
 10
13.6723878146
 20
8.7853873053
 30
0.0
 10
13.6696186272
 20
8.7850078035
 30
0.0
  0
SPLINE
  5
3F3
100
AcDbEntity
  8
0
100
AcDbSpline
 62
9
  6
CONTINUOUS
 70
0
 71
3
 72
17
 73
13
 74
0
 42
0.0000001
 43
0.0000001
 44
0.0000000001
 40
0.0
 40
0.0
 40
0.0
 40
0.0
 40
0.1285241047
 40
0.1924057436
 40
0.2560235932
 40
0.3825139698
 40
0.508029502
 40
0.5704272157
 40
0.6325809408
 40
0.7561304334
 40
0.8786237506
 40
1.0
 40
1.0
 40
1.0
 40
1.0
 10
13.7207160941
 20
8.7859287268
 30
0.0
 10
13.7305891837
 20
8.7527440574
 30
0.0
 10
13.7452021379
 20
8.7030153179
 30
0.0
 10
13.7652525192
 20
8.6370248237
 30
0.0
 10
13.7857554335
 20
8.5717473277
 30
0.0
 10
13.8127543191
 20
8.4911127063
 30
0.0
 10
13.8419518462
 20
8.4115947899
 30
0.0
 10
13.8666339162
 20
8.3489129006
 30
0.0
 10
13.8920904965
 20
8.2871141465
 30
0.0
 10
13.9255277222
 20
8.2111053558
 30
0.0
 10
13.9682684349
 20
8.1218152737
 30
0.0
 10
13.9985240601
 20
8.0634877777
 30
0.0
 10
14.01404085
 20
8.0347074749
 30
0.0
  0
LINE
  5
3F4
100
AcDbEntity
  8
0
100
AcDbLine
 62
9
  6
CONTINUOUS
 10
14.1849944264
 20
7.4020231846
 11
14.1850190057
 21
7.3684292459
  0
LINE
  5
3F5
100
AcDbEntity
  8
0
100
AcDbLine
 62
9
  6
CONTINUOUS
 10
13.3732221709
 20
7.3685060859
 11
13.3732221326
 21
7.4022327287
  0
SPLINE
  5
3F6
100
AcDbEntity
  8
0
100
AcDbSpline
 62
9
  6
CONTINUOUS
 70
0
 71
3
 72
9
 73
5
 74
0
 42
0.0000001
 43
0.0000001
 44
0.0000000001
 40
0.0
 40
0.0
 40
0.0
 40
0.0
 40
0.4988450602
 40
1.0
 40
1.0
 40
1.0
 40
1.0
 10
13.5862636215
 20
8.9834288434
 30
0.0
 10
13.5863838634
 20
8.9505588401
 30
0.0
 10
13.5870314406
 20
8.8846586287
 30
0.0
 10
13.5907722107
 20
8.8188359259
 30
0.0
 10
13.5935249135
 20
8.7859284294
 30
0.0
  0
SPLINE
  5
3F7
100
AcDbEntity
  8
0
100
AcDbSpline
 62
9
  6
CONTINUOUS
 70
0
 71
3
 72
9
 73
5
 74
0
 42
0.0000001
 43
0.0000001
 44
0.0000000001
 40
0.0
 40
0.0
 40
0.0
 40
0.0
 40
0.5011577508
 40
1.0
 40
1.0
 40
1.0
 40
1.0
 10
13.1529209654
 20
8.7859280768
 30
0.0
 10
13.1556746342
 20
8.8188357102
 30
0.0
 10
13.1594137685
 20
8.8846587048
 30
0.0
 10
13.1600570068
 20
8.950558928
 30
0.0
 10
13.1601804889
 20
8.9834287655
 30
0.0
  0
SPLINE
  5
3F8
100
AcDbEntity
  8
0
100
AcDbSpline
 62
9
  6
CONTINUOUS
 70
0
 71
3
 72
23
 73
19
 74
0
 42
0.0000001
 43
0.0000001
 44
0.0000000001
 40
0.0
 40
0.0
 40
0.0
 40
0.0
 40
0.0358628869
 40
0.0735802245
 40
0.1140594743
 40
0.1581819327
 40
0.1818715407
 40
0.2067117195
 40
0.2599209295
 40
0.3179345209
 40
0.3807508728
 40
0.4482293263
 40
0.5198854615
 40
0.5950954897
 40
0.6731853093
 40
0.7534545571
 40
0.8351872159
 40
1.0
 40
1.0
 40
1.0
 40
1.0
 10
14.1590634823
 20
7.7929187507
 30
0.0
 10
14.1583630716
 20
7.7939730343
 30
0.0
 10
14.1567164737
 20
7.796003808
 30
0.0
 10
14.1536404194
 20
7.798631545
 30
0.0
 10
14.1499130707
 20
7.800847461
 30
0.0
 10
14.1463519307
 20
7.802274576
 30
0.0
 10
14.1432079123
 20
7.8031798042
 30
0.0
 10
14.1396998879
 20
7.8039561228
 30
0.0
 10
14.1349285708
 20
7.8045813376
 30
0.0
 10
14.1287816833
 20
7.8047873311
 30
0.0
 10
14.1221370449
 20
7.8044472706
 30
0.0
 10
14.1150606287
 20
7.8035485157
 30
0.0
 10
14.1076268586
 20
7.8021222805
 30
0.0
 10
14.0999207377
 20
7.8001961813
 30
0.0
 10
14.0920300982
 20
7.7977991211
 30
0.0
 10
14.0840428257
 20
7.7949606395
 30
0.0
 10
14.0733417402
 20
7.7906498324
 30
0.0
 10
14.065458138
 20
7.7869434992
 30
0.0
 10
14.0602806955
 20
7.7842920834
 30
0.0
  0
SPLINE
  5
3F9
100
AcDbEntity
  8
0
100
AcDbSpline
 62
9
  6
CONTINUOUS
 70
0
 71
3
 72
15
 73
11
 74
0
 42
0.0000001
 43
0.0000001
 44
0.0000000001
 40
0.0
 40
0.0
 40
0.0
 40
0.0
 40
0.2415876616
 40
0.364747203
 40
0.4894219123
 40
0.615526767
 40
0.7428665848
 40
0.8711944538
 40
0.9356032834
 40
1.0
 40
1.0
 40
1.0
 40
1.0
 10
14.0217842734
 20
7.7902112694
 30
0.0
 10
13.9806875283
 20
7.8653593145
 30
0.0
 10
13.9231964798
 20
7.9813796303
 30
0.0
 10
13.8548131414
 20
8.1408776972
 30
0.0
 10
13.8068730501
 20
8.2645122129
 30
0.0
 10
13.7626138215
 20
8.3910776268
 30
0.0
 10
13.7221855368
 20
8.5202755521
 30
0.0
 10
13.6918824078
 20
8.6296588889
 30
0.0
 10
13.6699370556
 20
8.7181455262
 30
0.0
 10
13.6598155538
 20
8.7626799244
 30
0.0
 10
13.6549932897
 20
8.7849957791
 30
0.0
  0
LINE
  5
3FA
100
AcDbEntity
  8
0
100
AcDbLine
 62
9
  6
CONTINUOUS
 10
12.5614258548
 20
7.3684292459
 11
12.5614505128
 21
7.4020231774
  0
SPLINE
  5
3FB
100
AcDbEntity
  8
0
100
AcDbSpline
 62
9
  6
CONTINUOUS
 70
0
 71
3
 72
13
 73
9
 74
0
 42
0.0000001
 43
0.0000001
 44
0.0000000001
 40
0.0
 40
0.0
 40
0.0
 40
0.0
 40
0.0633632777
 40
0.1408969891
 40
0.2350063727
 40
0.3473285331
 40
0.6311705372
 40
1.0
 40
1.0
 40
1.0
 40
1.0
 10
14.4665511563
 20
7.4020345306
 30
0.0
 10
14.4664853798
 20
7.4021053529
 30
0.0
 10
14.4663163617
 20
7.4022416065
 30
0.0
 10
14.4660007718
 20
7.4024136992
 30
0.0
 10
14.4655976157
 20
7.4025742777
 30
0.0
 10
14.4648812285
 20
7.4027910367
 30
0.0
 10
14.4637353932
 20
7.4030223142
 30
0.0
 10
14.4627487243
 20
7.40315684
 30
0.0
 10
14.4621899836
 20
7.4032228051
 30
0.0
  0
SPLINE
  5
3FC
100
AcDbEntity
  8
0
100
AcDbSpline
 62
9
  6
CONTINUOUS
 70
0
 71
3
 72
17
 73
13
 74
0
 42
0.0000001
 43
0.0000001
 44
0.0000000001
 40
0.0
 40
0.0
 40
0.0
 40
0.0
 40
0.0274342999
 40
0.0610161835
 40
0.1007168665
 40
0.1464449327
 40
0.1978795619
 40
0.2546395488
 40
0.3823273599
 40
0.5249241787
 40
0.6778965967
 40
1.0
 40
1.0
 40
1.0
 40
1.0
 10
14.4621899836
 20
7.4032228051
 30
0.0
 10
14.4613782074
 20
7.4033186436
 30
0.0
 10
14.4595672331
 20
7.403484823
 30
0.0
 10
14.4565714025
 20
7.4036639387
 30
0.0
 10
14.4530273275
 20
7.4037888179
 30
0.0
 10
14.4489497396
 20
7.4038521063
 30
0.0
 10
14.4443634294
 20
7.4038550418
 30
0.0
 10
14.4373355555
 20
7.4037754201
 30
0.0
 10
14.4275940256
 20
7.4035184771
 30
0.0
 10
14.4149928392
 20
7.4030116882
 30
0.0
 10
14.3966129796
 20
7.4020703092
 30
0.0
 10
14.3824851378
 20
7.4011804064
 30
0.0
 10
14.3729123494
 20
7.4004966502
 30
0.0
  0
SPLINE
  5
3FD
100
AcDbEntity
  8
0
100
AcDbSpline
 62
9
  6
CONTINUOUS
 70
0
 71
3
 72
25
 73
21
 74
0
 42
0.0000001
 43
0.0000001
 44
0.0000000001
 40
0.0
 40
0.0
 40
0.0
 40
0.0
 40
0.0325627035
 40
0.0651346464
 40
0.0814170936
 40
0.0976936652
 40
0.1302216928
 40
0.16270254
 40
0.19511685
 40
0.2274544146
 40
0.259708547
 40
0.3239398464
 40
0.3877697048
 40
0.4511665316
 40
0.5141061572
 40
0.5765698928
 40
0.6385452486
 40
0.7609956931
 40
0.8814603311
 40
1.0
 40
1.0
 40
1.0
 40
1.0
 10
13.59352369
 20
8.7859277751
 30
0.0
 10
13.5945479408
 20
8.7745478069
 30
0.0
 10
13.5968277444
 20
8.7518047479
 30
0.0
 10
13.6002760721
 20
8.7234427447
 30
0.0
 10
13.6034078816
 20
8.7008040302
 30
0.0
 10
13.6067897945
 20
8.6782169225
 30
0.0
 10
13.6114543051
 20
8.6500765125
 30
0.0
 10
13.6176585578
 20
8.6164577471
 30
0.0
 10
13.6243674412
 20
8.5830044816
 30
0.0
 10
13.6315430606
 20
8.5497296543
 30
0.0
 10
13.641680932
 20
8.5056770933
 30
0.0
 10
13.6553719467
 20
8.45110862
 30
0.0
 10
13.6732914472
 20
8.386355487
 30
0.0
 10
13.6925663048
 20
8.3224661962
 30
0.0
 10
13.7131253927
 20
8.2594829875
 30
0.0
 10
13.7349226059
 20
8.1974454407
 30
0.0
 10
13.765486423
 20
8.1163783355
 30
0.0
 10
13.806642725
 20
8.0175826565
 30
0.0
 10
13.8608894994
 20
7.9028869645
 30
0.0
 10
13.9004466266
 20
7.8288922776
 30
0.0
 10
13.9209467851
 20
7.7927004415
 30
0.0
  0
SPLINE
  5
3FE
100
AcDbEntity
  8
0
100
AcDbSpline
 62
9
  6
CONTINUOUS
 70
0
 71
3
 72
10
 73
6
 74
0
 42
0.0000001
 43
0.0000001
 44
0.0000000001
 40
0.0
 40
0.0
 40
0.0
 40
0.0
 40
0.2517748278
 40
0.5021660662
 40
1.0
 40
1.0
 40
1.0
 40
1.0
 10
13.0905043083
 20
8.9834290315
 30
0.0
 10
13.0843093431
 20
8.9671183939
 30
0.0
 10
13.0725027714
 20
8.9343766653
 30
0.0
 10
13.0506793431
 20
8.8685998491
 30
0.0
 10
13.0356299249
 20
8.818975288
 30
0.0
 10
13.0257276325
 20
8.7859281015
 30
0.0
  0
SPLINE
  5
3FF
100
AcDbEntity
  8
0
100
AcDbSpline
 62
9
  6
CONTINUOUS
 70
0
 71
3
 72
21
 73
17
 74
0
 42
0.0000001
 43
0.0000001
 44
0.0000000001
 40
0.0
 40
0.0
 40
0.0
 40
0.0
 40
0.0643735413
 40
0.1285234392
 40
0.160496378
 40
0.1924021396
 40
0.2242430057
 40
0.256021237
 40
0.3193913356
 40
0.3825152291
 40
0.4453957259
 40
0.5080350417
 40
0.6325822294
 40
0.7561309624
 40
0.8786245392
 40
1.0
 40
1.0
 40
1.0
 40
1.0
 10
13.0257294749
 20
8.7859274473
 30
0.0
 10
13.0207825233
 20
8.7693064984
 30
0.0
 10
13.0109631262
 20
8.736105346
 30
0.0
 10
12.9986449337
 20
8.69466118
 30
0.0
 10
12.9886729693
 20
8.6616446758
 30
0.0
 10
12.9811231166
 20
8.6369888342
 30
0.0
 10
12.9734706198
 20
8.6124195267
 30
0.0
 10
12.963108972
 20
8.5798168358
 30
0.0
 10
12.9498240067
 20
8.5393012476
 30
0.0
 10
12.9332764663
 20
8.491042438
 30
0.0
 10
12.9161034805
 20
8.443211389
 30
0.0
 10
12.8923895772
 20
8.3801557611
 30
0.0
 10
12.861119046
 20
8.3024913306
 30
0.0
 10
12.8209113871
 20
8.2110951388
 30
0.0
 10
12.7781704697
 20
8.121802739
 30
0.0
 10
12.7479139401
 20
8.0634744249
 30
0.0
 10
12.7323962485
 20
8.0346940775
 30
0.0
  0
SPLINE
  5
400
100
AcDbEntity
  8
0
100
AcDbSpline
 62
9
  6
CONTINUOUS
 70
0
 71
3
 72
13
 73
9
 74
0
 42
0.0000001
 43
0.0000001
 44
0.0000000001
 40
0.0
 40
0.0
 40
0.0
 40
0.0
 40
0.1250674446
 40
0.2501710987
 40
0.375276285
 40
0.5003594328
 40
0.7503768579
 40
1.0
 40
1.0
 40
1.0
 40
1.0
 10
13.586264614
 20
8.9834321687
 30
0.0
 10
13.5896594514
 20
8.9753573436
 30
0.0
 10
13.5963153921
 20
8.9591483224
 30
0.0
 10
13.6058845101
 20
8.9346673203
 30
0.0
 10
13.6150218215
 20
8.9100205512
 30
0.0
 10
13.6266316978
 20
8.8769654158
 30
0.0
 10
13.6401635478
 20
8.8353495432
 30
0.0
 10
13.6501523685
 20
8.8018088633
 30
0.0
 10
13.654991936
 20
8.7850090136
 30
0.0
  0
SPLINE
  5
401
100
AcDbEntity
  8
0
100
AcDbSpline
 62
9
  6
CONTINUOUS
 70
0
 71
3
 72
25
 73
21
 74
0
 42
0.0000001
 43
0.0000001
 44
0.0000000001
 40
0.0
 40
0.0
 40
0.0
 40
0.0
 40
0.004152813
 40
0.0100940678
 40
0.0178400447
 40
0.0273620525
 40
0.0515706308
 40
0.0662759701
 40
0.0828175897
 40
0.1217349415
 40
0.1689195597
 40
0.2245306575
 40
0.2882262192
 40
0.359591866
 40
0.4379077517
 40
0.5223101414
 40
0.6118476325
 40
0.7054401239
 40
0.8020051723
 40
1.0
 40
1.0
 40
1.0
 40
1.0
 10
14.2735393604
 20
7.400510489
 30
0.0
 10
14.2734648409
 20
7.4006086682
 30
0.0
 10
14.2732332802
 20
7.4008060795
 30
0.0
 10
14.2727805646
 20
7.4010805335
 30
0.0
 10
14.2721550298
 20
7.4013727098
 30
0.0
 10
14.2710009484
 20
7.4018032042
 30
0.0
 10
14.2696043257
 20
7.4021612226
 30
0.0
 10
14.2679862395
 20
7.4024624688
 30
0.0
 10
14.2659258845
 20
7.4027689302
 30
0.0
 10
14.2628948238
 20
7.4030856514
 30
0.0
 10
14.2586993021
 20
7.4033885576
 30
0.0
 10
14.2537634371
 20
7.4036331024
 30
0.0
 10
14.2481062907
 20
7.403799059
 30
0.0
 10
14.2417732526
 20
7.4038679359
 30
0.0
 10
14.2348254119
 20
7.4038426519
 30
0.0
 10
14.2273390795
 20
7.4037297701
 30
0.0
 10
14.219400895
 20
7.4035355372
 30
0.0
 10
14.2111036973
 20
7.4032670621
 30
0.0
 10
14.1995919516
 20
7.4028169113
 30
0.0
 10
14.1908597979
 20
7.4023767897
 30
0.0
 10
14.1849938901
 20
7.4020230468
 30
0.0
  0
SPLINE
  5
402
100
AcDbEntity
  8
0
100
AcDbSpline
 62
9
  6
CONTINUOUS
 70
0
 71
3
 72
9
 73
5
 74
0
 42
0.0000001
 43
0.0000001
 44
0.0000000001
 40
0.0
 40
0.0
 40
0.0
 40
0.0
 40
0.2461029803
 40
1.0
 40
1.0
 40
1.0
 40
1.0
 10
14.0248986797
 20
7.7845325024
 30
0.0
 10
14.0246677935
 20
7.7849520646
 30
0.0
 10
14.0236879994
 20
7.7866337167
 30
0.0
 10
14.0225419502
 20
7.7882179433
 30
0.0
 10
14.0216005894
 20
7.7893431036
 30
0.0
  0
SPLINE
  5
403
100
AcDbEntity
  8
0
100
AcDbSpline
 62
9
  6
CONTINUOUS
 70
0
 71
3
 72
22
 73
18
 74
0
 42
0.0000001
 43
0.0000001
 44
0.0000000001
 40
0.0
 40
0.0
 40
0.0
 40
0.0
 40
0.0417944373
 40
0.0857671697
 40
0.1324488509
 40
0.182299319
 40
0.2355174152
 40
0.2921805432
 40
0.3523053548
 40
0.4158507371
 40
0.4825658476
 40
0.5520470655
 40
0.6238390702
 40
0.6974542452
 40
0.7723989153
 40
0.8481693504
 40
1.0
 40
1.0
 40
1.0
 40
1.0
 10
14.0214321463
 20
7.7895427415
 30
0.0
 10
14.020474969
 20
7.7906676665
 30
0.0
 10
14.018345225
 20
7.7928399095
 30
0.0
 10
14.0146430249
 20
7.7957245469
 30
0.0
 10
14.0103603553
 20
7.798262689
 30
0.0
 10
14.0055117594
 20
7.8004105445
 30
0.0
 10
14.0001338032
 20
7.8021552981
 30
0.0
 10
13.9942644356
 20
7.8034747025
 30
0.0
 10
13.987944372
 20
7.8043474226
 30
0.0
 10
13.9812218729
 20
7.8047473031
 30
0.0
 10
13.9741583512
 20
7.8046833107
 30
0.0
 10
13.9668217252
 20
7.8041710312
 30
0.0
 10
13.959283086
 20
7.803223953
 30
0.0
 10
13.9516139428
 20
7.8018536368
 30
0.0
 10
13.9438833085
 20
7.8000824324
 30
0.0
 10
13.9335738286
 20
7.7972388973
 30
0.0
 10
13.925954291
 20
7.7946282031
 30
0.0
 10
13.9209468354
 20
7.7927002504
 30
0.0
  0
SPLINE
  5
404
100
AcDbEntity
  8
0
100
AcDbSpline
 62
9
  6
CONTINUOUS
 70
0
 71
3
 72
13
 73
9
 74
0
 42
0.0000001
 43
0.0000001
 44
0.0000000001
 40
0.0
 40
0.0
 40
0.0
 40
0.0
 40
0.2457307103
 40
0.3698333571
 40
0.4946988679
 40
0.6202372578
 40
0.7463608182
 40
1.0
 40
1.0
 40
1.0
 40
1.0
 10
13.0905062588
 20
8.9834321698
 30
0.0
 10
13.0894370296
 20
8.9671744315
 30
0.0
 10
13.0880477607
 20
8.9426919029
 30
0.0
 10
13.0862267898
 20
8.9099422313
 30
0.0
 10
13.0847793381
 20
8.8851532066
 30
0.0
 10
13.0831864123
 20
8.8602386333
 30
0.0
 10
13.0807649848
 20
8.8268227641
 30
0.0
 10
13.0785460747
 20
8.8017375973
 30
0.0
 10
13.0768249482
 20
8.7850086801
 30
0.0
  0
SPLINE
  5
405
100
AcDbEntity
  8
0
100
AcDbSpline
 62
9
  6
CONTINUOUS
 70
0
 71
3
 72
15
 73
11
 74
0
 42
0.0000001
 43
0.0000001
 44
0.0000000001
 40
0.0
 40
0.0
 40
0.0
 40
0.0
 40
0.1632914075
 40
0.318769171
 40
0.4645993581
 40
0.5989801833
 40
0.7203488709
 40
0.8279448436
 40
0.9212741248
 40
1.0
 40
1.0
 40
1.0
 40
1.0
 10
13.0768249482
 20
8.7850086801
 30
0.0
 10
13.0740557319
 20
8.7853881816
 30
0.0
 10
13.0686413545
 20
8.786069191
 30
0.0
 10
13.060727959
 20
8.7868672342
 30
0.0
 10
13.0532886965
 20
8.7874081403
 30
0.0
 10
13.0464185693
 20
8.7876804111
 30
0.0
 10
13.0401970971
 20
8.7876709501
 30
0.0
 10
13.034684464
 20
8.7873896093
 30
0.0
 10
13.0299251011
 20
8.7868490916
 30
0.0
 10
13.0270298732
 20
8.7862764191
 30
0.0
 10
13.0257277933
 20
8.7859292398
 30
0.0
  0
LINE
  5
406
100
AcDbEntity
  8
0
100
AcDbLine
 62
9
  6
CONTINUOUS
 10
13.1229043947
 20
8.9834293939
 11
13.1227975263
 21
8.9828888536
  0
SPLINE
  5
407
100
AcDbEntity
  8
0
100
AcDbSpline
 62
9
  6
CONTINUOUS
 70
0
 71
3
 72
9
 73
5
 74
0
 42
0.0000001
 43
0.0000001
 44
0.0000000001
 40
0.0
 40
0.0
 40
0.0
 40
0.0
 40
0.2511578472
 40
1.0
 40
1.0
 40
1.0
 40
1.0
 10
13.1227975263
 20
8.9828888536
 30
0.0
 10
13.1194968729
 20
8.966202867
 30
0.0
 10
13.1057444259
 20
8.8998875507
 30
0.0
 10
13.0897456374
 20
8.834048651
 30
0.0
 10
13.0768260804
 20
8.7850076339
 30
0.0
  0
SPLINE
  5
408
100
AcDbEntity
  8
0
100
AcDbSpline
 62
9
  6
CONTINUOUS
 70
0
 71
3
 72
26
 73
22
 74
0
 42
0.0000001
 43
0.0000001
 44
0.0000000001
 40
0.0
 40
0.0
 40
0.0
 40
0.0
 40
0.0085423951
 40
0.0160961373
 40
0.023057819
 40
0.0300268341
 40
0.0376960204
 40
0.0466814493
 40
0.0574485812
 40
0.0703329636
 40
0.085531398
 40
0.1031313262
 40
0.1457107388
 40
0.1983028586
 40
0.2609849077
 40
0.3334055372
 40
0.414269241
 40
0.5021128242
 40
0.5954553703
 40
0.7934745084
 40
1.0
 40
1.0
 40
1.0
 40
1.0
 10
12.4731769132
 20
7.4007141131
 30
0.0
 10
12.4732279269
 20
7.4007950651
 30
0.0
 10
12.4733135483
 20
7.4009549627
 30
0.0
 10
12.4733860895
 20
7.401205444
 30
0.0
 10
12.473386205
 20
7.40145002
 30
0.0
 10
12.4733060685
 20
7.4016829447
 30
0.0
 10
12.473145201
 20
7.4018973778
 30
0.0
 10
12.472905377
 20
7.4020927292
 30
0.0
 10
12.4725845074
 20
7.4022707089
 30
0.0
 10
12.4721792079
 20
7.4024314679
 30
0.0
 10
12.47168752
 20
7.4025751104
 30
0.0
 10
12.4708620039
 20
7.4027547329
 30
0.0
 10
12.4696076351
 20
7.4029189961
 30
0.0
 10
12.4678421393
 20
7.403028655
 30
0.0
 10
12.4657390954
 20
7.4030519111
 30
0.0
 10
12.4633205267
 20
7.4029855629
 30
0.0
 10
12.4606234565
 20
7.4028364325
 30
0.0
 10
12.4576967626
 20
7.4026096482
 30
0.0
 10
12.4534685008
 20
7.4022031958
 30
0.0
 10
12.4479310557
 20
7.4015340719
 30
0.0
 10
12.4434457744
 20
7.4008871731
 30
0.0
 10
12.4411592185
 20
7.4005362245
 30
0.0
  0
SPLINE
  5
409
100
AcDbEntity
  8
0
100
AcDbSpline
 62
9
  6
CONTINUOUS
 70
0
 71
3
 72
15
 73
11
 74
0
 42
0.0000001
 43
0.0000001
 44
0.0000000001
 40
0.0
 40
0.0
 40
0.0
 40
0.0
 40
0.1205605951
 40
0.2426023916
 40
0.3660556615
 40
0.4908368624
 40
0.616837123
 40
0.7438697529
 40
0.8717208832
 40
1.0
 40
1.0
 40
1.0
 40
1.0
 10
12.686310365
 20
7.7845458106
 30
0.0
 10
12.7079939046
 20
7.8220420774
 30
0.0
 10
12.750149271
 20
7.8983604107
 30
0.0
 10
12.8092888188
 20
8.0158620226
 30
0.0
 10
12.8645735574
 20
8.1368964568
 30
0.0
 10
12.9158700284
 20
8.2612127147
 30
0.0
 10
12.9630342262
 20
8.3885269055
 30
0.0
 10
13.0058725725
 20
8.5185232479
 30
0.0
 10
13.0441551954
 20
8.6507861735
 30
0.0
 10
13.0664277744
 20
8.7400955112
 30
0.0
 10
13.0768230006
 20
8.7849954454
 30
0.0
  0
SPLINE
  5
40A
100
AcDbEntity
  8
0
100
AcDbSpline
 62
9
  6
CONTINUOUS
 70
0
 71
3
 72
14
 73
10
 74
0
 42
0.0000001
 43
0.0000001
 44
0.0000000001
 40
0.0
 40
0.0
 40
0.0
 40
0.0
 40
0.1288013178
 40
0.2571327131
 40
0.3844740449
 40
0.5105780162
 40
0.6352524936
 40
0.758412677
 40
1.0
 40
1.0
 40
1.0
 40
1.0
 10
13.0914537263
 20
8.7850079377
 30
0.0
 10
13.0818050576
 20
8.740359827
 30
0.0
 10
13.0606488288
 20
8.6516280105
 30
0.0
 10
13.0242394149
 20
8.5202021229
 30
0.0
 10
12.9837939487
 20
8.3909625854
 30
0.0
 10
12.9395155611
 20
8.2643602404
 30
0.0
 10
12.8915545826
 20
8.1406899295
 30
0.0
 10
12.8231406761
 20
7.9811466317
 30
0.0
 10
12.7656225911
 20
7.8650947268
 30
0.0
 10
12.7245051178
 20
7.7899279892
 30
0.0
  0
SPLINE
  5
40B
100
AcDbEntity
  8
0
100
AcDbSpline
 62
9
  6
CONTINUOUS
 70
0
 71
3
 72
10
 73
6
 74
0
 42
0.0000001
 43
0.0000001
 44
0.0000000001
 40
0.0
 40
0.0
 40
0.0
 40
0.0
 40
0.4978365695
 40
0.748228681
 40
1.0
 40
1.0
 40
1.0
 40
1.0
 10
13.7207157096
 20
8.785927749
 30
0.0
 10
13.7108117904
 20
8.8189746377
 30
0.0
 10
13.6957663064
 20
8.8686006666
 30
0.0
 10
13.6739390736
 20
8.9343762619
 30
0.0
 10
13.6621328531
 20
8.9671178511
 30
0.0
 10
13.6559398712
 20
8.9834289813
 30
0.0
  0
LINE
  5
40C
100
AcDbEntity
  8
0
100
AcDbLine
 62
9
  6
CONTINUOUS
 10
12.4411211391
 20
7.368429359
 11
12.4411506583
 21
7.4005344741
  0
LINE
  5
40D
100
AcDbEntity
  8
0
100
AcDbLine
 62
9
  6
CONTINUOUS
 10
14.3729425538
 20
7.3684292546
 11
14.372912263
 21
7.4004966455
  0
SPLINE
  5
40E
100
AcDbEntity
  8
0
100
AcDbSpline
 62
9
  6
CONTINUOUS
 70
0
 71
3
 72
25
 73
21
 74
0
 42
0.0000001
 43
0.0000001
 44
0.0000000001
 40
0.0
 40
0.0
 40
0.0
 40
0.0
 40
0.1980001973
 40
0.2945574273
 40
0.3881227014
 40
0.477645662
 40
0.5620807017
 40
0.6404522812
 40
0.7118309457
 40
0.7754510095
 40
0.8310045156
 40
0.8782822866
 40
0.9173350222
 40
0.9484763912
 40
0.9611989184
 40
0.9721142088
 40
0.9813151889
 40
0.9889157117
 40
0.9950683583
 40
1.0
 40
1.0
 40
1.0
 40
1.0
 10
12.5614507669
 20
7.402023004
 30
0.0
 10
12.5555845515
 20
7.4023824745
 30
0.0
 10
12.5468514617
 20
7.4028190605
 30
0.0
 10
12.5353395141
 20
7.4032655666
 30
0.0
 10
12.5270432031
 20
7.4035373204
 30
0.0
 10
12.5191046911
 20
7.4037349371
 30
0.0
 10
12.5116154566
 20
7.4038442278
 30
0.0
 10
12.5046639949
 20
7.4038620174
 30
0.0
 10
12.4983307028
 20
7.4037915977
 30
0.0
 10
12.4926764229
 20
7.403634301
 30
0.0
 10
12.4877410081
 20
7.4033962186
 30
0.0
 10
12.4835404447
 20
7.4030825377
 30
0.0
 10
12.4800739161
 20
7.4026995239
 30
0.0
 10
12.4776415246
 20
7.4023121409
 30
0.0
 10
12.4760532493
 20
7.4019616446
 30
0.0
 10
12.4751124878
 20
7.4017044498
 30
0.0
 10
12.4743342045
 20
7.4014354614
 30
0.0
 10
12.4737120091
 20
7.4011541738
 30
0.0
 10
12.473239413
 20
7.4008604899
 30
0.0
 10
12.4729970262
 20
7.4006317277
 30
0.0
 10
12.4729085897
 20
7.4005150758
 30
0.0
  0
LINE
  5
40F
100
AcDbEntity
  8
0
100
AcDbLine
 62
7
  6
CONTINUOUS
 10
11.4668036584
 20
9.5451433069
 11
11.453583875
 21
9.5476817609
  0
LINE
  5
410
100
AcDbEntity
  8
0
100
AcDbLine
 62
7
  6
CONTINUOUS
 10
12.5771887251
 20
7.8593004691
 11
12.5797377819
 21
7.8664198809
  0
LINE
  5
411
100
AcDbEntity
  8
0
100
AcDbLine
 62
7
  6
CONTINUOUS
 10
12.5599268832
 20
7.8119562303
 11
12.5603216838
 21
7.8130239781
  0
LINE
  5
412
100
AcDbEntity
  8
0
100
AcDbLine
 62
7
  6
CONTINUOUS
 10
14.1738398734
 20
7.8465708724
 11
14.1733240858
 21
7.8479970298
  0
LINE
  5
413
100
AcDbEntity
  8
0
100
AcDbLine
 62
7
  6
CONTINUOUS
 10
14.1678044077
 20
7.8633415864
 11
14.1674523625
 21
7.8643254395
  0
LINE
  5
414
100
AcDbEntity
  8
0
100
AcDbLine
 62
7
  6
CONTINUOUS
 10
14.1675577159
 20
7.864031349
 11
14.1667336796
 21
7.8663362802
  0
LINE
  5
415
100
AcDbEntity
  8
0
100
AcDbLine
 62
7
  6
CONTINUOUS
 10
14.1667336796
 20
7.8663362802
 11
14.1648637205
 21
7.8715795925
  0
LINE
  5
416
100
AcDbEntity
  8
0
100
AcDbLine
 62
7
  6
CONTINUOUS
 10
14.1670939453
 20
7.8653261463
 11
14.1666335736
 21
7.8666145147
  0
LINE
  5
417
100
AcDbEntity
  8
0
100
AcDbLine
 62
7
  6
CONTINUOUS
 10
14.1666335736
 20
7.8666145147
 11
14.1648630793
 21
7.8715793628
  0
SPLINE
  5
418
100
AcDbEntity
  8
0
100
AcDbSpline
 62
7
  6
CONTINUOUS
 70
0
 71
3
 72
9
 73
5
 74
0
 42
0.0000001
 43
0.0000001
 44
0.0000000001
 40
0.0
 40
0.0
 40
0.0
 40
0.0
 40
0.4999707456
 40
1.0
 40
1.0
 40
1.0
 40
1.0
 10
9.7366985261
 20
10.1963381464
 30
0.0
 10
9.7198607097
 20
10.2063234085
 30
0.0
 10
9.6860295243
 20
10.2260385955
 30
0.0
 10
9.6517604882
 20
10.2449875268
 30
0.0
 10
9.6345014985
 20
10.254230605
 30
0.0
  0
SPLINE
  5
419
100
AcDbEntity
  8
0
100
AcDbSpline
 62
7
  6
CONTINUOUS
 70
0
 71
3
 72
9
 73
5
 74
0
 42
0.0000001
 43
0.0000001
 44
0.0000000001
 40
0.0
 40
0.0
 40
0.0
 40
0.0
 40
0.5000317631
 40
1.0
 40
1.0
 40
1.0
 40
1.0
 10
9.8508657978
 20
10.126815164
 30
0.0
 10
9.8152385773
 20
10.1487894336
 30
0.0
 10
9.7439433945
 20
10.1926576588
 30
0.0
 10
9.6714020694
 20
10.2345078655
 30
0.0
 10
9.6345296066
 20
10.2543104832
 30
0.0
  0
LINE
  5
41A
100
AcDbEntity
  8
0
100
AcDbLine
 62
7
  6
CONTINUOUS
 10
7.9325590759
 20
8.7241550413
 11
7.9649110543
 21
8.8448960022
  0
LINE
  5
41B
100
AcDbEntity
  8
0
100
AcDbLine
 62
7
  6
CONTINUOUS
 10
8.6129246572
 20
9.9103400801
 11
8.6162616003
 21
9.9112792845
  0
LINE
  5
41C
100
AcDbEntity
  8
0
100
AcDbLine
 62
7
  6
CONTINUOUS
 10
11.160714428
 20
8.8924395348
 11
11.1512977498
 21
8.8963911099
  0
SPLINE
  5
41D
100
AcDbEntity
  8
0
100
AcDbSpline
 62
7
  6
CONTINUOUS
 70
0
 71
3
 72
10
 73
6
 74
0
 42
0.0000001
 43
0.0000001
 44
0.0000000001
 40
0.0
 40
0.0
 40
0.0
 40
0.0
 40
0.5001279174
 40
0.7500995815
 40
1.0
 40
1.0
 40
1.0
 40
1.0
 10
8.2208670541
 20
9.7160572476
 30
0.0
 10
8.2019511499
 20
9.701379562
 30
0.0
 10
8.1743605471
 20
9.6783241701
 30
0.0
 10
8.1395082192
 20
9.6454916222
 30
0.0
 10
8.1227594506
 20
9.6283883552
 30
0.0
 10
8.114556756
 20
9.6196797455
 30
0.0
  0
SPLINE
  5
41E
100
AcDbEntity
  8
0
100
AcDbSpline
 62
7
  6
CONTINUOUS
 70
0
 71
3
 72
8
 73
4
 74
0
 42
0.0000001
 43
0.0000001
 44
0.0000000001
 40
0.0
 40
0.0
 40
0.0
 40
0.0
 40
1.0
 40
1.0
 40
1.0
 40
1.0
 10
7.7857635973
 20
8.9470640241
 30
0.0
 10
7.7716922132
 20
8.8975037868
 30
0.0
 10
7.7583974462
 20
8.847724632
 30
0.0
 10
7.7452000483
 20
8.7979245351
 30
0.0
  0
SPLINE
  5
41F
100
AcDbEntity
  8
0
100
AcDbSpline
 62
7
  6
CONTINUOUS
 70
0
 71
3
 72
23
 73
19
 74
0
 42
0.0000001
 43
0.0000001
 44
0.0000000001
 40
0.0
 40
0.0
 40
0.0
 40
0.0
 40
0.0625657681
 40
0.1251226564
 40
0.1876671472
 40
0.2501993639
 40
0.3127194119
 40
0.3752283812
 40
0.4377282188
 40
0.5002185263
 40
0.5627016413
 40
0.6251788962
 40
0.6876503332
 40
0.7501171495
 40
0.8125832804
 40
0.8750508153
 40
0.9375220863
 40
1.0
 40
1.0
 40
1.0
 40
1.0
 10
6.8541605725
 20
9.1427292007
 30
0.0
 10
6.8617837265
 20
9.1683563688
 30
0.0
 10
6.8779026238
 20
9.2193514033
 30
0.0
 10
6.9045852931
 20
9.2949949816
 30
0.0
 10
6.9337805515
 20
9.3696916412
 30
0.0
 10
6.9655261271
 20
9.4433229834
 30
0.0
 10
6.9997050215
 20
9.5158394346
 30
0.0
 10
7.0363002283
 20
9.5871520483
 30
0.0
 10
7.0753090396
 20
9.6571598592
 30
0.0
 10
7.1167635594
 20
9.7257361863
 30
0.0
 10
7.1606700782
 20
9.7927580114
 30
0.0
 10
7.2069795901
 20
9.8581328326
 30
0.0
 10
7.2556700654
 20
9.9217468731
 30
0.0
 10
7.3067711935
 20
9.9834370489
 30
0.0
 10
7.3602826473
 20
10.0430475828
 30
0.0
 10
7.4161756599
 20
10.1004356396
 30
0.0
 10
7.4744139023
 20
10.1554492105
 30
0.0
 10
7.5147784992
 20
10.1904338316
 30
0.0
 10
7.5353281717
 20
10.2074799155
 30
0.0
  0
SPLINE
  5
420
100
AcDbEntity
  8
0
100
AcDbSpline
 62
7
  6
CONTINUOUS
 70
0
 71
3
 72
21
 73
17
 74
0
 42
0.0000001
 43
0.0000001
 44
0.0000000001
 40
0.0
 40
0.0
 40
0.0
 40
0.0
 40
0.0624634583
 40
0.1249365451
 40
0.187418322
 40
0.2499083492
 40
0.3124050215
 40
0.3749078975
 40
0.4998947071
 40
0.5624092606
 40
0.6249260693
 40
0.7499306444
 40
0.8124499723
 40
0.874968361
 40
0.9374850757
 40
1.0
 40
1.0
 40
1.0
 40
1.0
 10
7.5353281717
 20
10.2074799155
 30
0.0
 10
7.5595360299
 20
10.2275604875
 30
0.0
 10
7.6089869495
 20
10.2665000434
 30
0.0
 10
7.6860441382
 20
10.3210466998
 30
0.0
 10
7.7657464651
 20
10.3716764636
 30
0.0
 10
7.8478327145
 20
10.4183588677
 30
0.0
 10
7.9320471649
 20
10.4611085471
 30
0.0
 10
8.0468449468
 20
10.5128264676
 30
0.0
 10
8.1650957109
 20
10.5566039421
 30
0.0
 10
8.2859023034
 20
10.5921500283
 30
0.0
 10
8.4082166211
 20
10.6221363728
 30
0.0
 10
8.5324731644
 20
10.6437044337
 30
0.0
 10
8.6577484593
 20
10.6566113725
 30
0.0
 10
8.7520780683
 20
10.6618906506
 30
0.0
 10
8.8465462445
 20
10.6626795221
 30
0.0
 10
8.9094824109
 20
10.6601370903
 30
0.0
 10
8.9408941669
 20
10.6580920495
 30
0.0
  0
SPLINE
  5
421
100
AcDbEntity
  8
0
100
AcDbSpline
 62
7
  6
CONTINUOUS
 70
0
 71
3
 72
16
 73
12
 74
0
 42
0.0000001
 43
0.0000001
 44
0.0000000001
 40
0.0
 40
0.0
 40
0.0
 40
0.0
 40
0.1249946756
 40
0.2499872439
 40
0.3749801654
 40
0.4999728271
 40
0.6249668855
 40
0.749964366
 40
0.8749701375
 40
0.9374828159
 40
1.0
 40
1.0
 40
1.0
 40
1.0
 10
8.9408941669
 20
10.6580920495
 30
0.0
 10
8.9724735703
 20
10.6560360942
 30
0.0
 10
9.0355414613
 20
10.6503596464
 30
0.0
 10
9.1295929344
 20
10.6371481091
 30
0.0
 10
9.2228787593
 20
10.6193081898
 30
0.0
 10
9.3151677554
 20
10.596874208
 30
0.0
 10
9.4062288908
 20
10.5698798409
 30
0.0
 10
9.4958437338
 20
10.5384084082
 30
0.0
 10
9.5691158363
 20
10.5084484538
 30
0.0
 10
9.6267507903
 20
10.4822504772
 30
0.0
 10
9.6552274882
 20
10.468416241
 30
0.0
 10
9.6693797023
 20
10.4613278496
 30
0.0
  0
LINE
  5
422
100
AcDbEntity
  8
0
100
AcDbLine
 62
7
  6
CONTINUOUS
 10
8.9407627915
 20
10.658105792
 11
8.9439534583
 21
10.657897968
  0
SPLINE
  5
423
100
AcDbEntity
  8
0
100
AcDbSpline
 62
7
  6
CONTINUOUS
 70
0
 71
3
 72
11
 73
7
 74
0
 42
0.0000001
 43
0.0000001
 44
0.0000000001
 40
0.0
 40
0.0
 40
0.0
 40
0.0
 40
0.2477278683
 40
0.4978633509
 40
0.749360951
 40
1.0
 40
1.0
 40
1.0
 40
1.0
 10
9.0183337958
 20
10.6515400552
 30
0.0
 10
9.0424296036
 20
10.6490077029
 30
0.0
 10
9.0907642328
 20
10.6430010449
 30
0.0
 10
9.1631080413
 20
10.6311527782
 30
0.0
 10
9.2352173565
 20
10.616456255
 30
0.0
 10
9.2829457163
 20
10.6048277127
 30
0.0
 10
9.3066449318
 20
10.5985630667
 30
0.0
  0
SPLINE
  5
424
100
AcDbEntity
  8
0
100
AcDbSpline
 62
7
  6
CONTINUOUS
 70
0
 71
3
 72
12
 73
8
 74
0
 42
0.0000001
 43
0.0000001
 44
0.0000000001
 40
0.0
 40
0.0
 40
0.0
 40
0.0
 40
0.2688359242
 40
0.3997101646
 40
0.5274307483
 40
0.771621274
 40
1.0
 40
1.0
 40
1.0
 40
1.0
 10
9.3231080934
 20
10.5941312193
 30
0.0
 10
9.3552154739
 20
10.5853310342
 30
0.0
 10
9.4026134617
 20
10.5709591533
 30
0.0
 10
9.4643417881
 20
10.5495990485
 30
0.0
 10
9.5226547541
 20
10.5277576039
 30
0.0
 10
9.5912744017
 20
10.4990863745
 30
0.0
 10
9.6441721071
 20
10.4740032948
 30
0.0
 10
9.6694502107
 20
10.461320223
 30
0.0
  0
SPLINE
  5
425
100
AcDbEntity
  8
0
100
AcDbSpline
 62
7
  6
CONTINUOUS
 70
0
 71
3
 72
9
 73
5
 74
0
 42
0.0000001
 43
0.0000001
 44
0.0000000001
 40
0.0
 40
0.0
 40
0.0
 40
0.0
 40
0.5041202358
 40
1.0
 40
1.0
 40
1.0
 40
1.0
 10
9.9502953062
 20
10.298975812
 30
0.0
 10
9.9829189035
 20
10.2788447204
 30
0.0
 10
10.0476303846
 20
10.2389091619
 30
0.0
 10
10.1132299705
 20
10.2004127543
 30
0.0
 10
10.1461695542
 20
10.1820581123
 30
0.0
  0
SPLINE
  5
426
100
AcDbEntity
  8
0
100
AcDbSpline
 62
7
  6
CONTINUOUS
 70
0
 71
3
 72
16
 73
12
 74
0
 42
0.0000001
 43
0.0000001
 44
0.0000000001
 40
0.0
 40
0.0
 40
0.0
 40
0.0
 40
0.0624916243
 40
0.1249842226
 40
0.249979217
 40
0.3749842499
 40
0.4999941563
 40
0.6250031288
 40
0.7500063414
 40
0.8750111777
 40
1.0
 40
1.0
 40
1.0
 40
1.0
 10
9.6693797023
 20
10.4613278496
 30
0.0
 10
9.6797096018
 20
10.4561539334
 30
0.0
 10
9.7002787223
 20
10.4456234713
 30
0.0
 10
9.7410487234
 20
10.4238561077
 30
0.0
 10
9.7913750054
 20
10.3954695469
 30
0.0
 10
9.8510117121
 20
10.3601062192
 30
0.0
 10
9.9101638339
 20
10.3239368326
 30
0.0
 10
9.9691032523
 20
10.287424939
 30
0.0
 10
10.0281465816
 20
10.2510815067
 30
0.0
 10
10.0876256015
 20
10.2154593179
 30
0.0
 10
10.127715691
 20
10.1924535871
 30
0.0
 10
10.1478929366
 20
10.181191646
 30
0.0
  0
SPLINE
  5
427
100
AcDbEntity
  8
0
100
AcDbSpline
 62
7
  6
CONTINUOUS
 70
0
 71
3
 72
24
 73
20
 74
0
 42
0.0000001
 43
0.0000001
 44
0.0000000001
 40
0.0
 40
0.0
 40
0.0
 40
0.0
 40
0.0156435857
 40
0.0312855544
 40
0.046926807
 40
0.0625674356
 40
0.0938437954
 40
0.1251094916
 40
0.1563656513
 40
0.1876130599
 40
0.2188527366
 40
0.2500870677
 40
0.3125363015
 40
0.3749755144
 40
0.499843871
 40
0.6247543232
 40
0.7497447152
 40
0.8748324753
 40
1.0
 40
1.0
 40
1.0
 40
1.0
 10
10.1478929366
 20
10.181191646
 30
0.0
 10
10.1598146469
 20
10.1745375366
 30
0.0
 10
10.1837504806
 20
10.1613965975
 30
0.0
 10
10.2199686536
 20
10.1422720781
 30
0.0
 10
10.2564898569
 20
10.123738544
 30
0.0
 10
10.3055515786
 20
10.0997786882
 30
0.0
 10
10.367515572
 20
10.0711833307
 30
0.0
 10
10.4427307771
 20
10.0388479854
 30
0.0
 10
10.5187032552
 20
10.0084033048
 30
0.0
 10
10.5953461988
 20
9.9797562718
 30
0.0
 10
10.672578359
 20
9.9527982219
 30
0.0
 10
10.7762189773
 20
9.9189331912
 30
0.0
 10
10.9068702571
 20
9.8801530148
 30
0.0
 10
11.1175861171
 20
9.8242907301
 30
0.0
 10
11.3832583503
 20
9.7633134562
 30
0.0
 10
11.7049466477
 20
9.7036206392
 30
0.0
 10
12.0292263887
 20
9.6585518689
 30
0.0
 10
12.3555172543
 20
9.6290956741
 30
0.0
 10
12.5738520946
 20
9.6201050217
 30
0.0
 10
12.6830796625
 20
9.6184291475
 30
0.0
  0
SPLINE
  5
428
100
AcDbEntity
  8
0
100
AcDbSpline
 62
7
  6
CONTINUOUS
 70
0
 71
3
 72
11
 73
7
 74
0
 42
0.0000001
 43
0.0000001
 44
0.0000000001
 40
0.0
 40
0.0
 40
0.0
 40
0.0
 40
0.2533598118
 40
0.5047341582
 40
0.7534095479
 40
1.0
 40
1.0
 40
1.0
 40
1.0
 10
10.2311367711
 20
10.136756064
 30
0.0
 10
10.2565515832
 20
10.1237884068
 30
0.0
 10
10.3075873438
 20
10.0987416697
 30
0.0
 10
10.3848168008
 20
10.0635842741
 30
0.0
 10
10.4622733239
 20
10.0308435083
 30
0.0
 10
10.5141909307
 20
10.0104466316
 30
0.0
 10
10.5401550437
 20
10.0005968904
 30
0.0
  0
SPLINE
  5
429
100
AcDbEntity
  8
0
100
AcDbSpline
 62
7
  6
CONTINUOUS
 70
0
 71
3
 72
10
 73
6
 74
0
 42
0.0000001
 43
0.0000001
 44
0.0000000001
 40
0.0
 40
0.0
 40
0.0
 40
0.0
 40
0.2490348858
 40
0.622958266
 40
1.0
 40
1.0
 40
1.0
 40
1.0
 10
10.5563398385
 20
9.9945018322
 30
0.0
 10
10.5886880704
 20
9.9824085632
 30
0.0
 10
10.6700409932
 20
9.9533103235
 30
0.0
 10
10.8020550813
 20
9.9107532674
 30
0.0
 10
10.9021834879
 20
9.8820645193
 30
0.0
 10
10.9526342493
 20
9.86833271
 30
0.0
  0
SPLINE
  5
42A
100
AcDbEntity
  8
0
100
AcDbSpline
 62
7
  6
CONTINUOUS
 70
0
 71
3
 72
11
 73
7
 74
0
 42
0.0000001
 43
0.0000001
 44
0.0000000001
 40
0.0
 40
0.0
 40
0.0
 40
0.0
 40
0.2489896195
 40
0.4987643804
 40
0.7491301852
 40
1.0
 40
1.0
 40
1.0
 40
1.0
 10
11.0177191458
 20
9.8510046166
 30
0.0
 10
11.054084987
 20
9.8415312519
 30
0.0
 10
11.1270969846
 20
9.8231870002
 30
0.0
 10
11.2371468268
 20
9.7972353581
 30
0.0
 10
11.3478442744
 20
9.7728453019
 30
0.0
 10
11.4219609437
 20
9.7576721877
 30
0.0
 10
11.4591113272
 20
9.7503594071
 30
0.0
  0
LINE
  5
42B
100
AcDbEntity
  8
0
100
AcDbLine
 62
7
  6
CONTINUOUS
 10
12.0600882455
 20
9.6578802078
 11
12.0691791071
 21
9.6568849277
  0
SPLINE
  5
42C
100
AcDbEntity
  8
0
100
AcDbSpline
 62
7
  6
CONTINUOUS
 70
0
 71
3
 72
13
 73
9
 74
0
 42
0.0000001
 43
0.0000001
 44
0.0000000001
 40
0.0
 40
0.0
 40
0.0
 40
0.0
 40
0.2479547618
 40
0.4973671829
 40
0.6224329722
 40
0.7474575897
 40
0.8729483779
 40
1.0
 40
1.0
 40
1.0
 40
1.0
 10
12.0691791071
 20
9.6568849277
 30
0.0
 10
12.1197374809
 20
9.6513839089
 30
0.0
 10
12.2212781245
 20
9.641480967
 30
0.0
 10
12.3485997673
 20
9.6319790041
 30
0.0
 10
12.4508837331
 20
9.6261063992
 30
0.0
 10
12.5278381804
 20
9.6225751085
 30
0.0
 10
12.6052363688
 20
9.6199500827
 30
0.0
 10
12.6570235881
 20
9.6188326856
 30
0.0
 10
12.6830793888
 20
9.6184292458
 30
0.0
  0
SPLINE
  5
42D
100
AcDbEntity
  8
0
100
AcDbSpline
 62
7
  6
CONTINUOUS
 70
0
 71
3
 72
10
 73
6
 74
0
 42
0.0000001
 43
0.0000001
 44
0.0000000001
 40
0.0
 40
0.0
 40
0.0
 40
0.0
 40
0.5002014972
 40
0.7501531434
 40
1.0
 40
1.0
 40
1.0
 40
1.0
 10
8.0935448347
 20
9.5966058052
 30
0.0
 10
8.0762744352
 20
9.5769920969
 30
0.0
 10
8.0515834695
 20
9.546481411
 30
0.0
 10
8.0211839922
 20
9.5039805544
 30
0.0
 10
8.0068034192
 20
9.4821754317
 30
0.0
 10
7.9998094251
 20
9.4711536973
 30
0.0
  0
SPLINE
  5
42E
100
AcDbEntity
  8
0
100
AcDbSpline
 62
7
  6
CONTINUOUS
 70
0
 71
3
 72
9
 73
5
 74
0
 42
0.0000001
 43
0.0000001
 44
0.0000000001
 40
0.0
 40
0.0
 40
0.0
 40
0.0
 40
0.749927813
 40
1.0
 40
1.0
 40
1.0
 40
1.0
 10
7.9998094251
 20
9.4711536973
 30
0.0
 10
7.9883510895
 20
9.4530966716
 30
0.0
 10
7.9737629128
 20
9.4285710659
 30
0.0
 10
7.9600255568
 20
9.4035807536
 30
0.0
 10
7.9566411335
 20
9.3973036965
 30
0.0
  0
SPLINE
  5
42F
100
AcDbEntity
  8
0
100
AcDbSpline
 62
7
  6
CONTINUOUS
 70
0
 71
3
 72
9
 73
5
 74
0
 42
0.0000001
 43
0.0000001
 44
0.0000000001
 40
0.0
 40
0.0
 40
0.0
 40
0.0
 40
0.4999802946
 40
1.0
 40
1.0
 40
1.0
 40
1.0
 10
7.9566411335
 20
9.3973036965
 30
0.0
 10
7.9464641719
 20
9.3784285844
 30
0.0
 10
7.9270277761
 20
9.3401764882
 30
0.0
 10
7.9092398922
 20
9.3011362366
 30
0.0
 10
7.9007150288
 20
9.281457832
 30
0.0
  0
SPLINE
  5
430
100
AcDbEntity
  8
0
100
AcDbSpline
 62
7
  6
CONTINUOUS
 70
0
 71
3
 72
9
 73
5
 74
0
 42
0.0000001
 43
0.0000001
 44
0.0000000001
 40
0.0
 40
0.0
 40
0.0
 40
0.0
 40
0.2499409152
 40
1.0
 40
1.0
 40
1.0
 40
1.0
 10
7.8662663961
 20
9.196167097
 30
0.0
 10
7.8627229228
 20
9.1867732115
 30
0.0
 10
7.8488089496
 20
9.1490895777
 30
0.0
 10
7.8358638301
 20
9.1110516344
 30
0.0
 10
7.8265857467
 20
9.0823863116
 30
0.0
  0
SPLINE
  5
431
100
AcDbEntity
  8
0
100
AcDbSpline
 62
7
  6
CONTINUOUS
 70
0
 71
3
 72
32
 73
28
 74
0
 42
0.0000001
 43
0.0000001
 44
0.0000000001
 40
0.0
 40
0.0
 40
0.0
 40
0.0
 40
0.0623836986
 40
0.0935939558
 40
0.1248164608
 40
0.1560529896
 40
0.1873020123
 40
0.2185637699
 40
0.249833927
 40
0.2811077546
 40
0.3123856974
 40
0.3749307734
 40
0.4062032367
 40
0.4374751591
 40
0.4687471404
 40
0.5000170496
 40
0.5312853414
 40
0.5469191017
 40
0.5625528147
 40
0.5938198992
 40
0.625085982
 40
0.6876118141
 40
0.7501265974
 40
0.8126280043
 40
0.8751116035
 40
0.937571949
 40
1.0
 40
1.0
 40
1.0
 40
1.0
 10
9.0061294779
 20
9.9571621547
 30
0.0
 10
9.0435188037
 20
9.9556346884
 30
0.0
 10
9.099555599
 20
9.9508063937
 30
0.0
 10
9.173548299
 20
9.9392570285
 30
0.0
 10
9.2286232308
 20
9.928023769
 30
0.0
 10
9.2831377144
 20
9.9142389864
 30
0.0
 10
9.3369581212
 20
9.8978642085
 30
0.0
 10
9.3899239294
 20
9.878846937
 30
0.0
 10
9.4419299624
 20
9.8573081565
 30
0.0
 10
9.4928968074
 20
9.8333988365
 30
0.0
 10
9.5595260307
 20
9.7988489398
 30
0.0
 10
9.6243368269
 20
9.760933872
 30
0.0
 10
9.6877798303
 20
9.720868556
 30
0.0
 10
9.7348578387
 20
9.6900328963
 30
0.0
 10
9.7816101655
 20
9.6587123557
 30
0.0
 10
9.8282126591
 20
9.6271735257
 30
0.0
 10
9.8670413053
 20
9.6008846228
 30
0.0
 10
9.8981743752
 20
9.5799593584
 30
0.0
 10
9.9293780126
 20
9.5591407841
 30
0.0
 10
9.9685134421
 20
9.5333156526
 30
0.0
 10
10.0313999603
 20
9.4924164928
 30
0.0
 10
10.1104955353
 20
9.4420645599
 30
0.0
 10
10.2061913644
 20
9.3829170358
 30
0.0
 10
10.3026788204
 20
9.325118496
 30
0.0
 10
10.3999536093
 20
9.2687196937
 30
0.0
 10
10.4980068624
 20
9.2137755497
 30
0.0
 10
10.5639027934
 20
9.178134559
 30
0.0
 10
10.5969755734
 20
9.1605710206
 30
0.0
  0
SPLINE
  5
432
100
AcDbEntity
  8
0
100
AcDbSpline
 62
7
  6
CONTINUOUS
 70
0
 71
3
 72
10
 73
6
 74
0
 42
0.0000001
 43
0.0000001
 44
0.0000000001
 40
0.0
 40
0.0
 40
0.0
 40
0.0
 40
0.2498911189
 40
0.6248535909
 40
1.0
 40
1.0
 40
1.0
 40
1.0
 10
11.1926575867
 20
8.879175181
 30
0.0
 10
11.2176537822
 20
8.8688817908
 30
0.0
 10
11.2803366065
 20
8.8435774695
 30
0.0
 10
11.3813799782
 20
8.8049179972
 30
0.0
 10
11.457824076
 20
8.7776729128
 30
0.0
 10
11.4962166133
 20
8.7645218778
 30
0.0
  0
SPLINE
  5
433
100
AcDbEntity
  8
0
100
AcDbSpline
 62
7
  6
CONTINUOUS
 70
0
 71
3
 72
11
 73
7
 74
0
 42
0.0000001
 43
0.0000001
 44
0.0000000001
 40
0.0
 40
0.0
 40
0.0
 40
0.0
 40
0.2529215221
 40
0.5039148764
 40
0.7529384931
 40
1.0
 40
1.0
 40
1.0
 40
1.0
 10
7.9649110543
 20
8.8448960022
 30
0.0
 10
7.9705032889
 20
8.8656004955
 30
0.0
 10
7.9817725093
 20
8.906817663
 30
0.0
 10
7.9993676988
 20
8.968193085
 30
0.0
 10
8.0179107569
 20
9.0287709041
 30
0.0
 10
8.0311701279
 20
9.0686983701
 30
0.0
 10
8.0380698218
 20
9.0884790896
 30
0.0
  0
SPLINE
  5
434
100
AcDbEntity
  8
0
100
AcDbSpline
 62
7
  6
CONTINUOUS
 70
0
 71
3
 72
15
 73
11
 74
0
 42
0.0000001
 43
0.0000001
 44
0.0000000001
 40
0.0
 40
0.0
 40
0.0
 40
0.0
 40
0.2559936632
 40
0.3824630506
 40
0.5078578692
 40
0.6321926472
 40
0.755564184
 40
0.8780794577
 40
0.9390939331
 40
1.0
 40
1.0
 40
1.0
 40
1.0
 10
8.0380698218
 20
9.0884790896
 30
0.0
 10
8.0508828379
 20
9.1252127007
 30
0.0
 10
8.0715664903
 20
9.1795975975
 30
0.0
 10
8.1033205234
 20
9.2499664486
 30
0.0
 10
8.1292533529
 20
9.3009460598
 30
0.0
 10
8.1576455831
 20
9.3500625646
 30
0.0
 10
8.1887176747
 20
9.3970120795
 30
0.0
 10
8.2170277014
 20
9.4341318296
 30
0.0
 10
8.2411544032
 20
9.4623875512
 30
0.0
 10
8.253724151
 20
9.4760082427
 30
0.0
 10
8.2601321092
 20
9.4826875451
 30
0.0
  0
SPLINE
  5
435
100
AcDbEntity
  8
0
100
AcDbSpline
 62
7
  6
CONTINUOUS
 70
0
 71
3
 72
18
 73
14
 74
0
 42
0.0000001
 43
0.0000001
 44
0.0000000001
 40
0.0
 40
0.0
 40
0.0
 40
0.0
 40
0.0610776185
 40
0.1224460351
 40
0.1841840004
 40
0.246227975
 40
0.3708414381
 40
0.496223005
 40
0.559182454
 40
0.6222339006
 40
0.7483746951
 40
0.8743541356
 40
1.0
 40
1.0
 40
1.0
 40
1.0
 10
8.2601321092
 20
9.4826875451
 30
0.0
 10
8.2707369424
 20
9.4937414386
 30
0.0
 10
8.2927100601
 20
9.5152292633
 30
0.0
 10
8.3276716351
 20
9.5454602406
 30
0.0
 10
8.3645293158
 20
9.5737490586
 30
0.0
 10
8.4160127797
 20
9.6088747272
 30
0.0
 10
8.4841246391
 20
9.6477204192
 30
0.0
 10
8.5559349809
 20
9.6797101359
 30
0.0
 10
8.6151798961
 20
9.7013340415
 30
0.0
 10
8.6755159809
 20
9.7203369179
 30
0.0
 10
8.7524179533
 20
9.7390926418
 30
0.0
 10
8.8461772104
 20
9.7534702576
 30
0.0
 10
8.9092561352
 20
9.7575125627
 30
0.0
 10
8.9407628213
 20
9.7580966906
 30
0.0
  0
SPLINE
  5
436
100
AcDbEntity
  8
0
100
AcDbSpline
 62
7
  6
CONTINUOUS
 70
0
 71
3
 72
13
 73
9
 74
0
 42
0.0000001
 43
0.0000001
 44
0.0000000001
 40
0.0
 40
0.0
 40
0.0
 40
0.0
 40
0.2490489229
 40
0.4983730285
 40
0.6234953502
 40
0.748858848
 40
0.8743697616
 40
1.0
 40
1.0
 40
1.0
 40
1.0
 10
8.9407628213
 20
9.7580966906
 30
0.0
 10
8.9721990589
 20
9.7586795124
 30
0.0
 10
9.0351967509
 20
9.7569886726
 30
0.0
 10
9.1134625878
 20
9.7475124965
 30
0.0
 10
9.1754226403
 20
9.7354676528
 30
0.0
 10
9.221550685
 20
9.7241866046
 30
0.0
 10
9.2671416489
 20
9.7106769111
 30
0.0
 10
9.2970748488
 20
9.700179842
 30
0.0
 10
9.3119141912
 20
9.6945810151
 30
0.0
  0
SPLINE
  5
437
100
AcDbEntity
  8
0
100
AcDbSpline
 62
7
  6
CONTINUOUS
 70
0
 71
3
 72
16
 73
12
 74
0
 42
0.0000001
 43
0.0000001
 44
0.0000000001
 40
0.0
 40
0.0
 40
0.0
 40
0.0
 40
0.1206187664
 40
0.2424742249
 40
0.3654702783
 40
0.4897192367
 40
0.6152802947
 40
0.7422049247
 40
0.8061886356
 40
0.8705160311
 40
1.0
 40
1.0
 40
1.0
 40
1.0
 10
9.3119141912
 20
9.6945810151
 30
0.0
 10
9.3328136594
 20
9.6866957261
 30
0.0
 10
9.374311958
 20
9.6694511923
 30
0.0
 10
9.43523508
 20
9.6399010666
 30
0.0
 10
9.4952361181
 20
9.6071106555
 30
0.0
 10
9.5544921799
 20
9.5716542819
 30
0.0
 10
9.61326528
 20
9.5340473907
 30
0.0
 10
9.6620084376
 20
9.5015031026
 30
0.0
 10
9.7011462405
 20
9.4749995924
 30
0.0
 10
9.7406309883
 20
9.4481631258
 30
0.0
 10
9.7703166695
 20
9.4279885934
 30
0.0
 10
9.790184443
 20
9.4145618238
 30
0.0
  0
SPLINE
  5
438
100
AcDbEntity
  8
0
100
AcDbSpline
 62
7
  6
CONTINUOUS
 70
0
 71
3
 72
19
 73
15
 74
0
 42
0.0000001
 43
0.0000001
 44
0.0000000001
 40
0.0
 40
0.0
 40
0.0
 40
0.0
 40
0.0624595379
 40
0.1249913848
 40
0.1875310467
 40
0.2500632517
 40
0.3125881679
 40
0.3751152282
 40
0.5001814903
 40
0.6252414734
 40
0.7502624378
 40
0.8751981752
 40
0.9376181377
 40
1.0
 40
1.0
 40
1.0
 40
1.0
 10
9.790184443
 20
9.4145618238
 30
0.0
 10
9.8113834659
 20
9.4002353873
 30
0.0
 10
9.8538863033
 20
9.371683536
 30
0.0
 10
9.9181498557
 20
9.3295899621
 30
0.0
 10
9.9828925449
 20
9.2881826955
 30
0.0
 10
10.0480404097
 20
9.2474214737
 30
0.0
 10
10.1135799812
 20
9.2073027909
 30
0.0
 10
10.2014963762
 20
9.1546832321
 30
0.0
 10
10.3123754336
 20
9.090561077
 30
0.0
 10
10.4469352355
 20
9.0163106283
 30
0.0
 10
10.5829210654
 20
8.9448205574
 30
0.0
 10
10.6973395714
 20
8.8875054431
 30
0.0
 10
10.7894514632
 20
8.8429911275
 30
0.0
 10
10.8356925127
 20
8.8211843295
 30
0.0
 10
10.8588598038
 20
8.8104003257
 30
0.0
  0
SPLINE
  5
439
100
AcDbEntity
  8
0
100
AcDbSpline
 62
7
  6
CONTINUOUS
 70
0
 71
3
 72
17
 73
13
 74
0
 42
0.0000001
 43
0.0000001
 44
0.0000000001
 40
0.0
 40
0.0
 40
0.0
 40
0.0
 40
0.1247725204
 40
0.1871059506
 40
0.2494145173
 40
0.374000319
 40
0.4986507904
 40
0.5610399773
 40
0.6234938721
 40
0.7486219199
 40
0.8741366235
 40
1.0
 40
1.0
 40
1.0
 40
1.0
 10
10.8588598038
 20
8.8104003257
 30
0.0
 10
10.9205797823
 20
8.7816706619
 30
0.0
 10
11.01371542
 20
8.7398177393
 30
0.0
 10
11.1390548247
 20
8.6868006334
 30
0.0
 10
11.2651266074
 20
8.6358185404
 30
0.0
 10
11.4243511865
 20
8.576181516
 30
0.0
 10
11.5858807123
 20
8.5229132775
 30
0.0
 10
11.7165329691
 20
8.4846452301
 30
0.0
 10
11.8483030999
 20
8.4494065438
 30
0.0
 10
12.0149722707
 20
8.4115140442
 30
0.0
 10
12.2176632886
 20
8.3773901342
 30
0.0
 10
12.3541961004
 20
8.363118566
 30
0.0
 10
12.4227028535
 20
8.3583259304
 30
0.0
  0
LINE
  5
43A
100
AcDbEntity
  8
0
100
AcDbLine
 62
7
  6
CONTINUOUS
 10
8.9407497897
 20
10.4581036796
 11
8.9371753676
 21
10.4583597828
  0
LINE
  5
43B
100
AcDbEntity
  8
0
100
AcDbLine
 62
7
  6
CONTINUOUS
 10
8.9371753676
 20
10.4583597828
 11
8.9325763924
 21
10.4586782631
  0
LINE
  5
43C
100
AcDbEntity
  8
0
100
AcDbLine
 62
7
  6
CONTINUOUS
 10
9.5847289091
 20
10.2800436924
 11
9.5808648368
 21
10.2819751321
  0
LINE
  5
43D
100
AcDbEntity
  8
0
100
AcDbLine
 62
7
  6
CONTINUOUS
 10
9.5849189172
 20
10.2800432253
 11
9.5809001005
 21
10.2820469089
  0
SPLINE
  5
43E
100
AcDbEntity
  8
0
100
AcDbSpline
 62
7
  6
CONTINUOUS
 70
0
 71
3
 72
9
 73
5
 74
0
 42
0.0000001
 43
0.0000001
 44
0.0000000001
 40
0.0
 40
0.0
 40
0.0
 40
0.0
 40
0.5006207172
 40
1.0
 40
1.0
 40
1.0
 40
1.0
 10
10.7186377689
 20
9.7275981772
 30
0.0
 10
10.7732375531
 20
9.7107225646
 30
0.0
 10
10.8829066846
 20
9.678950568
 30
0.0
 10
10.9934463507
 20
9.6503987783
 30
0.0
 10
11.048795417
 20
9.6367523111
 30
0.0
  0
LINE
  5
43F
100
AcDbEntity
  8
0
100
AcDbLine
 62
7
  6
CONTINUOUS
 10
9.6214094078
 20
10.2611849767
 11
9.6189310928
 21
10.2624884548
  0
LINE
  5
440
100
AcDbEntity
  8
0
100
AcDbLine
 62
7
  6
CONTINUOUS
 10
9.6189310928
 20
10.2624884548
 11
9.6155496333
 21
10.2642602106
  0
SPLINE
  5
441
100
AcDbEntity
  8
0
100
AcDbSpline
 62
7
  6
CONTINUOUS
 70
0
 71
3
 72
13
 73
9
 74
0
 42
0.0000001
 43
0.0000001
 44
0.0000000001
 40
0.0
 40
0.0
 40
0.0
 40
0.0
 40
0.1250091704
 40
0.2500231397
 40
0.3750447833
 40
0.5000673063
 40
0.7500435625
 40
1.0
 40
1.0
 40
1.0
 40
1.0
 10
8.9371667305
 20
10.4583645525
 30
0.0
 10
8.9100123134
 20
10.4602929512
 30
0.0
 10
8.8556018932
 20
10.4628606032
 30
0.0
 10
8.7739017866
 20
10.4628498024
 30
0.0
 10
8.6922840828
 20
10.4590928495
 30
0.0
 10
8.5838121847
 20
10.4492426255
 30
0.0
 10
8.4492115524
 20
10.4279324794
 30
0.0
 10
8.3434222175
 20
10.4015587752
 30
0.0
 10
8.2912313635
 20
10.3861000753
 30
0.0
  0
SPLINE
  5
442
100
AcDbEntity
  8
0
100
AcDbSpline
 62
7
  6
CONTINUOUS
 70
0
 71
3
 72
9
 73
5
 74
0
 42
0.0000001
 43
0.0000001
 44
0.0000000001
 40
0.0
 40
0.0
 40
0.0
 40
0.0
 40
0.2499631659
 40
1.0
 40
1.0
 40
1.0
 40
1.0
 10
9.954258611
 20
10.0634666244
 30
0.0
 10
9.9456090004
 20
10.0686876978
 30
0.0
 10
9.9110630334
 20
10.089670562
 30
0.0
 10
9.8766837702
 20
10.1109257776
 30
0.0
 10
9.8508788457
 20
10.1268363165
 30
0.0
  0
SPLINE
  5
443
100
AcDbEntity
  8
0
100
AcDbSpline
 62
7
  6
CONTINUOUS
 70
0
 71
3
 72
9
 73
5
 74
0
 42
0.0000001
 43
0.0000001
 44
0.0000000001
 40
0.0
 40
0.0
 40
0.0
 40
0.0
 40
0.5000736481
 40
1.0
 40
1.0
 40
1.0
 40
1.0
 10
10.0605722498
 20
10.001494042
 30
0.0
 10
10.042660225
 20
10.0114919874
 30
0.0
 10
10.0070522025
 20
10.0318643828
 30
0.0
 10
9.9718154271
 20
10.052868988
 30
0.0
 10
9.954258611
 20
10.0634666244
 30
0.0
  0
SPLINE
  5
444
100
AcDbEntity
  8
0
100
AcDbSpline
 62
9
  6
CONTINUOUS
 70
0
 71
3
 72
11
 73
7
 74
0
 42
0.0000001
 43
0.0000001
 44
0.0000000001
 40
0.0
 40
0.0
 40
0.0
 40
0.0
 40
0.2492589458
 40
0.4988619255
 40
0.7491233131
 40
1.0
 40
1.0
 40
1.0
 40
1.0
 10
11.4962166133
 20
8.7645218778
 30
0.0
 10
11.5905981532
 20
8.7321807493
 30
0.0
 10
11.7815001833
 20
8.673097379
 30
0.0
 10
12.073760855
 20
8.6047976206
 30
0.0
 10
12.3713840016
 20
8.5607674495
 30
0.0
 10
12.5721027729
 20
8.5502956634
 30
0.0
 10
12.6725191094
 20
8.5503790849
 30
0.0
  0
SPLINE
  5
445
100
AcDbEntity
  8
0
100
AcDbSpline
 62
9
  6
CONTINUOUS
 70
0
 71
3
 72
21
 73
17
 74
0
 42
0.0000001
 43
0.0000001
 44
0.0000000001
 40
0.0
 40
0.0
 40
0.0
 40
0.0
 40
0.0081491017
 40
0.0182933428
 40
0.0446199896
 40
0.0788185886
 40
0.1205545087
 40
0.1693821975
 40
0.2248135998
 40
0.3534163354
 40
0.4252792769
 40
0.5012362809
 40
0.5805664854
 40
0.662511225
 40
0.8311194504
 40
1.0
 40
1.0
 40
1.0
 40
1.0
 10
12.6725201011
 20
8.5501576619
 30
0.0
 10
12.6724651459
 20
8.5499102187
 30
0.0
 10
12.6723920447
 20
8.5493440303
 30
0.0
 10
12.6723337245
 20
8.5479569899
 30
0.0
 10
12.6724007086
 20
8.5457580905
 30
0.0
 10
12.672548973
 20
8.542581483
 30
0.0
 10
12.672683869
 20
8.5387027876
 30
0.0
 10
12.672776041
 20
8.534162602
 30
0.0
 10
12.6728246095
 20
8.5269193746
 30
0.0
 10
12.6726794656
 20
8.5189605658
 30
0.0
 10
12.67253906
 20
8.5103638627
 30
0.0
 10
12.6724912961
 20
8.5032984557
 30
0.0
 10
12.6725394583
 20
8.4959195142
 30
0.0
 10
12.6726950157
 20
8.4856598249
 30
0.0
 10
12.6730045257
 20
8.472617156
 30
0.0
 10
12.6732854664
 20
8.4621235815
 30
0.0
 10
12.6734186171
 20
8.4568723539
 30
0.0
  0
SPLINE
  5
446
100
AcDbEntity
  8
0
100
AcDbSpline
 62
9
  6
CONTINUOUS
 70
0
 71
3
 72
13
 73
9
 74
0
 42
0.0000001
 43
0.0000001
 44
0.0000000001
 40
0.0
 40
0.0
 40
0.0
 40
0.0
 40
0.2500283324
 40
0.3750387465
 40
0.5000440451
 40
0.6250448362
 40
0.750039021
 40
1.0
 40
1.0
 40
1.0
 40
1.0
 10
12.6734186082
 20
8.4568687303
 30
0.0
 10
12.6616384979
 20
8.4569305803
 30
0.0
 10
12.6439686775
 20
8.4571187759
 30
0.0
 10
12.6204136891
 20
8.4576096441
 30
0.0
 10
12.6027510116
 20
8.4580927364
 30
0.0
 10
12.5850914452
 20
8.4586528534
 30
0.0
 10
12.5615492156
 20
8.4594522428
 30
0.0
 10
12.5438951309
 20
8.4601128035
 30
0.0
 10
12.5321280223
 20
8.4605978
 30
0.0
  0
SPLINE
  5
447
100
AcDbEntity
  8
0
100
AcDbSpline
 62
9
  6
CONTINUOUS
 70
0
 71
3
 72
25
 73
21
 74
0
 42
0.0000001
 43
0.0000001
 44
0.0000000001
 40
0.0
 40
0.0
 40
0.0
 40
0.0
 40
0.0023799137
 40
0.0040976924
 40
0.0062747418
 40
0.0121549741
 40
0.0202205502
 40
0.0305851766
 40
0.0433381596
 40
0.0585587182
 40
0.0763211951
 40
0.1195417514
 40
0.1724849062
 40
0.2344052766
 40
0.304551662
 40
0.3820222619
 40
0.4653211116
 40
0.6428176802
 40
0.824454808
 40
1.0
 40
1.0
 40
1.0
 40
1.0
 10
12.4226951242
 20
8.3583260372
 30
0.0
 10
12.4225985186
 20
8.3583324662
 30
0.0
 10
12.4224481469
 20
8.3584459508
 30
0.0
 10
12.4223109482
 20
8.3586574137
 30
0.0
 10
12.4221394692
 20
8.3590191241
 30
0.0
 10
12.4219539121
 20
8.359649888
 30
0.0
 10
12.4217579219
 20
8.3606199092
 30
0.0
 10
12.4215804304
 20
8.3618765636
 30
0.0
 10
12.421421489
 20
8.3634283407
 30
0.0
 10
12.4212841123
 20
8.3652840865
 30
0.0
 10
12.4211215453
 20
8.3683800974
 30
0.0
 10
12.4209984558
 20
8.3730138406
 30
0.0
 10
12.4209557508
 20
8.3794450638
 30
0.0
 10
12.4210176988
 20
8.3869715991
 30
0.0
 10
12.4211874275
 20
8.3954944282
 30
0.0
 10
12.4214668178
 20
8.4048844838
 30
0.0
 10
12.4219828493
 20
8.4186361921
 30
0.0
 10
12.4228347113
 20
8.4366154837
 30
0.0
 10
12.4240965821
 20
8.4583308869
 30
0.0
 10
12.4250686962
 20
8.4728293845
 30
0.0
 10
12.4255773299
 20
8.4799527526
 30
0.0
  0
SPLINE
  5
448
100
AcDbEntity
  8
0
100
AcDbSpline
 62
9
  6
CONTINUOUS
 70
0
 71
3
 72
25
 73
21
 74
0
 42
0.0000001
 43
0.0000001
 44
0.0000000001
 40
0.0
 40
0.0
 40
0.0
 40
0.0
 40
0.0053415061
 40
0.0114950521
 40
0.0189977496
 40
0.0282132803
 40
0.0393911072
 40
0.0527164489
 40
0.0683388484
 40
0.0863873413
 40
0.1299797056
 40
0.1831631293
 40
0.245280825
 40
0.315642971
 40
0.3933605688
 40
0.4767908496
 40
0.5640919494
 40
0.6534144267
 40
0.8314798881
 40
1.0
 40
1.0
 40
1.0
 40
1.0
 10
12.4644328803
 20
8.3430227135
 30
0.0
 10
12.4642349557
 20
8.3431673877
 30
0.0
 10
12.4638705245
 20
8.3435682138
 30
0.0
 10
12.4635298503
 20
8.3443832981
 30
0.0
 10
12.4633643623
 20
8.3454267005
 30
0.0
 10
12.4633745137
 20
8.3467109638
 30
0.0
 10
12.4635670522
 20
8.3482490596
 30
0.0
 10
12.4639517919
 20
8.3500517961
 30
0.0
 10
12.4645386289
 20
8.3521286806
 30
0.0
 10
12.4656779055
 20
8.355488187
 30
0.0
 10
12.4676858449
 20
8.3603657213
 30
0.0
 10
12.4707992244
 20
8.3669624325
 30
0.0
 10
12.4747291663
 20
8.3745256893
 30
0.0
 10
12.4794384304
 20
8.3829472186
 30
0.0
 10
12.4848665105
 20
8.3920830939
 30
0.0
 10
12.4908924956
 20
8.4017648323
 30
0.0
 10
12.4973773165
 20
8.4117860901
 30
0.0
 10
12.5064390574
 20
8.4253110256
 30
0.0
 10
12.5179537799
 20
8.4416759152
 30
0.0
 10
12.52743467
 20
8.4544516044
 30
0.0
 10
12.5321246235
 20
8.4606021873
 30
0.0
  0
SPLINE
  5
449
100
AcDbEntity
  8
0
100
AcDbSpline
 62
9
  6
CONTINUOUS
 70
0
 71
3
 72
15
 73
11
 74
0
 42
0.0000001
 43
0.0000001
 44
0.0000000001
 40
0.0
 40
0.0
 40
0.0
 40
0.0
 40
0.1241617424
 40
0.2487325413
 40
0.373581685
 40
0.4985225495
 40
0.623542554
 40
0.7487942162
 40
0.8743657786
 40
1.0
 40
1.0
 40
1.0
 40
1.0
 10
12.6088556158
 20
8.3514162953
 30
0.0
 10
12.6074009308
 20
8.3568558128
 30
0.0
 10
12.6039506463
 20
8.3676161314
 30
0.0
 10
12.5973301533
 20
8.383232183
 30
0.0
 10
12.5894208833
 20
8.3982758677
 30
0.0
 10
12.5802933108
 20
8.4126381097
 30
0.0
 10
12.569929957
 20
8.4261644717
 30
0.0
 10
12.5583205851
 20
8.438676262
 30
0.0
 10
12.5456808764
 20
8.4501769982
 30
0.0
 10
12.5367152622
 20
8.4572212484
 30
0.0
 10
12.5321278125
 20
8.4606000369
 30
0.0
  0
SPLINE
  5
44A
100
AcDbEntity
  8
0
100
AcDbSpline
 62
9
  6
CONTINUOUS
 70
0
 71
3
 72
13
 73
9
 74
0
 42
0.0000001
 43
0.0000001
 44
0.0000000001
 40
0.0
 40
0.0
 40
0.0
 40
0.0
 40
0.2502870047
 40
0.3753581838
 40
0.5003800185
 40
0.6253529643
 40
0.7502806208
 40
1.0
 40
1.0
 40
1.0
 40
1.0
 10
12.6734186614
 20
8.4568716502
 30
0.0
 10
12.67149927
 20
8.4480562905
 30
0.0
 10
12.6685806412
 20
8.4348445374
 30
0.0
 10
12.6646588228
 20
8.4172392726
 30
0.0
 10
12.6616995069
 20
8.4040474107
 30
0.0
 10
12.6586863301
 20
8.3908729862
 30
0.0
 10
12.6545511828
 20
8.3733446107
 30
0.0
 10
12.6513185486
 20
8.3602322054
 30
0.0
 10
12.6491225767
 20
8.35150274
 30
0.0
  0
SPLINE
  5
44B
100
AcDbEntity
  8
0
100
AcDbSpline
 62
9
  6
CONTINUOUS
 70
0
 71
3
 72
11
 73
7
 74
0
 42
0.0000001
 43
0.0000001
 44
0.0000000001
 40
0.0
 40
0.0
 40
0.0
 40
0.0
 40
0.2029402586
 40
0.4273953406
 40
0.6890739713
 40
1.0
 40
1.0
 40
1.0
 40
1.0
 10
12.725896227
 20
8.3482734078
 30
0.0
 10
12.7258273817
 20
8.3479583964
 30
0.0
 10
12.7255714139
 20
8.3473153986
 30
0.0
 10
12.7248769509
 20
8.3464528914
 30
0.0
 10
12.7238678333
 20
8.3456735062
 30
0.0
 10
12.723057589
 20
8.3452509416
 30
0.0
 10
12.7226066026
 20
8.3450492746
 30
0.0
  0
SPLINE
  5
44C
100
AcDbEntity
  8
0
100
AcDbSpline
 62
9
  6
CONTINUOUS
 70
0
 71
3
 72
17
 73
13
 74
0
 42
0.0000001
 43
0.0000001
 44
0.0000000001
 40
0.0
 40
0.0
 40
0.0
 40
0.0
 40
0.0282314062
 40
0.0623116225
 40
0.10248572
 40
0.148627056
 40
0.2579472267
 40
0.3879513181
 40
0.5334091867
 40
0.6878957132
 40
0.84531444
 40
1.0
 40
1.0
 40
1.0
 40
1.0
 10
12.7226066026
 20
8.3450492746
 30
0.0
 10
12.7219671148
 20
8.3447633157
 30
0.0
 10
12.7205016553
 20
8.3442525611
 30
0.0
 10
12.7180180123
 20
8.3436916176
 30
0.0
 10
12.7150572823
 20
8.3432738083
 30
0.0
 10
12.7102155922
 20
8.3428939965
 30
0.0
 10
12.703122611
 20
8.3428799128
 30
0.0
 10
12.6935918155
 20
8.3435180475
 30
0.0
 10
12.682991623
 20
8.34475397
 30
0.0
 10
12.6717791199
 20
8.3465238982
 30
0.0
 10
12.6604119384
 20
8.3487315656
 30
0.0
 10
12.652856049
 20
8.3504352534
 30
0.0
 10
12.6491246177
 20
8.3513344514
 30
0.0
  0
SPLINE
  5
44D
100
AcDbEntity
  8
0
100
AcDbSpline
 62
9
  6
CONTINUOUS
 70
0
 71
3
 72
11
 73
7
 74
0
 42
0.0000001
 43
0.0000001
 44
0.0000000001
 40
0.0
 40
0.0
 40
0.0
 40
0.0
 40
0.2501410951
 40
0.5003607264
 40
0.7504099597
 40
1.0
 40
1.0
 40
1.0
 40
1.0
 10
12.6725201011
 20
8.5501576619
 30
0.0
 10
12.6767886361
 20
8.5502205672
 30
0.0
 10
12.6853527207
 20
8.5496328067
 30
0.0
 10
12.6978752444
 20
8.5467071861
 30
0.0
 10
12.7097593026
 20
8.5418177352
 30
0.0
 10
12.7170671504
 20
8.5373439049
 30
0.0
 10
12.7205152695
 20
8.534842982
 30
0.0
  0
SPLINE
  5
44E
100
AcDbEntity
  8
0
100
AcDbSpline
 62
9
  6
CONTINUOUS
 70
0
 71
3
 72
12
 73
8
 74
0
 42
0.0000001
 43
0.0000001
 44
0.0000000001
 40
0.0
 40
0.0
 40
0.0
 40
0.0
 40
0.2510490843
 40
0.5015871042
 40
0.6265425294
 40
0.7515764598
 40
1.0
 40
1.0
 40
1.0
 40
1.0
 10
12.7205152695
 20
8.534842982
 30
0.0
 10
12.7253546736
 20
8.5313658002
 30
0.0
 10
12.7342245084
 20
8.5232438498
 30
0.0
 10
12.7427738992
 20
8.5109193638
 30
0.0
 10
12.7478016647
 20
8.5001270844
 30
0.0
 10
12.7515381585
 20
8.4888831233
 30
0.0
 10
12.7528946109
 20
8.4800206639
 30
0.0
 10
12.7531055797
 20
8.4741276816
 30
0.0
  0
SPLINE
  5
44F
100
AcDbEntity
  8
0
100
AcDbSpline
 62
9
  6
CONTINUOUS
 70
0
 71
3
 72
23
 73
19
 74
0
 42
0.0000001
 43
0.0000001
 44
0.0000000001
 40
0.0
 40
0.0
 40
0.0
 40
0.0
 40
0.0092946764
 40
0.0191369365
 40
0.029940761
 40
0.0420123515
 40
0.0707018521
 40
0.1062621428
 40
0.1490852055
 40
0.1992080809
 40
0.2564775924
 40
0.3204725104
 40
0.3906005918
 40
0.4662747046
 40
0.5469000064
 40
0.6318415702
 40
0.8119542702
 40
1.0
 40
1.0
 40
1.0
 40
1.0
 10
12.7511468555
 20
8.4534466239
 30
0.0
 10
12.7510914552
 20
8.4532043011
 30
0.0
 10
12.7509127461
 20
8.4527182149
 30
0.0
 10
12.7504648838
 20
8.4520472313
 30
0.0
 10
12.7498416635
 20
8.4514262849
 30
0.0
 10
12.7487171254
 20
8.4506200971
 30
0.0
 10
12.7468399562
 20
8.4497752016
 30
0.0
 10
12.7440668485
 20
8.4490369544
 30
0.0
 10
12.7406661179
 20
8.4485089169
 30
0.0
 10
12.7366603349
 20
8.4481781388
 30
0.0
 10
12.7320776567
 20
8.4480300742
 30
0.0
 10
12.7269579802
 20
8.4480751711
 30
0.0
 10
12.721352187
 20
8.4483423391
 30
0.0
 10
12.7153173343
 20
8.448858916
 30
0.0
 10
12.7089115242
 20
8.4496368225
 30
0.0
 10
12.6997707
 20
8.4510273056
 30
0.0
 10
12.6878724165
 20
8.4533503338
 30
0.0
 10
12.6782924269
 20
8.455632432
 30
0.0
 10
12.6734186171
 20
8.4568723539
 30
0.0
  0
SPLINE
  5
450
100
AcDbEntity
  8
0
100
AcDbSpline
 62
9
  6
CONTINUOUS
 70
0
 71
3
 72
14
 73
10
 74
0
 42
0.0000001
 43
0.0000001
 44
0.0000000001
 40
0.0
 40
0.0
 40
0.0
 40
0.0
 40
0.2500301452
 40
0.3751976783
 40
0.5002829155
 40
0.6252978671
 40
0.7503212781
 40
0.8752875459
 40
1.0
 40
1.0
 40
1.0
 40
1.0
 10
12.6720110932
 20
8.685308597
 30
0.0
 10
12.6826583645
 20
8.6852707798
 30
0.0
 10
12.6986639073
 20
8.6839979754
 30
0.0
 10
12.7195967791
 20
8.6799702579
 30
0.0
 10
12.7350359173
 20
8.6757816137
 30
0.0
 10
12.7500967289
 20
8.6704073551
 30
0.0
 10
12.7646675116
 20
8.6638279191
 30
0.0
 10
12.7786449944
 20
8.656097581
 30
0.0
 10
12.7875191105
 20
8.6502167666
 30
0.0
 10
12.7918243866
 20
8.6471072638
 30
0.0
  0
SPLINE
  5
451
100
AcDbEntity
  8
0
100
AcDbSpline
 62
9
  6
CONTINUOUS
 70
0
 71
3
 72
14
 73
10
 74
0
 42
0.0000001
 43
0.0000001
 44
0.0000000001
 40
0.0
 40
0.0
 40
0.0
 40
0.0
 40
0.0396865313
 40
0.1113587927
 40
0.2161813131
 40
0.3497681714
 40
0.5054011367
 40
0.6725836054
 40
1.0
 40
1.0
 40
1.0
 40
1.0
 10
12.6725086853
 20
8.5503800172
 30
0.0
 10
12.6724703095
 20
8.5521645736
 30
0.0
 10
12.6724166566
 20
8.5571729775
 30
0.0
 10
12.6723382639
 20
8.5668957029
 30
0.0
 10
12.6722636382
 20
8.5808420037
 30
0.0
 10
12.6721891034
 20
8.5985645538
 30
0.0
 10
12.6721247842
 20
8.6190919291
 30
0.0
 10
12.6720545257
 20
8.6483371222
 30
0.0
 10
12.6720230521
 20
8.6705825307
 30
0.0
 10
12.6720110411
 20
8.685308633
 30
0.0
  0
SPLINE
  5
452
100
AcDbEntity
  8
0
100
AcDbSpline
 62
9
  6
CONTINUOUS
 70
0
 71
3
 72
84
 73
80
 74
0
 42
0.0000001
 43
0.0000001
 44
0.0000000001
 40
0.0
 40
0.0
 40
0.0
 40
0.0
 40
0.0078217489
 40
0.0156451631
 40
0.0234686241
 40
0.0312905052
 40
0.0391103921
 40
0.0469286106
 40
0.0547457282
 40
0.0625616942
 40
0.0703758592
 40
0.078187971
 40
0.0859984078
 40
0.0938076401
 40
0.1094211029
 40
0.1250308972
 40
0.1328353875
 40
0.1406395792
 40
0.156245617
 40
0.1718524138
 40
0.1874622249
 40
0.1952696339
 40
0.2030783563
 40
0.2108881035
 40
0.2186986005
 40
0.2343200127
 40
0.2499441128
 40
0.265570337
 40
0.2811982686
 40
0.2890134752
 40
0.2968288245
 40
0.3124583557
 40
0.3280879717
 40
0.3437174133
 40
0.3593460494
 40
0.3749735935
 40
0.3905997986
 40
0.40622549
 40
0.4218521634
 40
0.4374808117
 40
0.453113062
 40
0.4609318291
 40
0.4687515447
 40
0.4765714105
 40
0.4843922792
 40
0.492214646
 40
0.5000368176
 40
0.5156798165
 40
0.5235018811
 40
0.5313240859
 40
0.5391455071
 40
0.546965792
 40
0.5508757525
 40
0.5547858074
 40
0.5626059892
 40
0.5704258977
 40
0.578244957
 40
0.5860626609
 40
0.5938791508
 40
0.609508785
 40
0.6251335849
 40
0.6407537678
 40
0.6563693092
 40
0.6719805861
 40
0.687589448
 40
0.6953929749
 40
0.703195706
 40
0.718799452
 40
0.7344022136
 40
0.7500049045
 40
0.7812120015
 40
0.8124268566
 40
0.8436537134
 40
0.8748956971
 40
0.9061534081
 40
0.9374263148
 40
0.9530679605
 40
0.9687121285
 40
1.0
 40
1.0
 40
1.0
 40
1.0
 10
7.1289188487
 20
8.9394898306
 30
0.0
 10
7.1328283505
 20
8.9563157042
 30
0.0
 10
7.1411301357
 20
8.9898608725
 30
0.0
 10
7.1549269464
 20
9.0398260728
 30
0.0
 10
7.1699507708
 20
9.0894361823
 30
0.0
 10
7.1861678349
 20
9.1386611274
 30
0.0
 10
7.2036364509
 20
9.1874445215
 30
0.0
 10
7.2224107417
 20
9.2357294802
 30
0.0
 10
7.2424646187
 20
9.2834873151
 30
0.0
 10
7.2637229041
 20
9.3307108448
 30
0.0
 10
7.2861156411
 20
9.3773945277
 30
0.0
 10
7.3096180054
 20
9.4235158416
 30
0.0
 10
7.3342338483
 20
9.4690407475
 30
0.0
 10
7.3685241133
 20
9.5288975893
 30
0.0
 10
7.4142048835
 20
9.6020496894
 30
0.0
 10
7.4638186404
 20
9.6725911815
 30
0.0
 10
7.5059387691
 20
9.7271862736
 30
0.0
 10
7.5496991026
 20
9.7804643433
 30
0.0
 10
7.6074486108
 20
9.8444989043
 30
0.0
 10
7.6814477104
 20
9.9168220411
 30
0.0
 10
7.7468831707
 20
9.9730155373
 30
0.0
 10
7.8014315719
 20
10.0152263059
 30
0.0
 10
7.8434206913
 20
10.0454676292
 30
0.0
 10
7.8864201367
 20
10.0742662302
 30
0.0
 10
7.945023425
 20
10.1107030521
 30
0.0
 10
8.0204877938
 20
10.1526087297
 30
0.0
 10
8.1139877829
 20
10.197168712
 30
0.0
 10
8.209941622
 20
10.2361938796
 30
0.0
 10
8.2916789887
 20
10.2639996485
 30
0.0
 10
8.3579647823
 20
10.2833137442
 30
0.0
 10
8.4248038441
 20
10.3006310131
 30
0.0
 10
8.5092832539
 20
10.3185081882
 30
0.0
 10
8.6117406735
 20
10.3339265239
 30
0.0
 10
8.7149371537
 20
10.3432085549
 30
0.0
 10
8.8185062242
 20
10.3461765931
 30
0.0
 10
8.9220533882
 20
10.3426527227
 30
0.0
 10
9.025162558
 20
10.3325298093
 30
0.0
 10
9.1273782092
 20
10.3156104468
 30
0.0
 10
9.2282460036
 20
10.291919952
 30
0.0
 10
9.3273221517
 20
10.2615558924
 30
0.0
 10
9.4080554749
 20
10.2308593483
 30
0.0
 10
9.4713718637
 20
10.2032624786
 30
0.0
 10
9.518223526
 20
10.1811323403
 30
0.0
 10
9.5644068666
 20
10.157632537
 30
0.0
 10
9.6099728869
 20
10.132949033
 30
0.0
 10
9.6550276567
 20
10.107337905
 30
0.0
 10
9.7145667464
 20
10.0722686782
 30
0.0
 10
9.7735241026
 20
10.0362298113
 30
0.0
 10
9.8323317987
 20
9.9999532473
 30
0.0
 10
9.8764796218
 20
9.9728121482
 30
0.0
 10
9.9207940317
 20
9.9459508426
 30
0.0
 10
9.9579645289
 20
9.9239751866
 30
0.0
 10
9.9879039543
 20
9.9067487864
 30
0.0
 10
10.017997123
 20
9.8897929052
 30
0.0
 10
10.0558965352
 20
9.8691045196
 30
0.0
 10
10.101810969
 20
9.8450983333
 30
0.0
 10
10.1481422965
 20
9.8219189913
 30
0.0
 10
10.1948755618
 20
9.7995785396
 30
0.0
 10
10.257678721
 20
9.7708836218
 30
0.0
 10
10.337039665
 20
9.7369723305
 30
0.0
 10
10.4334131312
 20
9.6991365324
 30
0.0
 10
10.5307526944
 20
9.6639558214
 30
0.0
 10
10.6289182457
 20
9.6312511438
 30
0.0
 10
10.7277776746
 20
9.6008003789
 30
0.0
 10
10.8106334542
 20
9.5770678074
 30
0.0
 10
10.8771422491
 20
9.558927922
 30
0.0
 10
10.9437805208
 20
9.5413135197
 30
0.0
 10
11.0273227376
 20
9.5202600905
 30
0.0
 10
11.1279272541
 20
9.4964653104
 30
0.0
 10
11.2624896105
 20
9.4665865835
 30
0.0
 10
11.4314453487
 20
9.4326140479
 30
0.0
 10
11.6352487309
 20
9.3972745716
 30
0.0
 10
11.8400033185
 20
9.3674001115
 30
0.0
 10
12.0455854892
 20
9.3430586754
 30
0.0
 10
12.2518687184
 20
9.3244485618
 30
0.0
 10
12.4242156412
 20
9.3139170919
 30
0.0
 10
12.5622775863
 20
9.308609466
 30
0.0
 10
12.7004367754
 20
9.3054222164
 30
0.0
 10
12.8041056279
 20
9.3054006535
 30
0.0
 10
12.8731963054
 20
9.306426919
 30
0.0
  0
SPLINE
  5
453
100
AcDbEntity
  8
0
100
AcDbSpline
 62
9
  6
CONTINUOUS
 70
0
 71
3
 72
17
 73
13
 74
0
 42
0.0000001
 43
0.0000001
 44
0.0000000001
 40
0.0
 40
0.0
 40
0.0
 40
0.0
 40
0.1247373639
 40
0.1871004293
 40
0.2494643726
 40
0.3118356816
 40
0.3742191289
 40
0.4990399474
 40
0.6240211434
 40
0.7491917971
 40
0.8745608705
 40
1.0
 40
1.0
 40
1.0
 40
1.0
 10
11.1953094114
 20
9.0069620336
 30
0.0
 10
11.253896553
 20
8.98320681
 30
0.0
 10
11.3424074227
 20
8.9491028807
 30
0.0
 10
11.4615959172
 20
8.9068993911
 30
0.0
 10
11.5515676542
 20
8.8769295215
 30
0.0
 10
11.6421063558
 20
8.8486827505
 30
0.0
 10
11.7635927919
 20
8.8134305574
 30
0.0
 10
11.9169416184
 20
8.7742214078
 30
0.0
 10
12.1031973215
 20
8.7360636974
 30
0.0
 10
12.2914815643
 20
8.7076382949
 30
0.0
 10
12.4812957624
 20
8.6897536183
 30
0.0
 10
12.6084355181
 20
8.6854222132
 30
0.0
 10
12.6720110446
 20
8.6853043357
 30
0.0
  0
SPLINE
  5
454
100
AcDbEntity
  8
0
100
AcDbSpline
 62
9
  6
CONTINUOUS
 70
0
 71
3
 72
62
 73
58
 74
0
 42
0.0000001
 43
0.0000001
 44
0.0000000001
 40
0.0
 40
0.0
 40
0.0
 40
0.0
 40
0.0313059739
 40
0.0625984463
 40
0.093857332
 40
0.1094731376
 40
0.1250797575
 40
0.1406770349
 40
0.1562681116
 40
0.1718548765
 40
0.1874405903
 40
0.2030288253
 40
0.2108256623
 40
0.218624481
 40
0.2264251445
 40
0.2342275169
 40
0.2498357934
 40
0.265449829
 40
0.281068577
 40
0.2966913663
 40
0.3123170888
 40
0.3435640749
 40
0.3748165724
 40
0.3904482763
 40
0.4060798082
 40
0.4217103985
 40
0.4373398619
 40
0.4529669618
 40
0.4685932617
 40
0.4998380636
 40
0.5154708389
 40
0.5311089643
 40
0.5389306394
 40
0.5467537935
 40
0.5545784335
 40
0.5624041095
 40
0.5702301952
 40
0.5780569364
 40
0.5937115647
 40
0.6250158565
 40
0.6406684972
 40
0.6563208246
 40
0.6719713788
 40
0.6876205086
 40
0.7032685121
 40
0.7189152505
 40
0.7345606266
 40
0.7502042928
 40
0.7658457429
 40
0.7814849716
 40
0.7971219768
 40
0.8127564196
 40
0.8440152056
 40
0.8752582669
 40
0.9064824033
 40
0.9376828038
 40
1.0
 40
1.0
 40
1.0
 40
1.0
 10
7.6254170041
 20
8.8064535887
 30
0.0
 10
7.6374120954
 20
8.852151906
 30
0.0
 10
7.6616065292
 20
8.9434767672
 30
0.0
 10
7.7009656412
 20
9.0795662765
 30
0.0
 10
7.7383384122
 20
9.1915178455
 30
0.0
 10
7.7721334773
 20
9.2795654536
 30
0.0
 10
7.799698635
 20
9.344643593
 30
0.0
 10
7.8297870594
 20
9.4085582047
 30
0.0
 10
7.8626816189
 20
9.4710471512
 30
0.0
 10
7.8986392703
 20
9.5318125257
 30
0.0
 10
7.9378965117
 20
9.5905020889
 30
0.0
 10
7.9735465829
 20
9.6373352221
 30
0.0
 10
8.0038833672
 20
9.6733248207
 30
0.0
 10
8.0275614348
 20
9.6995279549
 30
0.0
 10
8.0521391564
 20
9.7249010225
 30
0.0
 10
8.0860869301
 20
9.7575670229
 30
0.0
 10
8.1306384598
 20
9.7961627806
 30
0.0
 10
8.1870196301
 20
9.8388831404
 30
0.0
 10
8.2459619384
 20
9.8780282611
 30
0.0
 10
8.3071278521
 20
9.9136281905
 30
0.0
 10
8.3912279344
 20
9.9564149481
 30
0.0
 10
8.5005666867
 20
10.0011752689
 30
0.0
 10
8.6139528279
 20
10.0343192476
 30
0.0
 10
8.706286755
 20
10.0538673706
 30
0.0
 10
8.7762083322
 20
10.0650074791
 30
0.0
 10
8.8466101589
 20
10.0725073465
 30
0.0
 10
8.9173052387
 20
10.0762603469
 30
0.0
 10
8.988095833
 20
10.0762083514
 30
0.0
 10
9.0823134619
 20
10.0711872922
 30
0.0
 10
9.1760562007
 20
10.0590450449
 30
0.0
 10
9.2684329425
 20
10.0397053839
 30
0.0
 10
9.3254862102
 20
10.0245521677
 30
0.0
 10
9.3705782701
 20
10.0105481502
 30
0.0
 10
9.4040972561
 20
9.9990857719
 30
0.0
 10
9.4372844249
 20
9.9866795557
 30
0.0
 10
9.4701189743
 20
9.9733563954
 30
0.0
 10
9.5025768536
 20
9.9591325529
 30
0.0
 10
9.545344019
 20
9.9390369626
 30
0.0
 10
9.6188813836
 20
9.9011780972
 30
0.0
 10
9.7001859916
 20
9.8528749367
 30
0.0
 10
9.7796262806
 20
9.8017170283
 30
0.0
 10
9.838626088
 20
9.7624595936
 30
0.0
 10
9.8973503154
 20
9.7228057677
 30
0.0
 10
9.9560237006
 20
9.6830875549
 30
0.0
 10
10.014886777
 20
9.643660985
 30
0.0
 10
10.073978636
 20
9.6045882142
 30
0.0
 10
10.1333330226
 20
9.5659270746
 30
0.0
 10
10.1929898543
 20
9.5277486863
 30
0.0
 10
10.2529926046
 20
9.4901330917
 30
0.0
 10
10.313389593
 20
9.4531726881
 30
0.0
 10
10.374177552
 20
9.4168795204
 30
0.0
 10
10.455708405
 20
9.3693552741
 30
0.0
 10
10.5584787024
 20
9.3115116383
 30
0.0
 10
10.6831333563
 20
9.2446406795
 30
0.0
 10
10.8090739214
 20
9.1804102875
 30
0.0
 10
10.9786943128
 20
9.0987170394
 30
0.0
 10
11.108123242
 20
9.0422283235
 30
0.0
 10
11.195308772
 20
9.0069623637
 30
0.0
  0
SPLINE
  5
455
100
AcDbEntity
  8
0
100
AcDbSpline
 62
9
  6
CONTINUOUS
 70
0
 71
3
 72
17
 73
13
 74
0
 42
0.0000001
 43
0.0000001
 44
0.0000000001
 40
0.0
 40
0.0
 40
0.0
 40
0.0
 40
0.1510688374
 40
0.3068037777
 40
0.4615355654
 40
0.6087516313
 40
0.7412240986
 40
0.8527189415
 40
0.8994934286
 40
0.9398018827
 40
0.9733122116
 40
1.0
 40
1.0
 40
1.0
 40
1.0
 10
11.195308772
 20
9.0069623637
 30
0.0
 10
11.193060765
 20
9.0016050938
 30
0.0
 10
11.1885798092
 20
8.9906894387
 30
0.0
 10
11.1820964776
 20
8.974165254
 30
0.0
 10
11.1759676413
 20
8.957663987
 30
0.0
 10
11.1704771871
 20
8.9418834092
 30
0.0
 10
11.1658922882
 20
8.927553051
 30
0.0
 10
11.1628631501
 20
8.9167855155
 30
0.0
 10
11.1610894113
 20
8.9093564916
 30
0.0
 10
11.1601608551
 20
8.904811333
 30
0.0
 10
11.1595569434
 20
8.9009922019
 30
0.0
 10
11.1593444515
 20
8.8986835435
 30
0.0
 10
11.1593076527
 20
8.8976578439
 30
0.0
  0
SPLINE
  5
456
100
AcDbEntity
  8
0
100
AcDbSpline
 62
9
  6
CONTINUOUS
 70
0
 71
3
 72
13
 73
9
 74
0
 42
0.0000001
 43
0.0000001
 44
0.0000000001
 40
0.0
 40
0.0
 40
0.0
 40
0.0
 40
0.3707717654
 40
0.6491142319
 40
0.7578531724
 40
0.8496025308
 40
0.9284103153
 40
1.0
 40
1.0
 40
1.0
 40
1.0
 10
11.1593076527
 20
8.8976578439
 30
0.0
 10
11.1592825446
 20
8.8969580017
 30
0.0
 10
11.1592855385
 20
8.8957307481
 30
0.0
 10
11.1594797258
 20
8.8943022306
 30
0.0
 10
11.1597730923
 20
8.8934434664
 30
0.0
 10
11.1600281236
 20
8.8929776832
 30
0.0
 10
11.1603381005
 20
8.8926342595
 30
0.0
 10
11.1605880192
 20
8.8924875323
 30
0.0
 10
11.160714428
 20
8.8924395348
 30
0.0
  0
SPLINE
  5
457
100
AcDbEntity
  8
0
100
AcDbSpline
 62
9
  6
CONTINUOUS
 70
0
 71
3
 72
11
 73
7
 74
0
 42
0.0000001
 43
0.0000001
 44
0.0000000001
 40
0.0
 40
0.0
 40
0.0
 40
0.0
 40
0.251335022
 40
0.5017447599
 40
0.7512572658
 40
1.0
 40
1.0
 40
1.0
 40
1.0
 10
12.791895474
 20
8.6470558244
 30
0.0
 10
12.8035746181
 20
8.638458237
 30
0.0
 10
12.8252234696
 20
8.6188004176
 30
0.0
 10
12.8498899643
 20
8.5827453974
 30
0.0
 10
12.8664672256
 20
8.5424629237
 30
0.0
 10
12.8706113329
 20
8.5136773061
 30
0.0
 10
12.8710632983
 20
8.4993315581
 30
0.0
  0
SPLINE
  5
458
100
AcDbEntity
  8
0
100
AcDbSpline
 62
9
  6
CONTINUOUS
 70
0
 71
3
 72
22
 73
18
 74
0
 42
0.0000001
 43
0.0000001
 44
0.0000000001
 40
0.0
 40
0.0
 40
0.0
 40
0.0
 40
0.1740694378
 40
0.3522453967
 40
0.5245408748
 40
0.6049463538
 40
0.6795754472
 40
0.747150941
 40
0.8070209721
 40
0.8587144857
 40
0.901827444
 40
0.936280332
 40
0.9629520071
 40
0.9738408919
 40
0.9834146856
 40
0.9920018551
 40
1.0
 40
1.0
 40
1.0
 40
1.0
 10
12.8710631309
 20
8.4993306156
 30
0.0
 10
12.8638731875
 20
8.4991195336
 30
0.0
 10
12.8493298242
 20
8.4984428721
 30
0.0
 10
12.827721825
 20
8.4966734145
 30
0.0
 10
12.8100465929
 20
8.4944656157
 30
0.0
 10
12.796698761
 20
8.4922668805
 30
0.0
 10
12.7876701946
 20
8.490495274
 30
0.0
 10
12.7795414853
 20
8.4885741966
 30
0.0
 10
12.772418626
 20
8.4865468559
 30
0.0
 10
12.7663753516
 20
8.4844540858
 30
0.0
 10
12.7614636713
 20
8.482334467
 30
0.0
 10
12.7577112006
 20
8.4802014617
 30
0.0
 10
12.7553722989
 20
8.4783205185
 30
0.0
 10
12.7541272426
 20
8.4768139055
 30
0.0
 10
12.7535203248
 20
8.4757704748
 30
0.0
 10
12.753170976
 20
8.4747389011
 30
0.0
 10
12.7531077214
 20
8.4740484907
 30
0.0
 10
12.7531190796
 20
8.47371818
 30
0.0
  0
SPLINE
  5
459
100
AcDbEntity
  8
0
100
AcDbSpline
 62
9
  6
CONTINUOUS
 70
0
 71
3
 72
21
 73
17
 74
0
 42
0.0000001
 43
0.0000001
 44
0.0000000001
 40
0.0
 40
0.0
 40
0.0
 40
0.0
 40
0.0069833207
 40
0.0157082452
 40
0.0387283133
 40
0.0696235848
 40
0.108829797
 40
0.1565683698
 40
0.2123394981
 40
0.2754549687
 40
0.3452203295
 40
0.4208160298
 40
0.5009305872
 40
0.6689643247
 40
0.8383177923
 40
1.0
 40
1.0
 40
1.0
 40
1.0
 10
12.7205154035
 20
8.5348431611
 30
0.0
 10
12.7205404233
 20
8.5351526865
 30
0.0
 10
12.7206528714
 20
8.5358441751
 30
0.0
 10
12.7210853385
 20
8.5375123859
 30
0.0
 10
12.7220533778
 20
8.5401302231
 30
0.0
 10
12.7237470168
 20
8.5439099286
 30
0.0
 10
12.7261112461
 20
8.5485883693
 30
0.0
 10
12.7291590347
 20
8.5541556506
 30
0.0
 10
12.7328705433
 20
8.5605692349
 30
0.0
 10
12.7372080594
 20
8.5677503007
 30
0.0
 10
12.7421260814
 20
8.5756092209
 30
0.0
 10
12.7475628704
 20
8.5840340063
 30
0.0
 10
12.7555075643
 20
8.5960398947
 30
0.0
 10
12.7659855356
 20
8.6113675286
 30
0.0
 10
12.7788292599
 20
8.6294670514
 30
0.0
 10
12.7875301293
 20
8.6413417359
 30
0.0
 10
12.7918247952
 20
8.6471078124
 30
0.0
  0
SPLINE
  5
45A
100
AcDbEntity
  8
0
100
AcDbSpline
 62
9
  6
CONTINUOUS
 70
0
 71
3
 72
22
 73
18
 74
0
 42
0.0000001
 43
0.0000001
 44
0.0000000001
 40
0.0
 40
0.0
 40
0.0
 40
0.0
 40
0.178101221
 40
0.3580004827
 40
0.5298622786
 40
0.6094890243
 40
0.6831301389
 40
0.7496292352
 40
0.8084399924
 40
0.8591949011
 40
0.9015961879
 40
0.935653761
 40
0.9622596563
 40
0.9732342277
 40
0.9829641002
 40
0.9917622323
 40
1.0
 40
1.0
 40
1.0
 40
1.0
 10
12.8661577255
 20
8.4500288918
 30
0.0
 10
12.8592980013
 20
8.4515409178
 30
0.0
 10
12.8454560035
 20
8.454344072
 30
0.0
 10
12.8248340458
 20
8.457758981
 30
0.0
 10
12.8079358403
 20
8.4598061218
 30
0.0
 10
12.7951521992
 20
8.460832791
 30
0.0
 10
12.7864928641
 20
8.4612539202
 30
0.0
 10
12.778644111
 20
8.4613247079
 30
0.0
 10
12.7717017916
 20
8.4610614189
 30
0.0
 10
12.7657320429
 20
8.4604854591
 30
0.0
 10
12.7607816691
 20
8.4596203951
 30
0.0
 10
12.7568723722
 20
8.4584733735
 30
0.0
 10
12.7543047954
 20
8.457236725
 30
0.0
 10
12.7528148819
 20
8.4561029093
 30
0.0
 10
12.7520091624
 20
8.4552549391
 30
0.0
 10
12.7514383968
 20
8.4543582561
 30
0.0
 10
12.7512095801
 20
8.4537191058
 30
0.0
 10
12.7511370233
 20
8.45340241
 30
0.0
  0
SPLINE
  5
45B
100
AcDbEntity
  8
0
100
AcDbSpline
 62
9
  6
CONTINUOUS
 70
0
 71
3
 72
22
 73
18
 74
0
 42
0.0000001
 43
0.0000001
 44
0.0000000001
 40
0.0
 40
0.0
 40
0.0
 40
0.0
 40
0.0083117566
 40
0.0172449918
 40
0.0271774107
 40
0.0384253084
 40
0.0658003238
 40
0.1009454436
 40
0.1447578639
 40
0.1971363776
 40
0.2576408066
 40
0.3257621806
 40
0.400805721
 40
0.4814309783
 40
0.653297071
 40
0.8295076055
 40
1.0
 40
1.0
 40
1.0
 40
1.0
 10
12.4946342673
 20
8.2982615307
 30
0.0
 10
12.4945526063
 20
8.298610842
 30
0.0
 10
12.4944708803
 20
8.2993585599
 30
0.0
 10
12.4946067788
 20
8.300531736
 30
0.0
 10
12.4950021396
 20
8.3017768888
 30
0.0
 10
12.495947357
 20
8.3036549867
 30
0.0
 10
12.497929417
 20
8.3061807119
 30
0.0
 10
12.5013125867
 20
8.3092964711
 30
0.0
 10
12.5058895013
 20
8.3126554614
 30
0.0
 10
12.5116319298
 20
8.3162355948
 30
0.0
 10
12.5184914911
 20
8.3199813153
 30
0.0
 10
12.526397614
 20
8.3238294632
 30
0.0
 10
12.5352461256
 20
8.3277068573
 30
0.0
 10
12.5483696729
 20
8.3329654217
 30
0.0
 10
12.5658194188
 20
8.3391436152
 30
0.0
 10
12.5872387722
 20
8.3456535035
 30
0.0
 10
12.601713489
 20
8.3494622112
 30
0.0
 10
12.6088633141
 20
8.3512014772
 30
0.0
  0
SPLINE
  5
45C
100
AcDbEntity
  8
0
100
AcDbSpline
 62
9
  6
CONTINUOUS
 70
0
 71
3
 72
48
 73
44
 74
0
 42
0.0000001
 43
0.0000001
 44
0.0000000001
 40
0.0
 40
0.0
 40
0.0
 40
0.0
 40
0.0082354139
 40
0.0186025583
 40
0.0309690375
 40
0.0379337728
 40
0.0455858836
 40
0.0634745802
 40
0.0855894566
 40
0.1126986723
 40
0.1455588635
 40
0.1643692889
 40
0.1845755476
 40
0.2281722842
 40
0.2744893365
 40
0.2981553152
 40
0.321899962
 40
0.3455666422
 40
0.3690368984
 40
0.392252608
 40
0.4152585744
 40
0.4381390184
 40
0.4609178481
 40
0.5064485384
 40
0.5528362483
 40
0.6001091907
 40
0.6475164211
 40
0.6932961541
 40
0.7360907784
 40
0.7761182516
 40
0.8136354232
 40
0.8488374756
 40
0.8816586262
 40
0.8968030743
 40
0.9108378598
 40
0.9235691221
 40
0.9348941993
 40
0.9538877694
 40
0.9618730689
 40
0.9690593824
 40
0.981572879
 40
0.9918206286
 40
1.0
 40
1.0
 40
1.0
 40
1.0
 10
14.0646941133
 20
9.5031453074
 30
0.0
 10
14.0646857734
 20
9.5036047593
 30
0.0
 10
14.0644179629
 20
9.5046339572
 30
0.0
 10
14.0635555335
 20
9.5061438805
 30
0.0
 10
14.0624410641
 20
9.5073875163
 30
0.0
 10
14.0612965611
 20
9.5083666829
 30
0.0
 10
14.059858479
 20
9.5094728791
 30
0.0
 10
14.0576949238
 20
9.5110188747
 30
0.0
 10
14.0547154053
 20
9.513289938
 30
0.0
 10
14.051276394
 20
9.5163236114
 30
0.0
 10
14.04826977
 20
9.519541511
 30
0.0
 10
14.0457497236
 20
9.5226630463
 30
0.0
 10
14.0430132574
 20
9.5263741159
 30
0.0
 10
14.0396831736
 20
9.5315484433
 30
0.0
 10
14.0366872641
 20
9.5371353878
 30
0.0
 10
14.0341506443
 20
9.5417090106
 30
0.0
 10
14.032113432
 20
9.5451133214
 30
0.0
 10
14.029910928
 20
9.5484009304
 30
0.0
 10
14.0275247848
 20
9.5515221634
 30
0.0
 10
14.0249224942
 20
9.5544184245
 30
0.0
 10
14.0221025338
 20
9.5570542819
 30
0.0
 10
14.0191229988
 20
9.5594671351
 30
0.0
 10
14.014988067
 20
9.562436289
 30
0.0
 10
14.009546723
 20
9.5658163264
 30
0.0
 10
14.0027864903
 20
9.569636652
 30
0.0
 10
13.9960207161
 20
9.5736714746
 30
0.0
 10
13.9896924735
 20
9.5783155965
 30
0.0
 10
13.9839530726
 20
9.5832902902
 30
0.0
 10
13.9788877714
 20
9.5883780711
 30
0.0
 10
13.9742859624
 20
9.5932676627
 30
0.0
 10
13.9698981657
 20
9.5977766261
 30
0.0
 10
13.9656859291
 20
9.6018941602
 30
0.0
 10
13.9622368618
 20
9.6049999564
 30
0.0
 10
13.9596561893
 20
9.6073039056
 30
0.0
 10
13.9579253509
 20
9.6088766087
 30
0.0
 10
13.9563856213
 20
9.6103423783
 30
0.0
 10
13.9547163414
 20
9.6120708724
 30
0.0
 10
13.9533120456
 20
9.6136827744
 30
0.0
 10
13.9520578083
 20
9.6151186017
 30
0.0
 10
13.9510024752
 20
9.6162469675
 30
0.0
 10
13.9497249876
 20
9.6173395815
 30
0.0
 10
13.948207481
 20
9.618186654
 30
0.0
 10
13.947181811
 20
9.6184292782
 30
0.0
 10
13.9467254105
 20
9.6184292459
 30
0.0
  0
SPLINE
  5
45D
100
AcDbEntity
  8
0
100
AcDbSpline
 62
9
  6
CONTINUOUS
 70
0
 71
3
 72
18
 73
14
 74
0
 42
0.0000001
 43
0.0000001
 44
0.0000000001
 40
0.0
 40
0.0
 40
0.0
 40
0.0
 40
0.1661230984
 40
0.3361422086
 40
0.5021851765
 40
0.6553507527
 40
0.7864660331
 40
0.8417052339
 40
0.889453526
 40
0.9292733252
 40
0.9607970389
 40
0.9842082433
 40
1.0
 40
1.0
 40
1.0
 40
1.0
 10
13.9495436958
 20
9.3434114066
 30
0.0
 10
13.9452194827
 20
9.3431803198
 30
0.0
 10
13.9364678815
 20
9.3427451139
 30
0.0
 10
13.9233887769
 20
9.3421928757
 30
0.0
 10
13.9106427272
 20
9.3417698762
 30
0.0
 10
13.8989068677
 20
9.3415012217
 30
0.0
 10
13.8900563211
 20
9.3414199163
 30
0.0
 10
13.8839539411
 20
9.3414634262
 30
0.0
 10
13.8802318902
 20
9.3415381463
 30
0.0
 10
13.8771296186
 20
9.3416537243
 30
0.0
 10
13.8746635062
 20
9.3418069407
 30
0.0
 10
13.8728298942
 20
9.3419953605
 30
0.0
 10
13.8718189058
 20
9.3421632123
 30
0.0
 10
13.8714210328
 20
9.3422688143
 30
0.0
  0
LINE
  5
45E
100
AcDbEntity
  8
0
100
AcDbLine
 62
9
  6
CONTINUOUS
 10
13.8714210328
 20
9.3422688143
 11
13.8706565679
 21
9.3427068137
  0
SPLINE
  5
45F
100
AcDbEntity
  8
0
100
AcDbSpline
 62
9
  6
CONTINUOUS
 70
0
 71
3
 72
33
 73
29
 74
0
 42
0.0000001
 43
0.0000001
 44
0.0000000001
 40
0.0
 40
0.0
 40
0.0
 40
0.0
 40
0.000116375
 40
0.0003594165
 40
0.0012804241
 40
0.0027942371
 40
0.0049024169
 40
0.0076039837
 40
0.0108972519
 40
0.0147802627
 40
0.0192509297
 40
0.0299465559
 40
0.0429665348
 40
0.0582917918
 40
0.0758851035
 40
0.0956949851
 40
0.1176695141
 40
0.1417567348
 40
0.1679046696
 40
0.2261657645
 40
0.2918933167
 40
0.3644239797
 40
0.443090729
 40
0.5271788968
 40
0.6159118558
 40
0.7085090072
 40
0.8041025027
 40
1.0
 40
1.0
 40
1.0
 40
1.0
 10
12.6830793532
 20
9.6184289384
 30
0.0
 10
12.6830748612
 20
9.6184289349
 30
0.0
 10
12.6830649801
 20
9.6184152494
 30
0.0
 10
12.6830515278
 20
9.6183705044
 30
0.0
 10
12.6830333046
 20
9.6182657731
 30
0.0
 10
12.683014692
 20
9.6180929887
 30
0.0
 10
12.6829945931
 20
9.6178490079
 30
0.0
 10
12.682974635
 20
9.6175371338
 30
0.0
 10
12.6829544355
 20
9.617156285
 30
0.0
 10
12.6829342727
 20
9.6167071988
 30
0.0
 10
12.6829056902
 20
9.6159724406
 30
0.0
 10
12.6828712454
 20
9.6148850022
 30
0.0
 10
12.6828323415
 20
9.6133785325
 30
0.0
 10
12.6827942079
 20
9.6116057273
 30
0.0
 10
12.6827568227
 20
9.6095707681
 30
0.0
 10
12.6827200614
 20
9.6072791019
 30
0.0
 10
12.6826838247
 20
9.604736737
 30
0.0
 10
12.6826479741
 20
9.601949698
 30
0.0
 10
12.6825988113
 20
9.5977620683
 30
0.0
 10
12.6825380802
 20
9.5919671636
 30
0.0
 10
12.6824717962
 20
9.5843818716
 30
0.0
 10
12.6824167716
 20
9.5760088143
 30
0.0
 10
12.6823823854
 20
9.5669269277
 30
0.0
 10
12.6823630095
 20
9.5572196024
 30
0.0
 10
12.6823318176
 20
9.5469745905
 30
0.0
 10
12.6822648271
 20
9.5362856113
 30
0.0
 10
12.6821024316
 20
9.5214607897
 30
0.0
 10
12.6819194374
 20
9.5102107425
 30
0.0
 10
12.6817792091
 20
9.5026504673
 30
0.0
  0
SPLINE
  5
460
100
AcDbEntity
  8
0
100
AcDbSpline
 62
9
  6
CONTINUOUS
 70
0
 71
3
 72
32
 73
28
 74
0
 42
0.0000001
 43
0.0000001
 44
0.0000000001
 40
0.0
 40
0.0
 40
0.0
 40
0.0
 40
0.0625807736
 40
0.1251467372
 40
0.1876907312
 40
0.2502103709
 40
0.3127052462
 40
0.3751771892
 40
0.4376304843
 40
0.4688518466
 40
0.5000702184
 40
0.531286947
 40
0.562503101
 40
0.5937187965
 40
0.6249343031
 40
0.6561513801
 40
0.6873718724
 40
0.7498322155
 40
0.8123269821
 40
0.8435881309
 40
0.8748605432
 40
0.9061393711
 40
0.921780278
 40
0.9374216416
 40
0.9530641162
 40
0.968708472
 40
1.0
 40
1.0
 40
1.0
 40
1.0
 10
12.6822299213
 20
9.5026437808
 30
0.0
 10
12.6235491722
 20
9.5035145112
 30
0.0
 10
12.506218832
 20
9.5068101191
 30
0.0
 10
12.3304451785
 20
9.5163335403
 30
0.0
 10
12.1550252729
 20
9.5303015421
 30
0.0
 10
11.980086755
 20
9.5487467422
 30
0.0
 10
11.8057362752
 20
9.5715851846
 30
0.0
 10
11.6320611241
 20
9.5986810057
 30
0.0
 10
11.4879435771
 20
9.6246948463
 30
0.0
 10
11.3730667729
 20
9.6475320253
 30
0.0
 10
11.2871264839
 20
9.6656605694
 30
0.0
 10
11.2014025918
 20
9.6847624856
 30
0.0
 10
11.1158941219
 20
9.7047955538
 30
0.0
 10
11.0306191096
 20
9.7257971068
 30
0.0
 10
10.9456201005
 20
9.747894439
 30
0.0
 10
10.8609361953
 20
9.7711905349
 30
0.0
 10
10.7485020593
 20
9.8040276622
 30
0.0
 10
10.6090088217
 20
9.8487770934
 30
0.0
 10
10.4714861397
 20
9.8994340592
 30
0.0
 10
10.36307263
 20
9.9441202738
 30
0.0
 10
10.2826721147
 20
9.9798624173
 30
0.0
 10
10.2165359883
 20
10.0115573878
 30
0.0
 10
10.1642074312
 20
10.0380897968
 30
0.0
 10
10.1252685978
 20
10.0585931874
 30
0.0
 10
10.0866376348
 20
10.0796768227
 30
0.0
 10
10.0354817856
 20
10.1084368436
 30
0.0
 10
9.9974575843
 20
10.1306133109
 30
0.0
 10
9.9722036732
 20
10.1455582065
 30
0.0
  0
SPLINE
  5
461
100
AcDbEntity
  8
0
100
AcDbSpline
 62
9
  6
CONTINUOUS
 70
0
 71
3
 72
32
 73
28
 74
0
 42
0.0000001
 43
0.0000001
 44
0.0000000001
 40
0.0
 40
0.0
 40
0.0
 40
0.0
 40
0.0625349915
 40
0.0938037052
 40
0.125071376
 40
0.156338279
 40
0.1719702264
 40
0.1876015691
 40
0.2188621002
 40
0.250119153
 40
0.2813735812
 40
0.3126260168
 40
0.3438766262
 40
0.3751256585
 40
0.4376099782
 40
0.5000905417
 40
0.5313358284
 40
0.5625814392
 40
0.625066049
 40
0.6563146184
 40
0.6875636608
 40
0.7188132489
 40
0.7500633305
 40
0.8125535213
 40
0.8750413902
 40
0.9375244917
 40
1.0
 40
1.0
 40
1.0
 40
1.0
 10
9.9722036732
 20
10.1455582065
 30
0.0
 10
9.9352596445
 20
10.1686081975
 30
0.0
 10
9.8801443762
 20
10.2036645447
 30
0.0
 10
9.8061043259
 20
10.2495252788
 30
0.0
 10
9.7500944032
 20
10.2831360173
 30
0.0
 10
9.7028725802
 20
10.3102158548
 30
0.0
 10
9.6646536945
 20
10.331080572
 30
0.0
 10
9.6261055732
 20
10.3513209547
 30
0.0
 10
9.5772719055
 20
10.3753602711
 30
0.0
 10
9.5176618547
 20
10.4020465451
 30
0.0
 10
9.4571045414
 20
10.4264930675
 30
0.0
 10
9.3956978767
 20
10.44870477
 30
0.0
 10
9.3335237786
 20
10.4686584276
 30
0.0
 10
9.2497249812
 20
10.4922124365
 30
0.0
 10
9.1434616262
 20
10.5159280887
 30
0.0
 10
9.0357656463
 20
10.5319061541
 30
0.0
 10
8.9491004863
 20
10.5399605248
 30
0.0
 10
8.8621983223
 20
10.5448504519
 30
0.0
 10
8.7750840041
 20
10.5450233899
 30
0.0
 10
8.6881540731
 20
10.5406126271
 30
0.0
 10
8.6230998658
 20
10.535035818
 30
0.0
 10
8.5582752771
 20
10.5272304517
 30
0.0
 10
8.4722487587
 20
10.5139391354
 30
0.0
 10
8.3656056029
 20
10.4920229442
 30
0.0
 10
8.2396756356
 20
10.4572884653
 30
0.0
 10
8.1164719894
 20
10.4138485077
 30
0.0
 10
8.0368033188
 20
10.3785951964
 30
0.0
 10
7.997747675
 20
10.359432355
 30
0.0
  0
SPLINE
  5
462
100
AcDbEntity
  8
0
100
AcDbSpline
 62
9
  6
CONTINUOUS
 70
0
 71
3
 72
18
 73
14
 74
0
 42
0.0000001
 43
0.0000001
 44
0.0000000001
 40
0.0
 40
0.0
 40
0.0
 40
0.0
 40
0.1242980923
 40
0.2488466196
 40
0.3112029023
 40
0.3736078448
 40
0.4360617178
 40
0.498564948
 40
0.6237113399
 40
0.6863477253
 40
0.749020033
 40
0.8744579892
 40
1.0
 40
1.0
 40
1.0
 40
1.0
 10
12.791895474
 20
8.6470558244
 30
0.0
 10
12.7972960342
 20
8.6740702734
 30
0.0
 10
12.8075598619
 20
8.72826486
 30
0.0
 10
12.8189684226
 20
8.7962942949
 30
0.0
 10
12.8272177384
 20
8.8509321622
 30
0.0
 10
12.832953527
 20
8.8920283537
 30
0.0
 10
12.8382701174
 20
8.9332135165
 30
0.0
 10
12.8448647535
 20
8.9882525183
 30
0.0
 10
12.8507963295
 20
9.0434091311
 30
0.0
 10
12.8562513644
 20
9.0986505237
 30
0.0
 10
12.8614194931
 20
9.1539845539
 30
0.0
 10
12.867302187
 20
9.2232535258
 30
0.0
 10
12.8713514822
 20
9.2787338778
 30
0.0
 10
12.8732021201
 20
9.3064969475
 30
0.0
  0
SPLINE
  5
463
100
AcDbEntity
  8
0
100
AcDbSpline
 62
9
  6
CONTINUOUS
 70
0
 71
3
 72
13
 73
9
 74
0
 42
0.0000001
 43
0.0000001
 44
0.0000000001
 40
0.0
 40
0.0
 40
0.0
 40
0.0
 40
0.252352863
 40
0.3781552077
 40
0.5035606318
 40
0.6285009725
 40
0.7529254212
 40
1.0
 40
1.0
 40
1.0
 40
1.0
 10
13.7548621421
 20
9.3065646486
 30
0.0
 10
13.7610562557
 20
9.2057909483
 30
0.0
 10
13.7747898203
 20
9.055004063
 30
0.0
 10
13.8018461733
 20
8.8553401392
 30
0.0
 10
13.8264147745
 20
8.7068427867
 30
0.0
 10
13.855198019
 20
8.5596666008
 30
0.0
 10
13.8989624744
 20
8.3659084883
 30
0.0
 10
13.9379948386
 20
8.2223788136
 30
0.0
 10
13.9666836369
 20
8.1277813012
 30
0.0
  0
SPLINE
  5
464
100
AcDbEntity
  8
0
100
AcDbSpline
 62
9
  6
CONTINUOUS
 70
0
 71
3
 72
13
 73
9
 74
0
 42
0.0000001
 43
0.0000001
 44
0.0000000001
 40
0.0
 40
0.0
 40
0.0
 40
0.0
 40
0.2468993985
 40
0.3711521371
 40
0.4959213608
 40
0.6212045918
 40
0.7469997077
 40
1.0
 40
1.0
 40
1.0
 40
1.0
 10
12.2764314858
 20
7.4033903826
 30
0.0
 10
12.3100163487
 20
7.4704086918
 30
0.0
 10
12.3582018453
 20
7.5723314291
 30
0.0
 10
12.4179108888
 20
7.7105654316
 30
0.0
 10
12.4605939205
 20
7.8159018737
 30
0.0
 10
12.5010069668
 20
7.9226311165
 30
0.0
 10
12.5518520392
 20
8.0669949827
 30
0.0
 10
12.5862850269
 20
8.1767831981
 30
0.0
 10
12.6076232976
 20
8.2505749127
 30
0.0
  0
SPLINE
  5
465
100
AcDbEntity
  8
0
100
AcDbSpline
 62
9
  6
CONTINUOUS
 70
0
 71
3
 72
12
 73
8
 74
0
 42
0.0000001
 43
0.0000001
 44
0.0000000001
 40
0.0
 40
0.0
 40
0.0
 40
0.0
 40
0.2497515474
 40
0.3747082952
 40
0.4996665265
 40
0.7496723624
 40
1.0
 40
1.0
 40
1.0
 40
1.0
 10
12.6076232976
 20
8.2505749127
 30
0.0
 10
12.6099470087
 20
8.2587274459
 30
0.0
 10
12.6126927554
 20
8.2711932958
 30
0.0
 10
12.6146538429
 20
8.2880501165
 30
0.0
 10
12.6154357208
 20
8.3050133726
 30
0.0
 10
12.6142226662
 20
8.3262709128
 30
0.0
 10
12.6109946687
 20
8.3430004273
 30
0.0
 10
12.6088569157
 20
8.3512238909
 30
0.0
  0
SPLINE
  5
466
100
AcDbEntity
  8
0
100
AcDbSpline
 62
9
  6
CONTINUOUS
 70
0
 71
3
 72
21
 73
17
 74
0
 42
0.0000001
 43
0.0000001
 44
0.0000000001
 40
0.0
 40
0.0
 40
0.0
 40
0.0
 40
0.0092675453
 40
0.0190648339
 40
0.0414936499
 40
0.0695405633
 40
0.1046929966
 40
0.1478643996
 40
0.1990887436
 40
0.2580757248
 40
0.324452593
 40
0.3976734706
 40
0.4766266501
 40
0.6465794611
 40
0.8241573395
 40
1.0
 40
1.0
 40
1.0
 40
1.0
 10
12.4940831999
 20
8.2567252012
 30
0.0
 10
12.4941820069
 20
8.2570742947
 30
0.0
 10
12.4944623461
 20
8.2577727159
 30
0.0
 10
12.4953618864
 20
8.2591366407
 30
0.0
 10
12.4971873227
 20
8.2606981758
 30
0.0
 10
12.5002158742
 20
8.2621814003
 30
0.0
 10
12.5042252659
 20
8.2633592006
 30
0.0
 10
12.5092357545
 20
8.2641942088
 30
0.0
 10
12.5152252891
 20
8.2646861287
 30
0.0
 10
12.5221409589
 20
8.2648120486
 30
0.0
 10
12.5299137514
 20
8.2645529306
 30
0.0
 10
12.5384465133
 20
8.2638948845
 30
0.0
 10
12.5509801965
 20
8.2624866281
 30
0.0
 10
12.5674808693
 20
8.2598804203
 30
0.0
 10
12.5875473986
 20
8.2557122835
 30
0.0
 10
12.6009762114
 20
8.2523651248
 30
0.0
 10
12.6076232904
 20
8.250574976
 30
0.0
  0
SPLINE
  5
467
100
AcDbEntity
  8
0
100
AcDbSpline
 62
9
  6
CONTINUOUS
 70
0
 71
3
 72
35
 73
31
 74
0
 42
0.0000001
 43
0.0000001
 44
0.0000000001
 40
0.0
 40
0.0
 40
0.0
 40
0.0
 40
0.0312890875
 40
0.0469345105
 40
0.0625782847
 40
0.0938643102
 40
0.1251463851
 40
0.1407850165
 40
0.1564225931
 40
0.1876943682
 40
0.2189608765
 40
0.2502217734
 40
0.2814778502
 40
0.312729463
 40
0.3752163722
 40
0.4064570871
 40
0.4376951599
 40
0.5001590603
 40
0.5626153497
 40
0.6250686319
 40
0.6562997672
 40
0.6875327973
 40
0.7187672865
 40
0.7500045171
 40
0.7812462547
 40
0.8124920879
 40
0.8437399791
 40
0.8749904065
 40
0.9374918542
 40
1.0
 40
1.0
 40
1.0
 40
1.0
 10
6.9369037028
 20
8.9912581739
 30
0.0
 10
6.9409188318
 20
9.0095215561
 30
0.0
 10
6.9473380999
 20
9.0368332369
 30
0.0
 10
6.9568182011
 20
9.0730125347
 30
0.0
 10
6.9669684665
 20
9.1090082446
 30
0.0
 10
6.9807675672
 20
9.1536734937
 30
0.0
 10
6.9954832646
 20
9.1980391068
 30
0.0
 10
7.0078683208
 20
9.2333163485
 30
0.0
 10
7.0207016052
 20
9.2684263537
 30
0.0
 10
7.0375870784
 20
9.3119950405
 30
0.0
 10
7.0591577652
 20
9.3637428714
 30
0.0
 10
7.0820101133
 20
9.4149272812
 30
0.0
 10
7.1061194434
 20
9.4655224543
 30
0.0
 10
7.1399300411
 20
9.5321407348
 30
0.0
 10
7.1762541034
 20
9.5974507829
 30
0.0
 10
7.2151032553
 20
9.6612438595
 30
0.0
 10
7.2556444446
 20
9.7239594427
 30
0.0
 10
7.3094659575
 20
9.8002637626
 30
0.0
 10
7.3789921256
 20
9.8881191785
 30
0.0
 10
7.4410884333
 20
9.9578561519
 30
0.0
 10
7.4932426928
 20
10.0112868772
 30
0.0
 10
7.533597618
 20
10.0501239429
 30
0.0
 10
7.575170786
 20
10.0876594174
 30
0.0
 10
7.6179426996
 20
10.1238311983
 30
0.0
 10
7.6618410557
 20
10.1586370123
 30
0.0
 10
7.7067879409
 20
10.1920879102
 30
0.0
 10
7.7527618595
 20
10.2241242497
 30
0.0
 10
7.8154255342
 20
10.2648145386
 30
0.0
 10
7.8963068523
 20
10.3116580826
 30
0.0
 10
7.9635792307
 20
10.3443318162
 30
0.0
 10
7.997748356
 20
10.3594325357
 30
0.0
  0
SPLINE
  5
468
100
AcDbEntity
  8
0
100
AcDbSpline
 62
9
  6
CONTINUOUS
 70
0
 71
3
 72
27
 73
23
 74
0
 42
0.0000001
 43
0.0000001
 44
0.0000000001
 40
0.0
 40
0.0
 40
0.0
 40
0.0
 40
0.0625127263
 40
0.1250200616
 40
0.187511954
 40
0.2499921137
 40
0.312459041
 40
0.3749166772
 40
0.4373711738
 40
0.4686026939
 40
0.4998356283
 40
0.5623002855
 40
0.6247760901
 40
0.6560218132
 40
0.6872703633
 40
0.7185238183
 40
0.7497824024
 40
0.7810452438
 40
0.8123127521
 40
0.8748608131
 40
0.9374266654
 40
1.0
 40
1.0
 40
1.0
 40
1.0
 10
7.997748356
 20
10.3594325357
 30
0.0
 10
7.9640546538
 20
10.3434343784
 30
0.0
 10
7.8975698897
 20
10.3095016219
 30
0.0
 10
7.8010153061
 20
10.2528550083
 30
0.0
 10
7.7081193763
 20
10.1904053295
 30
0.0
 10
7.6194175051
 20
10.1221626395
 30
0.0
 10
7.5353494612
 20
10.0483175765
 30
0.0
 10
7.4561448555
 20
9.9693115658
 30
0.0
 10
7.3942367058
 20
9.8996131471
 30
0.0
 10
7.3471797227
 20
9.8418011635
 30
0.0
 10
7.3017538054
 20
9.7826911556
 30
0.0
 10
7.2480683987
 20
9.7064646619
 30
0.0
 10
7.1986925239
 20
9.6273736845
 30
0.0
 10
7.1617056115
 20
9.5626216083
 30
0.0
 10
7.1351917294
 20
9.5133623134
 30
0.0
 10
7.1098703533
 20
9.4634720538
 30
0.0
 10
7.0856916543
 20
9.4130090094
 30
0.0
 10
7.0626624645
 20
9.3620013844
 30
0.0
 10
7.0335622841
 20
9.2932728031
 30
0.0
 10
7.0003081127
 20
9.206052029
 30
0.0
 10
6.965343874
 20
9.0996227014
 30
0.0
 10
6.9457056692
 20
9.0275408275
 30
0.0
 10
6.9369037028
 20
8.9912581739
 30
0.0
  0
LINE
  5
469
100
AcDbEntity
  8
0
100
AcDbLine
 62
9
  6
CONTINUOUS
 10
14.1723433364
 20
7.8684292523
 11
14.1674253073
 21
7.8685717386
  0
LINE
  5
46A
100
AcDbEntity
  8
0
100
AcDbLine
 62
9
  6
CONTINUOUS
 10
14.487646285
 20
7.3684278326
 11
14.4849269128
 21
7.3737627138
  0
SPLINE
  5
46B
100
AcDbEntity
  8
0
100
AcDbSpline
 62
9
  6
CONTINUOUS
 70
0
 71
3
 72
16
 73
12
 74
0
 42
0.0000001
 43
0.0000001
 44
0.0000000001
 40
0.0
 40
0.0
 40
0.0
 40
0.0
 40
0.2441959672
 40
0.3680507268
 40
0.4929548672
 40
0.6187851986
 40
0.7453696178
 40
0.8088879766
 40
0.8725179964
 40
0.936232999
 40
1.0
 40
1.0
 40
1.0
 40
1.0
 10
14.45065606
 20
7.4423989622
 30
0.0
 10
14.3741431378
 20
7.5986358183
 30
0.0
 10
14.2710461053
 20
7.8404073273
 30
0.0
 10
14.1592566534
 20
8.1734418786
 30
0.0
 10
14.0880170678
 20
8.4307629622
 30
0.0
 10
14.0304140696
 20
8.6934508843
 30
0.0
 10
13.9942410535
 20
8.9157222742
 30
0.0
 10
13.9725856605
 20
9.095199445
 30
0.0
 10
13.9600389204
 20
9.2306093387
 30
0.0
 10
13.95116854
 20
9.3664844587
 30
0.0
 10
13.9477343326
 20
9.4572522556
 30
0.0
 10
13.9466681769
 20
9.5026675715
 30
0.0
  0
SPLINE
  5
46C
100
AcDbEntity
  8
0
100
AcDbSpline
 62
9
  6
CONTINUOUS
 70
0
 71
3
 72
27
 73
23
 74
0
 42
0.0000001
 43
0.0000001
 44
0.0000000001
 40
0.0
 40
0.0
 40
0.0
 40
0.0
 40
0.1820973718
 40
0.3679977329
 40
0.4590942859
 40
0.5469824227
 40
0.630090381
 40
0.706846579
 40
0.775843517
 40
0.8363237004
 40
0.887691146
 40
0.9097716481
 40
0.9293509896
 40
0.946379838
 40
0.9609069482
 40
0.9730057815
 40
0.9827506693
 40
0.9902178021
 40
0.9954881598
 40
0.9986597691
 40
0.9995171556
 40
1.0
 40
1.0
 40
1.0
 40
1.0
 10
13.9467254346
 20
9.5026688918
 30
0.0
 10
13.9538890392
 20
9.5028340423
 30
0.0
 10
13.9683664468
 20
9.5031425469
 30
0.0
 10
13.9864289587
 20
9.503462939
 30
0.0
 10
14.0007856635
 20
9.5036695471
 30
0.0
 10
14.0110982435
 20
9.5037933186
 30
0.0
 10
14.0208468535
 20
9.5038842386
 30
0.0
 10
14.029852356
 20
9.5039396855
 30
0.0
 10
14.0379676202
 20
9.5039569193
 30
0.0
 10
14.045083833
 20
9.5039374575
 30
0.0
 10
14.050353737
 20
9.5038909415
 30
0.0
 10
14.0540139179
 20
9.5038337441
 30
0.0
 10
14.0563228065
 20
9.5037850682
 30
0.0
 10
14.0583342176
 20
9.5037285619
 30
0.0
 10
14.0600508306
 20
9.5036649579
 30
0.0
 10
14.0614804858
 20
9.5035948585
 30
0.0
 10
14.0626310916
 20
9.5035195111
 30
0.0
 10
14.0635132139
 20
9.5034389931
 30
0.0
 10
14.06413201
 20
9.5033577771
 30
0.0
 10
14.064493926
 20
9.5032781883
 30
0.0
 10
14.0646556289
 20
9.5032106372
 30
0.0
 10
14.0646944998
 20
9.5031640217
 30
0.0
 10
14.064694186
 20
9.5031450244
 30
0.0
  0
LINE
  5
46D
100
AcDbEntity
  8
0
100
AcDbLine
 62
9
  6
CONTINUOUS
 10
14.2218310566
 20
7.9264446098
 11
14.221246155
 21
7.9281658492
  0
SPLINE
  5
46E
100
AcDbEntity
  8
0
100
AcDbSpline
 62
9
  6
CONTINUOUS
 70
0
 71
3
 72
13
 73
9
 74
0
 42
0.0000001
 43
0.0000001
 44
0.0000000001
 40
0.0
 40
0.0
 40
0.0
 40
0.0
 40
0.2463837458
 40
0.3706832872
 40
0.4956290761
 40
0.6211306846
 40
0.7470985861
 40
1.0
 40
1.0
 40
1.0
 40
1.0
 10
14.221246155
 20
7.9281658492
 30
0.0
 10
14.1830708331
 20
8.040571838
 30
0.0
 10
14.1313805398
 20
8.2117203767
 30
0.0
 10
14.0741374564
 20
8.4435927694
 30
0.0
 10
14.0368895363
 20
8.6203066269
 30
0.0
 10
14.0055846255
 20
8.7989861353
 30
0.0
 10
13.971914692
 20
9.0396889377
 30
0.0
 10
13.9559764379
 20
9.2217293274
 30
0.0
 10
13.9495434579
 20
9.3434113913
 30
0.0
  0
SPLINE
  5
46F
100
AcDbEntity
  8
0
100
AcDbSpline
 62
9
  6
CONTINUOUS
 70
0
 71
3
 72
9
 73
5
 74
0
 42
0.0000001
 43
0.0000001
 44
0.0000000001
 40
0.0
 40
0.0
 40
0.0
 40
0.0
 40
0.4998718803
 40
1.0
 40
1.0
 40
1.0
 40
1.0
 10
13.9495436959
 20
9.3434113917
 30
0.0
 10
13.9489177501
 20
9.3572207154
 30
0.0
 10
13.9437452321
 20
9.3847537486
 30
0.0
 10
13.9319627418
 20
9.4101287162
 30
0.0
 10
13.9245630536
 20
9.421813313
 30
0.0
  0
SPLINE
  5
470
100
AcDbEntity
  8
0
100
AcDbSpline
 62
9
  6
CONTINUOUS
 70
0
 71
3
 72
25
 73
21
 74
0
 42
0.0000001
 43
0.0000001
 44
0.0000000001
 40
0.0
 40
0.0
 40
0.0
 40
0.0
 40
0.1815219412
 40
0.3667402435
 40
0.5450123622
 40
0.6277892412
 40
0.7042531864
 40
0.7730149034
 40
0.8333298733
 40
0.8846150289
 40
0.9262943141
 40
0.9433820767
 40
0.9580080989
 40
0.9702532677
 40
0.9802044103
 40
0.9879605355
 40
0.9936496109
 40
0.9957830533
 40
0.9974973693
 40
1.0
 40
1.0
 40
1.0
 40
1.0
 10
13.7548632728
 20
9.3065478214
 30
0.0
 10
13.7620051629
 20
9.3069772212
 30
0.0
 10
13.7764385828
 20
9.3077763004
 30
0.0
 10
13.7978986599
 20
9.308753841
 30
0.0
 10
13.8154791669
 20
9.3093454907
 30
0.0
 10
13.8287791414
 20
9.3096463485
 30
0.0
 10
13.8377652644
 20
9.3097716589
 30
0.0
 10
13.8458669069
 20
9.3097954269
 30
0.0
 10
13.8529758896
 20
9.3097226771
 30
0.0
 10
13.8590155261
 20
9.309559259
 30
0.0
 10
13.8633487344
 20
9.3093441359
 30
0.0
 10
13.8662327784
 20
9.3091162971
 30
0.0
 10
13.8679564977
 20
9.3089380721
 30
0.0
 10
13.8693949458
 20
9.3087429658
 30
0.0
 10
13.8705575497
 20
9.3085336327
 30
0.0
 10
13.8714528773
 20
9.3083104774
 30
0.0
 10
13.8720334147
 20
9.308103309
 30
0.0
 10
13.8723628355
 20
9.3079178576
 30
0.0
 10
13.8725595741
 20
9.3077659515
 30
0.0
 10
13.8726561883
 20
9.3076086648
 30
0.0
 10
13.8726604955
 20
9.3075101163
 30
0.0
  0
LINE
  5
471
100
AcDbEntity
  8
0
100
AcDbLine
 62
9
  6
CONTINUOUS
 10
13.7972608804
 20
9.3833973479
 11
13.8002832281
 21
9.3806354425
  0
SPLINE
  5
472
100
AcDbEntity
  8
0
100
AcDbSpline
 62
9
  6
CONTINUOUS
 70
0
 71
3
 72
13
 73
9
 74
0
 42
0.0000001
 43
0.0000001
 44
0.0000000001
 40
0.0
 40
0.0
 40
0.0
 40
0.0
 40
0.2637290991
 40
0.5285445701
 40
0.6562410912
 40
0.778579052
 40
0.8940809348
 40
1.0
 40
1.0
 40
1.0
 40
1.0
 10
13.8002832281
 20
9.3806354425
 30
0.0
 10
13.8052610649
 20
9.3760866867
 30
0.0
 10
13.8152503489
 20
9.3669845891
 30
0.0
 10
13.8274571896
 20
9.3554703095
 30
0.0
 10
13.8368754076
 20
9.3462728865
 30
0.0
 10
13.8434758463
 20
9.33965519
 30
0.0
 10
13.849568715
 20
9.3333197909
 30
0.0
 10
13.8534449547
 20
9.329193488
 30
0.0
 10
13.8553098895
 20
9.327229742
 30
0.0
  0
LINE
  5
473
100
AcDbEntity
  8
0
100
AcDbLine
 62
9
  6
CONTINUOUS
 10
13.8553098895
 20
9.327229742
 11
13.8593928501
 21
9.3229925049
  0
LINE
  5
474
100
AcDbEntity
  8
0
100
AcDbLine
 62
9
  6
CONTINUOUS
 10
13.8593928501
 20
9.3229925049
 11
13.8687778409
 21
9.3135280041
  0
SPLINE
  5
475
100
AcDbEntity
  8
0
100
AcDbSpline
 62
9
  6
CONTINUOUS
 70
0
 71
3
 72
14
 73
10
 74
0
 42
0.0000001
 43
0.0000001
 44
0.0000000001
 40
0.0
 40
0.0
 40
0.0
 40
0.0
 40
0.3693561245
 40
0.5290063505
 40
0.6694306114
 40
0.7886665629
 40
0.8847296756
 40
0.9556928857
 40
1.0
 40
1.0
 40
1.0
 40
1.0
 10
13.8687778409
 20
9.3135280041
 30
0.0
 10
13.869360413
 20
9.3128584662
 30
0.0
 10
13.8701582742
 20
9.3118663808
 30
0.0
 10
13.8710851229
 20
9.3105513989
 30
0.0
 10
13.871631103
 20
9.3097040458
 30
0.0
 10
13.8720607539
 20
9.3089652259
 30
0.0
 10
13.8723761577
 20
9.3083523015
 30
0.0
 10
13.8725717139
 20
9.3078854865
 30
0.0
 10
13.8726541574
 20
9.3076164269
 30
0.0
 10
13.8726598512
 20
9.3075101158
 30
0.0
  0
SPLINE
  5
476
100
AcDbEntity
  8
0
100
AcDbSpline
 62
7
  6
CONTINUOUS
 70
0
 71
3
 72
38
 73
34
 74
0
 42
0.0000001
 43
0.0000001
 44
0.0000000001
 40
0.0
 40
0.0
 40
0.0
 40
0.0
 40
0.0995711344
 40
0.1489167076
 40
0.1977948311
 40
0.2937159121
 40
0.3865002017
 40
0.4753200523
 40
0.5593642756
 40
0.6378788434
 40
0.710159501
 40
0.7755511493
 40
0.8334676926
 40
0.8594560242
 40
0.883386698
 40
0.9052030019
 40
0.9248566073
 40
0.9423053689
 40
0.9575074727
 40
0.9704280467
 40
0.9760245693
 40
0.9810409937
 40
0.9854741288
 40
0.9893208089
 40
0.9925787621
 40
0.995246846
 40
0.9973239946
 40
0.998140638
 40
0.9988091535
 40
0.9993294153
 40
0.9997013078
 40
0.9999247521
 40
1.0
 40
1.0
 40
1.0
 40
1.0
 10
12.8810786668
 20
9.3065626228
 30
0.0
 10
12.8809654899
 20
9.3102743132
 30
0.0
 10
12.8808147389
 20
9.3158260897
 30
0.0
 10
12.8806813852
 20
9.3232015267
 30
0.0
 10
12.8806073382
 20
9.3304416589
 30
0.0
 10
12.8805824993
 20
9.3393021664
 30
0.0
 10
12.8804426733
 20
9.3496514299
 30
0.0
 10
12.880256161
 20
9.3595567853
 30
0.0
 10
12.8801169266
 20
9.368930707
 30
0.0
 10
12.8799831709
 20
9.3776878075
 30
0.0
 10
12.8798527936
 20
9.3857492487
 30
0.0
 10
12.8797350984
 20
9.3930426081
 30
0.0
 10
12.8796456905
 20
9.3986097692
 30
0.0
 10
12.8795809377
 20
9.4026308771
 30
0.0
 10
12.8795372763
 20
9.4053058244
 30
0.0
 10
12.879496369
 20
9.4077445371
 30
0.0
 10
12.8794584097
 20
9.4099415278
 30
0.0
 10
12.8794239672
 20
9.4118918717
 30
0.0
 10
12.8793935931
 20
9.413591146
 30
0.0
 10
12.8793709445
 20
9.4148484689
 30
0.0
 10
12.8793548221
 20
9.4157259826
 30
0.0
 10
12.879344323
 20
9.4162870133
 30
0.0
 10
12.8793348087
 20
9.4167827967
 30
0.0
 10
12.87932624
 20
9.4172129918
 30
0.0
 10
12.8793186493
 20
9.4175774074
 30
0.0
 10
12.8793119363
 20
9.4178757209
 30
0.0
 10
12.8793070321
 20
9.4180832776
 30
0.0
 10
12.8793031935
 20
9.4182157872
 30
0.0
 10
12.8793014002
 20
9.4182911612
 30
0.0
 10
12.8792982537
 20
9.4183477369
 30
0.0
 10
12.879299182
 20
9.4183929185
 30
0.0
 10
12.8792931883
 20
9.4184115439
 30
0.0
 10
12.879297013
 20
9.4184292511
 30
0.0
 10
12.8792942067
 20
9.4184292459
 30
0.0
  0
SPLINE
  5
477
100
AcDbEntity
  8
0
100
AcDbSpline
 62
9
  6
CONTINUOUS
 70
0
 71
3
 72
24
 73
20
 74
0
 42
0.0000001
 43
0.0000001
 44
0.0000000001
 40
0.0
 40
0.0
 40
0.0
 40
0.0
 40
0.1799331536
 40
0.3624026786
 40
0.5378796971
 40
0.6196443357
 40
0.6955679076
 40
0.764339088
 40
0.8251681669
 40
0.8774687931
 40
0.9206552352
 40
0.9386513091
 40
0.9542233547
 40
0.9674276237
 40
0.9783225113
 40
0.9869666522
 40
0.9934192297
 40
0.9977410119
 40
1.0
 40
1.0
 40
1.0
 40
1.0
 10
12.8731945996
 20
9.3064268951
 30
0.0
 10
12.8730990802
 20
9.3131362136
 30
0.0
 10
12.8728968894
 20
9.3266492888
 30
0.0
 10
12.8725662426
 20
9.3467049757
 30
0.0
 10
12.8722654947
 20
9.3630997721
 30
0.0
 10
12.8720160874
 20
9.3755215416
 30
0.0
 10
12.8718351647
 20
9.3839646438
 30
0.0
 10
12.8716579251
 20
9.3916269142
 30
0.0
 10
12.8714871571
 20
9.3984081498
 30
0.0
 10
12.8713253673
 20
9.4042351904
 30
0.0
 10
12.8711934784
 20
9.4084651256
 30
0.0
 10
12.8710921059
 20
9.4113256286
 30
0.0
 10
12.8710242153
 20
9.4130685469
 30
0.0
 10
12.8709597677
 20
9.4145465015
 30
0.0
 10
12.8708995319
 20
9.4157662164
 30
0.0
 10
12.8708419787
 20
9.4167334306
 30
0.0
 10
12.8707919765
 20
9.4174567351
 30
0.0
 10
12.8707405426
 20
9.4179385097
 30
0.0
 10
12.8707106685
 20
9.418184328
 30
0.0
 10
12.8706839785
 20
9.4182642294
 30
0.0
  0
SPLINE
  5
478
100
AcDbEntity
  8
0
100
AcDbSpline
 62
9
  6
CONTINUOUS
 70
0
 71
3
 72
9
 73
5
 74
0
 42
0.0000001
 43
0.0000001
 44
0.0000000001
 40
0.0
 40
0.0
 40
0.0
 40
0.0
 40
0.3878827207
 40
1.0
 40
1.0
 40
1.0
 40
1.0
 10
12.8706839785
 20
9.4182642294
 30
0.0
 10
12.8706819827
 20
9.4182702042
 30
0.0
 10
12.8706766111
 20
9.4182839525
 30
0.0
 10
12.8706675837
 20
9.4183045141
 30
0.0
 10
12.8706576442
 20
9.4183043532
 30
0.0
  0
SPLINE
  5
479
100
AcDbEntity
  8
0
100
AcDbSpline
 62
9
  6
CONTINUOUS
 70
0
 71
3
 72
32
 73
28
 74
0
 42
0.0000001
 43
0.0000001
 44
0.0000000001
 40
0.0
 40
0.0
 40
0.0
 40
0.0
 40
0.0624780947
 40
0.1249639613
 40
0.1874529855
 40
0.249944414
 40
0.2811942881
 40
0.3124443457
 40
0.3749332887
 40
0.4061815841
 40
0.4374282081
 40
0.4686744406
 40
0.499920378
 40
0.5624016202
 40
0.6248860416
 40
0.6873742864
 40
0.718625725
 40
0.7498799266
 40
0.7811371665
 40
0.7967671741
 40
0.8123978221
 40
0.8436622383
 40
0.8749280561
 40
0.9061960395
 40
0.9374656205
 40
0.9687337814
 40
1.0
 40
1.0
 40
1.0
 40
1.0
 10
7.9977485804
 20
10.3594325793
 30
0.0
 10
8.0371031226
 20
10.3778389534
 30
0.0
 10
8.1171282021
 20
10.4119217508
 30
0.0
 10
8.2403881548
 20
10.4546271114
 30
0.0
 10
8.3662380296
 20
10.4889811016
 30
0.0
 10
8.4727616547
 20
10.510732365
 30
0.0
 10
8.5586771032
 20
10.5239776145
 30
0.0
 10
8.6449732343
 20
10.534429576
 30
0.0
 10
8.7317567053
 20
10.540526459
 30
0.0
 10
8.8186716561
 20
10.541965496
 30
0.0
 10
8.8838598945
 20
10.5406499922
 30
0.0
 10
8.9489532767
 20
10.5369342041
 30
0.0
 10
9.0354964641
 20
10.5288539129
 30
0.0
 10
9.1430552953
 20
10.5129399202
 30
0.0
 10
9.2703922148
 20
10.4845482318
 30
0.0
 10
9.3744949375
 20
10.4531205375
 30
0.0
 10
9.4562203667
 20
10.4234809202
 30
0.0
 10
9.5166806998
 20
10.3990339315
 30
0.0
 10
9.5662997311
 20
10.3768536245
 30
0.0
 10
9.6054984023
 20
10.3580488801
 30
0.0
 10
9.6443615765
 20
10.3385491306
 30
0.0
 10
9.6923441761
 20
10.313000035
 30
0.0
 10
9.7490789431
 20
10.2808085906
 30
0.0
 10
9.8051769256
 20
10.2475189272
 30
0.0
 10
9.8609040963
 20
10.2136129127
 30
0.0
 10
9.9164945177
 20
10.1794865681
 30
0.0
 10
9.9536024832
 20
10.1568150209
 30
0.0
 10
9.9722035251
 20
10.1455581946
 30
0.0
  0
SPLINE
  5
47A
100
AcDbEntity
  8
0
100
AcDbSpline
 62
9
  6
CONTINUOUS
 70
0
 71
3
 72
31
 73
27
 74
0
 42
0.0000001
 43
0.0000001
 44
0.0000000001
 40
0.0
 40
0.0
 40
0.0
 40
0.0
 40
0.0312898977
 40
0.0469337208
 40
0.0625749105
 40
0.0782137793
 40
0.0938513112
 40
0.1251218604
 40
0.1563835042
 40
0.1876336343
 40
0.2188736292
 40
0.2501057692
 40
0.2813323061
 40
0.3125514932
 40
0.374978984
 40
0.4374029806
 40
0.4998317244
 40
0.562274772
 40
0.593504016
 40
0.6247386378
 40
0.6872239374
 40
0.7497363577
 40
0.8122748727
 40
0.8748367089
 40
0.9374170522
 40
1.0
 40
1.0
 40
1.0
 40
1.0
 10
9.9722035251
 20
10.1455581946
 30
0.0
 10
9.9990904268
 20
10.1292507659
 30
0.0
 10
10.0396370914
 20
10.1051424874
 30
0.0
 10
10.0942933811
 20
10.0740356819
 30
0.0
 10
10.1356151998
 20
10.0513081929
 30
0.0
 10
10.1773072963
 20
10.0292797647
 30
0.0
 10
10.2333939058
 20
10.0008926347
 30
0.0
 10
10.3043599819
 20
9.9671638655
 30
0.0
 10
10.3906763571
 20
9.9292843341
 30
0.0
 10
10.4780011614
 20
9.8938738317
 30
0.0
 10
10.5662423631
 20
9.8609001727
 30
0.0
 10
10.6552869794
 20
9.8302410893
 30
0.0
 10
10.7449898511
 20
9.8016410273
 30
0.0
 10
10.8653057942
 20
9.765934458
 30
0.0
 10
11.016809473
 20
9.7252436047
 30
0.0
 10
11.1997188598
 20
9.6808114525
 30
0.0
 10
11.3836765728
 20
9.640849892
 30
0.0
 10
11.5377651605
 20
9.611305147
 30
0.0
 10
11.6614619478
 20
9.589918887
 30
0.0
 10
11.7854530892
 20
9.5700414287
 30
0.0
 10
11.940946144
 20
9.5481262394
 30
0.0
 10
12.1282309274
 20
9.5268143596
 30
0.0
 10
12.3161116628
 20
9.5106798369
 30
0.0
 10
12.5044454937
 20
9.4998963737
 30
0.0
 10
12.693057956
 20
9.4946153047
 30
0.0
 10
12.8188669031
 20
9.494833252
 30
0.0
 10
12.8817527882
 20
9.4958891019
 30
0.0
  0
LINE
  5
47B
100
AcDbEntity
  8
0
100
AcDbLine
 62
9
  6
CONTINUOUS
 10
12.8809270816
 20
9.4567819323
 11
12.8807681225
 21
9.4502099451
  0
SPLINE
  5
47C
100
AcDbEntity
  8
0
100
AcDbSpline
 62
9
  6
CONTINUOUS
 70
0
 71
3
 72
22
 73
18
 74
0
 42
0.0000001
 43
0.0000001
 44
0.0000000001
 40
0.0
 40
0.0
 40
0.0
 40
0.0
 40
0.2206439735
 40
0.4184093152
 40
0.5905161125
 40
0.666166833
 40
0.7345762758
 40
0.7955282647
 40
0.8488074147
 40
0.8942006438
 40
0.9315502572
 40
0.9607844605
 40
0.9818516099
 40
0.9893191632
 40
0.9947565061
 40
0.9982196318
 40
1.0
 40
1.0
 40
1.0
 40
1.0
 10
12.8807681225
 20
9.4502099451
 30
0.0
 10
12.8807094401
 20
9.4478675165
 30
0.0
 10
12.8805936457
 20
9.4434256556
 30
0.0
 10
12.8804118393
 20
9.4371572031
 30
0.0
 10
12.8802552149
 20
9.43242847
 30
0.0
 10
12.8801276275
 20
9.4290733041
 30
0.0
 10
12.8800362352
 20
9.4268980546
 30
0.0
 10
12.8799450224
 20
9.424960617
 30
0.0
 10
12.8798540406
 20
9.4232678643
 30
0.0
 10
12.8797634144
 20
9.4218262442
 30
0.0
 10
12.8796732114
 20
9.4206402714
 30
0.0
 10
12.8795844519
 20
9.4197140998
 30
0.0
 10
12.8795051992
 20
9.4191045031
 30
0.0
 10
12.8794396633
 20
9.4187508982
 30
0.0
 10
12.879393187
 20
9.4185807419
 30
0.0
 10
12.8793570905
 20
9.418478075
 30
0.0
 10
12.8793127812
 20
9.4184291123
 30
0.0
 10
12.8792938747
 20
9.4184292467
 30
0.0
  0
SPLINE
  5
47D
100
AcDbEntity
  8
0
100
AcDbSpline
 62
9
  6
CONTINUOUS
 70
0
 71
3
 72
16
 73
12
 74
0
 42
0.0000001
 43
0.0000001
 44
0.0000000001
 40
0.0
 40
0.0
 40
0.0
 40
0.0
 40
0.1251418944
 40
0.2502131504
 40
0.3752223293
 40
0.5001847527
 40
0.6251242891
 40
0.7500505583
 40
0.8749863932
 40
0.9374857749
 40
1.0
 40
1.0
 40
1.0
 40
1.0
 10
7.0472827165
 20
9.0907735985
 30
0.0
 10
7.0613947921
 20
9.1377140732
 30
0.0
 10
7.0928168254
 20
9.2306360903
 30
0.0
 10
7.1490580381
 20
9.3665286321
 30
0.0
 10
7.2142534582
 20
9.4982917149
 30
0.0
 10
7.2882511822
 20
9.6252696747
 30
0.0
 10
7.3712330375
 20
9.7465447965
 30
0.0
 10
7.4630607123
 20
9.861263667
 30
0.0
 10
7.5470624775
 20
9.9504318204
 30
0.0
 10
7.6186704184
 20
10.0172280472
 30
0.0
 10
7.6559241731
 20
10.049035548
 30
0.0
 10
7.6748934459
 20
10.0645183741
 30
0.0
  0
LINE
  5
47E
100
AcDbEntity
  8
0
100
AcDbLine
 62
9
  6
CONTINUOUS
 10
7.6748934459
 20
10.0645183741
 11
7.676768445
 21
10.0660464782
  0
SPLINE
  5
47F
100
AcDbEntity
  8
0
100
AcDbSpline
 62
9
  6
CONTINUOUS
 70
0
 71
3
 72
20
 73
16
 74
0
 42
0.0000001
 43
0.0000001
 44
0.0000000001
 40
0.0
 40
0.0
 40
0.0
 40
0.0
 40
0.1248907875
 40
0.2497689444
 40
0.374663332
 40
0.4371361605
 40
0.4996217692
 40
0.5621213607
 40
0.6246348125
 40
0.6871632821
 40
0.7497044737
 40
0.8122582464
 40
0.8748264851
 40
0.9374085571
 40
1.0
 40
1.0
 40
1.0
 40
1.0
 10
7.6748766272
 20
10.0645344939
 30
0.0
 10
7.6369836527
 20
10.0335955423
 30
0.0
 10
7.5639412189
 20
9.9682826638
 30
0.0
 10
7.463219305
 20
9.8613347798
 30
0.0
 10
7.3866988561
 20
9.7657508609
 30
0.0
 10
7.3299314867
 20
9.6860094988
 30
0.0
 10
7.2895561971
 20
9.6246595016
 30
0.0
 10
7.2514046718
 20
9.5618859699
 30
0.0
 10
7.2154828427
 20
9.4977915789
 30
0.0
 10
7.1817708382
 20
9.4324906645
 30
0.0
 10
7.1502499295
 20
9.3660871008
 30
0.0
 10
7.120977263
 20
9.2986447802
 30
0.0
 10
7.09400375
 20
9.2302333956
 30
0.0
 10
7.069291765
 20
9.160959131
 30
0.0
 10
7.0543411007
 20
9.1142524963
 30
0.0
 10
7.0472764013
 20
9.090775574
 30
0.0
  0
SPLINE
  5
480
100
AcDbEntity
  8
0
100
AcDbSpline
 62
9
  6
CONTINUOUS
 70
0
 71
3
 72
75
 73
71
 74
0
 42
0.0000001
 43
0.0000001
 44
0.0000000001
 40
0.0
 40
0.0
 40
0.0
 40
0.0
 40
0.0156718268
 40
0.0235076271
 40
0.0313423029
 40
0.0391749425
 40
0.0470047637
 40
0.0548310065
 40
0.0626533678
 40
0.0782850903
 40
0.093897876
 40
0.109495021
 40
0.1250844235
 40
0.1328795036
 40
0.1406778645
 40
0.148477673
 40
0.1562779359
 40
0.1601792198
 40
0.1640817299
 40
0.1718905478
 40
0.1797048862
 40
0.1875222531
 40
0.2031548011
 40
0.2187947389
 40
0.2344401869
 40
0.2500935505
 40
0.2813813722
 40
0.2970340226
 40
0.3126848293
 40
0.3283339102
 40
0.3439837743
 40
0.3596375055
 40
0.3674693441
 40
0.3753041583
 40
0.3831409069
 40
0.3909784164
 40
0.3988155642
 40
0.406653098
 40
0.4144930429
 40
0.4223346621
 40
0.4380111157
 40
0.4536850692
 40
0.461522079
 40
0.4693579959
 40
0.4771932529
 40
0.4850281212
 40
0.4928627247
 40
0.5006972458
 40
0.5085317302
 40
0.5163660691
 40
0.5320338202
 40
0.5476999376
 40
0.5633640985
 40
0.5946841984
 40
0.6259893907
 40
0.657271999
 40
0.6729016759
 40
0.6885211604
 40
0.7197237537
 40
0.7353058044
 40
0.7508746969
 40
0.7819793578
 40
0.8130569499
 40
0.8441249121
 40
0.8752047228
 40
0.9063184713
 40
0.9374852369
 40
0.9530918478
 40
0.9687153954
 40
1.0
 40
1.0
 40
1.0
 40
1.0
 10
7.8175797905
 20
8.7549606684
 30
0.0
 10
7.8247248507
 20
8.7830415542
 30
0.0
 10
7.8355413735
 20
8.8251382977
 30
0.0
 10
7.8505333123
 20
8.8811148061
 30
0.0
 10
7.8621198937
 20
8.9229971147
 30
0.0
 10
7.8740748539
 20
8.9647643357
 30
0.0
 10
7.8864207052
 20
9.0064015306
 30
0.0
 10
7.8992345473
 20
9.0478778519
 30
0.0
 10
7.9170894046
 20
9.1028885492
 30
0.0
 10
7.9411224417
 20
9.1710230961
 30
0.0
 10
7.973437756
 20
9.2514103657
 30
0.0
 10
8.0100224845
 20
9.3298768436
 30
0.0
 10
8.0447710869
 20
9.3931019493
 30
0.0
 10
8.0755126207
 20
9.4418938033
 30
0.0
 10
8.1001342791
 20
9.4774715116
 30
0.0
 10
8.1263728126
 20
9.51188721
 30
0.0
 10
8.1496227131
 20
9.5394680429
 30
0.0
 10
8.1690684023
 20
9.5607842546
 30
0.0
 10
8.1890869724
 20
9.5815853145
 30
0.0
 10
8.2151296897
 20
9.6066110867
 30
0.0
 10
8.2478570896
 20
9.6350492471
 30
0.0
 10
8.2932801002
 20
9.6708297683
 30
0.0
 10
8.3531228912
 20
9.7115463638
 30
0.0
 10
8.4288883574
 20
9.7539895114
 30
0.0
 10
8.5078875285
 20
9.790149739
 30
0.0
 10
8.6165725227
 20
9.8301070644
 30
0.0
 10
8.7293773993
 20
9.8580696106
 30
0.0
 10
8.8441460116
 20
9.8735099218
 30
0.0
 10
8.930882574
 20
9.8787474377
 30
0.0
 10
9.0177602212
 20
9.8775135586
 30
0.0
 10
9.1043020041
 20
9.8697081396
 30
0.0
 10
9.1757345969
 20
9.8576893304
 30
0.0
 10
9.2321903706
 20
9.8447454455
 30
0.0
 10
9.2741434405
 20
9.8333729877
 30
0.0
 10
9.3156279256
 20
9.820362394
 30
0.0
 10
9.3565761009
 20
9.8057376034
 30
0.0
 10
9.3969171754
 20
9.7895089958
 30
0.0
 10
9.4366063016
 20
9.7717383956
 30
0.0
 10
9.4756708358
 20
9.7526198549
 30
0.0
 10
9.5269544932
 20
9.7255594038
 30
0.0
 10
9.5896721642
 20
9.6892077233
 30
0.0
 10
9.6509255682
 20
9.6504902619
 30
0.0
 10
9.699357231
 20
9.618655182
 30
0.0
 10
9.7354780213
 20
9.5944793981
 30
0.0
 10
9.771469666
 20
9.5701194589
 30
0.0
 10
9.807411945
 20
9.5456911825
 30
0.0
 10
9.8433817218
 20
9.5213056999
 30
0.0
 10
9.8794652596
 20
9.4970898796
 30
0.0
 10
9.9156815984
 20
9.4730739895
 30
0.0
 10
9.9641379459
 20
9.4413116884
 30
0.0
 10
10.0250233811
 20
9.4020999069
 30
0.0
 10
10.0985816375
 20
9.3558379523
 30
0.0
 10
10.1972983623
 20
9.2952325554
 30
0.0
 10
10.3218880677
 20
9.221519945
 30
0.0
 10
10.4732903937
 20
9.1364994358
 30
0.0
 10
10.6009984605
 20
9.0686128004
 30
0.0
 10
10.7040113855
 20
9.0161181876
 30
0.0
 10
10.8074828583
 20
8.9648665814
 30
0.0
 10
10.911758546
 20
8.9154505597
 30
0.0
 10
11.0168448915
 20
8.8680352474
 30
0.0
 10
11.1223686433
 20
8.8220527004
 30
0.0
 10
11.2553186211
 20
8.767321587
 30
0.0
 10
11.4166553222
 20
8.7064500009
 30
0.0
 10
11.5798894221
 20
8.6509845568
 30
0.0
 10
11.7451478059
 20
8.6016143039
 30
0.0
 10
11.9124546092
 20
8.5589411196
 30
0.0
 10
12.0534758251
 20
8.5294998557
 30
0.0
 10
12.1672022755
 20
8.5100523356
 30
0.0
 10
12.2816004903
 20
8.4934816415
 30
0.0
 10
12.3679090701
 20
8.4844207365
 30
0.0
 10
12.4255783597
 20
8.4799526993
 30
0.0
  0
SPLINE
  5
481
100
AcDbEntity
  8
0
100
AcDbSpline
 62
9
  6
CONTINUOUS
 70
0
 71
3
 72
11
 73
7
 74
0
 42
0.0000001
 43
0.0000001
 44
0.0000000001
 40
0.0
 40
0.0
 40
0.0
 40
0.0
 40
0.2398876271
 40
0.4889824086
 40
0.7433195793
 40
1.0
 40
1.0
 40
1.0
 40
1.0
 10
12.5321286538
 20
8.4605995887
 30
0.0
 10
12.5238461281
 20
8.4631826108
 30
0.0
 10
12.5067615916
 20
8.4678131842
 30
0.0
 10
12.4804217524
 20
8.4732568908
 30
0.0
 10
12.4532303526
 20
8.477382521
 30
0.0
 10
12.4348335548
 20
8.4792413417
 30
0.0
 10
12.4255775097
 20
8.4799521526
 30
0.0
  0
ENDSEC
  0
SECTION
  2
OBJECTS
  0
DICTIONARY
  5
C
100
AcDbDictionary
280
0
281
1
  3
ACAD_GROUP
350
D
  3
ACAD_MLINESTYLE
350
17
  3
ACAD_LAYOUT
350
1A
  3
ACAD_PLOTSETTINGS
350
19
  3
ACAD_PLOTSTYLENAME
350
E
  0
DICTIONARY
  5
D
102
{ACAD_REACTORS
330
C
102
}
100
AcDbDictionary
280
0
281
1
  0
ACDBDICTIONARYWDFLT
  5
E
102
{ACAD_REACTORS
330
C
102
}
100
AcDbDictionary
281
1
  3
Normal
350
F
100
AcDbDictionaryWithDefault
340
F
  0
DICTIONARY
  5
17
102
{ACAD_REACTORS
330
C
102
}
100
AcDbDictionary
280
0
281
1
  3
Standard
350
18
  0
DICTIONARY
  5
19
102
{ACAD_REACTORS
330
C
102
}
100
AcDbDictionary
281
1
  0
DICTIONARY
  5
1A
102
{ACAD_REACTORS
330
C
102
}
100
AcDbDictionary
281
1
  3
Model
350
482
  3
Layout1
350
483
  0
ACDBPLACEHOLDER
  5
F
102
{ACAD_REACTORS
330
E
102
}
  0
MLINESTYLE
  5
18
102
{ACAD_REACTORS
330
17
102
}
100
AcDbMlineStyle
  2
STANDARD
 70
0
  3

 62
256
 51
90.0
 52
90.0
 71
2
 49
0.5
 62
256
  6
BYLAYER
 49
-0.5
 62
256
  6
BYLAYER
  0
LAYOUT
  5
482
102
{ACAD_REACTORS
330
1A
102
}
100
AcDbPlotSettings
  1

  2
none_device
  4
ANSI_C_(22.00_x_17.00_Inches)
  6

 40
0.0
 41
0.0
 42
0.0
 43
0.0
 44
558.8
 45
431.8
 46
0.0
 47
0.0
 48
0.0
 49
0.0
140
0.0
141
0.0
142
1.0
143
1.0
 70
1024
 72
0
 73
0
 74
0
  7

 75
0
147
1.0
148
0.0
149
0.0
100
AcDbLayout
  1
Model
 70
0
 71
0
 10
0.0
 20
0.0
 11
22.0
 21
17.0
 12
0.0
 22
0.0
 32
0.0
 14
0.0
 24
0.0
 34
0.0
 15
0.0
 25
0.0
 35
0.0
146
0.0
 13
0.0
 23
0.0
 33
0.0
 16
1.0
 26
0.0
 36
0.0
 17
0.0
 27
1.0
 37
0.0
 76
0
330
202
345
0
346
0
  0
LAYOUT
  5
483
102
{ACAD_REACTORS
330
1A
102
}
100
AcDbPlotSettings
  1

  2
none_device
  4
ANSI_C_(22.00_x_17.00_Inches)
  6

 40
0.0
 41
0.0
 42
0.0
 43
0.0
 44
558.8
 45
431.8
 46
0.0
 47
0.0
 48
0.0
 49
0.0
140
0.0
141
0.0
142
1.0
143
1.0
 70
0
 72
0
 73
0
 74
0
  7

 75
0
147
1.0
148
0.0
149
0.0
100
AcDbLayout
  1
Layout1
 70
0
 71
1
 10
0.0
 20
0.0
 11
22.0
 21
17.0
 12
0.0
 22
0.0
 32
0.0
 14
0.0
 24
0.0
 34
0.0
 15
0.0
 25
0.0
 35
0.0
146
0.0
 13
0.0
 23
0.0
 33
0.0
 16
1.0
 26
0.0
 36
0.0
 17
0.0
 27
1.0
 37
0.0
 76
0
330
203
345
0
346
0
  0
ENDSEC
  0
EOF
